  0
SECTION
  2
HEADER
  9
$ACADVER
  1
AC1014
  9
$ACADMAINTVER
 70
     9
  9
$DWGCODEPAGE
  3
ANSI_1252
  9
$INSBASE
 10
0.0
 20
0.0
 30
0.0
  9
$EXTMIN
 10
-97.23539699123733
 20
-98.96982627104804
 30
-0.0000000100000247
  9
$EXTMAX
 10
97.23539699123733
 20
69.13129221897327
 30
0.0000000100000103
  9
$LIMMIN
 10
0.0
 20
0.0
  9
$LIMMAX
 10
12.0
 20
9.0
  9
$ORTHOMODE
 70
     0
  9
$REGENMODE
 70
     1
  9
$FILLMODE
 70
     1
  9
$QTEXTMODE
 70
     0
  9
$MIRRTEXT
 70
     1
  9
$DRAGMODE
 70
     2
  9
$LTSCALE
 40
1.0
  9
$OSMODE
 70
  2223
  9
$ATTMODE
 70
     1
  9
$TEXTSIZE
 40
0.2
  9
$TRACEWID
 40
0.05
  9
$TEXTSTYLE
  7
STANDARD
  9
$CLAYER
  8
0
  9
$CELTYPE
  6
BYLAYER
  9
$CECOLOR
 62
   256
  9
$CELTSCALE
 40
1.0
  9
$DELOBJ
 70
     1
  9
$DISPSILH
 70
     0
  9
$DIMSCALE
 40
1.0
  9
$DIMASZ
 40
0.18
  9
$DIMEXO
 40
0.0625
  9
$DIMDLI
 40
0.38
  9
$DIMRND
 40
0.0
  9
$DIMDLE
 40
0.0
  9
$DIMEXE
 40
0.18
  9
$DIMTP
 40
0.0
  9
$DIMTM
 40
0.0
  9
$DIMTXT
 40
0.18
  9
$DIMCEN
 40
0.09
  9
$DIMTSZ
 40
0.0
  9
$DIMTOL
 70
     0
  9
$DIMLIM
 70
     0
  9
$DIMTIH
 70
     1
  9
$DIMTOH
 70
     1
  9
$DIMSE1
 70
     0
  9
$DIMSE2
 70
     0
  9
$DIMTAD
 70
     0
  9
$DIMZIN
 70
     0
  9
$DIMBLK
  1

  9
$DIMASO
 70
     1
  9
$DIMSHO
 70
     1
  9
$DIMPOST
  1

  9
$DIMAPOST
  1

  9
$DIMALT
 70
     0
  9
$DIMALTD
 70
     2
  9
$DIMALTF
 40
25.4
  9
$DIMLFAC
 40
1.0
  9
$DIMTOFL
 70
     0
  9
$DIMTVP
 40
0.0
  9
$DIMTIX
 70
     0
  9
$DIMSOXD
 70
     0
  9
$DIMSAH
 70
     0
  9
$DIMBLK1
  1

  9
$DIMBLK2
  1

  9
$DIMSTYLE
  2
STANDARD
  9
$DIMCLRD
 70
     0
  9
$DIMCLRE
 70
     0
  9
$DIMCLRT
 70
     0
  9
$DIMTFAC
 40
1.0
  9
$DIMGAP
 40
0.09
  9
$DIMJUST
 70
     0
  9
$DIMSD1
 70
     0
  9
$DIMSD2
 70
     0
  9
$DIMTOLJ
 70
     1
  9
$DIMTZIN
 70
     0
  9
$DIMALTZ
 70
     0
  9
$DIMALTTZ
 70
     0
  9
$DIMFIT
 70
     3
  9
$DIMUPT
 70
     0
  9
$DIMUNIT
 70
     2
  9
$DIMDEC
 70
     4
  9
$DIMTDEC
 70
     4
  9
$DIMALTU
 70
     2
  9
$DIMALTTD
 70
     2
  9
$DIMTXSTY
  7
STANDARD
  9
$DIMAUNIT
 70
     0
  9
$LUNITS
 70
     2
  9
$LUPREC
 70
     4
  9
$SKETCHINC
 40
0.1
  9
$FILLETRAD
 40
0.5
  9
$AUNITS
 70
     0
  9
$AUPREC
 70
     0
  9
$MENU
  1
.
  9
$ELEVATION
 40
0.0
  9
$PELEVATION
 40
0.0
  9
$THICKNESS
 40
0.0
  9
$LIMCHECK
 70
     0
  9
$BLIPMODE
 70
     0
  9
$CHAMFERA
 40
0.5
  9
$CHAMFERB
 40
0.5
  9
$CHAMFERC
 40
1.0
  9
$CHAMFERD
 40
0.0
  9
$SKPOLY
 70
     0
  9
$TDCREATE
 40
2451762.579078703
  9
$TDUPDATE
 40
2453620.435065023
  9
$TDINDWG
 40
0.0007787037
  9
$TDUSRTIMER
 40
0.0007785880
  9
$USRTIMER
 70
     1
  9
$ANGBASE
 50
0.0
  9
$ANGDIR
 70
     0
  9
$PDMODE
 70
     0
  9
$PDSIZE
 40
0.0
  9
$PLINEWID
 40
0.0
  9
$COORDS
 70
     1
  9
$SPLFRAME
 70
     0
  9
$SPLINETYPE
 70
     6
  9
$SPLINESEGS
 70
     8
  9
$ATTDIA
 70
     0
  9
$ATTREQ
 70
     1
  9
$HANDLING
 70
 10241
  9
$HANDSEED
  5
212
  9
$SURFTAB1
 70
     6
  9
$SURFTAB2
 70
     6
  9
$SURFTYPE
 70
     6
  9
$SURFU
 70
     6
  9
$SURFV
 70
     6
  9
$UCSNAME
  2

  9
$UCSORG
 10
0.0
 20
0.0
 30
0.0
  9
$UCSXDIR
 10
1.0
 20
0.0
 30
0.0
  9
$UCSYDIR
 10
0.0
 20
1.0
 30
0.0
  9
$PUCSNAME
  2

  9
$PUCSORG
 10
0.0
 20
0.0
 30
0.0
  9
$PUCSXDIR
 10
1.0
 20
0.0
 30
0.0
  9
$PUCSYDIR
 10
0.0
 20
1.0
 30
0.0
  9
$USERI1
 70
     0
  9
$USERI2
 70
     0
  9
$USERI3
 70
     0
  9
$USERI4
 70
     0
  9
$USERI5
 70
     0
  9
$USERR1
 40
0.0
  9
$USERR2
 40
0.0
  9
$USERR3
 40
0.0
  9
$USERR4
 40
0.0
  9
$USERR5
 40
0.0
  9
$WORLDVIEW
 70
     1
  9
$SHADEDGE
 70
     3
  9
$SHADEDIF
 70
    70
  9
$TILEMODE
 70
     1
  9
$MAXACTVP
 70
    64
  9
$PINSBASE
 10
0.0
 20
0.0
 30
0.0
  9
$PLIMCHECK
 70
     0
  9
$PEXTMIN
 10
1.000000000000000E+20
 20
1.000000000000000E+20
 30
1.000000000000000E+20
  9
$PEXTMAX
 10
-1.000000000000000E+20
 20
-1.000000000000000E+20
 30
-1.000000000000000E+20
  9
$PLIMMIN
 10
0.0
 20
0.0
  9
$PLIMMAX
 10
12.0
 20
9.0
  9
$UNITMODE
 70
     0
  9
$VISRETAIN
 70
     1
  9
$PLINEGEN
 70
     0
  9
$PSLTSCALE
 70
     1
  9
$TREEDEPTH
 70
  3020
  9
$PICKSTYLE
 70
     1
  9
$CMLSTYLE
  2
STANDARD
  9
$CMLJUST
 70
     0
  9
$CMLSCALE
 40
1.0
  9
$PROXYGRAPHICS
 70
     1
  9
$MEASUREMENT
 70
     0
  0
ENDSEC
  0
SECTION
  2
CLASSES
  0
CLASS
  1
ACDBDICTIONARYWDFLT
  2
AcDbDictionaryWithDefault
  3
AutoCAD 2000
 90
        0
280
     0
281
     0
  0
CLASS
  1
ACDBPLACEHOLDER
  2
AcDbPlaceHolder
  3
AutoCAD 2000
 90
        0
280
     0
281
     0
  0
CLASS
  1
LAYOUT
  2
AcDbLayout
  3
AutoCAD 2000
 90
        0
280
     0
281
     0
  0
CLASS
  1
LONG_TRANSACTION
  2
AcDbLongTransaction
  3
AutoCAD 2000
 90
        0
280
     0
281
     0
  0
CLASS
  1
LWPOLYLINE
  2
AcDbPolyline
  3
AutoCAD 2000
 90
        0
280
     0
281
     1
  0
CLASS
  1
HATCH
  2
AcDbHatch
  3
AutoCAD 2000
 90
        0
280
     0
281
     1
  0
CLASS
  1
XRECORD
  2
AcDbXrecord
  3
AutoCAD 2000
 90
        0
280
     0
281
     0
  0
CLASS
  1
LONG_TRANSACTION
  2
AcDbLongTransaction
  3
AutoCAD 2000
 90
        0
280
     0
281
     0
  0
CLASS
  1
LWPOLYLINE
  2
AcDbPolyline
  3
AutoCAD 2000
 90
        0
280
     0
281
     1
  0
CLASS
  1
HATCH
  2
AcDbHatch
  3
AutoCAD 2000
 90
        0
280
     0
281
     1
  0
CLASS
  1
XRECORD
  2
AcDbXrecord
  3
AutoCAD 2000
 90
        0
280
     0
281
     0
  0
CLASS
  1
LONG_TRANSACTION
  2
AcDbLongTransaction
  3
AutoCAD 2000
 90
        0
280
     0
281
     0
  0
CLASS
  1
LWPOLYLINE
  2
AcDbPolyline
  3
AutoCAD 2000
 90
        0
280
     0
281
     1
  0
CLASS
  1
HATCH
  2
AcDbHatch
  3
AutoCAD 2000
 90
        0
280
     0
281
     1
  0
CLASS
  1
XRECORD
  2
AcDbXrecord
  3
AutoCAD 2000
 90
        0
280
     0
281
     0
  0
ENDSEC
  0
SECTION
  2
TABLES
  0
TABLE
  2
VPORT
  5
8
330
0
100
AcDbSymbolTable
 70
     2
  0
VPORT
  5
1EF
330
8
100
AcDbSymbolTableRecord
100
AcDbViewportTableRecord
  2
*ACTIVE
 70
     0
 10
0.0
 20
0.0
 11
1.0
 21
1.0
 12
-0.100084249435838
 22
3.715283991936729
 13
0.0
 23
0.0
 14
0.5
 24
0.5
 15
0.5
 25
0.5
 16
0.0
 26
0.0
 36
1.0
 17
0.0
 27
0.0
 37
0.0
 40
230.9962809962829
 41
1.525316455696202
 42
50.0
 43
0.0
 44
0.0
 50
0.0
 51
0.0
 71
     0
 72
   100
 73
     1
 74
     3
 75
     0
 76
     0
 77
     0
 78
     0
  0
ENDTAB
  0
TABLE
  2
LTYPE
  5
5
330
0
100
AcDbSymbolTable
 70
     1
  0
LTYPE
  5
14
330
5
100
AcDbSymbolTableRecord
100
AcDbLinetypeTableRecord
  2
BYBLOCK
 70
     0
  3

 72
    65
 73
     0
 40
0.0
  0
LTYPE
  5
15
330
5
100
AcDbSymbolTableRecord
100
AcDbLinetypeTableRecord
  2
BYLAYER
 70
     0
  3

 72
    65
 73
     0
 40
0.0
  0
LTYPE
  5
16
330
5
100
AcDbSymbolTableRecord
100
AcDbLinetypeTableRecord
  2
CONTINUOUS
 70
     0
  3
Solid line
 72
    65
 73
     0
 40
0.0
  0
ENDTAB
  0
TABLE
  2
LAYER
  5
2
330
0
100
AcDbSymbolTable
 70
     2
  0
LAYER
  5
10
330
2
100
AcDbSymbolTableRecord
100
AcDbLayerTableRecord
  2
0
 70
     0
 62
     7
  6
CONTINUOUS
  0
ENDTAB
  0
TABLE
  2
STYLE
  5
3
330
0
100
AcDbSymbolTable
 70
     1
  0
STYLE
  5
11
330
3
100
AcDbSymbolTableRecord
100
AcDbTextStyleTableRecord
  2
STANDARD
 70
     0
 40
0.0
 41
1.0
 50
0.0
 71
     0
 42
0.2
  3
txt
  4

  0
ENDTAB
  0
TABLE
  2
VIEW
  5
6
330
0
100
AcDbSymbolTable
 70
     0
  0
ENDTAB
  0
TABLE
  2
UCS
  5
7
330
0
100
AcDbSymbolTable
 70
     0
  0
ENDTAB
  0
TABLE
  2
APPID
  5
9
330
0
100
AcDbSymbolTable
 70
     1
  0
APPID
  5
12
330
9
100
AcDbSymbolTableRecord
100
AcDbRegAppTableRecord
  2
ACAD
 70
     0
  0
ENDTAB
  0
TABLE
  2
DIMSTYLE
  5
A
330
0
100
AcDbSymbolTable
 70
     1
  0
DIMSTYLE
105
27
330
A
100
AcDbSymbolTableRecord
100
AcDbDimStyleTableRecord
  2
STANDARD
 70
     0
  3

  4

  5

  6

  7

 40
1.0
 41
0.18
 42
0.0625
 43
0.38
 44
0.18
 45
0.0
 46
0.0
 47
0.0
 48
0.0
140
0.18
141
0.09
142
0.0
143
25.4
144
1.0
145
0.0
146
1.0
147
0.09
 71
     0
 72
     0
 73
     1
 74
     1
 75
     0
 76
     0
 77
     0
 78
     0
170
     0
171
     2
172
     0
173
     0
174
     0
175
     0
176
     0
177
     0
178
     0
270
     2
271
     4
272
     4
273
     2
274
     2
340
11
275
     0
280
     0
281
     0
282
     0
283
     1
284
     0
285
     0
286
     0
287
     3
288
     0
  0
ENDTAB
  0
TABLE
  2
BLOCK_RECORD
  5
1
330
0
100
AcDbSymbolTable
 70
     8
  0
BLOCK_RECORD
  5
1F
102
{ACAD_XDICTIONARY
360
111
102
}
330
1
100
AcDbSymbolTableRecord
100
AcDbBlockTableRecord
  2
*MODEL_SPACE
  0
BLOCK_RECORD
  5
1B
102
{ACAD_XDICTIONARY
360
10F
102
}
330
1
100
AcDbSymbolTableRecord
100
AcDbBlockTableRecord
  2
*PAPER_SPACE
  0
ENDTAB
  0
ENDSEC
  0
SECTION
  2
BLOCKS
  0
BLOCK
  5
20
330
1F
100
AcDbEntity
  8
0
100
AcDbBlockBegin
  2
*MODEL_SPACE
 70
     0
 10
0.0
 20
0.0
 30
0.0
  3
*MODEL_SPACE
  1

  0
ENDBLK
  5
21
330
1F
100
AcDbEntity
  8
0
100
AcDbBlockEnd
  0
BLOCK
  5
1C
330
1B
100
AcDbEntity
 67
     1
  8
0
100
AcDbBlockBegin
  2
*PAPER_SPACE
 70
     0
 10
0.0
 20
0.0
 30
0.0
  3
*PAPER_SPACE
  1

  0
ENDBLK
  5
1D
330
1B
100
AcDbEntity
 67
     1
  8
0
100
AcDbBlockEnd
  0
ENDSEC
  0
SECTION
  2
ENTITIES
  0
ARC
  5
11E
330
1F
100
AcDbEntity
  8
0
100
AcDbCircle
 10
-17.83620276738276
 20
-19.12623917085287
 30
-0.000000000000006
 40
49.25
100
AcDbArc
 50
118.7105518319444
 51
326.1406573882916
  0
ARC
  5
11F
330
1F
100
AcDbEntity
  8
0
100
AcDbCircle
 10
-40.53439535117631
 20
22.31473757232996
 30
-0.0000000000000088
 40
2.0
100
AcDbArc
 50
4.999999999999795
 51
118.7105518319441
  0
ARC
  5
120
330
1F
100
AcDbEntity
  8
0
100
AcDbCircle
 10
20.15495659751471
 20
-44.6161255988259
 30
-0.0000000000000014
 40
3.5
100
AcDbArc
 50
326.1406573882916
 51
24.49999999999822
  0
LINE
  5
121
330
1F
100
AcDbEntity
  8
0
100
AcDbLine
 10
-38.54200595499285
 20
22.48904905782523
 30
-0.0000000000000086
 11
-37.534243139029
 21
10.97026736258047
 31
-0.0000000000000084
210
0.0
220
1.0
230
0.0
  0
LINE
  5
122
330
1F
100
AcDbEntity
  8
0
100
AcDbLine
 10
17.87212069530212
 20
-31.16692584081764
 30
-0.0000000000000017
 11
23.33982104558264
 21
-43.16469924952918
 31
-0.000000000000001
210
0.0
220
1.0
230
0.0
  0
ARC
  5
123
330
1F
100
AcDbEntity
  8
0
100
AcDbCircle
 10
-41.0209245823501
 20
10.66522226296363
 30
-0.0000000000000089
 40
3.5
100
AcDbArc
 50
307.8912593920478
 51
5.000000000000608
  0
ARC
  5
124
330
1F
100
AcDbEntity
  8
0
100
AcDbCircle
 10
16.05219815354903
 20
-31.99631232613012
 30
-0.0000000000000019
 40
2.0
100
AcDbArc
 50
24.5000000000002
 51
159.2043185516346
  0
ARC
  5
125
330
1F
100
AcDbEntity
  8
0
100
AcDbCircle
 10
-17.83620276738276
 20
-19.12623917085287
 30
-0.000000000000006
 40
34.25
100
AcDbArc
 50
127.8912593920481
 51
339.2043185516373
  0
LINE
  5
126
330
1F
100
AcDbEntity
  8
0
100
AcDbLine
 10
65.70169730015685
 20
-56.51062699723397
 30
0.0000000000000042
 11
41.53846953690259
 21
-68.55796795119856
 31
0.0000000000000012
210
0.0
220
1.0
230
0.0
  0
ARC
  5
127
330
1F
100
AcDbEntity
  8
0
100
AcDbCircle
 10
40.42297500412807
 20
-66.3206320471935
 30
0.0000000000000011
 40
2.5
100
AcDbArc
 50
206.4999999999996
 51
296.4999999999997
  0
ARC
  5
128
330
1F
100
AcDbEntity
  8
0
100
AcDbCircle
 10
64.58620276738276
 20
-54.27329109322867
 30
0.0000000000000041
 40
2.5
100
AcDbArc
 50
296.4999999999887
 51
26.49999999999987
  0
LINE
  5
129
330
1F
100
AcDbEntity
  8
0
100
AcDbLine
 10
38.18563910012302
 20
-67.43612657996803
 30
0.0000000000000008
 11
17.80748539487517
 21
-26.56387342003195
 31
-0.0000000000000017
210
0.0
220
1.0
230
0.0
  0
LINE
  5
12A
330
1F
100
AcDbEntity
  8
0
100
AcDbLine
 10
62.36156054028974
 20
-44.2084529444339
 30
0.0000000000000038
 11
66.82353867138782
 21
-53.15779656045415
 31
0.0000000000000043
210
0.0
220
1.0
230
0.0
  0
ARC
  5
12B
330
1F
100
AcDbEntity
  8
0
100
AcDbCircle
 10
15.5701494908701
 20
-27.67936795280647
 30
-0.0000000000000019
 40
2.5
100
AcDbArc
 50
26.49999999999987
 51
90.00000000000019
  0
ARC
  5
12C
330
1F
100
AcDbEntity
  8
0
100
AcDbCircle
 10
60.12422463628467
 20
-45.32394747720842
 30
0.0000000000000035
 40
2.5
100
AcDbArc
 50
26.49999999999987
 51
116.4999999999998
  0
LINE
  5
12D
330
1F
100
AcDbEntity
  8
0
100
AcDbLine
 10
15.5701494908701
 20
-25.17936795280647
 30
-0.0000000000000019
 11
-28.80969398150723
 21
-25.17936795280647
 31
-0.0000000000000074
210
0.0
220
1.0
230
0.0
  0
LINE
  5
12E
330
1F
100
AcDbEntity
  8
0
100
AcDbLine
 10
47.37458340268354
 20
-48.88718314363099
 30
0.000000000000002
 11
59.00873010351015
 21
-43.08661157320336
 31
0.0000000000000034
210
0.0
220
1.0
230
0.0
  0
ARC
  5
12F
330
1F
100
AcDbEntity
  8
0
100
AcDbCircle
 10
-28.80969398150723
 20
-22.67936795280646
 30
-0.0000000000000074
 40
2.5
100
AcDbArc
 50
184.9999999999998
 51
270.0
  0
ARC
  5
130
330
1F
100
AcDbEntity
  8
0
100
AcDbCircle
 10
46.70528668301909
 20
-47.54478160122782
 30
0.0000000000000019
 40
1.5
100
AcDbArc
 50
206.4999999999996
 51
296.4999999999887
  0
LINE
  5
131
330
1F
100
AcDbEntity
  8
0
100
AcDbLine
 10
-31.30018072673657
 20
-22.89725730967562
 30
-0.0000000000000077
 11
-37.24144062531962
 21
45.01165407542703
 31
-0.0000000000000084
210
0.0
220
1.0
230
0.0
  0
LINE
  5
132
330
1F
100
AcDbEntity
  8
0
100
AcDbLine
 10
27.36588263054049
 20
-12.11767560692213
 30
-0.0000000000000005
 11
45.36288514061607
 21
-48.21407832089255
 31
0.0000000000000017
210
0.0
220
1.0
230
0.0
  0
ARC
  5
133
330
1F
100
AcDbEntity
  8
0
100
AcDbCircle
 10
24.23361236493341
 20
-13.67936795280647
 30
-0.0000000000000009
 40
3.5
100
AcDbArc
 50
26.49999999999987
 51
90.00000000000019
  0
LINE
  5
134
330
1F
100
AcDbEntity
  8
0
100
AcDbLine
 10
-15.98105754526327
 20
-10.17936795280647
 30
-0.0000000000000058
 11
24.23361236493341
 21
-10.17936795280647
 31
-0.0000000000000009
210
0.0
220
1.0
230
0.0
  0
ARC
  5
135
330
1F
100
AcDbEntity
  8
0
100
AcDbCircle
 10
-15.98105754526327
 20
-8.679367952806472
 30
-0.0000000000000058
 40
1.5
100
AcDbArc
 50
185.0000000000006
 51
270.0000000000001
  0
LINE
  5
136
330
1F
100
AcDbEntity
  8
0
100
AcDbLine
 10
-18.26274756413422
 20
0.1898984330720168
 30
-0.0000000000000061
 11
-17.47534959240089
 21
-8.810101566927961
 31
-0.000000000000006
210
0.0
220
1.0
230
0.0
  0
ARC
  5
137
330
1F
100
AcDbEntity
  8
0
100
AcDbCircle
 10
-16.76845551699661
 20
0.3206320471935271
 30
-0.0000000000000059
 40
1.5
100
AcDbArc
 50
89.99999999999978
 51
185.0000000000006
  0
LINE
  5
138
330
1F
100
AcDbEntity
  8
0
100
AcDbLine
 10
10.39947808344922
 20
1.820632047193526
 30
-0.0000000000000026
 11
-16.76845551699661
 21
1.820632047193526
 31
-0.0000000000000059
210
0.0
220
1.0
230
0.0
  0
ARC
  5
139
330
1F
100
AcDbEntity
  8
0
100
AcDbCircle
 10
10.39947808344922
 20
4.320632047193526
 30
-0.0000000000000026
 40
2.5
100
AcDbArc
 50
269.9999999999997
 51
0.0
  0
LINE
  5
13A
330
1F
100
AcDbEntity
  8
0
100
AcDbLine
 10
12.89947808344921
 20
14.32063204719352
 30
-0.0000000000000023
 11
12.89947808344923
 21
4.320632047193526
 31
-0.0000000000000023
210
0.0
220
1.0
230
0.0
  0
ARC
  5
13B
330
1F
100
AcDbEntity
  8
0
100
AcDbCircle
 10
10.39947808344921
 20
14.32063204719352
 30
-0.0000000000000026
 40
2.5
100
AcDbArc
 50
0.0
 51
90.00000000000019
  0
LINE
  5
13C
330
1F
100
AcDbEntity
  8
0
100
AcDbLine
 10
-18.34325146046324
 20
16.82063204719352
 30
-0.0000000000000061
 11
10.39947808344921
 21
16.82063204719352
 31
-0.0000000000000026
210
0.0
220
1.0
230
0.0
  0
ARC
  5
13D
330
1F
100
AcDbEntity
  8
0
100
AcDbCircle
 10
-18.34325146046324
 20
18.3206320471935
 30
-0.0000000000000061
 40
1.5
100
AcDbArc
 50
185.0000000000006
 51
270.0000000000001
  0
LINE
  5
13E
330
1F
100
AcDbEntity
  8
0
100
AcDbLine
 10
-21.67713355808293
 20
39.21650892572171
 30
-0.0000000000000065
 11
-19.83754350760083
 21
18.18989843307204
 31
-0.0000000000000063
210
0.0
220
1.0
230
0.0
  0
SPLINE
  5
13F
330
1F
100
AcDbEntity
  8
0
100
AcDbSpline
210
0.0000000000007332
220
0.0000000000009687
230
1.0
 70
     8
 71
     3
 72
    22
 73
    18
 74
     0
 42
0.0000000001
 43
0.0000000001
 40
0.0
 40
0.0
 40
0.0
 40
0.0
 40
0.3748587064696873
 40
0.3748587064696873
 40
0.7497174129393747
 40
0.7497174129393747
 40
1.096054045231412
 40
1.096054045231412
 40
1.442390677523451
 40
1.442390677523451
 40
1.752239547972398
 40
1.752239547972398
 40
2.062088418421345
 40
2.062088418421345
 40
2.3459314808222
 40
2.3459314808222
 40
2.629774543223056
 40
2.629774543223056
 40
2.629774543223056
 40
2.629774543223056
 10
-23.29012996569316
 20
40.44257236036782
 30
-0.0000000000000067
 10
-23.19254017708805
 20
40.36453736233902
 30
-0.0000000000000067
 10
-23.08516456236906
 20
40.27950073038752
 30
-0.0000000000000067
 10
-22.87202508138226
 20
40.1125348663944
 30
-0.0000000000000066
 10
-22.76627436823511
 20
40.03060640369439
 30
-0.0000000000000066
 10
-22.58393732553169
 20
39.8905384310858
 30
-0.0000000000000066
 10
-22.48970543169244
 20
39.81875013468921
 30
-0.0000000000000066
 10
-22.30900904853315
 20
39.6822573937416
 30
-0.0000000000000066
 10
-22.22260659336647
 20
39.61758143800432
 30
-0.0000000000000066
 10
-22.08203224403304
 20
39.51298661250003
 30
-0.0000000000000066
 10
-22.01375107094961
 20
39.46250066681881
 30
-0.0000000000000065
 10
-21.8925380790336
 20
39.37334173594662
 30
-0.0000000000000065
 10
-21.8397288430178
 20
39.33473770433931
 30
-0.0000000000000065
 10
-21.76270518922394
 20
39.27858352856002
 30
-0.0000000000000065
 10
-21.7302479364917
 20
39.25501113279172
 30
-0.0000000000000065
 10
-21.68741804821007
 20
39.22394738269959
 30
-0.0000000000000065
 10
-21.67713355808293
 20
39.21650892572171
 30
-0.0000000000000065
 10
-21.67713355808293
 20
39.21650892572171
 30
-0.0000000000000065
  0
SPLINE
  5
140
330
1F
100
AcDbEntity
  8
0
100
AcDbSpline
210
-0.0000000000033164
220
0.0000000000087039
230
-1.0
 70
     8
 71
     3
 72
    24
 73
    20
 74
     0
 42
0.0000000001
 43
0.0000000001
 40
2.265095951469935
 40
2.265095951469935
 40
2.265095951469935
 40
2.265095951469935
 40
2.532274056525956
 40
2.532274056525956
 40
2.799452161581981
 40
2.799452161581981
 40
3.023563531987662
 40
3.023563531987662
 40
3.242389288535997
 40
3.242389288535997
 40
3.461215045084336
 40
3.461215045084336
 40
3.627454780123064
 40
3.627454780123064
 40
3.793694515161794
 40
3.793694515161794
 40
4.16194320905083
 40
4.16194320905083
 40
4.53019190293987
 40
4.53019190293987
 40
4.53019190293987
 40
4.53019190293987
 10
-37.24144062531959
 20
45.01165407542703
 30
-0.0000000000000084
 10
-37.24144062531959
 20
45.01165407542703
 30
-0.0000000000000084
 10
-37.23321648223763
 20
45.01472461211711
 30
-0.0000000000000084
 10
-37.19781998514149
 20
45.02795580274031
 30
-0.0000000000000084
 10
-37.17065484479238
 20
45.0381155587346
 30
-0.0000000000000084
 10
-37.1123328158543
 20
45.05996499547942
 30
-0.0000000000000084
 10
-37.07420923046885
 20
45.07426296310589
 30
-0.0000000000000084
 10
-37.00175278587429
 20
45.10148855164921
 30
-0.0000000000000084
 10
-36.95800065197542
 20
45.11795042378401
 30
-0.0000000000000084
 10
-36.86099982830404
 20
45.15453721878133
 30
-0.0000000000000084
 10
-36.80775990893875
 20
45.17466143942792
 30
-0.0000000000000084
 10
-36.71683512806818
 20
45.20911473028512
 30
-0.0000000000000083
 10
-36.67182006493399
 20
45.22619984927159
 30
-0.0000000000000083
 10
-36.57785962773155
 20
45.26194569521911
 30
-0.0000000000000083
 10
-36.52891725261557
 20
45.28060639919718
 30
-0.0000000000000083
 10
-36.38161061026859
 20
45.33689185159221
 30
-0.0000000000000083
 10
-36.26468661975139
 20
45.3817633880994
 30
-0.0000000000000083
 10
-36.02323858369006
 20
45.47500864687703
 30
-0.0000000000000083
 10
-35.89872208529063
 20
45.52338649109961
 30
-0.0000000000000082
 10
-35.78438998600522
 20
45.56805892879632
 30
-0.0000000000000082
  0
ARC
  5
141
330
1F
100
AcDbEntity
  8
0
100
AcDbCircle
 10
-25.10052191655077
 20
53.82063204719351
 30
-0.0000000000000069
 40
15.0
100
AcDbArc
 50
283.1926449795507
 51
215.9631775887362
  0
LINE
  5
143
330
1F
100
AcDbEntity
  8
0
100
AcDbLine
 10
-93.92068388833587
 20
-46.56617155506427
 30
-0.0000000000000005
 11
-93.92068388833587
 21
-68.37623917085287
 31
-0.0000000000000005
210
0.0
220
1.0
230
0.0
  0
LINE
  5
144
330
1F
100
AcDbEntity
  8
0
100
AcDbLine
 10
-93.92068388833587
 20
24.31473757232997
 30
-0.0000000000000005
 11
-93.92068388833587
 21
22.48904905782525
 31
-0.0000000000000005
210
0.0
220
1.0
230
0.0
  0
LINE
  5
145
330
1F
100
AcDbEntity
  8
0
100
AcDbLine
 10
-93.92068388833587
 20
22.48904905782525
 30
-0.0000000000000005
 11
-93.92068388833587
 21
10.97026736258048
 31
-0.0000000000000005
210
0.0
220
1.0
230
0.0
  0
LINE
  5
146
330
1F
100
AcDbEntity
  8
0
100
AcDbLine
 10
-93.92068388833587
 20
10.97026736258048
 30
-0.0000000000000005
 11
-93.92068388833587
 21
7.903100010821702
 31
-0.0000000000000005
210
0.0
220
1.0
230
0.0
  0
LINE
  5
147
330
1F
100
AcDbEntity
  8
0
100
AcDbLine
 10
-93.92068388833587
 20
-29.99631232613012
 30
-0.0000000000000005
 11
-93.92068388833587
 21
7.903100010821731
 31
-0.0000000000000005
210
0.0
220
1.0
230
0.0
  0
LINE
  5
148
330
1F
100
AcDbEntity
  8
0
100
AcDbLine
 10
-93.92068388833587
 20
-29.9963123261301
 30
-0.0000000000000005
 11
-93.92068388833587
 21
-31.16692584081762
 31
-0.0000000000000005
210
0.0
220
1.0
230
0.0
  0
LINE
  5
149
330
1F
100
AcDbEntity
  8
0
100
AcDbLine
 10
-93.92068388833587
 20
-31.16692584081762
 30
-0.0000000000000005
 11
-93.92068388833587
 21
-43.16469924952917
 31
-0.0000000000000005
210
0.0
220
1.0
230
0.0
  0
LINE
  5
14A
330
1F
100
AcDbEntity
  8
0
100
AcDbLine
 10
-93.92068388833587
 20
-43.16469924952917
 30
-0.0000000000000005
 11
-93.92068388833587
 21
-46.56617155506429
 31
-0.0000000000000005
210
0.0
220
1.0
230
0.0
  0
LINE
  5
14B
330
1F
100
AcDbEntity
  8
0
100
AcDbLine
 10
-93.9247368194575
 20
4.320632047193568
 30
-0.0000000000000005
 11
-93.9247368194575
 21
1.82063204719354
 31
-0.0000000000000005
210
0.0
220
1.0
230
0.0
  0
LINE
  5
14C
330
1F
100
AcDbEntity
  8
0
100
AcDbLine
 10
-93.9247368194575
 20
1.82063204719354
 30
-0.0000000000000005
 11
-95.42473681945748
 21
1.82063204719354
 31
-0.0000000000000006
210
0.0
220
1.0
230
0.0
  0
LINE
  5
14D
330
1F
100
AcDbEntity
  8
0
100
AcDbLine
 10
-93.9247368194575
 20
0.189898433072031
 30
-0.0000000000000005
 11
-93.9247368194575
 21
1.82063204719354
 31
-0.0000000000000005
210
0.0
220
1.0
230
0.0
  0
LINE
  5
14E
330
1F
100
AcDbEntity
  8
0
100
AcDbLine
 10
-93.9247368194575
 20
-8.810101566927947
 30
-0.0000000000000005
 11
-93.9247368194575
 21
0.189898433072031
 31
-0.0000000000000005
210
0.0
220
1.0
230
0.0
  0
LINE
  5
14F
330
1F
100
AcDbEntity
  8
0
100
AcDbLine
 10
-93.9247368194575
 20
-10.17936795280645
 30
-0.0000000000000005
 11
-93.9247368194575
 21
-8.810101566927947
 31
-0.0000000000000005
210
0.0
220
1.0
230
0.0
  0
LINE
  5
150
330
1F
100
AcDbEntity
  8
0
100
AcDbLine
 10
-93.9247368194575
 20
-10.17936795280645
 30
-0.0000000000000005
 11
-95.42473681945748
 21
-10.17936795280645
 31
-0.0000000000000006
210
0.0
220
1.0
230
0.0
  0
LINE
  5
151
330
1F
100
AcDbEntity
  8
0
100
AcDbLine
 10
-93.9247368194575
 20
-10.17936795280645
 30
-0.0000000000000005
 11
-93.9247368194575
 21
-12.11767560692211
 31
-0.0000000000000005
210
0.0
220
1.0
230
0.0
  0
LINE
  5
152
330
1F
100
AcDbEntity
  8
0
100
AcDbLine
 10
-93.9247368194575
 20
-12.11767560692211
 30
-0.0000000000000005
 11
-93.9247368194575
 21
-42.82394747720839
 31
-0.0000000000000005
210
0.0
220
1.0
230
0.0
  0
LINE
  5
153
330
1F
100
AcDbEntity
  8
0
100
AcDbLine
 10
-93.9247368194575
 20
-42.82394747720839
 30
-0.0000000000000005
 11
-93.9247368194575
 21
-44.20845294443387
 31
-0.0000000000000005
210
0.0
220
1.0
230
0.0
  0
LINE
  5
154
330
1F
100
AcDbEntity
  8
0
100
AcDbLine
 10
-93.9247368194575
 20
-44.20845294443387
 30
-0.0000000000000005
 11
-93.9247368194575
 21
-53.15779656045414
 31
-0.0000000000000005
210
0.0
220
1.0
230
0.0
  0
LINE
  5
155
330
1F
100
AcDbEntity
  8
0
100
AcDbLine
 10
-93.9247368194575
 20
-53.15779656045414
 30
-0.0000000000000005
 11
-93.9247368194575
 21
-56.51062699723397
 31
-0.0000000000000005
210
0.0
220
1.0
230
0.0
  0
LINE
  5
156
330
1F
100
AcDbEntity
  8
0
100
AcDbLine
 10
-93.9247368194575
 20
-56.51062699723396
 30
-0.0000000000000005
 11
-93.9247368194575
 21
-68.55796795119855
 31
-0.0000000000000005
210
0.0
220
1.0
230
0.0
  0
LINE
  5
157
330
1F
100
AcDbEntity
  8
0
100
AcDbLine
 10
-93.9247368194575
 20
-68.55796795119855
 30
-0.0000000000000005
 11
-93.9247368194575
 21
-68.82063204719348
 31
-0.0000000000000005
210
0.0
220
1.0
230
0.0
  0
LINE
  5
158
330
1F
100
AcDbEntity
  8
0
100
AcDbLine
 10
-93.9247368194575
 20
68.82063204719353
 30
-0.0000000000000005
 11
-93.9247368194575
 21
39.21650892572163
 31
-0.0000000000000005
210
0.0
220
1.0
230
0.0
  0
LINE
  5
159
330
1F
100
AcDbEntity
  8
0
100
AcDbLine
 10
-93.9247368194575
 20
39.21650892572172
 30
-0.0000000000000005
 11
-95.42473681945748
 21
39.21650892572172
 31
-0.0000000000000006
210
0.0
220
1.0
230
0.0
  0
LINE
  5
15A
330
1F
100
AcDbEntity
  8
0
100
AcDbLine
 10
-93.9247368194575
 20
18.18989843307204
 30
-0.0000000000000005
 11
-93.9247368194575
 21
39.21650892572172
 31
-0.0000000000000005
210
0.0
220
1.0
230
0.0
  0
LINE
  5
15B
330
1F
100
AcDbEntity
  8
0
100
AcDbLine
 10
-93.9247368194575
 20
16.82063204719353
 30
-0.0000000000000005
 11
-93.9247368194575
 21
18.18989843307204
 31
-0.0000000000000005
210
0.0
220
1.0
230
0.0
  0
LINE
  5
15C
330
1F
100
AcDbEntity
  8
0
100
AcDbLine
 10
-93.9247368194575
 20
16.82063204719353
 30
-0.0000000000000005
 11
-95.42473681945748
 21
16.82063204719353
 31
-0.0000000000000006
210
0.0
220
1.0
230
0.0
  0
LINE
  5
15D
330
1F
100
AcDbEntity
  8
0
100
AcDbLine
 10
-93.9247368194575
 20
16.82063204719353
 30
-0.0000000000000005
 11
-93.9247368194575
 21
14.32063204719353
 31
-0.0000000000000005
210
0.0
220
1.0
230
0.0
  0
LINE
  5
15E
330
1F
100
AcDbEntity
  8
0
100
AcDbLine
 10
-93.9247368194575
 20
4.320632047193541
 30
-0.0000000000000005
 11
-93.9247368194575
 21
14.32063204719353
 31
-0.0000000000000005
210
0.0
220
1.0
230
0.0
  0
ARC
  5
15F
330
1F
100
AcDbEntity
  8
0
100
AcDbCircle
 10
-95.42473681945748
 20
-11.67936795280644
 30
-0.0000000000000006
 40
1.5
100
AcDbArc
 50
90.0
 51
180.0
  0
ARC
  5
160
330
1F
100
AcDbEntity
  8
0
100
AcDbCircle
 10
-95.42473681945748
 20
3.32063204719354
 30
-0.0000000000000006
 40
1.5
100
AcDbArc
 50
180.0
 51
270.0
  0
ARC
  5
161
330
1F
100
AcDbEntity
  8
0
100
AcDbCircle
 10
-95.42473681945748
 20
15.32063204719354
 30
-0.0000000000000006
 40
1.5
100
AcDbArc
 50
90.0
 51
180.0
  0
LINE
  5
162
330
1F
100
AcDbEntity
  8
0
100
AcDbLine
 10
-96.92473681945749
 20
18.05916481895055
 30
-0.0000000000000007
 11
-96.92473681945749
 21
40.44257236036782
 31
-0.0000000000000007
210
0.0
220
1.0
230
0.0
  0
LINE
  5
163
330
1F
100
AcDbEntity
  8
0
100
AcDbLine
 10
-96.92473681945749
 20
15.32063204719354
 30
-0.0000000000000007
 11
-96.92473681945749
 21
18.05916481895055
 31
-0.0000000000000007
210
0.0
220
1.0
230
0.0
  0
LINE
  5
164
330
1F
100
AcDbEntity
  8
0
100
AcDbLine
 10
-96.92473681945749
 20
14.32063204719353
 30
-0.0000000000000007
 11
-96.92473681945749
 21
15.32063204719354
 31
-0.0000000000000007
210
0.0
220
1.0
230
0.0
  0
LINE
  5
165
330
1F
100
AcDbEntity
  8
0
100
AcDbLine
 10
-96.92473681945749
 20
4.320632047193541
 30
-0.0000000000000007
 11
-96.92473681945749
 21
14.32063204719353
 31
-0.0000000000000007
210
0.0
220
1.0
230
0.0
  0
LINE
  5
166
330
1F
100
AcDbEntity
  8
0
100
AcDbLine
 10
-96.92473681945749
 20
3.32063204719354
 30
-0.0000000000000007
 11
-96.92473681945749
 21
4.320632047193541
 31
-0.0000000000000007
210
0.0
220
1.0
230
0.0
  0
LINE
  5
167
330
1F
100
AcDbEntity
  8
0
100
AcDbLine
 10
-96.92473681945749
 20
0.0591648189505634
 30
-0.0000000000000007
 11
-96.92473681945749
 21
3.32063204719354
 31
-0.0000000000000007
210
0.0
220
1.0
230
0.0
  0
LINE
  5
168
330
1F
100
AcDbEntity
  8
0
100
AcDbLine
 10
-96.92473681945749
 20
-8.940835181049443
 30
-0.0000000000000007
 11
-96.92473681945749
 21
0.0591648189505634
 31
-0.0000000000000007
210
0.0
220
1.0
230
0.0
  0
LINE
  5
169
330
1F
100
AcDbEntity
  8
0
100
AcDbLine
 10
-96.92473681945749
 20
-11.67936795280644
 30
-0.0000000000000007
 11
-96.92473681945749
 21
-8.940835181049443
 31
-0.0000000000000007
210
0.0
220
1.0
230
0.0
  0
LINE
  5
16A
330
1F
100
AcDbEntity
  8
0
100
AcDbLine
 10
-96.92473681945749
 20
-12.78697232658683
 30
-0.0000000000000007
 11
-96.92473681945749
 21
-11.67936795280644
 31
-0.0000000000000007
210
0.0
220
1.0
230
0.0
  0
LINE
  5
16B
330
1F
100
AcDbEntity
  8
0
100
AcDbLine
 10
-96.92473681945749
 20
-44.32394747720842
 30
-0.0000000000000007
 11
-96.92473681945749
 21
-12.78697232658683
 31
-0.0000000000000007
210
0.0
220
1.0
230
0.0
  0
LINE
  5
16C
330
1F
100
AcDbEntity
  8
0
100
AcDbLine
 10
-96.92473681945749
 20
-44.87774966409861
 30
-0.0000000000000007
 11
-96.92473681945749
 21
-44.32394747720841
 31
-0.0000000000000007
210
0.0
220
1.0
230
0.0
  0
LINE
  5
16D
330
1F
100
AcDbEntity
  8
0
100
AcDbLine
 10
-96.92473681945749
 20
-53.82709328011886
 30
-0.0000000000000007
 11
-96.92473681945749
 21
-44.87774966409861
 31
-0.0000000000000007
210
0.0
220
1.0
230
0.0
  0
LINE
  5
16E
330
1F
100
AcDbEntity
  8
0
100
AcDbLine
 10
-96.92473681945749
 20
-55.16822545483091
 30
-0.0000000000000007
 11
-96.92473681945749
 21
-53.82709328011884
 31
-0.0000000000000007
210
0.0
220
1.0
230
0.0
  0
LINE
  5
16F
330
1F
100
AcDbEntity
  8
0
100
AcDbLine
 10
-96.92473681945749
 20
-67.21556640879552
 30
-0.0000000000000007
 11
-96.92473681945749
 21
-55.16822545483091
 31
-0.0000000000000007
210
0.0
220
1.0
230
0.0
  0
LINE
  5
170
330
1F
100
AcDbEntity
  8
0
100
AcDbLine
 10
-96.92473681945749
 20
-67.32063204719349
 30
-0.0000000000000007
 11
-96.92473681945749
 21
-67.21556640879552
 31
-0.0000000000000007
210
0.0
220
1.0
230
0.0
  0
SPLINE
  5
171
330
1F
100
AcDbEntity
  8
0
100
AcDbSpline
210
0.0
220
0.0
230
1.0
 70
     8
 71
     3
 72
    22
 73
    18
 74
     0
 42
0.0000000001
 43
0.0000000001
 40
0.0
 40
0.0
 40
0.0
 40
0.0
 40
0.3748587064696873
 40
0.3748587064696873
 40
0.7497174129393747
 40
0.7497174129393747
 40
1.096054045231412
 40
1.096054045231412
 40
1.442390677523451
 40
1.442390677523451
 40
1.752239547972398
 40
1.752239547972398
 40
2.062088418421345
 40
2.062088418421345
 40
2.3459314808222
 40
2.3459314808222
 40
2.629774543223056
 40
2.629774543223056
 40
2.629774543223056
 40
2.629774543223056
 10
-96.92473681945749
 20
40.44257236036782
 30
-0.0000000000000007
 10
-96.92473681945749
 20
40.36453736233903
 30
-0.0000000000000007
 10
-96.91606703948377
 20
40.27950073038754
 30
-0.0000000000000007
 10
-96.87725395649366
 20
40.11253486639442
 30
-0.0000000000000007
 10
-96.84703515226988
 20
40.03060640369442
 30
-0.0000000000000007
 10
-96.77685268388358
 20
39.89053843108583
 30
-0.0000000000000007
 10
-96.7316757685753
 20
39.81875013468922
 30
-0.0000000000000007
 10
-96.62056671028231
 20
39.68225739374161
 30
-0.0000000000000007
 10
-96.55449873601492
 20
39.61758143800432
 30
-0.0000000000000007
 10
-96.42357535422563
 20
39.51298661250003
 30
-0.0000000000000007
 10
-96.34849565246971
 20
39.46250066681882
 30
-0.0000000000000007
 10
-96.18140808860887
 20
39.37334173594663
 30
-0.0000000000000007
 10
-96.08927455847755
 20
39.33473770433932
 30
-0.0000000000000007
 10
-95.91584615544041
 20
39.27858352856003
 30
-0.0000000000000006
 10
-95.82025826979117
 20
39.25501113279172
 30
-0.0000000000000006
 10
-95.62202443854298
 20
39.22394738269962
 30
-0.0000000000000006
 10
-95.51935117359107
 20
39.21650892572172
 30
-0.0000000000000006
 10
-95.42473681945748
 20
39.21650892572172
 30
-0.0000000000000006
  0
LINE
  5
172
330
1F
100
AcDbEntity
  8
0
100
AcDbLine
 10
-96.92473681945749
 20
40.44257236036782
 30
-0.0000000000000007
 11
-96.92473681945749
 21
67.32063204719344
 31
-0.0000000000000007
210
0.0
220
1.0
230
0.0
  0
LINE
  5
173
330
1F
100
AcDbEntity
  8
0
100
AcDbLine
 10
-95.42473681945748
 20
68.82063204719353
 30
-0.0000000000000006
 11
-93.9247368194575
 21
68.82063204719353
 31
-0.0000000000000005
210
0.0
220
1.0
230
0.0
  0
LINE
  5
174
330
1F
100
AcDbEntity
  8
0
100
AcDbLine
 10
-95.42473681945748
 20
-68.82063204719348
 30
-0.0000000000000006
 11
-93.9247368194575
 21
-68.82063204719348
 31
-0.0000000000000005
210
0.0
220
1.0
230
0.0
  0
LINE
  5
175
330
1F
100
AcDbEntity
  8
0
100
AcDbLine
 10
-95.42473681945748
 20
-42.82394747720839
 30
-0.0000000000000006
 11
-93.9247368194575
 21
-42.82394747720839
 31
-0.0000000000000005
210
0.0
220
1.0
230
0.0
  0
LINE
  5
176
330
1F
100
AcDbEntity
  8
0
100
AcDbLine
 10
-93.9247368194575
 20
-29.9963123261301
 30
-0.0000000000000005
 11
-93.92068388833587
 21
-29.9963123261301
 31
-0.0000000000000005
210
0.0
220
1.0
230
0.0
  0
LINE
  5
177
330
1F
100
AcDbEntity
  8
0
100
AcDbLine
 10
-93.9247368194575
 20
24.31473757232997
 30
-0.0000000000000005
 11
-93.92068388833587
 21
24.31473757232997
 31
-0.0000000000000005
210
0.0
220
1.0
230
0.0
  0
LINE
  5
178
330
1F
100
AcDbEntity
  8
0
100
AcDbLine
 10
-93.9247368194575
 20
-68.37623917085287
 30
-0.0000000000000005
 11
-93.92068388833587
 21
-68.37623917085287
 31
-0.0000000000000005
210
0.0
220
1.0
230
0.0
  0
ARC
  5
179
330
1F
100
AcDbEntity
  8
0
100
AcDbCircle
 10
-95.42473681945748
 20
67.32063204719344
 30
-0.0000000000000006
 40
1.5
100
AcDbArc
 50
90.0
 51
179.999999999999
  0
ARC
  5
17A
330
1F
100
AcDbEntity
  8
0
100
AcDbCircle
 10
-95.42473681945748
 20
-44.32394747720841
 30
-0.0000000000000006
 40
1.5
100
AcDbArc
 50
90.0
 51
180.0000000000007
  0
ARC
  5
17B
330
1F
100
AcDbEntity
  8
0
100
AcDbCircle
 10
-95.42473681945748
 20
-67.32063204719349
 30
-0.0000000000000006
 40
1.5
100
AcDbArc
 50
179.9999999999974
 51
270.0
  0
LINE
  5
17D
330
1F
100
AcDbEntity
  8
0
100
AcDbLine
 10
93.92068388833587
 20
-68.37623917085287
 30
0.0000000000000016
 11
93.92068388833587
 21
24.06885299003082
 31
0.0000000000000016
210
0.0
220
1.0
230
0.0
  0
LINE
  5
17E
330
1F
100
AcDbEntity
  8
0
100
AcDbLine
 10
93.92068388833587
 20
24.06885299003084
 30
0.0000000000000016
 11
93.92068388833587
 21
24.31473757232997
 31
0.0000000000000016
210
0.0
220
1.0
230
0.0
  0
LINE
  5
17F
330
1F
100
AcDbEntity
  8
0
100
AcDbLine
 10
96.92068388833588
 20
22.75326642675517
 30
0.0000000000000021
 11
96.92068388833588
 21
-66.87623917085287
 31
0.0000000000000021
210
0.0
220
1.0
230
0.0
  0
LINE
  5
180
330
1F
100
AcDbEntity
  8
0
100
AcDbLine
 10
96.92068388833588
 20
22.81473757232994
 30
0.0000000000000021
 11
96.92068388833588
 21
22.7532664267552
 31
0.0000000000000021
210
0.0
220
1.0
230
0.0
  0
LINE
  5
181
330
1F
100
AcDbEntity
  8
0
100
AcDbLine
 10
93.9247368194575
 20
-68.82063204719348
 30
0.0000000000000016
 11
93.9247368194575
 21
-68.37623917085287
 31
0.0000000000000016
210
0.0
220
1.0
230
0.0
  0
LINE
  5
182
330
1F
100
AcDbEntity
  8
0
100
AcDbLine
 10
93.9247368194575
 20
24.31473757232997
 30
0.0000000000000016
 11
93.9247368194575
 21
45.01165407542703
 31
0.0000000000000016
210
0.0
220
1.0
230
0.0
  0
LINE
  5
183
330
1F
100
AcDbEntity
  8
0
100
AcDbLine
 10
93.9247368194575
 20
45.01165407542703
 30
0.0000000000000016
 11
95.42473681945748
 21
45.01165407542703
 31
0.0000000000000019
210
0.0
220
1.0
230
0.0
  0
LINE
  5
184
330
1F
100
AcDbEntity
  8
0
100
AcDbLine
 10
93.9247368194575
 20
45.01165407542703
 30
0.0000000000000016
 11
93.9247368194575
 21
68.82063204719353
 31
0.0000000000000016
210
0.0
220
1.0
230
0.0
  0
ARC
  5
185
330
1F
100
AcDbEntity
  8
0
100
AcDbCircle
 10
95.42473681945748
 20
-23.67936795280646
 30
0.0000000000000019
 40
1.5
100
AcDbArc
 50
355.7871650209167
 51
0.0
  0
LINE
  5
186
330
1F
100
AcDbEntity
  8
0
100
AcDbLine
 10
96.92473681945749
 20
-66.76682986030328
 30
0.0000000000000021
 11
96.92473681945749
 21
-67.32063204719349
 31
0.0000000000000021
210
0.0
220
1.0
230
0.0
  0
LINE
  5
187
330
1F
100
AcDbEntity
  8
0
100
AcDbLine
 10
96.92473681945749
 20
-25.89457670036723
 30
0.0000000000000021
 11
96.92473681945749
 21
-66.76682986030332
 31
0.0000000000000021
210
0.0
220
1.0
230
0.0
  0
LINE
  5
188
330
1F
100
AcDbEntity
  8
0
100
AcDbLine
 10
96.92473681945749
 20
-23.67936795280646
 30
0.0000000000000021
 11
96.92473681945749
 21
-25.89457670036723
 31
0.0000000000000021
210
0.0
220
1.0
230
0.0
  0
LINE
  5
189
330
1F
100
AcDbEntity
  8
0
100
AcDbLine
 10
96.92473681945749
 20
-22.76652369555411
 30
0.0000000000000021
 11
96.92473681945749
 21
-23.67936795280646
 31
0.0000000000000021
210
0.0
220
1.0
230
0.0
  0
LINE
  5
18A
330
1F
100
AcDbEntity
  8
0
100
AcDbLine
 10
96.92473681945749
 20
45.56805892879633
 30
0.0000000000000021
 11
96.92473681945749
 21
-22.76652369555412
 31
0.0000000000000021
210
0.0
220
1.0
230
0.0
  0
LINE
  5
18B
330
1F
100
AcDbEntity
  8
0
100
AcDbLine
 10
96.92473681945749
 20
67.32063204719344
 30
0.0000000000000021
 11
96.92473681945749
 21
45.56805892879611
 31
0.0000000000000021
210
0.0
220
1.0
230
0.0
  0
SPLINE
  5
18C
330
1F
100
AcDbEntity
  8
0
100
AcDbSpline
210
0.0000000000000006
220
-0.0000000000000019
230
1.0
 70
     8
 71
     3
 72
    24
 73
    20
 74
     0
 42
0.0000000001
 43
0.0000000001
 40
2.265095951469935
 40
2.265095951469935
 40
2.265095951469935
 40
2.265095951469935
 40
2.532274056525956
 40
2.532274056525956
 40
2.799452161581981
 40
2.799452161581981
 40
3.023563531987662
 40
3.023563531987662
 40
3.242389288535997
 40
3.242389288535997
 40
3.461215045084336
 40
3.461215045084336
 40
3.627454780123064
 40
3.627454780123064
 40
3.793694515161794
 40
3.793694515161794
 40
4.16194320905083
 40
4.16194320905083
 40
4.53019190293987
 40
4.53019190293987
 40
4.53019190293987
 40
4.53019190293987
 10
95.42473681945748
 20
45.01165407542703
 30
0.0000000000000019
 10
95.51379618780948
 20
45.01165407542703
 30
0.0000000000000019
 10
95.61106119766463
 20
45.01472461211712
 30
0.0000000000000019
 10
95.80159153809409
 20
45.02795580274031
 30
0.0000000000000019
 10
95.89485827109893
 20
45.03811555873464
 30
0.0000000000000019
 10
96.04631623600077
 20
45.05996499547943
 30
0.000000000000002
 10
96.12618052948867
 20
45.07426296310592
 30
0.000000000000002
 10
96.25191074203435
 20
45.10148855164922
 30
0.000000000000002
 10
96.31692772450223
 20
45.11795042378403
 30
0.000000000000002
 10
96.43828574603162
 20
45.15453721878134
 30
0.000000000000002
 10
96.49463400666888
 20
45.17466143942793
 30
0.0000000000000021
 10
96.57842364244137
 20
45.20911473028514
 30
0.0000000000000021
 10
96.61569750485837
 20
45.22619984927162
 30
0.0000000000000021
 10
96.684024186141
 20
45.26194569521915
 30
0.0000000000000021
 10
96.71508114098813
 20
45.2806063991972
 30
0.0000000000000021
 10
96.79799487753941
 20
45.33689185159221
 30
0.0000000000000021
 10
96.84661141300535
 20
45.38176338809942
 30
0.0000000000000021
 10
96.90997103806743
 20
45.47500864687704
 30
0.0000000000000021
 10
96.92473681945749
 20
45.52338649109961
 30
0.0000000000000021
 10
96.92473681945749
 20
45.56805892879633
 30
0.0000000000000021
  0
LINE
  5
18D
330
1F
100
AcDbEntity
  8
0
100
AcDbLine
 10
95.42473681945748
 20
68.82063204719353
 30
0.0000000000000019
 11
93.9247368194575
 21
68.82063204719353
 31
0.0000000000000016
210
0.0
220
1.0
230
0.0
  0
LINE
  5
18E
330
1F
100
AcDbEntity
  8
0
100
AcDbLine
 10
95.42473681945748
 20
-68.82063204719348
 30
0.0000000000000019
 11
93.9247368194575
 21
-68.82063204719348
 31
0.0000000000000016
210
0.0
220
1.0
230
0.0
  0
LINE
  5
18F
330
1F
100
AcDbEntity
  8
0
100
AcDbLine
 10
95.42068388833587
 20
24.31473757232997
 30
0.0000000000000019
 11
93.92068388833587
 21
24.31473757232997
 31
0.0000000000000016
210
0.0
220
1.0
230
0.0
  0
LINE
  5
190
330
1F
100
AcDbEntity
  8
0
100
AcDbLine
 10
95.42068388833587
 20
-68.37623917085287
 30
0.0000000000000019
 11
93.92068388833587
 21
-68.37623917085287
 31
0.0000000000000016
210
0.0
220
1.0
230
0.0
  0
ARC
  5
191
330
1F
100
AcDbEntity
  8
0
100
AcDbCircle
 10
95.42473681945748
 20
67.32063204719344
 30
0.0000000000000019
 40
1.5
100
AcDbArc
 50
359.9999999999991
 51
90.0
  0
ARC
  5
192
330
1F
100
AcDbEntity
  8
0
100
AcDbCircle
 10
95.42473681945748
 20
-67.32063204719349
 30
0.0000000000000019
 40
1.5
100
AcDbArc
 50
270.0
 51
0.0000000000008142
  0
ARC
  5
193
330
1F
100
AcDbEntity
  8
0
100
AcDbCircle
 10
95.42068388833587
 20
22.81473757232994
 30
0.0000000000000019
 40
1.5
100
AcDbArc
 50
359.9999999999983
 51
90.0
  0
ARC
  5
194
330
1F
100
AcDbEntity
  8
0
100
AcDbCircle
 10
95.42068388833587
 20
-66.87623917085287
 30
0.0000000000000019
 40
1.5
100
AcDbArc
 50
270.0
 51
0.0000000000008142
  0
LINE
  5
196
330
1F
100
AcDbEntity
  8
0
100
AcDbLine
 10
-67.08620276738277
 20
-95.65511316814662
 30
0.0
 11
-41.49516540763317
 21
-95.65511316814662
 31
0.0
  0
LINE
  5
197
330
1F
100
AcDbEntity
  8
0
100
AcDbLine
 10
-41.49516540763317
 20
-95.65511316814662
 30
0.0
 11
-38.54200595499283
 21
-95.65511316814662
 31
0.0
  0
LINE
  5
198
330
1F
100
AcDbEntity
  8
0
100
AcDbLine
 10
-38.54200595499284
 20
-95.65511316814662
 30
0.0
 11
-37.534243139029
 21
-95.65511316814662
 31
0.0
  0
LINE
  5
199
330
1F
100
AcDbEntity
  8
0
100
AcDbLine
 10
-37.534243139029
 20
-95.65511316814662
 30
0.0
 11
-37.5209245823501
 21
-95.65511316814662
 31
0.0
  0
LINE
  5
19A
330
1F
100
AcDbEntity
  8
0
100
AcDbLine
 10
14.18249327515284
 20
-95.65511316814662
 30
0.0
 11
-37.5209245823501
 21
-95.65511316814662
 31
0.0
  0
LINE
  5
19B
330
1F
100
AcDbEntity
  8
0
100
AcDbLine
 10
14.18249327515283
 20
-95.65511316814662
 30
0.0
 11
17.87212069530212
 21
-95.65511316814662
 31
0.0
  0
LINE
  5
19C
330
1F
100
AcDbEntity
  8
0
100
AcDbLine
 10
17.87212069530212
 20
-95.65511316814662
 30
0.0
 11
23.33982104558264
 21
-95.65511316814662
 31
0.0
  0
LINE
  5
19D
330
1F
100
AcDbEntity
  8
0
100
AcDbLine
 10
23.33982104558266
 20
-95.65511316814662
 30
0.0
 11
23.6549565975147
 21
-95.65511316814662
 31
0.0
  0
LINE
  5
19E
330
1F
100
AcDbEntity
  8
0
100
AcDbLine
 10
-40.7745878652905
 20
-98.65511316814664
 30
0.0
 11
-65.58620276738277
 21
-98.65511316814664
 31
0.0
  0
LINE
  5
19F
330
1F
100
AcDbEntity
  8
0
100
AcDbLine
 10
-40.03629800213047
 20
-98.65511316814664
 30
0.0
 11
-40.77458786529052
 21
-98.65511316814664
 31
0.0
  0
LINE
  5
1A0
330
1F
100
AcDbEntity
  8
0
100
AcDbLine
 10
-39.02853518616661
 20
-98.65511316814664
 30
0.0
 11
-40.03629800213047
 21
-98.65511316814664
 31
0.0
  0
LINE
  5
1A1
330
1F
100
AcDbEntity
  8
0
100
AcDbLine
 10
-39.0209245823501
 20
-98.65511316814664
 30
0.0
 11
-39.02853518616661
 21
-98.65511316814664
 31
0.0
  0
LINE
  5
1A2
330
1F
100
AcDbEntity
  8
0
100
AcDbLine
 10
-38.71071432606306
 20
-98.65511316814664
 30
0.0
 11
-39.02092458235012
 21
-98.65511316814664
 31
0.0
  0
LINE
  5
1A3
330
1F
100
AcDbEntity
  8
0
100
AcDbLine
 10
12.89947808344921
 20
-95.65916609926823
 30
0.0
 11
24.23361236493341
 21
-95.65916609926823
 31
0.0
  0
LINE
  5
1A4
330
1F
100
AcDbEntity
  8
0
100
AcDbLine
 10
24.23361236493342
 20
-95.65916609926823
 30
0.0
 11
27.36588263054049
 21
-95.65916609926823
 31
0.0
  0
LINE
  5
1A5
330
1F
100
AcDbEntity
  8
0
100
AcDbLine
 10
27.3658826305405
 20
-95.65916609926823
 30
0.0
 11
45.36288514061607
 21
-95.65916609926823
 31
0.0
  0
LINE
  5
1A6
330
1F
100
AcDbEntity
  8
0
100
AcDbLine
 10
47.37458340268354
 20
-95.65916609926823
 30
0.0
 11
45.36288514061607
 21
-95.65916609926823
 31
0.0
  0
LINE
  5
1A7
330
1F
100
AcDbEntity
  8
0
100
AcDbLine
 10
47.37458340268354
 20
-95.65916609926823
 30
0.0
 11
59.00873010351015
 21
-95.65916609926823
 31
0.0
  0
LINE
  5
1A8
330
1F
100
AcDbEntity
  8
0
100
AcDbLine
 10
59.00873010351015
 20
-95.65916609926823
 30
0.0
 11
62.36156054028972
 21
-95.65916609926823
 31
0.0
  0
LINE
  5
1A9
330
1F
100
AcDbEntity
  8
0
100
AcDbLine
 10
62.36156054028974
 20
-95.65916609926823
 30
0.0
 11
66.82353867138782
 21
-95.65916609926823
 31
0.0
  0
LINE
  5
1AA
330
1F
100
AcDbEntity
  8
0
100
AcDbLine
 10
66.82353867138782
 20
-95.65916609926823
 30
0.0
 11
67.08620276738276
 21
-95.65916609926823
 31
0.0
  0
LINE
  5
1AB
330
1F
100
AcDbEntity
  8
0
100
AcDbLine
 10
-40.10052191655079
 20
-95.65916609926823
 30
0.0
 11
-10.10052191655077
 21
-95.65916609926823
 31
0.0
  0
LINE
  5
1AC
330
1F
100
AcDbEntity
  8
0
100
AcDbLine
 10
10.39947808344921
 20
-95.65916609926823
 30
0.0
 11
-10.10052191655077
 21
-95.65916609926823
 31
0.0
  0
LINE
  5
1AD
330
1F
100
AcDbEntity
  8
0
100
AcDbLine
 10
10.39947808344921
 20
-95.65916609926823
 30
0.0
 11
12.89947808344921
 21
-95.65916609926823
 31
0.0
  0
LINE
  5
1AE
330
1F
100
AcDbEntity
  8
0
100
AcDbLine
 10
12.89947808344921
 20
-95.65916609926823
 30
0.0
 11
12.89947808344921
 21
-97.15916609926821
 31
0.0
  0
ARC
  5
1AF
330
1F
100
AcDbEntity
  8
0
100
AcDbCircle
 10
11.39947808344921
 20
-97.15916609926821
 30
0.0
 40
1.5
100
AcDbArc
 50
270.0
 51
0.0
  0
LINE
  5
1B0
330
1F
100
AcDbEntity
  8
0
100
AcDbLine
 10
10.39947808344921
 20
-98.65916609926824
 30
0.0
 11
-11.60052191655077
 21
-98.65916609926824
 31
0.0
  0
LINE
  5
1B1
330
1F
100
AcDbEntity
  8
0
100
AcDbLine
 10
11.39947808344921
 20
-98.65916609926824
 30
0.0
 11
10.39947808344921
 21
-98.65916609926824
 31
0.0
  0
LINE
  5
1B2
330
1F
100
AcDbEntity
  8
0
100
AcDbLine
 10
24.23361236493341
 20
-98.65916609926824
 30
0.0
 11
11.39947808344921
 21
-98.65916609926824
 31
0.0
  0
LINE
  5
1B3
330
1F
100
AcDbEntity
  8
0
100
AcDbLine
 10
26.02348108813746
 20
-98.65916609926824
 30
0.0
 11
24.2336123649334
 21
-98.65916609926824
 31
0.0
  0
LINE
  5
1B4
330
1F
100
AcDbEntity
  8
0
100
AcDbLine
 10
44.02048359821303
 20
-98.65916609926824
 30
0.0
 11
26.02348108813746
 21
-98.65916609926824
 31
0.0
  0
LINE
  5
1B5
330
1F
100
AcDbEntity
  8
0
100
AcDbLine
 10
48.04388012234826
 20
-98.65916609926824
 30
0.0
 11
44.02048359821303
 21
-98.65916609926824
 31
0.0
  0
LINE
  5
1B6
330
1F
100
AcDbEntity
  8
0
100
AcDbLine
 10
59.67802682317486
 20
-98.65916609926824
 30
0.0
 11
48.04388012234826
 21
-98.65916609926824
 31
0.0
  0
LINE
  5
1B7
330
1F
100
AcDbEntity
  8
0
100
AcDbLine
 10
61.01915899788671
 20
-98.65916609926824
 30
0.0
 11
59.67802682317486
 21
-98.65916609926824
 31
0.0
  0
LINE
  5
1B8
330
1F
100
AcDbEntity
  8
0
100
AcDbLine
 10
65.48113712898478
 20
-98.65916609926824
 30
0.0
 11
61.01915899788671
 21
-98.65916609926824
 31
0.0
  0
LINE
  5
1B9
330
1F
100
AcDbEntity
  8
0
100
AcDbLine
 10
65.58620276738276
 20
-98.65916609926824
 30
0.0
 11
65.48113712898478
 21
-98.65916609926824
 31
0.0
  0
LINE
  5
1BA
330
1F
100
AcDbEntity
  8
0
100
AcDbLine
 10
-11.60052191655076
 20
-98.65916609926824
 30
0.0
 11
-38.60052191655078
 21
-98.65916609926824
 31
0.0
  0
LINE
  5
1BB
330
1F
100
AcDbEntity
  8
0
100
AcDbLine
 10
-10.10052191655077
 20
-97.15916609926821
 30
0.0
 11
-10.10052191655077
 21
-95.65916609926823
 31
0.0
  0
LINE
  5
1BC
330
1F
100
AcDbEntity
  8
0
100
AcDbLine
 10
-40.10052191655079
 20
-97.15916609926821
 30
0.0
 11
-40.10052191655079
 21
-95.65916609926823
 31
0.0
  0
LINE
  5
1BD
330
1F
100
AcDbEntity
  8
0
100
AcDbLine
 10
67.08620276738276
 20
-97.15916609926821
 30
0.0
 11
67.08620276738276
 21
-95.65916609926823
 31
0.0
  0
LINE
  5
1BE
330
1F
100
AcDbEntity
  8
0
100
AcDbLine
 10
23.6549565975147
 20
-95.65916609926823
 30
0.0
 11
23.6549565975147
 21
-95.65511316814662
 31
0.0
  0
LINE
  5
1BF
330
1F
100
AcDbEntity
  8
0
100
AcDbLine
 10
-37.5209245823501
 20
-95.65916609926823
 30
0.0
 11
-37.5209245823501
 21
-95.65511316814662
 31
0.0
  0
LINE
  5
1C0
330
1F
100
AcDbEntity
  8
0
100
AcDbLine
 10
-67.08620276738277
 20
-97.15511316814662
 30
0.0
 11
-67.08620276738277
 21
-95.65511316814662
 31
0.0
  0
ARC
  5
1C1
330
1F
100
AcDbEntity
  8
0
100
AcDbCircle
 10
-38.60052191655078
 20
-97.15916609926821
 30
0.0
 40
1.5
100
AcDbArc
 50
180.0
 51
270.0000000000009
  0
ARC
  5
1C2
330
1F
100
AcDbEntity
  8
0
100
AcDbCircle
 10
-11.60052191655076
 20
-97.15916609926821
 30
0.0
 40
1.5
100
AcDbArc
 50
269.9999999999978
 51
0.0
  0
ARC
  5
1C3
330
1F
100
AcDbEntity
  8
0
100
AcDbCircle
 10
65.58620276738276
 20
-97.15916609926821
 30
0.0
 40
1.5
100
AcDbArc
 50
269.9999999999978
 51
0.0
  0
ARC
  5
1C4
330
1F
100
AcDbEntity
  8
0
100
AcDbCircle
 10
-39.0209245823501
 20
-97.15511316814662
 30
0.0
 40
1.5
100
AcDbArc
 50
269.9999999999978
 51
277.5036417936675
  0
ARC
  5
1C5
330
1F
100
AcDbEntity
  8
0
100
AcDbCircle
 10
-65.58620276738277
 20
-97.15511316814662
 30
0.0
 40
1.5
100
AcDbArc
 50
180.0
 51
270.0000000000009
  0
ENDSEC
  0
SECTION
  2
OBJECTS
  0
DICTIONARY
  5
C
330
0
100
AcDbDictionary
  3
ACAD_GROUP
350
D
  3
ACAD_LAYOUT
350
1A
  3
ACAD_MLINESTYLE
350
17
  3
ACAD_PLOTSETTINGS
350
19
  3
ACAD_PLOTSTYLENAME
350
117
  3
ACDBHEADERROUNDTRIPXREC
350
1F0
1001
ACAD
1000
TREAT_AS_HARD
1070
     0
  0
DICTIONARY
  5
111
330
1F
100
AcDbDictionary
  3
ACAD_LAYOUTSELFREF
350
211
  0
DICTIONARY
  5
10F
330
1B
100
AcDbDictionary
  3
ACAD_LAYOUTSELFREF
350
210
  0
DICTIONARY
  5
D
102
{ACAD_REACTORS
330
C
102
}
330
C
100
AcDbDictionary
1001
ACAD
1000
TREAT_AS_HARD
1070
     0
  0
DICTIONARY
  5
1A
102
{ACAD_REACTORS
330
C
102
}
330
C
100
AcDbDictionary
1001
ACAD
1000
TREAT_AS_HARD
1070
     0
  0
DICTIONARY
  5
17
102
{ACAD_REACTORS
330
C
102
}
330
C
100
AcDbDictionary
  3
STANDARD
350
18
1001
ACAD
1000
TREAT_AS_HARD
1070
     0
  0
DICTIONARY
  5
19
102
{ACAD_REACTORS
330
C
102
}
330
C
100
AcDbDictionary
1001
ACAD
1000
TREAT_AS_HARD
1070
     0
  0
ACDBDICTIONARYWDFLT
  5
117
102
{ACAD_REACTORS
330
C
102
}
330
C
100
AcDbDictionary
281
     1
  3
Normal
350
118
100
AcDbDictionaryWithDefault
340
118
  0
DICTIONARY
  5
1F0
102
{ACAD_REACTORS
330
C
102
}
330
C
100
AcDbDictionary
  3
TSTACKALIGN
350
1F1
  3
TSTACKSIZE
350
1F2
  3
HYPERLINKBASE
350
1F3
  3
STYLESHEET
350
1F4
  3
LAYOUTDICT
350
1F5
  3
PLOTSETDICT
350
1F6
  3
PLOTSTYLNAMDICT
350
1F7
  3
LWETCUNION
350
1F8
  3
INSUNITS
350
1F9
  3
CEPSNTYPE
350
1FA
  3
FINGERPRINTGUID
350
1FB
  3
VERSIONGUID
350
1FC
  3
PSVPSCALE
350
1FD
  3
PUCSORTHOREF
350
1FE
  3
PUCSORTHOVIEW
350
1FF
  3
PUCSBASE
350
200
  3
PUCSORGTOP
350
201
  3
PUCSORGBOTTOM
350
202
  3
PUCSORGLEFT
350
203
  3
PUCSORGRIGHT
350
204
  3
PUCSORGFRONT
350
205
  3
PUCSORGBACK
350
206
  3
UCSORTHOREF
350
207
  3
UCSORTHOVIEW
350
208
  3
UCSBASE
350
209
  3
UCSORGTOP
350
20A
  3
UCSORGBOTTOM
350
20B
  3
UCSORGLEFT
350
20C
  3
UCSORGRIGHT
350
20D
  3
UCSORGFRONT
350
20E
  3
UCSORGBACK
350
20F
  0
XRECORD
  5
211
102
{ACAD_REACTORS
330
111
102
}
330
111
100
AcDbXrecord
340
1F
  0
XRECORD
  5
210
102
{ACAD_REACTORS
330
10F
102
}
330
10F
100
AcDbXrecord
340
1B
  0
MLINESTYLE
  5
18
102
{ACAD_REACTORS
330
17
102
}
330
17
100
AcDbMlineStyle
  2
STANDARD
 70
     0
  3

 62
   256
 51
90.0
 52
90.0
 71
     2
 49
0.5
 62
   256
  6
BYLAYER
 49
-0.5
 62
   256
  6
BYLAYER
  0
ACDBPLACEHOLDER
  5
118
102
{ACAD_REACTORS
330
117
102
}
330
117
100
AcDbPlaceHolder
280
     0
  0
XRECORD
  5
1F1
102
{ACAD_REACTORS
330
1F0
102
}
330
1F0
100
AcDbXrecord
 90
        1
  0
XRECORD
  5
1F2
102
{ACAD_REACTORS
330
1F0
102
}
330
1F0
100
AcDbXrecord
 90
       70
  0
XRECORD
  5
1F3
102
{ACAD_REACTORS
330
1F0
102
}
330
1F0
100
AcDbXrecord
  1

  0
XRECORD
  5
1F4
102
{ACAD_REACTORS
330
1F0
102
}
330
1F0
100
AcDbXrecord
  1

  0
XRECORD
  5
1F5
102
{ACAD_REACTORS
330
1F0
102
}
330
1F0
100
AcDbXrecord
340
1A
  0
XRECORD
  5
1F6
102
{ACAD_REACTORS
330
1F0
102
}
330
1F0
100
AcDbXrecord
340
19
  0
XRECORD
  5
1F7
102
{ACAD_REACTORS
330
1F0
102
}
330
1F0
100
AcDbXrecord
340
117
  0
XRECORD
  5
1F8
102
{ACAD_REACTORS
330
1F0
102
}
330
1F0
100
AcDbXrecord
 90
    10781
  0
XRECORD
  5
1F9
102
{ACAD_REACTORS
330
1F0
102
}
330
1F0
100
AcDbXrecord
 90
        0
  0
XRECORD
  5
1FA
102
{ACAD_REACTORS
330
1F0
102
}
330
1F0
100
AcDbXrecord
 90
        0
  0
XRECORD
  5
1FB
102
{ACAD_REACTORS
330
1F0
102
}
330
1F0
100
AcDbXrecord
  1
{3EB30D52-5CB1-487D-B781-38D7F4965A30}
  0
XRECORD
  5
1FC
102
{ACAD_REACTORS
330
1F0
102
}
330
1F0
100
AcDbXrecord
  1
{BB9B00E3-7AEB-46F4-B7C5-3782A07C27F1}
  0
XRECORD
  5
1FD
102
{ACAD_REACTORS
330
1F0
102
}
330
1F0
100
AcDbXrecord
 40
0.0
  0
XRECORD
  5
1FE
102
{ACAD_REACTORS
330
1F0
102
}
330
1F0
100
AcDbXrecord
340
0
  0
XRECORD
  5
1FF
102
{ACAD_REACTORS
330
1F0
102
}
330
1F0
100
AcDbXrecord
 70
     0
  0
XRECORD
  5
200
102
{ACAD_REACTORS
330
1F0
102
}
330
1F0
100
AcDbXrecord
340
0
  0
XRECORD
  5
201
102
{ACAD_REACTORS
330
1F0
102
}
330
1F0
100
AcDbXrecord
 10
0.0
 20
0.0
 30
0.0
  0
XRECORD
  5
202
102
{ACAD_REACTORS
330
1F0
102
}
330
1F0
100
AcDbXrecord
 10
0.0
 20
0.0
 30
0.0
  0
XRECORD
  5
203
102
{ACAD_REACTORS
330
1F0
102
}
330
1F0
100
AcDbXrecord
 10
0.0
 20
0.0
 30
0.0
  0
XRECORD
  5
204
102
{ACAD_REACTORS
330
1F0
102
}
330
1F0
100
AcDbXrecord
 10
0.0
 20
0.0
 30
0.0
  0
XRECORD
  5
205
102
{ACAD_REACTORS
330
1F0
102
}
330
1F0
100
AcDbXrecord
 10
0.0
 20
0.0
 30
0.0
  0
XRECORD
  5
206
102
{ACAD_REACTORS
330
1F0
102
}
330
1F0
100
AcDbXrecord
 10
0.0
 20
0.0
 30
0.0
  0
XRECORD
  5
207
102
{ACAD_REACTORS
330
1F0
102
}
330
1F0
100
AcDbXrecord
340
0
  0
XRECORD
  5
208
102
{ACAD_REACTORS
330
1F0
102
}
330
1F0
100
AcDbXrecord
 70
     0
  0
XRECORD
  5
209
102
{ACAD_REACTORS
330
1F0
102
}
330
1F0
100
AcDbXrecord
340
0
  0
XRECORD
  5
20A
102
{ACAD_REACTORS
330
1F0
102
}
330
1F0
100
AcDbXrecord
 10
0.0
 20
0.0
 30
0.0
  0
XRECORD
  5
20B
102
{ACAD_REACTORS
330
1F0
102
}
330
1F0
100
AcDbXrecord
 10
0.0
 20
0.0
 30
0.0
  0
XRECORD
  5
20C
102
{ACAD_REACTORS
330
1F0
102
}
330
1F0
100
AcDbXrecord
 10
0.0
 20
0.0
 30
0.0
  0
XRECORD
  5
20D
102
{ACAD_REACTORS
330
1F0
102
}
330
1F0
100
AcDbXrecord
 10
0.0
 20
0.0
 30
0.0
  0
XRECORD
  5
20E
102
{ACAD_REACTORS
330
1F0
102
}
330
1F0
100
AcDbXrecord
 10
0.0
 20
0.0
 30
0.0
  0
XRECORD
  5
20F
102
{ACAD_REACTORS
330
1F0
102
}
330
1F0
100
AcDbXrecord
 10
0.0
 20
0.0
 30
0.0
  0
ENDSEC
  0
EOF
