  0
SECTION
  2
HEADER
  9
$ACADVER
  1
AC1027
  9
$ACADMAINTVER
 70
   125
  9
$DWGCODEPAGE
  3
ANSI_1252
  9
$LASTSAVEDBY
  1
kaschu
  9
$REQUIREDVERSIONS
160
                 0
  9
$INSBASE
 10
0.0
 20
0.0
 30
0.0
  9
$EXTMIN
 10
61.25168693191063
 20
73.35423013026896
 30
0.0
  9
$EXTMAX
 10
2389.346661563474
 20
1277.500782480955
 30
0.0
  9
$LIMMIN
 10
0.0
 20
0.0
  9
$LIMMAX
 10
420.0
 20
297.0
  9
$ORTHOMODE
 70
     1
  9
$REGENMODE
 70
     1
  9
$FILLMODE
 70
     1
  9
$QTEXTMODE
 70
     0
  9
$MIRRTEXT
 70
     1
  9
$LTSCALE
 40
1.0
  9
$ATTMODE
 70
     1
  9
$TEXTSIZE
 40
2.5
  9
$TRACEWID
 40
1.0
  9
$TEXTSTYLE
  7
Standard
  9
$CLAYER
  8
0
  9
$CELTYPE
  6
ByLayer
  9
$CECOLOR
 62
   256
  9
$CELTSCALE
 40
1.0
  9
$DISPSILH
 70
     0
  9
$DIMSCALE
 40
1.0
  9
$DIMASZ
 40
2.5
  9
$DIMEXO
 40
0.625
  9
$DIMDLI
 40
3.75
  9
$DIMRND
 40
0.0
  9
$DIMDLE
 40
0.0
  9
$DIMEXE
 40
1.25
  9
$DIMTP
 40
0.0
  9
$DIMTM
 40
0.0
  9
$DIMTXT
 40
2.5
  9
$DIMCEN
 40
2.5
  9
$DIMTSZ
 40
0.0
  9
$DIMTOL
 70
     0
  9
$DIMLIM
 70
     0
  9
$DIMTIH
 70
     0
  9
$DIMTOH
 70
     0
  9
$DIMSE1
 70
     0
  9
$DIMSE2
 70
     0
  9
$DIMTAD
 70
     1
  9
$DIMZIN
 70
     8
  9
$DIMBLK
  1

  9
$DIMASO
 70
     1
  9
$DIMSHO
 70
     1
  9
$DIMPOST
  1

  9
$DIMAPOST
  1

  9
$DIMALT
 70
     0
  9
$DIMALTD
 70
     3
  9
$DIMALTF
 40
0.03937007874016
  9
$DIMLFAC
 40
1.0
  9
$DIMTOFL
 70
     1
  9
$DIMTVP
 40
0.0
  9
$DIMTIX
 70
     0
  9
$DIMSOXD
 70
     0
  9
$DIMSAH
 70
     0
  9
$DIMBLK1
  1

  9
$DIMBLK2
  1

  9
$DIMSTYLE
  2
ISO-25
  9
$DIMCLRD
 70
     0
  9
$DIMCLRE
 70
     0
  9
$DIMCLRT
 70
     0
  9
$DIMTFAC
 40
1.0
  9
$DIMGAP
 40
0.625
  9
$DIMJUST
 70
     0
  9
$DIMSD1
 70
     0
  9
$DIMSD2
 70
     0
  9
$DIMTOLJ
 70
     0
  9
$DIMTZIN
 70
     8
  9
$DIMALTZ
 70
     0
  9
$DIMALTTZ
 70
     0
  9
$DIMUPT
 70
     0
  9
$DIMDEC
 70
     2
  9
$DIMTDEC
 70
     2
  9
$DIMALTU
 70
     2
  9
$DIMALTTD
 70
     3
  9
$DIMTXSTY
  7
Standard
  9
$DIMAUNIT
 70
     0
  9
$DIMADEC
 70
     0
  9
$DIMALTRND
 40
0.0
  9
$DIMAZIN
 70
     0
  9
$DIMDSEP
 70
    44
  9
$DIMATFIT
 70
     3
  9
$DIMFRAC
 70
     0
  9
$DIMLDRBLK
  1

  9
$DIMLUNIT
 70
     2
  9
$DIMLWD
 70
    -2
  9
$DIMLWE
 70
    -2
  9
$DIMTMOVE
 70
     0
  9
$DIMFXL
 40
1.0
  9
$DIMFXLON
 70
     0
  9
$DIMJOGANG
 40
0.7853981633974483
  9
$DIMTFILL
 70
     0
  9
$DIMTFILLCLR
 70
     0
  9
$DIMARCSYM
 70
     0
  9
$DIMLTYPE
  6

  9
$DIMLTEX1
  6

  9
$DIMLTEX2
  6

  9
$DIMTXTDIRECTION
 70
     0
  9
$LUNITS
 70
     2
  9
$LUPREC
 70
     4
  9
$SKETCHINC
 40
1.0
  9
$FILLETRAD
 40
10.0
  9
$AUNITS
 70
     0
  9
$AUPREC
 70
     0
  9
$MENU
  1
.
  9
$ELEVATION
 40
0.0
  9
$PELEVATION
 40
0.0
  9
$THICKNESS
 40
0.0
  9
$LIMCHECK
 70
     0
  9
$CHAMFERA
 40
0.0
  9
$CHAMFERB
 40
0.0
  9
$CHAMFERC
 40
0.0
  9
$CHAMFERD
 40
0.0
  9
$SKPOLY
 70
     0
  9
$TDCREATE
 40
2459101.383553241
  9
$TDUCREATE
 40
2459101.300230416
  9
$TDUPDATE
 40
2459269.542939815
  9
$TDUUPDATE
 40
2459269.501273148
  9
$TDINDWG
 40
0.0038773264
  9
$TDUSRTIMER
 40
0.0038773264
  9
$USRTIMER
 70
     1
  9
$ANGBASE
 50
0.0
  9
$ANGDIR
 70
     0
  9
$PDMODE
 70
     0
  9
$PDSIZE
 40
0.0
  9
$PLINEWID
 40
0.0
  9
$SPLFRAME
 70
     0
  9
$SPLINETYPE
 70
     6
  9
$SPLINESEGS
 70
     8
  9
$HANDSEED
  5
3BE
  9
$SURFTAB1
 70
     6
  9
$SURFTAB2
 70
     6
  9
$SURFTYPE
 70
     6
  9
$SURFU
 70
     6
  9
$SURFV
 70
     6
  9
$UCSBASE
  2

  9
$UCSNAME
  2

  9
$UCSORG
 10
0.0
 20
0.0
 30
0.0
  9
$UCSXDIR
 10
1.0
 20
0.0
 30
0.0
  9
$UCSYDIR
 10
0.0
 20
1.0
 30
0.0
  9
$UCSORTHOREF
  2

  9
$UCSORTHOVIEW
 70
     0
  9
$UCSORGTOP
 10
0.0
 20
0.0
 30
0.0
  9
$UCSORGBOTTOM
 10
0.0
 20
0.0
 30
0.0
  9
$UCSORGLEFT
 10
0.0
 20
0.0
 30
0.0
  9
$UCSORGRIGHT
 10
0.0
 20
0.0
 30
0.0
  9
$UCSORGFRONT
 10
0.0
 20
0.0
 30
0.0
  9
$UCSORGBACK
 10
0.0
 20
0.0
 30
0.0
  9
$PUCSBASE
  2

  9
$PUCSNAME
  2

  9
$PUCSORG
 10
0.0
 20
0.0
 30
0.0
  9
$PUCSXDIR
 10
1.0
 20
0.0
 30
0.0
  9
$PUCSYDIR
 10
0.0
 20
1.0
 30
0.0
  9
$PUCSORTHOREF
  2

  9
$PUCSORTHOVIEW
 70
     0
  9
$PUCSORGTOP
 10
0.0
 20
0.0
 30
0.0
  9
$PUCSORGBOTTOM
 10
0.0
 20
0.0
 30
0.0
  9
$PUCSORGLEFT
 10
0.0
 20
0.0
 30
0.0
  9
$PUCSORGRIGHT
 10
0.0
 20
0.0
 30
0.0
  9
$PUCSORGFRONT
 10
0.0
 20
0.0
 30
0.0
  9
$PUCSORGBACK
 10
0.0
 20
0.0
 30
0.0
  9
$USERI1
 70
     0
  9
$USERI2
 70
     0
  9
$USERI3
 70
     0
  9
$USERI4
 70
     0
  9
$USERI5
 70
     0
  9
$USERR1
 40
0.0
  9
$USERR2
 40
0.0
  9
$USERR3
 40
0.0
  9
$USERR4
 40
0.0
  9
$USERR5
 40
0.0
  9
$WORLDVIEW
 70
     1
  9
$SHADEDGE
 70
     3
  9
$SHADEDIF
 70
    70
  9
$TILEMODE
 70
     1
  9
$MAXACTVP
 70
    64
  9
$PINSBASE
 10
0.0
 20
0.0
 30
0.0
  9
$PLIMCHECK
 70
     0
  9
$PEXTMIN
 10
1.000000000000000E+20
 20
1.000000000000000E+20
 30
1.000000000000000E+20
  9
$PEXTMAX
 10
-1.000000000000000E+20
 20
-1.000000000000000E+20
 30
-1.000000000000000E+20
  9
$PLIMMIN
 10
0.0
 20
0.0
  9
$PLIMMAX
 10
420.0
 20
297.0
  9
$UNITMODE
 70
     0
  9
$VISRETAIN
 70
     1
  9
$PLINEGEN
 70
     0
  9
$PSLTSCALE
 70
     1
  9
$TREEDEPTH
 70
  3020
  9
$CMLSTYLE
  2
Standard
  9
$CMLJUST
 70
     0
  9
$CMLSCALE
 40
20.0
  9
$PROXYGRAPHICS
 70
     1
  9
$MEASUREMENT
 70
     1
  9
$CELWEIGHT
370
    -1
  9
$ENDCAPS
280
     0
  9
$JOINSTYLE
280
     0
  9
$LWDISPLAY
290
     0
  9
$INSUNITS
 70
     5
  9
$HYPERLINKBASE
  1

  9
$STYLESHEET
  1

  9
$XEDIT
290
     1
  9
$CEPSNTYPE
380
     0
  9
$PSTYLEMODE
290
     1
  9
$FINGERPRINTGUID
  2
{D8F46F35-5462-4C04-8F81-B28550D994F5}
  9
$VERSIONGUID
  2
{15896A27-1E85-7B43-8965-7464923EE21F}
  9
$EXTNAMES
290
     1
  9
$PSVPSCALE
 40
0.0
  9
$OLESTARTUP
290
     0
  9
$SORTENTS
280
   127
  9
$INDEXCTL
280
     0
  9
$HIDETEXT
280
     1
  9
$XCLIPFRAME
280
     2
  9
$HALOGAP
280
     0
  9
$OBSCOLOR
 70
   257
  9
$OBSLTYPE
280
     0
  9
$INTERSECTIONDISPLAY
280
     0
  9
$INTERSECTIONCOLOR
 70
   257
  9
$DIMASSOC
280
     2
  9
$PROJECTNAME
  1

  9
$CAMERADISPLAY
290
     0
  9
$LENSLENGTH
 40
50.0
  9
$CAMERAHEIGHT
 40
0.0
  9
$STEPSPERSEC
 40
2.0
  9
$STEPSIZE
 40
6.0
  9
$3DDWFPREC
 40
2.0
  9
$PSOLWIDTH
 40
5.0
  9
$PSOLHEIGHT
 40
80.0
  9
$LOFTANG1
 40
1.570796326794896
  9
$LOFTANG2
 40
1.570796326794896
  9
$LOFTMAG1
 40
0.0
  9
$LOFTMAG2
 40
0.0
  9
$LOFTPARAM
 70
     7
  9
$LOFTNORMALS
280
     1
  9
$LATITUDE
 40
37.795
  9
$LONGITUDE
 40
-122.394
  9
$NORTHDIRECTION
 40
0.0
  9
$TIMEZONE
 70
 -8000
  9
$LIGHTGLYPHDISPLAY
280
     1
  9
$TILEMODELIGHTSYNCH
280
     1
  9
$CMATERIAL
347
44
  9
$SOLIDHIST
280
     0
  9
$SHOWHIST
280
     1
  9
$DWFFRAME
280
     2
  9
$DGNFRAME
280
     2
  9
$REALWORLDSCALE
290
     1
  9
$INTERFERECOLOR
 62
   256
  9
$INTERFEREOBJVS
345
33
  9
$INTERFEREVPVS
346
30
  9
$CSHADOW
280
     0
  9
$SHADOWPLANELOCATION
 40
0.0
  0
ENDSEC
  0
SECTION
  2
CLASSES
  0
CLASS
  1
ACDBDICTIONARYWDFLT
  2
AcDbDictionaryWithDefault
  3
ObjectDBX Classes
 90
        0
 91
        1
280
     0
281
     0
  0
CLASS
  1
VISUALSTYLE
  2
AcDbVisualStyle
  3
ObjectDBX Classes
 90
     4095
 91
       25
280
     0
281
     0
  0
CLASS
  1
MATERIAL
  2
AcDbMaterial
  3
ObjectDBX Classes
 90
     1153
 91
        3
280
     0
281
     0
  0
CLASS
  1
SCALE
  2
AcDbScale
  3
ObjectDBX Classes
 90
     1153
 91
       33
280
     0
281
     0
  0
CLASS
  1
TABLESTYLE
  2
AcDbTableStyle
  3
ObjectDBX Classes
 90
     4095
 91
        1
280
     0
281
     0
  0
CLASS
  1
MLEADERSTYLE
  2
AcDbMLeaderStyle
  3
ACDB_MLEADERSTYLE_CLASS
 90
     4095
 91
        1
280
     0
281
     0
  0
CLASS
  1
SUN
  2
AcDbSun
  3
SCENEOE
 90
     1153
 91
        1
280
     0
281
     0
  0
CLASS
  1
DICTIONARYVAR
  2
AcDbDictionaryVar
  3
ObjectDBX Classes
 90
        0
 91
        7
280
     0
281
     0
  0
CLASS
  1
ACDBSECTIONVIEWSTYLE
  2
AcDbSectionViewStyle
  3
ObjectDBX Classes
 90
     1025
 91
        1
280
     0
281
     0
  0
CLASS
  1
ACDBDETAILVIEWSTYLE
  2
AcDbDetailViewStyle
  3
ObjectDBX Classes
 90
     1025
 91
        1
280
     0
281
     0
  0
CLASS
  1
SORTENTSTABLE
  2
AcDbSortentsTable
  3
ObjectDBX Classes
 90
        0
 91
        0
280
     0
281
     0
  0
CLASS
  1
CELLSTYLEMAP
  2
AcDbCellStyleMap
  3
ObjectDBX Classes
 90
     1152
 91
        2
280
     0
281
     0
  0
ENDSEC
  0
SECTION
  2
TABLES
  0
TABLE
  2
VPORT
  5
8
330
0
100
AcDbSymbolTable
 70
     1
1001
ACAD
1000
DbSaveVer
1071
      224
  0
VPORT
  5
29
330
8
100
AcDbSymbolTableRecord
100
AcDbViewportTableRecord
  2
*Active
 70
     0
 10
0.0
 20
0.0
 11
1.0
 21
1.0
 12
1212.267772903357
 22
748.880650787769
 13
0.0
 23
0.0
 14
10.0
 24
10.0
 15
10.0
 25
10.0
 16
0.0
 26
0.0
 36
1.0
 17
0.0
 27
0.0
 37
0.0
 40
1959.548132856762
 41
2.113436123348017
 42
50.0
 43
0.0
 44
0.0
 50
0.0
 51
0.0
 71
     0
 72
   100
 73
     1
 74
     3
 75
     0
 76
     0
 77
     0
 78
     0
281
     0
 65
     1
110
0.0
120
0.0
130
0.0
111
1.0
121
0.0
131
0.0
112
0.0
122
1.0
132
0.0
 79
     0
146
0.0
348
2F
 60
     3
 61
     5
292
     1
282
     1
141
0.0
142
0.0
 63
   250
421
  3355443
361
6D
1001
ACAD_NAV_VCDISPLAY
1070
     3
  0
ENDTAB
  0
TABLE
  2
LTYPE
  5
5
330
0
100
AcDbSymbolTable
 70
    11
  0
LTYPE
  5
14
330
5
100
AcDbSymbolTableRecord
100
AcDbLinetypeTableRecord
  2
ByBlock
 70
     0
  3

 72
    65
 73
     0
 40
0.0
  0
LTYPE
  5
15
330
5
100
AcDbSymbolTableRecord
100
AcDbLinetypeTableRecord
  2
ByLayer
 70
     0
  3

 72
    65
 73
     0
 40
0.0
  0
LTYPE
  5
16
330
5
100
AcDbSymbolTableRecord
100
AcDbLinetypeTableRecord
  2
Continuous
 70
     0
  3
Solid line
 72
    65
 73
     0
 40
0.0
  0
LTYPE
  5
6F
330
5
100
AcDbSymbolTableRecord
100
AcDbLinetypeTableRecord
  2
CUSTOM
 70
     0
  3

 72
    65
 73
     0
 40
0.0
  0
LTYPE
  5
70
330
5
100
AcDbSymbolTableRecord
100
AcDbLinetypeTableRecord
  2
SOLID
 70
     0
  3

 72
    65
 73
     0
 40
0.0
  0
LTYPE
  5
71
330
5
100
AcDbSymbolTableRecord
100
AcDbLinetypeTableRecord
  2
DASHED
 70
     0
  3

 72
    65
 73
     2
 40
3.000000038089553
 49
1.500000019044775
 74
     0
 49
-1.500000019044775
 74
     0
  0
LTYPE
  5
72
330
5
100
AcDbSymbolTableRecord
100
AcDbLinetypeTableRecord
  2
LONG_DASH
 70
     0
  3

 72
    65
 73
     2
 40
3.000000038089553
 49
2.250000028567165
 74
     0
 49
-0.7500000095223884
 74
     0
  0
LTYPE
  5
73
330
5
100
AcDbSymbolTableRecord
100
AcDbLinetypeTableRecord
  2
SHORT_DASH
 70
     0
  3

 72
    65
 73
     4
 40
3.000000038089553
 49
0.600000007617911
 74
     0
 49
-0.9000000114268658
 74
     0
 49
0.600000007617911
 74
     0
 49
-0.9000000114268658
 74
     0
  0
LTYPE
  5
74
330
5
100
AcDbSymbolTableRecord
100
AcDbLinetypeTableRecord
  2
DOTTED
 70
     0
  3

 72
    65
 73
     8
 40
3.000000038089553
 49
0.1500000019044777
 74
     0
 49
-0.600000007617911
 74
     0
 49
0.1500000019044777
 74
     0
 49
-0.600000007617911
 74
     0
 49
0.1500000019044777
 74
     0
 49
-0.600000007617911
 74
     0
 49
0.1500000019044777
 74
     0
 49
-0.600000007617911
 74
     0
  0
LTYPE
  5
75
330
5
100
AcDbSymbolTableRecord
100
AcDbLinetypeTableRecord
  2
DOTDASH
 70
     0
  3

 72
    65
 73
     4
 40
3.000000038089553
 49
0.1500000019044777
 74
     0
 49
-0.7500000095223884
 74
     0
 49
1.350000017140299
 74
     0
 49
-0.7500000095223884
 74
     0
  0
LTYPE
  5
76
330
5
100
AcDbSymbolTableRecord
100
AcDbLinetypeTableRecord
  2
DOTDOTDASH
 70
     0
  3

 72
    65
 73
     6
 40
3.000000038089553
 49
0.1500000019044777
 74
     0
 49
-0.4500000057134331
 74
     0
 49
0.1500000019044777
 74
     0
 49
-0.4500000057134331
 74
     0
 49
1.350000017140299
 74
     0
 49
-0.4500000057134331
 74
     0
  0
LTYPE
  5
77
330
5
100
AcDbSymbolTableRecord
100
AcDbLinetypeTableRecord
  2
DASHDASHDOT
 70
     0
  3

 72
    65
 73
     6
 40
3.000000038089553
 49
0.1500000019044777
 74
     0
 49
-0.4500000057134331
 74
     0
 49
0.1500000019044777
 74
     0
 49
-0.4500000057134331
 74
     0
 49
1.350000017140299
 74
     0
 49
-0.4500000057134331
 74
     0
  0
LTYPE
  5
BA
330
5
100
AcDbSymbolTableRecord
100
AcDbLinetypeTableRecord
  2
IMPORT
 70
     0
  3

 72
    65
 73
     0
 40
0.0
  0
ENDTAB
  0
TABLE
  2
LAYER
  5
2
102
{ACAD_XDICTIONARY
360
C1
102
}
330
0
100
AcDbSymbolTable
 70
     3
  0
LAYER
  5
10
330
2
100
AcDbSymbolTableRecord
100
AcDbLayerTableRecord
  2
0
 70
     0
 62
     7
  6
Continuous
370
    -3
390
F
347
46
348
0
  0
LAYER
  5
BB
102
{ACAD_XDICTIONARY
360
BC
102
}
330
2
100
AcDbSymbolTableRecord
100
AcDbLayerTableRecord
  2
HEWI
 70
     0
 62
   250
  6
Continuous
370
    -3
390
F
347
46
348
0
  0
LAYER
  5
20C
330
2
100
AcDbSymbolTableRecord
100
AcDbLayerTableRecord
  2
STANDARD
 70
     0
 62
     7
  6
Continuous
370
    -3
390
F
347
46
348
0
  0
ENDTAB
  0
TABLE
  2
STYLE
  5
3
330
0
100
AcDbSymbolTable
 70
     2
  0
STYLE
  5
11
330
3
100
AcDbSymbolTableRecord
100
AcDbTextStyleTableRecord
  2
Standard
 70
     0
 40
0.0
 41
1.0
 50
0.0
 71
     0
 42
2.5
  3
txt
  4

  0
STYLE
  5
BD
330
3
100
AcDbSymbolTableRecord
100
AcDbTextStyleTableRecord
  2
HEWI
 70
     0
 40
0.0
 41
1.0
 50
0.0
 71
     0
 42
50.0
  3
arial.ttf
  4

1001
ACAD
1000
Arial
1071
       34
  0
ENDTAB
  0
TABLE
  2
VIEW
  5
6
330
0
100
AcDbSymbolTable
 70
     0
  0
ENDTAB
  0
TABLE
  2
UCS
  5
7
330
0
100
AcDbSymbolTable
 70
     0
  0
ENDTAB
  0
TABLE
  2
APPID
  5
9
330
0
100
AcDbSymbolTable
 70
     3
  0
APPID
  5
12
330
9
100
AcDbSymbolTableRecord
100
AcDbRegAppTableRecord
  2
ACAD
 70
     0
  0
APPID
  5
BF
330
9
100
AcDbSymbolTableRecord
100
AcDbRegAppTableRecord
  2
ACAD_NAV_VCDISPLAY
 70
     0
  0
APPID
  5
1B4
330
9
100
AcDbSymbolTableRecord
100
AcDbRegAppTableRecord
  2
ACAD_EXEMPT_FROM_CAD_STANDARDS
 70
     0
  0
ENDTAB
  0
TABLE
  2
DIMSTYLE
  5
A
330
0
100
AcDbSymbolTable
 70
     2
100
AcDbDimStyleTable
 71
     1
340
27
  0
DIMSTYLE
105
27
330
A
100
AcDbSymbolTableRecord
100
AcDbDimStyleTableRecord
  2
ISO-25
 70
     0
 41
2.5
 42
0.625
 43
3.75
 44
1.25
 73
     0
 74
     0
 77
     1
 78
     8
140
2.5
141
2.5
143
0.03937007874016
147
0.625
171
     3
172
     1
271
     2
272
     2
274
     3
278
    44
283
     0
284
     8
340
11
  0
DIMSTYLE
105
BE
330
A
100
AcDbSymbolTableRecord
100
AcDbDimStyleTableRecord
  2
STANDARD
 70
     0
340
11
  0
ENDTAB
  0
TABLE
  2
BLOCK_RECORD
  5
1
330
0
100
AcDbSymbolTable
 70
     2
  0
BLOCK_RECORD
  5
1F
330
1
100
AcDbSymbolTableRecord
100
AcDbBlockTableRecord
  2
*Model_Space
340
22
 70
     0
280
     1
281
     0
  0
BLOCK_RECORD
  5
1B
330
1
100
AcDbSymbolTableRecord
100
AcDbBlockTableRecord
  2
*Paper_Space
340
1E
 70
     0
280
     1
281
     0
  0
BLOCK_RECORD
  5
23
330
1
100
AcDbSymbolTableRecord
100
AcDbBlockTableRecord
  2
*Paper_Space0
340
26
 70
     0
280
     1
281
     0
  0
ENDTAB
  0
ENDSEC
  0
SECTION
  2
BLOCKS
  0
BLOCK
  5
20
330
1F
100
AcDbEntity
  8
0
100
AcDbBlockBegin
  2
*Model_Space
 70
     0
 10
0.0
 20
0.0
 30
0.0
  3
*Model_Space
  1

  0
ENDBLK
  5
21
330
1F
100
AcDbEntity
  8
0
100
AcDbBlockEnd
  0
BLOCK
  5
1C
330
1B
100
AcDbEntity
 67
     1
  8
0
100
AcDbBlockBegin
  2
*Paper_Space
 70
     0
 10
0.0
 20
0.0
 30
0.0
  3
*Paper_Space
  1

  0
ENDBLK
  5
1D
330
1B
100
AcDbEntity
 67
     1
  8
0
100
AcDbBlockEnd
  0
BLOCK
  5
24
330
23
100
AcDbEntity
 67
     1
  8
0
100
AcDbBlockBegin
  2
*Paper_Space0
 70
     0
 10
0.0
 20
0.0
 30
0.0
  3
*Paper_Space0
  1

  0
ENDBLK
  5
25
330
23
100
AcDbEntity
 67
     1
  8
0
100
AcDbBlockEnd
  0
ENDSEC
  0
SECTION
  2
ENTITIES
  0
LINE
  5
2CD
330
1F
100
AcDbEntity
  8
HEWI
 62
     0
100
AcDbLine
 10
1070.171082907948
 20
118.9155534247791
 30
0.0
 11
1073.603582907948
 21
117.6661634247789
 31
0.0
  0
LINE
  5
2CE
330
1F
100
AcDbEntity
  8
HEWI
 62
     0
100
AcDbLine
 10
1079.333982907948
 20
117.6661634247789
 30
0.0
 11
1082.766492907949
 21
118.9155534247791
 31
0.0
  0
LINE
  5
2CF
330
1F
100
AcDbEntity
  8
HEWI
 62
     0
100
AcDbLine
 10
978.9687629079471
 20
95.91552342477905
 30
0.0
 11
978.9687629079471
 21
101.91558342478
 31
0.0
  0
LINE
  5
2D0
330
1F
100
AcDbEntity
  8
HEWI
 62
     0
100
AcDbLine
 10
1059.968792907948
 20
101.9868434247792
 30
0.0
 11
1059.968792907948
 21
118.9155534247791
 31
0.0
  0
LINE
  5
2D1
330
1F
100
AcDbEntity
  8
HEWI
 62
     0
100
AcDbLine
 10
1073.603582907948
 20
117.6661634247789
 30
0.0
 11
1079.333982907948
 21
117.6661634247789
 31
0.0
  0
LINE
  5
2D2
330
1F
100
AcDbEntity
  8
HEWI
 62
     0
100
AcDbLine
 10
1079.333982907948
 20
150.1647934247801
 30
0.0
 11
1082.766492907949
 21
148.91555342478
 31
0.0
  0
LINE
  5
2D3
330
1F
100
AcDbEntity
  8
HEWI
 62
     0
100
AcDbLine
 10
1070.171082907948
 20
148.91555342478
 30
0.0
 11
1073.603582907948
 21
150.1647934247801
 31
0.0
  0
LINE
  5
2D4
330
1F
100
AcDbEntity
  8
HEWI
 62
     0
100
AcDbLine
 10
1073.603582907948
 20
150.1647934247801
 30
0.0
 11
1079.333982907948
 21
150.1647934247801
 31
0.0
  0
LINE
  5
2D5
330
1F
100
AcDbEntity
  8
HEWI
 62
     0
100
AcDbLine
 10
938.9687629079471
 20
101.91558342478
 30
0.0
 11
938.9687629079471
 21
161.91558342478
 31
0.0
  0
ARC
  5
2D6
330
1F
100
AcDbEntity
  8
HEWI
 62
     0
100
AcDbCircle
 10
1076.468782907948
 20
101.945783424779
 30
0.0
 40
16.50004999999999
100
AcDbArc
 50
179.8574180000005
 51
0.1425819999994789
  0
LINE
  5
2D7
330
1F
100
AcDbEntity
  8
HEWI
 62
     0
100
AcDbLine
 10
1103.382982907948
 20
119.54956342478
 30
0.0
 11
1103.816522907949
 21
120.2519234247791
 31
0.0
  0
LINE
  5
2D8
330
1F
100
AcDbEntity
  8
HEWI
 62
     0
100
AcDbLine
 10
1103.816522907949
 20
120.2519234247791
 30
0.0
 11
1103.968762907949
 21
121.0803234247798
 31
0.0
  0
LINE
  5
2D9
330
1F
100
AcDbEntity
  8
HEWI
 62
     0
100
AcDbLine
 10
1101.968762907949
 20
118.9155534247791
 30
0.0
 11
1102.734142907949
 21
119.08035342478
 31
0.0
  0
LINE
  5
2DA
330
1F
100
AcDbEntity
  8
HEWI
 62
     0
100
AcDbLine
 10
1102.734142907949
 20
119.08035342478
 30
0.0
 11
1103.382982907948
 21
119.54956342478
 31
0.0
  0
LINE
  5
2DB
330
1F
100
AcDbEntity
  8
HEWI
 62
     0
100
AcDbLine
 10
1092.968782907948
 20
101.9868434247792
 30
0.0
 11
1092.968782907948
 21
118.9155534247791
 31
0.0
  0
LINE
  5
2DC
330
1F
100
AcDbEntity
  8
HEWI
 62
     0
100
AcDbLine
 10
938.9687629079471
 20
118.9155534247791
 30
0.0
 11
1101.968762907949
 21
118.9155534247791
 31
0.0
  0
LINE
  5
2DD
330
1F
100
AcDbEntity
  8
HEWI
 62
     0
100
AcDbLine
 10
1102.734142907949
 20
148.7507634247801
 30
0.0
 11
1103.382982907948
 21
148.28140342478
 31
0.0
  0
LINE
  5
2DE
330
1F
100
AcDbEntity
  8
HEWI
 62
     0
100
AcDbLine
 10
1101.968762907949
 20
148.91555342478
 30
0.0
 11
1102.734142907949
 21
148.7507634247801
 31
0.0
  0
LINE
  5
2DF
330
1F
100
AcDbEntity
  8
HEWI
 62
     0
100
AcDbLine
 10
1103.816522907949
 20
147.57919342478
 30
0.0
 11
1103.968762907949
 21
146.7507934247799
 31
0.0
  0
LINE
  5
2E0
330
1F
100
AcDbEntity
  8
HEWI
 62
     0
100
AcDbLine
 10
1103.382982907948
 20
148.28140342478
 30
0.0
 11
1103.816522907949
 21
147.57919342478
 31
0.0
  0
LINE
  5
2E1
330
1F
100
AcDbEntity
  8
HEWI
 62
     0
100
AcDbLine
 10
1103.968762907949
 20
121.0803234247798
 30
0.0
 11
1103.968762907949
 21
146.7507934247799
 31
0.0
  0
LINE
  5
2E2
330
1F
100
AcDbEntity
  8
HEWI
 62
     0
100
AcDbLine
 10
1096.468762907949
 20
118.9155534247791
 30
0.0
 11
1096.468762907949
 21
148.91555342478
 31
0.0
  0
LINE
  5
2E3
330
1F
100
AcDbEntity
  8
HEWI
 62
     0
100
AcDbLine
 10
938.9687629079471
 20
148.91555342478
 30
0.0
 11
1101.968762907949
 21
148.91555342478
 31
0.0
  0
LINE
  5
2E4
330
1F
100
AcDbEntity
  8
HEWI
 62
     0
100
AcDbLine
 10
378.9687229079484
 20
95.91552342477905
 30
0.0
 11
378.9687229079484
 21
101.91558342478
 31
0.0
  0
LINE
  5
2E5
330
1F
100
AcDbEntity
  8
HEWI
 62
     0
100
AcDbLine
 10
438.9687229079473
 20
101.91558342478
 30
0.0
 11
438.9687229079473
 21
161.91558342478
 31
0.0
  0
LINE
  5
2E6
330
1F
100
AcDbEntity
  8
HEWI
 62
     0
100
AcDbLine
 10
378.9687229079484
 20
101.91558342478
 30
0.0
 11
978.9687629079471
 21
101.91558342478
 31
0.0
  0
LINE
  5
2E7
330
1F
100
AcDbEntity
  8
HEWI
 62
     0
100
AcDbLine
 10
378.9687229079484
 20
95.91552342477905
 30
0.0
 11
978.9687629079471
 21
95.91552342477905
 31
0.0
  0
LINE
  5
2E8
330
1F
100
AcDbEntity
  8
HEWI
 62
     0
100
AcDbLine
 10
438.9687229079473
 20
161.91558342478
 30
0.0
 11
938.9687629079471
 21
161.91558342478
 31
0.0
  0
ARC
  5
2E9
330
1F
100
AcDbEntity
  8
HEWI
 62
     0
100
AcDbCircle
 10
1369.759862907947
 20
323.042583424779
 30
0.0
 40
145.73925
100
AcDbArc
 50
155.2180080000025
 51
190.5277000000024
  0
ARC
  5
2EA
330
1F
100
AcDbEntity
  8
HEWI
 62
     0
100
AcDbCircle
 10
1369.759992907947
 20
323.04255342478
 30
0.0
 40
178.3347
100
AcDbArc
 50
155.2180249999941
 51
190.5276909999988
  0
ARC
  5
2EB
330
1F
100
AcDbEntity
  8
HEWI
 62
     0
100
AcDbCircle
 10
1217.892562907947
 20
282.0298234247789
 30
0.0
 40
11.99999
100
AcDbArc
 50
284.9413420000071
 51
14.94149100000167
  0
ARC
  5
2EC
330
1F
100
AcDbEntity
  8
HEWI
 62
     0
100
AcDbCircle
 10
1209.681302907947
 20
279.838693424779
 30
0.0
 40
12.00009
100
AcDbArc
 50
194.941703999998
 51
284.9410170000022
  0
ARC
  5
2ED
330
1F
100
AcDbEntity
  8
HEWI
 62
     0
100
AcDbCircle
 10
1226.473652907947
 20
456.0002634247799
 30
0.0
 40
3.00002
100
AcDbArc
 50
90.00061799999446
 51
179.9997459999985
  0
ARC
  5
2EE
330
1F
100
AcDbEntity
  8
HEWI
 62
     0
100
AcDbCircle
 10
1252.972242907947
 20
456.00023342478
 30
0.0
 40
3.000059999999998
100
AcDbArc
 50
0.0008759999983072
 51
89.99912399999519
  0
LINE
  5
2EF
330
1F
100
AcDbEntity
  8
HEWI
 62
     0
100
AcDbLine
 10
1226.732582907947
 20
673.50027342478
 30
0.0
 11
1228.605252907947
 21
671.6276134247801
 31
0.0
  0
LINE
  5
2F0
330
1F
100
AcDbEntity
  8
HEWI
 62
     0
100
AcDbLine
 10
1230.350292907947
 20
669.8825634247798
 30
0.0
 11
1232.222962907947
 21
668.0098934247799
 31
0.0
  0
LINE
  5
2F1
330
1F
100
AcDbEntity
  8
HEWI
 62
     0
100
AcDbLine
 10
1247.222962907947
 20
693.9906634247793
 30
0.0
 11
1249.095632907947
 21
692.1179934247799
 31
0.0
  0
LINE
  5
2F2
330
1F
100
AcDbEntity
  8
HEWI
 62
     0
100
AcDbLine
 10
1250.840672907947
 20
690.3729434247793
 30
0.0
 11
1252.713342907947
 21
688.5002734247799
 31
0.0
  0
LINE
  5
2F3
330
1F
100
AcDbEntity
  8
HEWI
 62
     0
100
AcDbLine
 10
1247.222962907947
 20
668.0098934247799
 30
0.0
 11
1247.912412907947
 21
668.6993634247792
 31
0.0
  0
LINE
  5
2F4
330
1F
100
AcDbEntity
  8
HEWI
 62
     0
100
AcDbLine
 10
1237.441852907947
 20
384.131623424779
 30
0.0
 11
1248.980892907947
 21
404.78197342478
 31
0.0
  0
LINE
  5
2F5
330
1F
100
AcDbEntity
  8
HEWI
 62
     0
100
AcDbLine
 10
1207.848252907947
 20
397.7944834247799
 30
0.0
 11
1220.640302907947
 21
420.6872434247793
 31
0.0
  0
LINE
  5
2F6
330
1F
100
AcDbEntity
  8
HEWI
 62
     0
100
AcDbLine
 10
1248.980892907947
 20
404.78197342478
 30
0.0
 11
1251.666302907947
 21
409.546203424779
 31
0.0
  0
LINE
  5
2F7
330
1F
100
AcDbEntity
  8
HEWI
 62
     0
100
AcDbLine
 10
1220.640302907947
 20
420.6872434247793
 30
0.0
 11
1222.183132907947
 21
423.4243834247799
 31
0.0
  0
LINE
  5
2F8
330
1F
100
AcDbEntity
  8
HEWI
 62
     0
100
AcDbLine
 10
1252.033062907947
 20
534.2158334247797
 30
0.0
 11
1267.722952907948
 21
561.81602342478
 31
0.0
  0
LINE
  5
2F9
330
1F
100
AcDbEntity
  8
HEWI
 62
     0
100
AcDbLine
 10
1229.116352907947
 20
670.3936734247797
 30
0.0
 11
1239.722962907947
 21
666.0002734247799
 31
0.0
  0
LINE
  5
2FA
330
1F
100
AcDbEntity
  8
HEWI
 62
     0
100
AcDbLine
 10
1239.722962907947
 20
696.0002734247799
 30
0.0
 11
1250.329552907947
 21
691.6068834247791
 31
0.0
  0
LINE
  5
2FB
330
1F
100
AcDbEntity
  8
HEWI
 62
     0
100
AcDbLine
 10
1250.329552907947
 20
670.3936734247797
 30
0.0
 11
1254.722962907947
 21
681.0002734247791
 31
0.0
  0
LINE
  5
2FC
330
1F
100
AcDbEntity
  8
HEWI
 62
     0
100
AcDbLine
 10
1224.722962907947
 20
681.0002734247791
 30
0.0
 11
1229.116352907947
 21
691.6068834247791
 31
0.0
  0
LINE
  5
2FD
330
1F
100
AcDbEntity
  8
HEWI
 62
     0
100
AcDbLine
 10
1251.666302907947
 20
409.546203424779
 30
0.0
 11
1254.065402907947
 21
415.79412342478
 31
0.0
  0
LINE
  5
2FE
330
1F
100
AcDbEntity
  8
HEWI
 62
     0
100
AcDbLine
 10
1222.183132907947
 20
423.4243834247799
 30
0.0
 11
1222.870752907947
 21
425.21515342478
 31
0.0
  0
LINE
  5
2FF
330
1F
100
AcDbEntity
  8
HEWI
 62
     0
100
AcDbLine
 10
1232.222962907947
 20
668.0098934247799
 30
0.0
 11
1239.722962907947
 21
666.0002734247799
 31
0.0
  0
LINE
  5
300
330
1F
100
AcDbEntity
  8
HEWI
 62
     0
100
AcDbLine
 10
1239.722962907947
 20
696.0002734247799
 30
0.0
 11
1247.222962907947
 21
693.9906634247793
 31
0.0
  0
LINE
  5
301
330
1F
100
AcDbEntity
  8
HEWI
 62
     0
100
AcDbLine
 10
1252.713342907947
 20
673.50027342478
 30
0.0
 11
1254.722962907947
 21
681.0002734247791
 31
0.0
  0
LINE
  5
302
330
1F
100
AcDbEntity
  8
HEWI
 62
     0
100
AcDbLine
 10
1224.722962907947
 20
681.0002734247791
 30
0.0
 11
1226.732582907947
 21
688.5002734247799
 31
0.0
  0
LINE
  5
303
330
1F
100
AcDbEntity
  8
HEWI
 62
     0
100
AcDbLine
 10
1254.065402907947
 20
415.79412342478
 30
0.0
 11
1255.525762907947
 21
422.3255534247791
 31
0.0
  0
LINE
  5
304
330
1F
100
AcDbEntity
  8
HEWI
 62
     0
100
AcDbLine
 10
1222.870752907947
 20
425.21515342478
 30
0.0
 11
1223.289322907947
 21
427.087173424779
 31
0.0
  0
LINE
  5
305
330
1F
100
AcDbEntity
  8
HEWI
 62
     0
100
AcDbLine
 10
1255.525762907947
 20
422.3255534247791
 30
0.0
 11
1255.972292907947
 21
428.404273424779
 31
0.0
  0
LINE
  5
306
330
1F
100
AcDbEntity
  8
HEWI
 62
     0
100
AcDbLine
 10
1223.289322907947
 20
427.087173424779
 30
0.0
 11
1223.473632907947
 21
429.5962934247802
 31
0.0
  0
LINE
  5
307
330
1F
100
AcDbEntity
  8
HEWI
 62
     0
100
AcDbLine
 10
1212.775212907947
 20
268.244303424779
 30
0.0
 11
1220.986522907947
 21
270.4355434247801
 31
0.0
  0
LINE
  5
308
330
1F
100
AcDbEntity
  8
HEWI
 62
     0
100
AcDbLine
 10
1239.722962907947
 20
666.0002734247799
 30
0.0
 11
1247.222962907947
 21
668.0098934247799
 31
0.0
  0
LINE
  5
309
330
1F
100
AcDbEntity
  8
HEWI
 62
     0
100
AcDbLine
 10
1232.222962907947
 20
693.9906634247793
 30
0.0
 11
1239.722962907947
 21
696.0002734247799
 31
0.0
  0
LINE
  5
30A
330
1F
100
AcDbEntity
  8
HEWI
 62
     0
100
AcDbLine
 10
1226.473892907947
 20
296.4144334247799
 30
0.0
 11
1229.486832907947
 21
285.1238134247799
 31
0.0
  0
LINE
  5
30B
330
1F
100
AcDbEntity
  8
HEWI
 62
     0
100
AcDbLine
 10
1194.427252907947
 20
290.4588934247799
 30
0.0
 11
1198.086952907947
 21
276.7446334247791
 31
0.0
  0
LINE
  5
30C
330
1F
100
AcDbEntity
  8
HEWI
 62
     0
100
AcDbLine
 10
1252.713342907947
 20
688.5002734247799
 30
0.0
 11
1254.722962907947
 21
681.0002734247791
 31
0.0
  0
LINE
  5
30D
330
1F
100
AcDbEntity
  8
HEWI
 62
     0
100
AcDbLine
 10
1224.722962907947
 20
681.0002734247791
 30
0.0
 11
1226.732582907947
 21
673.50027342478
 31
0.0
  0
LINE
  5
30E
330
1F
100
AcDbEntity
  8
HEWI
 62
     0
100
AcDbLine
 10
1239.722962907947
 20
666.0002734247799
 30
0.0
 11
1250.329552907947
 21
670.3936734247797
 31
0.0
  0
LINE
  5
30F
330
1F
100
AcDbEntity
  8
HEWI
 62
     0
100
AcDbLine
 10
1229.116352907947
 20
691.6068834247791
 30
0.0
 11
1239.722962907947
 21
696.0002734247799
 31
0.0
  0
LINE
  5
310
330
1F
100
AcDbEntity
  8
HEWI
 62
     0
100
AcDbLine
 10
1224.722962907947
 20
681.0002734247791
 30
0.0
 11
1229.116352907947
 21
670.3936734247797
 31
0.0
  0
LINE
  5
311
330
1F
100
AcDbEntity
  8
HEWI
 62
     0
100
AcDbLine
 10
1250.329552907947
 20
691.6068834247791
 30
0.0
 11
1254.722962907947
 21
681.0002734247791
 31
0.0
  0
LINE
  5
312
330
1F
100
AcDbEntity
  8
HEWI
 62
     0
100
AcDbLine
 10
1247.222962907947
 20
668.0098934247799
 30
0.0
 11
1249.095632907947
 21
669.8825634247798
 31
0.0
  0
LINE
  5
313
330
1F
100
AcDbEntity
  8
HEWI
 62
     0
100
AcDbLine
 10
1250.840672907947
 20
671.6276134247801
 30
0.0
 11
1252.713342907947
 21
673.50027342478
 31
0.0
  0
LINE
  5
314
330
1F
100
AcDbEntity
  8
HEWI
 62
     0
100
AcDbLine
 10
1226.732582907947
 20
688.5002734247799
 30
0.0
 11
1228.605252907947
 21
690.3729434247793
 31
0.0
  0
LINE
  5
315
330
1F
100
AcDbEntity
  8
HEWI
 62
     0
100
AcDbLine
 10
1230.350292907947
 20
692.1179934247799
 30
0.0
 11
1232.222962907947
 21
693.9906634247793
 31
0.0
  0
LINE
  5
316
330
1F
100
AcDbEntity
  8
HEWI
 62
     0
100
AcDbLine
 10
1230.350292907947
 20
669.8825634247798
 30
0.0
 11
1231.688102907947
 21
668.5447434247798
 31
0.0
  0
LINE
  5
317
330
1F
100
AcDbEntity
  8
HEWI
 62
     0
100
AcDbLine
 10
1255.972292907947
 20
428.404273424779
 30
0.0
 11
1255.972292907947
 21
456.000273424779
 31
0.0
  0
LINE
  5
318
330
1F
100
AcDbEntity
  8
HEWI
 62
     0
100
AcDbLine
 10
1223.473632907947
 20
429.5962934247802
 30
0.0
 11
1223.473632907947
 21
456.000273424779
 31
0.0
  0
LINE
  5
319
330
1F
100
AcDbEntity
  8
HEWI
 62
     0
100
AcDbLine
 10
1252.033062907947
 20
459.00028342478
 30
0.0
 11
1252.033062907947
 21
672.8199934247799
 31
0.0
  0
LINE
  5
31A
330
1F
100
AcDbEntity
  8
HEWI
 62
     0
100
AcDbLine
 10
1227.412862907948
 20
459.00028342478
 30
0.0
 11
1227.412862907948
 21
672.8199934247799
 31
0.0
  0
LINE
  5
31B
330
1F
100
AcDbEntity
  8
HEWI
 62
     0
100
AcDbLine
 10
1267.722952907948
 20
509.0428734247799
 30
0.0
 11
1267.722952907948
 21
709.0428734247799
 31
0.0
  0
LINE
  5
31C
330
1F
100
AcDbEntity
  8
HEWI
 62
     0
100
AcDbLine
 10
1207.722952907947
 20
489.0428734247799
 30
0.0
 11
1207.722952907947
 21
1029.04287342478
 31
0.0
  0
LINE
  5
31D
330
1F
100
AcDbEntity
  8
HEWI
 62
     0
100
AcDbLine
 10
1201.722952907947
 20
489.0428734247799
 30
0.0
 11
1201.722952907947
 21
1029.04287342478
 31
0.0
  0
LINE
  5
31E
330
1F
100
AcDbEntity
  8
HEWI
 62
     0
100
AcDbLine
 10
1226.473622907947
 20
459.00028342478
 30
0.0
 11
1252.972282907947
 21
459.00028342478
 31
0.0
  0
LINE
  5
31F
330
1F
100
AcDbEntity
  8
HEWI
 62
     0
100
AcDbLine
 10
1207.722952907947
 20
509.0428734247799
 30
0.0
 11
1227.412862907948
 21
509.0428734247799
 31
0.0
  0
LINE
  5
320
330
1F
100
AcDbEntity
  8
HEWI
 62
     0
100
AcDbLine
 10
1252.033062907947
 20
509.0428734247799
 30
0.0
 11
1267.722952907948
 21
509.0428734247799
 31
0.0
  0
LINE
  5
321
330
1F
100
AcDbEntity
  8
HEWI
 62
     0
100
AcDbLine
 10
1201.722952907947
 20
489.0428734247799
 30
0.0
 11
1207.722952907947
 21
489.0428734247799
 31
0.0
  0
LINE
  5
322
330
1F
100
AcDbEntity
  8
HEWI
 62
     0
100
AcDbLine
 10
1243.730012907947
 20
667.07396342478
 30
0.0
 11
1243.998212907947
 21
667.1458234247799
 31
0.0
  0
LINE
  5
323
330
1F
100
AcDbEntity
  8
HEWI
 62
     0
100
AcDbLine
 10
1235.214142907947
 20
667.2084134247799
 30
0.0
 11
1235.715892907947
 21
667.07396342478
 31
0.0
  0
LINE
  5
324
330
1F
100
AcDbEntity
  8
HEWI
 62
     0
100
AcDbLine
 10
1243.998212907947
 20
667.1458234247799
 30
0.0
 11
1244.231782907947
 21
667.2084134247799
 31
0.0
  0
LINE
  5
325
330
1F
100
AcDbEntity
  8
HEWI
 62
     0
100
AcDbLine
 10
1239.435562907947
 20
666.0772834247791
 30
0.0
 11
1240.010342907947
 21
666.0772834247791
 31
0.0
  0
LINE
  5
326
330
1F
100
AcDbEntity
  8
HEWI
 62
     0
100
AcDbLine
 10
1207.722952907947
 20
709.0428734247799
 30
0.0
 11
1267.722952907948
 21
709.0428734247799
 31
0.0
  0
LINE
  5
327
330
1F
100
AcDbEntity
  8
HEWI
 62
     0
100
AcDbLine
 10
1201.722952907947
 20
1029.04287342478
 30
0.0
 11
1207.722952907947
 21
1029.04287342478
 31
0.0
  0
ARC
  5
328
330
1F
100
AcDbEntity
  8
HEWI
 62
     0
100
AcDbCircle
 10
49.2367229079473
 20
323.042593424779
 30
0.0
 40
145.7391799999999
100
AcDbArc
 50
349.4722909999971
 51
24.78200100000137
  0
ARC
  5
329
330
1F
100
AcDbEntity
  8
HEWI
 62
     0
100
AcDbCircle
 10
49.23677290794808
 20
323.0426034247798
 30
0.0
 40
178.33445
100
AcDbArc
 50
349.4722780000016
 51
24.7819949999968
  0
ARC
  5
32A
330
1F
100
AcDbEntity
  8
HEWI
 62
     0
100
AcDbCircle
 10
166.0242829079479
 20
456.00023342478
 30
0.0
 40
3.000059999999998
100
AcDbArc
 50
90.00087600000483
 51
179.9991240000017
  0
ARC
  5
32B
330
1F
100
AcDbEntity
  8
HEWI
 62
     0
100
AcDbCircle
 10
192.5228629079479
 20
456.0002634247799
 30
0.0
 40
3.00002
100
AcDbArc
 50
0.0002540000014631
 51
89.99938199999251
  0
ARC
  5
32C
330
1F
100
AcDbEntity
  8
HEWI
 62
     0
100
AcDbCircle
 10
209.3152129079481
 20
279.838693424779
 30
0.0
 40
12.00009
100
AcDbArc
 50
255.0589829999978
 51
345.0582960000019
  0
ARC
  5
32D
330
1F
100
AcDbEntity
  8
HEWI
 62
     0
100
AcDbCircle
 10
201.1039529079483
 20
282.0298234247789
 30
0.0
 40
11.99999
100
AcDbArc
 50
165.0585089999983
 51
255.0586579999929
  0
LINE
  5
32E
330
1F
100
AcDbEntity
  8
HEWI
 62
     0
100
AcDbLine
 10
198.0099929079481
 20
270.4355434247801
 30
0.0
 11
206.2213029079471
 21
268.244303424779
 31
0.0
  0
LINE
  5
32F
330
1F
100
AcDbEntity
  8
HEWI
 62
     0
100
AcDbLine
 10
189.5096829079482
 20
285.1238134247799
 30
0.0
 11
192.5226229079471
 21
296.4144334247799
 31
0.0
  0
LINE
  5
330
330
1F
100
AcDbEntity
  8
HEWI
 62
     0
100
AcDbLine
 10
220.9095629079472
 20
276.7446334247791
 30
0.0
 11
224.5692529079481
 21
290.4588934247799
 31
0.0
  0
LINE
  5
331
330
1F
100
AcDbEntity
  8
HEWI
 62
     0
100
AcDbLine
 10
163.0242229079481
 20
428.404273424779
 30
0.0
 11
163.4707529079483
 21
422.3255534247791
 31
0.0
  0
LINE
  5
332
330
1F
100
AcDbEntity
  8
HEWI
 62
     0
100
AcDbLine
 10
195.5228829079474
 20
429.5962934247802
 30
0.0
 11
195.7071929079472
 21
427.087173424779
 31
0.0
  0
LINE
  5
333
330
1F
100
AcDbEntity
  8
HEWI
 62
     0
100
AcDbLine
 10
163.4707529079483
 20
422.3255534247791
 30
0.0
 11
164.9311129079471
 21
415.79412342478
 31
0.0
  0
LINE
  5
334
330
1F
100
AcDbEntity
  8
HEWI
 62
     0
100
AcDbLine
 10
195.7071929079472
 20
427.087173424779
 30
0.0
 11
196.1257629079482
 21
425.21515342478
 31
0.0
  0
LINE
  5
335
330
1F
100
AcDbEntity
  8
HEWI
 62
     0
100
AcDbLine
 10
164.9311129079471
 20
415.79412342478
 30
0.0
 11
167.3302129079479
 21
409.546203424779
 31
0.0
  0
LINE
  5
336
330
1F
100
AcDbEntity
  8
HEWI
 62
     0
100
AcDbLine
 10
196.1257629079482
 20
425.21515342478
 30
0.0
 11
196.8133829079481
 21
423.4243834247799
 31
0.0
  0
LINE
  5
337
330
1F
100
AcDbEntity
  8
HEWI
 62
     0
100
AcDbLine
 10
167.3302129079479
 20
409.546203424779
 30
0.0
 11
181.5546629079472
 21
384.131623424779
 31
0.0
  0
LINE
  5
338
330
1F
100
AcDbEntity
  8
HEWI
 62
     0
100
AcDbLine
 10
196.8133829079481
 20
423.4243834247799
 30
0.0
 11
211.1482629079483
 21
397.7944834247799
 31
0.0
  0
LINE
  5
339
330
1F
100
AcDbEntity
  8
HEWI
 62
     0
100
AcDbLine
 10
151.273562907947
 20
561.81602342478
 30
0.0
 11
181.273562907947
 21
509.0428734247799
 31
0.0
  0
LINE
  5
33A
330
1F
100
AcDbEntity
  8
HEWI
 62
     0
100
AcDbLine
 10
163.0242229079481
 20
428.404273424779
 30
0.0
 11
163.0242229079481
 21
456.000273424779
 31
0.0
  0
LINE
  5
33B
330
1F
100
AcDbEntity
  8
HEWI
 62
     0
100
AcDbLine
 10
195.5228829079474
 20
429.5962934247802
 30
0.0
 11
195.5228829079474
 21
456.000273424779
 31
0.0
  0
LINE
  5
33C
330
1F
100
AcDbEntity
  8
HEWI
 62
     0
100
AcDbLine
 10
166.9634529079471
 20
459.00028342478
 30
0.0
 11
166.9634529079471
 21
509.0428734247799
 31
0.0
  0
LINE
  5
33D
330
1F
100
AcDbEntity
  8
HEWI
 62
     0
100
AcDbLine
 10
191.5836629079472
 20
459.00028342478
 30
0.0
 11
191.5836629079472
 21
509.0428734247799
 31
0.0
  0
LINE
  5
33E
330
1F
100
AcDbEntity
  8
HEWI
 62
     0
100
AcDbLine
 10
151.273562907947
 20
509.0428734247799
 30
0.0
 11
151.273562907947
 21
709.0428734247799
 31
0.0
  0
LINE
  5
33F
330
1F
100
AcDbEntity
  8
HEWI
 62
     0
100
AcDbLine
 10
211.273562907947
 20
489.0428734247799
 30
0.0
 11
211.273562907947
 21
1029.04287342478
 31
0.0
  0
LINE
  5
340
330
1F
100
AcDbEntity
  8
HEWI
 62
     0
100
AcDbLine
 10
217.2735629079471
 20
489.0428734247799
 30
0.0
 11
217.2735629079471
 21
1029.04287342478
 31
0.0
  0
LINE
  5
341
330
1F
100
AcDbEntity
  8
HEWI
 62
     0
100
AcDbLine
 10
166.0242329079483
 20
459.00028342478
 30
0.0
 11
192.5228929079471
 21
459.00028342478
 31
0.0
  0
LINE
  5
342
330
1F
100
AcDbEntity
  8
HEWI
 62
     0
100
AcDbLine
 10
151.273562907947
 20
509.0428734247799
 30
0.0
 11
211.273562907947
 21
509.0428734247799
 31
0.0
  0
LINE
  5
343
330
1F
100
AcDbEntity
  8
HEWI
 62
     0
100
AcDbLine
 10
211.273562907947
 20
489.0428734247799
 30
0.0
 11
217.2735629079471
 21
489.0428734247799
 31
0.0
  0
LINE
  5
344
330
1F
100
AcDbEntity
  8
HEWI
 62
     0
100
AcDbLine
 10
151.273562907947
 20
709.0428734247799
 30
0.0
 11
211.273562907947
 21
709.0428734247799
 31
0.0
  0
LINE
  5
345
330
1F
100
AcDbEntity
  8
HEWI
 62
     0
100
AcDbLine
 10
211.273562907947
 20
1029.04287342478
 30
0.0
 11
217.2735629079471
 21
1029.04287342478
 31
0.0
  0
ARC
  5
346
330
1F
100
AcDbEntity
  8
HEWI
 62
     0
100
AcDbCircle
 10
967.4471829079475
 20
499.0428834247799
 30
0.0
 40
10.00000999999999
100
AcDbArc
 50
270.000030000003
 51
359.9999700000002
  0
ARC
  5
347
330
1F
100
AcDbEntity
  8
HEWI
 62
     0
100
AcDbCircle
 10
387.4471829079473
 20
1019.042903424779
 30
0.0
 40
9.999969999999999
100
AcDbArc
 50
89.99985099999282
 51
180.0001490000006
  0
ARC
  5
348
330
1F
100
AcDbEntity
  8
HEWI
 62
     0
100
AcDbCircle
 10
387.4471629079474
 20
499.0428334247791
 30
0.0
 40
9.999959999999996
100
AcDbArc
 50
179.9997569999977
 51
270.0002429999958
  0
ARC
  5
349
330
1F
100
AcDbEntity
  8
HEWI
 62
     0
100
AcDbCircle
 10
967.4472129079472
 20
1019.042903424779
 30
0.0
 40
9.999969999999999
100
AcDbArc
 50
359.9998509999994
 51
90.00014899999413
  0
LINE
  5
34A
330
1F
100
AcDbEntity
  8
HEWI
 62
     0
100
AcDbLine
 10
1081.197212907948
 20
671.3352134247793
 30
0.0
 11
1084.522772907948
 21
668.5447434247798
 31
0.0
  0
LINE
  5
34B
330
1F
100
AcDbEntity
  8
HEWI
 62
     0
100
AcDbLine
 10
1101.212572907949
 20
695.8354934247798
 30
0.0
 11
1101.861432907949
 21
695.3662234247801
 31
0.0
  0
LINE
  5
34C
330
1F
100
AcDbEntity
  8
HEWI
 62
     0
100
AcDbLine
 10
1087.098432907948
 20
271.59552342478
 30
0.0
 11
1089.580542907948
 21
275.1240434247802
 31
0.0
  0
LINE
  5
34D
330
1F
100
AcDbEntity
  8
HEWI
 62
     0
100
AcDbLine
 10
1089.580542907948
 20
275.1240434247802
 30
0.0
 11
1090.519682907948
 21
276.4972934247798
 31
0.0
  0
LINE
  5
34E
330
1F
100
AcDbEntity
  8
HEWI
 62
     0
100
AcDbLine
 10
1058.679092907948
 20
457.1483234247798
 30
0.0
 11
1059.339452907948
 21
458.1215934247799
 31
0.0
  0
LINE
  5
34F
330
1F
100
AcDbEntity
  8
HEWI
 62
     0
100
AcDbLine
 10
1089.566702907949
 20
458.7719234247799
 30
0.0
 11
1090.554972907948
 21
458.1215934247799
 31
0.0
  0
LINE
  5
350
330
1F
100
AcDbEntity
  8
HEWI
 62
     0
100
AcDbLine
 10
1062.447212907948
 20
666.0002734247799
 30
0.0
 11
1063.153772907948
 21
667.07396342478
 31
0.0
  0
LINE
  5
351
330
1F
100
AcDbEntity
  8
HEWI
 62
     0
100
AcDbLine
 10
1101.861432907949
 20
666.6343234247793
 30
0.0
 11
1102.294972907948
 21
667.336633424779
 31
0.0
  0
LINE
  5
352
330
1F
100
AcDbEntity
  8
HEWI
 62
     0
100
AcDbLine
 10
1062.795992907949
 20
271.59552342478
 30
0.0
 11
1066.510722907948
 21
269.4307934247791
 31
0.0
  0
LINE
  5
353
330
1F
100
AcDbEntity
  8
HEWI
 62
     0
100
AcDbLine
 10
1065.062872907948
 20
668.0098934247799
 30
0.0
 11
1065.371652907949
 21
668.5447434247798
 31
0.0
  0
LINE
  5
354
330
1F
100
AcDbEntity
  8
HEWI
 62
     0
100
AcDbLine
 10
1084.831552907949
 20
668.0098934247799
 30
0.0
 11
1086.558522907949
 21
667.2084134247799
 31
0.0
  0
LINE
  5
355
330
1F
100
AcDbEntity
  8
HEWI
 62
     0
100
AcDbLine
 10
1066.612332907948
 20
269.38540342478
 30
0.0
 11
1068.069732907948
 21
268.734573424779
 31
0.0
  0
LINE
  5
356
330
1F
100
AcDbEntity
  8
HEWI
 62
     0
100
AcDbLine
 10
1077.117812907948
 20
672.8199934247799
 30
0.0
 11
1081.020782907948
 21
671.3994234247792
 31
0.0
  0
LINE
  5
357
330
1F
100
AcDbEntity
  8
HEWI
 62
     0
100
AcDbLine
 10
1068.223692907948
 20
268.7012734247801
 30
0.0
 11
1070.458252907948
 21
268.21783342478
 31
0.0
  0
LINE
  5
358
330
1F
100
AcDbEntity
  8
HEWI
 62
     0
100
AcDbLine
 10
1100.447222907948
 20
696.0002734247799
 30
0.0
 11
1101.212572907949
 21
695.8354934247798
 31
0.0
  0
LINE
  5
359
330
1F
100
AcDbEntity
  8
HEWI
 62
     0
100
AcDbLine
 10
1090.519682907948
 20
276.4972934247798
 30
0.0
 11
1091.447212907948
 21
280.93420342478
 31
0.0
  0
LINE
  5
35A
330
1F
100
AcDbEntity
  8
HEWI
 62
     0
100
AcDbLine
 10
1088.400942907949
 20
459.00028342478
 30
0.0
 11
1089.566702907949
 21
458.7719234247799
 31
0.0
  0
LINE
  5
35B
330
1F
100
AcDbEntity
  8
HEWI
 62
     0
100
AcDbLine
 10
1058.447222907948
 20
456.000273424779
 30
0.0
 11
1058.679092907948
 21
457.1483234247798
 31
0.0
  0
LINE
  5
35C
330
1F
100
AcDbEntity
  8
HEWI
 62
     0
100
AcDbLine
 10
1102.294972907948
 20
667.336633424779
 30
0.0
 11
1102.447212907948
 21
668.1650634247798
 31
0.0
  0
LINE
  5
35D
330
1F
100
AcDbEntity
  8
HEWI
 62
     0
100
AcDbLine
 10
1070.646032907948
 20
268.2002134247801
 30
0.0
 11
1073.388222907948
 21
267.9428734247798
 31
0.0
  0
LINE
  5
35E
330
1F
100
AcDbEntity
  8
HEWI
 62
     0
100
AcDbLine
 10
1076.695092907948
 20
267.9606134247799
 30
0.0
 11
1079.436182907949
 21
268.21783342478
 31
0.0
  0
LINE
  5
35F
330
1F
100
AcDbEntity
  8
HEWI
 62
     0
100
AcDbLine
 10
1102.294972907948
 20
694.6639234247799
 30
0.0
 11
1102.447212907948
 21
693.83549342478
 31
0.0
  0
LINE
  5
360
330
1F
100
AcDbEntity
  8
HEWI
 62
     0
100
AcDbLine
 10
1060.327732907948
 20
458.7719234247799
 30
0.0
 11
1061.493502907949
 21
459.00028342478
 31
0.0
  0
LINE
  5
361
330
1F
100
AcDbEntity
  8
HEWI
 62
     0
100
AcDbLine
 10
1091.215332907948
 20
457.1483234247798
 30
0.0
 11
1091.447212907948
 21
456.000273424779
 31
0.0
  0
LINE
  5
362
330
1F
100
AcDbEntity
  8
HEWI
 62
     0
100
AcDbLine
 10
1079.591852907948
 20
268.2515134247799
 30
0.0
 11
1081.824692907948
 21
268.734573424779
 31
0.0
  0
LINE
  5
363
330
1F
100
AcDbEntity
  8
HEWI
 62
     0
100
AcDbLine
 10
1100.447222907948
 20
666.0002734247799
 30
0.0
 11
1101.212572907949
 21
666.1650634247791
 31
0.0
  0
LINE
  5
364
330
1F
100
AcDbEntity
  8
HEWI
 62
     0
100
AcDbLine
 10
1058.447222907948
 20
280.93420342478
 30
0.0
 11
1059.374742907948
 21
276.4972934247798
 31
0.0
  0
LINE
  5
365
330
1F
100
AcDbEntity
  8
HEWI
 62
     0
100
AcDbLine
 10
1068.697212907948
 20
671.3352134247793
 30
0.0
 11
1072.625282907948
 21
672.76491342478
 31
0.0
  0
LINE
  5
366
330
1F
100
AcDbEntity
  8
HEWI
 62
     0
100
AcDbLine
 10
1081.927842907949
 20
268.78065342478
 30
0.0
 11
1083.383702907948
 21
269.4307934247791
 31
0.0
  0
LINE
  5
367
330
1F
100
AcDbEntity
  8
HEWI
 62
     0
100
AcDbLine
 10
1063.201052907949
 20
667.1458234247799
 30
0.0
 11
1065.062872907948
 21
668.0098934247799
 31
0.0
  0
LINE
  5
368
330
1F
100
AcDbEntity
  8
HEWI
 62
     0
100
AcDbLine
 10
1083.383702907948
 20
269.4307934247791
 30
0.0
 11
1087.098432907948
 21
271.59552342478
 31
0.0
  0
LINE
  5
369
330
1F
100
AcDbEntity
  8
HEWI
 62
     0
100
AcDbLine
 10
1084.522772907948
 20
668.5447434247798
 30
0.0
 11
1084.831552907949
 21
668.0098934247799
 31
0.0
  0
LINE
  5
36A
330
1F
100
AcDbEntity
  8
HEWI
 62
     0
100
AcDbLine
 10
1101.861432907949
 20
695.3662234247801
 30
0.0
 11
1102.294972907948
 21
694.6639234247799
 31
0.0
  0
LINE
  5
36B
330
1F
100
AcDbEntity
  8
HEWI
 62
     0
100
AcDbLine
 10
1059.339452907948
 20
458.1215934247799
 30
0.0
 11
1060.327732907948
 21
458.7719234247799
 31
0.0
  0
LINE
  5
36C
330
1F
100
AcDbEntity
  8
HEWI
 62
     0
100
AcDbLine
 10
1086.693372907949
 20
667.1458234247799
 30
0.0
 11
1087.396532907948
 21
666.0772834247791
 31
0.0
  0
LINE
  5
36D
330
1F
100
AcDbEntity
  8
HEWI
 62
     0
100
AcDbLine
 10
1059.374742907948
 20
276.4972934247798
 30
0.0
 11
1060.313882907949
 21
275.1240434247802
 31
0.0
  0
LINE
  5
36E
330
1F
100
AcDbEntity
  8
HEWI
 62
     0
100
AcDbLine
 10
1090.554972907948
 20
458.1215934247799
 30
0.0
 11
1091.215332907948
 21
457.1483234247798
 31
0.0
  0
LINE
  5
36F
330
1F
100
AcDbEntity
  8
HEWI
 62
     0
100
AcDbLine
 10
1060.313882907949
 20
275.1240434247802
 30
0.0
 11
1062.795992907949
 21
271.59552342478
 31
0.0
  0
LINE
  5
370
330
1F
100
AcDbEntity
  8
HEWI
 62
     0
100
AcDbLine
 10
1101.212572907949
 20
666.1650634247791
 30
0.0
 11
1101.861432907949
 21
666.6343234247793
 31
0.0
  0
LINE
  5
371
330
1F
100
AcDbEntity
  8
HEWI
 62
     0
100
AcDbLine
 10
1065.371652907949
 20
668.5447434247798
 30
0.0
 11
1068.697212907948
 21
671.3352134247793
 31
0.0
  0
LINE
  5
372
330
1F
100
AcDbEntity
  8
HEWI
 62
     0
100
AcDbLine
 10
1058.447222907948
 20
280.93420342478
 30
0.0
 11
1058.447222907948
 21
456.000273424779
 31
0.0
  0
LINE
  5
373
330
1F
100
AcDbEntity
  8
HEWI
 62
     0
100
AcDbLine
 10
1091.447212907948
 20
280.93420342478
 30
0.0
 11
1091.447212907948
 21
456.000273424779
 31
0.0
  0
LINE
  5
374
330
1F
100
AcDbEntity
  8
HEWI
 62
     0
100
AcDbLine
 10
1062.447212907948
 20
459.00028342478
 30
0.0
 11
1062.447212907948
 21
666.0002734247799
 31
0.0
  0
LINE
  5
375
330
1F
100
AcDbEntity
  8
HEWI
 62
     0
100
AcDbLine
 10
1087.447212907948
 20
459.00028342478
 30
0.0
 11
1087.447212907948
 21
666.0002734247799
 31
0.0
  0
LINE
  5
376
330
1F
100
AcDbEntity
  8
HEWI
 62
     0
100
AcDbLine
 10
977.4471929079473
 20
499.0428734247799
 30
0.0
 11
977.4471929079473
 21
1019.04287342478
 31
0.0
  0
LINE
  5
377
330
1F
100
AcDbEntity
  8
HEWI
 62
     0
100
AcDbLine
 10
377.4472129079484
 20
499.0428734247799
 30
0.0
 11
377.4472129079484
 21
1019.04287342478
 31
0.0
  0
LINE
  5
378
330
1F
100
AcDbEntity
  8
HEWI
 62
     0
100
AcDbLine
 10
1102.447212907948
 20
668.1650634247798
 30
0.0
 11
1102.447212907948
 21
693.83549342478
 31
0.0
  0
LINE
  5
379
330
1F
100
AcDbEntity
  8
HEWI
 62
     0
100
AcDbLine
 10
1094.947212907948
 20
666.0002734247799
 30
0.0
 11
1094.947212907948
 21
696.0002734247799
 31
0.0
  0
LINE
  5
37A
330
1F
100
AcDbEntity
  8
HEWI
 62
     0
100
AcDbLine
 10
1066.510722907948
 20
269.4307934247791
 30
0.0
 11
1066.612332907948
 21
269.38540342478
 31
0.0
  0
LINE
  5
37B
330
1F
100
AcDbEntity
  8
HEWI
 62
     0
100
AcDbLine
 10
1073.388222907948
 20
267.9428734247798
 30
0.0
 11
1076.695092907948
 21
267.9606134247799
 31
0.0
  0
LINE
  5
37C
330
1F
100
AcDbEntity
  8
HEWI
 62
     0
100
AcDbLine
 10
1070.458252907948
 20
268.21783342478
 30
0.0
 11
1070.646032907948
 21
268.2002134247801
 31
0.0
  0
LINE
  5
37D
330
1F
100
AcDbEntity
  8
HEWI
 62
     0
100
AcDbLine
 10
1079.436182907949
 20
268.21783342478
 30
0.0
 11
1079.591852907948
 21
268.2515134247799
 31
0.0
  0
LINE
  5
37E
330
1F
100
AcDbEntity
  8
HEWI
 62
     0
100
AcDbLine
 10
1068.069732907948
 20
268.734573424779
 30
0.0
 11
1068.223692907948
 21
268.7012734247801
 31
0.0
  0
LINE
  5
37F
330
1F
100
AcDbEntity
  8
HEWI
 62
     0
100
AcDbLine
 10
1081.824692907948
 20
268.734573424779
 30
0.0
 11
1081.927842907949
 21
268.78065342478
 31
0.0
  0
LINE
  5
380
330
1F
100
AcDbEntity
  8
HEWI
 62
     0
100
AcDbLine
 10
1061.493502907949
 20
459.00028342478
 30
0.0
 11
1088.400942907949
 21
459.00028342478
 31
0.0
  0
LINE
  5
381
330
1F
100
AcDbEntity
  8
HEWI
 62
     0
100
AcDbLine
 10
1072.625282907948
 20
672.76491342478
 30
0.0
 11
1077.117812907948
 21
672.8199934247799
 31
0.0
  0
LINE
  5
382
330
1F
100
AcDbEntity
  8
HEWI
 62
     0
100
AcDbLine
 10
1081.020782907948
 20
671.3994234247792
 30
0.0
 11
1081.197212907948
 21
671.3352134247793
 31
0.0
  0
LINE
  5
383
330
1F
100
AcDbEntity
  8
HEWI
 62
     0
100
AcDbLine
 10
1086.558522907949
 20
667.2084134247799
 30
0.0
 11
1086.693372907949
 21
667.1458234247799
 31
0.0
  0
LINE
  5
384
330
1F
100
AcDbEntity
  8
HEWI
 62
     0
100
AcDbLine
 10
977.4471929079473
 20
666.0002734247799
 30
0.0
 11
1062.447212907948
 21
666.0002734247799
 31
0.0
  0
LINE
  5
385
330
1F
100
AcDbEntity
  8
HEWI
 62
     0
100
AcDbLine
 10
1087.447212907948
 20
666.0002734247799
 30
0.0
 11
1100.447222907948
 21
666.0002734247799
 31
0.0
  0
LINE
  5
386
330
1F
100
AcDbEntity
  8
HEWI
 62
     0
100
AcDbLine
 10
977.4471929079473
 20
696.0002734247799
 30
0.0
 11
1100.447222907948
 21
696.0002734247799
 31
0.0
  0
LINE
  5
387
330
1F
100
AcDbEntity
  8
HEWI
 62
     0
100
AcDbLine
 10
387.4472129079472
 20
1029.04287342478
 30
0.0
 11
967.4471929079473
 21
1029.04287342478
 31
0.0
  0
LINE
  5
388
330
1F
100
AcDbEntity
  8
HEWI
 62
     0
100
AcDbLine
 10
387.4472129079472
 20
489.0428734247799
 30
0.0
 11
967.4471929079473
 21
489.0428734247799
 31
0.0
  0
LWPOLYLINE
  5
389
330
1F
100
AcDbEntity
  8
HEWI
 62
     0
100
AcDbPolyline
 90
       13
 70
     1
 43
0.0
 10
944.6382063003447
 20
499.0368628855711
 10
945.3702063096361
 20
502.1078629466385
 10
946.0912063187906
 20
499.0368628855711
 10
946.9762063300267
 20
499.0368628855711
 10
948.3282063471937
 20
503.536862975054
 10
947.3312063345337
 20
503.536862975054
 10
946.5252063242997
 20
500.3978629126347
 10
945.8382063155777
 20
503.536862975054
 10
944.919206303909
 20
503.536862975054
 10
944.2262062951094
 20
500.4208629130923
 10
943.443206285171
 20
503.536862975054
 10
942.4852062730069
 20
503.536862975054
 10
943.7532062891049
 20
499.0368628855711
  0
LWPOLYLINE
  5
38A
330
1F
100
AcDbEntity
  8
HEWI
 62
     0
100
AcDbPolyline
 90
       12
 70
     1
 43
0.0
 10
936.1972061931711
 20
503.536862975054
 10
935.2902061816539
 20
503.536862975054
 10
935.2902061816539
 20
499.0368628855711
 10
936.1972061931711
 20
499.0368628855711
 10
936.1972061931711
 20
501.0278629251623
 10
938.0172062162792
 20
501.0278629251623
 10
938.0172062162792
 20
499.0368628855711
 10
938.9242062277967
 20
499.0368628855711
 10
938.9242062277967
 20
503.536862975054
 10
938.0172062162792
 20
503.536862975054
 10
938.0172062162792
 20
501.74286293938
 10
936.1972061931711
 20
501.74286293938
  0
LWPOLYLINE
  5
38B
330
1F
100
AcDbEntity
  8
HEWI
 62
     0
100
AcDbPolyline
 90
       12
 70
     1
 43
0.0
 10
942.350206271295
 20
503.536862975054
 10
939.5332062355278
 20
503.536862975054
 10
939.5332062355278
 20
499.0368628855711
 10
942.350206271295
 20
499.0368628855711
 10
942.350206271295
 20
499.7908629005645
 10
940.4402062470408
 20
499.7908629005645
 10
940.4402062470408
 20
501.0278629251623
 10
942.1982062693613
 20
501.0278629251623
 10
942.1982062693613
 20
501.74286293938
 10
940.4402062470408
 20
501.74286293938
 10
940.4402062470408
 20
502.7498629594044
 10
942.350206271295
 20
502.7498629594044
  0
LINE
  5
38C
330
1F
100
AcDbEntity
  8
HEWI
 62
     0
100
AcDbLine
 10
406.1509119167578
 20
514.2235799247917
 30
0.0
 11
407.4921994804583
 21
514.0378631838673
 31
0.0
  0
LINE
  5
38D
330
1F
100
AcDbEntity
  8
HEWI
 62
     0
100
AcDbLine
 10
403.1071994247843
 20
516.6208632352302
 30
0.0
 11
404.6975126046211
 21
514.9564137837666
 31
0.0
  0
LINE
  5
38E
330
1F
100
AcDbEntity
  8
HEWI
 62
     0
100
AcDbLine
 10
407.4921994804583
 20
1004.047872927753
 30
0.0
 11
406.5488069056166
 21
1003.873345300152
 31
0.0
  0
LINE
  5
38F
330
1F
100
AcDbEntity
  8
HEWI
 62
     0
100
AcDbLine
 10
404.1819559355146
 20
1002.769099132521
 30
0.0
 11
403.8078401030263
 21
1002.338373664388
 31
0.0
  0
LWPOLYLINE
  5
390
330
1F
100
AcDbEntity
  8
HEWI
 62
     0
100
AcDbPolyline
 90
        3
 70
     0
 43
0.0
 10
934.3866156077792
 20
1002.982166015613
 10
936.7532062002329
 20
1004.007872926958
 10
937.3852062082523
 20
1004.047872927753
  0
LWPOLYLINE
  5
391
330
1F
100
AcDbEntity
  8
HEWI
 62
     0
100
AcDbPolyline
 90
        4
 70
     0
 43
0.0
 10
951.3840187129581
 20
1001.886856116042
 10
952.4112063990333
 20
999.047872828328
 10
952.4112063990333
 20
519.0378632832928
 10
951.7461359383752
 20
516.6940262397725
  0
LWPOLYLINE
  5
392
330
1F
100
AcDbEntity
  8
HEWI
 62
     0
100
AcDbPolyline
 90
        4
 70
     0
 43
0.0
 10
403.5103871029361
 20
516.1988799955777
 10
402.483199416861
 20
519.0378632832928
 10
402.483199416861
 20
999.047872828328
 10
403.1482698775191
 20
1001.391709871848
  0
LWPOLYLINE
  5
393
330
1F
100
AcDbEntity
  8
HEWI
 62
     0
100
AcDbPolyline
 90
        3
 70
     0
 43
0.0
 10
404.4926088799704
 20
1002.982166015613
 10
406.8591994724203
 20
1004.007872926958
 10
407.4921994804583
 20
1004.047872927753
  0
LINE
  5
394
330
1F
100
AcDbEntity
  8
HEWI
 62
     0
100
AcDbLine
 10
937.3257797829873
 20
1004.036872927888
 30
0.0
 11
936.4431683343509
 21
1003.873499045449
 31
0.0
  0
LINE
  5
395
330
1F
100
AcDbEntity
  8
HEWI
 62
     0
100
AcDbLine
 10
418.8508458299341
 20
1003.861970334031
 30
0.0
 11
417.5885858744015
 21
1004.036872924435
 31
0.0
  0
LINE
  5
396
330
1F
100
AcDbEntity
  8
HEWI
 62
     0
100
AcDbLine
 10
417.5885858744015
 20
1004.036872924435
 30
0.0
 11
417.5091996076382
 21
1004.047872927753
 31
0.0
  0
LINE
  5
397
330
1F
100
AcDbEntity
  8
HEWI
 62
     0
100
AcDbLine
 10
421.8931996633012
 20
1001.46487287639
 30
0.0
 11
420.3044708481987
 21
1003.128609946715
 31
0.0
  0
LWPOLYLINE
  5
398
330
1F
100
AcDbEntity
  8
HEWI
 62
     0
100
AcDbPolyline
 90
        4
 70
     1
 43
0.0
 10
949.5062063621489
 20
499.0368628855711
 10
949.5062063621489
 20
503.536862975054
 10
948.5712063502806
 20
503.536862975054
 10
948.5712063502806
 20
499.0368628855711
  0
LWPOLYLINE
  5
399
330
1F
100
AcDbEntity
  8
HEWI
 62
     0
100
AcDbPolyline
 90
        4
 70
     0
 43
0.0
 10
421.4898721551846
 20
1001.887242583812
 10
422.5171996712244
 20
999.047872828328
 10
422.5171996712244
 20
519.0378632832928
 10
421.8521292105663
 20
516.6940262397725
  0
LINE
  5
39A
330
1F
100
AcDbEntity
  8
HEWI
 62
     0
100
AcDbLine
 10
417.5091996076382
 20
514.0378631838673
 30
0.0
 11
418.8612178423693
 21
514.2881255937624
 31
0.0
  0
LINE
  5
39B
330
1F
100
AcDbEntity
  8
HEWI
 62
     0
100
AcDbLine
 10
932.9233202520599
 20
1001.22097494807
 30
0.0
 11
932.7381088096817
 21
1000.800828628015
 31
0.0
  0
LINE
  5
39C
330
1F
100
AcDbEntity
  8
HEWI
 62
     0
100
AcDbLine
 10
420.8184431525707
 20
515.316636979099
 30
0.0
 11
421.1925589850591
 21
515.7473624472324
 31
0.0
  0
LINE
  5
39D
330
1F
100
AcDbEntity
  8
HEWI
 62
     0
100
AcDbLine
 10
934.0759626633234
 20
1002.769099132521
 30
0.0
 11
933.7018468308352
 21
1002.338373664388
 31
0.0
  0
LWPOLYLINE
  5
39E
330
1F
100
AcDbEntity
  8
HEWI
 62
     0
100
AcDbPolyline
 90
        6
 70
     0
 43
0.0
 10
933.4045336607095
 20
516.1984935278077
 10
932.3772061446698
 20
519.0378632832928
 10
932.3772061446698
 20
999.047872828328
 10
932.7832061498243
 20
1001.019872867541
 10
933.9342061644392
 20
1002.671872900391
 10
935.2362061809699
 20
1003.564872918148
  0
LINE
  5
39F
330
1F
100
AcDbEntity
  8
HEWI
 62
     0
100
AcDbLine
 10
937.3852062082523
 20
1004.047872927753
 30
0.0
 11
937.3257797829873
 21
1004.036872927888
 31
0.0
  0
LINE
  5
3A0
330
1F
100
AcDbEntity
  8
HEWI
 62
     0
100
AcDbLine
 10
948.7434938991365
 20
1003.862156186829
 30
0.0
 11
947.4022063354359
 21
1004.047872927753
 31
0.0
  0
LINE
  5
3A1
330
1F
100
AcDbEntity
  8
HEWI
 62
     0
100
AcDbLine
 10
951.7872063911063
 20
1001.46487287639
 30
0.0
 11
950.1968932112731
 21
1003.129322327853
 31
0.0
  0
LINE
  5
3A2
330
1F
100
AcDbEntity
  8
HEWI
 62
     0
100
AcDbLine
 10
936.0435599859602
 20
514.2237657775893
 30
0.0
 11
937.3852062082523
 21
514.0378631838673
 31
0.0
  0
LINE
  5
3A3
330
1F
100
AcDbEntity
  8
HEWI
 62
     0
100
AcDbLine
 10
947.4022063354359
 20
514.0378631838673
 30
0.0
 11
948.7556540640881
 21
514.2882510154676
 31
0.0
  0
LINE
  5
3A4
330
1F
100
AcDbEntity
  8
HEWI
 62
     0
100
AcDbLine
 10
933.001206152593
 20
516.6208632352302
 30
0.0
 11
934.5899349676992
 21
514.9571261649054
 31
0.0
  0
LINE
  5
3A5
330
1F
100
AcDbEntity
  8
HEWI
 62
     0
100
AcDbLine
 10
950.7124498803795
 20
515.316636979099
 30
0.0
 11
951.0865657128679
 21
515.7473624472324
 31
0.0
  0
LINE
  5
3A6
330
1F
100
AcDbEntity
  8
HEWI
 62
     0
100
AcDbLine
 10
949.3651663889695
 20
514.4662430806518
 30
0.0
 11
950.097625072799
 21
514.8949483804777
 31
0.0
  0
LWPOLYLINE
  5
3A7
330
1F
100
AcDbEntity
  8
HEWI
 62
     0
100
AcDbPolyline
 90
       13
 70
     0
 43
0.0
 10
937.3257797816268
 20
1004.036872927534
 10
946.9472063296571
 20
1004.036872927534
 10
948.3092063469499
 20
1003.847872923776
 10
949.5692063629476
 20
1003.294872912779
 10
950.7932063784874
 20
1002.231872891642
 10
951.6132063889026
 20
1000.832872863823
 10
951.9472063931399
 20
999.0368728281092
 10
951.9472063931399
 20
519.0368632832728
 10
951.7582063907402
 20
517.6748632561891
 10
951.205206383719
 20
516.4148632311341
 10
950.1422063702239
 20
515.1908632067949
 10
948.743206352462
 20
514.3708631904888
 10
946.9525835553623
 20
514.0378631801718
  0
LWPOLYLINE
  5
3A8
330
1F
100
AcDbEntity
  8
HEWI
 62
     0
100
AcDbPolyline
 90
       11
 70
     0
 43
0.0
 10
407.9399931371565
 20
514.0378631838371
 10
406.5851994689412
 20
514.2258631876055
 10
405.325199452943
 20
514.7788631986022
 10
404.1011994374032
 20
515.8418632197402
 10
403.2811994269916
 20
517.2408632475592
 10
402.9471994227544
 20
519.0368632832728
 10
402.9471994227544
 20
999.0368728281092
 10
403.1361994251503
 20
1000.398872855192
 10
403.6891994321715
 20
1001.658872880247
 10
404.7521994456704
 20
1002.882872904587
 10
406.1390522436788
 20
1003.695753035068
  0
LINE
  5
3A9
330
1F
100
AcDbEntity
  8
HEWI
 62
     0
100
AcDbLine
 10
417.5885858791709
 20
1004.036872927534
 30
0.0
 11
417.5914820688969
 21
1004.036872927534
 31
0.0
  0
LWPOLYLINE
  5
3AA
330
1F
100
AcDbEntity
  8
HEWI
 62
     0
100
AcDbPolyline
 90
        3
 70
     0
 43
0.0
 10
406.1586967246159
 20
1003.704267177715
 10
407.9471994862371
 20
1004.036872927534
 10
417.5885858791709
 20
1004.036872927534
  0
LINE
  5
3AB
330
1F
100
AcDbEntity
  8
HEWI
 62
     0
100
AcDbLine
 10
937.211406196825
 20
1004.036872927534
 30
0.0
 11
937.3257797816268
 21
1004.036872927534
 31
0.0
  0
LINE
  5
3AC
330
1F
100
AcDbEntity
  8
HEWI
 62
     0
100
AcDbLine
 10
419.4711596611607
 20
514.4662430806518
 30
0.0
 11
420.2036183449865
 21
514.8949483804777
 31
0.0
  0
LINE
  5
3AD
330
1F
100
AcDbEntity
  8
HEWI
 62
     0
100
AcDbLine
 10
947.4022063354359
 20
1004.047872927753
 30
0.0
 11
937.3852062082523
 21
1004.047872927753
 31
0.0
  0
LWPOLYLINE
  5
3AE
330
1F
100
AcDbEntity
  8
HEWI
 62
     0
100
AcDbPolyline
 90
        3
 70
     0
 43
0.0
 10
404.3911994410893
 20
515.1108632052038
 10
406.1681994636503
 20
514.2148631873872
 10
407.4921994804583
 20
514.0378631838673
  0
LWPOLYLINE
  5
3AF
330
1F
100
AcDbEntity
  8
HEWI
 62
     0
100
AcDbPolyline
 90
        3
 70
     0
 43
0.0
 10
420.6091996469997
 20
1002.974872906416
 10
418.8331996244499
 20
1003.870872924233
 10
417.5091996076382
 20
1004.047872927753
  0
LWPOLYLINE
  5
3B0
330
1F
100
AcDbEntity
  8
HEWI
 62
     0
100
AcDbPolyline
 90
        5
 70
     0
 43
0.0
 10
947.4022063354359
 20
514.0378631838673
 10
948.0352063434702
 20
514.0778631846627
 10
949.5522063627332
 20
514.5208631934716
 10
950.8542063792638
 20
515.4138632112291
 10
952.0052063938791
 20
517.0658632440793
  0
LINE
  5
3B1
330
1F
100
AcDbEntity
  8
HEWI
 62
     0
100
AcDbLine
 10
417.5091996076382
 20
1004.047872927753
 30
0.0
 11
407.4921994804583
 21
1004.047872927753
 31
0.0
  0
LWPOLYLINE
  5
3B2
330
1F
100
AcDbEntity
  8
HEWI
 62
     0
100
AcDbPolyline
 90
        5
 70
     0
 43
0.0
 10
417.5091996076382
 20
514.0378631838673
 10
418.1411996156614
 20
514.0778631846627
 10
419.6581996349243
 20
514.5208631934716
 10
420.960199651455
 20
515.4138632112291
 10
422.1111996660704
 20
517.0658632440793
  0
LWPOLYLINE
  5
3B3
330
1F
100
AcDbEntity
  8
HEWI
 62
     0
100
AcDbPolyline
 90
        3
 70
     0
 43
0.0
 10
950.5032063748085
 20
1002.974872906416
 10
948.726206352244
 20
1003.870872924233
 10
947.4022063354359
 20
1004.047872927753
  0
LWPOLYLINE
  5
3B4
330
1F
100
AcDbEntity
  8
HEWI
 62
     0
100
AcDbPolyline
 90
        3
 70
     0
 43
0.0
 10
934.2852061688981
 20
515.1108632052038
 10
936.0612061914444
 20
514.2148631873872
 10
937.3852062082523
 20
514.0378631838673
  0
LWPOLYLINE
  5
3B5
330
1F
100
AcDbEntity
  8
HEWI
 62
     0
100
AcDbPolyline
 90
        3
 70
     0
 43
0.0
 10
405.3421994531611
 20
1003.564872918148
 10
404.0401994366304
 20
1002.671872900391
 10
402.889199422015
 20
1001.019872867541
  0
LINE
  5
3B6
330
1F
100
AcDbEntity
  8
HEWI
 62
     0
100
AcDbLine
 10
407.4921994804583
 20
514.0378631838673
 30
0.0
 11
417.5091996076382
 21
514.0378631838673
 31
0.0
  0
LINE
  5
3B7
330
1F
100
AcDbEntity
  8
HEWI
 62
     0
100
AcDbLine
 10
937.3852062082523
 20
514.0378631838673
 30
0.0
 11
947.4022063354359
 21
514.0378631838673
 31
0.0
  0
ENDSEC
  0
SECTION
  2
OBJECTS
  0
DICTIONARY
  5
C
330
0
100
AcDbDictionary
281
     1
  3
ACAD_CIP_PREVIOUS_PRODUCT_INFO
350
B9
  3
ACAD_COLOR
350
B3
  3
ACAD_DETAILVIEWSTYLE
350
AE
  3
ACAD_GROUP
350
D
  3
ACAD_IMAGE_DICT
350
6E
  3
ACAD_LAYOUT
350
1A
  3
ACAD_MATERIAL
350
43
  3
ACAD_MLEADERSTYLE
350
6B
  3
ACAD_MLINESTYLE
350
17
  3
ACAD_PLOTSETTINGS
350
19
  3
ACAD_PLOTSTYLENAME
350
E
  3
ACAD_SCALELIST
350
47
  3
ACAD_SECTIONVIEWSTYLE
350
AF
  3
ACAD_TABLESTYLE
350
69
  3
ACAD_VISUALSTYLE
350
2A
  3
ACDB_RECOMPOSE_DATA
350
3B9
  3
AcDbVariableDictionary
350
AA
  0
SUN
  5
6D
330
29
100
AcDbSun
 90
        1
290
     1
 63
     7
421
 16777215
 40
1.0
291
     1
 91
  2455826
 92
 54000000
292
     0
 70
     0
 71
   256
280
     1
1001
ACAD
1000
AcDbSavedByObjectVersion
1070
     0
1000
AcDbSavedByObjectVersion
1070
     0
  0
DICTIONARY
  5
C1
330
2
100
AcDbDictionary
280
     1
281
     1
  3
ACAD_LAYERSTATES
360
C2
  0
DICTIONARY
  5
BC
330
BB
100
AcDbDictionary
280
     1
281
     1
  0
XRECORD
  5
B9
102
{ACAD_REACTORS
330
C
102
}
330
C
100
AcDbXrecord
280
     1
300
ACDLT
300
2021
300
ACDLT_F_S
  0
DICTIONARY
  5
B3
102
{ACAD_REACTORS
330
C
102
}
330
C
100
AcDbDictionary
281
     1
  0
DICTIONARY
  5
AE
102
{ACAD_REACTORS
330
C
102
}
330
C
100
AcDbDictionary
281
     1
  3
Metric50
350
B5
  0
DICTIONARY
  5
D
102
{ACAD_REACTORS
330
C
102
}
330
C
100
AcDbDictionary
281
     1
  0
DICTIONARY
  5
6E
102
{ACAD_REACTORS
330
C
102
}
330
C
100
AcDbDictionary
281
     1
  0
DICTIONARY
  5
1A
102
{ACAD_REACTORS
330
C
102
}
330
C
100
AcDbDictionary
281
     1
  3
Layout1
350
1E
  3
Layout2
350
26
  3
Model
350
22
  0
DICTIONARY
  5
43
102
{ACAD_REACTORS
330
C
102
}
330
C
100
AcDbDictionary
281
     1
  3
ByBlock
350
45
  3
ByLayer
350
44
  3
Global
350
46
  0
DICTIONARY
  5
6B
102
{ACAD_REACTORS
330
C
102
}
330
C
100
AcDbDictionary
281
     1
  3
Standard
350
6C
  0
DICTIONARY
  5
17
102
{ACAD_REACTORS
330
C
102
}
330
C
100
AcDbDictionary
281
     1
  3
Standard
350
18
  0
DICTIONARY
  5
19
102
{ACAD_REACTORS
330
C
102
}
330
C
100
AcDbDictionary
281
     1
  0
ACDBDICTIONARYWDFLT
  5
E
102
{ACAD_REACTORS
330
C
102
}
330
C
100
AcDbDictionary
281
     1
  3
Normal
350
F
100
AcDbDictionaryWithDefault
340
F
  0
DICTIONARY
  5
47
102
{ACAD_REACTORS
330
C
102
}
330
C
100
AcDbDictionary
281
     1
  3
A0
350
48
  3
A1
350
49
  3
A2
350
4A
  3
A3
350
4B
  3
A4
350
4C
  3
A5
350
4D
  3
A6
350
4E
  3
A7
350
4F
  3
A8
350
50
  3
A9
350
51
  3
B0
350
52
  3
B1
350
53
  3
B2
350
54
  3
B3
350
55
  3
B4
350
56
  3
B5
350
57
  3
B6
350
58
  3
B7
350
59
  3
B8
350
5A
  3
B9
350
5B
  3
C0
350
5C
  3
C1
350
5D
  3
C2
350
5E
  3
C3
350
5F
  3
C4
350
60
  3
C5
350
61
  3
C6
350
62
  3
C7
350
63
  3
C8
350
64
  3
C9
350
65
  3
D0
350
66
  3
D1
350
67
  3
D2
350
68
  0
DICTIONARY
  5
AF
102
{ACAD_REACTORS
330
C
102
}
330
C
100
AcDbDictionary
281
     1
  3
Metric50
350
B4
  0
DICTIONARY
  5
69
102
{ACAD_REACTORS
330
C
102
}
330
C
100
AcDbDictionary
281
     1
  3
Standard
350
6A
  0
DICTIONARY
  5
2A
102
{ACAD_REACTORS
330
C
102
}
330
C
100
AcDbDictionary
281
     1
  3
2dWireframe
350
2F
  3
3dWireframe
350
C0
  3
Basic
350
32
  3
Brighten
350
36
  3
ColorChange
350
3A
  3
Conceptual
350
34
  3
Dim
350
35
  3
EdgeColorOff
350
3D
  3
Facepattern
350
39
  3
Flat
350
2B
  3
FlatWithEdges
350
2C
  3
Gouraud
350
2D
  3
GouraudWithEdges
350
2E
  3
Hidden
350
31
  3
JitterOff
350
3B
  3
Linepattern
350
38
  3
OverhangOff
350
3C
  3
Realistic
350
33
  3
Shaded
350
42
  3
Shaded with edges
350
41
  3
Shades of Gray
350
3E
  3
Sketchy
350
3F
  3
Thicken
350
37
  3
Wireframe
350
30
  3
X-Ray
350
40
  0
XRECORD
  5
3B9
102
{ACAD_REACTORS
330
C
102
}
330
C
100
AcDbXrecord
280
     1
 90
        1
330
6A
  0
DICTIONARY
  5
AA
102
{ACAD_REACTORS
330
C
102
}
330
C
100
AcDbDictionary
281
     1
  3
CANNOSCALE
350
AB
  3
CENTEREXE
350
B0
  3
CENTERLTYPEFILE
350
B1
  3
CMLEADERSTYLE
350
AD
  3
CTABLESTYLE
350
AC
  3
CVIEWDETAILSTYLE
350
1FE
  3
CVIEWSECTIONSTYLE
350
1FF
  0
DICTIONARY
  5
C2
102
{ACAD_REACTORS
330
C1
102
}
330
C1
100
AcDbDictionary
281
     1
  0
ACDBDETAILVIEWSTYLE
  5
B5
102
{ACAD_XDICTIONARY
360
3BC
102
}
102
{ACAD_REACTORS
330
AE
102
}
330
AE
100
AcDbModelDocViewStyle
 70
     0
  3
Metric50
290
     0
100
AcDbDetailViewStyle
 70
     0
 71
     0
 90
        3
 71
     1
340
11
 62
   256
 40
5.0
340
0
 62
   256
 40
5.0
300

 40
0.0
280
     1
 71
     2
340
16
 90
       25
 62
   256
 71
     3
340
11
 62
   256
 40
5.0
 90
        0
 40
15.0
 90
        1
300
%<\AcVar ViewDetailId>% (%<\AcVar ViewScale \f "%sn">%)
 71
     4
340
16
 90
       25
 62
   256
340
16
 90
       25
 62
   256
280
     0
  0
LAYOUT
  5
1E
102
{ACAD_REACTORS
330
1A
102
}
330
1A
100
AcDbPlotSettings
  1

  2
none_device
  4

  6

 40
0.0
 41
0.0
 42
0.0
 43
0.0
 44
0.0
 45
0.0
 46
0.0
 47
0.0
 48
0.0
 49
0.0
140
0.0
141
0.0
142
1.0
143
1.0
 70
   688
 72
     1
 73
     0
 74
     5
  7

 75
    16
147
1.0
 76
     0
 77
     2
 78
   300
148
0.0
149
0.0
100
AcDbLayout
  1
Layout1
 70
     1
 71
     1
 10
0.0
 20
0.0
 11
420.0
 21
297.0
 12
0.0
 22
0.0
 32
0.0
 14
1.000000000000000E+20
 24
1.000000000000000E+20
 34
1.000000000000000E+20
 15
-1.000000000000000E+20
 25
-1.000000000000000E+20
 35
-1.000000000000000E+20
146
0.0
 13
0.0
 23
0.0
 33
0.0
 16
1.0
 26
0.0
 36
0.0
 17
0.0
 27
1.0
 37
0.0
 76
     0
330
1B
  0
LAYOUT
  5
26
102
{ACAD_REACTORS
330
1A
102
}
330
1A
100
AcDbPlotSettings
  1

  2
none_device
  4

  6

 40
0.0
 41
0.0
 42
0.0
 43
0.0
 44
0.0
 45
0.0
 46
0.0
 47
0.0
 48
0.0
 49
0.0
140
0.0
141
0.0
142
1.0
143
1.0
 70
   688
 72
     1
 73
     0
 74
     5
  7

 75
    16
147
1.0
 76
     0
 77
     2
 78
   300
148
0.0
149
0.0
100
AcDbLayout
  1
Layout2
 70
     1
 71
     2
 10
0.0
 20
0.0
 11
0.0
 21
0.0
 12
0.0
 22
0.0
 32
0.0
 14
0.0
 24
0.0
 34
0.0
 15
0.0
 25
0.0
 35
0.0
146
0.0
 13
0.0
 23
0.0
 33
0.0
 16
1.0
 26
0.0
 36
0.0
 17
0.0
 27
1.0
 37
0.0
 76
     0
330
23
  0
LAYOUT
  5
22
102
{ACAD_REACTORS
330
1A
102
}
330
1A
100
AcDbPlotSettings
  1

  2
none_device
  4
Letter_(8.50_x_11.00_Inches)
  6

 40
6.349999999999998
 41
6.349999999999998
 42
6.350005079999998
 43
6.350005079999998
 44
215.9
 45
279.4
 46
0.0
 47
0.0
 48
0.0
 49
0.0
140
0.0
141
0.0
142
1.0
143
1.0
 70
  1712
 72
     1
 73
     0
 74
     0
  7

 75
     0
147
1.0
 76
     0
 77
     2
 78
   300
148
0.0
149
0.0
100
AcDbLayout
  1
Model
 70
     1
 71
     0
 10
0.0
 20
0.0
 11
420.0
 21
297.0
 12
0.0
 22
0.0
 32
0.0
 14
-94.21090036567465
 24
-139.8577612421526
 34
0.0
 15
-34.21089960388359
 25
-85.85776016835856
 35
0.0
146
0.0
 13
0.0
 23
0.0
 33
0.0
 16
1.0
 26
0.0
 36
0.0
 17
0.0
 27
1.0
 37
0.0
 76
     0
330
1F
331
29
  0
MATERIAL
  5
45
102
{ACAD_REACTORS
330
43
102
}
330
43
100
AcDbMaterial
  1
ByBlock
 73
     1
 78
     1
172
     1
176
     1
270
     1
274
     1
  0
MATERIAL
  5
44
102
{ACAD_REACTORS
330
43
102
}
330
43
100
AcDbMaterial
  1
ByLayer
 73
     1
 78
     1
172
     1
176
     1
270
     1
274
     1
  0
MATERIAL
  5
46
102
{ACAD_REACTORS
330
43
102
}
330
43
100
AcDbMaterial
  1
Global
 73
     1
 78
     1
172
     1
176
     1
270
     1
274
     1
  0
MLEADERSTYLE
  5
6C
102
{ACAD_REACTORS
330
6B
102
}
330
6B
100
AcDbMLeaderStyle
179
     2
170
     2
171
     1
172
     0
 90
        2
 40
0.0
 41
0.0
173
     1
 91
-1056964608
340
14
 92
       -2
290
     1
 42
2.0
291
     1
 43
8.0
  3
Standard
 44
4.0
300

342
11
174
     1
178
     6
175
     1
176
     0
 93
-1056964608
 45
4.0
292
     0
297
     0
 46
4.0
 94
-1056964608
 47
1.0
 49
1.0
140
1.0
293
     1
141
0.0
294
     1
177
     0
142
1.0
295
     0
296
     0
143
3.75
271
     0
272
     9
273
     9
298
     0
  0
MLINESTYLE
  5
18
102
{ACAD_REACTORS
330
17
102
}
330
17
100
AcDbMlineStyle
  2
STANDARD
 70
     0
  3

 62
   256
 51
90.0
 52
90.0
 71
     2
 49
0.5
 62
   256
  6
BYLAYER
 49
-0.5
 62
   256
  6
BYLAYER
  0
ACDBPLACEHOLDER
  5
F
102
{ACAD_REACTORS
330
E
102
}
330
E
  0
SCALE
  5
48
102
{ACAD_REACTORS
330
47
102
}
330
47
100
AcDbScale
 70
     0
300
1:1
140
1.0
141
1.0
290
     1
  0
SCALE
  5
49
102
{ACAD_REACTORS
330
47
102
}
330
47
100
AcDbScale
 70
     0
300
1:2
140
1.0
141
2.0
290
     0
  0
SCALE
  5
4A
102
{ACAD_REACTORS
330
47
102
}
330
47
100
AcDbScale
 70
     0
300
1:4
140
1.0
141
4.0
290
     0
  0
SCALE
  5
4B
102
{ACAD_REACTORS
330
47
102
}
330
47
100
AcDbScale
 70
     0
300
1:5
140
1.0
141
5.0
290
     0
  0
SCALE
  5
4C
102
{ACAD_REACTORS
330
47
102
}
330
47
100
AcDbScale
 70
     0
300
1:8
140
1.0
141
8.0
290
     0
  0
SCALE
  5
4D
102
{ACAD_REACTORS
330
47
102
}
330
47
100
AcDbScale
 70
     0
300
1:10
140
1.0
141
10.0
290
     0
  0
SCALE
  5
4E
102
{ACAD_REACTORS
330
47
102
}
330
47
100
AcDbScale
 70
     0
300
1:16
140
1.0
141
16.0
290
     0
  0
SCALE
  5
4F
102
{ACAD_REACTORS
330
47
102
}
330
47
100
AcDbScale
 70
     0
300
1:20
140
1.0
141
20.0
290
     0
  0
SCALE
  5
50
102
{ACAD_REACTORS
330
47
102
}
330
47
100
AcDbScale
 70
     0
300
1:30
140
1.0
141
30.0
290
     0
  0
SCALE
  5
51
102
{ACAD_REACTORS
330
47
102
}
330
47
100
AcDbScale
 70
     0
300
1:40
140
1.0
141
40.0
290
     0
  0
SCALE
  5
52
102
{ACAD_REACTORS
330
47
102
}
330
47
100
AcDbScale
 70
     0
300
1:50
140
1.0
141
50.0
290
     0
  0
SCALE
  5
53
102
{ACAD_REACTORS
330
47
102
}
330
47
100
AcDbScale
 70
     0
300
1:100
140
1.0
141
100.0
290
     0
  0
SCALE
  5
54
102
{ACAD_REACTORS
330
47
102
}
330
47
100
AcDbScale
 70
     0
300
2:1
140
2.0
141
1.0
290
     0
  0
SCALE
  5
55
102
{ACAD_REACTORS
330
47
102
}
330
47
100
AcDbScale
 70
     0
300
4:1
140
4.0
141
1.0
290
     0
  0
SCALE
  5
56
102
{ACAD_REACTORS
330
47
102
}
330
47
100
AcDbScale
 70
     0
300
8:1
140
8.0
141
1.0
290
     0
  0
SCALE
  5
57
102
{ACAD_REACTORS
330
47
102
}
330
47
100
AcDbScale
 70
     0
300
10:1
140
10.0
141
1.0
290
     0
  0
SCALE
  5
58
102
{ACAD_REACTORS
330
47
102
}
330
47
100
AcDbScale
 70
     0
300
100:1
140
100.0
141
1.0
290
     0
  0
SCALE
  5
59
102
{ACAD_REACTORS
330
47
102
}
330
47
100
AcDbScale
 70
     0
300
1/128" = 1'-0"
140
0.0078125
141
12.0
290
     0
  0
SCALE
  5
5A
102
{ACAD_REACTORS
330
47
102
}
330
47
100
AcDbScale
 70
     0
300
1/64" = 1'-0"
140
0.015625
141
12.0
290
     0
  0
SCALE
  5
5B
102
{ACAD_REACTORS
330
47
102
}
330
47
100
AcDbScale
 70
     0
300
1/32" = 1'-0"
140
0.03125
141
12.0
290
     0
  0
SCALE
  5
5C
102
{ACAD_REACTORS
330
47
102
}
330
47
100
AcDbScale
 70
     0
300
1/16" = 1'-0"
140
0.0625
141
12.0
290
     0
  0
SCALE
  5
5D
102
{ACAD_REACTORS
330
47
102
}
330
47
100
AcDbScale
 70
     0
300
3/32" = 1'-0"
140
0.09375
141
12.0
290
     0
  0
SCALE
  5
5E
102
{ACAD_REACTORS
330
47
102
}
330
47
100
AcDbScale
 70
     0
300
1/8" = 1'-0"
140
0.125
141
12.0
290
     0
  0
SCALE
  5
5F
102
{ACAD_REACTORS
330
47
102
}
330
47
100
AcDbScale
 70
     0
300
3/16" = 1'-0"
140
0.1875
141
12.0
290
     0
  0
SCALE
  5
60
102
{ACAD_REACTORS
330
47
102
}
330
47
100
AcDbScale
 70
     0
300
1/4" = 1'-0"
140
0.25
141
12.0
290
     0
  0
SCALE
  5
61
102
{ACAD_REACTORS
330
47
102
}
330
47
100
AcDbScale
 70
     0
300
3/8" = 1'-0"
140
0.375
141
12.0
290
     0
  0
SCALE
  5
62
102
{ACAD_REACTORS
330
47
102
}
330
47
100
AcDbScale
 70
     0
300
1/2" = 1'-0"
140
0.5
141
12.0
290
     0
  0
SCALE
  5
63
102
{ACAD_REACTORS
330
47
102
}
330
47
100
AcDbScale
 70
     0
300
3/4" = 1'-0"
140
0.75
141
12.0
290
     0
  0
SCALE
  5
64
102
{ACAD_REACTORS
330
47
102
}
330
47
100
AcDbScale
 70
     0
300
1" = 1'-0"
140
1.0
141
12.0
290
     0
  0
SCALE
  5
65
102
{ACAD_REACTORS
330
47
102
}
330
47
100
AcDbScale
 70
     0
300
1-1/2" = 1'-0"
140
1.5
141
12.0
290
     0
  0
SCALE
  5
66
102
{ACAD_REACTORS
330
47
102
}
330
47
100
AcDbScale
 70
     0
300
3" = 1'-0"
140
3.0
141
12.0
290
     0
  0
SCALE
  5
67
102
{ACAD_REACTORS
330
47
102
}
330
47
100
AcDbScale
 70
     0
300
6" = 1'-0"
140
6.0
141
12.0
290
     0
  0
SCALE
  5
68
102
{ACAD_REACTORS
330
47
102
}
330
47
100
AcDbScale
 70
     0
300
1'-0" = 1'-0"
140
12.0
141
12.0
290
     0
  0
ACDBSECTIONVIEWSTYLE
  5
B4
102
{ACAD_XDICTIONARY
360
3BA
102
}
102
{ACAD_REACTORS
330
AF
102
}
330
AF
100
AcDbModelDocViewStyle
 70
     0
  3
Metric50
290
     0
100
AcDbSectionViewStyle
 70
     0
 71
     0
 90
      102
 71
     1
340
11
 62
   256
 40
5.0
340
0
340
0
 62
   256
 40
5.0
300
I, O, Q, S, X, Z
 40
10.0
 90
        0
 40
2.5
 90
        0
 71
     2
340
16
 90
       25
 62
   256
340
16
 90
       50
 62
   256
 40
5.0
 40
2.5
 40
5.0
 71
     3
340
11
 62
   256
 40
5.0
 90
        0
 40
15.0
 90
        1
300
%<\AcVar ViewSectionStartId>%-%<\AcVar ViewSectionEndId>% (%<\AcVar ViewScale \f "%sn">%)
 71
     4
 62
   256
 62
   257
300
ANSI31
 40
1.0
 90
        0
290
     0
290
     0
 90
        6
 40
0.0
 40
1.570796326794896
 40
0.2617993877991494
 40
1.308996938995747
 40
-0.2617993877991494
 40
1.832595714594045
  0
TABLESTYLE
  5
6A
102
{ACAD_XDICTIONARY
360
200
102
}
102
{ACAD_REACTORS
330
69
102
}
330
69
100
AcDbTableStyle
280
     0
  3
Standard
 70
     0
 71
     0
 40
1.5
 41
1.5
280
     0
281
     0
  7
Standard
140
4.5
170
     2
 62
     0
 63
     7
283
     0
 90
        4
 91
        0
  1

274
    -2
284
     1
 64
     0
275
    -2
285
     1
 65
     0
276
    -2
286
     1
 66
     0
277
    -2
287
     1
 67
     0
278
    -2
288
     1
 68
     0
279
    -2
289
     1
 69
     0
  7
Standard
140
6.0
170
     5
 62
     0
 63
     7
283
     0
 90
        4
 91
        0
  1

274
    -2
284
     1
 64
     0
275
    -2
285
     1
 65
     0
276
    -2
286
     1
 66
     0
277
    -2
287
     1
 67
     0
278
    -2
288
     1
 68
     0
279
    -2
289
     1
 69
     0
  7
Standard
140
4.5
170
     5
 62
     0
 63
     7
283
     0
 90
        4
 91
        0
  1

274
    -2
284
     1
 64
     0
275
    -2
285
     1
 65
     0
276
    -2
286
     1
 66
     0
277
    -2
287
     1
 67
     0
278
    -2
288
     1
 68
     0
279
    -2
289
     1
 69
     0
  0
VISUALSTYLE
  5
2F
102
{ACAD_REACTORS
330
2A
102
}
330
2A
100
AcDbVisualStyle
  2
2dWireframe
 70
     4
177
     3
291
     0
 70
    58
 90
        0
176
     1
 90
        2
176
     1
 90
        0
176
     1
 90
        0
176
     1
 40
0.6
176
     1
 40
30.0
176
     1
 62
     7
420
 16777215
176
     1
 90
        1
176
     1
 90
        4
176
     1
 62
     7
176
     1
 62
   257
176
     1
 90
        1
176
     1
 90
        1
176
     1
 40
1.0
176
     1
 90
        0
176
     1
 62
   257
176
     1
 40
1.0
176
     1
 90
        1
176
     1
 90
        6
176
     1
 90
        2
176
     1
 62
     7
176
     1
 90
        5
176
     1
 90
        0
176
     1
 90
        0
176
     1
290
     0
176
     1
 90
        1
176
     1
 40
0.0
176
     1
 90
        0
176
     1
290
     1
176
     1
290
     1
176
     1
290
     0
176
     1
290
     0
176
     1
290
     0
176
     1
290
     0
176
     1
290
     0
176
     1
290
     0
176
     1
290
     0
176
     1
 90
       50
176
     1
 40
0.0
176
     1
 40
1.0
176
     1
 90
        0
176
     1
 62
    18
176
     1
 90
       50
176
     1
 90
        3
176
     1
 62
     5
420
      255
176
     1
290
     0
176
     1
 90
       50
176
     1
 90
       50
176
     1
 90
       50
176
     1
290
     0
176
     1
 90
       50
176
     1
 62
   256
176
     0
 40
1.0
176
     0
 90
        2
176
     1
  1
strokes_ogs.tif
176
     1
290
     0
176
     1
 40
1.0
176
     1
 40
1.0
176
     1
1001
ACAD
1000
AcDbSavedByObjectVersion
1070
     0
  0
VISUALSTYLE
  5
C0
102
{ACAD_REACTORS
330
2A
102
}
330
2A
100
AcDbVisualStyle
  2
3dWireframe
 70
     5
177
     3
291
     0
 70
    58
 90
        0
176
     1
 90
        2
176
     1
 90
        0
176
     1
 90
        0
176
     1
 40
0.6
176
     1
 40
30.0
176
     1
 62
     7
420
 16777215
176
     1
 90
        1
176
     1
 90
        4
176
     1
 62
     7
176
     1
 62
   257
176
     1
 90
        1
176
     1
 90
        1
176
     1
 40
1.0
176
     1
 90
        0
176
     1
 62
   257
176
     1
 40
1.0
176
     1
 90
        1
176
     1
 90
        6
176
     1
 90
        2
176
     1
 62
     7
176
     1
 90
        5
176
     1
 90
        0
176
     1
 90
        0
176
     1
290
     0
176
     1
 90
        1
176
     1
 40
0.0
176
     1
 90
        0
176
     1
290
     0
176
     1
290
     1
176
     1
290
     1
176
     1
290
     0
176
     1
290
     0
176
     1
290
     0
176
     1
290
     0
176
     1
290
     0
176
     1
290
     0
176
     1
 90
       50
176
     1
 40
0.0
176
     1
 40
1.0
176
     1
 90
        0
176
     1
 62
    18
176
     1
 90
       50
176
     1
 90
        3
176
     1
 62
     5
420
      255
176
     1
290
     0
176
     1
 90
       50
176
     1
 90
       50
176
     1
 90
       50
176
     1
290
     0
176
     1
 90
       50
176
     1
 62
   256
176
     0
 40
1.0
176
     0
 90
        2
176
     1
  1
strokes_ogs.tif
176
     1
290
     0
176
     1
 40
1.0
176
     1
 40
1.0
176
     1
1001
ACAD
1000
AcDbSavedByObjectVersion
1070
     0
  0
VISUALSTYLE
  5
32
102
{ACAD_REACTORS
330
2A
102
}
330
2A
100
AcDbVisualStyle
  2
Basic
 70
     7
177
     3
291
     1
 70
    58
 90
        1
176
     1
 90
        0
176
     1
 90
        1
176
     1
 90
        0
176
     1
 40
0.6
176
     1
 40
30.0
176
     1
 62
     7
420
 16777215
176
     1
 90
        0
176
     1
 90
        4
176
     1
 62
     7
176
     1
 62
   257
176
     1
 90
        1
176
     1
 90
        1
176
     1
 40
1.0
176
     1
 90
        8
176
     1
 62
     7
176
     1
 40
1.0
176
     1
 90
        1
176
     1
 90
        6
176
     1
 90
        2
176
     1
 62
     7
176
     1
 90
        5
176
     1
 90
        0
176
     1
 90
        0
176
     1
290
     0
176
     1
 90
        1
176
     1
 40
0.0
176
     1
 90
        0
176
     1
290
     0
176
     1
290
     1
176
     1
290
     1
176
     1
290
     0
176
     1
290
     0
176
     1
290
     0
176
     1
290
     0
176
     1
290
     0
176
     1
290
     0
176
     1
 90
       50
176
     1
 40
0.0
176
     1
 40
1.0
176
     1
 90
        0
176
     1
 62
    18
176
     1
 90
       50
176
     1
 90
        3
176
     1
 62
     5
420
      255
176
     1
290
     0
176
     1
 90
       50
176
     1
 90
       50
176
     1
 90
       50
176
     1
290
     0
176
     1
 90
       50
176
     1
 62
   256
176
     0
 40
1.0
176
     0
 90
        2
176
     1
  1
strokes_ogs.tif
176
     1
290
     0
176
     1
 40
1.0
176
     1
 40
1.0
176
     1
1001
ACAD
1000
AcDbSavedByObjectVersion
1070
     0
  0
VISUALSTYLE
  5
36
102
{ACAD_REACTORS
330
2A
102
}
330
2A
100
AcDbVisualStyle
  2
Brighten
 70
    12
177
     3
291
     1
 70
    58
 90
        2
176
     1
 90
        2
176
     1
 90
        0
176
     1
 90
        0
176
     1
 40
0.6
176
     1
 40
30.0
176
     1
 62
     7
420
 16777215
176
     1
 90
        1
176
     1
 90
        4
176
     1
 62
     7
176
     1
 62
   257
176
     1
 90
        1
176
     1
 90
        1
176
     1
 40
1.0
176
     1
 90
        8
176
     1
 62
     7
176
     1
 40
1.0
176
     1
 90
        1
176
     1
 90
        6
176
     1
 90
        2
176
     1
 62
     7
176
     1
 90
        5
176
     1
 90
        0
176
     1
 90
        0
176
     1
290
     0
176
     1
 90
        1
176
     1
 40
50.0
176
     1
 90
        0
176
     1
290
     0
176
     1
290
     1
176
     1
290
     1
176
     1
290
     0
176
     1
290
     0
176
     1
290
     0
176
     1
290
     0
176
     1
290
     0
176
     1
290
     0
176
     1
 90
       50
176
     1
 40
0.0
176
     1
 40
1.0
176
     1
 90
        0
176
     1
 62
    18
176
     1
 90
       50
176
     1
 90
        3
176
     1
 62
     5
420
      255
176
     1
290
     0
176
     1
 90
       50
176
     1
 90
       50
176
     1
 90
       50
176
     1
290
     0
176
     1
 90
       50
176
     1
 62
   256
176
     0
 40
1.0
176
     0
 90
        2
176
     1
  1
strokes_ogs.tif
176
     1
290
     0
176
     1
 40
1.0
176
     1
 40
1.0
176
     1
1001
ACAD
1000
AcDbSavedByObjectVersion
1070
     0
  0
VISUALSTYLE
  5
3A
102
{ACAD_REACTORS
330
2A
102
}
330
2A
100
AcDbVisualStyle
  2
ColorChange
 70
    16
177
     3
291
     1
 70
    58
 90
        2
176
     1
 90
        2
176
     1
 90
        3
176
     1
 90
        0
176
     1
 40
0.6
176
     1
 40
30.0
176
     1
 62
     8
420
  8421504
176
     1
 90
        1
176
     1
 90
        4
176
     1
 62
     7
176
     1
 62
   257
176
     1
 90
        1
176
     1
 90
        1
176
     1
 40
1.0
176
     1
 90
        8
176
     1
 62
     8
420
  8421504
176
     1
 40
1.0
176
     1
 90
        1
176
     1
 90
        6
176
     1
 90
        2
176
     1
 62
     7
176
     1
 90
        5
176
     1
 90
        0
176
     1
 90
        0
176
     1
290
     0
176
     1
 90
        1
176
     1
 40
0.0
176
     1
 90
        0
176
     1
290
     0
176
     1
290
     1
176
     1
290
     1
176
     1
290
     0
176
     1
290
     0
176
     1
290
     0
176
     1
290
     0
176
     1
290
     0
176
     1
290
     0
176
     1
 90
       50
176
     1
 40
0.0
176
     1
 40
1.0
176
     1
 90
        0
176
     1
 62
    18
176
     1
 90
       50
176
     1
 90
        3
176
     1
 62
     5
420
      255
176
     1
290
     0
176
     1
 90
       50
176
     1
 90
       50
176
     1
 90
       50
176
     1
290
     0
176
     1
 90
       50
176
     1
 62
   256
176
     0
 40
1.0
176
     0
 90
        2
176
     1
  1
strokes_ogs.tif
176
     1
290
     0
176
     1
 40
1.0
176
     1
 40
1.0
176
     1
1001
ACAD
1000
AcDbSavedByObjectVersion
1070
     0
  0
VISUALSTYLE
  5
34
102
{ACAD_REACTORS
330
2A
102
}
330
2A
100
AcDbVisualStyle
  2
Conceptual
 70
     9
177
     3
291
     0
 70
    58
 90
        3
176
     1
 90
        2
176
     1
 90
        0
176
     1
 90
        0
176
     1
 40
0.6
176
     1
 40
30.0
176
     1
 62
     7
420
 16777215
176
     1
 90
        2
176
     1
 90
        2
176
     1
 62
     7
176
     1
 62
   257
176
     1
 90
        1
176
     1
 90
        1
176
     1
 40
179.0
176
     1
 90
        8
176
     1
 62
     7
176
     1
 40
1.0
176
     1
 90
        1
176
     1
 90
        6
176
     1
 90
        2
176
     1
 62
     7
176
     1
 90
        3
176
     1
 90
        0
176
     1
 90
        0
176
     1
290
     0
176
     1
 90
        1
176
     1
 40
0.0
176
     1
 90
        0
176
     1
290
     0
176
     1
290
     1
176
     1
290
     1
176
     1
290
     0
176
     1
290
     0
176
     1
290
     0
176
     1
290
     0
176
     1
290
     0
176
     1
290
     0
176
     1
 90
       50
176
     1
 40
0.0
176
     1
 40
1.0
176
     1
 90
        0
176
     1
 62
    18
176
     1
 90
       50
176
     1
 90
        3
176
     1
 62
     5
420
      255
176
     1
290
     0
176
     1
 90
       50
176
     1
 90
       50
176
     1
 90
       50
176
     1
290
     0
176
     1
 90
       50
176
     1
 62
   256
176
     0
 40
1.0
176
     0
 90
        2
176
     1
  1
strokes_ogs.tif
176
     1
290
     0
176
     1
 40
1.0
176
     1
 40
1.0
176
     1
1001
ACAD
1000
AcDbSavedByObjectVersion
1070
     0
  0
VISUALSTYLE
  5
35
102
{ACAD_REACTORS
330
2A
102
}
330
2A
100
AcDbVisualStyle
  2
Dim
 70
    11
177
     3
291
     1
 70
    58
 90
        2
176
     1
 90
        2
176
     1
 90
        0
176
     1
 90
        0
176
     1
 40
0.6
176
     1
 40
30.0
176
     1
 62
     7
420
 16777215
176
     1
 90
        1
176
     1
 90
        4
176
     1
 62
     7
176
     1
 62
   257
176
     1
 90
        1
176
     1
 90
        1
176
     1
 40
1.0
176
     1
 90
        8
176
     1
 62
     7
176
     1
 40
1.0
176
     1
 90
        1
176
     1
 90
        6
176
     1
 90
        2
176
     1
 62
     7
176
     1
 90
        5
176
     1
 90
        0
176
     1
 90
        0
176
     1
290
     0
176
     1
 90
        1
176
     1
 40
-50.0
176
     1
 90
        0
176
     1
290
     0
176
     1
290
     1
176
     1
290
     1
176
     1
290
     0
176
     1
290
     0
176
     1
290
     0
176
     1
290
     0
176
     1
290
     0
176
     1
290
     0
176
     1
 90
       50
176
     1
 40
0.0
176
     1
 40
1.0
176
     1
 90
        0
176
     1
 62
    18
176
     1
 90
       50
176
     1
 90
        3
176
     1
 62
     5
420
      255
176
     1
290
     0
176
     1
 90
       50
176
     1
 90
       50
176
     1
 90
       50
176
     1
290
     0
176
     1
 90
       50
176
     1
 62
   256
176
     0
 40
1.0
176
     0
 90
        2
176
     1
  1
strokes_ogs.tif
176
     1
290
     0
176
     1
 40
1.0
176
     1
 40
1.0
176
     1
1001
ACAD
1000
AcDbSavedByObjectVersion
1070
     0
  0
VISUALSTYLE
  5
3D
102
{ACAD_REACTORS
330
2A
102
}
330
2A
100
AcDbVisualStyle
  2
EdgeColorOff
 70
    22
177
     3
291
     1
 70
    58
 90
        2
176
     0
 90
        2
176
     0
 90
        0
176
     0
 90
        0
176
     0
 40
0.6
176
     0
 40
30.0
176
     0
 62
     7
420
 16777215
176
     0
 90
        1
176
     0
 90
        4
176
     0
 62
     7
176
     0
 62
   257
176
     0
 90
        1
176
     0
 90
        1
176
     0
 40
1.0
176
     0
 90
        8
176
     2
 62
     7
176
     0
 40
1.0
176
     0
 90
        1
176
     0
 90
        6
176
     0
 90
        2
176
     0
 62
     7
176
     0
 90
        5
176
     0
 90
        0
176
     0
 90
        0
176
     0
290
     0
176
     0
 90
        1
176
     0
 40
0.0
176
     0
 90
        0
176
     0
290
     0
176
     0
290
     1
176
     0
290
     1
176
     0
290
     0
176
     0
290
     0
176
     0
290
     0
176
     0
290
     0
176
     0
290
     0
176
     0
290
     0
176
     0
 90
       50
176
     0
 40
0.0
176
     0
 40
1.0
176
     0
 90
        0
176
     0
 62
    18
176
     0
 90
       50
176
     0
 90
        3
176
     0
 62
     5
420
      255
176
     0
290
     0
176
     0
 90
       50
176
     0
 90
       50
176
     0
 90
       50
176
     0
290
     0
176
     0
 90
       50
176
     0
 62
   256
176
     0
 40
1.0
176
     0
 90
        2
176
     0
  1
strokes_ogs.tif
176
     0
290
     0
176
     0
 40
1.0
176
     0
 40
1.0
176
     0
1001
ACAD
1000
AcDbSavedByObjectVersion
1070
     0
  0
VISUALSTYLE
  5
39
102
{ACAD_REACTORS
330
2A
102
}
330
2A
100
AcDbVisualStyle
  2
Facepattern
 70
    15
177
     3
291
     1
 70
    58
 90
        2
176
     1
 90
        2
176
     1
 90
        0
176
     1
 90
        0
176
     1
 40
0.6
176
     1
 40
30.0
176
     1
 62
     7
420
 16777215
176
     1
 90
        1
176
     1
 90
        4
176
     1
 62
     7
176
     1
 62
   257
176
     1
 90
        1
176
     1
 90
        1
176
     1
 40
1.0
176
     1
 90
        8
176
     1
 62
     7
176
     1
 40
1.0
176
     1
 90
        1
176
     1
 90
        6
176
     1
 90
        2
176
     1
 62
     7
176
     1
 90
        5
176
     1
 90
        0
176
     1
 90
        0
176
     1
290
     0
176
     1
 90
        1
176
     1
 40
0.0
176
     1
 90
        0
176
     1
290
     0
176
     1
290
     1
176
     1
290
     1
176
     1
290
     0
176
     1
290
     0
176
     1
290
     0
176
     1
290
     0
176
     1
290
     0
176
     1
290
     0
176
     1
 90
       50
176
     1
 40
0.0
176
     1
 40
1.0
176
     1
 90
        0
176
     1
 62
    18
176
     1
 90
       50
176
     1
 90
        3
176
     1
 62
     5
420
      255
176
     1
290
     0
176
     1
 90
       50
176
     1
 90
       50
176
     1
 90
       50
176
     1
290
     0
176
     1
 90
       50
176
     1
 62
   256
176
     0
 40
1.0
176
     0
 90
        2
176
     1
  1
strokes_ogs.tif
176
     1
290
     0
176
     1
 40
1.0
176
     1
 40
1.0
176
     1
1001
ACAD
1000
AcDbSavedByObjectVersion
1070
     0
  0
VISUALSTYLE
  5
2B
102
{ACAD_REACTORS
330
2A
102
}
330
2A
100
AcDbVisualStyle
  2
Flat
 70
     0
177
     3
291
     1
 70
    58
 90
        2
176
     1
 90
        1
176
     1
 90
        1
176
     1
 90
        2
176
     1
 40
0.6
176
     1
 40
30.0
176
     1
 62
     7
420
 16777215
176
     1
 90
        0
176
     1
 90
        0
176
     1
 62
     7
176
     1
 62
   257
176
     1
 90
        1
176
     1
 90
        1
176
     1
 40
1.0
176
     1
 90
        8
176
     1
 62
     7
176
     1
 40
1.0
176
     1
 90
        1
176
     1
 90
        6
176
     1
 90
        2
176
     1
 62
     7
176
     1
 90
        5
176
     1
 90
        0
176
     1
 90
        0
176
     1
290
     0
176
     1
 90
       13
176
     1
 40
0.0
176
     1
 90
        0
176
     1
290
     0
176
     1
290
     1
176
     1
290
     1
176
     1
290
     0
176
     1
290
     0
176
     1
290
     0
176
     1
290
     0
176
     1
290
     0
176
     1
290
     0
176
     1
 90
       50
176
     1
 40
0.0
176
     1
 40
1.0
176
     1
 90
        0
176
     1
 62
    18
176
     1
 90
       50
176
     1
 90
        3
176
     1
 62
     5
420
      255
176
     1
290
     0
176
     1
 90
       50
176
     1
 90
       50
176
     1
 90
       50
176
     1
290
     0
176
     1
 90
       50
176
     1
 62
   256
176
     0
 40
1.0
176
     0
 90
        2
176
     1
  1
strokes_ogs.tif
176
     1
290
     0
176
     1
 40
1.0
176
     1
 40
1.0
176
     1
1001
ACAD
1000
AcDbSavedByObjectVersion
1070
     0
  0
VISUALSTYLE
  5
2C
102
{ACAD_REACTORS
330
2A
102
}
330
2A
100
AcDbVisualStyle
  2
FlatWithEdges
 70
     1
177
     3
291
     1
 70
    58
 90
        2
176
     1
 90
        1
176
     1
 90
        1
176
     1
 90
        2
176
     1
 40
0.6
176
     1
 40
30.0
176
     1
 62
     7
420
 16777215
176
     1
 90
        1
176
     1
 90
        0
176
     1
 62
     7
176
     1
 62
   257
176
     1
 90
        1
176
     1
 90
        1
176
     1
 40
1.0
176
     1
 90
        0
176
     1
 62
   257
176
     1
 40
1.0
176
     1
 90
        1
176
     1
 90
        6
176
     1
 90
        2
176
     1
 62
     7
176
     1
 90
        5
176
     1
 90
        0
176
     1
 90
        0
176
     1
290
     0
176
     1
 90
       13
176
     1
 40
0.0
176
     1
 90
        0
176
     1
290
     0
176
     1
290
     1
176
     1
290
     1
176
     1
290
     0
176
     1
290
     0
176
     1
290
     0
176
     1
290
     0
176
     1
290
     0
176
     1
290
     0
176
     1
 90
       50
176
     1
 40
0.0
176
     1
 40
1.0
176
     1
 90
        0
176
     1
 62
    18
176
     1
 90
       50
176
     1
 90
        3
176
     1
 62
     5
420
      255
176
     1
290
     0
176
     1
 90
       50
176
     1
 90
       50
176
     1
 90
       50
176
     1
290
     0
176
     1
 90
       50
176
     1
 62
   256
176
     0
 40
1.0
176
     0
 90
        2
176
     1
  1
strokes_ogs.tif
176
     1
290
     0
176
     1
 40
1.0
176
     1
 40
1.0
176
     1
1001
ACAD
1000
AcDbSavedByObjectVersion
1070
     0
  0
VISUALSTYLE
  5
2D
102
{ACAD_REACTORS
330
2A
102
}
330
2A
100
AcDbVisualStyle
  2
Gouraud
 70
     2
177
     3
291
     1
 70
    58
 90
        2
176
     1
 90
        2
176
     1
 90
        1
176
     1
 90
        2
176
     1
 40
0.6
176
     1
 40
30.0
176
     1
 62
     7
420
 16777215
176
     1
 90
        0
176
     1
 90
        0
176
     1
 62
     7
176
     1
 62
   257
176
     1
 90
        1
176
     1
 90
        1
176
     1
 40
1.0
176
     1
 90
        0
176
     1
 62
     7
176
     1
 40
1.0
176
     1
 90
        1
176
     1
 90
        6
176
     1
 90
        2
176
     1
 62
     7
176
     1
 90
        5
176
     1
 90
        0
176
     1
 90
        0
176
     1
290
     0
176
     1
 90
       13
176
     1
 40
0.0
176
     1
 90
        0
176
     1
290
     0
176
     1
290
     1
176
     1
290
     1
176
     1
290
     0
176
     1
290
     0
176
     1
290
     0
176
     1
290
     0
176
     1
290
     0
176
     1
290
     0
176
     1
 90
       50
176
     1
 40
0.0
176
     1
 40
1.0
176
     1
 90
        0
176
     1
 62
    18
176
     1
 90
       50
176
     1
 90
        3
176
     1
 62
     5
420
      255
176
     1
290
     0
176
     1
 90
       50
176
     1
 90
       50
176
     1
 90
       50
176
     1
290
     0
176
     1
 90
       50
176
     1
 62
   256
176
     0
 40
1.0
176
     0
 90
        2
176
     1
  1
strokes_ogs.tif
176
     1
290
     0
176
     1
 40
1.0
176
     1
 40
1.0
176
     1
1001
ACAD
1000
AcDbSavedByObjectVersion
1070
     0
  0
VISUALSTYLE
  5
2E
102
{ACAD_REACTORS
330
2A
102
}
330
2A
100
AcDbVisualStyle
  2
GouraudWithEdges
 70
     3
177
     3
291
     1
 70
    58
 90
        2
176
     1
 90
        2
176
     1
 90
        1
176
     1
 90
        2
176
     1
 40
0.6
176
     1
 40
30.0
176
     1
 62
     7
420
 16777215
176
     1
 90
        1
176
     1
 90
        0
176
     1
 62
     7
176
     1
 62
   257
176
     1
 90
        1
176
     1
 90
        1
176
     1
 40
1.0
176
     1
 90
        0
176
     1
 62
   257
176
     1
 40
1.0
176
     1
 90
        1
176
     1
 90
        6
176
     1
 90
        2
176
     1
 62
     7
176
     1
 90
        5
176
     1
 90
        0
176
     1
 90
        0
176
     1
290
     0
176
     1
 90
       13
176
     1
 40
0.0
176
     1
 90
        0
176
     1
290
     0
176
     1
290
     1
176
     1
290
     1
176
     1
290
     0
176
     1
290
     0
176
     1
290
     0
176
     1
290
     0
176
     1
290
     0
176
     1
290
     0
176
     1
 90
       50
176
     1
 40
0.0
176
     1
 40
1.0
176
     1
 90
        0
176
     1
 62
    18
176
     1
 90
       50
176
     1
 90
        3
176
     1
 62
     5
420
      255
176
     1
290
     0
176
     1
 90
       50
176
     1
 90
       50
176
     1
 90
       50
176
     1
290
     0
176
     1
 90
       50
176
     1
 62
   256
176
     0
 40
1.0
176
     0
 90
        2
176
     1
  1
strokes_ogs.tif
176
     1
290
     0
176
     1
 40
1.0
176
     1
 40
1.0
176
     1
1001
ACAD
1000
AcDbSavedByObjectVersion
1070
     0
  0
VISUALSTYLE
  5
31
102
{ACAD_REACTORS
330
2A
102
}
330
2A
100
AcDbVisualStyle
  2
Hidden
 70
     6
177
     3
291
     0
 70
    58
 90
        1
176
     1
 90
        2
176
     1
 90
        2
176
     1
 90
        0
176
     1
 40
0.6
176
     1
 40
30.0
176
     1
 62
     7
420
 16777215
176
     1
 90
        2
176
     1
 90
        2
176
     1
 62
     7
176
     1
 62
   257
176
     1
 90
        2
176
     1
 90
        1
176
     1
 40
40.0
176
     1
 90
        0
176
     1
 62
   257
176
     1
 40
1.0
176
     1
 90
        1
176
     1
 90
        6
176
     1
 90
        2
176
     1
 62
     7
176
     1
 90
        3
176
     1
 90
        0
176
     1
 90
        0
176
     1
290
     0
176
     1
 90
        1
176
     1
 40
0.0
176
     1
 90
        0
176
     1
290
     0
176
     1
290
     1
176
     1
290
     1
176
     1
290
     0
176
     1
290
     0
176
     1
290
     0
176
     1
290
     0
176
     1
290
     0
176
     1
290
     0
176
     1
 90
       50
176
     1
 40
0.0
176
     1
 40
1.0
176
     1
 90
        0
176
     1
 62
    18
176
     1
 90
       50
176
     1
 90
        3
176
     1
 62
     5
420
      255
176
     1
290
     0
176
     1
 90
       50
176
     1
 90
       50
176
     1
 90
       50
176
     1
290
     0
176
     1
 90
       50
176
     1
 62
   256
176
     0
 40
1.0
176
     0
 90
        2
176
     1
  1
strokes_ogs.tif
176
     1
290
     0
176
     1
 40
1.0
176
     1
 40
1.0
176
     1
1001
ACAD
1000
AcDbSavedByObjectVersion
1070
     0
  0
VISUALSTYLE
  5
3B
102
{ACAD_REACTORS
330
2A
102
}
330
2A
100
AcDbVisualStyle
  2
JitterOff
 70
    20
177
     3
291
     1
 70
    58
 90
        2
176
     0
 90
        2
176
     0
 90
        0
176
     0
 90
        0
176
     0
 40
0.6
176
     0
 40
30.0
176
     0
 62
     7
420
 16777215
176
     0
 90
        1
176
     0
 90
        4
176
     0
 62
     7
176
     0
 62
   257
176
     0
 90
        1
176
     0
 90
        1
176
     0
 40
1.0
176
     0
 90
       10
176
     2
 62
     7
176
     0
 40
1.0
176
     0
 90
        1
176
     0
 90
        6
176
     0
 90
        2
176
     0
 62
     7
176
     0
 90
        5
176
     0
 90
        0
176
     0
 90
        0
176
     0
290
     0
176
     0
 90
        1
176
     0
 40
0.0
176
     0
 90
        0
176
     0
290
     0
176
     0
290
     1
176
     0
290
     1
176
     0
290
     0
176
     0
290
     0
176
     0
290
     0
176
     0
290
     0
176
     0
290
     0
176
     0
290
     0
176
     0
 90
       50
176
     0
 40
0.0
176
     0
 40
1.0
176
     0
 90
        0
176
     0
 62
    18
176
     0
 90
       50
176
     0
 90
        3
176
     0
 62
     5
420
      255
176
     0
290
     0
176
     0
 90
       50
176
     0
 90
       50
176
     0
 90
       50
176
     0
290
     0
176
     0
 90
       50
176
     0
 62
   256
176
     0
 40
1.0
176
     0
 90
        2
176
     0
  1
strokes_ogs.tif
176
     0
290
     0
176
     0
 40
1.0
176
     0
 40
1.0
176
     0
1001
ACAD
1000
AcDbSavedByObjectVersion
1070
     0
  0
VISUALSTYLE
  5
38
102
{ACAD_REACTORS
330
2A
102
}
330
2A
100
AcDbVisualStyle
  2
Linepattern
 70
    14
177
     3
291
     1
 70
    58
 90
        2
176
     1
 90
        2
176
     1
 90
        0
176
     1
 90
        0
176
     1
 40
0.6
176
     1
 40
30.0
176
     1
 62
     7
420
 16777215
176
     1
 90
        1
176
     1
 90
        4
176
     1
 62
     7
176
     1
 62
   257
176
     1
 90
        7
176
     1
 90
        7
176
     1
 40
1.0
176
     1
 90
        8
176
     1
 62
     7
176
     1
 40
1.0
176
     1
 90
        1
176
     1
 90
        6
176
     1
 90
        2
176
     1
 62
     7
176
     1
 90
        5
176
     1
 90
        0
176
     1
 90
        0
176
     1
290
     0
176
     1
 90
        1
176
     1
 40
0.0
176
     1
 90
        0
176
     1
290
     0
176
     1
290
     1
176
     1
290
     1
176
     1
290
     0
176
     1
290
     0
176
     1
290
     0
176
     1
290
     0
176
     1
290
     0
176
     1
290
     0
176
     1
 90
       50
176
     1
 40
0.0
176
     1
 40
1.0
176
     1
 90
        0
176
     1
 62
    18
176
     1
 90
       50
176
     1
 90
        3
176
     1
 62
     5
420
      255
176
     1
290
     0
176
     1
 90
       50
176
     1
 90
       50
176
     1
 90
       50
176
     1
290
     0
176
     1
 90
       50
176
     1
 62
   256
176
     0
 40
1.0
176
     0
 90
        2
176
     1
  1
strokes_ogs.tif
176
     1
290
     0
176
     1
 40
1.0
176
     1
 40
1.0
176
     1
1001
ACAD
1000
AcDbSavedByObjectVersion
1070
     0
  0
VISUALSTYLE
  5
3C
102
{ACAD_REACTORS
330
2A
102
}
330
2A
100
AcDbVisualStyle
  2
OverhangOff
 70
    21
177
     3
291
     1
 70
    58
 90
        2
176
     0
 90
        2
176
     0
 90
        0
176
     0
 90
        0
176
     0
 40
0.6
176
     0
 40
30.0
176
     0
 62
     7
420
 16777215
176
     0
 90
        1
176
     0
 90
        4
176
     0
 62
     7
176
     0
 62
   257
176
     0
 90
        1
176
     0
 90
        1
176
     0
 40
1.0
176
     0
 90
        9
176
     2
 62
     7
176
     0
 40
1.0
176
     0
 90
        1
176
     0
 90
        6
176
     0
 90
        2
176
     0
 62
     7
176
     0
 90
        5
176
     0
 90
        0
176
     0
 90
        0
176
     0
290
     0
176
     0
 90
        1
176
     0
 40
0.0
176
     0
 90
        0
176
     0
290
     0
176
     0
290
     1
176
     0
290
     1
176
     0
290
     0
176
     0
290
     0
176
     0
290
     0
176
     0
290
     0
176
     0
290
     0
176
     0
290
     0
176
     0
 90
       50
176
     0
 40
0.0
176
     0
 40
1.0
176
     0
 90
        0
176
     0
 62
    18
176
     0
 90
       50
176
     0
 90
        3
176
     0
 62
     5
420
      255
176
     0
290
     0
176
     0
 90
       50
176
     0
 90
       50
176
     0
 90
       50
176
     0
290
     0
176
     0
 90
       50
176
     0
 62
   256
176
     0
 40
1.0
176
     0
 90
        2
176
     0
  1
strokes_ogs.tif
176
     0
290
     0
176
     0
 40
1.0
176
     0
 40
1.0
176
     0
1001
ACAD
1000
AcDbSavedByObjectVersion
1070
     0
  0
VISUALSTYLE
  5
33
102
{ACAD_REACTORS
330
2A
102
}
330
2A
100
AcDbVisualStyle
  2
Realistic
 70
     8
177
     3
291
     0
 70
    58
 90
        2
176
     1
 90
        3
176
     1
 90
        0
176
     1
 90
        2
176
     1
 40
0.6
176
     1
 40
30.0
176
     1
 62
     7
420
 16777215
176
     1
 90
        0
176
     1
 90
        0
176
     1
 62
     7
176
     1
 62
   257
176
     1
 90
        1
176
     1
 90
        1
176
     1
 40
1.0
176
     1
 90
        8
176
     1
 62
   257
176
     1
 40
1.0
176
     1
 90
        1
176
     1
 90
        6
176
     1
 90
        2
176
     1
 62
     7
176
     1
 90
        3
176
     1
 90
        0
176
     1
 90
        0
176
     1
290
     0
176
     1
 90
       13
176
     1
 40
0.0
176
     1
 90
        0
176
     1
290
     0
176
     1
290
     1
176
     1
290
     1
176
     1
290
     0
176
     1
290
     0
176
     1
290
     0
176
     1
290
     0
176
     1
290
     0
176
     1
290
     0
176
     1
 90
       50
176
     1
 40
0.0
176
     1
 40
1.0
176
     1
 90
        0
176
     1
 62
    18
176
     1
 90
       50
176
     1
 90
        3
176
     1
 62
     5
420
      255
176
     1
290
     0
176
     1
 90
       50
176
     1
 90
       50
176
     1
 90
       50
176
     1
290
     0
176
     1
 90
       50
176
     1
 62
   256
176
     0
 40
1.0
176
     0
 90
        2
176
     1
  1
strokes_ogs.tif
176
     1
290
     0
176
     1
 40
1.0
176
     1
 40
1.0
176
     1
1001
ACAD
1000
AcDbSavedByObjectVersion
1070
     0
  0
VISUALSTYLE
  5
42
102
{ACAD_REACTORS
330
2A
102
}
330
2A
100
AcDbVisualStyle
  2
Shaded
 70
    27
177
     3
291
     0
 70
    58
 90
        2
176
     1
 90
        2
176
     1
 90
        1
176
     1
 90
        2
176
     1
 40
0.6
176
     1
 40
30.0
176
     1
 62
     7
420
 16777215
176
     1
 90
        0
176
     1
 90
        4
176
     1
 62
     7
176
     1
 62
   257
176
     1
 90
        1
176
     1
 90
        1
176
     1
 40
1.0
176
     1
 90
        8
176
     1
 62
   257
176
     1
 40
1.0
176
     1
 90
        1
176
     1
 90
        6
176
     1
 90
        2
176
     1
 62
     8
420
  7895160
176
     1
 90
        3
176
     1
 90
        0
176
     1
 90
        0
176
     1
290
     0
176
     1
 90
        5
176
     1
 40
0.0
176
     1
 90
        0
176
     1
290
     0
176
     1
290
     1
176
     1
290
     1
176
     1
290
     0
176
     1
290
     0
176
     1
290
     0
176
     1
290
     0
176
     1
290
     0
176
     1
290
     0
176
     1
 90
       50
176
     1
 40
0.0
176
     1
 40
1.0
176
     1
 90
        0
176
     1
 62
    18
176
     1
 90
       50
176
     1
 90
        3
176
     1
 62
     5
420
      255
176
     1
290
     0
176
     1
 90
       50
176
     1
 90
       50
176
     1
 90
       50
176
     1
290
     0
176
     1
 90
       50
176
     1
 62
   256
176
     0
 40
1.0
176
     0
 90
        2
176
     1
  1
strokes_ogs.tif
176
     1
290
     0
176
     1
 40
1.0
176
     1
 40
1.0
176
     1
1001
ACAD
1000
AcDbSavedByObjectVersion
1070
     0
  0
VISUALSTYLE
  5
41
102
{ACAD_REACTORS
330
2A
102
}
330
2A
100
AcDbVisualStyle
  2
Shaded with edges
 70
    26
177
     3
291
     0
 70
    58
 90
        2
176
     1
 90
        2
176
     1
 90
        1
176
     1
 90
        2
176
     1
 40
0.6
176
     1
 40
30.0
176
     1
 62
     7
420
 16777215
176
     1
 90
        1
176
     1
 90
        2
176
     1
 62
     7
176
     1
 62
   257
176
     1
 90
        2
176
     1
 90
        1
176
     1
 40
1.0
176
     1
 90
        8
176
     1
 62
   257
176
     1
 40
1.0
176
     1
 90
        1
176
     1
 90
        6
176
     1
 90
        2
176
     1
 62
     7
176
     1
 90
        3
176
     1
 90
        0
176
     1
 90
        0
176
     1
290
     0
176
     1
 90
        5
176
     1
 40
0.0
176
     1
 90
        0
176
     1
290
     0
176
     1
290
     1
176
     1
290
     1
176
     1
290
     0
176
     1
290
     0
176
     1
290
     0
176
     1
290
     0
176
     1
290
     0
176
     1
290
     0
176
     1
 90
       50
176
     1
 40
0.0
176
     1
 40
1.0
176
     1
 90
        0
176
     1
 62
    18
176
     1
 90
       50
176
     1
 90
        3
176
     1
 62
     5
420
      255
176
     1
290
     0
176
     1
 90
       50
176
     1
 90
       50
176
     1
 90
       50
176
     1
290
     0
176
     1
 90
       50
176
     1
 62
   256
176
     0
 40
1.0
176
     0
 90
        2
176
     1
  1
strokes_ogs.tif
176
     1
290
     0
176
     1
 40
1.0
176
     1
 40
1.0
176
     1
1001
ACAD
1000
AcDbSavedByObjectVersion
1070
     0
  0
VISUALSTYLE
  5
3E
102
{ACAD_REACTORS
330
2A
102
}
330
2A
100
AcDbVisualStyle
  2
Shades of Gray
 70
    23
177
     3
291
     0
 70
    58
 90
        2
176
     1
 90
        2
176
     1
 90
        3
176
     1
 90
        0
176
     1
 40
0.6
176
     1
 40
30.0
176
     1
 62
     7
420
 16777215
176
     1
 90
        2
176
     1
 90
        2
176
     1
 62
     7
176
     1
 62
     7
176
     1
 90
        1
176
     1
 90
        1
176
     1
 40
40.0
176
     1
 90
        8
176
     1
 62
     7
176
     1
 40
1.0
176
     1
 90
        1
176
     1
 90
        6
176
     1
 90
        2
176
     1
 62
     7
176
     1
 90
        3
176
     1
 90
        0
176
     1
 90
        0
176
     1
290
     0
176
     1
 90
        1
176
     1
 40
0.0
176
     1
 90
        0
176
     1
290
     0
176
     1
290
     1
176
     1
290
     1
176
     1
290
     0
176
     1
290
     0
176
     1
290
     0
176
     1
290
     0
176
     1
290
     0
176
     1
290
     0
176
     1
 90
       50
176
     1
 40
0.0
176
     1
 40
1.0
176
     1
 90
        0
176
     1
 62
    18
176
     1
 90
       50
176
     1
 90
        3
176
     1
 62
     5
420
      255
176
     1
290
     0
176
     1
 90
       50
176
     1
 90
       50
176
     1
 90
       50
176
     1
290
     0
176
     1
 90
       50
176
     1
 62
   256
176
     0
 40
1.0
176
     0
 90
        2
176
     1
  1
strokes_ogs.tif
176
     1
290
     0
176
     1
 40
1.0
176
     1
 40
1.0
176
     1
1001
ACAD
1000
AcDbSavedByObjectVersion
1070
     0
  0
VISUALSTYLE
  5
3F
102
{ACAD_REACTORS
330
2A
102
}
330
2A
100
AcDbVisualStyle
  2
Sketchy
 70
    24
177
     3
291
     0
 70
    58
 90
        1
176
     1
 90
        2
176
     1
 90
        2
176
     1
 90
        0
176
     1
 40
0.6
176
     1
 40
30.0
176
     1
 62
     7
420
 16777215
176
     1
 90
        2
176
     1
 90
        2
176
     1
 62
     7
176
     1
 62
     7
176
     1
 90
        1
176
     1
 90
        1
176
     1
 40
40.0
176
     1
 90
       11
176
     1
 62
     7
176
     1
 40
1.0
176
     1
 90
        1
176
     1
 90
        6
176
     1
 90
        2
176
     1
 62
     7
176
     1
 90
        6
176
     1
 90
        0
176
     1
 90
        0
176
     1
290
     0
176
     1
 90
        1
176
     1
 40
0.0
176
     1
 90
        0
176
     1
290
     0
176
     1
290
     1
176
     1
290
     1
176
     1
290
     0
176
     1
290
     0
176
     1
290
     0
176
     1
290
     0
176
     1
290
     0
176
     1
290
     0
176
     1
 90
       50
176
     1
 40
0.0
176
     1
 40
1.0
176
     1
 90
        0
176
     1
 62
    18
176
     1
 90
       50
176
     1
 90
        3
176
     1
 62
     5
420
      255
176
     1
290
     0
176
     1
 90
       50
176
     1
 90
       50
176
     1
 90
       50
176
     1
290
     0
176
     1
 90
       50
176
     1
 62
   256
176
     0
 40
1.0
176
     0
 90
        2
176
     1
  1
strokes_ogs.tif
176
     1
290
     0
176
     1
 40
1.0
176
     1
 40
1.0
176
     1
1001
ACAD
1000
AcDbSavedByObjectVersion
1070
     0
  0
VISUALSTYLE
  5
37
102
{ACAD_REACTORS
330
2A
102
}
330
2A
100
AcDbVisualStyle
  2
Thicken
 70
    13
177
     3
291
     1
 70
    58
 90
        2
176
     1
 90
        2
176
     1
 90
        0
176
     1
 90
        0
176
     1
 40
0.6
176
     1
 40
30.0
176
     1
 62
     7
420
 16777215
176
     1
 90
        1
176
     1
 90
        4
176
     1
 62
     7
176
     1
 62
   257
176
     1
 90
        1
176
     1
 90
        1
176
     1
 40
1.0
176
     1
 90
       12
176
     1
 62
     7
176
     1
 40
1.0
176
     1
 90
        1
176
     1
 90
        6
176
     1
 90
        2
176
     1
 62
     7
176
     1
 90
        5
176
     1
 90
        0
176
     1
 90
        0
176
     1
290
     0
176
     1
 90
        1
176
     1
 40
0.0
176
     1
 90
        0
176
     1
290
     0
176
     1
290
     1
176
     1
290
     1
176
     1
290
     0
176
     1
290
     0
176
     1
290
     0
176
     1
290
     0
176
     1
290
     0
176
     1
290
     0
176
     1
 90
       50
176
     1
 40
0.0
176
     1
 40
1.0
176
     1
 90
        0
176
     1
 62
    18
176
     1
 90
       50
176
     1
 90
        3
176
     1
 62
     5
420
      255
176
     1
290
     0
176
     1
 90
       50
176
     1
 90
       50
176
     1
 90
       50
176
     1
290
     0
176
     1
 90
       50
176
     1
 62
   256
176
     0
 40
1.0
176
     0
 90
        2
176
     1
  1
strokes_ogs.tif
176
     1
290
     0
176
     1
 40
1.0
176
     1
 40
1.0
176
     1
1001
ACAD
1000
AcDbSavedByObjectVersion
1070
     0
  0
VISUALSTYLE
  5
30
102
{ACAD_REACTORS
330
2A
102
}
330
2A
100
AcDbVisualStyle
  2
Wireframe
 70
     5
177
     3
291
     0
 70
    58
 90
        0
176
     1
 90
        2
176
     1
 90
        0
176
     1
 90
        0
176
     1
 40
0.6
176
     1
 40
30.0
176
     1
 62
     7
420
 16777215
176
     1
 90
        1
176
     1
 90
        4
176
     1
 62
     7
176
     1
 62
   257
176
     1
 90
        1
176
     1
 90
        1
176
     1
 40
1.0
176
     1
 90
        0
176
     1
 62
   257
176
     1
 40
1.0
176
     1
 90
        1
176
     1
 90
        6
176
     1
 90
        2
176
     1
 62
     7
176
     1
 90
        3
176
     1
 90
        0
176
     1
 90
        0
176
     1
290
     0
176
     1
 90
        1
176
     1
 40
0.0
176
     1
 90
        0
176
     1
290
     0
176
     1
290
     1
176
     1
290
     1
176
     1
290
     0
176
     1
290
     0
176
     1
290
     0
176
     1
290
     0
176
     1
290
     0
176
     1
290
     0
176
     1
 90
       50
176
     1
 40
0.0
176
     1
 40
1.0
176
     1
 90
        0
176
     1
 62
    18
176
     1
 90
       50
176
     1
 90
        3
176
     1
 62
     5
420
      255
176
     1
290
     0
176
     1
 90
       50
176
     1
 90
       50
176
     1
 90
       50
176
     1
290
     0
176
     1
 90
       50
176
     1
 62
   256
176
     0
 40
1.0
176
     0
 90
        2
176
     1
  1
strokes_ogs.tif
176
     1
290
     0
176
     1
 40
1.0
176
     1
 40
1.0
176
     1
1001
ACAD
1000
AcDbSavedByObjectVersion
1070
     0
  0
VISUALSTYLE
  5
40
102
{ACAD_REACTORS
330
2A
102
}
330
2A
100
AcDbVisualStyle
  2
X-Ray
 70
    25
177
     3
291
     0
 70
    58
 90
        2
176
     1
 90
        2
176
     1
 90
        1
176
     1
 90
        1
176
     1
 40
0.5
176
     1
 40
30.0
176
     1
 62
     7
420
 16777215
176
     1
 90
        1
176
     1
 90
        0
176
     1
 62
     7
176
     1
 62
   257
176
     1
 90
        1
176
     1
 90
        1
176
     1
 40
1.0
176
     1
 90
        8
176
     1
 62
     7
176
     1
 40
1.0
176
     1
 90
        1
176
     1
 90
        6
176
     1
 90
        2
176
     1
 62
     7
176
     1
 90
        3
176
     1
 90
        0
176
     1
 90
        0
176
     1
290
     0
176
     1
 90
       13
176
     1
 40
0.0
176
     1
 90
        0
176
     1
290
     0
176
     1
290
     1
176
     1
290
     1
176
     1
290
     0
176
     1
290
     0
176
     1
290
     0
176
     1
290
     0
176
     1
290
     0
176
     1
290
     0
176
     1
 90
       50
176
     1
 40
0.0
176
     1
 40
1.0
176
     1
 90
        0
176
     1
 62
    18
176
     1
 90
       50
176
     1
 90
        3
176
     1
 62
     5
420
      255
176
     1
290
     0
176
     1
 90
       50
176
     1
 90
       50
176
     1
 90
       50
176
     1
290
     0
176
     1
 90
       50
176
     1
 62
   256
176
     0
 40
1.0
176
     0
 90
        2
176
     1
  1
strokes_ogs.tif
176
     1
290
     0
176
     1
 40
1.0
176
     1
 40
1.0
176
     1
1001
ACAD
1000
AcDbSavedByObjectVersion
1070
     0
  0
DICTIONARYVAR
  5
AB
102
{ACAD_REACTORS
330
AA
102
}
330
AA
100
DictionaryVariables
280
     0
  1
1:1
  0
DICTIONARYVAR
  5
B0
102
{ACAD_REACTORS
330
AA
102
}
330
AA
100
DictionaryVariables
280
     0
  1
3.500000
  0
DICTIONARYVAR
  5
B1
102
{ACAD_REACTORS
330
AA
102
}
330
AA
100
DictionaryVariables
280
     0
  1
acadiso.lin
  0
DICTIONARYVAR
  5
AD
102
{ACAD_REACTORS
330
AA
102
}
330
AA
100
DictionaryVariables
280
     0
  1
STANDARD
  0
DICTIONARYVAR
  5
AC
102
{ACAD_REACTORS
330
AA
102
}
330
AA
100
DictionaryVariables
280
     0
  1
STANDARD
  0
DICTIONARYVAR
  5
1FE
102
{ACAD_REACTORS
330
AA
102
}
330
AA
100
DictionaryVariables
280
     0
  1
Metric50
  0
DICTIONARYVAR
  5
1FF
102
{ACAD_REACTORS
330
AA
102
}
330
AA
100
DictionaryVariables
280
     0
  1
Metric50
  0
DICTIONARY
  5
3BC
330
B5
100
AcDbDictionary
280
     1
281
     1
  3
ACAD_XREC_ROUNDTRIP
360
3BD
  0
DICTIONARY
  5
3BA
330
B4
100
AcDbDictionary
280
     1
281
     1
  3
ACAD_XREC_ROUNDTRIP
360
3BB
  0
DICTIONARY
  5
200
330
6A
100
AcDbDictionary
280
     1
281
     1
  3
ACAD_ROUNDTRIP_2008_TABLESTYLE_CELLSTYLEMAP
360
3B8
  0
XRECORD
  5
3BD
102
{ACAD_REACTORS
330
3BC
102
}
330
3BC
100
AcDbXrecord
280
     1
102
DISPLAYNAME
  1
Metric50
102
FLAGS
 90
        0
  0
XRECORD
  5
3BB
102
{ACAD_REACTORS
330
3BA
102
}
330
3BA
100
AcDbXrecord
280
     1
102
DISPLAYNAME
  1
Metric50
102
FLAGS
 90
        0
  0
CELLSTYLEMAP
  5
3B8
102
{ACAD_REACTORS
330
200
102
}
330
200
100
AcDbCellStyleMap
 90
        3
300
CELLSTYLE
  1
TABLEFORMAT_BEGIN
 90
        5
170
     1
 91
        0
 92
    32768
 62
   257
 93
        1
300
CONTENTFORMAT
  1
CONTENTFORMAT_BEGIN
 90
        0
 91
        0
 92
        4
 93
        0
300

 40
0.0
140
1.0
 94
        5
 62
     0
340
11
144
6.0
309
CONTENTFORMAT_END
171
     1
301
MARGIN
  1
CELLMARGIN_BEGIN
 40
1.5
 40
1.5
 40
1.5
 40
1.5
 40
0.18
 40
0.18
309
CELLMARGIN_END
 94
        6
 95
        1
302
GRIDFORMAT
  1
GRIDFORMAT_BEGIN
 90
        0
 91
        1
 62
     0
 92
       -2
340
14
 93
        0
 40
0.045
309
GRIDFORMAT_END
 95
        2
302
GRIDFORMAT
  1
GRIDFORMAT_BEGIN
 90
        0
 91
        1
 62
     0
 92
       -2
340
14
 93
        0
 40
0.045
309
GRIDFORMAT_END
 95
        4
302
GRIDFORMAT
  1
GRIDFORMAT_BEGIN
 90
        0
 91
        1
 62
     0
 92
       -2
340
14
 93
        0
 40
0.045
309
GRIDFORMAT_END
 95
        8
302
GRIDFORMAT
  1
GRIDFORMAT_BEGIN
 90
        0
 91
        1
 62
     0
 92
       -2
340
14
 93
        0
 40
0.045
309
GRIDFORMAT_END
 95
       16
302
GRIDFORMAT
  1
GRIDFORMAT_BEGIN
 90
        0
 91
        1
 62
     0
 92
       -2
340
14
 93
        0
 40
0.045
309
GRIDFORMAT_END
 95
       32
302
GRIDFORMAT
  1
GRIDFORMAT_BEGIN
 90
        0
 91
        1
 62
     0
 92
       -2
340
14
 93
        0
 40
0.045
309
GRIDFORMAT_END
309
TABLEFORMAT_END
  1
CELLSTYLE_BEGIN
 90
        1
 91
        1
300
_TITLE
309
CELLSTYLE_END
300
CELLSTYLE
  1
TABLEFORMAT_BEGIN
 90
        5
170
     1
 91
        0
 92
        0
 62
   257
 93
        1
300
CONTENTFORMAT
  1
CONTENTFORMAT_BEGIN
 90
        0
 91
        0
 92
        4
 93
        0
300

 40
0.0
140
1.0
 94
        5
 62
     0
340
11
144
4.5
309
CONTENTFORMAT_END
171
     1
301
MARGIN
  1
CELLMARGIN_BEGIN
 40
1.5
 40
1.5
 40
1.5
 40
1.5
 40
0.18
 40
0.18
309
CELLMARGIN_END
 94
        6
 95
        1
302
GRIDFORMAT
  1
GRIDFORMAT_BEGIN
 90
        0
 91
        1
 62
     0
 92
       -2
340
14
 93
        0
 40
0.045
309
GRIDFORMAT_END
 95
        2
302
GRIDFORMAT
  1
GRIDFORMAT_BEGIN
 90
        0
 91
        1
 62
     0
 92
       -2
340
14
 93
        0
 40
0.045
309
GRIDFORMAT_END
 95
        4
302
GRIDFORMAT
  1
GRIDFORMAT_BEGIN
 90
        0
 91
        1
 62
     0
 92
       -2
340
14
 93
        0
 40
0.045
309
GRIDFORMAT_END
 95
        8
302
GRIDFORMAT
  1
GRIDFORMAT_BEGIN
 90
        0
 91
        1
 62
     0
 92
       -2
340
14
 93
        0
 40
0.045
309
GRIDFORMAT_END
 95
       16
302
GRIDFORMAT
  1
GRIDFORMAT_BEGIN
 90
        0
 91
        1
 62
     0
 92
       -2
340
14
 93
        0
 40
0.045
309
GRIDFORMAT_END
 95
       32
302
GRIDFORMAT
  1
GRIDFORMAT_BEGIN
 90
        0
 91
        1
 62
     0
 92
       -2
340
14
 93
        0
 40
0.045
309
GRIDFORMAT_END
309
TABLEFORMAT_END
  1
CELLSTYLE_BEGIN
 90
        2
 91
        1
300
_HEADER
309
CELLSTYLE_END
300
CELLSTYLE
  1
TABLEFORMAT_BEGIN
 90
        5
170
     1
 91
        0
 92
        0
 62
   257
 93
        1
300
CONTENTFORMAT
  1
CONTENTFORMAT_BEGIN
 90
        0
 91
        0
 92
        4
 93
        0
300

 40
0.0
140
1.0
 94
        2
 62
     0
340
11
144
4.5
309
CONTENTFORMAT_END
171
     1
301
MARGIN
  1
CELLMARGIN_BEGIN
 40
1.5
 40
1.5
 40
1.5
 40
1.5
 40
0.18
 40
0.18
309
CELLMARGIN_END
 94
        6
 95
        1
302
GRIDFORMAT
  1
GRIDFORMAT_BEGIN
 90
        0
 91
        1
 62
     0
 92
       -2
340
14
 93
        0
 40
0.045
309
GRIDFORMAT_END
 95
        2
302
GRIDFORMAT
  1
GRIDFORMAT_BEGIN
 90
        0
 91
        1
 62
     0
 92
       -2
340
14
 93
        0
 40
0.045
309
GRIDFORMAT_END
 95
        4
302
GRIDFORMAT
  1
GRIDFORMAT_BEGIN
 90
        0
 91
        1
 62
     0
 92
       -2
340
14
 93
        0
 40
0.045
309
GRIDFORMAT_END
 95
        8
302
GRIDFORMAT
  1
GRIDFORMAT_BEGIN
 90
        0
 91
        1
 62
     0
 92
       -2
340
14
 93
        0
 40
0.045
309
GRIDFORMAT_END
 95
       16
302
GRIDFORMAT
  1
GRIDFORMAT_BEGIN
 90
        0
 91
        1
 62
     0
 92
       -2
340
14
 93
        0
 40
0.045
309
GRIDFORMAT_END
 95
       32
302
GRIDFORMAT
  1
GRIDFORMAT_BEGIN
 90
        0
 91
        1
 62
     0
 92
       -2
340
14
 93
        0
 40
0.045
309
GRIDFORMAT_END
309
TABLEFORMAT_END
  1
CELLSTYLE_BEGIN
 90
        3
 91
        2
300
_DATA
309
CELLSTYLE_END
  0
ENDSEC
  0
EOF
