  0
SECTION
  2
HEADER
  9
$ACADVER
  1
AC1014
  9
$ACADMAINTVER
 70
     9
  9
$DWGCODEPAGE
  3
ANSI_1252
  9
$INSBASE
 10
0.0
 20
0.0
 30
0.0
  9
$EXTMIN
 10
-190.9882115397837
 20
133.9015375353607
 30
-0.0015258207003583
  9
$EXTMAX
 10
-68.66955934271368
 20
186.0889609907565
 30
0.0000000349246037
  9
$LIMMIN
 10
0.0
 20
0.0
  9
$LIMMAX
 10
0.0
 20
0.0
  9
$ORTHOMODE
 70
     0
  9
$REGENMODE
 70
     1
  9
$FILLMODE
 70
     1
  9
$QTEXTMODE
 70
     0
  9
$MIRRTEXT
 70
     1
  9
$DRAGMODE
 70
     2
  9
$LTSCALE
 40
1.0
  9
$OSMODE
 70
   167
  9
$ATTMODE
 70
     1
  9
$TEXTSIZE
 40
0.0
  9
$TRACEWID
 40
0.05
  9
$TEXTSTYLE
  7
STANDARD
  9
$CLAYER
  8
0
  9
$CELTYPE
  6
CONTINUOUS
  9
$CECOLOR
 62
   256
  9
$CELTSCALE
 40
1.0
  9
$DELOBJ
 70
     1
  9
$DISPSILH
 70
     0
  9
$DIMSCALE
 40
1.0
  9
$DIMASZ
 40
0.18
  9
$DIMEXO
 40
0.0625
  9
$DIMDLI
 40
0.38
  9
$DIMRND
 40
0.0
  9
$DIMDLE
 40
0.0
  9
$DIMEXE
 40
0.18
  9
$DIMTP
 40
0.0
  9
$DIMTM
 40
0.0
  9
$DIMTXT
 40
0.18
  9
$DIMCEN
 40
0.09
  9
$DIMTSZ
 40
0.0
  9
$DIMTOL
 70
     0
  9
$DIMLIM
 70
     0
  9
$DIMTIH
 70
     1
  9
$DIMTOH
 70
     1
  9
$DIMSE1
 70
     0
  9
$DIMSE2
 70
     0
  9
$DIMTAD
 70
     0
  9
$DIMZIN
 70
     0
  9
$DIMBLK
  1

  9
$DIMASO
 70
     1
  9
$DIMSHO
 70
     1
  9
$DIMPOST
  1

  9
$DIMAPOST
  1

  9
$DIMALT
 70
     0
  9
$DIMALTD
 70
     2
  9
$DIMALTF
 40
25.4
  9
$DIMLFAC
 40
1.0
  9
$DIMTOFL
 70
     0
  9
$DIMTVP
 40
0.0
  9
$DIMTIX
 70
     0
  9
$DIMSOXD
 70
     0
  9
$DIMSAH
 70
     0
  9
$DIMBLK1
  1

  9
$DIMBLK2
  1

  9
$DIMSTYLE
  2
STANDARD
  9
$DIMCLRD
 70
     0
  9
$DIMCLRE
 70
     0
  9
$DIMCLRT
 70
     0
  9
$DIMTFAC
 40
1.0
  9
$DIMGAP
 40
0.09
  9
$DIMJUST
 70
     0
  9
$DIMSD1
 70
     0
  9
$DIMSD2
 70
     0
  9
$DIMTOLJ
 70
     1
  9
$DIMTZIN
 70
     0
  9
$DIMALTZ
 70
     0
  9
$DIMALTTZ
 70
     0
  9
$DIMFIT
 70
     3
  9
$DIMUPT
 70
     0
  9
$DIMUNIT
 70
     2
  9
$DIMDEC
 70
     4
  9
$DIMTDEC
 70
     4
  9
$DIMALTU
 70
     2
  9
$DIMALTTD
 70
     2
  9
$DIMTXSTY
  7
STANDARD
  9
$DIMAUNIT
 70
     0
  9
$LUNITS
 70
     2
  9
$LUPREC
 70
     4
  9
$SKETCHINC
 40
0.1
  9
$FILLETRAD
 40
0.0
  9
$AUNITS
 70
     0
  9
$AUPREC
 70
     0
  9
$MENU
  1
acad
  9
$ELEVATION
 40
0.0
  9
$PELEVATION
 40
0.0
  9
$THICKNESS
 40
0.0
  9
$LIMCHECK
 70
     0
  9
$BLIPMODE
 70
     0
  9
$CHAMFERA
 40
0.0
  9
$CHAMFERB
 40
0.0
  9
$CHAMFERC
 40
0.0
  9
$CHAMFERD
 40
0.0
  9
$SKPOLY
 70
     0
  9
$TDCREATE
 40
2311945.483411331
  9
$TDUPDATE
 40
2452618.687232025
  9
$TDINDWG
 40
0.0001801273
  9
$TDUSRTIMER
 40
0.0001800116
  9
$USRTIMER
 70
     1
  9
$ANGBASE
 50
0.0
  9
$ANGDIR
 70
     0
  9
$PDMODE
 70
     0
  9
$PDSIZE
 40
0.0
  9
$PLINEWID
 40
0.0
  9
$COORDS
 70
     1
  9
$SPLFRAME
 70
     0
  9
$SPLINETYPE
 70
     6
  9
$SPLINESEGS
 70
     8
  9
$ATTDIA
 70
     0
  9
$ATTREQ
 70
     1
  9
$HANDLING
 70
 10241
  9
$HANDSEED
  5
12E
  9
$SURFTAB1
 70
     6
  9
$SURFTAB2
 70
     6
  9
$SURFTYPE
 70
     6
  9
$SURFU
 70
     6
  9
$SURFV
 70
     6
  9
$UCSNAME
  2

  9
$UCSORG
 10
0.0
 20
0.0
 30
0.0
  9
$UCSXDIR
 10
1.0
 20
0.0
 30
0.0
  9
$UCSYDIR
 10
0.0
 20
1.0
 30
0.0
  9
$PUCSNAME
  2

  9
$PUCSORG
 10
0.0
 20
0.0
 30
0.0
  9
$PUCSXDIR
 10
1.0
 20
0.0
 30
0.0
  9
$PUCSYDIR
 10
0.0
 20
1.0
 30
0.0
  9
$USERI1
 70
     0
  9
$USERI2
 70
     0
  9
$USERI3
 70
     0
  9
$USERI4
 70
     0
  9
$USERI5
 70
     0
  9
$USERR1
 40
0.0
  9
$USERR2
 40
0.0
  9
$USERR3
 40
0.0
  9
$USERR4
 40
0.0
  9
$USERR5
 40
0.0
  9
$WORLDVIEW
 70
     1
  9
$SHADEDGE
 70
     3
  9
$SHADEDIF
 70
    70
  9
$TILEMODE
 70
     1
  9
$MAXACTVP
 70
    16
  9
$PINSBASE
 10
0.0
 20
0.0
 30
0.0
  9
$PLIMCHECK
 70
     0
  9
$PEXTMIN
 10
1.000000000000000E+20
 20
1.000000000000000E+20
 30
1.000000000000000E+20
  9
$PEXTMAX
 10
-1.000000000000000E+20
 20
-1.000000000000000E+20
 30
-1.000000000000000E+20
  9
$PLIMMIN
 10
0.0
 20
0.0
  9
$PLIMMAX
 10
12.0
 20
9.0
  9
$UNITMODE
 70
     0
  9
$VISRETAIN
 70
     0
  9
$PLINEGEN
 70
     1
  9
$PSLTSCALE
 70
     0
  9
$TREEDEPTH
 70
  3020
  9
$PICKSTYLE
 70
     1
  9
$CMLSTYLE
  2
STANDARD
  9
$CMLJUST
 70
     0
  9
$CMLSCALE
 40
1.0
  9
$PROXYGRAPHICS
 70
     1
  9
$MEASUREMENT
 70
     0
  0
ENDSEC
  0
SECTION
  2
CLASSES
  0
CLASS
  1
LWPOLYLINE
  2
AcDbPolyline
  3
AutoCAD 2000
 90
        0
280
     0
281
     1
  0
CLASS
  1
IMAGE
  2
AcDbRasterImage
  3
ISM
 90
      127
280
     0
281
     1
  0
CLASS
  1
OLE2FRAME
  2
AcDbOle2Frame
  3
AutoCAD 2000
 90
        0
280
     0
281
     1
  0
CLASS
  1
HATCH
  2
AcDbHatch
  3
AutoCAD 2000
 90
        0
280
     0
281
     1
  0
CLASS
  1
DICTIONARYVAR
  2
AcDbDictionaryVar
  3
AutoCAD 2000
 90
        0
280
     0
281
     0
  0
CLASS
  1
RASTERVARIABLES
  2
AcDbRasterVariables
  3
ISM
 90
        0
280
     0
281
     0
  0
CLASS
  1
IMAGEDEF
  2
AcDbRasterImageDef
  3
ISM
 90
        0
280
     0
281
     0
  0
CLASS
  1
IMAGEDEF_REACTOR
  2
AcDbRasterImageDefReactor
  3
ISM
 90
        1
280
     0
281
     0
  0
CLASS
  1
IDBUFFER
  2
AcDbIdBuffer
  3
AutoCAD 2000
 90
        0
280
     0
281
     0
  0
CLASS
  1
SPATIAL_FILTER
  2
AcDbSpatialFilter
  3
AutoCAD 2000
 90
        0
280
     0
281
     0
  0
CLASS
  1
XRECORD
  2
AcDbXrecord
  3
AutoCAD 2000
 90
        0
280
     0
281
     0
  0
CLASS
  1
SORTENTSTABLE
  2
AcDbSortentsTable
  3
AutoCAD 2000
 90
        0
280
     0
281
     0
  0
CLASS
  1
LAYER_INDEX
  2
AcDbLayerIndex
  3
AutoCAD 2000
 90
        0
280
     0
281
     0
  0
CLASS
  1
SPATIAL_INDEX
  2
AcDbSpatialIndex
  3
AutoCAD 2000
 90
        0
280
     0
281
     0
  0
CLASS
  1
OBJECT_PTR
  2
CAseDLPNTableRecord
  3
"ASE-LPNTableRecord"
 90
        0
280
     0
281
     0
  0
CLASS
  1
LAYOUT
  2
AcDbLayout
  3
AutoCAD 2000
 90
        0
280
     0
281
     0
  0
CLASS
  1
PLOTSETTINGS
  2
AcDbPlotSettings
  3
AutoCAD 2000
 90
        0
280
     0
281
     0
  0
CLASS
  1
ACDBDICTIONARYWDFLT
  2
AcDbDictionaryWithDefault
  3
AutoCAD 2000
 90
        0
280
     0
281
     0
  0
CLASS
  1
ACDBPLACEHOLDER
  2
AcDbPlaceHolder
  3
AutoCAD 2000
 90
        0
280
     0
281
     0
  0
CLASS
  1
VBA_PROJECT
  2
AcDbVbaProject
  3
"acadvba"
 90
        0
280
     0
281
     0
  0
CLASS
  1
WIPEOUT
  2
AcDbWipeout
  3
WipeOut|AutoCAD Express Tool|expresstools@autodesk.com
 90
        0
280
     0
281
     1
  0
CLASS
  1
WIPEOUTVARIABLES
  2
AcDbWipeoutVariables
  3
WipeOut|AutoCAD Express Tool|expresstools@autodesk.com
 90
        0
280
     0
281
     0
  0
CLASS
  1
RTEXT
  2
RText
  3
RText|AutoCAD Express Tool|expresstools@autodesk.com
 90
        0
280
     0
281
     1
  0
CLASS
  1
ARCALIGNEDTEXT
  2
AcDbArcAlignedText
  3
ATEXT|AutoCAD Express Tool|expresstools@autodesk.com
 90
        0
280
     0
281
     1
  0
CLASS
  1
LONG_TRANSACTION
  2
AcDbLongTransaction
  3
AutoCAD 2000
 90
        0
280
     0
281
     0
  0
CLASS
  1
LWPOLYLINE
  2
AcDbPolyline
  3
AutoCAD 2000
 90
        0
280
     0
281
     1
  0
CLASS
  1
HATCH
  2
AcDbHatch
  3
AutoCAD 2000
 90
        0
280
     0
281
     1
  0
CLASS
  1
XRECORD
  2
AcDbXrecord
  3
AutoCAD 2000
 90
        0
280
     0
281
     0
  0
ENDSEC
  0
SECTION
  2
TABLES
  0
TABLE
  2
VPORT
  5
7
330
0
100
AcDbSymbolTable
 70
     2
  0
VPORT
  5
109
330
7
100
AcDbSymbolTableRecord
100
AcDbViewportTableRecord
  2
*ACTIVE
 70
     0
 10
0.0
 20
0.0
 11
1.0
 21
1.0
 12
-95.49410552411615
 22
121.1620657638738
 13
0.0
 23
0.0
 14
1.0
 24
1.0
 15
0.0
 25
0.0
 16
0.0
 26
0.0
 36
1.0
 17
0.0
 27
0.0
 37
0.0
 40
187.4505877075423
 41
1.471306471306471
 42
50.0
 43
0.0
 44
0.0
 50
0.0
 51
0.0
 71
     0
 72
   100
 73
     1
 74
     1
 75
     0
 76
     0
 77
     0
 78
     0
  0
ENDTAB
  0
TABLE
  2
LTYPE
  5
4
330
0
100
AcDbSymbolTable
 70
     2
  0
LTYPE
  5
11
330
4
100
AcDbSymbolTableRecord
100
AcDbLinetypeTableRecord
  2
BYBLOCK
 70
     0
  3

 72
    65
 73
     0
 40
0.0
  0
LTYPE
  5
12
330
4
100
AcDbSymbolTableRecord
100
AcDbLinetypeTableRecord
  2
BYLAYER
 70
     0
  3

 72
    65
 73
     0
 40
0.0
  0
LTYPE
  5
13
330
4
100
AcDbSymbolTableRecord
100
AcDbLinetypeTableRecord
  2
CONTINUOUS
 70
     0
  3
Solid line
 72
    65
 73
     0
 40
0.0
  0
LTYPE
  5
1E
330
4
100
AcDbSymbolTableRecord
100
AcDbLinetypeTableRecord
  2
IMPORT
 70
     0
  3

 72
    65
 73
     0
 40
0.0
  0
ENDTAB
  0
TABLE
  2
LAYER
  5
2
330
0
100
AcDbSymbolTable
 70
     2
  0
LAYER
  5
14
330
2
100
AcDbSymbolTableRecord
100
AcDbLayerTableRecord
  2
0
 70
     0
 62
     7
  6
CONTINUOUS
  0
LAYER
  5
1D
330
2
100
AcDbSymbolTableRecord
100
AcDbLayerTableRecord
  2
STANDARD
 70
     0
 62
     7
  6
CONTINUOUS
  0
ENDTAB
  0
TABLE
  2
STYLE
  5
3
330
0
100
AcDbSymbolTable
 70
     1
  0
STYLE
  5
17
330
3
100
AcDbSymbolTableRecord
100
AcDbTextStyleTableRecord
  2
STANDARD
 70
     0
 40
0.0
 41
1.0
 50
0.0
 71
     0
 42
0.0
  3
txt
  4

  0
ENDTAB
  0
TABLE
  2
VIEW
  5
5
330
0
100
AcDbSymbolTable
 70
     0
  0
ENDTAB
  0
TABLE
  2
UCS
  5
6
330
0
100
AcDbSymbolTable
 70
     0
  0
ENDTAB
  0
TABLE
  2
APPID
  5
8
330
0
100
AcDbSymbolTable
 70
     1
  0
APPID
  5
16
330
8
100
AcDbSymbolTableRecord
100
AcDbRegAppTableRecord
  2
ACAD
 70
     0
  0
ENDTAB
  0
TABLE
  2
DIMSTYLE
  5
9
330
0
100
AcDbSymbolTable
 70
     1
  0
DIMSTYLE
105
18
330
9
100
AcDbSymbolTableRecord
100
AcDbDimStyleTableRecord
  2
STANDARD
 70
     0
  3

  4

  5

  6

  7

 40
1.0
 41
0.18
 42
0.0625
 43
0.38
 44
0.18
 45
0.0
 46
0.0
 47
0.0
 48
0.0
140
0.18
141
0.09
142
0.0
143
25.4
144
1.0
145
0.0
146
1.0
147
0.09
 71
     0
 72
     0
 73
     1
 74
     1
 75
     0
 76
     0
 77
     0
 78
     0
170
     0
171
     2
172
     0
173
     0
174
     0
175
     0
176
     0
177
     0
178
     0
270
     2
271
     4
272
     4
273
     2
274
     2
340
17
275
     0
280
     0
281
     0
282
     0
283
     1
284
     0
285
     0
286
     0
287
     3
288
     0
  0
ENDTAB
  0
TABLE
  2
BLOCK_RECORD
  5
1
330
0
100
AcDbSymbolTable
 70
     0
  0
BLOCK_RECORD
  5
A
102
{ACAD_XDICTIONARY
360
12A
102
}
330
1
100
AcDbSymbolTableRecord
100
AcDbBlockTableRecord
  2
*MODEL_SPACE
  0
BLOCK_RECORD
  5
B
102
{ACAD_XDICTIONARY
360
12C
102
}
330
1
100
AcDbSymbolTableRecord
100
AcDbBlockTableRecord
  2
*PAPER_SPACE
  0
ENDTAB
  0
ENDSEC
  0
SECTION
  2
BLOCKS
  0
BLOCK
  5
D
330
A
100
AcDbEntity
  8
0
100
AcDbBlockBegin
  2
*MODEL_SPACE
 70
     0
 10
0.0
 20
0.0
 30
0.0
  3
*MODEL_SPACE
  1

  0
ENDBLK
  5
E
330
A
100
AcDbEntity
  8
0
100
AcDbBlockEnd
  0
BLOCK
  5
F
330
B
100
AcDbEntity
 67
     1
  8
0
100
AcDbBlockBegin
  2
*PAPER_SPACE
 70
     0
 10
0.0
 20
0.0
 30
0.0
  3
*PAPER_SPACE
  1

  0
ENDBLK
  5
10
330
B
100
AcDbEntity
 67
     1
  8
0
100
AcDbBlockEnd
  0
ENDSEC
  0
SECTION
  2
ENTITIES
  0
LINE
  5
1F
330
A
100
AcDbEntity
  8
STANDARD
  6
IMPORT
 62
     7
100
AcDbLine
 10
-190.9849949999999
 20
185.5292159999999
 30
0.0
 11
-189.5349939999999
 21
185.5292159999999
 31
0.0
  0
LINE
  5
20
330
A
100
AcDbEntity
  8
STANDARD
  6
IMPORT
 62
     7
100
AcDbLine
 10
-189.2849939999999
 20
184.779216
 30
0.0
 11
-177.1349969999999
 21
184.779216
 31
0.0
  0
LINE
  5
21
330
A
100
AcDbEntity
  8
STANDARD
  6
IMPORT
 62
     7
100
AcDbLine
 10
-189.2849939999999
 20
182.2792159999999
 30
0.0
 11
-177.1349969999999
 21
182.2792159999999
 31
0.0
  0
LINE
  5
22
330
A
100
AcDbEntity
  8
STANDARD
  6
IMPORT
 62
     7
100
AcDbLine
 10
-190.9849949999999
 20
163.5292159999999
 30
0.0
 11
-189.5349939999999
 21
163.5292159999999
 31
0.0
  0
LINE
  5
23
330
A
100
AcDbEntity
  8
STANDARD
  6
IMPORT
 62
     7
100
AcDbLine
 10
-189.2849939999999
 20
164.29636
 30
0.0
 11
-186.956972
 21
164.29636
 31
0.0
  0
LINE
  5
24
330
A
100
AcDbEntity
  8
STANDARD
  6
IMPORT
 62
     7
100
AcDbLine
 10
-189.2849939999999
 20
166.7620729999999
 30
0.0
 11
-187.0130179999999
 21
166.7620729999999
 31
0.0
  0
LINE
  5
25
330
A
100
AcDbEntity
  8
STANDARD
  6
IMPORT
 62
     7
100
AcDbLine
 10
-185.96752
 20
164.360508
 30
0.0
 11
-185.869375
 21
164.36906
 31
0.0
  0
LINE
  5
26
330
A
100
AcDbEntity
  8
STANDARD
  6
IMPORT
 62
     7
100
AcDbLine
 10
-189.2849939999999
 20
163.781375
 30
0.0
 11
-189.2849939999999
 21
185.277061
 31
0.0
  0
LINE
  5
27
330
A
100
AcDbEntity
  8
STANDARD
  6
IMPORT
 62
     7
100
AcDbLine
 10
-190.9849949999999
 20
163.5292159999999
 30
0.0
 11
-190.9849949999999
 21
185.5292159999999
 31
0.0
  0
LINE
  5
28
330
A
100
AcDbEntity
  8
STANDARD
  6
IMPORT
 62
     7
100
AcDbLine
 10
-182.253985
 20
167.024051
 30
0.0
 11
-182.253985
 21
167.7360379999999
 31
0.0
  0
LINE
  5
29
330
A
100
AcDbEntity
  8
STANDARD
  6
IMPORT
 62
     7
100
AcDbLine
 10
-184.716006
 20
167.4813499999999
 30
0.0
 11
-184.716006
 21
167.7360379999999
 31
0.0
  0
LINE
  5
2A
330
A
100
AcDbEntity
  8
STANDARD
  6
IMPORT
 62
     7
100
AcDbLine
 10
-181.753985
 20
167.2814629999999
 30
0.0
 11
-181.753985
 21
173.3781929999999
 31
0.0
  0
LINE
  5
2B
330
A
100
AcDbEntity
  8
STANDARD
  6
IMPORT
 62
     7
100
AcDbLine
 10
-185.2160059999999
 20
167.2814629999999
 30
0.0
 11
-185.2160059999999
 21
173.3781929999999
 31
0.0
  0
LINE
  5
2C
330
A
100
AcDbEntity
  8
STANDARD
  6
IMPORT
 62
     7
100
AcDbLine
 10
-182.681509
 20
168.380535
 30
0.0
 11
-182.4024639999999
 21
168.091091
 31
0.0
  0
LINE
  5
2D
330
A
100
AcDbEntity
  8
STANDARD
  6
IMPORT
 62
     7
100
AcDbLine
 10
-182.3907419999999
 20
174.451469
 30
0.0
 11
-182.0107139999999
 21
174.057285
 31
0.0
  0
LINE
  5
2E
330
A
100
AcDbEntity
  8
STANDARD
  6
IMPORT
 62
     7
100
AcDbLine
 10
-182.355158
 20
168.7190399999999
 30
0.0
 11
-181.9627709999999
 21
168.312034
 31
0.0
  0
LINE
  5
2F
330
A
100
AcDbEntity
  8
STANDARD
  6
IMPORT
 62
     7
100
AcDbLine
 10
-183.252062
 20
165.3580129999999
 30
0.0
 11
-183.008318
 21
165.578155
 31
0.0
  0
LINE
  5
30
330
A
100
AcDbEntity
  8
STANDARD
  6
IMPORT
 62
     7
100
AcDbLine
 10
-184.579249
 20
174.451469
 30
0.0
 11
-184.474917
 21
174.533275
 31
0.0
  0
LINE
  5
31
330
A
100
AcDbEntity
  8
STANDARD
  6
IMPORT
 62
     7
100
AcDbLine
 10
-189.439326
 20
163.548412
 30
0.0
 11
-189.3582169999999
 21
163.6030729999999
 31
0.0
  0
LINE
  5
32
330
A
100
AcDbEntity
  8
STANDARD
  6
IMPORT
 62
     7
100
AcDbLine
 10
-189.3582169999999
 20
185.4553639999999
 30
0.0
 11
-189.304026
 21
185.373558
 31
0.0
  0
LINE
  5
33
330
A
100
AcDbEntity
  8
STANDARD
  6
IMPORT
 62
     7
100
AcDbLine
 10
-183.937071
 20
164.9184149999999
 30
0.0
 11
-183.252062
 21
165.3580129999999
 31
0.0
  0
LINE
  5
34
330
A
100
AcDbEntity
  8
STANDARD
  6
IMPORT
 62
     7
100
AcDbLine
 10
-185.0831739999999
 20
167.149612
 30
0.0
 11
-184.655749
 21
167.423908
 31
0.0
  0
LINE
  5
35
330
A
100
AcDbEntity
  8
STANDARD
  6
IMPORT
 62
     7
100
AcDbLine
 10
-184.288481
 20
168.380535
 30
0.0
 11
-183.9125199999999
 21
168.569454
 31
0.0
  0
LINE
  5
36
330
A
100
AcDbEntity
  8
STANDARD
  6
IMPORT
 62
     7
100
AcDbLine
 10
-182.4649759999999
 20
166.3200149999999
 30
0.0
 11
-182.355158
 21
166.375194
 31
0.0
  0
LINE
  5
37
330
A
100
AcDbEntity
  8
STANDARD
  6
IMPORT
 62
     7
100
AcDbLine
 10
-184.474917
 20
174.533275
 30
0.0
 11
-184.011721
 21
174.766033
 31
0.0
  0
LINE
  5
38
330
A
100
AcDbEntity
  8
STANDARD
  6
IMPORT
 62
     7
100
AcDbLine
 10
-184.614832
 20
168.7190399999999
 30
0.0
 11
-184.0861679999999
 21
168.9846949999999
 31
0.0
  0
LINE
  5
39
330
A
100
AcDbEntity
  8
STANDARD
  6
IMPORT
 62
     7
100
AcDbLine
 10
-182.4024639999999
 20
168.091091
 30
0.0
 11
-182.253985
 21
167.7360379999999
 31
0.0
  0
LINE
  5
3A
330
A
100
AcDbEntity
  8
STANDARD
  6
IMPORT
 62
     7
100
AcDbLine
 10
-185.2160059999999
 20
167.2814629999999
 30
0.0
 11
-185.1502629999999
 21
167.1242629999999
 31
0.0
  0
LINE
  5
3B
330
A
100
AcDbEntity
  8
STANDARD
  6
IMPORT
 62
     7
100
AcDbLine
 10
-182.0107139999999
 20
174.057285
 30
0.0
 11
-181.8085039999999
 21
173.573745
 31
0.0
  0
LINE
  5
3C
330
A
100
AcDbEntity
  8
STANDARD
  6
IMPORT
 62
     7
100
AcDbLine
 10
-181.9627709999999
 20
168.312034
 30
0.0
 11
-181.753985
 21
167.81277
 31
0.0
  0
LINE
  5
3D
330
A
100
AcDbEntity
  8
STANDARD
  6
IMPORT
 62
     7
100
AcDbLine
 10
-184.829787
 20
164.581104
 30
0.0
 11
-183.937071
 21
164.9184149999999
 31
0.0
  0
LINE
  5
3E
330
A
100
AcDbEntity
  8
STANDARD
  6
IMPORT
 62
     7
100
AcDbLine
 10
-185.640204
 20
166.9391399999999
 30
0.0
 11
-185.0831739999999
 21
167.149612
 31
0.0
  0
LINE
  5
3F
330
A
100
AcDbEntity
  8
STANDARD
  6
IMPORT
 62
     7
100
AcDbLine
 10
-181.8085039999999
 20
173.573745
 30
0.0
 11
-181.753985
 21
173.3781929999999
 31
0.0
  0
LINE
  5
40
330
A
100
AcDbEntity
  8
STANDARD
  6
IMPORT
 62
     7
100
AcDbLine
 10
-189.304026
 20
185.373558
 30
0.0
 11
-189.2849939999999
 21
185.277061
 31
0.0
  0
LINE
  5
41
330
A
100
AcDbEntity
  8
STANDARD
  6
IMPORT
 62
     7
100
AcDbLine
 10
-189.5349939999999
 20
163.5292159999999
 30
0.0
 11
-189.439326
 21
163.548412
 31
0.0
  0
LINE
  5
42
330
A
100
AcDbEntity
  8
STANDARD
  6
IMPORT
 62
     7
100
AcDbLine
 10
-185.869375
 20
164.36906
 30
0.0
 11
-184.829787
 21
164.581104
 31
0.0
  0
LINE
  5
43
330
A
100
AcDbEntity
  8
STANDARD
  6
IMPORT
 62
     7
100
AcDbLine
 10
-186.273134
 20
166.810039
 30
0.0
 11
-185.640204
 21
166.9391399999999
 31
0.0
  0
LINE
  5
44
330
A
100
AcDbEntity
  8
STANDARD
  6
IMPORT
 62
     7
100
AcDbLine
 10
-183.9125199999999
 20
168.569454
 30
0.0
 11
-183.4849949999999
 21
168.6350629999999
 31
0.0
  0
LINE
  5
45
330
A
100
AcDbEntity
  8
STANDARD
  6
IMPORT
 62
     7
100
AcDbLine
 10
-184.011721
 20
174.766033
 30
0.0
 11
-183.4849949999999
 21
174.846866
 31
0.0
  0
LINE
  5
46
330
A
100
AcDbEntity
  8
STANDARD
  6
IMPORT
 62
     7
100
AcDbLine
 10
-184.0861679999999
 20
168.9846949999999
 30
0.0
 11
-183.4849949999999
 21
169.076953
 31
0.0
  0
LINE
  5
47
330
A
100
AcDbEntity
  8
STANDARD
  6
IMPORT
 62
     7
100
AcDbLine
 10
-186.956972
 20
164.29636
 30
0.0
 11
-185.96752
 21
164.360508
 31
0.0
  0
LINE
  5
48
330
A
100
AcDbEntity
  8
STANDARD
  6
IMPORT
 62
     7
100
AcDbLine
 10
-187.0130179999999
 20
166.7620729999999
 30
0.0
 11
-186.190733
 21
166.8153839999999
 31
0.0
  0
LINE
  5
49
330
A
100
AcDbEntity
  8
STANDARD
  6
IMPORT
 62
     7
100
AcDbLine
 10
-183.4849949999999
 20
168.6350629999999
 30
0.0
 11
-183.057471
 21
168.569454
 31
0.0
  0
LINE
  5
4A
330
A
100
AcDbEntity
  8
STANDARD
  6
IMPORT
 62
     7
100
AcDbLine
 10
-183.4849949999999
 20
174.846866
 30
0.0
 11
-182.958269
 21
174.766033
 31
0.0
  0
LINE
  5
4B
330
A
100
AcDbEntity
  8
STANDARD
  6
IMPORT
 62
     7
100
AcDbLine
 10
-183.4849949999999
 20
169.076953
 30
0.0
 11
-182.883822
 21
168.9846949999999
 31
0.0
  0
LINE
  5
4C
330
A
100
AcDbEntity
  8
STANDARD
  6
IMPORT
 62
     7
100
AcDbLine
 10
-189.304026
 20
163.6848789999999
 30
0.0
 11
-189.2849939999999
 21
163.781375
 31
0.0
  0
LINE
  5
4D
330
A
100
AcDbEntity
  8
STANDARD
  6
IMPORT
 62
     7
100
AcDbLine
 10
-189.5349939999999
 20
185.5292159999999
 30
0.0
 11
-189.439326
 21
185.510025
 31
0.0
  0
LINE
  5
4E
330
A
100
AcDbEntity
  8
STANDARD
  6
IMPORT
 62
     7
100
AcDbLine
 10
-182.404928
 20
166.4594679999999
 30
0.0
 11
-182.253985
 21
167.024051
 31
0.0
  0
LINE
  5
4F
330
A
100
AcDbEntity
  8
STANDARD
  6
IMPORT
 62
     7
100
AcDbLine
 10
-184.7393059999999
 20
167.394203
 30
0.0
 11
-184.716006
 21
167.4813499999999
 31
0.0
  0
LINE
  5
50
330
A
100
AcDbEntity
  8
STANDARD
  6
IMPORT
 62
     7
100
AcDbLine
 10
-185.2160059999999
 20
173.3781929999999
 30
0.0
 11
-185.1614859999999
 21
173.573745
 31
0.0
  0
LINE
  5
51
330
A
100
AcDbEntity
  8
STANDARD
  6
IMPORT
 62
     7
100
AcDbLine
 10
-184.716006
 20
167.7360379999999
 30
0.0
 11
-184.567526
 21
168.091091
 31
0.0
  0
LINE
  5
52
330
A
100
AcDbEntity
  8
STANDARD
  6
IMPORT
 62
     7
100
AcDbLine
 10
-181.9627709999999
 20
166.782199
 30
0.0
 11
-181.753985
 21
167.2814629999999
 31
0.0
  0
LINE
  5
53
330
A
100
AcDbEntity
  8
STANDARD
  6
IMPORT
 62
     7
100
AcDbLine
 10
-185.1614859999999
 20
173.573745
 30
0.0
 11
-184.9592759999999
 21
174.057285
 31
0.0
  0
LINE
  5
54
330
A
100
AcDbEntity
  8
STANDARD
  6
IMPORT
 62
     7
100
AcDbLine
 10
-185.2160059999999
 20
167.81277
 30
0.0
 11
-185.0072199999999
 21
168.312034
 31
0.0
  0
LINE
  5
55
330
A
100
AcDbEntity
  8
STANDARD
  6
IMPORT
 62
     7
100
AcDbLine
 10
-182.549586
 20
166.1235
 30
0.0
 11
-182.404928
 21
166.4594679999999
 31
0.0
  0
LINE
  5
56
330
A
100
AcDbEntity
  8
STANDARD
  6
IMPORT
 62
     7
100
AcDbLine
 10
-183.057471
 20
168.569454
 30
0.0
 11
-182.681509
 21
168.380535
 31
0.0
  0
LINE
  5
57
330
A
100
AcDbEntity
  8
STANDARD
  6
IMPORT
 62
     7
100
AcDbLine
 10
-182.958269
 20
174.766033
 30
0.0
 11
-182.495074
 21
174.533275
 31
0.0
  0
LINE
  5
58
330
A
100
AcDbEntity
  8
STANDARD
  6
IMPORT
 62
     7
100
AcDbLine
 10
-182.883822
 20
168.9846949999999
 30
0.0
 11
-182.355158
 21
168.7190399999999
 31
0.0
  0
LINE
  5
59
330
A
100
AcDbEntity
  8
STANDARD
  6
IMPORT
 62
     7
100
AcDbLine
 10
-189.3582169999999
 20
163.6030729999999
 30
0.0
 11
-189.304026
 21
163.6848789999999
 31
0.0
  0
LINE
  5
5A
330
A
100
AcDbEntity
  8
STANDARD
  6
IMPORT
 62
     7
100
AcDbLine
 10
-189.439326
 20
185.510025
 30
0.0
 11
-189.3582169999999
 21
185.4553639999999
 31
0.0
  0
LINE
  5
5B
330
A
100
AcDbEntity
  8
STANDARD
  6
IMPORT
 62
     7
100
AcDbLine
 10
-182.495074
 20
174.533275
 30
0.0
 11
-182.3907419999999
 21
174.451469
 31
0.0
  0
LINE
  5
5C
330
A
100
AcDbEntity
  8
STANDARD
  6
IMPORT
 62
     7
100
AcDbLine
 10
-183.008318
 20
165.578155
 30
0.0
 11
-182.549586
 21
166.1235
 31
0.0
  0
LINE
  5
5D
330
A
100
AcDbEntity
  8
STANDARD
  6
IMPORT
 62
     7
100
AcDbLine
 10
-184.783018
 20
167.342231
 30
0.0
 11
-184.658922
 21
167.489761
 31
0.0
  0
LINE
  5
5E
330
A
100
AcDbEntity
  8
STANDARD
  6
IMPORT
 62
     7
100
AcDbLine
 10
-184.567526
 20
168.091091
 30
0.0
 11
-184.288481
 21
168.380535
 31
0.0
  0
LINE
  5
5F
330
A
100
AcDbEntity
  8
STANDARD
  6
IMPORT
 62
     7
100
AcDbLine
 10
-182.355158
 20
166.375194
 30
0.0
 11
-181.9627709999999
 21
166.782199
 31
0.0
  0
LINE
  5
60
330
A
100
AcDbEntity
  8
STANDARD
  6
IMPORT
 62
     7
100
AcDbLine
 10
-184.9592759999999
 20
174.057285
 30
0.0
 11
-184.579249
 21
174.451469
 31
0.0
  0
LINE
  5
61
330
A
100
AcDbEntity
  8
STANDARD
  6
IMPORT
 62
     7
100
AcDbLine
 10
-185.0072199999999
 20
168.312034
 30
0.0
 11
-184.614832
 21
168.7190399999999
 31
0.0
  0
ARC
  5
62
330
A
100
AcDbEntity
  8
STANDARD
  6
IMPORT
 62
     7
100
AcDbCircle
 10
-177.134994
 20
183.5292159999999
 30
0.0
 40
1.25
100
AcDbArc
 50
269.999879
 51
90.00012099999999
  0
LINE
  5
63
330
A
100
AcDbEntity
  8
STANDARD
  6
IMPORT
 62
     7
100
AcDbLine
 10
-163.5955429999999
 20
184.779216
 30
0.0
 11
-96.595545
 21
184.779216
 31
0.0
  0
LINE
  5
64
330
A
100
AcDbEntity
  8
STANDARD
  6
IMPORT
 62
     7
100
AcDbLine
 10
-163.5955429999999
 20
182.2792159999999
 30
0.0
 11
-96.595545
 21
182.2792159999999
 31
0.0
  0
LINE
  5
65
330
A
100
AcDbEntity
  8
STANDARD
  6
IMPORT
 62
     7
100
AcDbLine
 10
-98.59554500000001
 20
168.096958
 30
0.0
 11
-98.59554500000001
 21
182.2792159999999
 31
0.0
  0
LINE
  5
66
330
A
100
AcDbEntity
  8
STANDARD
  6
IMPORT
 62
     7
100
AcDbLine
 10
-94.59554500000001
 20
165.5292159999999
 30
0.0
 11
-94.59554500000001
 21
183.5292159999999
 31
0.0
  0
LINE
  5
67
330
A
100
AcDbEntity
  8
STANDARD
  6
IMPORT
 62
     7
100
AcDbLine
 10
-165.5955429999999
 20
165.5292159999999
 30
0.0
 11
-165.5955429999999
 21
183.5292159999999
 31
0.0
  0
LINE
  5
68
330
A
100
AcDbEntity
  8
STANDARD
  6
IMPORT
 62
     7
100
AcDbLine
 10
-161.5955429999999
 20
168.096958
 30
0.0
 11
-161.5955429999999
 21
182.2792159999999
 31
0.0
  0
LINE
  5
69
330
A
100
AcDbEntity
  8
STANDARD
  6
IMPORT
 62
     7
100
AcDbLine
 10
-162.18133
 20
184.943431
 30
0.0
 11
-162.055325
 21
184.779216
 31
0.0
  0
LINE
  5
6A
330
A
100
AcDbEntity
  8
STANDARD
  6
IMPORT
 62
     7
100
AcDbLine
 10
-160.8944549999999
 20
169.076953
 30
0.0
 11
-159.1633779999999
 21
166.017284
 31
0.0
  0
LINE
  5
6B
330
A
100
AcDbEntity
  8
STANDARD
  6
IMPORT
 62
     7
100
AcDbLine
 10
-148.8610539999999
 20
174.00922
 30
0.0
 11
-148.7379399999999
 21
173.791618
 31
0.0
  0
LINE
  5
6C
330
A
100
AcDbEntity
  8
STANDARD
  6
IMPORT
 62
     7
100
AcDbLine
 10
-164.2110729999999
 20
166.6171639999999
 30
0.0
 11
-160.6444459999999
 21
168.6350629999999
 31
0.0
  0
LINE
  5
6D
330
A
100
AcDbEntity
  8
STANDARD
  6
IMPORT
 62
     7
100
AcDbLine
 10
-162.9800149999999
 20
164.441272
 30
0.0
 11
-159.413387
 21
166.4591749999999
 31
0.0
  0
LINE
  5
6E
330
A
100
AcDbEntity
  8
STANDARD
  6
IMPORT
 62
     7
100
AcDbLine
 10
-160.8944549999999
 20
169.076953
 30
0.0
 11
-151.0576059999999
 21
174.642376
 31
0.0
  0
LINE
  5
6F
330
A
100
AcDbEntity
  8
STANDARD
  6
IMPORT
 62
     7
100
AcDbLine
 10
-159.1633779999999
 20
166.017284
 30
0.0
 11
-149.326527
 21
171.582706
 31
0.0
  0
LINE
  5
70
330
A
100
AcDbEntity
  8
STANDARD
  6
IMPORT
 62
     7
100
AcDbLine
 10
-98.55221
 20
165.2000499999999
 30
0.0
 11
-98.527395
 21
165.011581
 31
0.0
  0
LINE
  5
71
330
A
100
AcDbEntity
  8
STANDARD
  6
IMPORT
 62
     7
100
AcDbLine
 10
-161.663693
 20
165.011581
 30
0.0
 11
-161.63888
 21
165.2000499999999
 31
0.0
  0
LINE
  5
72
330
A
100
AcDbEntity
  8
STANDARD
  6
IMPORT
 62
     7
100
AcDbLine
 10
-101.027712
 20
166.017284
 30
0.0
 11
-99.29663300000001
 21
169.076953
 31
0.0
  0
LINE
  5
73
330
A
100
AcDbEntity
  8
STANDARD
  6
IMPORT
 62
     7
100
AcDbLine
 10
-111.4531479999999
 20
173.791618
 30
0.0
 11
-111.330034
 21
174.00922
 31
0.0
  0
LINE
  5
74
330
A
100
AcDbEntity
  8
STANDARD
  6
IMPORT
 62
     7
100
AcDbLine
 10
-109.1334819999999
 20
174.642376
 30
0.0
 11
-99.29663300000001
 21
169.076953
 31
0.0
  0
LINE
  5
75
330
A
100
AcDbEntity
  8
STANDARD
  6
IMPORT
 62
     7
100
AcDbLine
 10
-110.864561
 20
171.582706
 30
0.0
 11
-101.027712
 21
166.017284
 31
0.0
  0
LINE
  5
76
330
A
100
AcDbEntity
  8
STANDARD
  6
IMPORT
 62
     7
100
AcDbLine
 10
-99.54664100000002
 20
168.6350629999999
 30
0.0
 11
-95.98001299999999
 21
166.6171639999999
 31
0.0
  0
LINE
  5
77
330
A
100
AcDbEntity
  8
STANDARD
  6
IMPORT
 62
     7
100
AcDbLine
 10
-100.777701
 20
166.4591749999999
 30
0.0
 11
-97.21107299999999
 21
164.441272
 31
0.0
  0
LINE
  5
78
330
A
100
AcDbEntity
  8
STANDARD
  6
IMPORT
 62
     7
100
AcDbLine
 10
-98.13576300000001
 20
184.779216
 30
0.0
 11
-98.00975600000001
 21
184.943431
 31
0.0
  0
ARC
  5
79
330
A
100
AcDbEntity
  8
STANDARD
  6
IMPORT
 62
     7
100
AcDbCircle
 10
-96.59554700000001
 20
165.5292209999999
 30
0.0
 40
1.250000999999999
100
AcDbArc
 50
240.5002139999999
 51
60.4998
  0
ARC
  5
7A
330
A
100
AcDbEntity
  8
STANDARD
  6
IMPORT
 62
     7
100
AcDbCircle
 10
-163.595544
 20
165.529218
 30
0.0
 40
1.250000999999999
100
AcDbArc
 50
119.499962
 51
299.499948
  0
ARC
  5
7B
330
A
100
AcDbEntity
  8
STANDARD
  6
IMPORT
 62
     7
100
AcDbCircle
 10
-96.59554399999999
 20
183.5292159999999
 30
0.0
 40
1.25
100
AcDbArc
 50
269.9999669999999
 51
90.00003300000001
  0
ARC
  5
7C
330
A
100
AcDbEntity
  8
STANDARD
  6
IMPORT
 62
     7
100
AcDbCircle
 10
-163.595544
 20
183.5292159999999
 30
0.0
 40
1.25
100
AcDbArc
 50
89.999967
 51
270.000033
  0
ARC
  5
7D
330
A
100
AcDbEntity
  8
STANDARD
  6
IMPORT
 62
     7
100
AcDbCircle
 10
-109.903059
 20
173.2133189999999
 30
0.0
 40
1.633898999999999
100
AcDbArc
 50
91.18855299999999
 51
150.567862
  0
ARC
  5
7E
330
A
100
AcDbEntity
  8
STANDARD
  6
IMPORT
 62
     7
100
AcDbCircle
 10
-96.59554300000001
 20
183.529221
 30
0.0
 40
1.999997999999999
100
AcDbArc
 50
359.999869
 51
135.00006
  0
ARC
  5
7F
330
A
100
AcDbEntity
  8
STANDARD
  6
IMPORT
 62
     7
100
AcDbCircle
 10
-96.59554399999999
 20
165.5292189999999
 30
0.0
 40
1.999999
100
AcDbArc
 50
194.9999949999999
 51
359.999931
  0
ARC
  5
80
330
A
100
AcDbEntity
  8
STANDARD
  6
IMPORT
 62
     7
100
AcDbCircle
 10
-110.074833
 20
172.9692969999999
 30
0.0
 40
1.595715
100
AcDbArc
 50
179.90105
 51
240.336488
  0
ARC
  5
81
330
A
100
AcDbEntity
  8
STANDARD
  6
IMPORT
 62
     7
100
AcDbCircle
 10
-163.595544
 20
165.529218
 30
0.0
 40
1.999999
100
AcDbArc
 50
180.0000409999999
 51
345.000033
  0
ARC
  5
82
330
A
100
AcDbEntity
  8
STANDARD
  6
IMPORT
 62
     7
100
AcDbCircle
 10
-163.5955429999999
 20
183.5292169999999
 30
0.0
 40
2.0
100
AcDbArc
 50
45.000026
 51
180.000022
  0
ARC
  5
83
330
A
100
AcDbEntity
  8
STANDARD
  6
IMPORT
 62
     7
100
AcDbCircle
 10
-150.2853909999999
 20
173.217732
 30
0.0
 40
1.629434
100
AcDbArc
 50
29.342589
 51
88.90096099999999
  0
ARC
  5
84
330
A
100
AcDbEntity
  8
STANDARD
  6
IMPORT
 62
     7
100
AcDbCircle
 10
-150.116249
 20
172.9692939999999
 30
0.0
 40
1.595709
100
AcDbArc
 50
299.663402
 51
0.09906
  0
ARC
  5
85
330
A
100
AcDbEntity
  8
STANDARD
  6
IMPORT
 62
     7
100
AcDbCircle
 10
-150.143985
 20
172.9783519999999
 30
0.0
 40
1.624245999999999
100
AcDbArc
 50
329.994397
 51
29.76233
  0
ARC
  5
86
330
A
100
AcDbEntity
  8
STANDARD
  6
IMPORT
 62
     7
100
AcDbCircle
 10
-150.275806
 20
173.251296
 30
0.0
 40
1.595717999999999
100
AcDbArc
 50
58.90107
 51
119.336404
  0
ARC
  5
87
330
A
100
AcDbEntity
  8
STANDARD
  6
IMPORT
 62
     7
100
AcDbCircle
 10
-109.915361
 20
173.256395
 30
0.0
 40
1.591312999999999
100
AcDbArc
 50
60.571175
 51
121.19135
  0
ARC
  5
88
330
A
100
AcDbEntity
  8
STANDARD
  6
IMPORT
 62
     7
100
AcDbCircle
 10
-110.041135
 20
172.978366
 30
0.0
 40
1.629423
100
AcDbArc
 50
150.342257
 51
209.9010819999999
  0
LINE
  5
89
330
A
100
AcDbEntity
  8
STANDARD
  6
IMPORT
 62
     7
100
AcDbLine
 10
-70.121725
 20
185.5292159999999
 30
0.0
 11
-68.67172499999999
 21
185.5292159999999
 31
0.0
  0
LINE
  5
8A
330
A
100
AcDbEntity
  8
STANDARD
  6
IMPORT
 62
     7
100
AcDbLine
 10
-82.52172299999999
 20
184.779216
 30
0.0
 11
-70.371725
 21
184.779216
 31
0.0
  0
LINE
  5
8B
330
A
100
AcDbEntity
  8
STANDARD
  6
IMPORT
 62
     7
100
AcDbLine
 10
-82.52172299999999
 20
182.2792159999999
 30
0.0
 11
-70.371725
 21
182.2792159999999
 31
0.0
  0
LINE
  5
8C
330
A
100
AcDbEntity
  8
STANDARD
  6
IMPORT
 62
     7
100
AcDbLine
 10
-70.121725
 20
163.5292159999999
 30
0.0
 11
-68.67172499999999
 21
163.5292159999999
 31
0.0
  0
LINE
  5
8D
330
A
100
AcDbEntity
  8
STANDARD
  6
IMPORT
 62
     7
100
AcDbLine
 10
-72.699747
 20
164.29636
 30
0.0
 11
-70.371725
 21
164.29636
 31
0.0
  0
LINE
  5
8E
330
A
100
AcDbEntity
  8
STANDARD
  6
IMPORT
 62
     7
100
AcDbLine
 10
-72.643702
 20
166.7620729999999
 30
0.0
 11
-70.371725
 21
166.7620729999999
 31
0.0
  0
LINE
  5
8F
330
A
100
AcDbEntity
  8
STANDARD
  6
IMPORT
 62
     7
100
AcDbLine
 10
-73.78734399999999
 20
164.36906
 30
0.0
 11
-73.6892
 21
164.360508
 31
0.0
  0
LINE
  5
90
330
A
100
AcDbEntity
  8
STANDARD
  6
IMPORT
 62
     7
100
AcDbLine
 10
-70.371725
 20
163.781375
 30
0.0
 11
-70.371725
 21
185.277061
 31
0.0
  0
LINE
  5
91
330
A
100
AcDbEntity
  8
STANDARD
  6
IMPORT
 62
     7
100
AcDbLine
 10
-68.67172499999999
 20
163.5292159999999
 30
0.0
 11
-68.67172499999999
 21
185.5292159999999
 31
0.0
  0
LINE
  5
92
330
A
100
AcDbEntity
  8
STANDARD
  6
IMPORT
 62
     7
100
AcDbLine
 10
-77.90273499999999
 20
167.2814629999999
 30
0.0
 11
-77.90273499999999
 21
173.3781929999999
 31
0.0
  0
LINE
  5
93
330
A
100
AcDbEntity
  8
STANDARD
  6
IMPORT
 62
     7
100
AcDbLine
 10
-74.440714
 20
167.2814629999999
 30
0.0
 11
-74.440714
 21
173.3781929999999
 31
0.0
  0
LINE
  5
94
330
A
100
AcDbEntity
  8
STANDARD
  6
IMPORT
 62
     7
100
AcDbLine
 10
-77.40273499999999
 20
167.024051
 30
0.0
 11
-77.40273499999999
 21
167.7360379999999
 31
0.0
  0
LINE
  5
95
330
A
100
AcDbEntity
  8
STANDARD
  6
IMPORT
 62
     7
100
AcDbLine
 10
-74.940714
 20
167.4813499999999
 30
0.0
 11
-74.940714
 21
167.7360379999999
 31
0.0
  0
LINE
  5
96
330
A
100
AcDbEntity
  8
STANDARD
  6
IMPORT
 62
     7
100
AcDbLine
 10
-77.693949
 20
166.782199
 30
0.0
 11
-77.301562
 21
166.375194
 31
0.0
  0
LINE
  5
97
330
A
100
AcDbEntity
  8
STANDARD
  6
IMPORT
 62
     7
100
AcDbLine
 10
-75.041887
 20
168.7190399999999
 30
0.0
 11
-74.6495
 21
168.312034
 31
0.0
  0
LINE
  5
98
330
A
100
AcDbEntity
  8
STANDARD
  6
IMPORT
 62
     7
100
AcDbLine
 10
-75.077471
 20
174.451469
 30
0.0
 11
-74.69744300000001
 21
174.057285
 31
0.0
  0
LINE
  5
99
330
A
100
AcDbEntity
  8
STANDARD
  6
IMPORT
 62
     7
100
AcDbLine
 10
-75.368239
 20
168.380535
 30
0.0
 11
-75.08919399999999
 21
168.091091
 31
0.0
  0
LINE
  5
9A
330
A
100
AcDbEntity
  8
STANDARD
  6
IMPORT
 62
     7
100
AcDbLine
 10
-77.107134
 20
166.1235
 30
0.0
 11
-76.64840100000001
 21
165.578155
 31
0.0
  0
LINE
  5
9B
330
A
100
AcDbEntity
  8
STANDARD
  6
IMPORT
 62
     7
100
AcDbLine
 10
-74.99779699999999
 20
167.489761
 30
0.0
 11
-74.87370099999999
 21
167.342231
 31
0.0
  0
LINE
  5
9C
330
A
100
AcDbEntity
  8
STANDARD
  6
IMPORT
 62
     7
100
AcDbLine
 10
-77.265978
 20
174.451469
 30
0.0
 11
-77.16164599999999
 21
174.533275
 31
0.0
  0
LINE
  5
9D
330
A
100
AcDbEntity
  8
STANDARD
  6
IMPORT
 62
     7
100
AcDbLine
 10
-70.298502
 20
185.4553639999999
 30
0.0
 11
-70.217394
 21
185.510025
 31
0.0
  0
LINE
  5
9E
330
A
100
AcDbEntity
  8
STANDARD
  6
IMPORT
 62
     7
100
AcDbLine
 10
-70.352694
 20
163.6848789999999
 30
0.0
 11
-70.298502
 21
163.6030729999999
 31
0.0
  0
LINE
  5
9F
330
A
100
AcDbEntity
  8
STANDARD
  6
IMPORT
 62
     7
100
AcDbLine
 10
-77.301562
 20
168.7190399999999
 30
0.0
 11
-76.772898
 21
168.9846949999999
 31
0.0
  0
LINE
  5
A0
330
A
100
AcDbEntity
  8
STANDARD
  6
IMPORT
 62
     7
100
AcDbLine
 10
-77.16164599999999
 20
174.533275
 30
0.0
 11
-76.69844999999999
 21
174.766033
 31
0.0
  0
LINE
  5
A1
330
A
100
AcDbEntity
  8
STANDARD
  6
IMPORT
 62
     7
100
AcDbLine
 10
-76.97521
 20
168.380535
 30
0.0
 11
-76.599249
 21
168.569454
 31
0.0
  0
LINE
  5
A2
330
A
100
AcDbEntity
  8
STANDARD
  6
IMPORT
 62
     7
100
AcDbLine
 10
-77.251791
 20
166.4594679999999
 30
0.0
 11
-77.107134
 21
166.1235
 31
0.0
  0
LINE
  5
A3
330
A
100
AcDbEntity
  8
STANDARD
  6
IMPORT
 62
     7
100
AcDbLine
 10
-77.90273499999999
 20
167.2814629999999
 30
0.0
 11
-77.693949
 21
166.782199
 31
0.0
  0
LINE
  5
A4
330
A
100
AcDbEntity
  8
STANDARD
  6
IMPORT
 62
     7
100
AcDbLine
 10
-74.6495
 20
168.312034
 30
0.0
 11
-74.440714
 21
167.81277
 31
0.0
  0
LINE
  5
A5
330
A
100
AcDbEntity
  8
STANDARD
  6
IMPORT
 62
     7
100
AcDbLine
 10
-74.69744300000001
 20
174.057285
 30
0.0
 11
-74.495234
 21
173.573745
 31
0.0
  0
LINE
  5
A6
330
A
100
AcDbEntity
  8
STANDARD
  6
IMPORT
 62
     7
100
AcDbLine
 10
-75.08919399999999
 20
168.091091
 30
0.0
 11
-74.940714
 21
167.7360379999999
 31
0.0
  0
LINE
  5
A7
330
A
100
AcDbEntity
  8
STANDARD
  6
IMPORT
 62
     7
100
AcDbLine
 10
-74.495234
 20
173.573745
 30
0.0
 11
-74.440714
 21
173.3781929999999
 31
0.0
  0
LINE
  5
A8
330
A
100
AcDbEntity
  8
STANDARD
  6
IMPORT
 62
     7
100
AcDbLine
 10
-77.40273499999999
 20
167.024051
 30
0.0
 11
-77.251791
 21
166.4594679999999
 31
0.0
  0
LINE
  5
A9
330
A
100
AcDbEntity
  8
STANDARD
  6
IMPORT
 62
     7
100
AcDbLine
 10
-74.940714
 20
167.4813499999999
 30
0.0
 11
-74.91741400000001
 21
167.394203
 31
0.0
  0
LINE
  5
AA
330
A
100
AcDbEntity
  8
STANDARD
  6
IMPORT
 62
     7
100
AcDbLine
 10
-70.371725
 20
163.781375
 30
0.0
 11
-70.352694
 21
163.6848789999999
 31
0.0
  0
LINE
  5
AB
330
A
100
AcDbEntity
  8
STANDARD
  6
IMPORT
 62
     7
100
AcDbLine
 10
-70.217394
 20
185.510025
 30
0.0
 11
-70.121725
 21
185.5292159999999
 31
0.0
  0
LINE
  5
AC
330
A
100
AcDbEntity
  8
STANDARD
  6
IMPORT
 62
     7
100
AcDbLine
 10
-76.772898
 20
168.9846949999999
 30
0.0
 11
-76.17172499999999
 21
169.076953
 31
0.0
  0
LINE
  5
AD
330
A
100
AcDbEntity
  8
STANDARD
  6
IMPORT
 62
     7
100
AcDbLine
 10
-76.69844999999999
 20
174.766033
 30
0.0
 11
-76.17172499999999
 21
174.846866
 31
0.0
  0
LINE
  5
AE
330
A
100
AcDbEntity
  8
STANDARD
  6
IMPORT
 62
     7
100
AcDbLine
 10
-76.599249
 20
168.569454
 30
0.0
 11
-76.17172499999999
 21
168.6350629999999
 31
0.0
  0
LINE
  5
AF
330
A
100
AcDbEntity
  8
STANDARD
  6
IMPORT
 62
     7
100
AcDbLine
 10
-73.6892
 20
164.360508
 30
0.0
 11
-72.699747
 21
164.29636
 31
0.0
  0
LINE
  5
B0
330
A
100
AcDbEntity
  8
STANDARD
  6
IMPORT
 62
     7
100
AcDbLine
 10
-73.465986
 20
166.8153839999999
 30
0.0
 11
-72.643702
 21
166.7620729999999
 31
0.0
  0
LINE
  5
B1
330
A
100
AcDbEntity
  8
STANDARD
  6
IMPORT
 62
     7
100
AcDbLine
 10
-76.17172499999999
 20
169.076953
 30
0.0
 11
-75.57055099999999
 21
168.9846949999999
 31
0.0
  0
LINE
  5
B2
330
A
100
AcDbEntity
  8
STANDARD
  6
IMPORT
 62
     7
100
AcDbLine
 10
-76.17172499999999
 20
174.846866
 30
0.0
 11
-75.644999
 21
174.766033
 31
0.0
  0
LINE
  5
B3
330
A
100
AcDbEntity
  8
STANDARD
  6
IMPORT
 62
     7
100
AcDbLine
 10
-76.17172499999999
 20
168.6350629999999
 30
0.0
 11
-75.7442
 21
168.569454
 31
0.0
  0
LINE
  5
B4
330
A
100
AcDbEntity
  8
STANDARD
  6
IMPORT
 62
     7
100
AcDbLine
 10
-70.371725
 20
185.277061
 30
0.0
 11
-70.352694
 21
185.373558
 31
0.0
  0
LINE
  5
B5
330
A
100
AcDbEntity
  8
STANDARD
  6
IMPORT
 62
     7
100
AcDbLine
 10
-70.217394
 20
163.548412
 30
0.0
 11
-70.121725
 21
163.5292159999999
 31
0.0
  0
LINE
  5
B6
330
A
100
AcDbEntity
  8
STANDARD
  6
IMPORT
 62
     7
100
AcDbLine
 10
-74.826933
 20
164.581104
 30
0.0
 11
-73.78734399999999
 21
164.36906
 31
0.0
  0
LINE
  5
B7
330
A
100
AcDbEntity
  8
STANDARD
  6
IMPORT
 62
     7
100
AcDbLine
 10
-74.016516
 20
166.9391399999999
 30
0.0
 11
-73.383585
 21
166.810039
 31
0.0
  0
LINE
  5
B8
330
A
100
AcDbEntity
  8
STANDARD
  6
IMPORT
 62
     7
100
AcDbLine
 10
-77.90273499999999
 20
173.3781929999999
 30
0.0
 11
-77.84821499999999
 21
173.573745
 31
0.0
  0
LINE
  5
B9
330
A
100
AcDbEntity
  8
STANDARD
  6
IMPORT
 62
     7
100
AcDbLine
 10
-75.71964900000001
 20
164.9184149999999
 30
0.0
 11
-74.826933
 21
164.581104
 31
0.0
  0
LINE
  5
BA
330
A
100
AcDbEntity
  8
STANDARD
  6
IMPORT
 62
     7
100
AcDbLine
 10
-74.57354599999999
 20
167.149612
 30
0.0
 11
-74.016516
 21
166.9391399999999
 31
0.0
  0
LINE
  5
BB
330
A
100
AcDbEntity
  8
STANDARD
  6
IMPORT
 62
     7
100
AcDbLine
 10
-77.90273499999999
 20
167.81277
 30
0.0
 11
-77.693949
 21
168.312034
 31
0.0
  0
LINE
  5
BC
330
A
100
AcDbEntity
  8
STANDARD
  6
IMPORT
 62
     7
100
AcDbLine
 10
-74.50645699999999
 20
167.1242629999999
 30
0.0
 11
-74.440714
 21
167.2814629999999
 31
0.0
  0
LINE
  5
BD
330
A
100
AcDbEntity
  8
STANDARD
  6
IMPORT
 62
     7
100
AcDbLine
 10
-77.84821499999999
 20
173.573745
 30
0.0
 11
-77.646006
 21
174.057285
 31
0.0
  0
LINE
  5
BE
330
A
100
AcDbEntity
  8
STANDARD
  6
IMPORT
 62
     7
100
AcDbLine
 10
-77.40273499999999
 20
167.7360379999999
 30
0.0
 11
-77.254255
 21
168.091091
 31
0.0
  0
LINE
  5
BF
330
A
100
AcDbEntity
  8
STANDARD
  6
IMPORT
 62
     7
100
AcDbLine
 10
-77.301562
 20
166.375194
 30
0.0
 11
-77.19174399999999
 21
166.3200149999999
 31
0.0
  0
LINE
  5
C0
330
A
100
AcDbEntity
  8
STANDARD
  6
IMPORT
 62
     7
100
AcDbLine
 10
-75.57055099999999
 20
168.9846949999999
 30
0.0
 11
-75.041887
 21
168.7190399999999
 31
0.0
  0
LINE
  5
C1
330
A
100
AcDbEntity
  8
STANDARD
  6
IMPORT
 62
     7
100
AcDbLine
 10
-75.644999
 20
174.766033
 30
0.0
 11
-75.181803
 21
174.533275
 31
0.0
  0
LINE
  5
C2
330
A
100
AcDbEntity
  8
STANDARD
  6
IMPORT
 62
     7
100
AcDbLine
 10
-75.7442
 20
168.569454
 30
0.0
 11
-75.368239
 21
168.380535
 31
0.0
  0
LINE
  5
C3
330
A
100
AcDbEntity
  8
STANDARD
  6
IMPORT
 62
     7
100
AcDbLine
 10
-76.404658
 20
165.3580129999999
 30
0.0
 11
-75.71964900000001
 21
164.9184149999999
 31
0.0
  0
LINE
  5
C4
330
A
100
AcDbEntity
  8
STANDARD
  6
IMPORT
 62
     7
100
AcDbLine
 10
-75.00097099999999
 20
167.423908
 30
0.0
 11
-74.57354599999999
 21
167.149612
 31
0.0
  0
LINE
  5
C5
330
A
100
AcDbEntity
  8
STANDARD
  6
IMPORT
 62
     7
100
AcDbLine
 10
-70.352694
 20
185.373558
 30
0.0
 11
-70.298502
 21
185.4553639999999
 31
0.0
  0
LINE
  5
C6
330
A
100
AcDbEntity
  8
STANDARD
  6
IMPORT
 62
     7
100
AcDbLine
 10
-70.298502
 20
163.6030729999999
 30
0.0
 11
-70.217394
 21
163.548412
 31
0.0
  0
LINE
  5
C7
330
A
100
AcDbEntity
  8
STANDARD
  6
IMPORT
 62
     7
100
AcDbLine
 10
-75.181803
 20
174.533275
 30
0.0
 11
-75.077471
 21
174.451469
 31
0.0
  0
LINE
  5
C8
330
A
100
AcDbEntity
  8
STANDARD
  6
IMPORT
 62
     7
100
AcDbLine
 10
-76.64840100000001
 20
165.578155
 30
0.0
 11
-76.404658
 21
165.3580129999999
 31
0.0
  0
LINE
  5
C9
330
A
100
AcDbEntity
  8
STANDARD
  6
IMPORT
 62
     7
100
AcDbLine
 10
-77.693949
 20
168.312034
 30
0.0
 11
-77.301562
 21
168.7190399999999
 31
0.0
  0
LINE
  5
CA
330
A
100
AcDbEntity
  8
STANDARD
  6
IMPORT
 62
     7
100
AcDbLine
 10
-77.646006
 20
174.057285
 30
0.0
 11
-77.265978
 21
174.451469
 31
0.0
  0
LINE
  5
CB
330
A
100
AcDbEntity
  8
STANDARD
  6
IMPORT
 62
     7
100
AcDbLine
 10
-77.254255
 20
168.091091
 30
0.0
 11
-76.97521
 21
168.380535
 31
0.0
  0
ARC
  5
CC
330
A
100
AcDbEntity
  8
STANDARD
  6
IMPORT
 62
     7
100
AcDbCircle
 10
-82.52172599999999
 20
183.5292159999999
 30
0.0
 40
1.25
100
AcDbArc
 50
89.999879
 51
270.0001209999999
  0
LINE
  5
CD
330
A
100
AcDbEntity
  8
STANDARD
  6
IMPORT
 62
     7
100
AcDbLine
 10
-158.8694919999999
 20
134.292633
 30
0.0
 11
-101.70813
 21
134.292633
 31
0.0
  0
LINE
  5
CE
330
A
100
AcDbEntity
  8
STANDARD
  6
IMPORT
 62
     7
100
AcDbLine
 10
-158.70813
 20
136.754654
 30
0.0
 11
-101.8694989999999
 21
136.754654
 31
0.0
  0
LINE
  5
CF
330
A
100
AcDbEntity
  8
STANDARD
  6
IMPORT
 62
     7
100
AcDbLine
 10
-158.788818
 20
136.923645
 30
0.0
 11
-101.7888109999999
 21
136.923645
 31
0.0
  0
LINE
  5
D0
330
A
100
AcDbEntity
  8
STANDARD
  6
IMPORT
 62
     7
100
AcDbLine
 10
-165.5388179999999
 20
147.6736449999999
 30
0.0
 11
-95.03881099999999
 21
147.6736449999999
 31
0.0
  0
LINE
  5
D1
330
A
100
AcDbEntity
  8
STANDARD
  6
IMPORT
 62
     7
100
AcDbLine
 10
-98.788811
 20
149.3736419999999
 30
0.0
 11
-94.788811
 21
149.3736419999999
 31
0.0
  0
LINE
  5
D2
330
A
100
AcDbEntity
  8
STANDARD
  6
IMPORT
 62
     7
100
AcDbLine
 10
-165.788818
 20
149.3736419999999
 30
0.0
 11
-161.788818
 21
149.3736419999999
 31
0.0
  0
LINE
  5
D3
330
A
100
AcDbEntity
  8
STANDARD
  6
IMPORT
 62
     7
100
AcDbLine
 10
-95.5578
 20
140.4429629999999
 30
0.0
 11
-95.5578
 21
147.6736449999999
 31
0.0
  0
LINE
  5
D4
330
A
100
AcDbEntity
  8
STANDARD
  6
IMPORT
 62
     7
100
AcDbLine
 10
-98.019821
 20
140.6043239999999
 30
0.0
 11
-98.019821
 21
147.6736449999999
 31
0.0
  0
LINE
  5
D5
330
A
100
AcDbEntity
  8
STANDARD
  6
IMPORT
 62
     7
100
AcDbLine
 10
-98.18881199999999
 20
140.523636
 30
0.0
 11
-98.18881199999999
 21
147.6736449999999
 31
0.0
  0
LINE
  5
D6
330
A
100
AcDbEntity
  8
STANDARD
  6
IMPORT
 62
     7
100
AcDbLine
 10
-95.53886400000001
 20
145.3026889999999
 30
0.0
 11
-95.53886400000001
 21
147.6736449999999
 31
0.0
  0
LINE
  5
D7
330
A
100
AcDbEntity
  8
STANDARD
  6
IMPORT
 62
     7
100
AcDbLine
 10
-98.03876500000001
 20
145.444595
 30
0.0
 11
-98.03876500000001
 21
147.6736449999999
 31
0.0
  0
LINE
  5
D8
330
A
100
AcDbEntity
  8
STANDARD
  6
IMPORT
 62
     7
100
AcDbLine
 10
-98.788811
 20
147.9236449999999
 30
0.0
 11
-98.788811
 21
149.3736419999999
 31
0.0
  0
LINE
  5
D9
330
A
100
AcDbEntity
  8
STANDARD
  6
IMPORT
 62
     7
100
AcDbLine
 10
-94.788811
 20
147.9236449999999
 30
0.0
 11
-94.788811
 21
149.3736419999999
 31
0.0
  0
LINE
  5
DA
330
A
100
AcDbEntity
  8
STANDARD
  6
IMPORT
 62
     7
100
AcDbLine
 10
-165.019821
 20
140.4429629999999
 30
0.0
 11
-165.019821
 21
147.6736449999999
 31
0.0
  0
LINE
  5
DB
330
A
100
AcDbEntity
  8
STANDARD
  6
IMPORT
 62
     7
100
AcDbLine
 10
-162.5577999999999
 20
140.6043239999999
 30
0.0
 11
-162.5577999999999
 21
147.6736449999999
 31
0.0
  0
LINE
  5
DC
330
A
100
AcDbEntity
  8
STANDARD
  6
IMPORT
 62
     7
100
AcDbLine
 10
-162.388809
 20
140.523636
 30
0.0
 11
-162.388809
 21
147.6736449999999
 31
0.0
  0
LINE
  5
DD
330
A
100
AcDbEntity
  8
STANDARD
  6
IMPORT
 62
     7
100
AcDbLine
 10
-165.038773
 20
145.3026889999999
 30
0.0
 11
-165.038773
 21
147.6736449999999
 31
0.0
  0
LINE
  5
DE
330
A
100
AcDbEntity
  8
STANDARD
  6
IMPORT
 62
     7
100
AcDbLine
 10
-162.5388639999999
 20
145.444595
 30
0.0
 11
-162.5388639999999
 21
147.6736449999999
 31
0.0
  0
LINE
  5
DF
330
A
100
AcDbEntity
  8
STANDARD
  6
IMPORT
 62
     7
100
AcDbLine
 10
-161.788818
 20
147.9236449999999
 30
0.0
 11
-161.788818
 21
149.3736419999999
 31
0.0
  0
LINE
  5
E0
330
A
100
AcDbEntity
  8
STANDARD
  6
IMPORT
 62
     7
100
AcDbLine
 10
-165.788818
 20
147.9236449999999
 30
0.0
 11
-165.788818
 21
149.3736419999999
 31
0.0
  0
LINE
  5
E3
330
A
100
AcDbEntity
  8
STANDARD
  6
IMPORT
 62
     7
100
AcDbLine
 10
-98.18881199999999
 20
141.0178379999999
 30
0.0
 11
-98.019821
 21
141.0982669999999
 31
0.0
  0
LINE
  5
E4
330
A
100
AcDbEntity
  8
STANDARD
  6
IMPORT
 62
     7
100
AcDbLine
 10
-162.4593199999999
 20
144.7503659999999
 30
0.0
 11
-162.388809
 21
144.55481
 31
0.0
  0
LINE
  5
E5
330
A
100
AcDbEntity
  8
STANDARD
  6
IMPORT
 62
     7
100
AcDbLine
 10
-165.019821
 20
140.4429629999999
 30
0.0
 11
-164.8177639999999
 21
138.9081879999999
 31
0.0
  0
LINE
  5
E6
330
A
100
AcDbEntity
  8
STANDARD
  6
IMPORT
 62
     7
100
AcDbLine
 10
-162.5577999999999
 20
140.6043239999999
 30
0.0
 11
-162.4191129999999
 21
139.550903
 31
0.0
  0
LINE
  5
E7
330
A
100
AcDbEntity
  8
STANDARD
  6
IMPORT
 62
     7
100
AcDbLine
 10
-101.8694989999999
 20
136.754654
 30
0.0
 11
-100.816078
 21
136.8933409999999
 31
0.0
  0
LINE
  5
E8
330
A
100
AcDbEntity
  8
STANDARD
  6
IMPORT
 62
     7
100
AcDbLine
 10
-101.70813
 20
134.292633
 30
0.0
 11
-100.1733629999999
 21
134.4946899999999
 31
0.0
  0
LINE
  5
E9
330
A
100
AcDbEntity
  8
STANDARD
  6
IMPORT
 62
     7
100
AcDbLine
 10
-165.038773
 20
145.3026889999999
 30
0.0
 11
-165.019821
 21
145.1373749999999
 31
0.0
  0
LINE
  5
EA
330
A
100
AcDbEntity
  8
STANDARD
  6
IMPORT
 62
     7
100
AcDbLine
 10
-162.5388639999999
 20
145.444595
 30
0.0
 11
-162.4593199999999
 21
144.7503659999999
 31
0.0
  0
LINE
  5
EB
330
A
100
AcDbEntity
  8
STANDARD
  6
IMPORT
 62
     7
100
AcDbLine
 10
-95.5578
 20
145.1373749999999
 30
0.0
 11
-95.53886400000001
 21
145.3026889999999
 31
0.0
  0
LINE
  5
EC
330
A
100
AcDbEntity
  8
STANDARD
  6
IMPORT
 62
     7
100
AcDbLine
 10
-98.118317
 20
144.7503659999999
 30
0.0
 11
-98.03876500000001
 21
145.444595
 31
0.0
  0
LINE
  5
ED
330
A
100
AcDbEntity
  8
STANDARD
  6
IMPORT
 62
     7
100
AcDbLine
 10
-95.759857
 20
138.9081879999999
 30
0.0
 11
-95.5578
 21
140.4429629999999
 31
0.0
  0
LINE
  5
EE
330
A
100
AcDbEntity
  8
STANDARD
  6
IMPORT
 62
     7
100
AcDbLine
 10
-98.15850799999999
 20
139.550903
 30
0.0
 11
-98.019821
 21
140.6043239999999
 31
0.0
  0
LINE
  5
EF
330
A
100
AcDbEntity
  8
STANDARD
  6
IMPORT
 62
     7
100
AcDbLine
 10
-159.7615509999999
 20
136.8933409999999
 30
0.0
 11
-158.70813
 21
136.754654
 31
0.0
  0
LINE
  5
F0
330
A
100
AcDbEntity
  8
STANDARD
  6
IMPORT
 62
     7
100
AcDbLine
 10
-160.4042659999999
 20
134.4946899999999
 30
0.0
 11
-158.8694919999999
 21
134.292633
 31
0.0
  0
LINE
  5
F1
330
A
100
AcDbEntity
  8
STANDARD
  6
IMPORT
 62
     7
100
AcDbLine
 10
-98.18881199999999
 20
144.55481
 30
0.0
 11
-98.118317
 21
144.7503659999999
 31
0.0
  0
LINE
  5
F2
330
A
100
AcDbEntity
  8
STANDARD
  6
IMPORT
 62
     7
100
AcDbLine
 10
-162.5577999999999
 20
141.0982669999999
 30
0.0
 11
-162.388809
 21
141.0178379999999
 31
0.0
  0
ARC
  5
F3
330
A
100
AcDbEntity
  8
STANDARD
  6
IMPORT
 62
     7
100
AcDbCircle
 10
-158.78883
 20
140.523624
 30
0.0
 40
6.241608999999999
100
AcDbArc
 50
194.999895
 51
255.000105
  0
ARC
  5
F4
330
A
100
AcDbEntity
  8
STANDARD
  6
IMPORT
 62
     7
100
AcDbCircle
 10
-158.7888519999999
 20
140.523602
 30
0.0
 40
3.758316
100
AcDbArc
 50
194.999604
 51
255.000396
  0
ARC
  5
F5
330
A
100
AcDbEntity
  8
STANDARD
  6
IMPORT
 62
     7
100
AcDbCircle
 10
-158.7888249999999
 20
140.5236289999999
 30
0.0
 40
3.599983999999999
100
AcDbArc
 50
179.999888
 51
270.000112
  0
ARC
  5
F6
330
A
100
AcDbEntity
  8
STANDARD
  6
IMPORT
 62
     7
100
AcDbCircle
 10
-101.7888329999999
 20
140.5236689999999
 30
0.0
 40
6.241660999999999
100
AcDbArc
 50
285.0000929999999
 51
344.999808
  0
ARC
  5
F7
330
A
100
AcDbEntity
  8
STANDARD
  6
IMPORT
 62
     7
100
AcDbCircle
 10
-101.7888109999999
 20
140.523647
 30
0.0
 40
3.758367999999999
100
AcDbArc
 50
284.999933
 51
344.999902
  0
ARC
  5
F8
330
A
100
AcDbEntity
  8
STANDARD
  6
IMPORT
 62
     7
100
AcDbCircle
 10
-101.7887959999999
 20
140.5236289999999
 30
0.0
 40
3.599983999999999
100
AcDbArc
 50
269.999766
 51
0.000112
  0
ARC
  5
F9
330
A
100
AcDbEntity
  8
STANDARD
  6
IMPORT
 62
     7
100
AcDbCircle
 10
-98.53882
 20
147.923636
 30
0.0
 40
0.249991
100
AcDbArc
 50
179.997837
 51
270.002163
  0
ARC
  5
FA
330
A
100
AcDbEntity
  8
STANDARD
  6
IMPORT
 62
     7
100
AcDbCircle
 10
-165.5388279999999
 20
147.923636
 30
0.0
 40
0.249991
100
AcDbArc
 50
179.997837
 51
270.002163
  0
ARC
  5
FB
330
A
100
AcDbEntity
  8
STANDARD
  6
IMPORT
 62
     7
100
AcDbCircle
 10
-95.038824
 20
147.923659
 30
0.0
 40
0.250014
100
AcDbArc
 50
270.003107
 51
359.996893
  0
ARC
  5
FC
330
A
100
AcDbEntity
  8
STANDARD
  6
IMPORT
 62
     7
100
AcDbCircle
 10
-162.038809
 20
147.923636
 30
0.0
 40
0.249991
100
AcDbArc
 50
269.997837
 51
0.002163
  0
ENDSEC
  0
SECTION
  2
OBJECTS
  0
DICTIONARY
  5
19
330
0
100
AcDbDictionary
  3
ACAD_GROUP
350
1A
  3
ACAD_MLINESTYLE
350
1B
  3
ACAD_PLOTSTYLENAME
350
101
  3
ACAD_LAYOUT
350
103
  3
ACAD_PLOTSETTINGS
350
104
  3
ACDBHEADERROUNDTRIPXREC
350
10A
  0
DICTIONARY
  5
12A
330
A
100
AcDbDictionary
280
     1
  3
ACAD_LAYOUTSELFREF
360
12B
  0
DICTIONARY
  5
12C
330
B
100
AcDbDictionary
280
     1
  3
ACAD_LAYOUTSELFREF
360
12D
  0
DICTIONARY
  5
1A
102
{ACAD_REACTORS
330
19
102
}
330
19
100
AcDbDictionary
  0
DICTIONARY
  5
1B
102
{ACAD_REACTORS
330
19
102
}
330
19
100
AcDbDictionary
  3
STANDARD
350
1C
  0
ACDBDICTIONARYWDFLT
  5
101
102
{ACAD_REACTORS
330
19
102
}
330
19
100
AcDbDictionary
281
     1
  3
Normal
350
102
100
AcDbDictionaryWithDefault
340
102
  0
DICTIONARY
  5
103
102
{ACAD_REACTORS
330
19
102
}
330
19
100
AcDbDictionary
  0
DICTIONARY
  5
104
102
{ACAD_REACTORS
330
19
102
}
330
19
100
AcDbDictionary
  0
DICTIONARY
  5
10A
102
{ACAD_REACTORS
330
19
102
}
330
19
100
AcDbDictionary
  3
TSTACKALIGN
350
10B
  3
TSTACKSIZE
350
10C
  3
HYPERLINKBASE
350
10D
  3
STYLESHEET
350
10E
  3
LAYOUTDICT
350
10F
  3
PLOTSETDICT
350
110
  3
PLOTSTYLNAMDICT
350
111
  3
LWETCUNION
350
112
  3
INSUNITS
350
113
  3
CEPSNTYPE
350
114
  3
FINGERPRINTGUID
350
115
  3
VERSIONGUID
350
116
  3
PSVPSCALE
350
117
  3
PUCSORTHOREF
350
118
  3
PUCSORTHOVIEW
350
119
  3
PUCSBASE
350
11A
  3
PUCSORGTOP
350
11B
  3
PUCSORGBOTTOM
350
11C
  3
PUCSORGLEFT
350
11D
  3
PUCSORGRIGHT
350
11E
  3
PUCSORGFRONT
350
11F
  3
PUCSORGBACK
350
120
  3
UCSORTHOREF
350
121
  3
UCSORTHOVIEW
350
122
  3
UCSBASE
350
123
  3
UCSORGTOP
350
124
  3
UCSORGBOTTOM
350
125
  3
UCSORGLEFT
350
126
  3
UCSORGRIGHT
350
127
  3
UCSORGFRONT
350
128
  3
UCSORGBACK
350
129
  0
XRECORD
  5
12B
102
{ACAD_REACTORS
330
12A
102
}
330
12A
100
AcDbXrecord
340
A
  0
XRECORD
  5
12D
102
{ACAD_REACTORS
330
12C
102
}
330
12C
100
AcDbXrecord
340
B
  0
MLINESTYLE
  5
1C
102
{ACAD_REACTORS
330
1B
102
}
330
1B
100
AcDbMlineStyle
  2
STANDARD
 70
     0
  3

 62
     0
 51
90.0
 52
90.0
 71
     2
 49
0.5
 62
   256
  6
BYLAYER
 49
-0.5
 62
   256
  6
BYLAYER
  0
ACDBPLACEHOLDER
  5
102
102
{ACAD_REACTORS
330
101
102
}
330
101
100
AcDbPlaceHolder
280
     0
  0
XRECORD
  5
10B
102
{ACAD_REACTORS
330
10A
102
}
330
10A
100
AcDbXrecord
 90
        1
  0
XRECORD
  5
10C
102
{ACAD_REACTORS
330
10A
102
}
330
10A
100
AcDbXrecord
 90
       70
  0
XRECORD
  5
10D
102
{ACAD_REACTORS
330
10A
102
}
330
10A
100
AcDbXrecord
  1

  0
XRECORD
  5
10E
102
{ACAD_REACTORS
330
10A
102
}
330
10A
100
AcDbXrecord
  1

  0
XRECORD
  5
10F
102
{ACAD_REACTORS
330
10A
102
}
330
10A
100
AcDbXrecord
340
103
  0
XRECORD
  5
110
102
{ACAD_REACTORS
330
10A
102
}
330
10A
100
AcDbXrecord
340
104
  0
XRECORD
  5
111
102
{ACAD_REACTORS
330
10A
102
}
330
10A
100
AcDbXrecord
340
101
  0
XRECORD
  5
112
102
{ACAD_REACTORS
330
10A
102
}
330
10A
100
AcDbXrecord
 90
    10781
  0
XRECORD
  5
113
102
{ACAD_REACTORS
330
10A
102
}
330
10A
100
AcDbXrecord
 90
        0
  0
XRECORD
  5
114
102
{ACAD_REACTORS
330
10A
102
}
330
10A
100
AcDbXrecord
 90
        0
  0
XRECORD
  5
115
102
{ACAD_REACTORS
330
10A
102
}
330
10A
100
AcDbXrecord
  1
{495B5712-366A-41F1-8F52-F53AF4E2DAB8}
  0
XRECORD
  5
116
102
{ACAD_REACTORS
330
10A
102
}
330
10A
100
AcDbXrecord
  1
{AE7208AF-F1A4-4848-BBB6-E638D9F2C0F7}
  0
XRECORD
  5
117
102
{ACAD_REACTORS
330
10A
102
}
330
10A
100
AcDbXrecord
 40
0.0
  0
XRECORD
  5
118
102
{ACAD_REACTORS
330
10A
102
}
330
10A
100
AcDbXrecord
340
0
  0
XRECORD
  5
119
102
{ACAD_REACTORS
330
10A
102
}
330
10A
100
AcDbXrecord
 70
     0
  0
XRECORD
  5
11A
102
{ACAD_REACTORS
330
10A
102
}
330
10A
100
AcDbXrecord
340
0
  0
XRECORD
  5
11B
102
{ACAD_REACTORS
330
10A
102
}
330
10A
100
AcDbXrecord
 10
0.0
 20
0.0
 30
0.0
  0
XRECORD
  5
11C
102
{ACAD_REACTORS
330
10A
102
}
330
10A
100
AcDbXrecord
 10
0.0
 20
0.0
 30
0.0
  0
XRECORD
  5
11D
102
{ACAD_REACTORS
330
10A
102
}
330
10A
100
AcDbXrecord
 10
0.0
 20
0.0
 30
0.0
  0
XRECORD
  5
11E
102
{ACAD_REACTORS
330
10A
102
}
330
10A
100
AcDbXrecord
 10
0.0
 20
0.0
 30
0.0
  0
XRECORD
  5
11F
102
{ACAD_REACTORS
330
10A
102
}
330
10A
100
AcDbXrecord
 10
0.0
 20
0.0
 30
0.0
  0
XRECORD
  5
120
102
{ACAD_REACTORS
330
10A
102
}
330
10A
100
AcDbXrecord
 10
0.0
 20
0.0
 30
0.0
  0
XRECORD
  5
121
102
{ACAD_REACTORS
330
10A
102
}
330
10A
100
AcDbXrecord
340
0
  0
XRECORD
  5
122
102
{ACAD_REACTORS
330
10A
102
}
330
10A
100
AcDbXrecord
 70
     0
  0
XRECORD
  5
123
102
{ACAD_REACTORS
330
10A
102
}
330
10A
100
AcDbXrecord
340
0
  0
XRECORD
  5
124
102
{ACAD_REACTORS
330
10A
102
}
330
10A
100
AcDbXrecord
 10
0.0
 20
0.0
 30
0.0
  0
XRECORD
  5
125
102
{ACAD_REACTORS
330
10A
102
}
330
10A
100
AcDbXrecord
 10
0.0
 20
0.0
 30
0.0
  0
XRECORD
  5
126
102
{ACAD_REACTORS
330
10A
102
}
330
10A
100
AcDbXrecord
 10
0.0
 20
0.0
 30
0.0
  0
XRECORD
  5
127
102
{ACAD_REACTORS
330
10A
102
}
330
10A
100
AcDbXrecord
 10
0.0
 20
0.0
 30
0.0
  0
XRECORD
  5
128
102
{ACAD_REACTORS
330
10A
102
}
330
10A
100
AcDbXrecord
 10
0.0
 20
0.0
 30
0.0
  0
XRECORD
  5
129
102
{ACAD_REACTORS
330
10A
102
}
330
10A
100
AcDbXrecord
 10
0.0
 20
0.0
 30
0.0
  0
ENDSEC
  0
EOF
