  0
SECTION
  2
HEADER
  9
$ACADVER
  1
AC1015
  9
$ACADMAINTVER
 70
    20
  9
$DWGCODEPAGE
  3
ANSI_1252
  9
$INSBASE
 10
0.0
 20
0.0
 30
0.0
  9
$EXTMIN
 10
671.1218357530452
 20
474.3322755158824
 30
-0.0000000000000152
  9
$EXTMAX
 10
1366.36592819392
 20
914.9622410399533
 30
0.0
  9
$LIMMIN
 10
0.0
 20
0.0
  9
$LIMMAX
 10
420.0
 20
297.0
  9
$ORTHOMODE
 70
     1
  9
$REGENMODE
 70
     1
  9
$FILLMODE
 70
     1
  9
$QTEXTMODE
 70
     0
  9
$MIRRTEXT
 70
     0
  9
$LTSCALE
 40
1.0
  9
$ATTMODE
 70
     1
  9
$TEXTSIZE
 40
4.0
  9
$TRACEWID
 40
1.0
  9
$TEXTSTYLE
  7
Standard
  9
$CLAYER
  8
0
  9
$CELTYPE
  6
ByLayer
  9
$CECOLOR
 62
   256
  9
$CELTSCALE
 40
1.0
  9
$DISPSILH
 70
     0
  9
$DIMSCALE
 40
1.0
  9
$DIMASZ
 40
2.5
  9
$DIMEXO
 40
0.625
  9
$DIMDLI
 40
3.75
  9
$DIMRND
 40
0.0
  9
$DIMDLE
 40
0.0
  9
$DIMEXE
 40
1.25
  9
$DIMTP
 40
0.0
  9
$DIMTM
 40
0.0
  9
$DIMTXT
 40
2.5
  9
$DIMCEN
 40
2.5
  9
$DIMTSZ
 40
0.0
  9
$DIMTOL
 70
     0
  9
$DIMLIM
 70
     0
  9
$DIMTIH
 70
     0
  9
$DIMTOH
 70
     0
  9
$DIMSE1
 70
     0
  9
$DIMSE2
 70
     0
  9
$DIMTAD
 70
     1
  9
$DIMZIN
 70
     8
  9
$DIMBLK
  1

  9
$DIMASO
 70
     1
  9
$DIMSHO
 70
     1
  9
$DIMPOST
  1

  9
$DIMAPOST
  1

  9
$DIMALT
 70
     0
  9
$DIMALTD
 70
     3
  9
$DIMALTF
 40
0.03937007874016
  9
$DIMLFAC
 40
1.0
  9
$DIMTOFL
 70
     1
  9
$DIMTVP
 40
0.0
  9
$DIMTIX
 70
     0
  9
$DIMSOXD
 70
     0
  9
$DIMSAH
 70
     0
  9
$DIMBLK1
  1

  9
$DIMBLK2
  1

  9
$DIMSTYLE
  2
ISO-25
  9
$DIMCLRD
 70
     0
  9
$DIMCLRE
 70
     0
  9
$DIMCLRT
 70
     0
  9
$DIMTFAC
 40
1.0
  9
$DIMGAP
 40
0.625
  9
$DIMJUST
 70
     0
  9
$DIMSD1
 70
     0
  9
$DIMSD2
 70
     0
  9
$DIMTOLJ
 70
     0
  9
$DIMTZIN
 70
     8
  9
$DIMALTZ
 70
     0
  9
$DIMALTTZ
 70
     0
  9
$DIMUPT
 70
     0
  9
$DIMDEC
 70
     2
  9
$DIMTDEC
 70
     2
  9
$DIMALTU
 70
     2
  9
$DIMALTTD
 70
     3
  9
$DIMTXSTY
  7
Standard
  9
$DIMAUNIT
 70
     0
  9
$DIMADEC
 70
     0
  9
$DIMALTRND
 40
0.0
  9
$DIMAZIN
 70
     0
  9
$DIMDSEP
 70
    44
  9
$DIMATFIT
 70
     3
  9
$DIMFRAC
 70
     0
  9
$DIMLDRBLK
  1

  9
$DIMLUNIT
 70
     2
  9
$DIMLWD
 70
    -2
  9
$DIMLWE
 70
    -2
  9
$DIMTMOVE
 70
     0
  9
$LUNITS
 70
     2
  9
$LUPREC
 70
     4
  9
$SKETCHINC
 40
1.0
  9
$FILLETRAD
 40
10.0
  9
$AUNITS
 70
     0
  9
$AUPREC
 70
     0
  9
$MENU
  1
.
  9
$ELEVATION
 40
0.0
  9
$PELEVATION
 40
0.0
  9
$THICKNESS
 40
0.0
  9
$LIMCHECK
 70
     0
  9
$CHAMFERA
 40
10.0
  9
$CHAMFERB
 40
10.0
  9
$CHAMFERC
 40
20.0
  9
$CHAMFERD
 40
0.0
  9
$SKPOLY
 70
     0
  9
$TDCREATE
 40
2453385.501389248
  9
$TDUCREATE
 40
2453385.459722581
  9
$TDUPDATE
 40
2454424.696762349
  9
$TDUUPDATE
 40
2454424.655095683
  9
$TDINDWG
 40
0.0726653125
  9
$TDUSRTIMER
 40
0.0726651968
  9
$USRTIMER
 70
     1
  9
$ANGBASE
 50
0.0
  9
$ANGDIR
 70
     0
  9
$PDMODE
 70
     0
  9
$PDSIZE
 40
0.0
  9
$PLINEWID
 40
0.0
  9
$SPLFRAME
 70
     0
  9
$SPLINETYPE
 70
     6
  9
$SPLINESEGS
 70
     8
  9
$HANDSEED
  5
157C
  9
$SURFTAB1
 70
     6
  9
$SURFTAB2
 70
     6
  9
$SURFTYPE
 70
     6
  9
$SURFU
 70
     6
  9
$SURFV
 70
     6
  9
$UCSBASE
  2

  9
$UCSNAME
  2

  9
$UCSORG
 10
0.0
 20
0.0
 30
0.0
  9
$UCSXDIR
 10
1.0
 20
0.0
 30
0.0
  9
$UCSYDIR
 10
0.0
 20
1.0
 30
0.0
  9
$UCSORTHOREF
  2

  9
$UCSORTHOVIEW
 70
     0
  9
$UCSORGTOP
 10
0.0
 20
0.0
 30
0.0
  9
$UCSORGBOTTOM
 10
0.0
 20
0.0
 30
0.0
  9
$UCSORGLEFT
 10
0.0
 20
0.0
 30
0.0
  9
$UCSORGRIGHT
 10
0.0
 20
0.0
 30
0.0
  9
$UCSORGFRONT
 10
0.0
 20
0.0
 30
0.0
  9
$UCSORGBACK
 10
0.0
 20
0.0
 30
0.0
  9
$PUCSBASE
  2

  9
$PUCSNAME
  2

  9
$PUCSORG
 10
0.0
 20
0.0
 30
0.0
  9
$PUCSXDIR
 10
1.0
 20
0.0
 30
0.0
  9
$PUCSYDIR
 10
0.0
 20
1.0
 30
0.0
  9
$PUCSORTHOREF
  2

  9
$PUCSORTHOVIEW
 70
     0
  9
$PUCSORGTOP
 10
0.0
 20
0.0
 30
0.0
  9
$PUCSORGBOTTOM
 10
0.0
 20
0.0
 30
0.0
  9
$PUCSORGLEFT
 10
0.0
 20
0.0
 30
0.0
  9
$PUCSORGRIGHT
 10
0.0
 20
0.0
 30
0.0
  9
$PUCSORGFRONT
 10
0.0
 20
0.0
 30
0.0
  9
$PUCSORGBACK
 10
0.0
 20
0.0
 30
0.0
  9
$USERI1
 70
     0
  9
$USERI2
 70
     0
  9
$USERI3
 70
     0
  9
$USERI4
 70
     0
  9
$USERI5
 70
     0
  9
$USERR1
 40
0.0
  9
$USERR2
 40
0.0
  9
$USERR3
 40
0.0
  9
$USERR4
 40
0.0
  9
$USERR5
 40
0.0
  9
$WORLDVIEW
 70
     1
  9
$SHADEDGE
 70
     3
  9
$SHADEDIF
 70
    70
  9
$TILEMODE
 70
     1
  9
$MAXACTVP
 70
    64
  9
$PINSBASE
 10
0.0
 20
0.0
 30
0.0
  9
$PLIMCHECK
 70
     0
  9
$PEXTMIN
 10
4.476287879501569
 20
4.644993026965437
 30
0.0
  9
$PEXTMAX
 10
188.6190141764509
 20
278.6887339519946
 30
0.0
  9
$PLIMMIN
 10
-7.143749713897705
 20
-6.127734661102294
  9
$PLIMMAX
 10
202.9142489433289
 20
290.7982602119446
  9
$UNITMODE
 70
     0
  9
$VISRETAIN
 70
     1
  9
$PLINEGEN
 70
     0
  9
$PSLTSCALE
 70
     1
  9
$TREEDEPTH
 70
  3020
  9
$CMLSTYLE
  2
Standard
  9
$CMLJUST
 70
     0
  9
$CMLSCALE
 40
20.0
  9
$PROXYGRAPHICS
 70
     1
  9
$MEASUREMENT
 70
     1
  9
$CELWEIGHT
370
    -1
  9
$ENDCAPS
280
     0
  9
$JOINSTYLE
280
     0
  9
$LWDISPLAY
290
     0
  9
$INSUNITS
 70
     4
  9
$HYPERLINKBASE
  1

  9
$STYLESHEET
  1

  9
$XEDIT
290
     1
  9
$CEPSNTYPE
380
     0
  9
$PSTYLEMODE
290
     1
  9
$FINGERPRINTGUID
  2
{FDEAD578-A652-11D2-9A35-0060089B3A3F}
  9
$VERSIONGUID
  2
{E64FB6F1-C105-482C-A2AD-F483A492B115}
  9
$EXTNAMES
290
     1
  9
$PSVPSCALE
 40
0.0
  9
$OLESTARTUP
290
     0
  0
ENDSEC
  0
SECTION
  2
CLASSES
  0
CLASS
  1
ACDBDICTIONARYWDFLT
  2
AcDbDictionaryWithDefault
  3
ObjectDBX Classes
 90
        0
280
     0
281
     0
  0
CLASS
  1
DICTIONARYVAR
  2
AcDbDictionaryVar
  3
ObjectDBX Classes
 90
        0
280
     0
281
     0
  0
CLASS
  1
DIMASSOC
  2
AcDbDimAssoc
  3
"AcDbDimAssoc|Product Desc:     AcDim ARX App For Dimension|Company:          Autodesk, Inc.|WEB Address:      www.autodesk.com"
 90
    32768
280
     0
281
     0
  0
CLASS
  1
MATERIAL
  2
AcDbMaterial
  3
ObjectDBX Classes
 90
     1024
280
     0
281
     0
  0
CLASS
  1
VISUALSTYLE
  2
AcDbVisualStyle
  3
ObjectDBX Classes
 90
     4095
280
     0
281
     0
  0
CLASS
  1
TABLESTYLE
  2
AcDbTableStyle
  3
ObjectDBX Classes
 90
     4095
280
     0
281
     0
  0
CLASS
  1
ACDBPLACEHOLDER
  2
AcDbPlaceHolder
  3
ObjectDBX Classes
 90
        0
280
     0
281
     0
  0
CLASS
  1
LAYOUT
  2
AcDbLayout
  3
ObjectDBX Classes
 90
        0
280
     0
281
     0
  0
ENDSEC
  0
SECTION
  2
TABLES
  0
TABLE
  2
VPORT
  5
8
102
{ACAD_XDICTIONARY
360
14F6
102
}
330
0
100
AcDbSymbolTable
 70
     1
  0
VPORT
  5
130C
330
8
100
AcDbSymbolTableRecord
100
AcDbViewportTableRecord
  2
*Active
 70
     0
 10
0.0
 20
0.0
 11
1.0
 21
1.0
 12
858.6891385818708
 22
718.9868439257479
 13
0.0
 23
0.0
 14
10.0
 24
10.0
 15
10.0
 25
10.0
 16
0.0
 26
0.0
 36
1.0
 17
0.0
 27
0.0
 37
0.0
 40
621.3697168431754
 41
1.841904761904761
 42
50.0
 43
0.0
 44
0.0
 50
0.0
 51
0.0
 71
     0
 72
 10000
 73
     1
 74
     3
 75
     0
 76
     0
 77
     0
 78
     0
281
     0
 65
     1
110
0.0
120
0.0
130
0.0
111
1.0
121
0.0
131
0.0
112
0.0
122
1.0
132
0.0
 79
     0
146
0.0
  0
ENDTAB
  0
TABLE
  2
LTYPE
  5
5
330
0
100
AcDbSymbolTable
 70
     4
  0
LTYPE
  5
14
330
5
100
AcDbSymbolTableRecord
100
AcDbLinetypeTableRecord
  2
ByBlock
 70
     0
  3

 72
    65
 73
     0
 40
0.0
  0
LTYPE
  5
15
330
5
100
AcDbSymbolTableRecord
100
AcDbLinetypeTableRecord
  2
ByLayer
 70
     0
  3

 72
    65
 73
     0
 40
0.0
  0
LTYPE
  5
16
330
5
100
AcDbSymbolTableRecord
100
AcDbLinetypeTableRecord
  2
Continuous
 70
     0
  3
Solid line
 72
    65
 73
     0
 40
0.0
  0
LTYPE
  5
14F
330
5
100
AcDbSymbolTableRecord
100
AcDbLinetypeTableRecord
  2
IMPORT
 70
     0
  3

 72
    65
 73
     0
 40
0.0
  0
LTYPE
  5
3B2
330
5
100
AcDbSymbolTableRecord
100
AcDbLinetypeTableRecord
  2
STANDARD
 70
     0
  3

 72
    65
 73
     0
 40
0.0
  0
ENDTAB
  0
TABLE
  2
LAYER
  5
2
102
{ACAD_XDICTIONARY
360
132E
102
}
330
0
100
AcDbSymbolTable
 70
     7
  0
LAYER
  5
10
330
2
100
AcDbSymbolTableRecord
100
AcDbLayerTableRecord
  2
0
 70
     0
 62
     7
  6
Continuous
370
    -3
390
F
  0
LAYER
  5
86
330
2
100
AcDbSymbolTableRecord
100
AcDbLayerTableRecord
  2
Hewi
 70
     0
 62
     7
  6
Continuous
370
    30
390
F
  0
LAYER
  5
37C
330
2
100
AcDbSymbolTableRecord
100
AcDbLayerTableRecord
  2
Defpoints
 70
     0
 62
     7
  6
Continuous
290
     0
370
    -3
390
F
  0
ENDTAB
  0
TABLE
  2
STYLE
  5
3
330
0
100
AcDbSymbolTable
 70
     2
  0
STYLE
  5
11
330
3
100
AcDbSymbolTableRecord
100
AcDbTextStyleTableRecord
  2
Standard
 70
     0
 40
0.0
 41
1.0
 50
0.0
 71
     0
 42
4.0
  3
txt
  4

  0
STYLE
  5
87
330
3
100
AcDbSymbolTableRecord
100
AcDbTextStyleTableRecord
  2
HEWI
 70
     0
 40
0.0
 41
1.0
 50
0.0
 71
     0
 42
80.0
  3
ARIAL.TTF
  4

1001
ACAD
1000
Arial
1071
       34
  0
ENDTAB
  0
TABLE
  2
VIEW
  5
6
330
0
100
AcDbSymbolTable
 70
     0
  0
ENDTAB
  0
TABLE
  2
UCS
  5
7
330
0
100
AcDbSymbolTable
 70
     0
  0
ENDTAB
  0
TABLE
  2
APPID
  5
9
330
0
100
AcDbSymbolTable
 70
     1
  0
APPID
  5
12
330
9
100
AcDbSymbolTableRecord
100
AcDbRegAppTableRecord
  2
ACAD
 70
     0
  0
ENDTAB
  0
TABLE
  2
DIMSTYLE
  5
A
330
0
100
AcDbSymbolTable
 70
     2
100
AcDbDimStyleTable
 71
     1
340
27
  0
DIMSTYLE
105
27
330
A
100
AcDbSymbolTableRecord
100
AcDbDimStyleTableRecord
  2
ISO-25
 70
     0
 41
2.5
 42
0.625
 43
3.75
 44
1.25
 73
     0
 74
     0
 77
     1
 78
     8
140
2.5
141
2.5
143
0.03937007874016
147
0.625
171
     3
172
     1
271
     2
272
     2
274
     3
278
    44
283
     0
284
     8
340
11
  0
DIMSTYLE
105
88
330
A
100
AcDbSymbolTableRecord
100
AcDbDimStyleTableRecord
  2
STANDARD
 70
     0
340
11
  0
ENDTAB
  0
TABLE
  2
BLOCK_RECORD
  5
1
330
0
100
AcDbSymbolTable
 70
     3
  0
BLOCK_RECORD
  5
1F
330
1
100
AcDbSymbolTableRecord
100
AcDbBlockTableRecord
  2
*Model_Space
340
22
  0
BLOCK_RECORD
  5
50
330
1
100
AcDbSymbolTableRecord
100
AcDbBlockTableRecord
  2
*Paper_Space
340
51
  0
BLOCK_RECORD
  5
55
330
1
100
AcDbSymbolTableRecord
100
AcDbBlockTableRecord
  2
*Paper_Space0
340
56
  0
ENDTAB
  0
ENDSEC
  0
SECTION
  2
BLOCKS
  0
BLOCK
  5
20
330
1F
100
AcDbEntity
  8
0
100
AcDbBlockBegin
  2
*Model_Space
 70
     0
 10
0.0
 20
0.0
 30
0.0
  3
*Model_Space
  1

  0
ENDBLK
  5
21
330
1F
100
AcDbEntity
  8
0
100
AcDbBlockEnd
  0
BLOCK
  5
52
330
50
100
AcDbEntity
 67
     1
  8
0
100
AcDbBlockBegin
  2
*Paper_Space
 70
     0
 10
0.0
 20
0.0
 30
0.0
  3
*Paper_Space
  1

  0
ENDBLK
  5
53
330
50
100
AcDbEntity
 67
     1
  8
0
100
AcDbBlockEnd
  0
BLOCK
  5
57
330
55
100
AcDbEntity
 67
     1
  8
0
100
AcDbBlockBegin
  2
*Paper_Space0
 70
     0
 10
0.0
 20
0.0
 30
0.0
  3
*Paper_Space0
  1

  0
ENDBLK
  5
58
330
55
100
AcDbEntity
 67
     1
  8
0
100
AcDbBlockEnd
  0
ENDSEC
  0
SECTION
  2
ENTITIES
  0
LINE
  5
116B
330
1F
100
AcDbEntity
  8
Hewi
  6
STANDARD
 62
     7
100
AcDbLine
 10
815.5454159943557
 20
723.13594168285
 30
0.0
 11
819.4692865143831
 21
727.2059217494454
 31
0.0
  0
LINE
  5
116C
330
1F
100
AcDbEntity
  8
Hewi
  6
STANDARD
 62
     7
100
AcDbLine
 10
789.504168699905
 20
799.9567513466252
 30
0.0
 11
793.3044431350134
 21
803.8985574824117
 31
0.0
  0
LINE
  5
116D
330
1F
100
AcDbEntity
  8
Hewi
  6
STANDARD
 62
     7
100
AcDbLine
 10
799.4802828456888
 20
715.1654998691309
 30
0.0
 11
801.9177236395707
 21
712.9639638082194
 31
0.0
  0
LINE
  5
116E
330
1F
100
AcDbEntity
  8
Hewi
  6
STANDARD
 62
     7
100
AcDbLine
 10
814.1461935538975
 20
804.7167510672787
 30
0.0
 11
815.1895139357868
 21
803.8985756645381
 31
0.0
  0
LINE
  5
116F
330
1F
100
AcDbEntity
  8
Hewi
  6
STANDARD
 62
     7
100
AcDbLine
 10
862.9792921745821
 20
695.4147286495192
 30
0.0
 11
863.7903735614163
 21
694.8680069112563
 31
0.0
  0
LINE
  5
1170
330
1F
100
AcDbEntity
  8
Hewi
  6
STANDARD
 62
     7
100
AcDbLine
 10
862.4371954118069
 20
913.1195011484388
 30
0.0
 11
862.9791106256837
 21
913.9376015742485
 31
0.0
  0
LINE
  5
1171
330
1F
100
AcDbEntity
  8
Hewi
  6
STANDARD
 62
     7
100
AcDbLine
 10
801.9177236395707
 20
712.9639638082194
 30
0.0
 11
808.7677791715705
 21
708.5680649582315
 31
0.0
  0
LINE
  5
1172
330
1F
100
AcDbEntity
  8
Hewi
  6
STANDARD
 62
     7
100
AcDbLine
 10
792.9486752717073
 20
723.135922909468
 30
0.0
 11
798.2353138313117
 21
720.4793721258275
 31
0.0
  0
LINE
  5
1173
330
1F
100
AcDbEntity
  8
Hewi
  6
STANDARD
 62
     7
100
AcDbLine
 10
809.5142336124624
 20
807.0441703147482
 30
0.0
 11
814.1461935538975
 21
804.7167510672787
 31
0.0
  0
LINE
  5
1174
330
1F
100
AcDbEntity
  8
Hewi
  6
STANDARD
 62
     7
100
AcDbLine
 10
819.4692865143831
 20
727.2059217494454
 30
0.0
 11
821.557142473887
 21
732.1985992652887
 31
0.0
  0
LINE
  5
1175
330
1F
100
AcDbEntity
  8
Hewi
  6
STANDARD
 62
     7
100
AcDbLine
 10
787.4820779905605
 20
795.121392000654
 30
0.0
 11
789.504168699905
 21
799.9567513466252
 31
0.0
  0
LINE
  5
1176
330
1F
100
AcDbEntity
  8
Hewi
  6
STANDARD
 62
     7
100
AcDbLine
 10
808.7677791715705
 20
708.5680649582315
 30
0.0
 11
817.6949365149626
 21
705.1949644647602
 31
0.0
  0
LINE
  5
1177
330
1F
100
AcDbEntity
  8
Hewi
  6
STANDARD
 62
     7
100
AcDbLine
 10
820.8997188532418
 20
730.626485681991
 30
0.0
 11
825.7990886773475
 21
728.7752934633264
 31
0.0
  0
LINE
  5
1178
330
1F
100
AcDbEntity
  8
Hewi
  6
STANDARD
 62
     7
100
AcDbLine
 10
786.936883082043
 20
793.1658251414552
 30
0.0
 11
787.4820779905605
 21
795.121392000654
 31
0.0
  0
LINE
  5
1179
330
1F
100
AcDbEntity
  8
Hewi
  6
STANDARD
 62
     7
100
AcDbLine
 10
817.6949365149626
 20
705.1949644647602
 30
0.0
 11
828.0909038528548
 21
703.0744591857179
 31
0.0
  0
LINE
  5
117A
330
1F
100
AcDbEntity
  8
Hewi
  6
STANDARD
 62
     7
100
AcDbLine
 10
863.7903735614163
 20
694.8680069112563
 30
0.0
 11
864.7470235010391
 21
694.6762047275258
 31
0.0
  0
LINE
  5
117B
330
1F
100
AcDbEntity
  8
Hewi
  6
STANDARD
 62
     7
100
AcDbLine
 10
825.7990886773475
 20
728.7752934633264
 30
0.0
 11
832.2859061828184
 21
727.4522092529674
 31
0.0
  0
LINE
  5
117C
330
1F
100
AcDbEntity
  8
Hewi
  6
STANDARD
 62
     7
100
AcDbLine
 10
862.2468428199463
 20
912.1545351699809
 30
0.0
 11
862.4371954118069
 21
913.1195011484388
 31
0.0
  0
LINE
  5
117D
330
1F
100
AcDbEntity
  8
Hewi
  6
STANDARD
 62
     7
100
AcDbLine
 10
798.2353138313117
 20
720.4793721258275
 30
0.0
 11
804.2470486066774
 21
719.5566781457696
 31
0.0
  0
LINE
  5
117E
330
1F
100
AcDbEntity
  8
Hewi
  6
STANDARD
 62
     7
100
AcDbLine
 10
804.2469752504068
 20
807.8525765832392
 30
0.0
 11
809.5142336124624
 21
807.0441703147482
 31
0.0
  0
LINE
  5
117F
330
1F
100
AcDbEntity
  8
Hewi
  6
STANDARD
 62
     7
100
AcDbLine
 10
829.0723492363456
 20
702.9890107823533
 30
0.0
 11
838.9668352429165
 21
702.3475395105087
 31
0.0
  0
LINE
  5
1180
330
1F
100
AcDbEntity
  8
Hewi
  6
STANDARD
 62
     7
100
AcDbLine
 10
832.1284354529453
 20
727.4844051670624
 30
0.0
 11
839.5272700800232
 21
727.0046749858924
 31
0.0
  0
LINE
  5
1181
330
1F
100
AcDbEntity
  8
Hewi
  6
STANDARD
 62
     7
100
AcDbLine
 10
804.2470486066774
 20
719.5566781457696
 30
0.0
 11
810.2587818488856
 21
720.47938211493
 31
0.0
  0
LINE
  5
1182
330
1F
100
AcDbEntity
  8
Hewi
  6
STANDARD
 62
     7
100
AcDbLine
 10
798.9797182316067
 20
807.0441615626684
 30
0.0
 11
804.2469752504068
 21
807.8525765832392
 31
0.0
  0
LINE
  5
1183
330
1F
100
AcDbEntity
  8
Hewi
  6
STANDARD
 62
     7
100
AcDbLine
 10
863.7901911042101
 20
914.4841720723134
 30
0.0
 11
864.7468407250064
 21
914.6761284335045
 31
0.0
  0
LINE
  5
1184
330
1F
100
AcDbEntity
  8
Hewi
  6
STANDARD
 62
     7
100
AcDbLine
 10
862.2470214061646
 20
697.197717543102
 30
0.0
 11
862.4373756014131
 21
696.2327518809355
 31
0.0
  0
LINE
  5
1185
330
1F
100
AcDbEntity
  8
Hewi
  6
STANDARD
 62
     7
100
AcDbLine
 10
821.0118936643773
 20
795.1214198572394
 30
0.0
 11
821.5570918222656
 21
793.1658539039395
 31
0.0
  0
LINE
  5
1186
330
1F
100
AcDbEntity
  8
Hewi
  6
STANDARD
 62
     7
100
AcDbLine
 10
786.9369337336645
 20
732.1985705028043
 30
0.0
 11
789.024797989003
 21
727.2058964561511
 31
0.0
  0
LINE
  5
1187
330
1F
100
AcDbEntity
  8
Hewi
  6
STANDARD
 62
     7
100
AcDbLine
 10
818.9897949205981
 20
799.9567758432962
 30
0.0
 11
821.0118936643773
 21
795.1214198572394
 31
0.0
  0
LINE
  5
1188
330
1F
100
AcDbEntity
  8
Hewi
  6
STANDARD
 62
     7
100
AcDbLine
 10
794.0468507790624
 20
722.5840134214418
 30
0.0
 11
794.8929522652497
 21
720.6188346810233
 31
0.0
  0
LINE
  5
1189
330
1F
100
AcDbEntity
  8
Hewi
  6
STANDARD
 62
     7
100
AcDbLine
 10
810.2587818488856
 20
720.47938211493
 30
0.0
 11
815.5454159943557
 21
723.13594168285
 31
0.0
  0
LINE
  5
118A
330
1F
100
AcDbEntity
  8
Hewi
  6
STANDARD
 62
     7
100
AcDbLine
 10
794.3477621574199
 20
804.7167346187332
 30
0.0
 11
798.9797182316067
 21
807.0441615626684
 31
0.0
  0
LINE
  5
118B
330
1F
100
AcDbEntity
  8
Hewi
  6
STANDARD
 62
     7
100
AcDbLine
 10
862.4373756014131
 20
696.2327518809355
 30
0.0
 11
862.9792921745821
 21
695.4147286495192
 31
0.0
  0
LINE
  5
118C
330
1F
100
AcDbEntity
  8
Hewi
  6
STANDARD
 62
     7
100
AcDbLine
 10
862.9791106256837
 20
913.9376015742485
 30
0.0
 11
863.7901911042101
 21
914.4841720723134
 31
0.0
  0
LINE
  5
118D
330
1F
100
AcDbEntity
  8
Hewi
  6
STANDARD
 62
     7
100
AcDbLine
 10
793.3044431350134
 20
803.8985574824117
 30
0.0
 11
794.3477621574199
 21
804.7167346187332
 31
0.0
  0
LINE
  5
118E
330
1F
100
AcDbEntity
  8
Hewi
  6
STANDARD
 62
     7
100
AcDbLine
 10
794.8929522652497
 20
720.6188346810233
 30
0.0
 11
799.4802828456888
 21
715.1654998691309
 31
0.0
  0
LINE
  5
118F
330
1F
100
AcDbEntity
  8
Hewi
  6
STANDARD
 62
     7
100
AcDbLine
 10
789.024797989003
 20
727.2058964561511
 30
0.0
 11
792.9486752717073
 21
723.135922909468
 31
0.0
  0
LINE
  5
1190
330
1F
100
AcDbEntity
  8
Hewi
  6
STANDARD
 62
     7
100
AcDbLine
 10
815.1895139357868
 20
803.8985756645381
 30
0.0
 11
818.9897949205981
 21
799.9567758432962
 31
0.0
  0
LINE
  5
1191
330
1F
100
AcDbEntity
  8
Hewi
  6
STANDARD
 62
     7
100
AcDbLine
 10
821.557142473887
 20
732.1985992652887
 30
0.0
 11
821.5570918222656
 21
793.1658539039395
 31
0.0
  0
LINE
  5
1192
330
1F
100
AcDbEntity
  8
Hewi
  6
STANDARD
 62
     7
100
AcDbLine
 10
786.9369337336645
 20
732.1985705028043
 30
0.0
 11
786.936883082043
 21
793.1658251414552
 31
0.0
  0
LINE
  5
1193
330
1F
100
AcDbEntity
  8
Hewi
  6
STANDARD
 62
     7
100
AcDbLine
 10
879.2470692774013
 20
694.6762167741707
 30
0.0
 11
879.2468865013686
 21
914.6761404801495
 31
0.0
  0
LINE
  5
1194
330
1F
100
AcDbEntity
  8
Hewi
  6
STANDARD
 62
     7
100
AcDbLine
 10
862.2470214061646
 20
697.197717543102
 30
0.0
 11
862.2468428199463
 21
912.1545351699809
 31
0.0
  0
LINE
  5
1195
330
1F
100
AcDbEntity
  8
Hewi
  6
STANDARD
 62
     7
100
AcDbLine
 10
828.0909038528548
 20
703.0744591857179
 30
0.0
 11
829.0723492363456
 21
702.9890107823533
 31
0.0
  0
LINE
  5
1196
330
1F
100
AcDbEntity
  8
Hewi
  6
STANDARD
 62
     7
100
AcDbLine
 10
838.9668352429165
 20
702.3475395105087
 30
0.0
 11
862.2470171276741
 21
702.3475588516941
 31
0.0
  0
LINE
  5
1197
330
1F
100
AcDbEntity
  8
Hewi
  6
STANDARD
 62
     7
100
AcDbLine
 10
839.5272700800232
 20
727.0046749858924
 30
0.0
 11
862.2469966425155
 21
727.0046938614512
 31
0.0
  0
LINE
  5
119A
330
1F
100
AcDbEntity
  8
Hewi
  6
STANDARD
 62
     7
100
AcDbLine
 10
864.7470235010391
 20
694.6762047275258
 30
0.0
 11
879.2470692774013
 21
694.6762167741707
 31
0.0
  0
LINE
  5
119B
330
1F
100
AcDbEntity
  8
Hewi
  6
STANDARD
 62
     7
100
AcDbLine
 10
864.7468407250064
 20
914.6761284335045
 30
0.0
 11
879.2468865013686
 21
914.6761404801495
 31
0.0
  0
ARC
  5
11CC
330
1F
100
AcDbEntity
  8
Hewi
  6
STANDARD
 62
     7
100
AcDbCircle
 10
1152.093715951822
 20
791.1786460880838
 30
0.0
 40
15.95770054080531
100
AcDbArc
 50
58.90217305379099
 51
119.335398834535
  0
ARC
  5
11CD
330
1F
100
AcDbEntity
  8
Hewi
  6
STANDARD
 62
     7
100
AcDbCircle
 10
1153.412044298269
 20
788.4497677411517
 30
0.0
 40
16.24244506266071
100
AcDbArc
 50
329.9944378988261
 51
29.76258826548943
  0
ARC
  5
11CE
330
1F
100
AcDbEntity
  8
Hewi
  6
STANDARD
 62
     7
100
AcDbCircle
 10
1153.68973542423
 20
788.3588936050402
 30
0.0
 40
15.95663972664548
100
AcDbArc
 50
299.662499550807
 51
0.0999215179604341
  0
ARC
  5
11CF
330
1F
100
AcDbEntity
  8
Hewi
  6
STANDARD
 62
     7
100
AcDbCircle
 10
1151.998039236522
 20
790.8436109115277
 30
0.0
 40
16.2942585794091
100
AcDbArc
 50
29.3426396286677
 51
88.9016882657035
  0
ARC
  5
11D0
330
1F
100
AcDbEntity
  8
Hewi
  6
STANDARD
 62
     7
100
AcDbCircle
 10
1018.896453300034
 20
713.9583117695925
 30
0.0
 40
20.00001006171469
100
AcDbArc
 50
179.99995839887
 51
345.0001159409934
  0
LINE
  5
11D6
330
1F
100
AcDbEntity
  8
Hewi
  6
STANDARD
 62
     7
100
AcDbLine
 10
1038.214990019328
 20
708.7819673554348
 30
0.0
 11
1038.463096363747
 21
710.6665805986716
 31
0.0
  0
LINE
  5
11D7
330
1F
100
AcDbEntity
  8
Hewi
  6
STANDARD
 62
     7
100
AcDbLine
 10
1012.741191279817
 20
724.8377018070316
 30
0.0
 11
1048.407373245564
 21
745.0167170342216
 31
0.0
  0
LINE
  5
11D8
330
1F
100
AcDbEntity
  8
Hewi
  6
STANDARD
 62
     7
100
AcDbLine
 10
1063.218033421842
 20
718.8389034111812
 30
0.0
 11
1161.586517457632
 21
774.4932820107796
 31
0.0
  0
LINE
  5
11D9
330
1F
100
AcDbEntity
  8
Hewi
  6
STANDARD
 62
     7
100
AcDbLine
 10
1045.907216986412
 20
749.4356602695924
 30
0.0
 11
1144.275701022202
 21
805.0900388691907
 31
0.0
  0
LINE
  5
11DA
330
1F
100
AcDbEntity
  8
Hewi
  6
STANDARD
 62
     7
100
AcDbLine
 10
1025.051695196944
 20
703.0788314193618
 30
0.0
 11
1060.718029750582
 21
723.2578466466785
 31
0.0
  0
LINE
  5
11DB
330
1F
100
AcDbEntity
  8
Hewi
  6
STANDARD
 62
     7
100
AcDbLine
 10
1166.24119090166
 20
798.7584225966426
 30
0.0
 11
1167.472424398981
 21
796.5823677113481
 31
0.0
  0
LINE
  5
11DC
330
1F
100
AcDbEntity
  8
Hewi
  6
STANDARD
 62
     7
100
AcDbLine
 10
1045.907216986412
 20
749.4356602695924
 30
0.0
 11
1063.218033421842
 21
718.8389034111812
 31
0.0
  0
LINE
  5
11DD
330
1F
100
AcDbEntity
  8
Hewi
  6
STANDARD
 62
     7
100
AcDbLine
 10
1038.896421905567
 20
739.6356971696262
 30
0.0
 11
1038.896293694295
 21
893.9582832291433
 31
0.0
  0
LINE
  5
11DE
330
1F
100
AcDbEntity
  8
Hewi
  6
STANDARD
 62
     7
100
AcDbLine
 10
998.8964432383248
 20
713.9583262911334
 30
0.0
 11
998.8963040793146
 21
881.4582499971303
 31
0.0
  0
LINE
  5
11E4
330
1F
100
AcDbEntity
  8
Hewi
  6
IMPORT
 62
     7
100
AcDbLine
 10
1038.89642088018
 20
739.6356629928763
 30
0.0
 11
1038.896292668867
 21
893.9583012639076
 31
0.0
  0
ARC
  5
11E7
330
1F
100
AcDbEntity
  8
Hewi
  6
IMPORT
 62
     7
100
AcDbCircle
 10
1018.896452212938
 20
713.9583046479761
 30
0.0
 40
12.50000999999999
100
AcDbArc
 50
240.5000996013818
 51
299.5788391270297
  0
LINE
  5
11E8
330
1F
100
AcDbEntity
  8
Hewi
  6
IMPORT
 62
     7
100
AcDbLine
 10
998.8964306349073
 20
727.894288031954
 30
0.0
 11
998.8963030538862
 21
881.4582680318945
 31
0.0
  0
ARC
  5
11EE
330
1F
100
AcDbEntity
  8
Hewi
  6
Continuous
100
AcDbCircle
 10
-1018.896452212938
 20
713.9583046479761
 30
0.0
 40
12.6
210
0.0
220
0.0
230
-1.0
100
AcDbArc
 50
233.2765924875951
 51
355.1568293986535
  0
ARC
  5
11EF
330
1F
100
AcDbEntity
  8
Hewi
100
AcDbCircle
 10
1018.896452212938
 20
713.9583046479761
 30
0.0
 40
12.59999999999987
100
AcDbArc
 50
112.2745599358671
 51
306.7234075124032
  0
LINE
  5
11F0
330
1F
100
AcDbEntity
  8
Hewi
100
AcDbLine
 10
1035.896432290341
 20
737.9383460360477
 30
0.0
 11
1035.896311421831
 21
883.4227240018369
 31
0.0
  0
LINE
  5
11F1
330
1F
100
AcDbEntity
  8
Hewi
100
AcDbLine
 10
1001.896472132747
 20
714.054820524386
 30
0.0
 11
1001.896311421843
 21
883.4226957546295
 31
0.0
  0
ARC
  5
11F2
330
1F
100
AcDbEntity
  8
Hewi
  6
IMPORT
 62
     7
100
AcDbCircle
 10
1018.896452212938
 20
713.9583046479761
 30
0.0
 40
14.49997999999999
100
AcDbArc
 50
89.04943219860177
 51
329.9501623693487
  0
LINE
  5
11F3
330
1F
100
AcDbEntity
  8
Hewi
  6
IMPORT
 62
     7
100
AcDbLine
 10
1002.500735945921
 20
709.4650610264082
 30
0.0
 11
1001.896472132747
 21
714.054820524386
 31
0.0
  0
ARC
  5
11F5
330
1F
100
AcDbEntity
  8
Hewi
  6
IMPORT
 62
     7
100
AcDbCircle
 10
1018.896462939336
 20
713.8582286124659
 30
0.0
 40
16.97409999999999
100
AcDbArc
 50
194.9998156013713
 51
342.5058072247653
  0
LINE
  5
11FD
330
1F
100
AcDbEntity
  8
Hewi
  6
STANDARD
 62
     7
100
AcDbLine
 10
998.8965280103554
 20
713.9583443259689
 30
0.0
 11
998.8963888513453
 21
881.4582680319658
 31
0.0
  0
LINE
  5
11FE
330
1F
100
AcDbEntity
  8
Hewi
  6
STANDARD
 62
     7
100
AcDbLine
 10
1038.896506677598
 20
739.6357152044617
 30
0.0
 11
1038.896378466326
 21
893.9583012639788
 31
0.0
  0
LINE
  5
11FF
330
1F
100
AcDbEntity
  8
Hewi
  6
STANDARD
 62
     7
100
AcDbLine
 10
1038.215074791359
 20
708.7819853902703
 30
0.0
 11
1038.463181135778
 21
710.6665986335073
 31
0.0
  0
ARC
  5
1206
330
1F
100
AcDbEntity
  8
Hewi
  6
IMPORT
 62
     7
100
AcDbCircle
 10
1018.896357357714
 20
894.0584326827186
 30
0.0
 40
20.0
100
AcDbArc
 50
359.9999086013393
 51
180.0001866013776
  0
ARC
  5
1209
330
1F
100
AcDbEntity
  8
Hewi
  6
IMPORT
 62
     7
100
AcDbCircle
 10
1018.896366714499
 20
894.0583887182482
 30
0.0
 40
16.97409999999999
100
AcDbArc
 50
14.99981560137127
 51
165.0002796013467
  0
LINE
  5
120A
330
1F
100
AcDbEntity
  8
Hewi
  6
IMPORT
 62
     7
100
AcDbLine
 10
1001.896357521099
 20
893.8617685591133
 30
0.0
 11
1002.500623707923
 21
898.4515290611383
 31
0.0
  0
LINE
  5
120B
330
1F
100
AcDbEntity
  8
Hewi
  6
IMPORT
 62
     7
100
AcDbLine
 10
1035.292093707913
 20
898.4515563043059
 30
0.0
 11
1035.896357521088
 21
893.861796806328
 31
0.0
  0
CIRCLE
  5
120C
330
1F
100
AcDbEntity
  8
Hewi
  6
IMPORT
 62
     7
100
AcDbCircle
 10
1018.896377440896
 20
893.9583126827379
 30
0.0
 40
14.49997999999999
  0
CIRCLE
  5
120D
330
1F
100
AcDbEntity
  8
Hewi
100
AcDbCircle
 10
1018.896377440896
 20
893.9583126827379
 30
0.0
 40
12.59999999999987
  0
LINE
  5
1214
330
1F
100
AcDbEntity
  8
Hewi
100
AcDbLine
 10
998.8963990189418
 20
880.0222960667426
 30
0.0
 11
998.8963874409035
 21
893.9582960667321
 31
0.0
  0
LINE
  5
1219
330
1F
100
AcDbEntity
  8
Hewi
100
AcDbLine
 10
1035.896357521088
 20
893.861796806328
 30
0.0
 11
1035.896311421831
 21
883.4227240018369
 31
0.0
  0
LINE
  5
121A
330
1F
100
AcDbEntity
  8
Hewi
100
AcDbLine
 10
1001.896357521099
 20
893.8617685591133
 30
0.0
 11
1001.896311421843
 21
883.4226957546295
 31
0.0
  0
LINE
  5
1416
330
1F
100
AcDbEntity
  8
Hewi
100
AcDbLine
 10
1050.622620721663
 20
507.0966252232314
 30
0.0
 11
1053.437255206253
 21
509.1980679913191
 31
0.0
  0
LINE
  5
1417
330
1F
100
AcDbEntity
  8
Hewi
100
AcDbLine
 10
1161.74355616904
 20
477.2425152720346
 30
0.0
 11
1164.209680127649
 21
479.0837191031187
 31
0.0
  0
LINE
  5
1418
330
1F
100
AcDbEntity
  8
Hewi
100
AcDbLine
 10
1012.073429183174
 20
503.7294362141233
 30
0.0
 11
1018.470379197372
 21
494.2499951175761
 31
0.0
  0
LINE
  5
1419
330
1F
100
AcDbEntity
  8
Hewi
100
AcDbLine
 10
1034.635828468822
 20
514.7569055205017
 30
0.0
 11
1037.826140013725
 21
510.0292775557779
 31
0.0
  0
LINE
  5
141A
330
1F
100
AcDbEntity
  8
Hewi
100
AcDbLine
 10
1048.447654970971
 20
480.5652513459472
 30
0.0
 11
1050.76913038964
 21
476.6525182892771
 31
0.0
  0
LINE
  5
141B
330
1F
100
AcDbEntity
  8
Hewi
100
AcDbLine
 10
1166.340397120155
 20
503.5326497063355
 30
0.0
 11
1168.033362137303
 21
500.6791812642178
 31
0.0
  0
LINE
  5
141C
330
1F
100
AcDbEntity
  8
Hewi
100
AcDbLine
 10
1158.531429824278
 20
475.6286667782028
 30
0.0
 11
1161.74355616904
 21
477.2425152720346
 31
0.0
  0
LINE
  5
141D
330
1F
100
AcDbEntity
  8
Hewi
100
AcDbLine
 10
1168.033362137303
 20
500.6791812642178
 30
0.0
 11
1168.987648598371
 21
498.5209026380934
 31
0.0
  0
LINE
  5
141E
330
1F
100
AcDbEntity
  8
Hewi
100
AcDbLine
 10
1008.027552078444
 20
514.7848069983184
 30
0.0
 11
1012.073429183174
 21
503.7294362141233
 31
0.0
  0
LINE
  5
141F
330
1F
100
AcDbEntity
  8
Hewi
100
AcDbLine
 10
1032.514089032862
 20
520.5547095438945
 30
0.0
 11
1034.635828468822
 21
514.7569055205017
 31
0.0
  0
LINE
  5
1420
330
1F
100
AcDbEntity
  8
Hewi
100
AcDbLine
 10
1046.919177684525
 20
485.8445622098785
 30
0.0
 11
1048.447654970971
 21
480.5652513459472
 31
0.0
  0
LINE
  5
1421
330
1F
100
AcDbEntity
  8
Hewi
100
AcDbLine
 10
1168.987648598371
 20
498.5209026380934
 30
0.0
 11
1169.809641924169
 21
495.6814715583095
 31
0.0
  0
LINE
  5
1422
330
1F
100
AcDbEntity
  8
Hewi
100
AcDbLine
 10
1154.977200555099
 20
475.0663774483943
 30
0.0
 11
1158.531429824278
 21
475.6286667782028
 31
0.0
  0
LINE
  5
1423
330
1F
100
AcDbEntity
  8
Hewi
100
AcDbLine
 10
1006.693161695866
 20
525.9536291318977
 30
0.0
 11
1008.027552078444
 21
514.7848069983184
 31
0.0
  0
LINE
  5
1424
330
1F
100
AcDbEntity
  8
Hewi
100
AcDbLine
 10
1031.685225846625
 20
527.4930328298863
 30
0.0
 11
1032.514089032862
 21
520.5547095438945
 31
0.0
  0
LINE
  5
1425
330
1F
100
AcDbEntity
  8
Hewi
100
AcDbLine
 10
1169.809641924169
 20
495.6814715583095
 30
0.0
 11
1170.10597029288
 21
492.44950769317
 31
0.0
  0
LINE
  5
1426
330
1F
100
AcDbEntity
  8
Hewi
100
AcDbLine
 10
1046.36833040691
 20
491.8537780608302
 30
0.0
 11
1046.919177684525
 21
485.8445622098785
 31
0.0
  0
LINE
  5
1427
330
1F
100
AcDbEntity
  8
Hewi
100
AcDbLine
 10
1018.896191706986
 20
566.8223221315225
 30
0.0
 11
1018.996136774902
 21
566.8228562721743
 31
0.0
  0
LINE
  5
1428
330
1F
100
AcDbEntity
  8
Hewi
100
AcDbLine
 10
1025.422695145551
 20
549.7535409326449
 30
0.0
 11
1028.723628970193
 21
549.7694891096324
 31
0.0
  0
LINE
  5
1429
330
1F
100
AcDbEntity
  8
Hewi
100
AcDbLine
 10
1009.573543597614
 20
549.6772338198503
 30
0.0
 11
1012.923305547066
 21
549.6934109192402
 31
0.0
  0
LINE
  5
142A
330
1F
100
AcDbEntity
  8
Hewi
100
AcDbLine
 10
1025.233638749828
 20
549.7526252482329
 30
0.0
 11
1028.58340069928
 21
549.7688023476229
 31
0.0
  0
LINE
  5
142B
330
1F
100
AcDbEntity
  8
Hewi
100
AcDbLine
 10
1009.968593644857
 20
549.6791414966909
 30
0.0
 11
1013.588588747528
 21
549.696615817661
 31
0.0
  0
LINE
  5
142C
330
1F
100
AcDbEntity
  8
Hewi
100
AcDbLine
 10
1036.387799386116
 20
566.8065438168781
 30
0.0
 11
1039.566052547203
 21
566.82188154038
 31
0.0
  0
LINE
  5
142D
330
1F
100
AcDbEntity
  8
Hewi
100
AcDbLine
 10
1004.925549756087
 20
566.6550741965822
 30
0.0
 11
1008.103802917174
 21
566.6704119200841
 31
0.0
  0
LINE
  5
142E
330
1F
100
AcDbEntity
  8
Hewi
100
AcDbLine
 10
1022.327602384475
 20
549.7386610419044
 30
0.0
 11
1026.851375559705
 21
549.7604848686165
 31
0.0
  0
LINE
  5
142F
330
1F
100
AcDbEntity
  8
Hewi
100
AcDbLine
 10
1030.786769831093
 20
549.7794090365814
 30
0.0
 11
1031.577785452924
 21
549.7832243910231
 31
0.0
  0
LINE
  5
1430
330
1F
100
AcDbEntity
  8
Hewi
100
AcDbLine
 10
1053.437255206253
 20
509.1980679913191
 30
0.0
 11
1056.443236639521
 21
509.2125663382993
 31
0.0
  0
LINE
  5
1431
330
1F
100
AcDbEntity
  8
Hewi
100
AcDbLine
 10
1151.804564383164
 20
509.6716299395318
 30
0.0
 11
1154.810545816433
 21
509.6861282865119
 31
0.0
  0
LINE
  5
1432
330
1F
100
AcDbEntity
  8
Hewi
100
AcDbLine
 10
1151.971219121831
 20
475.0518791014142
 30
0.0
 11
1154.977200555099
 21
475.0663774483943
 31
0.0
  0
LINE
  5
1433
330
1F
100
AcDbEntity
  8
Hewi
100
AcDbLine
 10
1004.827755042349
 20
549.6544179873986
 30
0.0
 11
1005.444973057455
 21
549.6573939640509
 31
0.0
  0
LINE
  5
1434
330
1F
100
AcDbEntity
  8
Hewi
100
AcDbLine
 10
1039.210231711495
 20
549.8199281197582
 30
0.0
 11
1039.827449726601
 21
549.8229040964103
 31
0.0
  0
LINE
  5
1435
330
1F
100
AcDbEntity
  8
Hewi
100
AcDbLine
 10
1022.245801151645
 20
566.7384778684811
 30
0.0
 11
1027.422040144588
 21
566.7634302890198
 31
0.0
  0
LINE
  5
1436
330
1F
100
AcDbEntity
  8
Hewi
100
AcDbLine
 10
1002.245953819534
 20
566.6421782936149
 30
0.0
 11
1002.315851119895
 21
552.1423614571493
 31
0.0
  0
LINE
  5
1437
330
1F
100
AcDbEntity
  8
Hewi
100
AcDbLine
 10
1042.245495895865
 20
566.8347774432205
 30
0.0
 11
1042.315393196225
 21
552.3349606067551
 31
0.0
  0
LINE
  5
1438
330
1F
100
AcDbEntity
  8
Hewi
100
AcDbLine
 10
1017.069409570811
 20
566.7135254478155
 30
0.0
 11
1022.245801151645
 21
566.7384778684811
 31
0.0
  0
LINE
  5
1439
330
1F
100
AcDbEntity
  8
Hewi
100
AcDbLine
 10
1031.577785452924
 20
549.7832243910231
 30
0.0
 11
1031.685225846625
 21
527.4930328298863
 31
0.0
  0
LINE
  5
143A
330
1F
100
AcDbEntity
  8
Hewi
100
AcDbLine
 10
1007.295558987538
 20
549.6663218931201
 30
0.0
 11
1009.433315326637
 21
549.6766233517861
 31
0.0
  0
LINE
  5
143B
330
1F
100
AcDbEntity
  8
Hewi
100
AcDbLine
 10
1028.723628970193
 20
549.7694891096324
 30
0.0
 11
1030.861385309292
 21
549.7797905682984
 31
0.0
  0
LINE
  5
143C
330
1F
100
AcDbEntity
  8
Hewi
100
AcDbLine
 10
1016.80056383238
 20
549.7120298631243
 30
0.0
 11
1021.356380464514
 21
549.7340063043488
 31
0.0
  0
LINE
  5
143D
330
1F
100
AcDbEntity
  8
Hewi
100
AcDbLine
 10
1026.851375559705
 20
549.7604848686165
 30
0.0
 11
1031.066768609249
 21
549.7807825602201
 31
0.0
  0
LINE
  5
143E
330
1F
100
AcDbEntity
  8
Hewi
100
AcDbLine
 10
1013.588588747528
 20
549.696615817661
 30
0.0
 11
1017.803981797073
 21
549.7169135092645
 31
0.0
  0
LINE
  5
143F
330
1F
100
AcDbEntity
  8
Hewi
100
AcDbLine
 10
1041.56403837906
 20
566.8314962374169
 30
0.0
 11
1042.245495895865
 21
566.8347774432205
 31
0.0
  0
LINE
  5
1440
330
1F
100
AcDbEntity
  8
Hewi
100
AcDbLine
 10
1002.245953819534
 20
566.6421782936149
 30
0.0
 11
1002.92741133634
 21
566.6454594994186
 31
0.0
  0
LINE
  5
1441
330
1F
100
AcDbEntity
  8
Hewi
100
AcDbLine
 10
1006.579006256016
 20
549.6628880702686
 30
0.0
 11
1006.693161695866
 21
525.9536291318977
 31
0.0
  0
LINE
  5
1442
330
1F
100
AcDbEntity
  8
Hewi
100
AcDbLine
 10
1053.437255206253
 20
509.1980679913191
 30
0.0
 11
1151.804564383164
 21
509.6716299395318
 31
0.0
  0
LINE
  5
1443
330
1F
100
AcDbEntity
  8
Hewi
100
AcDbLine
 10
1053.60390994492
 20
474.5783171532015
 30
0.0
 11
1151.971219121831
 21
475.0518791014142
 31
0.0
  0
LINE
  5
1444
330
1F
100
AcDbEntity
  8
Hewi
100
AcDbLine
 10
1028.58340069928
 20
549.7688023476229
 30
0.0
 11
1030.786769831093
 21
549.7794090365814
 31
0.0
  0
LINE
  5
1445
330
1F
100
AcDbEntity
  8
Hewi
100
AcDbLine
 10
1007.3701744658
 20
549.6666271308919
 30
0.0
 11
1009.573543597614
 21
549.6772338198503
 31
0.0
  0
LINE
  5
1446
330
1F
100
AcDbEntity
  8
Hewi
100
AcDbLine
 10
1039.566052547203
 20
566.82188154038
 30
0.0
 11
1041.56403837906
 21
566.8314962374169
 31
0.0
  0
LINE
  5
1447
330
1F
100
AcDbEntity
  8
Hewi
100
AcDbLine
 10
1002.92741133634
 20
566.6454594994186
 30
0.0
 11
1004.925549756087
 21
566.6550741965822
 31
0.0
  0
LINE
  5
1448
330
1F
100
AcDbEntity
  8
Hewi
100
AcDbLine
 10
1021.141536715401
 20
549.7329380106221
 30
0.0
 11
1025.233638749828
 21
549.7526252482329
 31
0.0
  0
LINE
  5
1449
330
1F
100
AcDbEntity
  8
Hewi
100
AcDbLine
 10
1012.923305547066
 20
549.6934109192402
 30
0.0
 11
1017.015407581492
 21
549.713098156851
 31
0.0
  0
LINE
  5
144A
330
1F
100
AcDbEntity
  8
Hewi
100
AcDbLine
 10
1012.245953779535
 20
566.6903280811113
 30
0.0
 11
1017.069409570811
 21
566.7135254478155
 31
0.0
  0
LINE
  5
144B
330
1F
100
AcDbEntity
  8
Hewi
100
AcDbLine
 10
1027.422040144588
 20
566.7634302890198
 30
0.0
 11
1032.245648523755
 21
566.7866276558507
 31
0.0
  0
LINE
  5
144C
330
1F
100
AcDbEntity
  8
Hewi
100
AcDbLine
 10
1009.433315326637
 20
549.6766233517861
 30
0.0
 11
1012.734249151342
 21
549.6924952348283
 31
0.0
  0
LINE
  5
144D
330
1F
100
AcDbEntity
  8
Hewi
100
AcDbLine
 10
1032.245648523755
 20
566.7866276558507
 30
0.0
 11
1036.387799386116
 21
566.8065438168781
 31
0.0
  0
LINE
  5
144E
330
1F
100
AcDbEntity
  8
Hewi
100
AcDbLine
 10
1008.103802917174
 20
566.6704119200841
 30
0.0
 11
1012.245953779535
 21
566.6903280811113
 31
0.0
  0
LINE
  5
144F
330
1F
100
AcDbEntity
  8
Hewi
100
AcDbLine
 10
1007.191036282904
 20
549.6657877486653
 30
0.0
 11
1009.968593644857
 21
549.6791414966909
 31
0.0
  0
LINE
  5
1450
330
1F
100
AcDbEntity
  8
Hewi
100
AcDbLine
 10
1034.686611124093
 20
549.7981805871181
 30
0.0
 11
1037.464168486047
 21
549.8115343351437
 31
0.0
  0
LINE
  5
1451
330
1F
100
AcDbEntity
  8
Hewi
100
AcDbLine
 10
1017.803981797073
 20
549.7169135092645
 30
0.0
 11
1022.327602384475
 21
549.7386610419044
 31
0.0
  0
LINE
  5
1452
330
1F
100
AcDbEntity
  8
Hewi
100
AcDbLine
 10
1005.444973057455
 20
549.6573939640509
 30
0.0
 11
1007.191036282904
 21
549.6657877486653
 31
0.0
  0
LINE
  5
1453
330
1F
100
AcDbEntity
  8
Hewi
100
AcDbLine
 10
1037.464168486047
 20
549.8115343351437
 30
0.0
 11
1039.210231711495
 21
549.8199281197582
 31
0.0
  0
LINE
  5
1454
330
1F
100
AcDbEntity
  8
Hewi
100
AcDbLine
 10
1031.066768609249
 20
549.7807825602201
 30
0.0
 11
1034.686611124093
 21
549.7981805871181
 31
0.0
  0
LINE
  5
1455
330
1F
100
AcDbEntity
  8
Hewi
100
AcDbLine
 10
1012.734249151342
 20
549.6924952348283
 30
0.0
 11
1016.80056383238
 21
549.7120298631243
 31
0.0
  0
LINE
  5
1456
330
1F
100
AcDbEntity
  8
Hewi
100
AcDbLine
 10
1021.356380464514
 20
549.7340063043488
 30
0.0
 11
1025.422695145551
 21
549.7535409326449
 31
0.0
  0
LINE
  5
1457
330
1F
100
AcDbEntity
  8
Hewi
100
AcDbLine
 10
1048.107995168319
 20
479.5519148821167
 30
0.0
 11
1049.046258104033
 21
479.5564170043994
 31
0.0
  0
LINE
  5
1458
330
1F
100
AcDbEntity
  8
Hewi
100
AcDbLine
 10
1053.60390994492
 20
474.5783171532015
 30
0.0
 11
1056.609891378252
 21
474.5927392062363
 31
0.0
  0
LINE
  5
1459
330
1F
100
AcDbEntity
  8
Hewi
100
AcDbLine
 10
1030.861385309292
 20
549.7797905682984
 30
0.0
 11
1031.577785452924
 21
549.7832243910231
 31
0.0
  0
LINE
  5
145A
330
1F
100
AcDbEntity
  8
Hewi
100
AcDbLine
 10
1006.579006256016
 20
549.6628880702686
 30
0.0
 11
1007.295558987538
 21
549.6663218931201
 31
0.0
  0
LINE
  5
145B
330
1F
100
AcDbEntity
  8
Hewi
100
AcDbLine
 10
1006.579006256016
 20
549.6628880702686
 30
0.0
 11
1007.3701744658
 21
549.6666271308919
 31
0.0
  0
LINE
  5
145C
330
1F
100
AcDbEntity
  8
Hewi
100
AcDbLine
 10
1018.896191706986
 20
566.8223221315225
 30
0.0
 11
1018.896649553692
 21
566.7223770635435
 31
0.0
  0
LINE
  5
145D
330
1F
100
AcDbEntity
  8
Hewi
100
AcDbLine
 10
1018.896649553692
 20
566.7223770635435
 30
0.0
 11
1018.996594621671
 21
566.7228349102498
 31
0.0
  0
LINE
  5
145E
330
1F
100
AcDbEntity
  8
Hewi
100
AcDbLine
 10
1018.996136774902
 20
566.8228562721743
 30
0.0
 11
1018.996594621671
 21
566.7228349102498
 31
0.0
  0
LINE
  5
145F
330
1F
100
AcDbEntity
  8
Hewi
100
AcDbLine
 10
1046.36833040691
 20
491.8537780608302
 30
0.0
 11
1046.86133688494
 21
497.8679538854613
 31
0.0
  0
LINE
  5
1460
330
1F
100
AcDbEntity
  8
Hewi
100
AcDbLine
 10
1169.840775226372
 20
489.2147967794853
 30
0.0
 11
1170.10597029288
 21
492.44950769317
 31
0.0
  0
LINE
  5
1461
330
1F
100
AcDbEntity
  8
Hewi
100
AcDbLine
 10
1038.121879452293
 20
481.0132408141636
 30
0.0
 11
1048.107995168319
 21
479.5519148821167
 31
0.0
  0
LINE
  5
1462
330
1F
100
AcDbEntity
  8
Hewi
100
AcDbLine
 10
1045.737978878374
 20
505.0366846416306
 30
0.0
 11
1049.138247846457
 21
504.5390983552472
 31
0.0
  0
LINE
  5
1463
330
1F
100
AcDbEntity
  8
Hewi
100
AcDbLine
 10
1154.810545816433
 20
509.6861282865119
 30
0.0
 11
1158.370116567619
 21
509.1581008482968
 31
0.0
  0
LINE
  5
1464
330
1F
100
AcDbEntity
  8
Hewi
100
AcDbLine
 10
1046.86133688494
 20
497.8679538854613
 30
0.0
 11
1048.338841031763
 21
503.1617630963727
 31
0.0
  0
LINE
  5
1465
330
1F
100
AcDbEntity
  8
Hewi
100
AcDbLine
 10
1169.046099857464
 20
486.3675823741504
 30
0.0
 11
1169.840775226372
 21
489.2147967794853
 31
0.0
  0
LINE
  5
1466
330
1F
100
AcDbEntity
  8
Hewi
100
AcDbLine
 10
1168.112721531154
 20
484.2002232002611
 30
0.0
 11
1169.046099857464
 21
486.3675823741504
 31
0.0
  0
LINE
  5
1467
330
1F
100
AcDbEntity
  8
Hewi
100
AcDbLine
 10
1028.145831855543
 20
485.7021821110215
 30
0.0
 11
1038.121879452293
 21
481.0132408141636
 31
0.0
  0
LINE
  5
1468
330
1F
100
AcDbEntity
  8
Hewi
100
AcDbLine
 10
1040.986542696796
 20
507.2699570613236
 30
0.0
 11
1045.737978878374
 21
505.0366846416306
 31
0.0
  0
LINE
  5
1469
330
1F
100
AcDbEntity
  8
Hewi
100
AcDbLine
 10
1158.370116567619
 20
509.1581008482968
 30
0.0
 11
1161.597504357277
 21
507.575233046213
 31
0.0
  0
LINE
  5
146A
330
1F
100
AcDbEntity
  8
Hewi
100
AcDbLine
 10
1166.447227089084
 20
481.3305776515275
 30
0.0
 11
1168.112721531154
 21
484.2002232002611
 31
0.0
  0
LINE
  5
146B
330
1F
100
AcDbEntity
  8
Hewi
100
AcDbLine
 10
1048.338841031763
 20
503.1617630963727
 30
0.0
 11
1050.622620721663
 21
507.0966252232314
 31
0.0
  0
LINE
  5
146C
330
1F
100
AcDbEntity
  8
Hewi
100
AcDbLine
 10
1050.76913038964
 20
476.6525182892771
 30
0.0
 11
1053.60390994492
 21
474.5783171532015
 31
0.0
  0
LINE
  5
146D
330
1F
100
AcDbEntity
  8
Hewi
100
AcDbLine
 10
1161.597504357277
 20
507.575233046213
 30
0.0
 11
1164.081178962874
 21
505.7578370383613
 31
0.0
  0
LINE
  5
146E
330
1F
100
AcDbEntity
  8
Hewi
100
AcDbLine
 10
1036.898404965767
 20
510.8392896023983
 30
0.0
 11
1040.986542696796
 21
507.2699570613236
 31
0.0
  0
LINE
  5
146F
330
1F
100
AcDbEntity
  8
Hewi
100
AcDbLine
 10
1019.562604193876
 20
493.1963003462858
 30
0.0
 11
1028.145831855543
 21
485.7021821110215
 31
0.0
  0
LINE
  5
1470
330
1F
100
AcDbEntity
  8
Hewi
100
AcDbLine
 10
1018.470379197372
 20
494.2499951175761
 30
0.0
 11
1019.562604193876
 21
493.1963003462858
 31
0.0
  0
LINE
  5
1471
330
1F
100
AcDbEntity
  8
Hewi
100
AcDbLine
 10
1164.081178962874
 20
505.7578370383613
 30
0.0
 11
1166.340397120155
 21
503.5326497063355
 31
0.0
  0
LINE
  5
1472
330
1F
100
AcDbEntity
  8
Hewi
100
AcDbLine
 10
1164.209680127649
 20
479.0837191031187
 30
0.0
 11
1166.447227089084
 21
481.3305776515275
 31
0.0
  0
ARC
  5
1473
330
1F
100
AcDbEntity
  8
Hewi
100
AcDbCircle
 10
1004.815864017104
 20
552.1544317436705
 30
0.0
 40
2.500042035252132
100
AcDbArc
 50
180.2766270135085
 51
270.2725186695799
  0
ARC
  5
1474
330
1F
100
AcDbEntity
  8
Hewi
100
AcDbCircle
 10
1039.815377958939
 20
552.3229191873381
 30
0.0
 40
2.500044236096958
100
AcDbArc
 50
270.2766607151313
 51
0.2759651887708657
  0
LINE
  5
1520
330
1F
100
AcDbEntity
  8
Hewi
  6
STANDARD
 62
     7
100
AcDbLine
 10
1337.75746099174
 20
723.1363755368434
 30
0.0
 11
1333.833583709036
 21
727.2063490835265
 31
0.0
  0
LINE
  5
1521
330
1F
100
AcDbEntity
  8
Hewi
  6
STANDARD
 62
     7
100
AcDbLine
 10
1363.798580640631
 20
799.9572284706715
 30
0.0
 11
1359.998299655819
 21
803.8990282919133
 31
0.0
  0
LINE
  5
1522
330
1F
100
AcDbEntity
  8
Hewi
  6
STANDARD
 62
     7
100
AcDbLine
 10
1353.822607384078
 20
715.1659604169744
 30
0.0
 11
1351.385170248274
 21
712.9644203060122
 31
0.0
  0
LINE
  5
1523
330
1F
100
AcDbEntity
  8
Hewi
  6
STANDARD
 62
     7
100
AcDbLine
 10
1339.156547877452
 20
804.7171872461087
 30
0.0
 11
1338.113228855046
 21
803.8990101097871
 31
0.0
  0
LINE
  5
1524
330
1F
100
AcDbEntity
  8
Hewi
  6
STANDARD
 62
     7
100
AcDbLine
 10
1290.323630873171
 20
695.415083687381
 30
0.0
 11
1289.512550394771
 21
694.8683606014253
 31
0.0
  0
LINE
  5
1525
330
1F
100
AcDbEntity
  8
Hewi
  6
STANDARD
 62
     7
100
AcDbLine
 10
1290.865365897507
 20
913.1198570867486
 30
0.0
 11
1290.323449324274
 21
913.9379566121103
 31
0.0
  0
LINE
  5
1526
330
1F
100
AcDbEntity
  8
Hewi
  6
STANDARD
 62
     7
100
AcDbLine
 10
1351.385170248274
 20
712.9644203060122
 30
0.0
 11
1344.535122020513
 21
708.5685100739722
 31
0.0
  0
LINE
  5
1527
330
1F
100
AcDbEntity
  8
Hewi
  6
STANDARD
 62
     7
100
AcDbLine
 10
1360.354201714389
 20
723.1363943102253
 30
0.0
 11
1355.067567568918
 21
720.4798347423053
 31
0.0
  0
LINE
  5
1528
330
1F
100
AcDbEntity
  8
Hewi
  6
STANDARD
 62
     7
100
AcDbLine
 10
1343.788503951639
 20
807.0446141900436
 30
0.0
 11
1339.156547877452
 21
804.7171872461087
 31
0.0
  0
LINE
  5
1529
330
1F
100
AcDbEntity
  8
Hewi
  6
STANDARD
 62
     7
100
AcDbLine
 10
1333.833583709036
 20
727.2063490835265
 30
0.0
 11
1331.745719453697
 21
732.1990231301797
 31
0.0
  0
LINE
  5
152A
330
1F
100
AcDbEntity
  8
Hewi
  6
STANDARD
 62
     7
100
AcDbLine
 10
1365.82067938441
 20
795.1218724846147
 30
0.0
 11
1363.798580640631
 21
799.9572284706715
 31
0.0
  0
LINE
  5
152B
330
1F
100
AcDbEntity
  8
Hewi
  6
STANDARD
 62
     7
100
AcDbLine
 10
1344.535122020513
 20
708.5685100739722
 30
0.0
 11
1335.60797028188
 21
705.1953947471331
 31
0.0
  0
LINE
  5
152C
330
1F
100
AcDbEntity
  8
Hewi
  6
STANDARD
 62
     7
100
AcDbLine
 10
1332.403145686567
 20
730.6269106392598
 30
0.0
 11
1327.503778938411
 21
728.7757102798005
 31
0.0
  0
LINE
  5
152D
330
1F
100
AcDbEntity
  8
Hewi
  6
STANDARD
 62
     7
100
AcDbLine
 10
1366.365877542298
 20
793.166306531315
 30
0.0
 11
1365.82067938441
 21
795.1218724846147
 31
0.0
  0
LINE
  5
152E
330
1F
100
AcDbEntity
  8
Hewi
  6
STANDARD
 62
     7
100
AcDbLine
 10
1335.60797028188
 20
705.1953947471331
 30
0.0
 11
1325.212006467435
 21
703.0748721941455
 31
0.0
  0
LINE
  5
152F
330
1F
100
AcDbEntity
  8
Hewi
  6
STANDARD
 62
     7
100
AcDbLine
 10
1289.512550394771
 20
694.8683606014253
 30
0.0
 11
1288.555900773848
 21
694.6765568281248
 31
0.0
  0
LINE
  5
1530
330
1F
100
AcDbEntity
  8
Hewi
  6
STANDARD
 62
     7
100
AcDbLine
 10
1327.503778938411
 20
728.7757102798005
 30
0.0
 11
1321.016963631387
 21
727.4526152909418
 31
0.0
  0
LINE
  5
1531
330
1F
100
AcDbEntity
  8
Hewi
  6
STANDARD
 62
     7
100
AcDbLine
 10
1291.055720092755
 20
912.1548914245821
 30
0.0
 11
1290.865365897507
 21
913.1198570867486
 31
0.0
  0
LINE
  5
1532
330
1F
100
AcDbEntity
  8
Hewi
  6
STANDARD
 62
     7
100
AcDbLine
 10
1355.067567568918
 20
720.4798347423053
 30
0.0
 11
1349.05583432671
 21
719.557130773145
 31
0.0
  0
LINE
  5
1533
330
1F
100
AcDbEntity
  8
Hewi
  6
STANDARD
 62
     7
100
AcDbLine
 10
1349.055760970439
 20
807.8530292106146
 30
0.0
 11
1343.788503951639
 21
807.0446141900436
 31
0.0
  0
LINE
  5
1534
330
1F
100
AcDbEntity
  8
Hewi
  6
STANDARD
 62
     7
100
AcDbLine
 10
1324.230561225927
 20
702.9894221600105
 30
0.0
 11
1314.336076285239
 21
702.3479344474804
 31
0.0
  0
LINE
  5
1535
330
1F
100
AcDbEntity
  8
Hewi
  6
STANDARD
 62
     7
100
AcDbLine
 10
1321.174434307763
 20
727.4848114666903
 30
0.0
 11
1313.775600477815
 21
727.005068991611
 31
0.0
  0
LINE
  5
1536
330
1F
100
AcDbEntity
  8
Hewi
  6
STANDARD
 62
     7
100
AcDbLine
 10
1349.05583432671
 20
719.557130773145
 30
0.0
 11
1343.044099551345
 21
720.4798247532029
 31
0.0
  0
LINE
  5
1537
330
1F
100
AcDbEntity
  8
Hewi
  6
STANDARD
 62
     7
100
AcDbLine
 10
1354.323019332495
 20
807.0446229421236
 30
0.0
 11
1349.055760970439
 21
807.8530292106146
 31
0.0
  0
LINE
  5
1538
330
1F
100
AcDbEntity
  8
Hewi
  6
STANDARD
 62
     7
100
AcDbLine
 10
1289.512367937567
 20
914.4845257624824
 30
0.0
 11
1288.555717997817
 21
914.6764805341035
 31
0.0
  0
LINE
  5
1539
330
1F
100
AcDbEntity
  8
Hewi
  6
STANDARD
 62
     7
100
AcDbLine
 10
1291.055898678972
 20
697.1980737977031
 30
0.0
 11
1290.865546087111
 21
696.2331078192453
 31
0.0
  0
LINE
  5
153A
330
1F
100
AcDbEntity
  8
Hewi
  6
STANDARD
 62
     7
100
AcDbLine
 10
1332.290863710593
 20
795.1218446280294
 30
0.0
 11
1331.745668802076
 21
793.1662777688305
 31
0.0
  0
LINE
  5
153B
330
1F
100
AcDbEntity
  8
Hewi
  6
STANDARD
 62
     7
100
AcDbLine
 10
1366.36592819392
 20
732.1990518926642
 30
0.0
 11
1364.278072234416
 21
727.2063743768208
 31
0.0
  0
LINE
  5
153C
330
1F
100
AcDbEntity
  8
Hewi
  6
STANDARD
 62
     7
100
AcDbLine
 10
1334.312954419938
 20
799.9572039740005
 30
0.0
 11
1332.290863710593
 21
795.1218446280294
 31
0.0
  0
LINE
  5
153D
330
1F
100
AcDbEntity
  8
Hewi
  6
STANDARD
 62
     7
100
AcDbLine
 10
1359.256027124088
 20
722.5844829974707
 30
0.0
 11
1358.409928903245
 21
720.6193028511718
 31
0.0
  0
LINE
  5
153E
330
1F
100
AcDbEntity
  8
Hewi
  6
STANDARD
 62
     7
100
AcDbLine
 10
1343.044099551345
 20
720.4798247532029
 30
0.0
 11
1337.75746099174
 21
723.1363755368434
 31
0.0
  0
LINE
  5
153F
330
1F
100
AcDbEntity
  8
Hewi
  6
STANDARD
 62
     7
100
AcDbLine
 10
1358.95497927393
 20
804.7172036946539
 30
0.0
 11
1354.323019332495
 21
807.0446229421236
 31
0.0
  0
LINE
  5
1540
330
1F
100
AcDbEntity
  8
Hewi
  6
STANDARD
 62
     7
100
AcDbLine
 10
1290.865546087111
 20
696.2331078192453
 30
0.0
 11
1290.323630873171
 21
695.415083687381
 31
0.0
  0
LINE
  5
1541
330
1F
100
AcDbEntity
  8
Hewi
  6
STANDARD
 62
     7
100
AcDbLine
 10
1290.323449324274
 20
913.9379566121103
 30
0.0
 11
1289.512367937567
 21
914.4845257624824
 31
0.0
  0
LINE
  5
1542
330
1F
100
AcDbEntity
  8
Hewi
  6
STANDARD
 62
     7
100
AcDbLine
 10
1359.998299655819
 20
803.8990282919133
 30
0.0
 11
1358.95497927393
 21
804.7172036946539
 31
0.0
  0
LINE
  5
1543
330
1F
100
AcDbEntity
  8
Hewi
  6
STANDARD
 62
     7
100
AcDbLine
 10
1358.409928903245
 20
720.6193028511718
 30
0.0
 11
1353.822607384078
 21
715.1659604169744
 31
0.0
  0
LINE
  5
1544
330
1F
100
AcDbEntity
  8
Hewi
  6
STANDARD
 62
     7
100
AcDbLine
 10
1364.278072234416
 20
727.2063743768208
 30
0.0
 11
1360.354201714389
 21
723.1363943102253
 31
0.0
  0
LINE
  5
1545
330
1F
100
AcDbEntity
  8
Hewi
  6
STANDARD
 62
     7
100
AcDbLine
 10
1338.113228855046
 20
803.8990101097871
 30
0.0
 11
1334.312954419938
 21
799.9572039740005
 31
0.0
  0
LINE
  5
1546
330
1F
100
AcDbEntity
  8
Hewi
  6
STANDARD
 62
     7
100
AcDbLine
 10
1331.745719453697
 20
732.1990231301797
 30
0.0
 11
1331.745668802076
 21
793.1662777688305
 31
0.0
  0
LINE
  5
1547
330
1F
100
AcDbEntity
  8
Hewi
  6
STANDARD
 62
     7
100
AcDbLine
 10
1366.36592819392
 20
732.1990518926642
 30
0.0
 11
1366.365877542298
 21
793.166306531315
 31
0.0
  0
LINE
  5
1548
330
1F
100
AcDbEntity
  8
Hewi
  6
STANDARD
 62
     7
100
AcDbLine
 10
1274.055854997486
 20
694.6765447814811
 30
0.0
 11
1274.055672221455
 21
914.6764684874598
 31
0.0
  0
LINE
  5
1549
330
1F
100
AcDbEntity
  8
Hewi
  6
STANDARD
 62
     7
100
AcDbLine
 10
1291.055898678972
 20
697.1980737977031
 30
0.0
 11
1291.055720092755
 21
912.1548914245821
 31
0.0
  0
LINE
  5
154A
330
1F
100
AcDbEntity
  8
Hewi
  6
STANDARD
 62
     7
100
AcDbLine
 10
1325.212006467435
 20
703.0748721941455
 30
0.0
 11
1324.230561225927
 21
702.9894221600105
 31
0.0
  0
LINE
  5
154B
330
1F
100
AcDbEntity
  8
Hewi
  6
STANDARD
 62
     7
100
AcDbLine
 10
1314.336076285239
 20
702.3479344474804
 30
0.0
 11
1291.055894400481
 21
702.3479151062952
 31
0.0
  0
LINE
  5
154C
330
1F
100
AcDbEntity
  8
Hewi
  6
STANDARD
 62
     7
100
AcDbLine
 10
1313.775600477815
 20
727.005068991611
 30
0.0
 11
1291.055873915323
 21
727.0050501160523
 31
0.0
  0
LINE
  5
154D
330
1F
100
AcDbEntity
  8
Hewi
  6
STANDARD
 62
     7
100
AcDbLine
 10
1288.555900773848
 20
694.6765568281248
 30
0.0
 11
1274.055854997486
 21
694.6765447814811
 31
0.0
  0
LINE
  5
154E
330
1F
100
AcDbEntity
  8
Hewi
  6
STANDARD
 62
     7
100
AcDbLine
 10
1288.555717997817
 20
914.6764805341035
 30
0.0
 11
1274.055672221455
 21
914.6764684874598
 31
0.0
  0
VIEWPORT
  5
A5E
102
{ACAD_XDICTIONARY
360
1570
102
}
330
50
100
AcDbEntity
 67
     1
  8
0
100
AcDbViewport
 10
97.88524961471564
 20
148.2249531459566
 30
0.0
 40
543.0649915264304
 41
325.9270833167546
 68
     1
 69
     1
 12
97.88524961471564
 22
148.2249531459566
 13
0.0
 23
0.0
 14
10.0
 24
10.0
 15
10.0
 25
10.0
 16
0.0
 26
0.0
 36
1.0
 17
0.0
 27
0.0
 37
0.0
 42
50.0
 43
0.0
 44
0.0
 45
325.9270833167546
 50
0.0
 51
0.0
 72
  1000
 90
    32800
  1

281
     0
 71
     1
 74
     0
110
0.0
120
0.0
130
0.0
111
1.0
121
0.0
131
0.0
112
0.0
122
1.0
132
0.0
 79
     0
146
0.0
  0
VIEWPORT
  5
A60
102
{ACAD_XDICTIONARY
360
1572
102
}
330
50
100
AcDbEntity
 67
     1
  8
0
100
AcDbViewport
 10
96.54765102797625
 20
141.66686348948
 30
0.0
 40
184.1427262969494
 41
274.0437409250292
 68
     2
 69
     2
 12
996.3538019906792
 22
-1436.727906654864
 13
0.0
 23
0.0
 14
10.0
 24
10.0
 15
10.0
 25
10.0
 16
0.0
 26
0.0
 36
1.0
 17
0.0
 27
0.0
 37
0.0
 42
50.0
 43
0.0
 44
0.0
 45
4075.922525787466
 50
0.0
 51
0.0
 72
  1000
 90
    32864
  1

281
     0
 71
     1
 74
     0
110
0.0
120
0.0
130
0.0
111
1.0
121
0.0
131
0.0
112
0.0
122
1.0
132
0.0
 79
     0
146
0.0
  0
TEXT
  5
A61
330
50
100
AcDbEntity
 67
     1
  8
0
100
AcDbText
 10
12.50187879601913
 20
14.44818345311239
 30
0.0
 40
6.0
  1
Artikel LifeSystem Sonder
  7
HEWI
100
AcDbText
  0
ENDSEC
  0
SECTION
  2
OBJECTS
  0
DICTIONARY
  5
C
330
0
100
AcDbDictionary
281
     1
  3
ACAD_COLOR
350
6B
  3
ACAD_GROUP
350
D
  3
ACAD_LAYOUT
350
1A
  3
ACAD_MATERIAL
350
6A
  3
ACAD_MLINESTYLE
350
17
  3
ACAD_PLOTSETTINGS
350
19
  3
ACAD_PLOTSTYLENAME
350
E
  3
ACAD_TABLESTYLE
350
1322
  3
ACAD_VISUALSTYLE
350
1311
  3
AcDbVariableDictionary
350
5E
  3
DWGPROPS
350
1569
  0
DICTIONARY
  5
14F6
330
8
100
AcDbDictionary
280
     1
281
     1
  0
DICTIONARY
  5
132E
330
2
100
AcDbDictionary
280
     1
281
     1
  3
ACAD_LAYERFILTERS
360
1553
  3
ACAD_LAYERSTATES
360
132F
  3
ACLYDICTIONARY
360
1552
  0
DICTIONARY
  5
1570
330
A5E
100
AcDbDictionary
280
     1
281
     1
  3
ACAD_XREC_ROUNDTRIP
360
1571
  0
DICTIONARY
  5
1572
330
A60
100
AcDbDictionary
280
     1
281
     1
  3
ACAD_XREC_ROUNDTRIP
360
1573
  0
DICTIONARY
  5
6B
102
{ACAD_REACTORS
330
C
102
}
330
C
100
AcDbDictionary
281
     1
  0
DICTIONARY
  5
D
102
{ACAD_REACTORS
330
C
102
}
330
C
100
AcDbDictionary
281
     1
  0
DICTIONARY
  5
1A
102
{ACAD_REACTORS
330
C
102
}
330
C
100
AcDbDictionary
281
     1
  3
Layout1
350
51
  3
Layout2
350
56
  3
Model
350
22
  0
DICTIONARY
  5
6A
102
{ACAD_REACTORS
330
C
102
}
330
C
100
AcDbDictionary
281
     1
  3
ByBlock
350
130F
  3
ByLayer
350
130E
  3
Global
350
1310
  0
DICTIONARY
  5
17
102
{ACAD_REACTORS
330
C
102
}
330
C
100
AcDbDictionary
281
     1
  3
Standard
350
18
  0
DICTIONARY
  5
19
102
{ACAD_REACTORS
330
C
102
}
330
C
100
AcDbDictionary
281
     1
  0
ACDBDICTIONARYWDFLT
  5
E
102
{ACAD_REACTORS
330
C
102
}
330
C
100
AcDbDictionary
281
     1
  3
Normal
350
F
100
AcDbDictionaryWithDefault
340
F
  0
DICTIONARY
  5
1322
102
{ACAD_REACTORS
330
C
102
}
330
C
100
AcDbDictionary
281
     1
  3
Standard
350
1323
  0
DICTIONARY
  5
1311
102
{ACAD_REACTORS
330
C
102
}
330
C
100
AcDbDictionary
281
     1
  3
2dWireframe
350
1317
  3
3D Hidden
350
1319
  3
3dWireframe
350
1318
  3
Basic
350
1316
  3
Brighten
350
131D
  3
ColorChange
350
1321
  3
Conceptual
350
131A
  3
Dim
350
131C
  3
Facepattern
350
1320
  3
Flat
350
1312
  3
FlatWithEdges
350
1313
  3
Gouraud
350
1314
  3
GouraudWithEdges
350
1315
  3
Linepattern
350
131F
  3
Realistic
350
131B
  3
Thicken
350
131E
  0
DICTIONARY
  5
5E
102
{ACAD_REACTORS
330
C
102
}
330
C
100
AcDbDictionary
281
     1
  3
CTABLESTYLE
350
1514
  3
DIMASSOC
350
5F
  3
HIDETEXT
350
63
  3
INDEXCTL
350
1555
  3
SORTENTS
350
1554
  0
XRECORD
  5
1569
102
{ACAD_REACTORS
330
C
102
}
330
C
100
AcDbXrecord
280
     1
  1
DWGPROPS COOKIE
  2

  3

  4

  6

  7

  8
kaschu
  9

300
=
301
=
302
=
303
=
304
=
305
=
306
=
307
=
308
=
309
=
 40
0.0726651273148148
 41
2453385.501389248
 42
2454424.696762349
  1

 90
        0
  0
DICTIONARY
  5
1553
102
{ACAD_REACTORS
330
132E
102
}
330
132E
100
AcDbDictionary
281
     1
  0
DICTIONARY
  5
132F
102
{ACAD_REACTORS
330
132E
102
}
330
132E
100
AcDbDictionary
281
     1
  0
DICTIONARY
  5
1552
102
{ACAD_REACTORS
330
132E
102
}
330
132E
100
AcDbDictionary
281
     1
1001
ACAD
1000
<All
  0
XRECORD
  5
1571
102
{ACAD_REACTORS
330
1570
102
}
330
1570
100
AcDbXrecord
280
     1
102
SHADEPLOT
 70
     0
  0
XRECORD
  5
1573
102
{ACAD_REACTORS
330
1572
102
}
330
1572
100
AcDbXrecord
280
     1
102
SHADEPLOT
 70
     0
  0
LAYOUT
  5
51
102
{ACAD_XDICTIONARY
360
156C
102
}
102
{ACAD_REACTORS
330
1A
102
}
330
1A
100
AcDbPlotSettings
  1

  2
\\PDC01\AROBBE04
  4
A4
  6

 40
7.143749713897705
 41
6.127734661102294
 42
7.821075439453125
 43
7.14373779296875
 44
210.0579986572266
 45
296.9259948730469
 46
0.0
 47
0.0
 48
0.0
 49
0.0
140
0.0
141
0.0
142
1.0
143
1.0
 70
   688
 72
     1
 73
     0
 74
     5
  7

 75
    16
147
1.0
148
0.0
149
0.0
100
AcDbLayout
  1
Layout1
 70
     1
 71
     1
 10
-7.143749713897705
 20
-6.127734661102294
 11
202.9142489433289
 21
290.7982602119446
 12
0.0
 22
0.0
 32
0.0
 14
4.476287879501569
 24
4.644993026965437
 34
0.0
 15
188.6190141764509
 25
278.6887339519946
 35
0.0
146
0.0
 13
0.0
 23
0.0
 33
0.0
 16
1.0
 26
0.0
 36
0.0
 17
0.0
 27
1.0
 37
0.0
 76
     0
330
50
331
A5E
  0
LAYOUT
  5
56
102
{ACAD_XDICTIONARY
360
156E
102
}
102
{ACAD_REACTORS
330
1A
102
}
330
1A
100
AcDbPlotSettings
  1

  2
None
  4

  6

 40
0.0
 41
0.0
 42
0.0
 43
0.0
 44
0.0
 45
0.0
 46
0.0
 47
0.0
 48
0.0
 49
0.0
140
0.0
141
0.0
142
1.0
143
1.0
 70
   688
 72
     0
 73
     0
 74
     5
  7

 75
    16
147
1.0
148
0.0
149
0.0
100
AcDbLayout
  1
Layout2
 70
     1
 71
     2
 10
0.0
 20
0.0
 11
12.0
 21
9.0
 12
0.0
 22
0.0
 32
0.0
 14
0.0
 24
0.0
 34
0.0
 15
0.0
 25
0.0
 35
0.0
146
0.0
 13
0.0
 23
0.0
 33
0.0
 16
1.0
 26
0.0
 36
0.0
 17
0.0
 27
1.0
 37
0.0
 76
     0
330
55
  0
LAYOUT
  5
22
102
{ACAD_XDICTIONARY
360
156A
102
}
102
{ACAD_REACTORS
330
1A
102
}
330
1A
100
AcDbPlotSettings
  1

  2
none_device
  4
ANSI_A_(8.50_x_11.00_Inches)
  6

 40
6.349999904632567
 41
19.04999923706055
 42
6.350006103515625
 43
19.04998779296875
 44
215.8999938964844
 45
279.3999938964844
 46
0.0
 47
0.0
 48
0.0
 49
0.0
140
0.0
141
0.0
142
1.0
143
78.436453180766
 70
 11952
 72
     0
 73
     1
 74
     0
  7

 75
     0
147
0.0127491741332998
148
0.0
149
0.0
100
AcDbLayout
  1
Model
 70
     1
 71
     0
 10
0.0
 20
0.0
 11
12.0
 21
9.0
 12
0.0
 22
0.0
 32
0.0
 14
0.0
 24
0.0
 34
0.0
 15
0.0
 25
0.0
 35
0.0
146
0.0
 13
0.0
 23
0.0
 33
0.0
 16
1.0
 26
0.0
 36
0.0
 17
0.0
 27
1.0
 37
0.0
 76
     0
330
1F
331
130C
  0
MATERIAL
  5
130F
102
{ACAD_XDICTIONARY
360
1576
102
}
102
{ACAD_REACTORS
330
6A
102
}
330
6A
100
AcDbMaterial
  1
ByBlock
  0
MATERIAL
  5
130E
102
{ACAD_XDICTIONARY
360
1574
102
}
102
{ACAD_REACTORS
330
6A
102
}
330
6A
100
AcDbMaterial
  1
ByLayer
  0
MATERIAL
  5
1310
102
{ACAD_XDICTIONARY
360
1578
102
}
102
{ACAD_REACTORS
330
6A
102
}
330
6A
100
AcDbMaterial
  1
Global
  0
MLINESTYLE
  5
18
102
{ACAD_REACTORS
330
17
102
}
330
17
100
AcDbMlineStyle
  2
STANDARD
 70
     0
  3

 62
   256
 51
90.0
 52
90.0
 71
     2
 49
0.5
 62
   256
  6
BYLAYER
 49
-0.5
 62
   256
  6
BYLAYER
  0
ACDBPLACEHOLDER
  5
F
102
{ACAD_REACTORS
330
E
102
}
330
E
  0
TABLESTYLE
  5
1323
102
{ACAD_XDICTIONARY
360
157A
102
}
102
{ACAD_REACTORS
330
1322
102
}
330
1322
100
AcDbTableStyle
  3
Standard
 70
     0
 71
     0
 40
1.5
 41
1.5
280
     0
281
     0
  7
Standard
140
4.5
170
     2
 62
     0
 63
     7
283
     0
274
    -2
284
     1
 64
     0
275
    -2
285
     1
 65
     0
276
    -2
286
     1
 66
     0
277
    -2
287
     1
 67
     0
278
    -2
288
     1
 68
     0
279
    -2
289
     1
 69
     0
  7
Standard
140
6.0
170
     5
 62
     0
 63
     7
283
     0
274
    -2
284
     1
 64
     0
275
    -2
285
     1
 65
     0
276
    -2
286
     1
 66
     0
277
    -2
287
     1
 67
     0
278
    -2
288
     1
 68
     0
279
    -2
289
     1
 69
     0
  7
Standard
140
4.5
170
     5
 62
     0
 63
     7
283
     0
274
    -2
284
     1
 64
     0
275
    -2
285
     1
 65
     0
276
    -2
286
     1
 66
     0
277
    -2
287
     1
 67
     0
278
    -2
288
     1
 68
     0
279
    -2
289
     1
 69
     0
  0
VISUALSTYLE
  5
1317
102
{ACAD_REACTORS
330
1311
102
}
330
1311
100
AcDbVisualStyle
  2
2dWireframe
 70
     4
 71
     0
 72
     2
 73
     0
 90
        0
 40
-0.6
 41
-30.0
 62
     5
 63
     7
 74
     1
 91
        4
 64
     7
 65
   257
 75
     1
175
     1
 42
1.0
 92
        0
 66
   257
 43
1.0
 76
     1
 77
     6
 78
     2
 67
     7
 79
     5
170
     0
171
     0
290
     0
174
     0
 93
        1
 44
0.0
173
     0
291
     0
 45
0.0
1001
ACAD
1000
AcDbSavedByObjectVersion
1070
     0
  0
VISUALSTYLE
  5
1319
102
{ACAD_REACTORS
330
1311
102
}
330
1311
100
AcDbVisualStyle
  2
3D Hidden
 70
     6
 71
     1
 72
     2
 73
     2
 90
        0
 40
-0.6
 41
-30.0
 62
     5
 63
     7
 74
     2
 91
        2
 64
     7
 65
   257
 75
     2
175
     1
 42
40.0
 92
        0
 66
   257
 43
1.0
 76
     1
 77
     6
 78
     2
 67
     7
 79
     3
170
     0
171
     0
290
     0
174
     0
 93
        1
 44
0.0
173
     0
291
     0
 45
0.0
1001
ACAD
1000
AcDbSavedByObjectVersion
1070
     0
  0
VISUALSTYLE
  5
1318
102
{ACAD_REACTORS
330
1311
102
}
330
1311
100
AcDbVisualStyle
  2
3dWireframe
 70
     5
 71
     0
 72
     2
 73
     0
 90
        0
 40
-0.6
 41
-30.0
 62
     5
 63
     7
 74
     1
 91
        4
 64
     7
 65
   257
 75
     1
175
     1
 42
1.0
 92
        0
 66
   257
 43
1.0
 76
     1
 77
     6
 78
     2
 67
     7
 79
     5
170
     0
171
     0
290
     0
174
     0
 93
        1
 44
0.0
173
     0
291
     0
 45
0.0
1001
ACAD
1000
AcDbSavedByObjectVersion
1070
     0
  0
VISUALSTYLE
  5
1316
102
{ACAD_REACTORS
330
1311
102
}
330
1311
100
AcDbVisualStyle
  2
Basic
 70
     7
 71
     1
 72
     0
 73
     1
 90
        0
 40
-0.6
 41
-30.0
 62
     5
 63
     7
 74
     0
 91
        4
 64
     7
 65
   257
 75
     1
175
     1
 42
1.0
 92
        8
 66
     7
 43
1.0
 76
     1
 77
     6
 78
     2
 67
     7
 79
     5
170
     0
171
     0
290
     0
174
     0
 93
        1
 44
0.0
173
     0
291
     1
 45
0.0
1001
ACAD
1000
AcDbSavedByObjectVersion
1070
     0
  0
VISUALSTYLE
  5
131D
102
{ACAD_REACTORS
330
1311
102
}
330
1311
100
AcDbVisualStyle
  2
Brighten
 70
    12
 71
     2
 72
     2
 73
     0
 90
        0
 40
-0.6
 41
-30.0
 62
     5
 63
     7
 74
     1
 91
        4
 64
     7
 65
   257
 75
     1
175
     1
 42
1.0
 92
        8
 66
     7
 43
1.0
 76
     1
 77
     6
 78
     2
 67
     7
 79
     5
170
     0
171
     0
290
     0
174
     0
 93
        1
 44
50.0
173
     0
291
     1
 45
0.0
1001
ACAD
1000
AcDbSavedByObjectVersion
1070
     0
  0
VISUALSTYLE
  5
1321
102
{ACAD_REACTORS
330
1311
102
}
330
1311
100
AcDbVisualStyle
  2
ColorChange
 70
    16
 71
     2
 72
     2
 73
     3
 90
        0
 40
-0.6
 41
-30.0
 62
     5
 63
     8
 74
     1
 91
        4
 64
     7
 65
   257
 75
     1
175
     1
 42
1.0
 92
        8
 66
     8
 43
1.0
 76
     1
 77
     6
 78
     2
 67
     7
 79
     5
170
     0
171
     0
290
     0
174
     0
 93
        1
 44
0.0
173
     0
291
     1
 45
0.0
1001
ACAD
1000
AcDbSavedByObjectVersion
1070
     0
  0
VISUALSTYLE
  5
131A
102
{ACAD_REACTORS
330
1311
102
}
330
1311
100
AcDbVisualStyle
  2
Conceptual
 70
     9
 71
     3
 72
     2
 73
     0
 90
        0
 40
-0.6
 41
-30.0
 62
     5
 63
     7
 74
     2
 91
        2
 64
     7
 65
   257
 75
     1
175
     1
 42
40.0
 92
        8
 66
     7
 43
1.0
 76
     1
 77
     6
 78
     2
 67
     7
 79
     3
170
     0
171
     0
290
     0
174
     0
 93
        1
 44
0.0
173
     0
291
     0
 45
0.0
1001
ACAD
1000
AcDbSavedByObjectVersion
1070
     0
  0
VISUALSTYLE
  5
131C
102
{ACAD_REACTORS
330
1311
102
}
330
1311
100
AcDbVisualStyle
  2
Dim
 70
    11
 71
     2
 72
     2
 73
     0
 90
        0
 40
-0.6
 41
-30.0
 62
     5
 63
     7
 74
     1
 91
        4
 64
     7
 65
   257
 75
     1
175
     1
 42
1.0
 92
        8
 66
     7
 43
1.0
 76
     1
 77
     6
 78
     2
 67
     7
 79
     5
170
     0
171
     0
290
     0
174
     0
 93
        1
 44
-50.0
173
     0
291
     1
 45
0.0
1001
ACAD
1000
AcDbSavedByObjectVersion
1070
     0
  0
VISUALSTYLE
  5
1320
102
{ACAD_REACTORS
330
1311
102
}
330
1311
100
AcDbVisualStyle
  2
Facepattern
 70
    15
 71
     2
 72
     2
 73
     0
 90
        0
 40
-0.6
 41
-30.0
 62
     5
 63
     7
 74
     1
 91
        4
 64
     7
 65
   257
 75
     1
175
     1
 42
1.0
 92
        8
 66
     7
 43
1.0
 76
     1
 77
     6
 78
     2
 67
     7
 79
     5
170
     0
171
     0
290
     0
174
     0
 93
        1
 44
0.0
173
     0
291
     1
 45
0.0
1001
ACAD
1000
AcDbSavedByObjectVersion
1070
     0
  0
VISUALSTYLE
  5
1312
102
{ACAD_REACTORS
330
1311
102
}
330
1311
100
AcDbVisualStyle
  2
Flat
 70
     0
 71
     2
 72
     1
 73
     1
 90
        2
 40
-0.6
 41
30.0
 62
     5
 63
     7
 74
     0
 91
        4
 64
     7
 65
   257
 75
     1
175
     1
 42
1.0
 92
        8
 66
     7
 43
1.0
 76
     1
 77
     6
 78
     2
 67
     7
 79
     5
170
     0
171
     0
290
     0
174
     0
 93
       13
 44
0.0
173
     0
291
     1
 45
0.0
1001
ACAD
1000
AcDbSavedByObjectVersion
1070
     0
  0
VISUALSTYLE
  5
1313
102
{ACAD_REACTORS
330
1311
102
}
330
1311
100
AcDbVisualStyle
  2
FlatWithEdges
 70
     1
 71
     2
 72
     1
 73
     1
 90
        2
 40
-0.6
 41
30.0
 62
     5
 63
     7
 74
     1
 91
        4
 64
     7
 65
   257
 75
     1
175
     1
 42
1.0
 92
        0
 66
   257
 43
1.0
 76
     1
 77
     6
 78
     2
 67
     7
 79
     5
170
     0
171
     0
290
     0
174
     0
 93
       13
 44
0.0
173
     0
291
     1
 45
0.0
1001
ACAD
1000
AcDbSavedByObjectVersion
1070
     0
  0
VISUALSTYLE
  5
1314
102
{ACAD_REACTORS
330
1311
102
}
330
1311
100
AcDbVisualStyle
  2
Gouraud
 70
     2
 71
     2
 72
     2
 73
     1
 90
        2
 40
-0.6
 41
30.0
 62
     5
 63
     7
 74
     0
 91
        4
 64
     7
 65
   257
 75
     1
175
     1
 42
1.0
 92
        0
 66
     7
 43
1.0
 76
     1
 77
     6
 78
     2
 67
     7
 79
     5
170
     0
171
     0
290
     0
174
     0
 93
       13
 44
0.0
173
     0
291
     1
 45
0.0
1001
ACAD
1000
AcDbSavedByObjectVersion
1070
     0
  0
VISUALSTYLE
  5
1315
102
{ACAD_REACTORS
330
1311
102
}
330
1311
100
AcDbVisualStyle
  2
GouraudWithEdges
 70
     3
 71
     2
 72
     2
 73
     1
 90
        2
 40
-0.6
 41
30.0
 62
     5
 63
     7
 74
     1
 91
        4
 64
     7
 65
   257
 75
     1
175
     1
 42
1.0
 92
        0
 66
   257
 43
1.0
 76
     1
 77
     6
 78
     2
 67
     7
 79
     5
170
     0
171
     0
290
     0
174
     0
 93
       13
 44
0.0
173
     0
291
     1
 45
0.0
1001
ACAD
1000
AcDbSavedByObjectVersion
1070
     0
  0
VISUALSTYLE
  5
131F
102
{ACAD_REACTORS
330
1311
102
}
330
1311
100
AcDbVisualStyle
  2
Linepattern
 70
    14
 71
     2
 72
     2
 73
     0
 90
        0
 40
-0.6
 41
-30.0
 62
     5
 63
     7
 74
     1
 91
        4
 64
     7
 65
   257
 75
     7
175
     7
 42
1.0
 92
        8
 66
     7
 43
1.0
 76
     1
 77
     6
 78
     2
 67
     7
 79
     5
170
     0
171
     0
290
     0
174
     0
 93
        1
 44
0.0
173
     0
291
     1
 45
0.0
1001
ACAD
1000
AcDbSavedByObjectVersion
1070
     0
  0
VISUALSTYLE
  5
131B
102
{ACAD_REACTORS
330
1311
102
}
330
1311
100
AcDbVisualStyle
  2
Realistic
 70
     8
 71
     2
 72
     2
 73
     0
 90
        0
 40
-0.6
 41
-30.0
 62
     5
 63
     7
 74
     1
 91
        0
 64
     7
 65
   257
 75
     1
175
     1
 42
1.0
 92
        8
 66
     8
 43
1.0
 76
     1
 77
     6
 78
     2
 67
     7
 79
     5
170
     0
171
     0
290
     0
174
     0
 93
       13
 44
0.0
173
     0
291
     0
 45
0.0
1001
ACAD
1000
AcDbSavedByObjectVersion
1070
     0
  0
VISUALSTYLE
  5
131E
102
{ACAD_REACTORS
330
1311
102
}
330
1311
100
AcDbVisualStyle
  2
Thicken
 70
    13
 71
     2
 72
     2
 73
     0
 90
        0
 40
-0.6
 41
-30.0
 62
     5
 63
     7
 74
     1
 91
        4
 64
     7
 65
   257
 75
     1
175
     1
 42
1.0
 92
       12
 66
     7
 43
1.0
 76
     1
 77
     6
 78
     2
 67
     7
 79
     5
170
     0
171
     0
290
     0
174
     0
 93
        1
 44
0.0
173
     0
291
     1
 45
0.0
1001
ACAD
1000
AcDbSavedByObjectVersion
1070
     0
  0
DICTIONARYVAR
  5
1514
102
{ACAD_REACTORS
330
5E
102
}
330
5E
100
DictionaryVariables
280
     0
  1
STANDARD
  0
DICTIONARYVAR
  5
5F
102
{ACAD_REACTORS
330
5E
102
}
330
5E
100
DictionaryVariables
280
     0
  1
2
  0
DICTIONARYVAR
  5
63
102
{ACAD_REACTORS
330
5E
102
}
330
5E
100
DictionaryVariables
280
     0
  1
1
  0
DICTIONARYVAR
  5
1555
102
{ACAD_REACTORS
330
5E
102
}
330
5E
100
DictionaryVariables
280
     0
  1
0
  0
DICTIONARYVAR
  5
1554
102
{ACAD_REACTORS
330
5E
102
}
330
5E
100
DictionaryVariables
280
     0
  1
127
  0
DICTIONARY
  5
156C
330
51
100
AcDbDictionary
280
     1
281
     1
  3
ACAD_XREC_ROUNDTRIP
360
156D
  0
DICTIONARY
  5
156E
330
56
100
AcDbDictionary
280
     1
281
     1
  3
ACAD_XREC_ROUNDTRIP
360
156F
  0
DICTIONARY
  5
156A
330
22
100
AcDbDictionary
280
     1
281
     1
  3
ACAD_XREC_ROUNDTRIP
360
156B
  0
DICTIONARY
  5
1576
330
130F
100
AcDbDictionary
280
     1
281
     1
  3
ACAD_XREC_ROUNDTRIP
360
1577
  0
DICTIONARY
  5
1574
330
130E
100
AcDbDictionary
280
     1
281
     1
  3
ACAD_XREC_ROUNDTRIP
360
1575
  0
DICTIONARY
  5
1578
330
1310
100
AcDbDictionary
280
     1
281
     1
  3
ACAD_XREC_ROUNDTRIP
360
1579
  0
DICTIONARY
  5
157A
330
1323
100
AcDbDictionary
280
     1
281
     1
  3
ACAD_XREC_ROUNDTRIP
360
157B
  0
XRECORD
  5
156D
102
{ACAD_REACTORS
330
156C
102
}
330
156C
100
AcDbXrecord
280
     1
102
SHADEPLOT
 70
     1
102
SHADEPLOTRESLEVEL
 70
     2
102
SHADEPLOTCUSTOMDPI
 70
   300
  0
XRECORD
  5
156F
102
{ACAD_REACTORS
330
156E
102
}
330
156E
100
AcDbXrecord
280
     1
102
SHADEPLOT
 70
     0
102
SHADEPLOTRESLEVEL
 70
     2
102
SHADEPLOTCUSTOMDPI
 70
   300
  0
XRECORD
  5
156B
102
{ACAD_REACTORS
330
156A
102
}
330
156A
100
AcDbXrecord
280
     1
102
SHADEPLOT
 70
     0
102
SHADEPLOTRESLEVEL
 70
     2
102
SHADEPLOTCUSTOMDPI
 70
   300
  0
XRECORD
  5
1577
102
{ACAD_REACTORS
330
1576
102
}
330
1576
100
AcDbXrecord
280
     1
102
MATERIAL
148
0.0
149
0.0
149
0.0
 93
        0
 94
       63
282
     0
 72
     1
 77
     1
171
     1
175
     1
179
     1
273
     0
  0
XRECORD
  5
1575
102
{ACAD_REACTORS
330
1574
102
}
330
1574
100
AcDbXrecord
280
     1
102
MATERIAL
148
0.0
149
0.0
149
0.0
 93
        0
 94
       63
282
     0
 72
     1
 77
     1
171
     1
175
     1
179
     1
273
     0
  0
XRECORD
  5
1579
102
{ACAD_REACTORS
330
1578
102
}
330
1578
100
AcDbXrecord
280
     1
102
MATERIAL
148
0.0
149
0.0
149
0.0
 93
        0
 94
       63
282
     0
 72
     1
 77
     1
171
     1
175
     1
179
     1
273
     0
  0
XRECORD
  5
157B
102
{ACAD_REACTORS
330
157A
102
}
330
157A
100
AcDbXrecord
280
     1
102
ACAD_ROUNDTRIP_PRE2007_TABLESTYLE
 90
      512
 91
        0
  1

 92
      512
 93
        0
  2

 94
      512
 95
        0
  3

  0
ENDSEC
  0
EOF
