  0
SECTION
  2
HEADER
  9
$ACADVER
  1
AC1015
  9
$ACADMAINTVER
 70
    20
  9
$DWGCODEPAGE
  3
ANSI_1252
  9
$INSBASE
 10
0.0
 20
0.0
 30
0.0
  9
$EXTMIN
 10
671.1218357530452
 20
474.3322755158824
 30
-0.0000000000000152
  9
$EXTMAX
 10
1251.576491106018
 20
914.9622410399533
 30
0.0
  9
$LIMMIN
 10
0.0
 20
0.0
  9
$LIMMAX
 10
420.0
 20
297.0
  9
$ORTHOMODE
 70
     1
  9
$REGENMODE
 70
     1
  9
$FILLMODE
 70
     1
  9
$QTEXTMODE
 70
     0
  9
$MIRRTEXT
 70
     0
  9
$LTSCALE
 40
1.0
  9
$ATTMODE
 70
     1
  9
$TEXTSIZE
 40
4.0
  9
$TRACEWID
 40
1.0
  9
$TEXTSTYLE
  7
Standard
  9
$CLAYER
  8
0
  9
$CELTYPE
  6
ByLayer
  9
$CECOLOR
 62
   256
  9
$CELTSCALE
 40
1.0
  9
$DISPSILH
 70
     0
  9
$DIMSCALE
 40
1.0
  9
$DIMASZ
 40
2.5
  9
$DIMEXO
 40
0.625
  9
$DIMDLI
 40
3.75
  9
$DIMRND
 40
0.0
  9
$DIMDLE
 40
0.0
  9
$DIMEXE
 40
1.25
  9
$DIMTP
 40
0.0
  9
$DIMTM
 40
0.0
  9
$DIMTXT
 40
2.5
  9
$DIMCEN
 40
2.5
  9
$DIMTSZ
 40
0.0
  9
$DIMTOL
 70
     0
  9
$DIMLIM
 70
     0
  9
$DIMTIH
 70
     0
  9
$DIMTOH
 70
     0
  9
$DIMSE1
 70
     0
  9
$DIMSE2
 70
     0
  9
$DIMTAD
 70
     1
  9
$DIMZIN
 70
     8
  9
$DIMBLK
  1

  9
$DIMASO
 70
     1
  9
$DIMSHO
 70
     1
  9
$DIMPOST
  1

  9
$DIMAPOST
  1

  9
$DIMALT
 70
     0
  9
$DIMALTD
 70
     3
  9
$DIMALTF
 40
0.03937007874016
  9
$DIMLFAC
 40
1.0
  9
$DIMTOFL
 70
     1
  9
$DIMTVP
 40
0.0
  9
$DIMTIX
 70
     0
  9
$DIMSOXD
 70
     0
  9
$DIMSAH
 70
     0
  9
$DIMBLK1
  1

  9
$DIMBLK2
  1

  9
$DIMSTYLE
  2
ISO-25
  9
$DIMCLRD
 70
     0
  9
$DIMCLRE
 70
     0
  9
$DIMCLRT
 70
     0
  9
$DIMTFAC
 40
1.0
  9
$DIMGAP
 40
0.625
  9
$DIMJUST
 70
     0
  9
$DIMSD1
 70
     0
  9
$DIMSD2
 70
     0
  9
$DIMTOLJ
 70
     0
  9
$DIMTZIN
 70
     8
  9
$DIMALTZ
 70
     0
  9
$DIMALTTZ
 70
     0
  9
$DIMUPT
 70
     0
  9
$DIMDEC
 70
     2
  9
$DIMTDEC
 70
     2
  9
$DIMALTU
 70
     2
  9
$DIMALTTD
 70
     3
  9
$DIMTXSTY
  7
Standard
  9
$DIMAUNIT
 70
     0
  9
$DIMADEC
 70
     0
  9
$DIMALTRND
 40
0.0
  9
$DIMAZIN
 70
     0
  9
$DIMDSEP
 70
    44
  9
$DIMATFIT
 70
     3
  9
$DIMFRAC
 70
     0
  9
$DIMLDRBLK
  1

  9
$DIMLUNIT
 70
     2
  9
$DIMLWD
 70
    -2
  9
$DIMLWE
 70
    -2
  9
$DIMTMOVE
 70
     0
  9
$LUNITS
 70
     2
  9
$LUPREC
 70
     4
  9
$SKETCHINC
 40
1.0
  9
$FILLETRAD
 40
10.0
  9
$AUNITS
 70
     0
  9
$AUPREC
 70
     0
  9
$MENU
  1
.
  9
$ELEVATION
 40
0.0
  9
$PELEVATION
 40
0.0
  9
$THICKNESS
 40
0.0
  9
$LIMCHECK
 70
     0
  9
$CHAMFERA
 40
10.0
  9
$CHAMFERB
 40
10.0
  9
$CHAMFERC
 40
20.0
  9
$CHAMFERD
 40
0.0
  9
$SKPOLY
 70
     0
  9
$TDCREATE
 40
2453385.501389248
  9
$TDUCREATE
 40
2453385.459722581
  9
$TDUPDATE
 40
2454424.696103727
  9
$TDUUPDATE
 40
2454424.654437060
  9
$TDINDWG
 40
0.0720067014
  9
$TDUSRTIMER
 40
0.0720065856
  9
$USRTIMER
 70
     1
  9
$ANGBASE
 50
0.0
  9
$ANGDIR
 70
     0
  9
$PDMODE
 70
     0
  9
$PDSIZE
 40
0.0
  9
$PLINEWID
 40
0.0
  9
$SPLFRAME
 70
     0
  9
$SPLINETYPE
 70
     6
  9
$SPLINESEGS
 70
     8
  9
$HANDSEED
  5
1569
  9
$SURFTAB1
 70
     6
  9
$SURFTAB2
 70
     6
  9
$SURFTYPE
 70
     6
  9
$SURFU
 70
     6
  9
$SURFV
 70
     6
  9
$UCSBASE
  2

  9
$UCSNAME
  2

  9
$UCSORG
 10
0.0
 20
0.0
 30
0.0
  9
$UCSXDIR
 10
1.0
 20
0.0
 30
0.0
  9
$UCSYDIR
 10
0.0
 20
1.0
 30
0.0
  9
$UCSORTHOREF
  2

  9
$UCSORTHOVIEW
 70
     0
  9
$UCSORGTOP
 10
0.0
 20
0.0
 30
0.0
  9
$UCSORGBOTTOM
 10
0.0
 20
0.0
 30
0.0
  9
$UCSORGLEFT
 10
0.0
 20
0.0
 30
0.0
  9
$UCSORGRIGHT
 10
0.0
 20
0.0
 30
0.0
  9
$UCSORGFRONT
 10
0.0
 20
0.0
 30
0.0
  9
$UCSORGBACK
 10
0.0
 20
0.0
 30
0.0
  9
$PUCSBASE
  2

  9
$PUCSNAME
  2

  9
$PUCSORG
 10
0.0
 20
0.0
 30
0.0
  9
$PUCSXDIR
 10
1.0
 20
0.0
 30
0.0
  9
$PUCSYDIR
 10
0.0
 20
1.0
 30
0.0
  9
$PUCSORTHOREF
  2

  9
$PUCSORTHOVIEW
 70
     0
  9
$PUCSORGTOP
 10
0.0
 20
0.0
 30
0.0
  9
$PUCSORGBOTTOM
 10
0.0
 20
0.0
 30
0.0
  9
$PUCSORGLEFT
 10
0.0
 20
0.0
 30
0.0
  9
$PUCSORGRIGHT
 10
0.0
 20
0.0
 30
0.0
  9
$PUCSORGFRONT
 10
0.0
 20
0.0
 30
0.0
  9
$PUCSORGBACK
 10
0.0
 20
0.0
 30
0.0
  9
$USERI1
 70
     0
  9
$USERI2
 70
     0
  9
$USERI3
 70
     0
  9
$USERI4
 70
     0
  9
$USERI5
 70
     0
  9
$USERR1
 40
0.0
  9
$USERR2
 40
0.0
  9
$USERR3
 40
0.0
  9
$USERR4
 40
0.0
  9
$USERR5
 40
0.0
  9
$WORLDVIEW
 70
     1
  9
$SHADEDGE
 70
     3
  9
$SHADEDIF
 70
    70
  9
$TILEMODE
 70
     1
  9
$MAXACTVP
 70
    64
  9
$PINSBASE
 10
0.0
 20
0.0
 30
0.0
  9
$PLIMCHECK
 70
     0
  9
$PEXTMIN
 10
4.476287879501569
 20
4.644993026965437
 30
0.0
  9
$PEXTMAX
 10
188.6190141764509
 20
278.6887339519946
 30
0.0
  9
$PLIMMIN
 10
-7.143749713897705
 20
-6.127734661102294
  9
$PLIMMAX
 10
202.9142489433289
 20
290.7982602119446
  9
$UNITMODE
 70
     0
  9
$VISRETAIN
 70
     1
  9
$PLINEGEN
 70
     0
  9
$PSLTSCALE
 70
     1
  9
$TREEDEPTH
 70
  3020
  9
$CMLSTYLE
  2
Standard
  9
$CMLJUST
 70
     0
  9
$CMLSCALE
 40
20.0
  9
$PROXYGRAPHICS
 70
     1
  9
$MEASUREMENT
 70
     1
  9
$CELWEIGHT
370
    -1
  9
$ENDCAPS
280
     0
  9
$JOINSTYLE
280
     0
  9
$LWDISPLAY
290
     0
  9
$INSUNITS
 70
     4
  9
$HYPERLINKBASE
  1

  9
$STYLESHEET
  1

  9
$XEDIT
290
     1
  9
$CEPSNTYPE
380
     0
  9
$PSTYLEMODE
290
     1
  9
$FINGERPRINTGUID
  2
{FDEAD578-A652-11D2-9A35-0060089B3A3F}
  9
$VERSIONGUID
  2
{CD7BBCD6-54B7-4F83-87F5-30B3D5AD2953}
  9
$EXTNAMES
290
     1
  9
$PSVPSCALE
 40
0.0
  9
$OLESTARTUP
290
     0
  0
ENDSEC
  0
SECTION
  2
CLASSES
  0
CLASS
  1
ACDBDICTIONARYWDFLT
  2
AcDbDictionaryWithDefault
  3
ObjectDBX Classes
 90
        0
280
     0
281
     0
  0
CLASS
  1
DICTIONARYVAR
  2
AcDbDictionaryVar
  3
ObjectDBX Classes
 90
        0
280
     0
281
     0
  0
CLASS
  1
DIMASSOC
  2
AcDbDimAssoc
  3
"AcDbDimAssoc|Product Desc:     AcDim ARX App For Dimension|Company:          Autodesk, Inc.|WEB Address:      www.autodesk.com"
 90
    32768
280
     0
281
     0
  0
CLASS
  1
MATERIAL
  2
AcDbMaterial
  3
ObjectDBX Classes
 90
     1024
280
     0
281
     0
  0
CLASS
  1
VISUALSTYLE
  2
AcDbVisualStyle
  3
ObjectDBX Classes
 90
     4095
280
     0
281
     0
  0
CLASS
  1
TABLESTYLE
  2
AcDbTableStyle
  3
ObjectDBX Classes
 90
     4095
280
     0
281
     0
  0
CLASS
  1
ACDBPLACEHOLDER
  2
AcDbPlaceHolder
  3
ObjectDBX Classes
 90
        0
280
     0
281
     0
  0
CLASS
  1
LAYOUT
  2
AcDbLayout
  3
ObjectDBX Classes
 90
        0
280
     0
281
     0
  0
ENDSEC
  0
SECTION
  2
TABLES
  0
TABLE
  2
VPORT
  5
8
102
{ACAD_XDICTIONARY
360
14F6
102
}
330
0
100
AcDbSymbolTable
 70
     1
  0
VPORT
  5
130C
330
8
100
AcDbSymbolTableRecord
100
AcDbViewportTableRecord
  2
*Active
 70
     0
 10
0.0
 20
0.0
 11
1.0
 21
1.0
 12
858.6891385818708
 22
718.9868439257479
 13
0.0
 23
0.0
 14
10.0
 24
10.0
 15
10.0
 25
10.0
 16
0.0
 26
0.0
 36
1.0
 17
0.0
 27
0.0
 37
0.0
 40
621.3697168431754
 41
1.841904761904761
 42
50.0
 43
0.0
 44
0.0
 50
0.0
 51
0.0
 71
     0
 72
 10000
 73
     1
 74
     3
 75
     0
 76
     0
 77
     0
 78
     0
281
     0
 65
     1
110
0.0
120
0.0
130
0.0
111
1.0
121
0.0
131
0.0
112
0.0
122
1.0
132
0.0
 79
     0
146
0.0
  0
ENDTAB
  0
TABLE
  2
LTYPE
  5
5
330
0
100
AcDbSymbolTable
 70
     4
  0
LTYPE
  5
14
330
5
100
AcDbSymbolTableRecord
100
AcDbLinetypeTableRecord
  2
ByBlock
 70
     0
  3

 72
    65
 73
     0
 40
0.0
  0
LTYPE
  5
15
330
5
100
AcDbSymbolTableRecord
100
AcDbLinetypeTableRecord
  2
ByLayer
 70
     0
  3

 72
    65
 73
     0
 40
0.0
  0
LTYPE
  5
16
330
5
100
AcDbSymbolTableRecord
100
AcDbLinetypeTableRecord
  2
Continuous
 70
     0
  3
Solid line
 72
    65
 73
     0
 40
0.0
  0
LTYPE
  5
14F
330
5
100
AcDbSymbolTableRecord
100
AcDbLinetypeTableRecord
  2
IMPORT
 70
     0
  3

 72
    65
 73
     0
 40
0.0
  0
LTYPE
  5
3B2
330
5
100
AcDbSymbolTableRecord
100
AcDbLinetypeTableRecord
  2
STANDARD
 70
     0
  3

 72
    65
 73
     0
 40
0.0
  0
ENDTAB
  0
TABLE
  2
LAYER
  5
2
102
{ACAD_XDICTIONARY
360
132E
102
}
330
0
100
AcDbSymbolTable
 70
     7
  0
LAYER
  5
10
330
2
100
AcDbSymbolTableRecord
100
AcDbLayerTableRecord
  2
0
 70
     0
 62
     7
  6
Continuous
370
    -3
390
F
  0
LAYER
  5
86
330
2
100
AcDbSymbolTableRecord
100
AcDbLayerTableRecord
  2
Hewi
 70
     0
 62
     7
  6
Continuous
370
    30
390
F
  0
LAYER
  5
37C
330
2
100
AcDbSymbolTableRecord
100
AcDbLayerTableRecord
  2
Defpoints
 70
     0
 62
     7
  6
Continuous
290
     0
370
    -3
390
F
  0
ENDTAB
  0
TABLE
  2
STYLE
  5
3
330
0
100
AcDbSymbolTable
 70
     2
  0
STYLE
  5
11
330
3
100
AcDbSymbolTableRecord
100
AcDbTextStyleTableRecord
  2
Standard
 70
     0
 40
0.0
 41
1.0
 50
0.0
 71
     0
 42
4.0
  3
txt
  4

  0
STYLE
  5
87
330
3
100
AcDbSymbolTableRecord
100
AcDbTextStyleTableRecord
  2
HEWI
 70
     0
 40
0.0
 41
1.0
 50
0.0
 71
     0
 42
80.0
  3
ARIAL.TTF
  4

1001
ACAD
1000
Arial
1071
       34
  0
ENDTAB
  0
TABLE
  2
VIEW
  5
6
330
0
100
AcDbSymbolTable
 70
     0
  0
ENDTAB
  0
TABLE
  2
UCS
  5
7
330
0
100
AcDbSymbolTable
 70
     0
  0
ENDTAB
  0
TABLE
  2
APPID
  5
9
330
0
100
AcDbSymbolTable
 70
     1
  0
APPID
  5
12
330
9
100
AcDbSymbolTableRecord
100
AcDbRegAppTableRecord
  2
ACAD
 70
     0
  0
ENDTAB
  0
TABLE
  2
DIMSTYLE
  5
A
330
0
100
AcDbSymbolTable
 70
     2
100
AcDbDimStyleTable
 71
     1
340
27
  0
DIMSTYLE
105
27
330
A
100
AcDbSymbolTableRecord
100
AcDbDimStyleTableRecord
  2
ISO-25
 70
     0
 41
2.5
 42
0.625
 43
3.75
 44
1.25
 73
     0
 74
     0
 77
     1
 78
     8
140
2.5
141
2.5
143
0.03937007874016
147
0.625
171
     3
172
     1
271
     2
272
     2
274
     3
278
    44
283
     0
284
     8
340
11
  0
DIMSTYLE
105
88
330
A
100
AcDbSymbolTableRecord
100
AcDbDimStyleTableRecord
  2
STANDARD
 70
     0
340
11
  0
ENDTAB
  0
TABLE
  2
BLOCK_RECORD
  5
1
330
0
100
AcDbSymbolTable
 70
     3
  0
BLOCK_RECORD
  5
1F
330
1
100
AcDbSymbolTableRecord
100
AcDbBlockTableRecord
  2
*Model_Space
340
22
  0
BLOCK_RECORD
  5
50
330
1
100
AcDbSymbolTableRecord
100
AcDbBlockTableRecord
  2
*Paper_Space
340
51
  0
BLOCK_RECORD
  5
55
330
1
100
AcDbSymbolTableRecord
100
AcDbBlockTableRecord
  2
*Paper_Space0
340
56
  0
ENDTAB
  0
ENDSEC
  0
SECTION
  2
BLOCKS
  0
BLOCK
  5
20
330
1F
100
AcDbEntity
  8
0
100
AcDbBlockBegin
  2
*Model_Space
 70
     0
 10
0.0
 20
0.0
 30
0.0
  3
*Model_Space
  1

  0
ENDBLK
  5
21
330
1F
100
AcDbEntity
  8
0
100
AcDbBlockEnd
  0
BLOCK
  5
52
330
50
100
AcDbEntity
 67
     1
  8
0
100
AcDbBlockBegin
  2
*Paper_Space
 70
     0
 10
0.0
 20
0.0
 30
0.0
  3
*Paper_Space
  1

  0
ENDBLK
  5
53
330
50
100
AcDbEntity
 67
     1
  8
0
100
AcDbBlockEnd
  0
BLOCK
  5
57
330
55
100
AcDbEntity
 67
     1
  8
0
100
AcDbBlockBegin
  2
*Paper_Space0
 70
     0
 10
0.0
 20
0.0
 30
0.0
  3
*Paper_Space0
  1

  0
ENDBLK
  5
58
330
55
100
AcDbEntity
 67
     1
  8
0
100
AcDbBlockEnd
  0
ENDSEC
  0
SECTION
  2
ENTITIES
  0
LINE
  5
116B
330
1F
100
AcDbEntity
  8
Hewi
  6
STANDARD
 62
     7
100
AcDbLine
 10
1222.247480806666
 20
723.1361106269758
 30
0.0
 11
1218.323606905299
 21
727.2060874336164
 31
0.0
  0
LINE
  5
116C
330
1F
100
AcDbEntity
  8
Hewi
  6
STANDARD
 62
     7
100
AcDbLine
 10
1248.288664278346
 20
799.9569419258039
 30
0.0
 11
1244.488386568385
 21
803.8987449043196
 31
0.0
  0
LINE
  5
116D
330
1F
100
AcDbEntity
  8
Hewi
  6
STANDARD
 62
     7
100
AcDbLine
 10
1238.312620577174
 20
715.165682160179
 30
0.0
 11
1235.87518161233
 21
712.9641440742415
 31
0.0
  0
LINE
  5
116E
330
1F
100
AcDbEntity
  8
Hewi
  6
STANDARD
 62
     7
100
AcDbLine
 10
1223.646635469752
 20
804.7169211738509
 30
0.0
 11
1222.603315767604
 21
803.8987449043196
 31
0.0
  0
LINE
  5
116F
330
1F
100
AcDbEntity
  8
Hewi
  6
STANDARD
 62
     7
100
AcDbLine
 10
1174.813627657252
 20
695.4148581855696
 30
0.0
 11
1174.002546724635
 21
694.8681357734602
 31
0.0
  0
LINE
  5
1170
330
1F
100
AcDbEntity
  8
Hewi
  6
STANDARD
 62
     7
100
AcDbLine
 10
1175.355543550808
 20
913.1196311347883
 30
0.0
 11
1174.813627657253
 21
913.9377311103743
 31
0.0
  0
LINE
  5
1171
330
1F
100
AcDbEntity
  8
Hewi
  6
STANDARD
 62
     7
100
AcDbLine
 10
1235.87518161233
 20
712.9641440742415
 30
0.0
 11
1229.025129732447
 21
708.5682395332258
 31
0.0
  0
LINE
  5
1172
330
1F
100
AcDbEntity
  8
Hewi
  6
STANDARD
 62
     7
100
AcDbLine
 10
1244.844221529322
 20
723.1361106269758
 30
0.0
 11
1239.557585176783
 21
720.4795554511946
 31
0.0
  0
LINE
  5
1173
330
1F
100
AcDbEntity
  8
Hewi
  6
STANDARD
 62
     7
100
AcDbLine
 10
1228.278593477565
 20
807.0443442695539
 30
0.0
 11
1223.646635469752
 21
804.7169211738509
 31
0.0
  0
LINE
  5
1174
330
1F
100
AcDbEntity
  8
Hewi
  6
STANDARD
 62
     7
100
AcDbLine
 10
1218.323606905299
 20
727.2060874336164
 30
0.0
 11
1216.235746797877
 21
732.1987632148664
 31
0.0
  0
LINE
  5
1175
330
1F
100
AcDbEntity
  8
Hewi
  6
STANDARD
 62
     7
100
AcDbLine
 10
1250.310759004908
 20
795.1215842597884
 30
0.0
 11
1248.288664278346
 21
799.9569419258039
 31
0.0
  0
LINE
  5
1176
330
1F
100
AcDbEntity
  8
Hewi
  6
STANDARD
 62
     7
100
AcDbLine
 10
1229.025129732447
 20
708.5682395332258
 30
0.0
 11
1220.097975191432
 21
705.1951316230696
 31
0.0
  0
LINE
  5
1177
330
1F
100
AcDbEntity
  8
Hewi
  6
STANDARD
 62
     7
100
AcDbLine
 10
1216.893171724635
 20
730.6266501777571
 30
0.0
 11
1211.993803438502
 21
728.7754538886946
 31
0.0
  0
LINE
  5
1178
330
1F
100
AcDbEntity
  8
Hewi
  6
STANDARD
 62
     7
100
AcDbLine
 10
1250.855955538112
 20
793.1660178535383
 30
0.0
 11
1250.310759004908
 21
795.1215842597884
 31
0.0
  0
LINE
  5
1179
330
1F
100
AcDbEntity
  8
Hewi
  6
STANDARD
 62
     7
100
AcDbLine
 10
1220.097975191432
 20
705.1951316230696
 30
0.0
 11
1209.70200961526
 21
703.074617707054
 31
0.0
  0
LINE
  5
117A
330
1F
100
AcDbEntity
  8
Hewi
  6
STANDARD
 62
     7
100
AcDbLine
 10
1174.002546724635
 20
694.8681357734602
 30
0.0
 11
1173.045896944361
 21
694.6763327949446
 31
0.0
  0
LINE
  5
117B
330
1F
100
AcDbEntity
  8
Hewi
  6
STANDARD
 62
     7
100
AcDbLine
 10
1211.993803438502
 20
728.7754538886946
 30
0.0
 11
1205.506987032252
 21
727.4523642890852
 31
0.0
  0
LINE
  5
117C
330
1F
100
AcDbEntity
  8
Hewi
  6
STANDARD
 62
     7
100
AcDbLine
 10
1175.545896944362
 20
912.1546653144759
 30
0.0
 11
1175.355543550808
 21
913.1196311347883
 31
0.0
  0
LINE
  5
117D
330
1F
100
AcDbEntity
  8
Hewi
  6
STANDARD
 62
     7
100
AcDbLine
 10
1239.557585176783
 20
720.4795554511946
 30
0.0
 11
1233.545851167994
 21
719.5568564765852
 31
0.0
  0
LINE
  5
117E
330
1F
100
AcDbEntity
  8
Hewi
  6
STANDARD
 62
     7
100
AcDbLine
 10
1233.545851167994
 20
807.8527549140853
 30
0.0
 11
1228.278593477565
 21
807.0443442695539
 31
0.0
  0
LINE
  5
117F
330
1F
100
AcDbEntity
  8
Hewi
  6
STANDARD
 62
     7
100
AcDbLine
 10
1208.72056430276
 20
702.989168488304
 30
0.0
 11
1198.826078829127
 21
702.3476889961165
 31
0.0
  0
LINE
  5
1180
330
1F
100
AcDbEntity
  8
Hewi
  6
STANDARD
 62
     7
100
AcDbLine
 10
1205.664457735377
 20
727.4845603340071
 30
0.0
 11
1198.265623506862
 21
727.0048240058821
 31
0.0
  0
LINE
  5
1181
330
1F
100
AcDbEntity
  8
Hewi
  6
STANDARD
 62
     7
100
AcDbLine
 10
1233.545851167994
 20
719.5568564765852
 30
0.0
 11
1227.534117159205
 21
720.4795554511946
 31
0.0
  0
LINE
  5
1182
330
1F
100
AcDbEntity
  8
Hewi
  6
STANDARD
 62
     7
100
AcDbLine
 10
1238.813108858424
 20
807.0443442695539
 30
0.0
 11
1233.545851167994
 21
807.8527549140853
 31
0.0
  0
LINE
  5
1183
330
1F
100
AcDbEntity
  8
Hewi
  6
STANDARD
 62
     7
100
AcDbLine
 10
1174.002546724636
 20
914.4843009345931
 30
0.0
 11
1173.045896944362
 21
914.6762565009993
 31
0.0
  0
LINE
  5
1184
330
1F
100
AcDbEntity
  8
Hewi
  6
STANDARD
 62
     7
100
AcDbLine
 10
1175.545896944361
 20
697.1978476875228
 30
0.0
 11
1175.355543550807
 21
696.2328818672102
 31
0.0
  0
LINE
  5
1185
330
1F
100
AcDbEntity
  8
Hewi
  6
STANDARD
 62
     7
100
AcDbLine
 10
1216.78094333108
 20
795.1215842597884
 30
0.0
 11
1216.235746797877
 21
793.1660178535383
 31
0.0
  0
LINE
  5
1186
330
1F
100
AcDbEntity
  8
Hewi
  6
STANDARD
 62
     7
100
AcDbLine
 10
1250.855955538112
 20
732.1987632148664
 30
0.0
 11
1248.76809543069
 21
727.2060874336164
 31
0.0
  0
LINE
  5
1187
330
1F
100
AcDbEntity
  8
Hewi
  6
STANDARD
 62
     7
100
AcDbLine
 10
1218.803038057643
 20
799.9569419258039
 30
0.0
 11
1216.78094333108
 21
795.1215842597884
 31
0.0
  0
LINE
  5
1188
330
1F
100
AcDbEntity
  8
Hewi
  6
STANDARD
 62
     7
100
AcDbLine
 10
1243.746046480494
 20
722.5842002265852
 30
0.0
 11
1242.899946626979
 21
720.6190207832259
 31
0.0
  0
LINE
  5
1189
330
1F
100
AcDbEntity
  8
Hewi
  6
STANDARD
 62
     7
100
AcDbLine
 10
1227.534117159205
 20
720.4795554511946
 30
0.0
 11
1222.247480806666
 21
723.1361106269758
 31
0.0
  0
LINE
  5
118A
330
1F
100
AcDbEntity
  8
Hewi
  6
STANDARD
 62
     7
100
AcDbLine
 10
1243.445066866236
 20
804.7169211738509
 30
0.0
 11
1238.813108858424
 21
807.0443442695539
 31
0.0
  0
LINE
  5
118B
330
1F
100
AcDbEntity
  8
Hewi
  6
STANDARD
 62
     7
100
AcDbLine
 10
1175.355543550807
 20
696.2328818672102
 30
0.0
 11
1174.813627657252
 21
695.4148581855696
 31
0.0
  0
LINE
  5
118C
330
1F
100
AcDbEntity
  8
Hewi
  6
STANDARD
 62
     7
100
AcDbLine
 10
1174.813627657253
 20
913.9377311103743
 30
0.0
 11
1174.002546724636
 21
914.4843009345931
 31
0.0
  0
LINE
  5
118D
330
1F
100
AcDbEntity
  8
Hewi
  6
STANDARD
 62
     7
100
AcDbLine
 10
1244.488386568385
 20
803.8987449043196
 30
0.0
 11
1243.445066866236
 21
804.7169211738509
 31
0.0
  0
LINE
  5
118E
330
1F
100
AcDbEntity
  8
Hewi
  6
STANDARD
 62
     7
100
AcDbLine
 10
1242.899946626979
 20
720.6190207832259
 30
0.0
 11
1238.312620577174
 21
715.165682160179
 31
0.0
  0
LINE
  5
118F
330
1F
100
AcDbEntity
  8
Hewi
  6
STANDARD
 62
     7
100
AcDbLine
 10
1248.76809543069
 20
727.2060874336164
 30
0.0
 11
1244.844221529322
 21
723.1361106269758
 31
0.0
  0
LINE
  5
1190
330
1F
100
AcDbEntity
  8
Hewi
  6
STANDARD
 62
     7
100
AcDbLine
 10
1222.603315767604
 20
803.8987449043196
 30
0.0
 11
1218.803038057643
 21
799.9569419258039
 31
0.0
  0
LINE
  5
1191
330
1F
100
AcDbEntity
  8
Hewi
  6
STANDARD
 62
     7
100
AcDbLine
 10
1216.235746797877
 20
732.1987632148664
 30
0.0
 11
1216.235746797877
 21
793.1660178535383
 31
0.0
  0
LINE
  5
1192
330
1F
100
AcDbEntity
  8
Hewi
  6
STANDARD
 62
     7
100
AcDbLine
 10
1250.855955538112
 20
732.1987632148664
 30
0.0
 11
1250.855955538112
 21
793.1660178535383
 31
0.0
  0
LINE
  5
1193
330
1F
100
AcDbEntity
  8
Hewi
  6
STANDARD
 62
     7
100
AcDbLine
 10
1158.545851167994
 20
694.6763327949452
 30
0.0
 11
1158.545851167995
 21
914.6762565009998
 31
0.0
  0
LINE
  5
1194
330
1F
100
AcDbEntity
  8
Hewi
  6
STANDARD
 62
     7
100
AcDbLine
 10
1175.545896944361
 20
697.1978476875228
 30
0.0
 11
1175.545896944362
 21
912.1546653144759
 31
0.0
  0
LINE
  5
1195
330
1F
100
AcDbEntity
  8
Hewi
  6
STANDARD
 62
     7
100
AcDbLine
 10
1209.70200961526
 20
703.074617707054
 30
0.0
 11
1208.72056430276
 21
702.989168488304
 31
0.0
  0
LINE
  5
1196
330
1F
100
AcDbEntity
  8
Hewi
  6
STANDARD
 62
     7
100
AcDbLine
 10
1198.826078829127
 20
702.3476889961165
 30
0.0
 11
1175.545896944361
 21
702.3476889961165
 31
0.0
  0
LINE
  5
1197
330
1F
100
AcDbEntity
  8
Hewi
  6
STANDARD
 62
     7
100
AcDbLine
 10
1198.265623506862
 20
727.0048240058821
 30
0.0
 11
1175.545896944361
 21
727.0048240058821
 31
0.0
  0
LINE
  5
119A
330
1F
100
AcDbEntity
  8
Hewi
  6
STANDARD
 62
     7
100
AcDbLine
 10
1173.045896944361
 20
694.6763327949446
 30
0.0
 11
1158.545851167994
 21
694.6763327949452
 31
0.0
  0
LINE
  5
119B
330
1F
100
AcDbEntity
  8
Hewi
  6
STANDARD
 62
     7
100
AcDbLine
 10
1173.045896944362
 20
914.6762565009993
 30
0.0
 11
1158.545851167995
 21
914.6762565009998
 31
0.0
  0
ARC
  5
11CC
330
1F
100
AcDbEntity
  8
Hewi
  6
STANDARD
 62
     7
100
AcDbCircle
 10
885.6991243194075
 20
791.1785354277126
 30
0.0
 40
15.95770054080531
100
AcDbArc
 50
60.66464876682855
 51
121.0978745475725
  0
ARC
  5
11CD
330
1F
100
AcDbEntity
  8
Hewi
  6
STANDARD
 62
     7
100
AcDbCircle
 10
884.3807982401145
 20
788.4496559855137
 30
0.0
 40
16.24244506266071
100
AcDbArc
 50
150.237459335869
 51
210.0056097025334
  0
ARC
  5
11CE
330
1F
100
AcDbEntity
  8
Hewi
  6
STANDARD
 62
     7
100
AcDbCircle
 10
884.1031071896518
 20
788.3587816186964
 30
0.0
 40
15.95663972664548
100
AcDbArc
 50
179.900126083398
 51
240.3375480505509
  0
ARC
  5
11CF
330
1F
100
AcDbEntity
  8
Hewi
  6
STANDARD
 62
     7
100
AcDbCircle
 10
885.7948013130549
 20
790.8435003306449
 30
0.0
 40
16.2942585794091
100
AcDbArc
 50
91.09835933565957
 51
150.6574079726905
  0
ARC
  5
11D0
330
1F
100
AcDbEntity
  8
Hewi
  6
STANDARD
 62
     7
100
AcDbCircle
 10
1018.896451125837
 20
713.9583117695915
 30
0.0
 40
20.00001006171469
100
AcDbArc
 50
194.9999316603655
 51
0.0000892024883811
  0
LINE
  5
11D6
330
1F
100
AcDbEntity
  8
Hewi
  6
STANDARD
 62
     7
100
AcDbLine
 10
999.5779187070588
 20
708.7819513055869
 30
0.0
 11
999.3298107969026
 21
710.6665643426963
 31
0.0
  0
LINE
  5
11D7
330
1F
100
AcDbEntity
  8
Hewi
  6
STANDARD
 62
     7
100
AcDbLine
 10
1025.051704107449
 20
724.8377069208213
 30
0.0
 11
989.3855053769808
 21
745.0166925165249
 31
0.0
  0
LINE
  5
11D8
330
1F
100
AcDbEntity
  8
Hewi
  6
STANDARD
 62
     7
100
AcDbLine
 10
974.5748669492463
 20
718.8388665887905
 30
0.0
 11
876.2063366758088
 21
774.4931634637906
 31
0.0
  0
LINE
  5
11D9
330
1F
100
AcDbEntity
  8
Hewi
  6
STANDARD
 62
     7
100
AcDbLine
 10
991.8856579648714
 20
749.4356378290249
 30
0.0
 11
893.5171276914338
 21
805.089934704025
 31
0.0
  0
LINE
  5
11DA
330
1F
100
AcDbEntity
  8
Hewi
  6
STANDARD
 62
     7
100
AcDbLine
 10
1012.741218267605
 20
703.0788263055869
 30
0.0
 11
977.0748669492464
 21
723.2578119012905
 31
0.0
  0
LINE
  5
11DB
330
1F
100
AcDbEntity
  8
Hewi
  6
STANDARD
 62
     7
100
AcDbLine
 10
871.5516430722932
 20
798.7583001825405
 30
0.0
 11
870.3204113828402
 21
796.5822442743374
 31
0.0
  0
LINE
  5
11DC
330
1F
100
AcDbEntity
  8
Hewi
  6
STANDARD
 62
     7
100
AcDbLine
 10
991.8856579648714
 20
749.4356378290249
 30
0.0
 11
974.5748669492463
 21
718.8388665887905
 31
0.0
  0
LINE
  5
11DD
330
1F
100
AcDbEntity
  8
Hewi
  6
STANDARD
 62
     7
100
AcDbLine
 10
998.8964611875276
 20
739.6356805536338
 30
0.0
 11
998.8964611875285
 21
893.9582666132041
 31
0.0
  0
LINE
  5
11DE
330
1F
100
AcDbEntity
  8
Hewi
  6
STANDARD
 62
     7
100
AcDbLine
 10
1038.896461187527
 20
713.9583429071494
 30
0.0
 11
1038.896461187528
 21
881.4582666132041
 31
0.0
  0
LINE
  5
11E4
330
1F
100
AcDbEntity
  8
Hewi
  6
IMPORT
 62
     7
100
AcDbLine
 10
998.8964622129428
 20
739.6356463768848
 30
0.0
 11
998.8964622129419
 21
893.9582846479693
 31
0.0
  0
ARC
  5
11E7
330
1F
100
AcDbEntity
  8
Hewi
  6
IMPORT
 62
     7
100
AcDbCircle
 10
1018.896452212938
 20
713.9583046479761
 30
0.0
 40
12.50000999999999
100
AcDbArc
 50
240.4212084743275
 51
299.4999479999743
  0
LINE
  5
11E8
330
1F
100
AcDbEntity
  8
Hewi
  6
IMPORT
 62
     7
100
AcDbLine
 10
1038.896462212942
 20
727.8943046479757
 30
0.0
 11
1038.896462212942
 21
881.4582846479693
 31
0.0
  0
ARC
  5
11EE
330
1F
100
AcDbEntity
  8
Hewi
  6
Continuous
100
AcDbCircle
 10
-1018.896452212938
 20
713.9583046479761
 30
0.0
 40
12.6
210
0.0
220
0.0
230
-1.0
100
AcDbArc
 50
184.8431229999875
 51
306.7233599110482
  0
ARC
  5
11EF
330
1F
100
AcDbEntity
  8
Hewi
100
AcDbCircle
 10
1018.896452212938
 20
713.9583046479761
 30
0.0
 40
12.59999999999987
100
AcDbArc
 50
233.2766400889564
 51
67.72548766548762
  0
LINE
  5
11F0
330
1F
100
AcDbEntity
  8
Hewi
100
AcDbLine
 10
1001.896452212912
 20
737.9383319124485
 30
0.0
 11
1001.896452212938
 21
883.422709878288
 31
0.0
  0
LINE
  5
11F1
330
1F
100
AcDbEntity
  8
Hewi
100
AcDbLine
 10
1035.896432212939
 20
714.0548346479768
 30
0.0
 11
1035.896452212938
 21
883.4227098782953
 31
0.0
  0
ARC
  5
11F2
330
1F
100
AcDbEntity
  8
Hewi
  6
IMPORT
 62
     7
100
AcDbCircle
 10
1018.896452212938
 20
713.9583046479761
 30
0.0
 40
14.49997999999999
100
AcDbArc
 50
210.049885232007
 51
90.95061540275288
  0
LINE
  5
11F3
330
1F
100
AcDbEntity
  8
Hewi
  6
IMPORT
 62
     7
100
AcDbLine
 10
1035.292172212939
 20
709.4650746479779
 30
0.0
 11
1035.896432212939
 21
714.0548346479768
 31
0.0
  0
ARC
  5
11F5
330
1F
100
AcDbEntity
  8
Hewi
  6
IMPORT
 62
     7
100
AcDbCircle
 10
1018.896441569684
 20
713.8582286124569
 30
0.0
 40
16.97409999999999
100
AcDbArc
 50
197.4942403765935
 51
345.0002319999869
  0
LINE
  5
11FD
330
1F
100
AcDbEntity
  8
Hewi
  6
STANDARD
 62
     7
100
AcDbLine
 10
1038.896376415482
 20
713.9583609419146
 30
0.0
 11
1038.896376415483
 21
881.4582846479693
 31
0.0
  0
LINE
  5
11FE
330
1F
100
AcDbEntity
  8
Hewi
  6
STANDARD
 62
     7
100
AcDbLine
 10
998.8963764154819
 20
739.635698588399
 30
0.0
 11
998.8963764154828
 21
893.9582846479693
 31
0.0
  0
LINE
  5
11FF
330
1F
100
AcDbEntity
  8
Hewi
  6
STANDARD
 62
     7
100
AcDbLine
 10
999.5778339350131
 20
708.7819693403521
 30
0.0
 11
999.3297260248569
 21
710.6665823774615
 31
0.0
  0
ARC
  5
1206
330
1F
100
AcDbEntity
  8
Hewi
  6
IMPORT
 62
     7
100
AcDbCircle
 10
1018.896397440898
 20
894.0584326827352
 30
0.0
 40
20.0
100
AcDbArc
 50
359.9998609999808
 51
180.0001390000192
  0
ARC
  5
1209
330
1F
100
AcDbEntity
  8
Hewi
  6
IMPORT
 62
     7
100
AcDbCircle
 10
1018.896388084151
 20
894.0583887182569
 30
0.0
 40
16.97409999999999
100
AcDbArc
 50
14.99976800001308
 51
165.0002319999869
  0
LINE
  5
120A
330
1F
100
AcDbEntity
  8
Hewi
  6
IMPORT
 62
     7
100
AcDbLine
 10
1035.896397440897
 20
893.8617826827371
 30
0.0
 11
1035.292127440897
 21
898.4515426827361
 31
0.0
  0
LINE
  5
120B
330
1F
100
AcDbEntity
  8
Hewi
  6
IMPORT
 62
     7
100
AcDbLine
 10
1002.500657440896
 20
898.4515426827361
 30
0.0
 11
1001.896397440896
 21
893.8617826827371
 31
0.0
  0
CIRCLE
  5
120C
330
1F
100
AcDbEntity
  8
Hewi
  6
IMPORT
 62
     7
100
AcDbCircle
 10
1018.896377440896
 20
893.9583126827379
 30
0.0
 40
14.49997999999999
  0
CIRCLE
  5
120D
330
1F
100
AcDbEntity
  8
Hewi
100
AcDbCircle
 10
1018.896377440896
 20
893.9583126827379
 30
0.0
 40
12.59999999999987
  0
LINE
  5
1214
330
1F
100
AcDbEntity
  8
Hewi
100
AcDbLine
 10
1038.896367440892
 20
880.0223126827381
 30
0.0
 11
1038.896367440896
 21
893.9583126827324
 31
0.0
  0
LINE
  5
1219
330
1F
100
AcDbEntity
  8
Hewi
100
AcDbLine
 10
1001.896397440896
 20
893.8617826827371
 30
0.0
 11
1001.896452212938
 21
883.422709878288
 31
0.0
  0
LINE
  5
121A
330
1F
100
AcDbEntity
  8
Hewi
100
AcDbLine
 10
1035.896397440897
 20
893.8617826827371
 30
0.0
 11
1035.896452212938
 21
883.4227098782953
 31
0.0
  0
LINE
  5
1416
330
1F
100
AcDbEntity
  8
Hewi
100
AcDbLine
 10
987.1704555649978
 20
507.0965988651882
 30
0.0
 11
984.3558193345291
 21
509.1980392948756
 31
0.0
  0
LINE
  5
1417
330
1F
100
AcDbEntity
  8
Hewi
100
AcDbLine
 10
876.0495449204666
 20
477.2423965946804
 30
0.0
 11
873.5834194321853
 21
479.0835983769069
 31
0.0
  0
LINE
  5
1418
330
1F
100
AcDbEntity
  8
Hewi
100
AcDbLine
 10
1025.719649900935
 20
503.7294418827663
 30
0.0
 11
1019.322707762263
 21
494.2499954716335
 31
0.0
  0
LINE
  5
1419
330
1F
100
AcDbEntity
  8
Hewi
100
AcDbLine
 10
1003.15724145367
 20
514.7568924442897
 30
0.0
 11
999.9669338364823
 21
510.0292618290553
 31
0.0
  0
LINE
  5
141A
330
1F
100
AcDbEntity
  8
Hewi
100
AcDbLine
 10
989.3454433579666
 20
480.5652267948756
 30
0.0
 11
987.0239711899978
 21
476.6524918095241
 31
0.0
  0
LINE
  5
141B
330
1F
100
AcDbEntity
  8
Hewi
100
AcDbLine
 10
871.4526821274978
 20
503.5325272099147
 30
0.0
 11
869.7597194810134
 21
500.6790573612819
 31
0.0
  0
LINE
  5
141C
330
1F
100
AcDbEntity
  8
Hewi
100
AcDbLine
 10
879.2616726060135
 20
475.628550769485
 30
0.0
 11
876.0495449204666
 21
477.2423965946804
 31
0.0
  0
LINE
  5
141D
330
1F
100
AcDbEntity
  8
Hewi
100
AcDbLine
 10
869.7597194810134
 20
500.6790573612819
 30
0.0
 11
868.8054348130448
 21
498.5207779423366
 31
0.0
  0
LINE
  5
141E
330
1F
100
AcDbEntity
  8
Hewi
100
AcDbLine
 10
1029.765517820857
 20
514.7848160282741
 30
0.0
 11
1025.719649900935
 21
503.7294418827663
 31
0.0
  0
LINE
  5
141F
330
1F
100
AcDbEntity
  8
Hewi
100
AcDbLine
 10
1005.27897607281
 20
520.5546982304225
 30
0.0
 11
1003.15724145367
 21
514.7568924442897
 31
0.0
  0
LINE
  5
1420
330
1F
100
AcDbEntity
  8
Hewi
100
AcDbLine
 10
990.8739162583572
 20
485.8445389286647
 30
0.0
 11
989.3454433579666
 21
480.5652267948756
 31
0.0
  0
LINE
  5
1421
330
1F
100
AcDbEntity
  8
Hewi
100
AcDbLine
 10
868.8054348130448
 20
498.5207779423366
 30
0.0
 11
867.9834438462478
 21
495.6813461796413
 31
0.0
  0
LINE
  5
1422
330
1F
100
AcDbEntity
  8
Hewi
100
AcDbLine
 10
882.8159023423415
 20
475.0662643925319
 30
0.0
 11
879.2616726060135
 21
475.628550769485
 31
0.0
  0
LINE
  5
1423
330
1F
100
AcDbEntity
  8
Hewi
100
AcDbLine
 10
1031.099898924373
 20
525.9536392704616
 30
0.0
 11
1029.765517820857
 21
514.7848160282741
 31
0.0
  0
LINE
  5
1424
330
1F
100
AcDbEntity
  8
Hewi
100
AcDbLine
 10
1006.107833494685
 20
527.4930222050319
 30
0.0
 11
1005.27897607281
 21
520.5546982304225
 31
0.0
  0
LINE
  5
1425
330
1F
100
AcDbEntity
  8
Hewi
100
AcDbLine
 10
867.9834438462478
 20
495.6813461796413
 30
0.0
 11
867.6871181626541
 21
492.4493820683132
 31
0.0
  0
LINE
  5
1426
330
1F
100
AcDbEntity
  8
Hewi
100
AcDbLine
 10
991.4247585435134
 20
491.8537552372584
 30
0.0
 11
990.8739162583572
 21
485.8445389286647
 31
0.0
  0
LINE
  5
1427
330
1F
100
AcDbEntity
  8
Hewi
100
AcDbLine
 10
1018.896834959529
 20
566.8223221317897
 30
0.0
 11
1018.796889891169
 21
566.8228561894069
 31
0.0
  0
LINE
  5
1428
330
1F
100
AcDbEntity
  8
Hewi
100
AcDbLine
 10
1012.370345701716
 20
549.7535355106959
 30
0.0
 11
1009.069411863826
 21
549.7694809452663
 31
0.0
  0
LINE
  5
1429
330
1F
100
AcDbEntity
  8
Hewi
100
AcDbLine
 10
1028.219497313044
 20
549.6772415653834
 30
0.0
 11
1024.869735350154
 21
549.6934158817897
 31
0.0
  0
LINE
  5
142A
330
1F
100
AcDbEntity
  8
Hewi
100
AcDbLine
 10
1012.559402098201
 20
549.7526199833522
 30
0.0
 11
1009.20964013531
 21
549.7687942997584
 31
0.0
  0
LINE
  5
142B
330
1F
100
AcDbEntity
  8
Hewi
100
AcDbLine
 10
1027.824447264216
 20
549.6791489140163
 30
0.0
 11
1024.204452147029
 21
549.6966202274928
 31
0.0
  0
LINE
  5
142C
330
1F
100
AcDbEntity
  8
Hewi
100
AcDbLine
 10
1001.405227293513
 20
566.8065292851101
 30
0.0
 11
998.2269741196853
 21
566.8218643681179
 31
0.0
  0
LINE
  5
142D
330
1F
100
AcDbEntity
  8
Hewi
100
AcDbLine
 10
1032.867477049373
 20
566.6550858036647
 30
0.0
 11
1029.689223875545
 21
566.6704208866725
 31
0.0
  0
LINE
  5
142E
330
1F
100
AcDbEntity
  8
Hewi
100
AcDbLine
 10
1015.465438475154
 20
549.73865819136
 30
0.0
 11
1010.941665281794
 21
549.7604782597194
 31
0.0
  0
LINE
  5
142F
330
1F
100
AcDbEntity
  8
Hewi
100
AcDbLine
 10
1007.006270994685
 20
549.7793991581569
 30
0.0
 11
1006.215255369685
 21
549.7832138554225
 31
0.0
  0
LINE
  5
1430
330
1F
100
AcDbEntity
  8
Hewi
100
AcDbLine
 10
984.3558193345291
 20
509.1980392948756
 30
0.0
 11
981.3498378892166
 21
509.212535144485
 31
0.0
  0
LINE
  5
1431
330
1F
100
AcDbEntity
  8
Hewi
100
AcDbLine
 10
885.9885097642166
 20
509.6715195194851
 30
0.0
 11
882.9825283189041
 21
509.6860153690944
 31
0.0
  0
LINE
  5
1432
330
1F
100
AcDbEntity
  8
Hewi
100
AcDbLine
 10
885.821883787654
 20
475.0517685429225
 30
0.0
 11
882.8159023423415
 21
475.0662643925319
 31
0.0
  0
LINE
  5
1433
330
1F
100
AcDbEntity
  8
Hewi
100
AcDbLine
 10
1032.965285887263
 20
549.654429675735
 30
0.0
 11
1032.348067869685
 21
549.6574051396022
 31
0.0
  0
LINE
  5
1434
330
1F
100
AcDbEntity
  8
Hewi
100
AcDbLine
 10
998.5828090806228
 20
549.8199112431178
 30
0.0
 11
997.9655910630446
 21
549.822886706985
 31
0.0
  0
LINE
  5
1435
330
1F
100
AcDbEntity
  8
Hewi
100
AcDbLine
 10
1015.547225584529
 20
566.7384750858913
 30
0.0
 11
1010.370986570857
 21
566.7634232060085
 31
0.0
  0
LINE
  5
1436
330
1F
100
AcDbEntity
  8
Hewi
100
AcDbLine
 10
1035.547072996638
 20
566.6421921269069
 30
0.0
 11
1035.477187742732
 21
552.1423752323756
 31
0.0
  0
LINE
  5
1437
330
1F
100
AcDbEntity
  8
Hewi
100
AcDbLine
 10
995.5475307603103
 20
566.8347580448757
 30
0.0
 11
995.477645506404
 21
552.3349411503444
 31
0.0
  0
LINE
  5
1438
330
1F
100
AcDbEntity
  8
Hewi
100
AcDbLine
 10
1020.723617186091
 20
566.7135269657741
 30
0.0
 11
1015.547225584529
 21
566.7384750858913
 31
0.0
  0
LINE
  5
1439
330
1F
100
AcDbEntity
  8
Hewi
100
AcDbLine
 10
1006.215255369685
 20
549.7832138554225
 30
0.0
 11
1006.107833494685
 21
527.4930222050319
 31
0.0
  0
LINE
  5
143A
330
1F
100
AcDbEntity
  8
Hewi
100
AcDbLine
 10
1030.497481932185
 20
549.6663315312038
 30
0.0
 11
1028.359725584529
 21
549.676631213821
 31
0.0
  0
LINE
  5
143B
330
1F
100
AcDbEntity
  8
Hewi
100
AcDbLine
 10
1009.069411863826
 20
549.7694809452663
 30
0.0
 11
1006.93165551617
 21
549.7797806278835
 31
0.0
  0
LINE
  5
143C
330
1F
100
AcDbEntity
  8
Hewi
100
AcDbLine
 10
1020.992477049373
 20
549.7120316044459
 30
0.0
 11
1016.436660398982
 21
549.734004260696
 31
0.0
  0
LINE
  5
143D
330
1F
100
AcDbEntity
  8
Hewi
100
AcDbLine
 10
1010.941665281794
 20
549.7604782597194
 30
0.0
 11
1006.726272215388
 21
549.7807724491726
 31
0.0
  0
LINE
  5
143E
330
1F
100
AcDbEntity
  8
Hewi
100
AcDbLine
 10
1024.204452147029
 20
549.6966202274928
 30
0.0
 11
1019.989059080623
 21
549.7169144169459
 31
0.0
  0
LINE
  5
143F
330
1F
100
AcDbEntity
  8
Hewi
100
AcDbLine
 10
996.2289882798415
 20
566.8314774052272
 30
0.0
 11
995.5475307603103
 21
566.8347580448757
 31
0.0
  0
LINE
  5
1440
330
1F
100
AcDbEntity
  8
Hewi
100
AcDbLine
 10
1035.547072996638
 20
566.6421921269069
 30
0.0
 11
1034.865615477107
 21
566.6454727665553
 31
0.0
  0
LINE
  5
1441
330
1F
100
AcDbEntity
  8
Hewi
100
AcDbLine
 10
1031.21403466656
 20
549.6628983036647
 30
0.0
 11
1031.099898924373
 21
525.9536392704616
 31
0.0
  0
LINE
  5
1442
330
1F
100
AcDbEntity
  8
Hewi
100
AcDbLine
 10
984.3558193345291
 20
509.1980392948756
 30
0.0
 11
885.9885097642166
 21
509.6715195194851
 31
0.0
  0
LINE
  5
1443
330
1F
100
AcDbEntity
  8
Hewi
100
AcDbLine
 10
984.1891933579665
 20
474.5782883183132
 30
0.0
 11
885.821883787654
 21
475.0517685429225
 31
0.0
  0
LINE
  5
1444
330
1F
100
AcDbEntity
  8
Hewi
100
AcDbLine
 10
1009.20964013531
 20
549.7687942997584
 30
0.0
 11
1007.006270994685
 21
549.7793991581569
 31
0.0
  0
LINE
  5
1445
330
1F
100
AcDbEntity
  8
Hewi
100
AcDbLine
 10
1030.42286645367
 20
549.666636706985
 30
0.0
 11
1028.219497313044
 21
549.6772415653834
 31
0.0
  0
LINE
  5
1446
330
1F
100
AcDbEntity
  8
Hewi
100
AcDbLine
 10
998.2269741196853
 20
566.8218643681179
 30
0.0
 11
996.2289882798415
 21
566.8314774052272
 31
0.0
  0
LINE
  5
1447
330
1F
100
AcDbEntity
  8
Hewi
100
AcDbLine
 10
1034.865615477107
 20
566.6454727665553
 30
0.0
 11
1032.867477049373
 21
566.6550858036647
 31
0.0
  0
LINE
  5
1448
330
1F
100
AcDbEntity
  8
Hewi
100
AcDbLine
 10
1016.651504148982
 20
549.7329361454616
 30
0.0
 11
1012.559402098201
 21
549.7526199833522
 31
0.0
  0
LINE
  5
1449
330
1F
100
AcDbEntity
  8
Hewi
100
AcDbLine
 10
1024.869735350154
 20
549.6934158817897
 30
0.0
 11
1020.777633299373
 21
549.7130997196803
 31
0.0
  0
LINE
  5
144A
330
1F
100
AcDbEntity
  8
Hewi
100
AcDbLine
 10
1025.547072996638
 20
566.6903336063991
 30
0.0
 11
1020.723617186091
 21
566.7135269657741
 31
0.0
  0
LINE
  5
144B
330
1F
100
AcDbEntity
  8
Hewi
100
AcDbLine
 10
1010.370986570857
 20
566.7634232060085
 30
0.0
 11
1005.54737817242
 21
566.7866165653834
 31
0.0
  0
LINE
  5
144C
330
1F
100
AcDbEntity
  8
Hewi
100
AcDbLine
 10
1028.359725584529
 20
549.676631213821
 30
0.0
 11
1025.058791746638
 21
549.6925003544459
 31
0.0
  0
LINE
  5
144D
330
1F
100
AcDbEntity
  8
Hewi
100
AcDbLine
 10
1005.54737817242
 20
566.7866165653834
 30
0.0
 11
1001.405227293513
 21
566.8065292851101
 31
0.0
  0
LINE
  5
144E
330
1F
100
AcDbEntity
  8
Hewi
100
AcDbLine
 10
1029.689223875545
 20
566.6704208866725
 30
0.0
 11
1025.547072996638
 21
566.6903336063991
 31
0.0
  0
LINE
  5
144F
330
1F
100
AcDbEntity
  8
Hewi
100
AcDbLine
 10
1030.602004637263
 20
549.6657974735866
 30
0.0
 11
1027.824447264216
 21
549.6791489140163
 31
0.0
  0
LINE
  5
1450
330
1F
100
AcDbEntity
  8
Hewi
100
AcDbLine
 10
1003.106429686091
 20
549.7981674687038
 30
0.0
 11
1000.328872313045
 21
549.8115189091334
 31
0.0
  0
LINE
  5
1451
330
1F
100
AcDbEntity
  8
Hewi
100
AcDbLine
 10
1019.989059080623
 20
549.7169144169459
 30
0.0
 11
1015.465438475154
 21
549.73865819136
 31
0.0
  0
LINE
  5
1452
330
1F
100
AcDbEntity
  8
Hewi
100
AcDbLine
 10
1032.348067869685
 20
549.6574051396022
 30
0.0
 11
1030.602004637263
 21
549.6657974735866
 31
0.0
  0
LINE
  5
1453
330
1F
100
AcDbEntity
  8
Hewi
100
AcDbLine
 10
1000.328872313045
 20
549.8115189091334
 30
0.0
 11
998.5828090806228
 21
549.8199112431178
 31
0.0
  0
LINE
  5
1454
330
1F
100
AcDbEntity
  8
Hewi
100
AcDbLine
 10
1006.726272215388
 20
549.7807724491726
 30
0.0
 11
1003.106429686091
 21
549.7981674687038
 31
0.0
  0
LINE
  5
1455
330
1F
100
AcDbEntity
  8
Hewi
100
AcDbLine
 10
1025.058791746638
 20
549.6925003544459
 30
0.0
 11
1020.992477049373
 21
549.7120316044459
 31
0.0
  0
LINE
  5
1456
330
1F
100
AcDbEntity
  8
Hewi
100
AcDbLine
 10
1016.436660398982
 20
549.734004260696
 30
0.0
 11
1012.370345701716
 21
549.7535355106959
 31
0.0
  0
LINE
  5
1457
330
1F
100
AcDbEntity
  8
Hewi
100
AcDbLine
 10
989.6851040024978
 20
479.551890613235
 30
0.0
 11
988.7468410630447
 21
479.5563919560085
 31
0.0
  0
LINE
  5
1458
330
1F
100
AcDbEntity
  8
Hewi
100
AcDbLine
 10
984.1891933579665
 20
474.5782883183132
 30
0.0
 11
981.183211912654
 21
474.5927078739772
 31
0.0
  0
LINE
  5
1459
330
1F
100
AcDbEntity
  8
Hewi
100
AcDbLine
 10
1006.93165551617
 20
549.7797806278835
 30
0.0
 11
1006.215255369685
 21
549.7832138554225
 31
0.0
  0
LINE
  5
145A
330
1F
100
AcDbEntity
  8
Hewi
100
AcDbLine
 10
1031.21403466656
 20
549.6628983036647
 30
0.0
 11
1030.497481932185
 21
549.6663315312038
 31
0.0
  0
LINE
  5
145B
330
1F
100
AcDbEntity
  8
Hewi
100
AcDbLine
 10
1031.21403466656
 20
549.6628983036647
 30
0.0
 11
1030.42286645367
 21
549.666636706985
 31
0.0
  0
LINE
  5
145C
330
1F
100
AcDbEntity
  8
Hewi
100
AcDbLine
 10
1018.896834959529
 20
566.8223221317897
 30
0.0
 11
1018.896377195857
 21
566.7223770634303
 31
0.0
  0
LINE
  5
145D
330
1F
100
AcDbEntity
  8
Hewi
100
AcDbLine
 10
1018.896377195857
 20
566.7223770634303
 30
0.0
 11
1018.796432127498
 21
566.7228348271022
 31
0.0
  0
LINE
  5
145E
330
1F
100
AcDbEntity
  8
Hewi
100
AcDbLine
 10
1018.796889891169
 20
566.8228561894069
 30
0.0
 11
1018.796432127498
 21
566.7228348271022
 31
0.0
  0
LINE
  5
145F
330
1F
100
AcDbEntity
  8
Hewi
100
AcDbLine
 10
991.4247585435134
 20
491.8537552372584
 30
0.0
 11
990.9317470689041
 21
497.8679306522975
 31
0.0
  0
LINE
  5
1460
330
1F
100
AcDbEntity
  8
Hewi
100
AcDbLine
 10
867.9523159165603
 20
489.2146713749538
 30
0.0
 11
867.6871181626541
 21
492.4493820683132
 31
0.0
  0
LINE
  5
1461
330
1F
100
AcDbEntity
  8
Hewi
100
AcDbLine
 10
999.6712185044509
 20
481.0132248417507
 30
0.0
 11
989.6851040024978
 21
479.551890613235
 31
0.0
  0
LINE
  5
1462
330
1F
100
AcDbEntity
  8
Hewi
100
AcDbLine
 10
992.0550991196853
 20
505.0366623417507
 30
0.0
 11
988.6548305649979
 21
504.5390732304225
 31
0.0
  0
LINE
  5
1463
330
1F
100
AcDbEntity
  8
Hewi
100
AcDbLine
 10
882.9825283189041
 20
509.6860153690944
 30
0.0
 11
879.422958006404
 21
509.1579849735865
 31
0.0
  0
LINE
  5
1464
330
1F
100
AcDbEntity
  8
Hewi
100
AcDbLine
 10
990.9317470689041
 20
497.8679306522975
 30
0.0
 11
989.4542385239821
 21
503.161738635696
 31
0.0
  0
LINE
  5
1465
330
1F
100
AcDbEntity
  8
Hewi
100
AcDbLine
 10
868.7469936509353
 20
486.3674576298365
 30
0.0
 11
867.9523159165603
 21
489.2146713749538
 31
0.0
  0
LINE
  5
1466
330
1F
100
AcDbEntity
  8
Hewi
100
AcDbLine
 10
869.6803737778884
 20
484.2000992313991
 30
0.0
 11
868.7469936509353
 21
486.3674576298365
 31
0.0
  0
LINE
  5
1467
330
1F
100
AcDbEntity
  8
Hewi
100
AcDbLine
 10
1009.647262205623
 20
485.7021744267115
 30
0.0
 11
999.6712185044509
 21
481.0132248417507
 31
0.0
  0
LINE
  5
1468
330
1F
100
AcDbEntity
  8
Hewi
100
AcDbLine
 10
996.8065334458572
 20
507.2699387089381
 30
0.0
 11
992.0550991196853
 21
505.0366623417507
 31
0.0
  0
LINE
  5
1469
330
1F
100
AcDbEntity
  8
Hewi
100
AcDbLine
 10
879.422958006404
 20
509.1579849735865
 30
0.0
 11
876.1955715317947
 21
507.5751144901881
 31
0.0
  0
LINE
  5
146A
330
1F
100
AcDbEntity
  8
Hewi
100
AcDbLine
 10
871.3458706040603
 20
481.33045506636
 30
0.0
 11
869.6803737778884
 21
484.2000992313991
 31
0.0
  0
LINE
  5
146B
330
1F
100
AcDbEntity
  8
Hewi
100
AcDbLine
 10
989.4542385239821
 20
503.161738635696
 30
0.0
 11
987.1704555649978
 21
507.0965988651882
 31
0.0
  0
LINE
  5
146C
330
1F
100
AcDbEntity
  8
Hewi
100
AcDbLine
 10
987.0239711899978
 20
476.6524918095241
 30
0.0
 11
984.1891933579665
 21
474.5782883183132
 31
0.0
  0
LINE
  5
146D
330
1F
100
AcDbEntity
  8
Hewi
100
AcDbLine
 10
876.1955715317947
 20
507.5751144901881
 30
0.0
 11
873.7118984360916
 21
505.7577164188991
 31
0.0
  0
LINE
  5
146E
330
1F
100
AcDbEntity
  8
Hewi
100
AcDbLine
 10
1000.894668211482
 20
510.8392746464382
 30
0.0
 11
996.8065334458572
 21
507.2699387089381
 31
0.0
  0
LINE
  5
146F
330
1F
100
AcDbEntity
  8
Hewi
100
AcDbLine
 10
1018.230483641169
 20
493.1962997929225
 30
0.0
 11
1009.647262205623
 21
485.7021744267115
 31
0.0
  0
LINE
  5
1470
330
1F
100
AcDbEntity
  8
Hewi
100
AcDbLine
 10
1019.322707762263
 20
494.2499954716335
 30
0.0
 11
1018.230483641169
 21
493.1962997929225
 31
0.0
  0
LINE
  5
1471
330
1F
100
AcDbEntity
  8
Hewi
100
AcDbLine
 10
873.7118984360916
 20
505.7577164188991
 30
0.0
 11
871.4526821274978
 21
503.5325272099147
 31
0.0
  0
LINE
  5
1472
330
1F
100
AcDbEntity
  8
Hewi
100
AcDbLine
 10
873.5834194321853
 20
479.0835983769069
 30
0.0
 11
871.3458706040603
 21
481.33045506636
 31
0.0
  0
ARC
  5
1473
330
1F
100
AcDbEntity
  8
Hewi
100
AcDbCircle
 10
1032.977174835496
 20
552.154443441885
 30
0.0
 40
2.500042035252132
100
AcDbArc
 50
269.7275289317835
 51
359.7234205878499
  0
ARC
  5
1474
330
1F
100
AcDbEntity
  8
Hewi
100
AcDbCircle
 10
997.9776607536935
 20
552.3229018079413
 30
0.0
 40
2.500044236096958
100
AcDbArc
 50
179.7240824125876
 51
269.7233868862225
  0
LINE
  5
1520
330
1F
100
AcDbEntity
  8
Hewi
  6
STANDARD
 62
     7
100
AcDbLine
 10
700.0354358091017
 20
723.1361106269758
 30
0.0
 11
703.9593097104689
 21
727.2060874336164
 31
0.0
  0
LINE
  5
1521
330
1F
100
AcDbEntity
  8
Hewi
  6
STANDARD
 62
     7
100
AcDbLine
 10
673.994252337422
 20
799.9569419258039
 30
0.0
 11
677.7945300473829
 21
803.8987449043196
 31
0.0
  0
LINE
  5
1522
330
1F
100
AcDbEntity
  8
Hewi
  6
STANDARD
 62
     7
100
AcDbLine
 10
683.9702960385939
 20
715.165682160179
 30
0.0
 11
686.4077350034376
 21
712.9641440742415
 31
0.0
  0
LINE
  5
1523
330
1F
100
AcDbEntity
  8
Hewi
  6
STANDARD
 62
     7
100
AcDbLine
 10
698.6362811460158
 20
804.7169211738509
 30
0.0
 11
699.6796008481642
 21
803.8987449043196
 31
0.0
  0
LINE
  5
1524
330
1F
100
AcDbEntity
  8
Hewi
  6
STANDARD
 62
     7
100
AcDbLine
 10
747.4692889585157
 20
695.4148581855696
 30
0.0
 11
748.280369891133
 21
694.8681357734602
 31
0.0
  0
LINE
  5
1525
330
1F
100
AcDbEntity
  8
Hewi
  6
STANDARD
 62
     7
100
AcDbLine
 10
746.9273730649602
 20
913.1196311347883
 30
0.0
 11
747.4692889585148
 21
913.9377311103743
 31
0.0
  0
LINE
  5
1526
330
1F
100
AcDbEntity
  8
Hewi
  6
STANDARD
 62
     7
100
AcDbLine
 10
686.4077350034376
 20
712.9641440742415
 30
0.0
 11
693.2577868833204
 21
708.5682395332258
 31
0.0
  0
LINE
  5
1527
330
1F
100
AcDbEntity
  8
Hewi
  6
STANDARD
 62
     7
100
AcDbLine
 10
677.4386950864454
 20
723.1361106269758
 30
0.0
 11
682.7253314389845
 21
720.4795554511946
 31
0.0
  0
LINE
  5
1528
330
1F
100
AcDbEntity
  8
Hewi
  6
STANDARD
 62
     7
100
AcDbLine
 10
694.0043231382032
 20
807.0443442695539
 30
0.0
 11
698.6362811460158
 21
804.7169211738509
 31
0.0
  0
LINE
  5
1529
330
1F
100
AcDbEntity
  8
Hewi
  6
STANDARD
 62
     7
100
AcDbLine
 10
703.9593097104689
 20
727.2060874336164
 30
0.0
 11
706.0471698178908
 21
732.1987632148664
 31
0.0
  0
LINE
  5
152A
330
1F
100
AcDbEntity
  8
Hewi
  6
STANDARD
 62
     7
100
AcDbLine
 10
671.9721576108595
 20
795.1215842597884
 30
0.0
 11
673.994252337422
 21
799.9569419258039
 31
0.0
  0
LINE
  5
152B
330
1F
100
AcDbEntity
  8
Hewi
  6
STANDARD
 62
     7
100
AcDbLine
 10
693.2577868833204
 20
708.5682395332258
 30
0.0
 11
702.184941424336
 21
705.1951316230696
 31
0.0
  0
LINE
  5
152C
330
1F
100
AcDbEntity
  8
Hewi
  6
STANDARD
 62
     7
100
AcDbLine
 10
705.3897448911329
 20
730.6266501777571
 30
0.0
 11
710.2891131772658
 21
728.7754538886946
 31
0.0
  0
LINE
  5
152D
330
1F
100
AcDbEntity
  8
Hewi
  6
STANDARD
 62
     7
100
AcDbLine
 10
671.4269610776564
 20
793.1660178535383
 30
0.0
 11
671.9721576108595
 21
795.1215842597884
 31
0.0
  0
LINE
  5
152E
330
1F
100
AcDbEntity
  8
Hewi
  6
STANDARD
 62
     7
100
AcDbLine
 10
702.184941424336
 20
705.1951316230696
 30
0.0
 11
712.580907000508
 21
703.074617707054
 31
0.0
  0
LINE
  5
152F
330
1F
100
AcDbEntity
  8
Hewi
  6
STANDARD
 62
     7
100
AcDbLine
 10
748.280369891133
 20
694.8681357734602
 30
0.0
 11
749.2370196714063
 21
694.6763327949446
 31
0.0
  0
LINE
  5
1530
330
1F
100
AcDbEntity
  8
Hewi
  6
STANDARD
 62
     7
100
AcDbLine
 10
710.2891131772658
 20
728.7754538886946
 30
0.0
 11
716.7759295835158
 21
727.4523642890852
 31
0.0
  0
LINE
  5
1531
330
1F
100
AcDbEntity
  8
Hewi
  6
STANDARD
 62
     7
100
AcDbLine
 10
746.7370196714055
 20
912.1546653144759
 30
0.0
 11
746.9273730649602
 21
913.1196311347883
 31
0.0
  0
LINE
  5
1532
330
1F
100
AcDbEntity
  8
Hewi
  6
STANDARD
 62
     7
100
AcDbLine
 10
682.7253314389845
 20
720.4795554511946
 30
0.0
 11
688.7370654477735
 21
719.5568564765852
 31
0.0
  0
LINE
  5
1533
330
1F
100
AcDbEntity
  8
Hewi
  6
STANDARD
 62
     7
100
AcDbLine
 10
688.7370654477735
 20
807.8527549140853
 30
0.0
 11
694.0043231382032
 21
807.0443442695539
 31
0.0
  0
LINE
  5
1534
330
1F
100
AcDbEntity
  8
Hewi
  6
STANDARD
 62
     7
100
AcDbLine
 10
713.5623523130079
 20
702.989168488304
 30
0.0
 11
723.4568377866407
 21
702.3476889961165
 31
0.0
  0
LINE
  5
1535
330
1F
100
AcDbEntity
  8
Hewi
  6
STANDARD
 62
     7
100
AcDbLine
 10
716.6184588803908
 20
727.4845603340071
 30
0.0
 11
724.0172931089063
 21
727.0048240058821
 31
0.0
  0
LINE
  5
1536
330
1F
100
AcDbEntity
  8
Hewi
  6
STANDARD
 62
     7
100
AcDbLine
 10
688.7370654477735
 20
719.5568564765852
 30
0.0
 11
694.7487994565626
 21
720.4795554511946
 31
0.0
  0
LINE
  5
1537
330
1F
100
AcDbEntity
  8
Hewi
  6
STANDARD
 62
     7
100
AcDbLine
 10
683.4698077573439
 20
807.0443442695539
 30
0.0
 11
688.7370654477735
 21
807.8527549140853
 31
0.0
  0
LINE
  5
1538
330
1F
100
AcDbEntity
  8
Hewi
  6
STANDARD
 62
     7
100
AcDbLine
 10
748.280369891132
 20
914.4843009345931
 30
0.0
 11
749.2370196714055
 21
914.6762565009993
 31
0.0
  0
LINE
  5
1539
330
1F
100
AcDbEntity
  8
Hewi
  6
STANDARD
 62
     7
100
AcDbLine
 10
746.7370196714064
 20
697.1978476875228
 30
0.0
 11
746.9273730649611
 21
696.2328818672102
 31
0.0
  0
LINE
  5
153A
330
1F
100
AcDbEntity
  8
Hewi
  6
STANDARD
 62
     7
100
AcDbLine
 10
705.5019732846877
 20
795.1215842597884
 30
0.0
 11
706.0471698178908
 21
793.1660178535383
 31
0.0
  0
LINE
  5
153B
330
1F
100
AcDbEntity
  8
Hewi
  6
STANDARD
 62
     7
100
AcDbLine
 10
671.4269610776564
 20
732.1987632148664
 30
0.0
 11
673.5148211850782
 21
727.2060874336164
 31
0.0
  0
LINE
  5
153C
330
1F
100
AcDbEntity
  8
Hewi
  6
STANDARD
 62
     7
100
AcDbLine
 10
703.4798785581251
 20
799.9569419258039
 30
0.0
 11
705.5019732846877
 21
795.1215842597884
 31
0.0
  0
LINE
  5
153D
330
1F
100
AcDbEntity
  8
Hewi
  6
STANDARD
 62
     7
100
AcDbLine
 10
678.5368701352735
 20
722.5842002265852
 30
0.0
 11
679.3829699887892
 21
720.6190207832259
 31
0.0
  0
LINE
  5
153E
330
1F
100
AcDbEntity
  8
Hewi
  6
STANDARD
 62
     7
100
AcDbLine
 10
694.7487994565626
 20
720.4795554511946
 30
0.0
 11
700.0354358091017
 21
723.1361106269758
 31
0.0
  0
LINE
  5
153F
330
1F
100
AcDbEntity
  8
Hewi
  6
STANDARD
 62
     7
100
AcDbLine
 10
678.8378497495314
 20
804.7169211738509
 30
0.0
 11
683.4698077573439
 21
807.0443442695539
 31
0.0
  0
LINE
  5
1540
330
1F
100
AcDbEntity
  8
Hewi
  6
STANDARD
 62
     7
100
AcDbLine
 10
746.9273730649611
 20
696.2328818672102
 30
0.0
 11
747.4692889585157
 21
695.4148581855696
 31
0.0
  0
LINE
  5
1541
330
1F
100
AcDbEntity
  8
Hewi
  6
STANDARD
 62
     7
100
AcDbLine
 10
747.4692889585148
 20
913.9377311103743
 30
0.0
 11
748.280369891132
 21
914.4843009345931
 31
0.0
  0
LINE
  5
1542
330
1F
100
AcDbEntity
  8
Hewi
  6
STANDARD
 62
     7
100
AcDbLine
 10
677.7945300473829
 20
803.8987449043196
 30
0.0
 11
678.8378497495314
 21
804.7169211738509
 31
0.0
  0
LINE
  5
1543
330
1F
100
AcDbEntity
  8
Hewi
  6
STANDARD
 62
     7
100
AcDbLine
 10
679.3829699887892
 20
720.6190207832259
 30
0.0
 11
683.9702960385939
 21
715.165682160179
 31
0.0
  0
LINE
  5
1544
330
1F
100
AcDbEntity
  8
Hewi
  6
STANDARD
 62
     7
100
AcDbLine
 10
673.5148211850782
 20
727.2060874336164
 30
0.0
 11
677.4386950864454
 21
723.1361106269758
 31
0.0
  0
LINE
  5
1545
330
1F
100
AcDbEntity
  8
Hewi
  6
STANDARD
 62
     7
100
AcDbLine
 10
699.6796008481642
 20
803.8987449043196
 30
0.0
 11
703.4798785581251
 21
799.9569419258039
 31
0.0
  0
LINE
  5
1546
330
1F
100
AcDbEntity
  8
Hewi
  6
STANDARD
 62
     7
100
AcDbLine
 10
706.0471698178908
 20
732.1987632148664
 30
0.0
 11
706.0471698178908
 21
793.1660178535383
 31
0.0
  0
LINE
  5
1547
330
1F
100
AcDbEntity
  8
Hewi
  6
STANDARD
 62
     7
100
AcDbLine
 10
671.4269610776564
 20
732.1987632148664
 30
0.0
 11
671.4269610776564
 21
793.1660178535383
 31
0.0
  0
LINE
  5
1548
330
1F
100
AcDbEntity
  8
Hewi
  6
STANDARD
 62
     7
100
AcDbLine
 10
763.7370654477735
 20
694.6763327949452
 30
0.0
 11
763.7370654477726
 21
914.6762565009998
 31
0.0
  0
LINE
  5
1549
330
1F
100
AcDbEntity
  8
Hewi
  6
STANDARD
 62
     7
100
AcDbLine
 10
746.7370196714064
 20
697.1978476875228
 30
0.0
 11
746.7370196714055
 21
912.1546653144759
 31
0.0
  0
LINE
  5
154A
330
1F
100
AcDbEntity
  8
Hewi
  6
STANDARD
 62
     7
100
AcDbLine
 10
712.580907000508
 20
703.074617707054
 30
0.0
 11
713.5623523130079
 21
702.989168488304
 31
0.0
  0
LINE
  5
154B
330
1F
100
AcDbEntity
  8
Hewi
  6
STANDARD
 62
     7
100
AcDbLine
 10
723.4568377866407
 20
702.3476889961165
 30
0.0
 11
746.7370196714064
 21
702.3476889961165
 31
0.0
  0
LINE
  5
154C
330
1F
100
AcDbEntity
  8
Hewi
  6
STANDARD
 62
     7
100
AcDbLine
 10
724.0172931089063
 20
727.0048240058821
 30
0.0
 11
746.7370196714064
 21
727.0048240058821
 31
0.0
  0
LINE
  5
154D
330
1F
100
AcDbEntity
  8
Hewi
  6
STANDARD
 62
     7
100
AcDbLine
 10
749.2370196714063
 20
694.6763327949446
 30
0.0
 11
763.7370654477735
 21
694.6763327949452
 31
0.0
  0
LINE
  5
154E
330
1F
100
AcDbEntity
  8
Hewi
  6
STANDARD
 62
     7
100
AcDbLine
 10
749.2370196714055
 20
914.6762565009993
 30
0.0
 11
763.7370654477726
 21
914.6762565009998
 31
0.0
  0
VIEWPORT
  5
A5E
102
{ACAD_XDICTIONARY
360
155D
102
}
330
50
100
AcDbEntity
 67
     1
  8
0
100
AcDbViewport
 10
97.88524961471564
 20
148.2249531459566
 30
0.0
 40
543.0649915264304
 41
325.9270833167546
 68
     1
 69
     1
 12
97.88524961471564
 22
148.2249531459566
 13
0.0
 23
0.0
 14
10.0
 24
10.0
 15
10.0
 25
10.0
 16
0.0
 26
0.0
 36
1.0
 17
0.0
 27
0.0
 37
0.0
 42
50.0
 43
0.0
 44
0.0
 45
325.9270833167546
 50
0.0
 51
0.0
 72
  1000
 90
    32800
  1

281
     0
 71
     1
 74
     0
110
0.0
120
0.0
130
0.0
111
1.0
121
0.0
131
0.0
112
0.0
122
1.0
132
0.0
 79
     0
146
0.0
  0
VIEWPORT
  5
A60
102
{ACAD_XDICTIONARY
360
155F
102
}
330
50
100
AcDbEntity
 67
     1
  8
0
100
AcDbViewport
 10
96.54765102797625
 20
141.66686348948
 30
0.0
 40
184.1427262969494
 41
274.0437409250292
 68
     2
 69
     2
 12
996.3538019906792
 22
-1436.727906654864
 13
0.0
 23
0.0
 14
10.0
 24
10.0
 15
10.0
 25
10.0
 16
0.0
 26
0.0
 36
1.0
 17
0.0
 27
0.0
 37
0.0
 42
50.0
 43
0.0
 44
0.0
 45
4075.922525787466
 50
0.0
 51
0.0
 72
  1000
 90
    32864
  1

281
     0
 71
     1
 74
     0
110
0.0
120
0.0
130
0.0
111
1.0
121
0.0
131
0.0
112
0.0
122
1.0
132
0.0
 79
     0
146
0.0
  0
TEXT
  5
A61
330
50
100
AcDbEntity
 67
     1
  8
0
100
AcDbText
 10
12.50187879601913
 20
14.44818345311239
 30
0.0
 40
6.0
  1
Artikel LifeSystem Sonder
  7
HEWI
100
AcDbText
  0
ENDSEC
  0
SECTION
  2
OBJECTS
  0
DICTIONARY
  5
C
330
0
100
AcDbDictionary
281
     1
  3
ACAD_COLOR
350
6B
  3
ACAD_GROUP
350
D
  3
ACAD_LAYOUT
350
1A
  3
ACAD_MATERIAL
350
6A
  3
ACAD_MLINESTYLE
350
17
  3
ACAD_PLOTSETTINGS
350
19
  3
ACAD_PLOTSTYLENAME
350
E
  3
ACAD_TABLESTYLE
350
1322
  3
ACAD_VISUALSTYLE
350
1311
  3
AcDbVariableDictionary
350
5E
  3
DWGPROPS
350
1556
  0
DICTIONARY
  5
14F6
330
8
100
AcDbDictionary
280
     1
281
     1
  0
DICTIONARY
  5
132E
330
2
100
AcDbDictionary
280
     1
281
     1
  3
ACAD_LAYERFILTERS
360
1553
  3
ACAD_LAYERSTATES
360
132F
  3
ACLYDICTIONARY
360
1552
  0
DICTIONARY
  5
155D
330
A5E
100
AcDbDictionary
280
     1
281
     1
  3
ACAD_XREC_ROUNDTRIP
360
155E
  0
DICTIONARY
  5
155F
330
A60
100
AcDbDictionary
280
     1
281
     1
  3
ACAD_XREC_ROUNDTRIP
360
1560
  0
DICTIONARY
  5
6B
102
{ACAD_REACTORS
330
C
102
}
330
C
100
AcDbDictionary
281
     1
  0
DICTIONARY
  5
D
102
{ACAD_REACTORS
330
C
102
}
330
C
100
AcDbDictionary
281
     1
  0
DICTIONARY
  5
1A
102
{ACAD_REACTORS
330
C
102
}
330
C
100
AcDbDictionary
281
     1
  3
Layout1
350
51
  3
Layout2
350
56
  3
Model
350
22
  0
DICTIONARY
  5
6A
102
{ACAD_REACTORS
330
C
102
}
330
C
100
AcDbDictionary
281
     1
  3
ByBlock
350
130F
  3
ByLayer
350
130E
  3
Global
350
1310
  0
DICTIONARY
  5
17
102
{ACAD_REACTORS
330
C
102
}
330
C
100
AcDbDictionary
281
     1
  3
Standard
350
18
  0
DICTIONARY
  5
19
102
{ACAD_REACTORS
330
C
102
}
330
C
100
AcDbDictionary
281
     1
  0
ACDBDICTIONARYWDFLT
  5
E
102
{ACAD_REACTORS
330
C
102
}
330
C
100
AcDbDictionary
281
     1
  3
Normal
350
F
100
AcDbDictionaryWithDefault
340
F
  0
DICTIONARY
  5
1322
102
{ACAD_REACTORS
330
C
102
}
330
C
100
AcDbDictionary
281
     1
  3
Standard
350
1323
  0
DICTIONARY
  5
1311
102
{ACAD_REACTORS
330
C
102
}
330
C
100
AcDbDictionary
281
     1
  3
2dWireframe
350
1317
  3
3D Hidden
350
1319
  3
3dWireframe
350
1318
  3
Basic
350
1316
  3
Brighten
350
131D
  3
ColorChange
350
1321
  3
Conceptual
350
131A
  3
Dim
350
131C
  3
Facepattern
350
1320
  3
Flat
350
1312
  3
FlatWithEdges
350
1313
  3
Gouraud
350
1314
  3
GouraudWithEdges
350
1315
  3
Linepattern
350
131F
  3
Realistic
350
131B
  3
Thicken
350
131E
  0
DICTIONARY
  5
5E
102
{ACAD_REACTORS
330
C
102
}
330
C
100
AcDbDictionary
281
     1
  3
CTABLESTYLE
350
1514
  3
DIMASSOC
350
5F
  3
HIDETEXT
350
63
  3
INDEXCTL
350
1555
  3
SORTENTS
350
1554
  0
XRECORD
  5
1556
102
{ACAD_REACTORS
330
C
102
}
330
C
100
AcDbXrecord
280
     1
  1
DWGPROPS COOKIE
  2

  3

  4

  6

  7

  8
kaschu
  9

300
=
301
=
302
=
303
=
304
=
305
=
306
=
307
=
308
=
309
=
 40
0.0720063310185185
 41
2453385.501389248
 42
2454424.696103727
  1

 90
        0
  0
DICTIONARY
  5
1553
102
{ACAD_REACTORS
330
132E
102
}
330
132E
100
AcDbDictionary
281
     1
  0
DICTIONARY
  5
132F
102
{ACAD_REACTORS
330
132E
102
}
330
132E
100
AcDbDictionary
281
     1
  0
DICTIONARY
  5
1552
102
{ACAD_REACTORS
330
132E
102
}
330
132E
100
AcDbDictionary
281
     1
1001
ACAD
1000
<All
  0
XRECORD
  5
155E
102
{ACAD_REACTORS
330
155D
102
}
330
155D
100
AcDbXrecord
280
     1
102
SHADEPLOT
 70
     0
  0
XRECORD
  5
1560
102
{ACAD_REACTORS
330
155F
102
}
330
155F
100
AcDbXrecord
280
     1
102
SHADEPLOT
 70
     0
  0
LAYOUT
  5
51
102
{ACAD_XDICTIONARY
360
1559
102
}
102
{ACAD_REACTORS
330
1A
102
}
330
1A
100
AcDbPlotSettings
  1

  2
\\PDC01\AROBBE04
  4
A4
  6

 40
7.143749713897705
 41
6.127734661102294
 42
7.821075439453125
 43
7.14373779296875
 44
210.0579986572266
 45
296.9259948730469
 46
0.0
 47
0.0
 48
0.0
 49
0.0
140
0.0
141
0.0
142
1.0
143
1.0
 70
   688
 72
     1
 73
     0
 74
     5
  7

 75
    16
147
1.0
148
0.0
149
0.0
100
AcDbLayout
  1
Layout1
 70
     1
 71
     1
 10
-7.143749713897705
 20
-6.127734661102294
 11
202.9142489433289
 21
290.7982602119446
 12
0.0
 22
0.0
 32
0.0
 14
4.476287879501569
 24
4.644993026965437
 34
0.0
 15
188.6190141764509
 25
278.6887339519946
 35
0.0
146
0.0
 13
0.0
 23
0.0
 33
0.0
 16
1.0
 26
0.0
 36
0.0
 17
0.0
 27
1.0
 37
0.0
 76
     0
330
50
331
A5E
  0
LAYOUT
  5
56
102
{ACAD_XDICTIONARY
360
155B
102
}
102
{ACAD_REACTORS
330
1A
102
}
330
1A
100
AcDbPlotSettings
  1

  2
None
  4

  6

 40
0.0
 41
0.0
 42
0.0
 43
0.0
 44
0.0
 45
0.0
 46
0.0
 47
0.0
 48
0.0
 49
0.0
140
0.0
141
0.0
142
1.0
143
1.0
 70
   688
 72
     0
 73
     0
 74
     5
  7

 75
    16
147
1.0
148
0.0
149
0.0
100
AcDbLayout
  1
Layout2
 70
     1
 71
     2
 10
0.0
 20
0.0
 11
12.0
 21
9.0
 12
0.0
 22
0.0
 32
0.0
 14
0.0
 24
0.0
 34
0.0
 15
0.0
 25
0.0
 35
0.0
146
0.0
 13
0.0
 23
0.0
 33
0.0
 16
1.0
 26
0.0
 36
0.0
 17
0.0
 27
1.0
 37
0.0
 76
     0
330
55
  0
LAYOUT
  5
22
102
{ACAD_XDICTIONARY
360
1557
102
}
102
{ACAD_REACTORS
330
1A
102
}
330
1A
100
AcDbPlotSettings
  1

  2
none_device
  4
ANSI_A_(8.50_x_11.00_Inches)
  6

 40
6.349999904632567
 41
19.04999923706055
 42
6.350006103515625
 43
19.04998779296875
 44
215.8999938964844
 45
279.3999938964844
 46
0.0
 47
0.0
 48
0.0
 49
0.0
140
0.0
141
0.0
142
1.0
143
78.436453180766
 70
 11952
 72
     0
 73
     1
 74
     0
  7

 75
     0
147
0.0127491741332998
148
0.0
149
0.0
100
AcDbLayout
  1
Model
 70
     1
 71
     0
 10
0.0
 20
0.0
 11
12.0
 21
9.0
 12
0.0
 22
0.0
 32
0.0
 14
0.0
 24
0.0
 34
0.0
 15
0.0
 25
0.0
 35
0.0
146
0.0
 13
0.0
 23
0.0
 33
0.0
 16
1.0
 26
0.0
 36
0.0
 17
0.0
 27
1.0
 37
0.0
 76
     0
330
1F
331
130C
  0
MATERIAL
  5
130F
102
{ACAD_XDICTIONARY
360
1563
102
}
102
{ACAD_REACTORS
330
6A
102
}
330
6A
100
AcDbMaterial
  1
ByBlock
  0
MATERIAL
  5
130E
102
{ACAD_XDICTIONARY
360
1561
102
}
102
{ACAD_REACTORS
330
6A
102
}
330
6A
100
AcDbMaterial
  1
ByLayer
  0
MATERIAL
  5
1310
102
{ACAD_XDICTIONARY
360
1565
102
}
102
{ACAD_REACTORS
330
6A
102
}
330
6A
100
AcDbMaterial
  1
Global
  0
MLINESTYLE
  5
18
102
{ACAD_REACTORS
330
17
102
}
330
17
100
AcDbMlineStyle
  2
STANDARD
 70
     0
  3

 62
   256
 51
90.0
 52
90.0
 71
     2
 49
0.5
 62
   256
  6
BYLAYER
 49
-0.5
 62
   256
  6
BYLAYER
  0
ACDBPLACEHOLDER
  5
F
102
{ACAD_REACTORS
330
E
102
}
330
E
  0
TABLESTYLE
  5
1323
102
{ACAD_XDICTIONARY
360
1567
102
}
102
{ACAD_REACTORS
330
1322
102
}
330
1322
100
AcDbTableStyle
  3
Standard
 70
     0
 71
     0
 40
1.5
 41
1.5
280
     0
281
     0
  7
Standard
140
4.5
170
     2
 62
     0
 63
     7
283
     0
274
    -2
284
     1
 64
     0
275
    -2
285
     1
 65
     0
276
    -2
286
     1
 66
     0
277
    -2
287
     1
 67
     0
278
    -2
288
     1
 68
     0
279
    -2
289
     1
 69
     0
  7
Standard
140
6.0
170
     5
 62
     0
 63
     7
283
     0
274
    -2
284
     1
 64
     0
275
    -2
285
     1
 65
     0
276
    -2
286
     1
 66
     0
277
    -2
287
     1
 67
     0
278
    -2
288
     1
 68
     0
279
    -2
289
     1
 69
     0
  7
Standard
140
4.5
170
     5
 62
     0
 63
     7
283
     0
274
    -2
284
     1
 64
     0
275
    -2
285
     1
 65
     0
276
    -2
286
     1
 66
     0
277
    -2
287
     1
 67
     0
278
    -2
288
     1
 68
     0
279
    -2
289
     1
 69
     0
  0
VISUALSTYLE
  5
1317
102
{ACAD_REACTORS
330
1311
102
}
330
1311
100
AcDbVisualStyle
  2
2dWireframe
 70
     4
 71
     0
 72
     2
 73
     0
 90
        0
 40
-0.6
 41
-30.0
 62
     5
 63
     7
 74
     1
 91
        4
 64
     7
 65
   257
 75
     1
175
     1
 42
1.0
 92
        0
 66
   257
 43
1.0
 76
     1
 77
     6
 78
     2
 67
     7
 79
     5
170
     0
171
     0
290
     0
174
     0
 93
        1
 44
0.0
173
     0
291
     0
 45
0.0
1001
ACAD
1000
AcDbSavedByObjectVersion
1070
     0
  0
VISUALSTYLE
  5
1319
102
{ACAD_REACTORS
330
1311
102
}
330
1311
100
AcDbVisualStyle
  2
3D Hidden
 70
     6
 71
     1
 72
     2
 73
     2
 90
        0
 40
-0.6
 41
-30.0
 62
     5
 63
     7
 74
     2
 91
        2
 64
     7
 65
   257
 75
     2
175
     1
 42
40.0
 92
        0
 66
   257
 43
1.0
 76
     1
 77
     6
 78
     2
 67
     7
 79
     3
170
     0
171
     0
290
     0
174
     0
 93
        1
 44
0.0
173
     0
291
     0
 45
0.0
1001
ACAD
1000
AcDbSavedByObjectVersion
1070
     0
  0
VISUALSTYLE
  5
1318
102
{ACAD_REACTORS
330
1311
102
}
330
1311
100
AcDbVisualStyle
  2
3dWireframe
 70
     5
 71
     0
 72
     2
 73
     0
 90
        0
 40
-0.6
 41
-30.0
 62
     5
 63
     7
 74
     1
 91
        4
 64
     7
 65
   257
 75
     1
175
     1
 42
1.0
 92
        0
 66
   257
 43
1.0
 76
     1
 77
     6
 78
     2
 67
     7
 79
     5
170
     0
171
     0
290
     0
174
     0
 93
        1
 44
0.0
173
     0
291
     0
 45
0.0
1001
ACAD
1000
AcDbSavedByObjectVersion
1070
     0
  0
VISUALSTYLE
  5
1316
102
{ACAD_REACTORS
330
1311
102
}
330
1311
100
AcDbVisualStyle
  2
Basic
 70
     7
 71
     1
 72
     0
 73
     1
 90
        0
 40
-0.6
 41
-30.0
 62
     5
 63
     7
 74
     0
 91
        4
 64
     7
 65
   257
 75
     1
175
     1
 42
1.0
 92
        8
 66
     7
 43
1.0
 76
     1
 77
     6
 78
     2
 67
     7
 79
     5
170
     0
171
     0
290
     0
174
     0
 93
        1
 44
0.0
173
     0
291
     1
 45
0.0
1001
ACAD
1000
AcDbSavedByObjectVersion
1070
     0
  0
VISUALSTYLE
  5
131D
102
{ACAD_REACTORS
330
1311
102
}
330
1311
100
AcDbVisualStyle
  2
Brighten
 70
    12
 71
     2
 72
     2
 73
     0
 90
        0
 40
-0.6
 41
-30.0
 62
     5
 63
     7
 74
     1
 91
        4
 64
     7
 65
   257
 75
     1
175
     1
 42
1.0
 92
        8
 66
     7
 43
1.0
 76
     1
 77
     6
 78
     2
 67
     7
 79
     5
170
     0
171
     0
290
     0
174
     0
 93
        1
 44
50.0
173
     0
291
     1
 45
0.0
1001
ACAD
1000
AcDbSavedByObjectVersion
1070
     0
  0
VISUALSTYLE
  5
1321
102
{ACAD_REACTORS
330
1311
102
}
330
1311
100
AcDbVisualStyle
  2
ColorChange
 70
    16
 71
     2
 72
     2
 73
     3
 90
        0
 40
-0.6
 41
-30.0
 62
     5
 63
     8
 74
     1
 91
        4
 64
     7
 65
   257
 75
     1
175
     1
 42
1.0
 92
        8
 66
     8
 43
1.0
 76
     1
 77
     6
 78
     2
 67
     7
 79
     5
170
     0
171
     0
290
     0
174
     0
 93
        1
 44
0.0
173
     0
291
     1
 45
0.0
1001
ACAD
1000
AcDbSavedByObjectVersion
1070
     0
  0
VISUALSTYLE
  5
131A
102
{ACAD_REACTORS
330
1311
102
}
330
1311
100
AcDbVisualStyle
  2
Conceptual
 70
     9
 71
     3
 72
     2
 73
     0
 90
        0
 40
-0.6
 41
-30.0
 62
     5
 63
     7
 74
     2
 91
        2
 64
     7
 65
   257
 75
     1
175
     1
 42
40.0
 92
        8
 66
     7
 43
1.0
 76
     1
 77
     6
 78
     2
 67
     7
 79
     3
170
     0
171
     0
290
     0
174
     0
 93
        1
 44
0.0
173
     0
291
     0
 45
0.0
1001
ACAD
1000
AcDbSavedByObjectVersion
1070
     0
  0
VISUALSTYLE
  5
131C
102
{ACAD_REACTORS
330
1311
102
}
330
1311
100
AcDbVisualStyle
  2
Dim
 70
    11
 71
     2
 72
     2
 73
     0
 90
        0
 40
-0.6
 41
-30.0
 62
     5
 63
     7
 74
     1
 91
        4
 64
     7
 65
   257
 75
     1
175
     1
 42
1.0
 92
        8
 66
     7
 43
1.0
 76
     1
 77
     6
 78
     2
 67
     7
 79
     5
170
     0
171
     0
290
     0
174
     0
 93
        1
 44
-50.0
173
     0
291
     1
 45
0.0
1001
ACAD
1000
AcDbSavedByObjectVersion
1070
     0
  0
VISUALSTYLE
  5
1320
102
{ACAD_REACTORS
330
1311
102
}
330
1311
100
AcDbVisualStyle
  2
Facepattern
 70
    15
 71
     2
 72
     2
 73
     0
 90
        0
 40
-0.6
 41
-30.0
 62
     5
 63
     7
 74
     1
 91
        4
 64
     7
 65
   257
 75
     1
175
     1
 42
1.0
 92
        8
 66
     7
 43
1.0
 76
     1
 77
     6
 78
     2
 67
     7
 79
     5
170
     0
171
     0
290
     0
174
     0
 93
        1
 44
0.0
173
     0
291
     1
 45
0.0
1001
ACAD
1000
AcDbSavedByObjectVersion
1070
     0
  0
VISUALSTYLE
  5
1312
102
{ACAD_REACTORS
330
1311
102
}
330
1311
100
AcDbVisualStyle
  2
Flat
 70
     0
 71
     2
 72
     1
 73
     1
 90
        2
 40
-0.6
 41
30.0
 62
     5
 63
     7
 74
     0
 91
        4
 64
     7
 65
   257
 75
     1
175
     1
 42
1.0
 92
        8
 66
     7
 43
1.0
 76
     1
 77
     6
 78
     2
 67
     7
 79
     5
170
     0
171
     0
290
     0
174
     0
 93
       13
 44
0.0
173
     0
291
     1
 45
0.0
1001
ACAD
1000
AcDbSavedByObjectVersion
1070
     0
  0
VISUALSTYLE
  5
1313
102
{ACAD_REACTORS
330
1311
102
}
330
1311
100
AcDbVisualStyle
  2
FlatWithEdges
 70
     1
 71
     2
 72
     1
 73
     1
 90
        2
 40
-0.6
 41
30.0
 62
     5
 63
     7
 74
     1
 91
        4
 64
     7
 65
   257
 75
     1
175
     1
 42
1.0
 92
        0
 66
   257
 43
1.0
 76
     1
 77
     6
 78
     2
 67
     7
 79
     5
170
     0
171
     0
290
     0
174
     0
 93
       13
 44
0.0
173
     0
291
     1
 45
0.0
1001
ACAD
1000
AcDbSavedByObjectVersion
1070
     0
  0
VISUALSTYLE
  5
1314
102
{ACAD_REACTORS
330
1311
102
}
330
1311
100
AcDbVisualStyle
  2
Gouraud
 70
     2
 71
     2
 72
     2
 73
     1
 90
        2
 40
-0.6
 41
30.0
 62
     5
 63
     7
 74
     0
 91
        4
 64
     7
 65
   257
 75
     1
175
     1
 42
1.0
 92
        0
 66
     7
 43
1.0
 76
     1
 77
     6
 78
     2
 67
     7
 79
     5
170
     0
171
     0
290
     0
174
     0
 93
       13
 44
0.0
173
     0
291
     1
 45
0.0
1001
ACAD
1000
AcDbSavedByObjectVersion
1070
     0
  0
VISUALSTYLE
  5
1315
102
{ACAD_REACTORS
330
1311
102
}
330
1311
100
AcDbVisualStyle
  2
GouraudWithEdges
 70
     3
 71
     2
 72
     2
 73
     1
 90
        2
 40
-0.6
 41
30.0
 62
     5
 63
     7
 74
     1
 91
        4
 64
     7
 65
   257
 75
     1
175
     1
 42
1.0
 92
        0
 66
   257
 43
1.0
 76
     1
 77
     6
 78
     2
 67
     7
 79
     5
170
     0
171
     0
290
     0
174
     0
 93
       13
 44
0.0
173
     0
291
     1
 45
0.0
1001
ACAD
1000
AcDbSavedByObjectVersion
1070
     0
  0
VISUALSTYLE
  5
131F
102
{ACAD_REACTORS
330
1311
102
}
330
1311
100
AcDbVisualStyle
  2
Linepattern
 70
    14
 71
     2
 72
     2
 73
     0
 90
        0
 40
-0.6
 41
-30.0
 62
     5
 63
     7
 74
     1
 91
        4
 64
     7
 65
   257
 75
     7
175
     7
 42
1.0
 92
        8
 66
     7
 43
1.0
 76
     1
 77
     6
 78
     2
 67
     7
 79
     5
170
     0
171
     0
290
     0
174
     0
 93
        1
 44
0.0
173
     0
291
     1
 45
0.0
1001
ACAD
1000
AcDbSavedByObjectVersion
1070
     0
  0
VISUALSTYLE
  5
131B
102
{ACAD_REACTORS
330
1311
102
}
330
1311
100
AcDbVisualStyle
  2
Realistic
 70
     8
 71
     2
 72
     2
 73
     0
 90
        0
 40
-0.6
 41
-30.0
 62
     5
 63
     7
 74
     1
 91
        0
 64
     7
 65
   257
 75
     1
175
     1
 42
1.0
 92
        8
 66
     8
 43
1.0
 76
     1
 77
     6
 78
     2
 67
     7
 79
     5
170
     0
171
     0
290
     0
174
     0
 93
       13
 44
0.0
173
     0
291
     0
 45
0.0
1001
ACAD
1000
AcDbSavedByObjectVersion
1070
     0
  0
VISUALSTYLE
  5
131E
102
{ACAD_REACTORS
330
1311
102
}
330
1311
100
AcDbVisualStyle
  2
Thicken
 70
    13
 71
     2
 72
     2
 73
     0
 90
        0
 40
-0.6
 41
-30.0
 62
     5
 63
     7
 74
     1
 91
        4
 64
     7
 65
   257
 75
     1
175
     1
 42
1.0
 92
       12
 66
     7
 43
1.0
 76
     1
 77
     6
 78
     2
 67
     7
 79
     5
170
     0
171
     0
290
     0
174
     0
 93
        1
 44
0.0
173
     0
291
     1
 45
0.0
1001
ACAD
1000
AcDbSavedByObjectVersion
1070
     0
  0
DICTIONARYVAR
  5
1514
102
{ACAD_REACTORS
330
5E
102
}
330
5E
100
DictionaryVariables
280
     0
  1
STANDARD
  0
DICTIONARYVAR
  5
5F
102
{ACAD_REACTORS
330
5E
102
}
330
5E
100
DictionaryVariables
280
     0
  1
2
  0
DICTIONARYVAR
  5
63
102
{ACAD_REACTORS
330
5E
102
}
330
5E
100
DictionaryVariables
280
     0
  1
1
  0
DICTIONARYVAR
  5
1555
102
{ACAD_REACTORS
330
5E
102
}
330
5E
100
DictionaryVariables
280
     0
  1
0
  0
DICTIONARYVAR
  5
1554
102
{ACAD_REACTORS
330
5E
102
}
330
5E
100
DictionaryVariables
280
     0
  1
127
  0
DICTIONARY
  5
1559
330
51
100
AcDbDictionary
280
     1
281
     1
  3
ACAD_XREC_ROUNDTRIP
360
155A
  0
DICTIONARY
  5
155B
330
56
100
AcDbDictionary
280
     1
281
     1
  3
ACAD_XREC_ROUNDTRIP
360
155C
  0
DICTIONARY
  5
1557
330
22
100
AcDbDictionary
280
     1
281
     1
  3
ACAD_XREC_ROUNDTRIP
360
1558
  0
DICTIONARY
  5
1563
330
130F
100
AcDbDictionary
280
     1
281
     1
  3
ACAD_XREC_ROUNDTRIP
360
1564
  0
DICTIONARY
  5
1561
330
130E
100
AcDbDictionary
280
     1
281
     1
  3
ACAD_XREC_ROUNDTRIP
360
1562
  0
DICTIONARY
  5
1565
330
1310
100
AcDbDictionary
280
     1
281
     1
  3
ACAD_XREC_ROUNDTRIP
360
1566
  0
DICTIONARY
  5
1567
330
1323
100
AcDbDictionary
280
     1
281
     1
  3
ACAD_XREC_ROUNDTRIP
360
1568
  0
XRECORD
  5
155A
102
{ACAD_REACTORS
330
1559
102
}
330
1559
100
AcDbXrecord
280
     1
102
SHADEPLOT
 70
     1
102
SHADEPLOTRESLEVEL
 70
     2
102
SHADEPLOTCUSTOMDPI
 70
   300
  0
XRECORD
  5
155C
102
{ACAD_REACTORS
330
155B
102
}
330
155B
100
AcDbXrecord
280
     1
102
SHADEPLOT
 70
     0
102
SHADEPLOTRESLEVEL
 70
     2
102
SHADEPLOTCUSTOMDPI
 70
   300
  0
XRECORD
  5
1558
102
{ACAD_REACTORS
330
1557
102
}
330
1557
100
AcDbXrecord
280
     1
102
SHADEPLOT
 70
     0
102
SHADEPLOTRESLEVEL
 70
     2
102
SHADEPLOTCUSTOMDPI
 70
   300
  0
XRECORD
  5
1564
102
{ACAD_REACTORS
330
1563
102
}
330
1563
100
AcDbXrecord
280
     1
102
MATERIAL
148
0.0
149
0.0
149
0.0
 93
        0
 94
       63
282
     0
 72
     1
 77
     1
171
     1
175
     1
179
     1
273
     0
  0
XRECORD
  5
1562
102
{ACAD_REACTORS
330
1561
102
}
330
1561
100
AcDbXrecord
280
     1
102
MATERIAL
148
0.0
149
0.0
149
0.0
 93
        0
 94
       63
282
     0
 72
     1
 77
     1
171
     1
175
     1
179
     1
273
     0
  0
XRECORD
  5
1566
102
{ACAD_REACTORS
330
1565
102
}
330
1565
100
AcDbXrecord
280
     1
102
MATERIAL
148
0.0
149
0.0
149
0.0
 93
        0
 94
       63
282
     0
 72
     1
 77
     1
171
     1
175
     1
179
     1
273
     0
  0
XRECORD
  5
1568
102
{ACAD_REACTORS
330
1567
102
}
330
1567
100
AcDbXrecord
280
     1
102
ACAD_ROUNDTRIP_PRE2007_TABLESTYLE
 90
      512
 91
        0
  1

 92
      512
 93
        0
  2

 94
      512
 95
        0
  3

  0
ENDSEC
  0
EOF
