  0
SECTION
  2
HEADER
  9
$ACADVER
  1
AC1014
  9
$ACADMAINTVER
 70
     9
  9
$DWGCODEPAGE
  3
ANSI_1252
  9
$INSBASE
 10
0.0
 20
0.0
 30
0.0
  9
$EXTMIN
 10
-501.5797040719523
 20
227.3002884593714
 30
0.0
  9
$EXTMAX
 10
59.38864265931977
 20
626.0450632633598
 30
0.0
  9
$LIMMIN
 10
0.0
 20
0.0
  9
$LIMMAX
 10
0.0
 20
0.0
  9
$ORTHOMODE
 70
     1
  9
$REGENMODE
 70
     1
  9
$FILLMODE
 70
     1
  9
$QTEXTMODE
 70
     0
  9
$MIRRTEXT
 70
     1
  9
$DRAGMODE
 70
     2
  9
$LTSCALE
 40
1.0
  9
$OSMODE
 70
  2223
  9
$ATTMODE
 70
     1
  9
$TEXTSIZE
 40
0.0
  9
$TRACEWID
 40
0.05
  9
$TEXTSTYLE
  7
STANDARD
  9
$CLAYER
  8
0
  9
$CELTYPE
  6
CONTINUOUS
  9
$CECOLOR
 62
   256
  9
$CELTSCALE
 40
1.0
  9
$DELOBJ
 70
     1
  9
$DISPSILH
 70
     0
  9
$DIMSCALE
 40
1.0
  9
$DIMASZ
 40
0.18
  9
$DIMEXO
 40
0.0625
  9
$DIMDLI
 40
0.38
  9
$DIMRND
 40
0.0
  9
$DIMDLE
 40
0.0
  9
$DIMEXE
 40
0.18
  9
$DIMTP
 40
0.0
  9
$DIMTM
 40
0.0
  9
$DIMTXT
 40
0.18
  9
$DIMCEN
 40
0.09
  9
$DIMTSZ
 40
0.0
  9
$DIMTOL
 70
     0
  9
$DIMLIM
 70
     0
  9
$DIMTIH
 70
     1
  9
$DIMTOH
 70
     1
  9
$DIMSE1
 70
     0
  9
$DIMSE2
 70
     0
  9
$DIMTAD
 70
     0
  9
$DIMZIN
 70
     0
  9
$DIMBLK
  1

  9
$DIMASO
 70
     1
  9
$DIMSHO
 70
     1
  9
$DIMPOST
  1

  9
$DIMAPOST
  1

  9
$DIMALT
 70
     0
  9
$DIMALTD
 70
     2
  9
$DIMALTF
 40
25.4
  9
$DIMLFAC
 40
1.0
  9
$DIMTOFL
 70
     0
  9
$DIMTVP
 40
0.0
  9
$DIMTIX
 70
     0
  9
$DIMSOXD
 70
     0
  9
$DIMSAH
 70
     0
  9
$DIMBLK1
  1

  9
$DIMBLK2
  1

  9
$DIMSTYLE
  2
STANDARD
  9
$DIMCLRD
 70
     0
  9
$DIMCLRE
 70
     0
  9
$DIMCLRT
 70
     0
  9
$DIMTFAC
 40
1.0
  9
$DIMGAP
 40
0.09
  9
$DIMJUST
 70
     0
  9
$DIMSD1
 70
     0
  9
$DIMSD2
 70
     0
  9
$DIMTOLJ
 70
     1
  9
$DIMTZIN
 70
     0
  9
$DIMALTZ
 70
     0
  9
$DIMALTTZ
 70
     0
  9
$DIMFIT
 70
     3
  9
$DIMUPT
 70
     0
  9
$DIMUNIT
 70
     2
  9
$DIMDEC
 70
     4
  9
$DIMTDEC
 70
     4
  9
$DIMALTU
 70
     2
  9
$DIMALTTD
 70
     2
  9
$DIMTXSTY
  7
STANDARD
  9
$DIMAUNIT
 70
     0
  9
$LUNITS
 70
     2
  9
$LUPREC
 70
     4
  9
$SKETCHINC
 40
0.1
  9
$FILLETRAD
 40
0.0
  9
$AUNITS
 70
     0
  9
$AUPREC
 70
     0
  9
$MENU
  1
acad
  9
$ELEVATION
 40
0.0
  9
$PELEVATION
 40
0.0
  9
$THICKNESS
 40
0.0
  9
$LIMCHECK
 70
     0
  9
$BLIPMODE
 70
     0
  9
$CHAMFERA
 40
0.0
  9
$CHAMFERB
 40
0.0
  9
$CHAMFERC
 40
0.0
  9
$CHAMFERD
 40
0.0
  9
$SKPOLY
 70
     0
  9
$TDCREATE
 40
2444972.083333333
  9
$TDUPDATE
 40
2453488.614120914
  9
$TDINDWG
 40
0.0011786690
  9
$TDUSRTIMER
 40
0.0011786690
  9
$USRTIMER
 70
     1
  9
$ANGBASE
 50
0.0
  9
$ANGDIR
 70
     0
  9
$PDMODE
 70
     0
  9
$PDSIZE
 40
0.0
  9
$PLINEWID
 40
0.0
  9
$COORDS
 70
     1
  9
$SPLFRAME
 70
     0
  9
$SPLINETYPE
 70
     6
  9
$SPLINESEGS
 70
     8
  9
$ATTDIA
 70
     0
  9
$ATTREQ
 70
     1
  9
$HANDLING
 70
 10241
  9
$HANDSEED
  5
14D
  9
$SURFTAB1
 70
     6
  9
$SURFTAB2
 70
     6
  9
$SURFTYPE
 70
     6
  9
$SURFU
 70
     6
  9
$SURFV
 70
     6
  9
$UCSNAME
  2

  9
$UCSORG
 10
0.0
 20
0.0
 30
0.0
  9
$UCSXDIR
 10
1.0
 20
0.0
 30
0.0
  9
$UCSYDIR
 10
0.0
 20
1.0
 30
0.0
  9
$PUCSNAME
  2

  9
$PUCSORG
 10
0.0
 20
0.0
 30
0.0
  9
$PUCSXDIR
 10
1.0
 20
0.0
 30
0.0
  9
$PUCSYDIR
 10
0.0
 20
1.0
 30
0.0
  9
$USERI1
 70
     0
  9
$USERI2
 70
     0
  9
$USERI3
 70
     0
  9
$USERI4
 70
     0
  9
$USERI5
 70
     0
  9
$USERR1
 40
0.0
  9
$USERR2
 40
0.0
  9
$USERR3
 40
0.0
  9
$USERR4
 40
0.0
  9
$USERR5
 40
0.0
  9
$WORLDVIEW
 70
     1
  9
$SHADEDGE
 70
     3
  9
$SHADEDIF
 70
    70
  9
$TILEMODE
 70
     1
  9
$MAXACTVP
 70
    16
  9
$PINSBASE
 10
0.0
 20
0.0
 30
0.0
  9
$PLIMCHECK
 70
     0
  9
$PEXTMIN
 10
1.000000000000000E+20
 20
1.000000000000000E+20
 30
1.000000000000000E+20
  9
$PEXTMAX
 10
-1.000000000000000E+20
 20
-1.000000000000000E+20
 30
-1.000000000000000E+20
  9
$PLIMMIN
 10
0.0
 20
0.0
  9
$PLIMMAX
 10
12.0
 20
9.0
  9
$UNITMODE
 70
     0
  9
$VISRETAIN
 70
     0
  9
$PLINEGEN
 70
     1
  9
$PSLTSCALE
 70
     0
  9
$TREEDEPTH
 70
  3020
  9
$PICKSTYLE
 70
     1
  9
$CMLSTYLE
  2
STANDARD
  9
$CMLJUST
 70
     0
  9
$CMLSCALE
 40
1.0
  9
$PROXYGRAPHICS
 70
     1
  9
$MEASUREMENT
 70
     0
  0
ENDSEC
  0
SECTION
  2
CLASSES
  0
CLASS
  1
LWPOLYLINE
  2
AcDbPolyline
  3
AutoCAD 2000
 90
        0
280
     0
281
     1
  0
CLASS
  1
IMAGE
  2
AcDbRasterImage
  3
ISM
 90
      127
280
     0
281
     1
  0
CLASS
  1
OLE2FRAME
  2
AcDbOle2Frame
  3
AutoCAD 2000
 90
        0
280
     0
281
     1
  0
CLASS
  1
HATCH
  2
AcDbHatch
  3
AutoCAD 2000
 90
        0
280
     0
281
     1
  0
CLASS
  1
DICTIONARYVAR
  2
AcDbDictionaryVar
  3
AutoCAD 2000
 90
        0
280
     0
281
     0
  0
CLASS
  1
RASTERVARIABLES
  2
AcDbRasterVariables
  3
ISM
 90
        0
280
     0
281
     0
  0
CLASS
  1
IMAGEDEF
  2
AcDbRasterImageDef
  3
ISM
 90
        0
280
     0
281
     0
  0
CLASS
  1
IMAGEDEF_REACTOR
  2
AcDbRasterImageDefReactor
  3
ISM
 90
        1
280
     0
281
     0
  0
CLASS
  1
IDBUFFER
  2
AcDbIdBuffer
  3
AutoCAD 2000
 90
        0
280
     0
281
     0
  0
CLASS
  1
SPATIAL_FILTER
  2
AcDbSpatialFilter
  3
AutoCAD 2000
 90
        0
280
     0
281
     0
  0
CLASS
  1
XRECORD
  2
AcDbXrecord
  3
AutoCAD 2000
 90
        0
280
     0
281
     0
  0
CLASS
  1
SORTENTSTABLE
  2
AcDbSortentsTable
  3
AutoCAD 2000
 90
        0
280
     0
281
     0
  0
CLASS
  1
LAYER_INDEX
  2
AcDbLayerIndex
  3
AutoCAD 2000
 90
        0
280
     0
281
     0
  0
CLASS
  1
SPATIAL_INDEX
  2
AcDbSpatialIndex
  3
AutoCAD 2000
 90
        0
280
     0
281
     0
  0
CLASS
  1
OBJECT_PTR
  2
CAseDLPNTableRecord
  3
"ASE-LPNTableRecord"
 90
        0
280
     0
281
     0
  0
CLASS
  1
LAYOUT
  2
AcDbLayout
  3
AutoCAD 2000
 90
        0
280
     0
281
     0
  0
CLASS
  1
PLOTSETTINGS
  2
AcDbPlotSettings
  3
AutoCAD 2000
 90
        0
280
     0
281
     0
  0
CLASS
  1
ACDBDICTIONARYWDFLT
  2
AcDbDictionaryWithDefault
  3
AutoCAD 2000
 90
        0
280
     0
281
     0
  0
CLASS
  1
ACDBPLACEHOLDER
  2
AcDbPlaceHolder
  3
AutoCAD 2000
 90
        0
280
     0
281
     0
  0
CLASS
  1
VBA_PROJECT
  2
AcDbVbaProject
  3
"acadvba"
 90
        0
280
     0
281
     0
  0
CLASS
  1
WIPEOUT
  2
AcDbWipeout
  3
WipeOut|AutoCAD Express Tool|expresstools@autodesk.com
 90
        0
280
     0
281
     1
  0
CLASS
  1
WIPEOUTVARIABLES
  2
AcDbWipeoutVariables
  3
WipeOut|AutoCAD Express Tool|expresstools@autodesk.com
 90
        0
280
     0
281
     0
  0
CLASS
  1
RTEXT
  2
RText
  3
RText|AutoCAD Express Tool|expresstools@autodesk.com
 90
        0
280
     0
281
     1
  0
CLASS
  1
ARCALIGNEDTEXT
  2
AcDbArcAlignedText
  3
ATEXT|AutoCAD Express Tool|expresstools@autodesk.com
 90
        0
280
     0
281
     1
  0
CLASS
  1
LONG_TRANSACTION
  2
AcDbLongTransaction
  3
AutoCAD 2000
 90
        0
280
     0
281
     0
  0
CLASS
  1
LWPOLYLINE
  2
AcDbPolyline
  3
AutoCAD 2000
 90
        0
280
     0
281
     1
  0
CLASS
  1
HATCH
  2
AcDbHatch
  3
AutoCAD 2000
 90
        0
280
     0
281
     1
  0
CLASS
  1
XRECORD
  2
AcDbXrecord
  3
AutoCAD 2000
 90
        0
280
     0
281
     0
  0
ENDSEC
  0
SECTION
  2
TABLES
  0
TABLE
  2
VPORT
  5
7
330
0
100
AcDbSymbolTable
 70
     2
  0
VPORT
  5
128
330
7
100
AcDbSymbolTableRecord
100
AcDbViewportTableRecord
  2
*ACTIVE
 70
     0
 10
0.0
 20
0.0
 11
1.0
 21
1.0
 12
-239.4261849208542
 22
394.666870875613
 13
0.0
 23
0.0
 14
1.0
 24
1.0
 15
0.0
 25
0.0
 16
0.0
 26
0.0
 36
1.0
 17
0.0
 27
0.0
 37
0.0
 40
700.6811105750744
 41
1.525316455696202
 42
50.0
 43
0.0
 44
0.0
 50
0.0
 51
0.0
 71
     0
 72
   100
 73
     1
 74
     1
 75
     0
 76
     0
 77
     0
 78
     0
  0
ENDTAB
  0
TABLE
  2
LTYPE
  5
4
330
0
100
AcDbSymbolTable
 70
     2
  0
LTYPE
  5
11
330
4
100
AcDbSymbolTableRecord
100
AcDbLinetypeTableRecord
  2
BYBLOCK
 70
     0
  3

 72
    65
 73
     0
 40
0.0
  0
LTYPE
  5
12
330
4
100
AcDbSymbolTableRecord
100
AcDbLinetypeTableRecord
  2
BYLAYER
 70
     0
  3

 72
    65
 73
     0
 40
0.0
  0
LTYPE
  5
13
330
4
100
AcDbSymbolTableRecord
100
AcDbLinetypeTableRecord
  2
CONTINUOUS
 70
     0
  3
Solid line
 72
    65
 73
     0
 40
0.0
  0
LTYPE
  5
1E
330
4
100
AcDbSymbolTableRecord
100
AcDbLinetypeTableRecord
  2
STANDARD
 70
     0
  3

 72
    65
 73
     0
 40
0.0
  0
ENDTAB
  0
TABLE
  2
LAYER
  5
2
330
0
100
AcDbSymbolTable
 70
     2
  0
LAYER
  5
14
330
2
100
AcDbSymbolTableRecord
100
AcDbLayerTableRecord
  2
0
 70
     0
 62
     7
  6
CONTINUOUS
  0
LAYER
  5
1D
330
2
100
AcDbSymbolTableRecord
100
AcDbLayerTableRecord
  2
STANDARD
 70
     0
 62
     7
  6
CONTINUOUS
  0
ENDTAB
  0
TABLE
  2
STYLE
  5
3
330
0
100
AcDbSymbolTable
 70
     1
  0
STYLE
  5
17
330
3
100
AcDbSymbolTableRecord
100
AcDbTextStyleTableRecord
  2
STANDARD
 70
     0
 40
0.0
 41
1.0
 50
0.0
 71
     0
 42
0.0
  3
txt
  4

  0
ENDTAB
  0
TABLE
  2
VIEW
  5
5
330
0
100
AcDbSymbolTable
 70
     0
  0
ENDTAB
  0
TABLE
  2
UCS
  5
6
330
0
100
AcDbSymbolTable
 70
     0
  0
ENDTAB
  0
TABLE
  2
APPID
  5
8
330
0
100
AcDbSymbolTable
 70
     1
  0
APPID
  5
16
330
8
100
AcDbSymbolTableRecord
100
AcDbRegAppTableRecord
  2
ACAD
 70
     0
  0
ENDTAB
  0
TABLE
  2
DIMSTYLE
  5
9
330
0
100
AcDbSymbolTable
 70
     1
  0
DIMSTYLE
105
18
330
9
100
AcDbSymbolTableRecord
100
AcDbDimStyleTableRecord
  2
STANDARD
 70
     0
  3

  4

  5

  6

  7

 40
1.0
 41
0.18
 42
0.0625
 43
0.38
 44
0.18
 45
0.0
 46
0.0
 47
0.0
 48
0.0
140
0.18
141
0.09
142
0.0
143
25.4
144
1.0
145
0.0
146
1.0
147
0.09
 71
     0
 72
     0
 73
     1
 74
     1
 75
     0
 76
     0
 77
     0
 78
     0
170
     0
171
     2
172
     0
173
     0
174
     0
175
     0
176
     0
177
     0
178
     0
270
     2
271
     4
272
     4
273
     2
274
     2
340
17
275
     0
280
     0
281
     0
282
     0
283
     1
284
     0
285
     0
286
     0
287
     0
288
     0
  0
ENDTAB
  0
TABLE
  2
BLOCK_RECORD
  5
1
330
0
100
AcDbSymbolTable
 70
     0
  0
BLOCK_RECORD
  5
A
102
{ACAD_XDICTIONARY
360
149
102
}
330
1
100
AcDbSymbolTableRecord
100
AcDbBlockTableRecord
  2
*MODEL_SPACE
  0
BLOCK_RECORD
  5
B
102
{ACAD_XDICTIONARY
360
14B
102
}
330
1
100
AcDbSymbolTableRecord
100
AcDbBlockTableRecord
  2
*PAPER_SPACE
  0
ENDTAB
  0
ENDSEC
  0
SECTION
  2
BLOCKS
  0
BLOCK
  5
D
330
A
100
AcDbEntity
  8
0
100
AcDbBlockBegin
  2
*MODEL_SPACE
 70
     0
 10
0.0
 20
0.0
 30
0.0
  3
*MODEL_SPACE
  1

  0
ENDBLK
  5
E
330
A
100
AcDbEntity
  8
0
100
AcDbBlockEnd
  0
BLOCK
  5
F
330
B
100
AcDbEntity
 67
     1
  8
0
100
AcDbBlockBegin
  2
*PAPER_SPACE
 70
     0
 10
0.0
 20
0.0
 30
0.0
  3
*PAPER_SPACE
  1

  0
ENDBLK
  5
10
330
B
100
AcDbEntity
 67
     1
  8
0
100
AcDbBlockEnd
  0
ENDSEC
  0
SECTION
  2
ENTITIES
  0
LINE
  5
21
330
A
100
AcDbEntity
  8
0
  6
STANDARD
 62
     7
100
AcDbLine
 10
4.425693046237768
 20
424.9244556319206
 30
0.0
 11
5.663943778659643
 21
424.9745044600457
 31
0.0
  0
LINE
  5
22
330
A
100
AcDbEntity
  8
0
  6
STANDARD
 62
     7
100
AcDbLine
 10
-20.67898224673098
 20
424.9394092452019
 30
0.0
 11
-19.44057892641848
 21
424.9738941084832
 31
0.0
  0
LINE
  5
23
330
A
100
AcDbEntity
  8
0
  6
STANDARD
 62
     7
100
AcDbLine
 10
-45.8243985064966
 20
424.9651965987175
 30
0.0
 11
-44.5859951861841
 21
424.9726734053582
 31
0.0
  0
LINE
  5
24
330
A
100
AcDbEntity
  8
0
  6
STANDARD
 62
     7
100
AcDbLine
 10
-71.03970002016848
 20
424.9957141768425
 30
0.0
 11
-69.80129669985598
 21
424.9713001143425
 31
0.0
  0
LINE
  5
25
330
A
100
AcDbEntity
  8
0
  6
STANDARD
 62
     7
100
AcDbLine
 10
-96.39278839907474
 20
425.0517139327019
 30
0.0
 11
-95.15407990298099
 21
424.9688587080926
 31
0.0
  0
LINE
  5
26
330
A
100
AcDbEntity
  8
0
  6
STANDARD
 62
     7
100
AcDbLine
 10
-120.9463162311059
 20
425.0002918135613
 30
0.0
 11
-120.8422512896997
 21
424.9638233077019
 31
0.0
  0
LINE
  5
27
330
A
100
AcDbEntity
  8
0
  6
STANDARD
 62
     7
100
AcDbLine
 10
-158.5833401568872
 20
436.5072498213738
 30
0.0
 11
20.50784636655027
 21
436.5072498213738
 31
0.0
  0
LINE
  5
28
330
A
100
AcDbEntity
  8
0
  6
STANDARD
 62
     7
100
AcDbLine
 10
-158.7447781451684
 20
440.2073535811394
 30
0.0
 11
20.67737151303464
 21
440.2073535811394
 31
0.0
  0
LINE
  5
2B
330
A
100
AcDbEntity
  8
0
  6
STANDARD
 62
     7
100
AcDbLine
 10
-158.6721463092309
 20
387.2660694014519
 30
0.0
 11
-158.6361355670434
 21
387.3701343428582
 31
0.0
  0
LINE
  5
2C
330
A
100
AcDbEntity
  8
0
  6
STANDARD
 62
     7
100
AcDbLine
 10
-158.6672634967309
 20
361.590562809655
 30
0.0
 11
-158.6672634967309
 21
362.8292713057488
 31
0.0
  0
LINE
  5
2D
330
A
100
AcDbEntity
  8
0
  6
STANDARD
 62
     7
100
AcDbLine
 10
-158.6648220904809
 20
336.2440357100457
 30
0.0
 11
-158.6648220904809
 21
337.4825916182488
 31
0.0
  0
LINE
  5
2E
330
A
100
AcDbEntity
  8
0
  6
STANDARD
 62
     7
100
AcDbLine
 10
-158.6636013873559
 20
311.0325488936394
 30
0.0
 11
-158.6358303912622
 21
312.2709522139519
 31
0.0
  0
LINE
  5
2F
330
A
100
AcDbEntity
  8
0
  6
STANDARD
 62
     7
100
AcDbLine
 10
-158.6623806842309
 20
285.889879215905
 30
0.0
 11
-158.6105008014184
 21
287.1281299483269
 31
0.0
  0
LINE
  5
30
330
A
100
AcDbEntity
  8
0
  6
STANDARD
 62
     7
100
AcDbLine
 10
-158.6614651568872
 20
260.7870349776238
 30
0.0
 11
-158.5955471881372
 21
262.0252857100457
 31
0.0
  0
LINE
  5
31
330
A
100
AcDbEntity
  8
0
  6
STANDARD
 62
     7
100
AcDbLine
 10
-42.2550625689966
 20
421.6165027510613
 30
0.0
 11
-42.22866486391848
 21
422.747789372155
 31
0.0
  0
LINE
  5
32
330
A
100
AcDbEntity
  8
0
  6
STANDARD
 62
     7
100
AcDbLine
 10
-17.0609707721216
 20
421.6699085127801
 30
0.0
 11
-17.01000641665285
 21
422.80027960653
 31
0.0
  0
LINE
  5
33
330
A
100
AcDbEntity
  8
0
  6
STANDARD
 62
     7
100
AcDbLine
 10
8.071933280612768
 20
421.7013416182488
 30
0.0
 11
8.137393485690893
 21
422.8311023604363
 31
0.0
  0
LINE
  5
34
330
A
100
AcDbEntity
  8
0
  6
STANDARD
 62
     7
100
AcDbLine
 10
-173.7447781451684
 20
245.7850513350456
 30
0.0
 11
-173.7447781451684
 21
425.2073535811394
 31
0.0
  0
LINE
  5
35
330
A
100
AcDbEntity
  8
0
  6
STANDARD
 62
     7
100
AcDbLine
 10
-170.0448269732934
 20
245.95457648153
 30
0.0
 11
-170.0448269732934
 21
425.0457630049675
 31
0.0
  0
LINE
  5
36
330
A
100
AcDbEntity
  8
0
  6
STANDARD
 62
     7
100
AcDbLine
 10
31.89837981381589
 20
424.3336353194207
 30
0.0
 11
31.92843962826902
 21
426.4022693526237
 31
0.0
  0
LINE
  5
37
330
A
100
AcDbEntity
  8
0
  6
STANDARD
 62
     7
100
AcDbLine
 10
35.59299040951902
 20
424.0534839522331
 30
0.0
 11
35.63281584897214
 21
426.7956409346551
 31
0.0
  0
LINE
  5
38
330
A
100
AcDbEntity
  8
0
  6
STANDARD
 62
     7
100
AcDbLine
 10
-119.8540921100122
 20
424.3841419112175
 30
0.0
 11
-119.1625637896997
 21
423.4759387862175
 31
0.0
  0
LINE
  5
39
330
A
100
AcDbEntity
  8
0
  6
STANDARD
 62
     7
100
AcDbLine
 10
-124.0990872271997
 20
424.2072925459831
 30
0.0
 11
-123.1872219928247
 21
424.8849353682488
 31
0.0
  0
LINE
  5
3A
330
A
100
AcDbEntity
  8
0
  6
STANDARD
 62
     7
100
AcDbLine
 10
-158.6361355670434
 20
387.2660694014519
 30
0.0
 11
-158.0587429889184
 21
386.2765369307488
 31
0.0
  0
LINE
  5
3B
330
A
100
AcDbEntity
  8
0
  6
STANDARD
 62
     7
100
AcDbLine
 10
-157.8710598834497
 20
390.5210742842644
 30
0.0
 11
-156.8960232623559
 21
391.09617804403
 31
0.0
  0
LINE
  5
3C
330
A
100
AcDbEntity
  8
0
  6
STANDARD
 62
     7
100
AcDbLine
 10
-93.15273712954349
 20
250.7969531905144
 30
0.0
 11
-91.70162628969974
 21
247.3861560713738
 31
0.0
  0
LINE
  5
3D
330
A
100
AcDbEntity
  8
0
  6
STANDARD
 62
     7
100
AcDbLine
 10
-156.8960232623559
 20
391.09617804403
 30
0.0
 11
-153.9535183795434
 21
392.117906559655
 31
0.0
  0
LINE
  5
3E
330
A
100
AcDbEntity
  8
0
  6
STANDARD
 62
     7
100
AcDbLine
 10
-154.9331326373559
 20
385.4423389327019
 30
0.0
 11
-151.6720242389184
 21
386.5745410811394
 31
0.0
  0
LINE
  5
3F
330
A
100
AcDbEntity
  8
0
  6
STANDARD
 62
     7
100
AcDbLine
 10
-101.1370510943872
 20
244.0203723799675
 30
0.0
 11
-91.70162628969974
 21
247.3861560713738
 31
0.0
  0
LINE
  5
40
330
A
100
AcDbEntity
  8
0
  6
STANDARD
 62
     7
100
AcDbLine
 10
-102.5881619342309
 20
247.4310169112175
 30
0.0
 11
-90.38906525454349
 21
251.7826709639519
 31
0.0
  0
LINE
  5
41
330
A
100
AcDbEntity
  8
0
  6
STANDARD
 62
     7
100
AcDbLine
 10
-120.9563870318872
 20
236.9503650557488
 30
0.0
 11
-85.97317169985599
 21
249.4296131026238
 31
0.0
  0
LINE
  5
42
330
A
100
AcDbEntity
  8
0
  6
STANDARD
 62
     7
100
AcDbLine
 10
-121.8902249225122
 20
240.545640934655
 30
0.0
 11
-87.52590607485599
 21
252.8040943037956
 31
0.0
  0
LINE
  5
43
330
A
100
AcDbEntity
  8
0
  6
STANDARD
 62
     7
100
AcDbLine
 10
-90.38906525454349
 20
251.7826709639519
 30
0.0
 11
-87.52590607485599
 21
252.8040943037956
 31
0.0
  0
LINE
  5
44
330
A
100
AcDbEntity
  8
0
  6
STANDARD
 62
     7
100
AcDbLine
 10
-91.70162628969974
 20
247.3861560713738
 30
0.0
 11
-85.97317169985599
 21
249.4296131026238
 31
0.0
  0
LINE
  5
45
330
A
100
AcDbEntity
  8
0
  6
STANDARD
 62
     7
100
AcDbLine
 10
-119.1625637896997
 20
423.4759387862175
 30
0.0
 11
-118.8723416217309
 21
422.3776111494988
 31
0.0
  0
LINE
  5
46
330
A
100
AcDbEntity
  8
0
  6
STANDARD
 62
     7
100
AcDbLine
 10
-123.1872219928247
 20
424.8849353682488
 30
0.0
 11
-122.0800442584497
 21
425.1634082686394
 31
0.0
  0
LINE
  5
47
330
A
100
AcDbEntity
  8
0
  6
STANDARD
 62
     7
100
AcDbLine
 10
-156.5548367389184
 20
365.2175769698113
 30
0.0
 11
-151.1333889850122
 21
366.5664539229363
 31
0.0
  0
LINE
  5
48
330
A
100
AcDbEntity
  8
0
  6
STANDARD
 62
     7
100
AcDbLine
 10
-155.1247830279809
 20
359.4697437178581
 30
0.0
 11
-149.3923611529809
 21
360.89598273153
 31
0.0
  0
LINE
  5
49
330
A
100
AcDbEntity
  8
0
  6
STANDARD
 62
     7
100
AcDbLine
 10
-156.3906521686059
 20
339.764390934655
 30
0.0
 11
-148.4032864459497
 21
341.3636646162956
 31
0.0
  0
LINE
  5
4A
330
A
100
AcDbEntity
  8
0
  6
STANDARD
 62
     7
100
AcDbLine
 10
-155.2303738482934
 20
333.9689502608269
 30
0.0
 11
-146.9332547076684
 21
335.6301746260613
 31
0.0
  0
LINE
  5
4B
330
A
100
AcDbEntity
  8
0
  6
STANDARD
 62
     7
100
AcDbLine
 10
-157.5909085162622
 20
230.8296069991082
 30
0.0
 11
-120.9563870318872
 21
236.9503650557488
 31
0.0
  0
LINE
  5
4C
330
A
100
AcDbEntity
  8
0
  6
STANDARD
 62
     7
100
AcDbLine
 10
-156.3027615436059
 20
314.4935474287957
 30
0.0
 11
-145.0585598834497
 21
316.4474353682488
 31
0.0
  0
LINE
  5
4D
330
A
100
AcDbEntity
  8
0
  6
STANDARD
 62
     7
100
AcDbLine
 10
-155.2911038287622
 20
308.67186163778
 30
0.0
 11
-143.7225003131372
 21
310.6822070967644
 31
0.0
  0
LINE
  5
4E
330
A
100
AcDbEntity
  8
0
  6
STANDARD
 62
     7
100
AcDbLine
 10
-157.8713650592309
 20
234.5339832198113
 30
0.0
 11
-121.8902249225122
 21
240.545640934655
 31
0.0
  0
LINE
  5
4F
330
A
100
AcDbEntity
  8
0
  6
STANDARD
 62
     7
100
AcDbLine
 10
-156.2295193561059
 20
289.3000659834831
 30
0.0
 11
-143.0511135943872
 21
291.2971362959832
 31
0.0
  0
LINE
  5
50
330
A
100
AcDbEntity
  8
0
  6
STANDARD
 62
     7
100
AcDbLine
 10
-155.3442044146997
 20
283.4562549483269
 30
0.0
 11
-141.8563504107934
 21
285.5001697432488
 31
0.0
  0
LINE
  5
51
330
A
100
AcDbEntity
  8
0
  6
STANDARD
 62
     7
100
AcDbLine
 10
-158.8323635943872
 20
388.5044727217644
 30
0.0
 11
-158.6721463092309
 21
387.3701343428582
 31
0.0
  0
LINE
  5
52
330
A
100
AcDbEntity
  8
0
  6
STANDARD
 62
     7
100
AcDbLine
 10
-156.0546536334497
 20
385.2895984541863
 30
0.0
 11
-154.9331326373559
 21
385.4423389327019
 31
0.0
  0
LINE
  5
53
330
A
100
AcDbEntity
  8
0
  6
STANDARD
 62
     7
100
AcDbLine
 10
-156.1880154498559
 20
264.1679248702019
 30
0.0
 11
-139.9972195514184
 21
266.4143237959831
 31
0.0
  0
LINE
  5
54
330
A
100
AcDbEntity
  8
0
  6
STANDARD
 62
     7
100
AcDbLine
 10
-155.3753323443872
 20
258.3111438643425
 30
0.0
 11
-138.8686795123559
 21
260.6014881026238
 31
0.0
  0
LINE
  5
55
330
A
100
AcDbEntity
  8
0
  6
STANDARD
 62
     7
100
AcDbLine
 10
-170.0448269732934
 20
245.95457648153
 30
0.0
 11
-169.8406643756372
 21
243.7306079756706
 31
0.0
  0
LINE
  5
56
330
A
100
AcDbEntity
  8
0
  6
STANDARD
 62
     7
100
AcDbLine
 10
-160.7046170123559
 20
436.3217029463738
 30
0.0
 11
-158.5833401568872
 21
436.5072498213738
 31
0.0
  0
LINE
  5
57
330
A
100
AcDbEntity
  8
0
  6
STANDARD
 62
     7
100
AcDbLine
 10
-170.0448269732934
 20
425.0457630049675
 30
0.0
 11
-169.8592800982934
 21
427.1670398604363
 31
0.0
  0
LINE
  5
58
330
A
100
AcDbEntity
  8
0
  6
STANDARD
 62
     7
100
AcDbLine
 10
20.50784636655027
 20
436.5072498213738
 30
0.0
 11
22.73181487240964
 21
436.3030872237176
 31
0.0
  0
LINE
  5
59
330
A
100
AcDbEntity
  8
0
  6
STANDARD
 62
     7
100
AcDbLine
 10
-119.0279812701684
 20
421.2562427412956
 30
0.0
 11
-118.8723416217309
 21
422.3776111494988
 31
0.0
  0
LINE
  5
5A
330
A
100
AcDbEntity
  8
0
  6
STANDARD
 62
     7
100
AcDbLine
 10
-24.86156891665285
 20
409.3838367354363
 30
0.0
 11
-22.85305451235598
 21
422.5605640303582
 31
0.0
  0
LINE
  5
5B
330
A
100
AcDbEntity
  8
0
  6
STANDARD
 62
     7
100
AcDbLine
 10
-19.06567047915285
 20
408.1838855635613
 30
0.0
 11
-17.01000641665285
 21
421.6699085127801
 31
0.0
  0
LINE
  5
5C
330
A
100
AcDbEntity
  8
0
  6
STANDARD
 62
     7
100
AcDbLine
 10
0.0227694622533932
 20
406.3294849287957
 30
0.0
 11
2.281375419284643
 21
422.5184497725456
 31
0.0
  0
LINE
  5
5D
330
A
100
AcDbEntity
  8
0
  6
STANDARD
 62
     7
100
AcDbLine
 10
5.834842216159643
 20
405.1963672530144
 30
0.0
 11
8.137393485690893
 21
421.7013416182488
 31
0.0
  0
LINE
  5
5E
330
A
100
AcDbEntity
  8
0
  6
STANDARD
 62
     7
100
AcDbLine
 10
-122.0800442584497
 20
425.1634082686394
 30
0.0
 11
-120.9463162311059
 21
425.0002918135613
 31
0.0
  0
LINE
  5
5F
330
A
100
AcDbEntity
  8
0
  6
STANDARD
 62
     7
100
AcDbLine
 10
-50.01491974673098
 20
411.3921985518425
 30
0.0
 11
-48.04928253969973
 21
422.6342639815301
 31
0.0
  0
LINE
  5
60
330
A
100
AcDbEntity
  8
0
  6
STANDARD
 62
     7
100
AcDbLine
 10
-44.25106476626223
 20
410.0498828780144
 30
0.0
 11
-42.22866486391848
 21
421.6165027510613
 31
0.0
  0
LINE
  5
61
330
A
100
AcDbEntity
  8
0
  6
STANDARD
 62
     7
100
AcDbLine
 10
-74.93404816469973
 20
414.7376880537956
 30
0.0
 11
-73.32455109438723
 21
422.7232227217644
 31
0.0
  0
LINE
  5
62
330
A
100
AcDbEntity
  8
0
  6
STANDARD
 62
     7
100
AcDbLine
 10
-69.20254181704348
 20
413.2603320967644
 30
0.0
 11
-67.53063629946535
 21
421.5553150069206
 31
0.0
  0
LINE
  5
63
330
A
100
AcDbEntity
  8
0
  6
STANDARD
 62
     7
100
AcDbLine
 10
-158.8323635943872
 20
388.5044727217644
 30
0.0
 11
-158.5509915240747
 21
389.6108875166863
 31
0.0
  0
LINE
  5
64
330
A
100
AcDbEntity
  8
0
  6
STANDARD
 62
     7
100
AcDbLine
 10
-100.1427883990747
 20
417.4699268233269
 30
0.0
 11
-98.78475617251224
 21
422.8889331709831
 31
0.0
  0
LINE
  5
65
330
A
100
AcDbEntity
  8
0
  6
STANDARD
 62
     7
100
AcDbLine
 10
-94.47536896548099
 20
415.7191333662956
 30
0.0
 11
-93.03921173891849
 21
421.4491138350457
 31
0.0
  0
LINE
  5
66
330
A
100
AcDbEntity
  8
0
  6
STANDARD
 62
     7
100
AcDbLine
 10
-157.1523709186059
 20
385.5825672041863
 30
0.0
 11
-156.0546536334497
 21
385.2895984541863
 31
0.0
  0
LINE
  5
67
330
A
100
AcDbEntity
  8
0
  6
STANDARD
 62
     7
100
AcDbLine
 10
-125.7061428912622
 20
420.2937183272331
 30
0.0
 11
-124.6767849811059
 21
423.233629215905
 31
0.0
  0
LINE
  5
68
330
A
100
AcDbEntity
  8
0
  6
STANDARD
 62
     7
100
AcDbLine
 10
-120.1684231646997
 20
417.9981861006707
 30
0.0
 11
-119.0279812701684
 21
421.2562427412956
 31
0.0
  0
LINE
  5
69
330
A
100
AcDbEntity
  8
0
  6
STANDARD
 62
     7
100
AcDbLine
 10
15.66546965756589
 20
359.6151599776238
 30
0.0
 11
19.07626677670651
 21
358.1638965498894
 31
0.0
  0
LINE
  5
6A
330
A
100
AcDbEntity
  8
0
  6
STANDARD
 62
     7
100
AcDbLine
 10
-124.6767849811059
 20
423.233629215905
 30
0.0
 11
-124.0990872271997
 21
424.2072925459831
 31
0.0
  0
LINE
  5
6B
330
A
100
AcDbEntity
  8
0
  6
STANDARD
 62
     7
100
AcDbLine
 10
-120.8422512896997
 20
424.9638233077019
 30
0.0
 11
-119.8540921100122
 21
424.3841419112175
 31
0.0
  0
LINE
  5
6C
330
A
100
AcDbEntity
  8
0
  6
STANDARD
 62
     7
100
AcDbLine
 10
-158.5509915240747
 20
389.6108875166863
 30
0.0
 11
-157.8710598834497
 21
390.5210742842644
 31
0.0
  0
LINE
  5
6D
330
A
100
AcDbEntity
  8
0
  6
STANDARD
 62
     7
100
AcDbLine
 10
-158.0587429889184
 20
386.2765369307488
 30
0.0
 11
-157.1523709186059
 21
385.5825672041863
 31
0.0
  0
ARC
  5
6E
330
A
100
AcDbEntity
  8
0
  6
STANDARD
 62
     7
100
AcDbCircle
 10
-155.8226193957589
 20
362.2880583261085
 30
0.0
 40
2.903424327801696
100
AcDbArc
 50
193.9002352839698
 51
283.9071646203621
  0
ARC
  5
6F
330
A
100
AcDbEntity
  8
0
  6
STANDARD
 62
     7
100
AcDbCircle
 10
-155.7991643463314
 20
336.8133506155431
 30
0.0
 40
2.900713017271416
100
AcDbArc
 50
191.3187610832683
 51
281.3081975603878
  0
ARC
  5
70
330
A
100
AcDbEntity
  8
0
  6
STANDARD
 62
     7
100
AcDbCircle
 10
-155.7876236191621
 20
311.5288869259155
 30
0.0
 40
2.899849202855937
100
AcDbArc
 50
189.8552675943764
 51
279.8589126149065
  0
ARC
  5
71
330
A
100
AcDbEntity
  8
0
  6
STANDARD
 62
     7
100
AcDbCircle
 10
-155.7781266645842
 20
286.3240701413096
 30
0.0
 40
2.900457291539978
100
AcDbArc
 50
188.6093910598723
 51
278.6040231817295
  0
ARC
  5
72
330
A
100
AcDbEntity
  8
0
  6
STANDARD
 62
     7
100
AcDbCircle
 10
-155.7728222501974
 20
261.18488266859
 30
0.0
 40
2.901098574722852
100
AcDbArc
 50
187.8822051879126
 51
277.8750717087135
  0
ARC
  5
73
330
A
100
AcDbEntity
  8
0
  6
STANDARD
 62
     7
100
AcDbCircle
 10
-158.7443043484203
 20
245.7851267232602
 30
0.0
 40
11.28495694000691
100
AcDbArc
 50
190.489666110168
 51
274.4365035489942
  0
ARC
  5
74
330
A
100
AcDbEntity
  8
0
  6
STANDARD
 62
     7
100
AcDbCircle
 10
-158.7451076077432
 20
245.7848047827992
 30
0.0
 40
14.99967053945159
100
AcDbArc
 50
179.9990582191044
 51
274.4131750390555
  0
ARC
  5
75
330
A
100
AcDbEntity
  8
0
  6
STANDARD
 62
     7
100
AcDbCircle
 10
-95.85911445702818
 20
422.1499922413074
 30
0.0
 40
2.905698174271775
100
AcDbArc
 50
346.0421360752578
 51
75.9576744928774
  0
ARC
  5
76
330
A
100
AcDbEntity
  8
0
  6
STANDARD
 62
     7
100
AcDbCircle
 10
-70.37388694144692
 20
422.1280252943959
 30
0.0
 40
2.900357096377594
100
AcDbArc
 50
348.6114177161742
 51
78.61383681112442
  0
ARC
  5
77
330
A
100
AcDbEntity
  8
0
  6
STANDARD
 62
     7
100
AcDbCircle
 10
-173.74465566223
 20
440.2067777059435
 30
0.0
 40
52.00219844455119
100
AcDbArc
 50
292.3697813328186
 51
337.4848778183826
  0
ARC
  5
78
330
A
100
AcDbEntity
  8
0
  6
STANDARD
 62
     7
100
AcDbCircle
 10
-173.7454435208261
 20
440.2078279844307
 30
0.0
 40
57.99797671337903
100
AcDbArc
 50
292.3702006295975
 51
337.4841981467946
  0
ARC
  5
79
330
A
100
AcDbEntity
  8
0
  6
STANDARD
 62
     7
100
AcDbCircle
 10
-173.7453806716255
 20
440.2078240235133
 30
0.0
 40
77.03475552194351
100
AcDbArc
 50
287.0693950149897
 51
342.832619944799
  0
ARC
  5
7A
330
A
100
AcDbEntity
  8
0
  6
STANDARD
 62
     7
100
AcDbCircle
 10
-70.4816217543198
 20
422.1497159517884
 30
0.0
 40
2.900199518623491
100
AcDbArc
 50
101.0944868102698
 51
168.5947389732121
  0
ARC
  5
7B
330
A
100
AcDbEntity
  8
0
  6
STANDARD
 62
     7
100
AcDbCircle
 10
-173.7449656852872
 20
440.2073444596303
 30
0.0
 40
82.96590532666076
100
AcDbArc
 50
287.0691378284443
 51
342.832872074845
  0
ARC
  5
7C
330
A
100
AcDbEntity
  8
0
  6
STANDARD
 62
     7
100
AcDbCircle
 10
-173.7450255926465
 20
440.207369742403
 30
0.0
 40
152.0406980345198
100
AcDbArc
 50
281.6468932154802
 51
348.3032283853966
  0
ARC
  5
7D
330
A
100
AcDbEntity
  8
0
  6
STANDARD
 62
     7
100
AcDbCircle
 10
-173.7448903209256
 20
440.2072388392668
 30
0.0
 40
157.9593498526761
100
AcDbArc
 50
281.6468091381896
 51
348.3032582264182
  0
ARC
  5
7E
330
A
100
AcDbEntity
  8
0
  6
STANDARD
 62
     7
100
AcDbCircle
 10
-173.7450898424678
 20
440.2075071051923
 30
0.0
 40
177.0395134254774
100
AcDbArc
 50
280.9891661197075
 51
348.9679225498313
  0
ARC
  5
7F
330
A
100
AcDbEntity
  8
0
  6
STANDARD
 62
     7
100
AcDbCircle
 10
-173.7445726355183
 20
440.2071480645748
 30
0.0
 40
182.9604356452677
100
AcDbArc
 50
280.9889608792652
 51
348.9680056238992
  0
ARC
  5
80
330
A
100
AcDbEntity
  8
0
  6
STANDARD
 62
     7
100
AcDbCircle
 10
-155.8066314002773
 20
311.6369428577718
 30
0.0
 40
2.89936799911867
100
AcDbArc
 50
99.85274986907919
 51
167.3689800310845
  0
ARC
  5
81
330
A
100
AcDbEntity
  8
0
  6
STANDARD
 62
     7
100
AcDbCircle
 10
20.67757240929853
 20
425.2073977519388
 30
0.0
 40
11.28424729219433
100
AcDbArc
 50
6.078357112126733
 51
79.51109341821974
  0
ARC
  5
82
330
A
100
AcDbEntity
  8
0
  6
STANDARD
 62
     7
100
AcDbCircle
 10
20.67732651702403
 20
425.2073652847458
 30
0.0
 40
14.99998829646122
100
AcDbArc
 50
6.078164837976429
 51
89.99982812776568
  0
ARC
  5
83
330
A
100
AcDbEntity
  8
0
  6
STANDARD
 62
     7
100
AcDbCircle
 10
-95.97338992567399
 20
422.1837612633399
 30
0.0
 40
2.898456070598835
100
AcDbArc
 50
98.31974502276388
 51
165.9190663750887
  0
ARC
  5
84
330
A
100
AcDbEntity
  8
0
  6
STANDARD
 62
     7
100
AcDbCircle
 10
-173.7442816851476
 20
440.2068440176174
 30
0.0
 40
102.0398949130923
100
AcDbArc
 50
284.3795400074666
 51
345.5461575306366
  0
ARC
  5
85
330
A
100
AcDbEntity
  8
0
  6
STANDARD
 62
     7
100
AcDbCircle
 10
-173.7457048394456
 20
440.2081333124988
 30
0.0
 40
107.9604414824767
100
AcDbArc
 50
284.3801551072283
 51
345.5456769204788
  0
ARC
  5
86
330
A
100
AcDbEntity
  8
0
  6
STANDARD
 62
     7
100
AcDbCircle
 10
-155.7945990027603
 20
286.4322436431616
 30
0.0
 40
2.900613846998932
100
AcDbArc
 50
98.62349570174091
 51
166.1187706917758
  0
ARC
  5
87
330
A
100
AcDbEntity
  8
0
  6
STANDARD
 62
     7
100
AcDbCircle
 10
-173.7446724808948
 20
440.2071137522463
 30
0.0
 40
127.0407456277858
100
AcDbArc
 50
283.050070041529
 51
346.8902923017015
  0
ARC
  5
88
330
A
100
AcDbEntity
  8
0
  6
STANDARD
 62
     7
100
AcDbCircle
 10
-173.7460887102666
 20
440.2086358564219
 30
0.0
 40
132.9605641063201
100
AcDbArc
 50
283.0504089851826
 51
346.8897939650895
  0
ARC
  5
89
330
A
100
AcDbEntity
  8
0
  6
STANDARD
 62
     7
100
AcDbCircle
 10
-155.7892161647548
 20
261.29591642788
 30
0.0
 40
2.899564340132046
100
AcDbArc
 50
97.90538600498633
 51
165.4310771012058
  0
ARC
  5
8A
330
A
100
AcDbEntity
  8
0
  6
STANDARD
 62
     7
100
AcDbCircle
 10
-173.7426628871746
 20
440.2052157521951
 30
0.0
 40
206.2825961523466
100
AcDbArc
 50
294.7055190676509
 51
355.5872466959701
  0
ARC
  5
8B
330
A
100
AcDbEntity
  8
0
  6
STANDARD
 62
     7
100
AcDbCircle
 10
-173.7449847830849
 20
440.2072776107124
 30
0.0
 40
210.0000201120899
100
AcDbArc
 50
294.7059220715319
 51
355.588289002829
  0
ARC
  5
8C
330
A
100
AcDbEntity
  8
0
  6
STANDARD
 62
     7
100
AcDbCircle
 10
-158.7448551490898
 20
425.2074305850607
 30
0.0
 40
14.99992299627633
100
AcDbArc
 50
89.99970586517687
 51
180.0002941348231
  0
ARC
  5
8D
330
A
100
AcDbEntity
  8
0
  6
STANDARD
 62
     7
100
AcDbCircle
 10
-158.7450192050327
 20
425.2074420531128
 30
0.0
 40
11.28569088580478
100
AcDbArc
 50
99.99926874656079
 51
170.0007312534375
  0
ARC
  5
8E
330
A
100
AcDbEntity
  8
0
  6
STANDARD
 62
     7
100
AcDbCircle
 10
5.263716112975941
 20
422.1005514021741
 30
0.0
 40
2.901687158056157
100
AcDbArc
 50
14.58213732037661
 51
82.07195882747063
  0
ARC
  5
8F
330
A
100
AcDbEntity
  8
0
  6
STANDARD
 62
     7
100
AcDbCircle
 10
-155.8520995005959
 20
362.4030063051075
 30
0.0
 40
2.900973569810054
100
AcDbArc
 50
104.0188947155584
 51
171.5504445042439
  0
ARC
  5
90
330
A
100
AcDbEntity
  8
0
  6
STANDARD
 62
     7
100
AcDbCircle
 10
5.152873273886655
 20
422.1178180278966
 30
0.0
 40
2.899311249901488
100
AcDbArc
 50
104.5255300864083
 51
172.0573575552781
  0
ARC
  5
91
330
A
100
AcDbEntity
  8
0
  6
STANDARD
 62
     7
100
AcDbCircle
 10
-19.87790573770706
 20
422.1057526205689
 30
0.0
 40
2.901291149568783
100
AcDbArc
 50
13.85027397796032
 51
81.33046294392064
  0
ARC
  5
92
330
A
100
AcDbEntity
  8
0
  6
STANDARD
 62
     7
100
AcDbCircle
 10
-19.9860123659634
 20
422.1232050033036
 30
0.0
 40
2.900209231717173
100
AcDbArc
 50
103.8238623879072
 51
171.3265600556388
  0
ARC
  5
93
330
A
100
AcDbEntity
  8
0
  6
STANDARD
 62
     7
100
AcDbCircle
 10
-45.08537552889817
 20
422.116030206027
 30
0.0
 40
2.899963981668318
100
AcDbArc
 50
12.58282520845167
 51
80.08411231848388
  0
ARC
  5
94
330
A
100
AcDbEntity
  8
0
  6
STANDARD
 62
     7
100
AcDbCircle
 10
-45.19224300027684
 20
422.1345053306936
 30
0.0
 40
2.900419562565151
100
AcDbArc
 50
102.5888385411351
 51
170.0780989858011
  0
ARC
  5
95
330
A
100
AcDbEntity
  8
0
  6
STANDARD
 62
     7
100
AcDbCircle
 10
-155.820543702993
 20
336.9201034710099
 30
0.0
 40
2.900861051207442
100
AcDbArc
 50
101.3341609972966
 51
168.819302897864
  0
LINE
  5
96
330
A
100
AcDbEntity
  8
0
  6
STANDARD
 62
     7
100
AcDbLine
 10
-501.5797040719523
 20
611.2758592330706
 30
0.0
 11
-292.2019574899211
 21
611.2758592330706
 31
0.0
  0
LINE
  5
97
330
A
100
AcDbEntity
  8
0
  6
STANDARD
 62
     7
100
AcDbLine
 10
-481.0147474069133
 20
561.3759568893206
 30
0.0
 11
-381.9486615914835
 21
561.3759568893206
 31
0.0
  0
LINE
  5
98
330
A
100
AcDbEntity
  8
0
  6
STANDARD
 62
     7
100
AcDbLine
 10
-501.5797040719523
 20
526.2758592330706
 30
0.0
 11
-292.2019574899211
 21
526.2758592330706
 31
0.0
  0
LINE
  5
99
330
A
100
AcDbEntity
  8
0
  6
STANDARD
 62
     7
100
AcDbLine
 10
-436.9873807687296
 20
491.2758592330705
 30
0.0
 11
-295.2019117135538
 21
491.2758592330705
 31
0.0
  0
LINE
  5
9B
330
A
100
AcDbEntity
  8
0
  6
STANDARD
 62
     7
100
AcDbLine
 10
-481.612357880546
 20
571.3759568893205
 30
0.0
 11
-481.612357880546
 21
601.2758592330706
 31
0.0
  0
LINE
  5
9C
330
A
100
AcDbEntity
  8
0
  6
STANDARD
 62
     7
100
AcDbLine
 10
-374.2453382272257
 20
571.3759568893205
 30
0.0
 11
-374.2453382272257
 21
601.2758592330706
 31
0.0
  0
LINE
  5
9D
330
A
100
AcDbEntity
  8
0
  6
STANDARD
 62
     7
100
AcDbLine
 10
-485.0230405587687
 20
571.3759568893205
 30
0.0
 11
-485.0230405587687
 21
601.2758592330706
 31
0.0
  0
LINE
  5
9E
330
A
100
AcDbEntity
  8
0
  6
STANDARD
 62
     7
100
AcDbLine
 10
-292.2019574899211
 20
526.2758592330706
 30
0.0
 11
-292.2019574899211
 21
611.2758592330706
 31
0.0
  0
LINE
  5
9F
330
A
100
AcDbEntity
  8
0
  6
STANDARD
 62
     7
100
AcDbLine
 10
-501.5797040719523
 20
526.2758592330706
 30
0.0
 11
-501.5797040719523
 21
611.2758592330706
 31
0.0
  0
LINE
  5
A0
330
A
100
AcDbEntity
  8
0
  6
STANDARD
 62
     7
100
AcDbLine
 10
-295.2019117135538
 20
491.2758592330705
 30
0.0
 11
-295.2019117135538
 21
526.2758592330706
 31
0.0
  0
LINE
  5
A1
330
A
100
AcDbEntity
  8
0
  6
STANDARD
 62
     7
100
AcDbLine
 10
-436.9873807687296
 20
491.2758592330705
 30
0.0
 11
-436.9873807687296
 21
526.2758592330706
 31
0.0
  0
LINE
  5
A2
330
A
100
AcDbEntity
  8
0
  6
STANDARD
 62
     7
100
AcDbLine
 10
-479.6051404733195
 20
562.2771409713518
 30
0.0
 11
-479.5003125924601
 21
562.1370652877581
 31
0.0
  0
LINE
  5
A3
330
A
100
AcDbEntity
  8
0
  6
STANDARD
 62
     7
100
AcDbLine
 10
-371.481742646171
 20
608.3469346725237
 30
0.0
 11
-368.4206769723429
 21
610.5146745406877
 31
0.0
  0
LINE
  5
A4
330
A
100
AcDbEntity
  8
0
  6
STANDARD
 62
     7
100
AcDbLine
 10
-379.9735639352336
 20
562.205424662758
 30
0.0
 11
-377.0088575143351
 21
564.3048814498675
 31
0.0
  0
LINE
  5
A5
330
A
100
AcDbEntity
  8
0
  6
STANDARD
 62
     7
100
AcDbLine
 10
-487.1008298654094
 20
610.5146745406877
 30
0.0
 11
-486.0088727731242
 21
608.3469346725237
 31
0.0
  0
LINE
  5
A6
330
A
100
AcDbEntity
  8
0
  6
STANDARD
 62
     7
100
AcDbLine
 10
-483.6901471871867
 20
610.5146745406877
 30
0.0
 11
-482.5981900949015
 21
608.3469346725237
 31
0.0
  0
LINE
  5
A7
330
A
100
AcDbEntity
  8
0
  6
STANDARD
 62
     7
100
AcDbLine
 10
-480.6265256661906
 20
564.3048814498675
 30
0.0
 11
-479.6051404733195
 21
562.2771409713518
 31
0.0
  0
LINE
  5
A8
330
A
100
AcDbEntity
  8
0
  6
STANDARD
 62
     7
100
AcDbLine
 10
-484.0372464913859
 20
564.3048814498675
 30
0.0
 11
-482.9796979684367
 21
562.205424662758
 31
0.0
  0
LINE
  5
A9
330
A
100
AcDbEntity
  8
0
  6
STANDARD
 62
     7
100
AcDbLine
 10
-486.0088727731242
 20
608.3469346725237
 30
0.0
 11
-485.2792737741007
 21
605.1027635299456
 31
0.0
  0
LINE
  5
AA
330
A
100
AcDbEntity
  8
0
  6
STANDARD
 62
     7
100
AcDbLine
 10
-482.5981900949015
 20
608.3469346725237
 30
0.0
 11
-481.8685529489054
 21
605.1027635299456
 31
0.0
  0
LINE
  5
AB
330
A
100
AcDbEntity
  8
0
  6
STANDARD
 62
     7
100
AcDbLine
 10
-481.3561628121867
 20
567.5490525924455
 30
0.0
 11
-480.6265256661906
 21
564.3048814498675
 31
0.0
  0
LINE
  5
AC
330
A
100
AcDbEntity
  8
0
  6
STANDARD
 62
     7
100
AcDbLine
 10
-484.7668454904093
 20
567.5490525924455
 30
0.0
 11
-484.0372464913859
 21
564.3048814498675
 31
0.0
  0
LINE
  5
AD
330
A
100
AcDbEntity
  8
0
  6
STANDARD
 62
     7
100
AcDbLine
 10
-383.4074018258585
 20
561.3759568893206
 30
0.0
 11
-380.0628278512492
 21
562.1370652877581
 31
0.0
  0
LINE
  5
AE
330
A
100
AcDbEntity
  8
0
  6
STANDARD
 62
     7
100
AcDbLine
 10
-368.4206769723429
 20
610.5146745406877
 30
0.0
 11
-364.8098371285929
 21
611.2758592330706
 31
0.0
  0
LINE
  5
AF
330
A
100
AcDbEntity
  8
0
  6
STANDARD
 62
     7
100
AcDbLine
 10
-485.2792737741007
 20
605.1027635299456
 30
0.0
 11
-485.0230405587687
 21
601.2758592330706
 31
0.0
  0
LINE
  5
B0
330
A
100
AcDbEntity
  8
0
  6
STANDARD
 62
     7
100
AcDbLine
 10
-481.8685529489054
 20
605.1027635299456
 30
0.0
 11
-481.612357880546
 21
601.2758592330706
 31
0.0
  0
LINE
  5
B1
330
A
100
AcDbEntity
  8
0
  6
STANDARD
 62
     7
100
AcDbLine
 10
-481.612357880546
 20
571.3759568893205
 30
0.0
 11
-481.3561628121867
 21
567.5490525924455
 31
0.0
  0
LINE
  5
B2
330
A
100
AcDbEntity
  8
0
  6
STANDARD
 62
     7
100
AcDbLine
 10
-485.0230405587687
 20
571.3759568893205
 30
0.0
 11
-484.7668454904093
 21
567.5490525924455
 31
0.0
  0
LINE
  5
B3
330
A
100
AcDbEntity
  8
0
  6
STANDARD
 62
     7
100
AcDbLine
 10
-374.2453382272257
 20
601.2758592330706
 30
0.0
 11
-373.5271070260539
 21
605.1027635299456
 31
0.0
  0
LINE
  5
B4
330
A
100
AcDbEntity
  8
0
  6
STANDARD
 62
     7
100
AcDbLine
 10
-374.9635694283976
 20
567.5490525924455
 30
0.0
 11
-374.2453382272257
 21
571.3759568893205
 31
0.0
  0
LINE
  5
B5
330
A
100
AcDbEntity
  8
0
  6
STANDARD
 62
     7
100
AcDbLine
 10
-479.5003125924601
 20
562.1370652877581
 30
0.0
 11
-477.5864789742961
 21
561.3759568893206
 31
0.0
  0
LINE
  5
B6
330
A
100
AcDbEntity
  8
0
  6
STANDARD
 62
     7
100
AcDbLine
 10
-482.9285810250773
 20
562.1370652877581
 30
0.0
 11
-481.0147474069133
 21
561.3759568893206
 31
0.0
  0
LINE
  5
B7
330
A
100
AcDbEntity
  8
0
  6
STANDARD
 62
     7
100
AcDbLine
 10
-488.3888623971476
 20
611.2758592330706
 30
0.0
 11
-487.1008298654094
 21
610.5146745406877
 31
0.0
  0
LINE
  5
B8
330
A
100
AcDbEntity
  8
0
  6
STANDARD
 62
     7
100
AcDbLine
 10
-484.9781797189249
 20
611.2758592330706
 30
0.0
 11
-483.6901471871867
 21
610.5146745406877
 31
0.0
  0
LINE
  5
B9
330
A
100
AcDbEntity
  8
0
  6
STANDARD
 62
     7
100
AcDbLine
 10
-373.5271070260539
 20
605.1027635299456
 30
0.0
 11
-371.481742646171
 21
608.3469346725237
 31
0.0
  0
LINE
  5
BA
330
A
100
AcDbEntity
  8
0
  6
STANDARD
 62
     7
100
AcDbLine
 10
-377.0088575143351
 20
564.3048814498675
 30
0.0
 11
-374.9635694283976
 21
567.5490525924455
 31
0.0
  0
LINE
  5
BD
330
A
100
AcDbEntity
  8
0
  6
STANDARD
 62
     7
100
AcDbLine
 10
-173.7447781451684
 20
611.2758592330706
 30
0.0
 11
35.63312102475339
 21
611.2758592330706
 31
0.0
  0
LINE
  5
BE
330
A
100
AcDbEntity
  8
0
  6
STANDARD
 62
     7
100
AcDbLine
 10
-83.99792145571536
 20
561.3759568893206
 30
0.0
 11
15.06808806576901
 21
561.3759568893206
 31
0.0
  0
LINE
  5
BF
330
A
100
AcDbEntity
  8
0
  6
STANDARD
 62
     7
100
AcDbLine
 10
-173.7447781451684
 20
526.2758592330706
 30
0.0
 11
35.63312102475339
 21
526.2758592330706
 31
0.0
  0
LINE
  5
C0
330
A
100
AcDbEntity
  8
0
  6
STANDARD
 62
     7
100
AcDbLine
 10
-170.7447476275903
 20
491.2758592330705
 30
0.0
 11
-28.95931671938723
 21
491.2758592330705
 31
0.0
  0
LINE
  5
C3
330
A
100
AcDbEntity
  8
0
  6
STANDARD
 62
     7
100
AcDbLine
 10
15.66577483334714
 20
571.3759568893205
 30
0.0
 11
15.66577483334714
 21
601.2758592330706
 31
0.0
  0
LINE
  5
C4
330
A
100
AcDbEntity
  8
0
  6
STANDARD
 62
     7
100
AcDbLine
 10
19.07641936459714
 20
571.3759568893205
 30
0.0
 11
19.07641936459714
 21
601.2758592330706
 31
0.0
  0
LINE
  5
C5
330
A
100
AcDbEntity
  8
0
  6
STANDARD
 62
     7
100
AcDbLine
 10
-91.70132111391849
 20
571.3759568893205
 30
0.0
 11
-91.70132111391849
 21
601.2758592330706
 31
0.0
  0
LINE
  5
C6
330
A
100
AcDbEntity
  8
0
  6
STANDARD
 62
     7
100
AcDbLine
 10
35.63312102475339
 20
526.2758592330706
 30
0.0
 11
35.63312102475339
 21
611.2758592330706
 31
0.0
  0
LINE
  5
C7
330
A
100
AcDbEntity
  8
0
  6
STANDARD
 62
     7
100
AcDbLine
 10
-173.7447781451684
 20
526.2758592330706
 30
0.0
 11
-173.7447781451684
 21
611.2758592330706
 31
0.0
  0
LINE
  5
C8
330
A
100
AcDbEntity
  8
0
  6
STANDARD
 62
     7
100
AcDbLine
 10
-170.7447476275903
 20
491.2758592330705
 30
0.0
 11
-170.7447476275903
 21
526.2758592330706
 31
0.0
  0
LINE
  5
C9
330
A
100
AcDbEntity
  8
0
  6
STANDARD
 62
     7
100
AcDbLine
 10
-28.95931671938723
 20
491.2758592330705
 30
0.0
 11
-28.95931671938723
 21
526.2758592330706
 31
0.0
  0
LINE
  5
CA
330
A
100
AcDbEntity
  8
0
  6
STANDARD
 62
     7
100
AcDbLine
 10
-94.46499298891849
 20
608.3469346725237
 30
0.0
 11
-92.41955231509036
 21
605.1027635299456
 31
0.0
  0
LINE
  5
CB
330
A
100
AcDbEntity
  8
0
  6
STANDARD
 62
     7
100
AcDbLine
 10
-90.98308991274661
 20
567.5490525924455
 30
0.0
 11
-88.93780182680911
 21
564.3048814498675
 31
0.0
  0
LINE
  5
CC
330
A
100
AcDbEntity
  8
0
  6
STANDARD
 62
     7
100
AcDbLine
 10
17.74341155209714
 20
610.5146745406877
 30
0.0
 11
19.03155852475339
 21
611.2758592330706
 31
0.0
  0
LINE
  5
CD
330
A
100
AcDbEntity
  8
0
  6
STANDARD
 62
     7
100
AcDbLine
 10
21.15420867123777
 20
610.5146745406877
 30
0.0
 11
22.44220305600339
 21
611.2758592330706
 31
0.0
  0
LINE
  5
CE
330
A
100
AcDbEntity
  8
0
  6
STANDARD
 62
     7
100
AcDbLine
 10
11.63974333920651
 20
561.3759568893206
 30
0.0
 11
13.55365325131589
 21
562.1370652877581
 31
0.0
  0
LINE
  5
CF
330
A
100
AcDbEntity
  8
0
  6
STANDARD
 62
     7
100
AcDbLine
 10
15.06808806576901
 20
561.3759568893206
 30
0.0
 11
16.98184538998776
 21
562.1370652877581
 31
0.0
  0
LINE
  5
D0
330
A
100
AcDbEntity
  8
0
  6
STANDARD
 62
     7
100
AcDbLine
 10
-92.41955231509036
 20
605.1027635299456
 30
0.0
 11
-91.70132111391849
 21
601.2758592330706
 31
0.0
  0
LINE
  5
D1
330
A
100
AcDbEntity
  8
0
  6
STANDARD
 62
     7
100
AcDbLine
 10
-91.70132111391849
 20
571.3759568893205
 30
0.0
 11
-90.98308991274661
 21
567.5490525924455
 31
0.0
  0
LINE
  5
D2
330
A
100
AcDbEntity
  8
0
  6
STANDARD
 62
     7
100
AcDbLine
 10
15.66577483334714
 20
601.2758592330706
 30
0.0
 11
15.92196990170651
 21
605.1027635299456
 31
0.0
  0
LINE
  5
D3
330
A
100
AcDbEntity
  8
0
  6
STANDARD
 62
     7
100
AcDbLine
 10
19.07641936459714
 20
601.2758592330706
 30
0.0
 11
19.33261443295651
 21
605.1027635299456
 31
0.0
  0
LINE
  5
D4
330
A
100
AcDbEntity
  8
0
  6
STANDARD
 62
     7
100
AcDbLine
 10
15.40942717709714
 20
567.5490525924455
 30
0.0
 11
15.66577483334714
 21
571.3759568893205
 31
0.0
  0
LINE
  5
D5
330
A
100
AcDbEntity
  8
0
  6
STANDARD
 62
     7
100
AcDbLine
 10
18.82022429623776
 20
567.5490525924455
 30
0.0
 11
19.07641936459714
 21
571.3759568893205
 31
0.0
  0
LINE
  5
D6
330
A
100
AcDbEntity
  8
0
  6
STANDARD
 62
     7
100
AcDbLine
 10
-101.1367459186059
 20
611.2758592330706
 30
0.0
 11
-97.52605866274661
 21
610.5146745406877
 31
0.0
  0
LINE
  5
D7
330
A
100
AcDbEntity
  8
0
  6
STANDARD
 62
     7
100
AcDbLine
 10
15.92196990170651
 20
605.1027635299456
 30
0.0
 11
16.65149260678464
 21
608.3469346725237
 31
0.0
  0
LINE
  5
D8
330
A
100
AcDbEntity
  8
0
  6
STANDARD
 62
     7
100
AcDbLine
 10
19.33261443295651
 20
605.1027635299456
 30
0.0
 11
20.06213713803464
 21
608.3469346725237
 31
0.0
  0
LINE
  5
D9
330
A
100
AcDbEntity
  8
0
  6
STANDARD
 62
     7
100
AcDbLine
 10
14.67990447201901
 20
564.3048814498675
 30
0.0
 11
15.40942717709714
 21
567.5490525924455
 31
0.0
  0
LINE
  5
DA
330
A
100
AcDbEntity
  8
0
  6
STANDARD
 62
     7
100
AcDbLine
 10
18.09054900326901
 20
564.3048814498675
 30
0.0
 11
18.82022429623776
 21
567.5490525924455
 31
0.0
  0
LINE
  5
DB
330
A
100
AcDbEntity
  8
0
  6
STANDARD
 62
     7
100
AcDbLine
 10
-85.88375519594974
 20
562.1370652877581
 30
0.0
 11
-82.53933380923099
 21
561.3759568893206
 31
0.0
  0
LINE
  5
DC
330
A
100
AcDbEntity
  8
0
  6
STANDARD
 62
     7
100
AcDbLine
 10
16.65149260678464
 20
608.3469346725237
 30
0.0
 11
17.74341155209714
 21
610.5146745406877
 31
0.0
  0
LINE
  5
DD
330
A
100
AcDbEntity
  8
0
  6
STANDARD
 62
     7
100
AcDbLine
 10
20.06213713803464
 20
608.3469346725237
 30
0.0
 11
21.15420867123777
 21
610.5146745406877
 31
0.0
  0
LINE
  5
DE
330
A
100
AcDbEntity
  8
0
  6
STANDARD
 62
     7
100
AcDbLine
 10
13.65848113217526
 20
562.2771409713518
 30
0.0
 11
14.67990447201901
 21
564.3048814498675
 31
0.0
  0
LINE
  5
DF
330
A
100
AcDbEntity
  8
0
  6
STANDARD
 62
     7
100
AcDbLine
 10
17.03296233334714
 20
562.205424662758
 30
0.0
 11
18.09054900326901
 21
564.3048814498675
 31
0.0
  0
LINE
  5
E0
330
A
100
AcDbEntity
  8
0
  6
STANDARD
 62
     7
100
AcDbLine
 10
-97.52605866274661
 20
610.5146745406877
 30
0.0
 11
-94.46499298891849
 21
608.3469346725237
 31
0.0
  0
LINE
  5
E1
330
A
100
AcDbEntity
  8
0
  6
STANDARD
 62
     7
100
AcDbLine
 10
-88.93780182680911
 20
564.3048814498675
 30
0.0
 11
-85.97317169985599
 21
562.205424662758
 31
0.0
  0
LINE
  5
E2
330
A
100
AcDbEntity
  8
0
  6
STANDARD
 62
     7
100
AcDbLine
 10
13.55365325131589
 20
562.1370652877581
 30
0.0
 11
13.65848113217526
 21
562.2771409713518
 31
0.0
  0
ENDSEC
  0
SECTION
  2
OBJECTS
  0
DICTIONARY
  5
19
330
0
100
AcDbDictionary
  3
ACAD_GROUP
350
1A
  3
ACAD_LAYOUT
350
E8
  3
ACAD_MLINESTYLE
350
1B
  3
ACAD_PLOTSETTINGS
350
E9
  3
ACAD_PLOTSTYLENAME
350
E6
  3
ACDBHEADERROUNDTRIPXREC
350
129
  0
DICTIONARY
  5
149
330
A
100
AcDbDictionary
280
     1
  3
ACAD_LAYOUTSELFREF
360
14A
  0
DICTIONARY
  5
14B
330
B
100
AcDbDictionary
280
     1
  3
ACAD_LAYOUTSELFREF
360
14C
  0
DICTIONARY
  5
1A
102
{ACAD_REACTORS
330
19
102
}
330
19
100
AcDbDictionary
  0
DICTIONARY
  5
E8
102
{ACAD_REACTORS
330
19
102
}
330
19
100
AcDbDictionary
  0
DICTIONARY
  5
1B
102
{ACAD_REACTORS
330
19
102
}
330
19
100
AcDbDictionary
  3
STANDARD
350
1C
  0
DICTIONARY
  5
E9
102
{ACAD_REACTORS
330
19
102
}
330
19
100
AcDbDictionary
  0
ACDBDICTIONARYWDFLT
  5
E6
102
{ACAD_REACTORS
330
19
102
}
330
19
100
AcDbDictionary
281
     1
  3
Normal
350
E7
100
AcDbDictionaryWithDefault
340
E7
  0
DICTIONARY
  5
129
102
{ACAD_REACTORS
330
19
102
}
330
19
100
AcDbDictionary
  3
TSTACKALIGN
350
12A
  3
TSTACKSIZE
350
12B
  3
HYPERLINKBASE
350
12C
  3
STYLESHEET
350
12D
  3
LAYOUTDICT
350
12E
  3
PLOTSETDICT
350
12F
  3
PLOTSTYLNAMDICT
350
130
  3
LWETCUNION
350
131
  3
INSUNITS
350
132
  3
CEPSNTYPE
350
133
  3
FINGERPRINTGUID
350
134
  3
VERSIONGUID
350
135
  3
PSVPSCALE
350
136
  3
PUCSORTHOREF
350
137
  3
PUCSORTHOVIEW
350
138
  3
PUCSBASE
350
139
  3
PUCSORGTOP
350
13A
  3
PUCSORGBOTTOM
350
13B
  3
PUCSORGLEFT
350
13C
  3
PUCSORGRIGHT
350
13D
  3
PUCSORGFRONT
350
13E
  3
PUCSORGBACK
350
13F
  3
UCSORTHOREF
350
140
  3
UCSORTHOVIEW
350
141
  3
UCSBASE
350
142
  3
UCSORGTOP
350
143
  3
UCSORGBOTTOM
350
144
  3
UCSORGLEFT
350
145
  3
UCSORGRIGHT
350
146
  3
UCSORGFRONT
350
147
  3
UCSORGBACK
350
148
  0
XRECORD
  5
14A
102
{ACAD_REACTORS
330
149
102
}
330
149
100
AcDbXrecord
340
A
  0
XRECORD
  5
14C
102
{ACAD_REACTORS
330
14B
102
}
330
14B
100
AcDbXrecord
340
B
  0
MLINESTYLE
  5
1C
102
{ACAD_REACTORS
330
1B
102
}
330
1B
100
AcDbMlineStyle
  2
STANDARD
 70
     0
  3

 62
     0
 51
90.00000000000019
 52
90.00000000000019
 71
     2
 49
0.5
 62
   256
  6
BYLAYER
 49
-0.5
 62
   256
  6
BYLAYER
  0
ACDBPLACEHOLDER
  5
E7
102
{ACAD_REACTORS
330
E6
102
}
330
E6
100
AcDbPlaceHolder
280
     0
  0
XRECORD
  5
12A
102
{ACAD_REACTORS
330
129
102
}
330
129
100
AcDbXrecord
 90
        1
  0
XRECORD
  5
12B
102
{ACAD_REACTORS
330
129
102
}
330
129
100
AcDbXrecord
 90
       70
  0
XRECORD
  5
12C
102
{ACAD_REACTORS
330
129
102
}
330
129
100
AcDbXrecord
  1

  0
XRECORD
  5
12D
102
{ACAD_REACTORS
330
129
102
}
330
129
100
AcDbXrecord
  1

  0
XRECORD
  5
12E
102
{ACAD_REACTORS
330
129
102
}
330
129
100
AcDbXrecord
340
E8
  0
XRECORD
  5
12F
102
{ACAD_REACTORS
330
129
102
}
330
129
100
AcDbXrecord
340
E9
  0
XRECORD
  5
130
102
{ACAD_REACTORS
330
129
102
}
330
129
100
AcDbXrecord
340
E6
  0
XRECORD
  5
131
102
{ACAD_REACTORS
330
129
102
}
330
129
100
AcDbXrecord
 90
    14877
  0
XRECORD
  5
132
102
{ACAD_REACTORS
330
129
102
}
330
129
100
AcDbXrecord
 90
        0
  0
XRECORD
  5
133
102
{ACAD_REACTORS
330
129
102
}
330
129
100
AcDbXrecord
 90
        0
  0
XRECORD
  5
134
102
{ACAD_REACTORS
330
129
102
}
330
129
100
AcDbXrecord
  1
{8A6A192D-3242-4CAF-883F-CF38EB2E1CA5}
  0
XRECORD
  5
135
102
{ACAD_REACTORS
330
129
102
}
330
129
100
AcDbXrecord
  1
{1E0A3C5F-B1A3-465D-8F38-211DE3D67F15}
  0
XRECORD
  5
136
102
{ACAD_REACTORS
330
129
102
}
330
129
100
AcDbXrecord
 40
0.0
  0
XRECORD
  5
137
102
{ACAD_REACTORS
330
129
102
}
330
129
100
AcDbXrecord
340
0
  0
XRECORD
  5
138
102
{ACAD_REACTORS
330
129
102
}
330
129
100
AcDbXrecord
 70
     0
  0
XRECORD
  5
139
102
{ACAD_REACTORS
330
129
102
}
330
129
100
AcDbXrecord
340
0
  0
XRECORD
  5
13A
102
{ACAD_REACTORS
330
129
102
}
330
129
100
AcDbXrecord
 10
0.0
 20
0.0
 30
0.0
  0
XRECORD
  5
13B
102
{ACAD_REACTORS
330
129
102
}
330
129
100
AcDbXrecord
 10
0.0
 20
0.0
 30
0.0
  0
XRECORD
  5
13C
102
{ACAD_REACTORS
330
129
102
}
330
129
100
AcDbXrecord
 10
0.0
 20
0.0
 30
0.0
  0
XRECORD
  5
13D
102
{ACAD_REACTORS
330
129
102
}
330
129
100
AcDbXrecord
 10
0.0
 20
0.0
 30
0.0
  0
XRECORD
  5
13E
102
{ACAD_REACTORS
330
129
102
}
330
129
100
AcDbXrecord
 10
0.0
 20
0.0
 30
0.0
  0
XRECORD
  5
13F
102
{ACAD_REACTORS
330
129
102
}
330
129
100
AcDbXrecord
 10
0.0
 20
0.0
 30
0.0
  0
XRECORD
  5
140
102
{ACAD_REACTORS
330
129
102
}
330
129
100
AcDbXrecord
340
0
  0
XRECORD
  5
141
102
{ACAD_REACTORS
330
129
102
}
330
129
100
AcDbXrecord
 70
     0
  0
XRECORD
  5
142
102
{ACAD_REACTORS
330
129
102
}
330
129
100
AcDbXrecord
340
0
  0
XRECORD
  5
143
102
{ACAD_REACTORS
330
129
102
}
330
129
100
AcDbXrecord
 10
0.0
 20
0.0
 30
0.0
  0
XRECORD
  5
144
102
{ACAD_REACTORS
330
129
102
}
330
129
100
AcDbXrecord
 10
0.0
 20
0.0
 30
0.0
  0
XRECORD
  5
145
102
{ACAD_REACTORS
330
129
102
}
330
129
100
AcDbXrecord
 10
0.0
 20
0.0
 30
0.0
  0
XRECORD
  5
146
102
{ACAD_REACTORS
330
129
102
}
330
129
100
AcDbXrecord
 10
0.0
 20
0.0
 30
0.0
  0
XRECORD
  5
147
102
{ACAD_REACTORS
330
129
102
}
330
129
100
AcDbXrecord
 10
0.0
 20
0.0
 30
0.0
  0
XRECORD
  5
148
102
{ACAD_REACTORS
330
129
102
}
330
129
100
AcDbXrecord
 10
0.0
 20
0.0
 30
0.0
  0
ENDSEC
  0
EOF
