  0
SECTION
  2
HEADER
  9
$ACADVER
  1
AC1015
  9
$ACADMAINTVER
 70
    20
  9
$DWGCODEPAGE
  3
ANSI_1252
  9
$INSBASE
 10
0.0
 20
0.0
 30
0.0
  9
$EXTMIN
 10
364.9518302945076
 20
304.5483392147626
 30
-0.0000000000000117
  9
$EXTMAX
 10
1396.383319915582
 20
1444.270175933327
 30
0.0000000000000188
  9
$LIMMIN
 10
0.0
 20
0.0
  9
$LIMMAX
 10
420.0
 20
297.0
  9
$ORTHOMODE
 70
     0
  9
$REGENMODE
 70
     1
  9
$FILLMODE
 70
     1
  9
$QTEXTMODE
 70
     0
  9
$MIRRTEXT
 70
     0
  9
$LTSCALE
 40
1.0
  9
$ATTMODE
 70
     1
  9
$TEXTSIZE
 40
2.5
  9
$TRACEWID
 40
1.0
  9
$TEXTSTYLE
  7
Standard
  9
$CLAYER
  8
0
  9
$CELTYPE
  6
ByLayer
  9
$CECOLOR
 62
   256
  9
$CELTSCALE
 40
1.0
  9
$DISPSILH
 70
     0
  9
$DIMSCALE
 40
1.0
  9
$DIMASZ
 40
2.5
  9
$DIMEXO
 40
0.625
  9
$DIMDLI
 40
3.75
  9
$DIMRND
 40
0.0
  9
$DIMDLE
 40
0.0
  9
$DIMEXE
 40
1.25
  9
$DIMTP
 40
0.0
  9
$DIMTM
 40
0.0
  9
$DIMTXT
 40
2.5
  9
$DIMCEN
 40
2.5
  9
$DIMTSZ
 40
0.0
  9
$DIMTOL
 70
     0
  9
$DIMLIM
 70
     0
  9
$DIMTIH
 70
     0
  9
$DIMTOH
 70
     0
  9
$DIMSE1
 70
     0
  9
$DIMSE2
 70
     0
  9
$DIMTAD
 70
     1
  9
$DIMZIN
 70
     8
  9
$DIMBLK
  1

  9
$DIMASO
 70
     1
  9
$DIMSHO
 70
     1
  9
$DIMPOST
  1

  9
$DIMAPOST
  1

  9
$DIMALT
 70
     0
  9
$DIMALTD
 70
     3
  9
$DIMALTF
 40
0.03937007874016
  9
$DIMLFAC
 40
1.0
  9
$DIMTOFL
 70
     1
  9
$DIMTVP
 40
0.0
  9
$DIMTIX
 70
     0
  9
$DIMSOXD
 70
     0
  9
$DIMSAH
 70
     0
  9
$DIMBLK1
  1

  9
$DIMBLK2
  1

  9
$DIMSTYLE
  2
ISO-25
  9
$DIMCLRD
 70
     0
  9
$DIMCLRE
 70
     0
  9
$DIMCLRT
 70
     0
  9
$DIMTFAC
 40
1.0
  9
$DIMGAP
 40
0.625
  9
$DIMJUST
 70
     0
  9
$DIMSD1
 70
     0
  9
$DIMSD2
 70
     0
  9
$DIMTOLJ
 70
     0
  9
$DIMTZIN
 70
     8
  9
$DIMALTZ
 70
     0
  9
$DIMALTTZ
 70
     0
  9
$DIMUPT
 70
     0
  9
$DIMDEC
 70
     2
  9
$DIMTDEC
 70
     2
  9
$DIMALTU
 70
     2
  9
$DIMALTTD
 70
     3
  9
$DIMTXSTY
  7
Standard
  9
$DIMAUNIT
 70
     0
  9
$DIMADEC
 70
     0
  9
$DIMALTRND
 40
0.0
  9
$DIMAZIN
 70
     0
  9
$DIMDSEP
 70
    44
  9
$DIMATFIT
 70
     3
  9
$DIMFRAC
 70
     0
  9
$DIMLDRBLK
  1

  9
$DIMLUNIT
 70
     2
  9
$DIMLWD
 70
    -2
  9
$DIMLWE
 70
    -2
  9
$DIMTMOVE
 70
     0
  9
$LUNITS
 70
     2
  9
$LUPREC
 70
     4
  9
$SKETCHINC
 40
1.0
  9
$FILLETRAD
 40
0.0
  9
$AUNITS
 70
     0
  9
$AUPREC
 70
     0
  9
$MENU
  1
.
  9
$ELEVATION
 40
0.0
  9
$PELEVATION
 40
0.0
  9
$THICKNESS
 40
0.0
  9
$LIMCHECK
 70
     0
  9
$CHAMFERA
 40
0.0
  9
$CHAMFERB
 40
0.0
  9
$CHAMFERC
 40
0.0
  9
$CHAMFERD
 40
0.0
  9
$SKPOLY
 70
     0
  9
$TDCREATE
 40
2454768.510881991
  9
$TDUCREATE
 40
2454768.469215324
  9
$TDUPDATE
 40
2456598.360544213
  9
$TDUUPDATE
 40
2456598.318877546
  9
$TDINDWG
 40
0.1299901273
  9
$TDUSRTIMER
 40
0.1299867014
  9
$USRTIMER
 70
     1
  9
$ANGBASE
 50
0.0
  9
$ANGDIR
 70
     0
  9
$PDMODE
 70
     0
  9
$PDSIZE
 40
0.0
  9
$PLINEWID
 40
0.0
  9
$SPLFRAME
 70
     0
  9
$SPLINETYPE
 70
     6
  9
$SPLINESEGS
 70
     8
  9
$HANDSEED
  5
2001
  9
$SURFTAB1
 70
     6
  9
$SURFTAB2
 70
     6
  9
$SURFTYPE
 70
     6
  9
$SURFU
 70
     6
  9
$SURFV
 70
     6
  9
$UCSBASE
  2

  9
$UCSNAME
  2

  9
$UCSORG
 10
0.0
 20
0.0
 30
0.0
  9
$UCSXDIR
 10
1.0
 20
0.0
 30
0.0
  9
$UCSYDIR
 10
0.0
 20
1.0
 30
0.0
  9
$UCSORTHOREF
  2

  9
$UCSORTHOVIEW
 70
     0
  9
$UCSORGTOP
 10
0.0
 20
0.0
 30
0.0
  9
$UCSORGBOTTOM
 10
0.0
 20
0.0
 30
0.0
  9
$UCSORGLEFT
 10
0.0
 20
0.0
 30
0.0
  9
$UCSORGRIGHT
 10
0.0
 20
0.0
 30
0.0
  9
$UCSORGFRONT
 10
0.0
 20
0.0
 30
0.0
  9
$UCSORGBACK
 10
0.0
 20
0.0
 30
0.0
  9
$PUCSBASE
  2

  9
$PUCSNAME
  2

  9
$PUCSORG
 10
0.0
 20
0.0
 30
0.0
  9
$PUCSXDIR
 10
1.0
 20
0.0
 30
0.0
  9
$PUCSYDIR
 10
0.0
 20
1.0
 30
0.0
  9
$PUCSORTHOREF
  2

  9
$PUCSORTHOVIEW
 70
     0
  9
$PUCSORGTOP
 10
0.0
 20
0.0
 30
0.0
  9
$PUCSORGBOTTOM
 10
0.0
 20
0.0
 30
0.0
  9
$PUCSORGLEFT
 10
0.0
 20
0.0
 30
0.0
  9
$PUCSORGRIGHT
 10
0.0
 20
0.0
 30
0.0
  9
$PUCSORGFRONT
 10
0.0
 20
0.0
 30
0.0
  9
$PUCSORGBACK
 10
0.0
 20
0.0
 30
0.0
  9
$USERI1
 70
     0
  9
$USERI2
 70
     0
  9
$USERI3
 70
     0
  9
$USERI4
 70
     0
  9
$USERI5
 70
     0
  9
$USERR1
 40
0.0
  9
$USERR2
 40
0.0
  9
$USERR3
 40
0.0
  9
$USERR4
 40
0.0
  9
$USERR5
 40
0.0
  9
$WORLDVIEW
 70
     1
  9
$SHADEDGE
 70
     3
  9
$SHADEDIF
 70
    70
  9
$TILEMODE
 70
     1
  9
$MAXACTVP
 70
    64
  9
$PINSBASE
 10
0.0
 20
0.0
 30
0.0
  9
$PLIMCHECK
 70
     0
  9
$PEXTMIN
 10
0.0
 20
0.0
 30
0.0
  9
$PEXTMAX
 10
0.0
 20
0.0
 30
0.0
  9
$PLIMMIN
 10
0.0
 20
0.0
  9
$PLIMMAX
 10
12.0
 20
9.0
  9
$UNITMODE
 70
     0
  9
$VISRETAIN
 70
     1
  9
$PLINEGEN
 70
     0
  9
$PSLTSCALE
 70
     1
  9
$TREEDEPTH
 70
  3020
  9
$CMLSTYLE
  2
Standard
  9
$CMLJUST
 70
     0
  9
$CMLSCALE
 40
20.0
  9
$PROXYGRAPHICS
 70
     1
  9
$MEASUREMENT
 70
     1
  9
$CELWEIGHT
370
    -1
  9
$ENDCAPS
280
     0
  9
$JOINSTYLE
280
     0
  9
$LWDISPLAY
290
     0
  9
$INSUNITS
 70
     4
  9
$HYPERLINKBASE
  1

  9
$STYLESHEET
  1

  9
$XEDIT
290
     1
  9
$CEPSNTYPE
380
     0
  9
$PSTYLEMODE
290
     1
  9
$FINGERPRINTGUID
  2
{A9F5D530-972F-4813-857A-78B9B08CAD27}
  9
$VERSIONGUID
  2
{73B439FB-CA93-437F-AE96-C8DA55F78E0B}
  9
$EXTNAMES
290
     1
  9
$PSVPSCALE
 40
0.0
  9
$OLESTARTUP
290
     0
  0
ENDSEC
  0
SECTION
  2
CLASSES
  0
CLASS
  1
ACDBDICTIONARYWDFLT
  2
AcDbDictionaryWithDefault
  3
ObjectDBX Classes
 90
        0
280
     0
281
     0
  0
CLASS
  1
DICTIONARYVAR
  2
AcDbDictionaryVar
  3
ObjectDBX Classes
 90
        0
280
     0
281
     0
  0
CLASS
  1
TABLESTYLE
  2
AcDbTableStyle
  3
ObjectDBX Classes
 90
     4095
280
     0
281
     0
  0
CLASS
  1
MATERIAL
  2
AcDbMaterial
  3
ObjectDBX Classes
 90
     1024
280
     0
281
     0
  0
CLASS
  1
VISUALSTYLE
  2
AcDbVisualStyle
  3
ObjectDBX Classes
 90
     4095
280
     0
281
     0
  0
CLASS
  1
SORTENTSTABLE
  2
AcDbSortentsTable
  3
ObjectDBX Classes
 90
        0
280
     0
281
     0
  0
CLASS
  1
DIMASSOC
  2
AcDbDimAssoc
  3
"AcDbDimAssoc|Product Desc:     AcDim ARX App For Dimension|Company:          Autodesk, Inc.|WEB Address:      www.autodesk.com"
 90
        0
280
     0
281
     0
  0
CLASS
  1
ACDBPLACEHOLDER
  2
AcDbPlaceHolder
  3
ObjectDBX Classes
 90
        0
280
     0
281
     0
  0
CLASS
  1
LAYOUT
  2
AcDbLayout
  3
ObjectDBX Classes
 90
        0
280
     0
281
     0
  0
ENDSEC
  0
SECTION
  2
TABLES
  0
TABLE
  2
VPORT
  5
8
330
0
100
AcDbSymbolTable
 70
     1
  0
VPORT
  5
EA
330
8
100
AcDbSymbolTableRecord
100
AcDbViewportTableRecord
  2
*Active
 70
     0
 10
0.0
 20
0.0
 11
1.0
 21
1.0
 12
1348.485852634743
 22
991.2543152848174
 13
0.0
 23
0.0
 14
10.0
 24
10.0
 15
10.0
 25
10.0
 16
0.0
 26
0.0
 36
1.0
 17
0.0
 27
0.0
 37
0.0
 40
1821.291638876901
 41
1.794540229885057
 42
50.0
 43
0.0
 44
0.0
 50
0.0
 51
0.0
 71
     0
 72
  1000
 73
     1
 74
     3
 75
     0
 76
     0
 77
     0
 78
     0
281
     0
 65
     1
110
0.0
120
0.0
130
0.0
111
1.0
121
0.0
131
0.0
112
0.0
122
1.0
132
0.0
 79
     0
146
0.0
  0
ENDTAB
  0
TABLE
  2
LTYPE
  5
5
330
0
100
AcDbSymbolTable
 70
     1
  0
LTYPE
  5
14
330
5
100
AcDbSymbolTableRecord
100
AcDbLinetypeTableRecord
  2
ByBlock
 70
     0
  3

 72
    65
 73
     0
 40
0.0
  0
LTYPE
  5
15
330
5
100
AcDbSymbolTableRecord
100
AcDbLinetypeTableRecord
  2
ByLayer
 70
     0
  3

 72
    65
 73
     0
 40
0.0
  0
LTYPE
  5
16
330
5
100
AcDbSymbolTableRecord
100
AcDbLinetypeTableRecord
  2
Continuous
 70
     0
  3
Solid line
 72
    65
 73
     0
 40
0.0
  0
ENDTAB
  0
TABLE
  2
LAYER
  5
2
102
{ACAD_XDICTIONARY
360
141
102
}
330
0
100
AcDbSymbolTable
 70
     3
  0
LAYER
  5
10
330
2
100
AcDbSymbolTableRecord
100
AcDbLayerTableRecord
  2
0
 70
     0
 62
     7
  6
Continuous
370
    -3
390
F
  0
LAYER
  5
124
330
2
100
AcDbSymbolTableRecord
100
AcDbLayerTableRecord
  2
Defpoints
 70
     0
 62
     7
  6
Continuous
290
     0
370
    -3
390
F
  0
LAYER
  5
13E
330
2
100
AcDbSymbolTableRecord
100
AcDbLayerTableRecord
  2
Hewi
 70
     0
 62
     7
  6
Continuous
370
    -3
390
F
  0
ENDTAB
  0
TABLE
  2
STYLE
  5
3
330
0
100
AcDbSymbolTable
 70
     2
  0
STYLE
  5
11
330
3
100
AcDbSymbolTableRecord
100
AcDbTextStyleTableRecord
  2
Standard
 70
     0
 40
0.0
 41
1.0
 50
0.0
 71
     0
 42
2.5
  3
txt
  4

  0
ENDTAB
  0
TABLE
  2
VIEW
  5
6
330
0
100
AcDbSymbolTable
 70
     0
  0
ENDTAB
  0
TABLE
  2
UCS
  5
7
330
0
100
AcDbSymbolTable
 70
     0
  0
ENDTAB
  0
TABLE
  2
APPID
  5
9
330
0
100
AcDbSymbolTable
 70
     3
  0
APPID
  5
12
330
9
100
AcDbSymbolTableRecord
100
AcDbRegAppTableRecord
  2
ACAD
 70
     0
  0
APPID
  5
9E
330
9
100
AcDbSymbolTableRecord
100
AcDbRegAppTableRecord
  2
ACAD_PSEXT
 70
     0
  0
APPID
  5
212
330
9
100
AcDbSymbolTableRecord
100
AcDbRegAppTableRecord
  2
ACAD_EXEMPT_FROM_CAD_STANDARDS
 70
     0
  0
ENDTAB
  0
TABLE
  2
DIMSTYLE
  5
A
330
0
100
AcDbSymbolTable
 70
     3
100
AcDbDimStyleTable
 71
     1
340
27
  0
DIMSTYLE
105
27
330
A
100
AcDbSymbolTableRecord
100
AcDbDimStyleTableRecord
  2
ISO-25
 70
     0
 41
2.5
 42
0.625
 43
3.75
 44
1.25
 73
     0
 74
     0
 77
     1
 78
     8
140
2.5
141
2.5
143
0.03937007874016
147
0.625
171
     3
172
     1
271
     2
272
     2
274
     3
278
    44
283
     0
284
     8
340
11
  0
DIMSTYLE
105
254
330
A
100
AcDbSymbolTableRecord
100
AcDbDimStyleTableRecord
  2
Standard
 70
     0
340
11
  0
ENDTAB
  0
TABLE
  2
BLOCK_RECORD
  5
1
330
0
100
AcDbSymbolTable
 70
     4
  0
BLOCK_RECORD
  5
1F
102
{ACAD_XDICTIONARY
360
116
102
}
330
1
100
AcDbSymbolTableRecord
100
AcDbBlockTableRecord
  2
*Model_Space
340
22
  0
BLOCK_RECORD
  5
D2
330
1
100
AcDbSymbolTableRecord
100
AcDbBlockTableRecord
  2
*Paper_Space
340
D3
  0
BLOCK_RECORD
  5
D6
330
1
100
AcDbSymbolTableRecord
100
AcDbBlockTableRecord
  2
*Paper_Space0
340
D7
  0
BLOCK_RECORD
  5
1FC7
330
1
100
AcDbSymbolTableRecord
100
AcDbBlockTableRecord
  2
*D2
340
0
  0
ENDTAB
  0
ENDSEC
  0
SECTION
  2
BLOCKS
  0
BLOCK
  5
20
330
1F
100
AcDbEntity
  8
0
100
AcDbBlockBegin
  2
*Model_Space
 70
     0
 10
0.0
 20
0.0
 30
0.0
  3
*Model_Space
  1

  0
ENDBLK
  5
21
330
1F
100
AcDbEntity
  8
0
100
AcDbBlockEnd
  0
BLOCK
  5
D4
330
D2
100
AcDbEntity
 67
     1
  8
0
100
AcDbBlockBegin
  2
*Paper_Space
 70
     0
 10
0.0
 20
0.0
 30
0.0
  3
*Paper_Space
  1

  0
ENDBLK
  5
D5
330
D2
100
AcDbEntity
 67
     1
  8
0
100
AcDbBlockEnd
  0
BLOCK
  5
D8
330
D6
100
AcDbEntity
 67
     1
  8
0
100
AcDbBlockBegin
  2
*Paper_Space0
 70
     0
 10
0.0
 20
0.0
 30
0.0
  3
*Paper_Space0
  1

  0
ENDBLK
  5
D9
330
D6
100
AcDbEntity
 67
     1
  8
0
100
AcDbBlockEnd
  0
BLOCK
  5
1FD1
330
1FC7
100
AcDbEntity
  8
0
100
AcDbBlockBegin
  2
*D2
 70
     1
 10
0.0
 20
0.0
 30
0.0
  3
*D2
  1

  0
LINE
  5
1FD4
330
1FC7
100
AcDbEntity
  8
0
 62
     0
370
    -2
100
AcDbLine
 10
2512.819540751265
 20
1439.629862181491
 30
0.0
 11
2512.819540751265
 21
1671.038067327765
 31
0.0
  0
LINE
  5
1FD5
330
1FC7
100
AcDbEntity
  8
0
 62
     0
370
    -2
100
AcDbLine
 10
2912.819540751265
 20
1324.629862181491
 30
0.0
 11
2912.819540751265
 21
1671.038067327765
 31
0.0
  0
LINE
  5
1FD6
330
1FC7
100
AcDbEntity
  8
0
 62
     0
370
    -2
100
AcDbLine
 10
2515.319540751265
 20
1669.788067327765
 30
0.0
 11
2910.319540751265
 21
1669.788067327765
 31
0.0
  0
SOLID
  5
1FD7
330
1FC7
100
AcDbEntity
  8
0
 62
     0
100
AcDbTrace
 10
2515.319540751265
 20
1670.204733994432
 30
0.0
 11
2515.319540751265
 21
1669.371400661098
 31
0.0
 12
2512.819540751265
 22
1669.788067327765
 32
0.0
 13
2512.819540751265
 23
1669.788067327765
 33
0.0
  0
SOLID
  5
1FD8
330
1FC7
100
AcDbEntity
  8
0
 62
     0
100
AcDbTrace
 10
2910.319540751265
 20
1670.204733994432
 30
0.0
 11
2910.319540751265
 21
1669.371400661098
 31
0.0
 12
2912.819540751265
 22
1669.788067327765
 32
0.0
 13
2912.819540751265
 23
1669.788067327765
 33
0.0
  0
MTEXT
  5
1FD9
330
1FC7
100
AcDbEntity
  8
0
 62
     0
100
AcDbMText
 10
2712.819540751265
 20
1671.663067327765
 30
0.0
 40
2.5
 41
0.0
 71
     5
 72
     1
  1
400
 73
     1
 44
1.0
1001
ACAD
1000
MTEXTBEGIN
1070
    73
1070
     1
1070
    44
1040
1.0
1070
    74
1070
     0
1000
MTEXTEND
  0
POINT
  5
1FDA
330
1FC7
100
AcDbEntity
  8
Defpoints
 62
     0
100
AcDbPoint
 10
2512.819540751265
 20
1439.004862181491
 30
0.0
  0
POINT
  5
1FDB
330
1FC7
100
AcDbEntity
  8
Defpoints
 62
     0
100
AcDbPoint
 10
2912.819540751265
 20
1324.004862181491
 30
0.0
  0
POINT
  5
1FDC
330
1FC7
100
AcDbEntity
  8
Defpoints
 62
     0
100
AcDbPoint
 10
2912.819540751265
 20
1669.788067327765
 30
0.0
  0
ENDBLK
  5
1FD2
330
1FC7
100
AcDbEntity
  8
0
100
AcDbBlockEnd
  0
ENDSEC
  0
SECTION
  2
ENTITIES
  0
LINE
  5
1F1C
330
1F
100
AcDbEntity
  8
Hewi
  6
Continuous
100
AcDbLine
 10
1157.86336987134
 20
337.5867263850479
 30
0.0000000000000003
 11
701.9175701949007
 21
337.587328565286
 31
0.0000000000000003
  0
LINE
  5
1F1D
330
1F
100
AcDbEntity
  8
Hewi
  6
Continuous
100
AcDbLine
 10
701.9175701949007
 20
337.587328565286
 30
0.0000000000000003
 11
661.3240498706109
 21
337.5873285652851
 31
0.0000000000000003
  0
LINE
  5
1F1E
330
1F
100
AcDbEntity
  8
Hewi
  6
Continuous
100
AcDbLine
 10
661.3240498706109
 20
304.587328565286
 30
0.0000000000000003
 11
1157.86336987134
 21
304.5873285652881
 31
0.0000000000000003
  0
LINE
  5
1F1F
330
1F
100
AcDbEntity
  8
Hewi
  6
Continuous
100
AcDbLine
 10
670.3240498706109
 20
337.5873285652851
 30
0.0
 11
670.3240498706109
 21
381.5870993251974
 31
0.0
  0
LINE
  5
1F20
330
1F
100
AcDbEntity
  8
Hewi
  6
Continuous
100
AcDbLine
 10
652.3240498706108
 20
381.5867769933034
 30
0.0
 11
652.3240498706108
 21
334.9672882828981
 31
0.0
  0
LINE
  5
1F21
330
1F
100
AcDbEntity
  8
Hewi
  6
Continuous
100
AcDbLine
 10
1150.409024121867
 20
383.587328565286
 30
0.0000000000000003
 11
1150.409024121867
 21
394.5873285652861
 31
0.0000000000000003
  0
LINE
  5
1F22
330
1F
100
AcDbEntity
  8
Hewi
  6
Continuous
100
AcDbLine
 10
1070.409024121867
 20
394.5873285652861
 30
0.0000000000000003
 11
1070.409024121867
 21
383.587328565286
 31
0.0000000000000003
  0
LINE
  5
1F23
330
1F
100
AcDbEntity
  8
Hewi
  6
Continuous
100
AcDbLine
 10
1119.409024121867
 20
337.5936798636485
 30
0.0000000000000003
 11
1119.409024121867
 21
381.5868982383181
 31
0.0000000000000003
  0
LINE
  5
1F24
330
1F
100
AcDbEntity
  8
Hewi
  6
Continuous
100
AcDbLine
 10
1101.409024121867
 20
381.5869553162415
 30
0.0000000000000003
 11
1101.409024121867
 21
337.5873526438304
 31
0.0000000000000003
  0
LINE
  5
1F25
330
1F
100
AcDbEntity
  8
Hewi
  6
Continuous
100
AcDbLine
 10
701.3240498706108
 20
383.587328565286
 30
0.0
 11
701.3240498706108
 21
394.5873285652861
 31
0.0
  0
LINE
  5
1F26
330
1F
100
AcDbEntity
  8
Hewi
  6
Continuous
100
AcDbLine
 10
621.3240498706109
 20
394.5873285652861
 30
0.0
 11
621.3240498706109
 21
383.587328565286
 31
0.0
  0
LINE
  5
1F27
330
1F
100
AcDbEntity
  8
Hewi
  6
Continuous
100
AcDbLine
 10
1158.474023039891
 20
337.587328565286
 30
0.0000000000000003
 11
1158.36336987134
 21
337.587328565286
 31
0.0000000000000003
  0
LINE
  5
1F28
330
1F
100
AcDbEntity
  8
Hewi
  6
Continuous
100
AcDbLine
 10
1158.36336987134
 20
304.587328565286
 30
0.0000000000000003
 11
1158.474023039891
 21
304.587328565286
 31
0.0000000000000003
  0
LINE
  5
1F29
330
1F
100
AcDbEntity
  8
Hewi
  6
Continuous
100
AcDbLine
 10
1157.86336987134
 20
321.087328565286
 30
0.0000000000000003
 11
1157.86336987134
 21
337.587328565286
 31
0.0000000000000003
  0
LINE
  5
1F2A
330
1F
100
AcDbEntity
  8
Hewi
  6
Continuous
100
AcDbLine
 10
1157.86336987134
 20
304.587328565286
 30
0.0000000000000003
 11
1157.86336987134
 21
321.087328565286
 31
0.0000000000000003
  0
LINE
  5
1F2B
330
1F
100
AcDbEntity
  8
Hewi
  6
Continuous
100
AcDbLine
 10
1072.409024121867
 20
381.587328565286
 30
0.0000000000000003
 11
1148.409024121867
 21
381.587328565286
 31
0.0000000000000003
  0
LINE
  5
1F2C
330
1F
100
AcDbEntity
  8
Hewi
  6
Continuous
100
AcDbLine
 10
1070.409024121867
 20
394.5873285652861
 30
0.0000000000000003
 11
1150.409024121867
 21
394.5873285652861
 31
0.0000000000000003
  0
LINE
  5
1F2D
330
1F
100
AcDbEntity
  8
Hewi
  6
Continuous
100
AcDbLine
 10
621.3240498706109
 20
394.5873285652861
 30
0.0
 11
701.3240498706108
 21
394.5873285652861
 31
0.0
  0
LINE
  5
1F2E
330
1F
100
AcDbEntity
  8
Hewi
  6
Continuous
100
AcDbLine
 10
623.3240498706109
 20
381.587328565286
 30
0.0
 11
699.3240498706109
 21
381.587328565286
 31
0.0
  0
LINE
  5
1F2F
330
1F
100
AcDbEntity
  8
Hewi
  6
Continuous
100
AcDbLine
 10
1158.36336987134
 20
304.587328565286
 30
0.0000000000000003
 11
1158.36336987134
 21
337.587328565286
 31
0.0000000000000003
  0
LINE
  5
1F30
330
1F
100
AcDbEntity
  8
Hewi
100
AcDbLine
 10
1158.524049870608
 20
560.694451072466
 30
-0.0000000000000016
 11
709.8240498706108
 21
560.6944510724663
 31
-0.0000000000000016
  0
LINE
  5
1F31
330
1F
100
AcDbEntity
  8
Hewi
100
AcDbLine
 10
709.8240498706108
 20
527.6944510724663
 30
0.0000000000000016
 11
1158.524049870608
 21
527.6944510724643
 31
0.0000000000000014
  0
LINE
  5
1F32
330
1F
100
AcDbEntity
  8
Hewi
100
AcDbLine
 10
1108.69378713112
 20
504.2651137179594
 30
0.0000000000000003
 11
1108.695549365333
 21
504.1524307788442
 31
0.0000000000000003
  0
LINE
  5
1F33
330
1F
100
AcDbEntity
  8
Hewi
100
AcDbLine
 10
1114.694815776816
 20
504.2462525463283
 30
0.0000000000000003
 11
1114.693053936888
 21
504.3589102739742
 31
0.0000000000000003
  0
LINE
  5
1F34
330
1F
100
AcDbEntity
  8
Hewi
100
AcDbLine
 10
1109.231880804403
 20
504.2366941869354
 30
0.0000000000000003
 11
1109.30892436203
 21
504.1620232727243
 31
0.0000000000000003
  0
LINE
  5
1F35
330
1F
100
AcDbEntity
  8
Hewi
100
AcDbLine
 10
1114.081440780133
 20
504.2366600524501
 30
0.0000000000000003
 11
1114.156111694345
 21
504.3137036100763
 31
0.0000000000000003
  0
LINE
  5
1F36
330
1F
100
AcDbEntity
  8
Hewi
100
AcDbLine
 10
1159.134703039159
 20
560.6944510724663
 30
-0.0000000000000016
 11
1159.024049870608
 21
560.6944510724663
 31
-0.0000000000000016
  0
LINE
  5
1F37
330
1F
100
AcDbEntity
  8
Hewi
100
AcDbLine
 10
1159.024049870608
 20
527.6944510724652
 30
0.0000000000000016
 11
1159.134703039159
 21
527.6944510724652
 31
0.0000000000000016
  0
LINE
  5
1F38
330
1F
100
AcDbEntity
  8
Hewi
100
AcDbLine
 10
1109.30892436203
 20
504.1620232727243
 30
0.0000000000000003
 11
1109.307736930273
 21
504.2379514882433
 31
0.0000000000000003
  0
LINE
  5
1F39
330
1F
100
AcDbEntity
  8
Hewi
100
AcDbLine
 10
1114.081440780133
 20
504.2366600524501
 30
0.0000000000000003
 11
1114.080253348391
 21
504.3125882679694
 31
0.0000000000000003
  0
LINE
  5
1F3A
330
1F
100
AcDbEntity
  8
Hewi
100
AcDbLine
 10
1114.081440780133
 20
504.2366600524501
 30
0.0000000000000003
 11
1109.30892436203
 21
504.1620232727243
 31
0.0000000000000003
  0
LINE
  5
1F3B
330
1F
100
AcDbEntity
  8
Hewi
100
AcDbLine
 10
1159.024049870608
 20
527.6944510724652
 30
0.0000000000000016
 11
1159.024049870608
 21
560.6944510724663
 31
-0.0000000000000016
  0
ARC
  5
1F3C
330
1F
100
AcDbEntity
  8
Hewi
  6
Continuous
100
AcDbCircle
 10
1157.86336987134
 20
305.0873285652861
 30
0.0000000000000003
 40
0.5
100
AcDbArc
 50
270.0
 51
0.0
  0
ARC
  5
1F3D
330
1F
100
AcDbEntity
  8
Hewi
  6
Continuous
100
AcDbCircle
 10
1157.86336987134
 20
337.087328565286
 30
0.0000000000000003
 40
0.5
100
AcDbArc
 50
0.0
 51
90.0
  0
ARC
  5
1F3E
330
1F
100
AcDbEntity
  8
Hewi
  6
Continuous
100
AcDbCircle
 10
1148.409024121867
 20
383.587328565286
 30
0.0000000000000003
 40
2.0
100
AcDbArc
 50
270.0
 51
0.0
  0
ARC
  5
1F3F
330
1F
100
AcDbEntity
  8
Hewi
  6
Continuous
100
AcDbCircle
 10
1072.409024121867
 20
383.587328565286
 30
0.0000000000000003
 40
2.0
100
AcDbArc
 50
180.0
 51
270.0
  0
ARC
  5
1F40
330
1F
100
AcDbEntity
  8
Hewi
  6
Continuous
100
AcDbCircle
 10
699.3240498706109
 20
383.587328565286
 30
0.0
 40
2.0
100
AcDbArc
 50
270.0
 51
0.0
  0
ARC
  5
1F41
330
1F
100
AcDbEntity
  8
Hewi
  6
Continuous
100
AcDbCircle
 10
623.3240498706109
 20
383.587328565286
 30
0.0
 40
2.0
100
AcDbArc
 50
180.0
 51
270.0
  0
ARC
  5
1F42
330
1F
100
AcDbEntity
  8
Hewi
  6
Continuous
100
AcDbCircle
 10
1158.474023039891
 20
305.7873285652831
 30
0.0000000000000003
 40
1.199999999999999
100
AcDbArc
 50
270.0
 51
352.6004459106725
  0
ARC
  5
1F43
330
1F
100
AcDbEntity
  8
Hewi
  6
Continuous
100
AcDbCircle
 10
1158.474023039891
 20
336.3873285652753
 30
0.0000000000000003
 40
1.199999999999999
100
AcDbArc
 50
7.399554089327415
 51
90.0
  0
ARC
  5
1F44
330
1F
100
AcDbEntity
  8
Hewi
  6
Continuous
100
AcDbCircle
 10
1040.663369871343
 20
321.087328565286
 30
0.0000000000000003
 40
120.0
100
AcDbArc
 50
352.6004459106725
 51
7.399554089327415
  0
ARC
  5
1F45
330
1F
100
AcDbEntity
  8
Hewi
100
AcDbCircle
 10
1158.524049870608
 20
528.1944510724663
 30
0.0000000000000015
 40
0.5
100
AcDbArc
 50
270.0
 51
0.0
  0
ARC
  5
1F46
330
1F
100
AcDbEntity
  8
Hewi
100
AcDbCircle
 10
1158.524049870608
 20
560.1944510724652
 30
-0.0000000000000015
 40
0.5
100
AcDbArc
 50
0.0
 51
90.0
  0
ARC
  5
1F47
330
1F
100
AcDbEntity
  8
Hewi
100
AcDbCircle
 10
1159.134703039159
 20
528.8944510724782
 30
0.0000000000000015
 40
1.199999999999999
100
AcDbArc
 50
270.0
 51
352.6004459106725
  0
ARC
  5
1F48
330
1F
100
AcDbEntity
  8
Hewi
100
AcDbCircle
 10
1159.134703039159
 20
559.4944510724683
 30
-0.0000000000000015
 40
1.199999999999999
100
AcDbArc
 50
7.399554089327415
 51
90.0
  0
ARC
  5
1F49
330
1F
100
AcDbEntity
  8
Hewi
100
AcDbCircle
 10
1041.324049870611
 20
544.1944510724663
 30
0.0
 40
120.0
100
AcDbArc
 50
352.6004459106725
 51
7.399554089327415
  0
ARC
  5
1F4A
330
1F
100
AcDbEntity
  8
Hewi
100
AcDbCircle
 10
-1111.069704121135
 20
544.1944510724663
 30
0.0
 40
40.0
210
0.0
220
0.0
230
-1.0
100
AcDbArc
 50
89.99999875269006
 51
155.6381297070062
  0
ARC
  5
1F4B
330
1F
100
AcDbEntity
  8
Hewi
100
AcDbCircle
 10
-1111.069704121135
 20
544.1944510724663
 30
0.0
 40
40.0
210
0.0
220
0.0
230
-1.0
100
AcDbArc
 50
204.3675059093196
 51
335.6325091968031
  0
ARC
  5
1F4C
330
1F
100
AcDbEntity
  8
Hewi
100
AcDbCircle
 10
-1111.069704121135
 20
544.1944510724663
 30
0.0
 40
40.0
210
0.0
220
0.0
230
-1.0
100
AcDbArc
 50
24.3618821226942
 51
90.000013076744
  0
SPLINE
  5
1F4D
330
1F
100
AcDbEntity
  8
Hewi
  6
Continuous
100
AcDbSpline
210
0.0
220
0.0
230
1.0
 70
     8
 71
     3
 72
    14
 73
    10
 74
     0
 42
0.0000000001
 43
0.0000000001
 40
0.0
 40
0.0
 40
0.0
 40
0.0
 40
0.2434469386710948
 40
0.2434469386710948
 40
0.4956312924473967
 40
0.4956312924473967
 40
0.7478156462236985
 40
0.7478156462236985
 40
1.0
 40
1.0
 40
1.0
 40
1.0
 10
1101.409250167113
 20
337.5870650911025
 30
0.0000000000000003
 10
1101.420906031579
 20
337.5864777179163
 30
0.0000000000000003
 10
1102.374648022584
 20
337.0384636247263
 30
0.0000000000000003
 10
1105.517557092013
 20
335.7479159819709
 30
0.0000000000000003
 10
1107.809252989873
 20
335.0544972859584
 30
0.0000000000000003
 10
1112.620076928712
 20
335.0364200440895
 30
0.0000000000000003
 10
1114.984297661112
 20
335.7255989352211
 30
0.0000000000000003
 10
1118.31206309522
 20
337.0412263770631
 30
0.0000000000000003
 10
1119.369935685275
 20
337.6156928599462
 30
0.0000000000000003
 10
1119.4079237391
 20
337.5861049501482
 30
0.0000000000000003
  0
LINE
  5
1F4E
330
1F
100
AcDbEntity
  8
Hewi
  6
Continuous
100
AcDbLine
 10
1119.409024121867
 20
337.5936798636485
 30
0.0000000000000003
 11
1157.86336987134
 21
337.5936798636485
 31
0.0000000000000003
  0
LINE
  5
1F4F
330
1F
100
AcDbEntity
  8
Hewi
100
AcDbLine
 10
677.8240498706109
 20
592.6944510724672
 30
0.0000000000000059
 11
677.8240498706094
 21
1292.005104241014
 31
-0.0000000000000037
  0
LINE
  5
1F50
330
1F
100
AcDbEntity
  8
Hewi
100
AcDbLine
 10
644.8240498706101
 20
1292.005104241014
 30
0.0000000000000016
 11
644.8240498706099
 21
592.6944510724672
 31
0.0000000000000015
  0
LINE
  5
1F51
330
1F
100
AcDbEntity
  8
Hewi
100
AcDbLine
 10
621.3987373217051
 20
1246.383330187653
 30
0.0000000000000003
 11
621.3229072874628
 21
1246.307427215981
 31
0.0000000000000003
  0
LINE
  5
1F52
330
1F
100
AcDbEntity
  8
Hewi
100
AcDbLine
 10
621.3252016965079
 20
1241.53432776745
 30
0.0000000000000003
 11
621.4011046681657
 21
1241.458497733207
 31
0.0000000000000003
  0
LINE
  5
1F53
330
1F
100
AcDbEntity
  8
Hewi
100
AcDbLine
 10
621.435309109565
 20
1246.920931317955
 30
0.0000000000000003
 11
621.322612404645
 21
1246.920877145118
 31
0.0000000000000003
  0
LINE
  5
1F54
330
1F
100
AcDbEntity
  8
Hewi
100
AcDbLine
 10
621.3254965793266
 20
1240.920877838313
 30
0.0000000000000003
 11
621.4381680697069
 21
1240.920931999043
 31
0.0000000000000003
  0
LINE
  5
1F55
330
1F
100
AcDbEntity
  8
Hewi
100
AcDbLine
 10
644.8240498706099
 20
1292.005104241014
 30
0.0000000000000016
 11
644.8240498706099
 21
1291.894451072478
 31
0.0000000000000016
  0
LINE
  5
1F56
330
1F
100
AcDbEntity
  8
Hewi
100
AcDbLine
 10
677.8240498706099
 20
1291.894451072478
 30
-0.0000000000000016
 11
677.8240498706099
 21
1292.005104241014
 31
-0.0000000000000016
  0
LINE
  5
1F57
330
1F
100
AcDbEntity
  8
Hewi
100
AcDbLine
 10
621.3229072874628
 20
1246.307427215981
 30
0.0000000000000003
 11
621.3988447786942
 21
1246.30746371882
 31
0.0000000000000003
  0
LINE
  5
1F58
330
1F
100
AcDbEntity
  8
Hewi
100
AcDbLine
 10
621.3252016965079
 20
1241.53432776745
 30
0.0000000000000003
 11
621.4011391877392
 21
1241.534364270274
 31
0.0000000000000003
  0
LINE
  5
1F59
330
1F
100
AcDbEntity
  8
Hewi
100
AcDbLine
 10
621.3252016965079
 20
1241.53432776745
 30
0.0000000000000003
 11
621.3229072874628
 21
1246.307427215981
 31
0.0000000000000003
  0
LINE
  5
1F5A
330
1F
100
AcDbEntity
  8
Hewi
100
AcDbLine
 10
644.8240498706099
 20
1291.894451072478
 30
0.0000000000000016
 11
677.8240498706099
 21
1291.894451072478
 31
-0.0000000000000016
  0
ARC
  5
1F5B
330
1F
100
AcDbEntity
  8
Hewi
100
AcDbCircle
 10
645.3240498706109
 20
1291.394451072478
 30
0.0000000000000015
 40
0.5
100
AcDbArc
 50
90.0
 51
180.0
  0
ARC
  5
1F5C
330
1F
100
AcDbEntity
  8
Hewi
100
AcDbCircle
 10
677.3240498706099
 20
1291.394451072478
 30
-0.0000000000000015
 40
0.5
100
AcDbArc
 50
0.0
 51
90.0
  0
ARC
  5
1F5D
330
1F
100
AcDbEntity
  8
Hewi
100
AcDbCircle
 10
676.6240498706129
 20
1292.005104241014
 30
-0.0000000000000015
 40
1.199999999999999
100
AcDbArc
 50
0.0
 51
82.60044591067268
  0
ARC
  5
1F5E
330
1F
100
AcDbEntity
  8
Hewi
100
AcDbCircle
 10
646.024049870622
 20
1292.005104241014
 30
0.0000000000000015
 40
1.199999999999999
100
AcDbArc
 50
97.39955408932729
 51
180.0
  0
ARC
  5
1F5F
330
1F
100
AcDbEntity
  8
Hewi
100
AcDbCircle
 10
661.3240498706109
 20
1174.194451072466
 30
0.0
 40
120.0
100
AcDbArc
 50
82.60044591067268
 51
97.39955408932729
  0
ARC
  5
1F60
330
1F
100
AcDbEntity
  8
Hewi
100
AcDbCircle
 10
-661.3240498706109
 20
1243.940105323005
 30
0.0
 40
40.0
210
0.0
220
0.0
230
-1.0
100
AcDbArc
 50
179.9999931814835
 51
245.6381241349056
  0
ARC
  5
1F61
330
1F
100
AcDbEntity
  8
Hewi
100
AcDbCircle
 10
-661.3240498706109
 20
1243.940105323005
 30
0.0
 40
40.0
210
0.0
220
0.0
230
-1.0
100
AcDbArc
 50
294.3675003378845
 51
65.63250362536701
  0
ARC
  5
1F62
330
1F
100
AcDbEntity
  8
Hewi
100
AcDbCircle
 10
-661.3240498706109
 20
1243.940105323005
 30
0.0
 40
40.0
210
0.0
220
0.0
230
-1.0
100
AcDbArc
 50
114.3618765515111
 51
180.0000075055374
  0
ARC
  5
1F63
330
1F
100
AcDbEntity
  8
Hewi
100
AcDbCircle
 10
709.8240498706108
 20
592.6944510724672
 30
0.0000000000000059
 40
65.0
100
AcDbArc
 50
180.0
 51
270.0
  0
ARC
  5
1F64
330
1F
100
AcDbEntity
  8
Hewi
100
AcDbCircle
 10
709.8240498706108
 20
592.6944510724672
 30
0.0000000000000059
 40
32.0
100
AcDbArc
 50
180.0
 51
270.0
  0
ARC
  5
1F65
330
1F
100
AcDbEntity
  8
Hewi
100
AcDbCircle
 10
661.3240498706109
 20
659.1944510724663
 30
0.0
 40
40.0
100
AcDbArc
 50
114.3619779399754
 51
245.6380220600245
  0
ARC
  5
1F66
330
1F
100
AcDbEntity
  8
Hewi
100
AcDbCircle
 10
661.3240498706109
 20
659.1944510724663
 30
0.0
 40
40.0
100
AcDbArc
 50
294.3619779399755
 51
65.63802206002456
  0
CIRCLE
  5
1F67
330
1F
100
AcDbEntity
  8
Hewi
100
AcDbCircle
 10
661.3240498706109
 20
321.1379715969583
 30
0.0
 40
16.5
  0
LINE
  5
1F68
330
1F
100
AcDbEntity
  8
Hewi
  6
Continuous
100
AcDbLine
 10
1317.383319915579
 20
584.1944510724663
 30
0.0
 11
1306.383319915578
 21
584.1944510724663
 31
0.0
  0
LINE
  5
1F69
330
1F
100
AcDbEntity
  8
Hewi
  6
Continuous
100
AcDbLine
 10
1306.383319915578
 20
504.1944510724663
 30
0.0
 11
1317.383319915579
 21
504.1944510724663
 31
0.0
  0
LINE
  5
1F6A
330
1F
100
AcDbEntity
  8
Hewi
  6
Continuous
100
AcDbLine
 10
1363.376968617217
 20
553.1944510724663
 30
0.0
 11
1319.383750242546
 21
553.1944510724663
 31
0.0
  0
LINE
  5
1F6B
330
1F
100
AcDbEntity
  8
Hewi
  6
Continuous
100
AcDbLine
 10
1319.383693164623
 20
535.1944510724663
 30
0.0
 11
1366.054003229639
 21
535.1944510724663
 31
0.0
  0
LINE
  5
1F6C
330
1F
100
AcDbEntity
  8
Hewi
  6
Continuous
100
AcDbLine
 10
1319.383319915579
 20
506.1944510724672
 30
0.0
 11
1319.383319915579
 21
582.1944510724663
 31
0.0
  0
LINE
  5
1F6D
330
1F
100
AcDbEntity
  8
Hewi
  6
Continuous
100
AcDbLine
 10
1306.383319915578
 20
504.1944510724663
 30
0.0
 11
1306.383319915578
 21
584.1944510724663
 31
0.0
  0
ARC
  5
1F6E
330
1F
100
AcDbEntity
  8
Hewi
  6
Continuous
100
AcDbCircle
 10
1317.383319915579
 20
582.1944510724663
 30
0.0
 40
2.0
100
AcDbArc
 50
0.0
 51
90.0
  0
ARC
  5
1F6F
330
1F
100
AcDbEntity
  8
Hewi
  6
Continuous
100
AcDbCircle
 10
1317.383319915579
 20
506.1944510724672
 30
0.0
 40
2.0
100
AcDbArc
 50
270.0
 51
0.0
  0
LINE
  5
1F70
330
1F
100
AcDbEntity
  8
Hewi
  6
Continuous
100
AcDbLine
 10
1317.383319915579
 20
699.1944510724663
 30
0.0
 11
1306.383319915578
 21
699.1944510724663
 31
0.0
  0
LINE
  5
1F71
330
1F
100
AcDbEntity
  8
Hewi
  6
Continuous
100
AcDbLine
 10
1306.383319915578
 20
619.1944510724663
 30
0.0
 11
1317.383319915579
 21
619.1944510724663
 31
0.0
  0
LINE
  5
1F72
330
1F
100
AcDbEntity
  8
Hewi
  6
Continuous
100
AcDbLine
 10
1363.376968617217
 20
668.1944510724663
 30
0.0
 11
1319.383750242546
 21
668.1944510724663
 31
0.0
  0
LINE
  5
1F73
330
1F
100
AcDbEntity
  8
Hewi
  6
Continuous
100
AcDbLine
 10
1319.383693164623
 20
650.1944510724663
 30
0.0
 11
1363.383295837034
 21
650.1944510724663
 31
0.0
  0
LINE
  5
1F74
330
1F
100
AcDbEntity
  8
Hewi
  6
Continuous
100
AcDbLine
 10
1319.383319915579
 20
621.1944510724663
 30
0.0
 11
1319.383319915579
 21
697.1944510724672
 31
0.0
  0
LINE
  5
1F75
330
1F
100
AcDbEntity
  8
Hewi
  6
Continuous
100
AcDbLine
 10
1306.383319915578
 20
619.1944510724663
 30
0.0
 11
1306.383319915578
 21
699.1944510724663
 31
0.0
  0
ARC
  5
1F76
330
1F
100
AcDbEntity
  8
Hewi
  6
Continuous
100
AcDbCircle
 10
1317.383319915579
 20
697.1944510724672
 30
0.0
 40
2.0
100
AcDbArc
 50
0.0
 51
90.0
  0
ARC
  5
1F77
330
1F
100
AcDbEntity
  8
Hewi
  6
Continuous
100
AcDbCircle
 10
1317.383319915579
 20
621.1944510724663
 30
0.0
 40
2.0
100
AcDbArc
 50
270.0
 51
0.0
  0
SPLINE
  5
1F78
330
1F
100
AcDbEntity
  8
Hewi
  6
Continuous
100
AcDbSpline
210
0.0
220
0.0
230
1.0
 70
     8
 71
     3
 72
    14
 73
    10
 74
     0
 42
0.0000000001
 43
0.0000000001
 40
0.0
 40
0.0
 40
0.0
 40
0.0
 40
0.2434469386710948
 40
0.2434469386710948
 40
0.4956312924473967
 40
0.4956312924473967
 40
0.7478156462236985
 40
0.7478156462236985
 40
1.0
 40
1.0
 40
1.0
 40
1.0
 10
1363.383583389762
 20
650.1946771177124
 30
0.0
 10
1363.384170762948
 20
650.2063329821782
 30
0.0
 10
1363.932184856138
 20
651.1600749731833
 30
0.0
 10
1365.222732498893
 20
654.3029840426122
 30
0.0
 10
1365.916151194907
 20
656.5946799404724
 30
0.0
 10
1365.934228436775
 20
661.4055038793103
 30
0.0
 10
1365.245049545644
 20
663.7697246117122
 30
0.0
 10
1363.929422103801
 20
667.0974900458193
 30
0.0
 10
1363.354955620919
 20
668.1553626358752
 30
0.0
 10
1363.384543530716
 20
668.1933506896994
 30
0.0
  0
LINE
  5
1F79
330
1F
100
AcDbEntity
  8
Hewi
  6
Continuous
100
AcDbLine
 10
1317.383319915579
 20
1283.940100083152
 30
0.0
 11
1306.383319915578
 21
1283.940100083152
 31
0.0
  0
LINE
  5
1F7A
330
1F
100
AcDbEntity
  8
Hewi
  6
Continuous
100
AcDbLine
 10
1306.383319915578
 20
1203.940100083152
 30
0.0
 11
1317.383319915579
 21
1203.940100083152
 31
0.0
  0
LINE
  5
1F7B
330
1F
100
AcDbEntity
  8
Hewi
  6
Continuous
100
AcDbLine
 10
1363.376968617217
 20
1252.940100083152
 30
0.0
 11
1319.383750242546
 21
1252.940100083152
 31
0.0
  0
LINE
  5
1F7C
330
1F
100
AcDbEntity
  8
Hewi
  6
Continuous
100
AcDbLine
 10
1319.383693164623
 20
1234.940100083151
 30
0.0
 11
1363.383295837034
 21
1234.940100083151
 31
0.0
  0
LINE
  5
1F7D
330
1F
100
AcDbEntity
  8
Hewi
  6
Continuous
100
AcDbLine
 10
1319.383319915579
 20
1205.940100083152
 30
0.0
 11
1319.383319915579
 21
1281.940100083152
 31
0.0
  0
LINE
  5
1F7E
330
1F
100
AcDbEntity
  8
Hewi
  6
Continuous
100
AcDbLine
 10
1306.383319915578
 20
1203.940100083152
 30
0.0
 11
1306.383319915578
 21
1283.940100083152
 31
0.0
  0
ARC
  5
1F7F
330
1F
100
AcDbEntity
  8
Hewi
  6
Continuous
100
AcDbCircle
 10
1317.383319915579
 20
1281.940100083152
 30
0.0
 40
2.0
100
AcDbArc
 50
0.0
 51
90.0
  0
ARC
  5
1F80
330
1F
100
AcDbEntity
  8
Hewi
  6
Continuous
100
AcDbCircle
 10
1317.383319915579
 20
1205.940100083152
 30
0.0
 40
2.0
100
AcDbArc
 50
270.0
 51
0.0
  0
SPLINE
  5
1F81
330
1F
100
AcDbEntity
  8
Hewi
  6
Continuous
100
AcDbSpline
210
0.0
220
0.0
230
1.0
 70
     8
 71
     3
 72
    14
 73
    10
 74
     0
 42
0.0000000001
 43
0.0000000001
 40
0.0
 40
0.0
 40
0.0
 40
0.0
 40
0.2434469386710948
 40
0.2434469386710948
 40
0.4956312924473967
 40
0.4956312924473967
 40
0.7478156462236985
 40
0.7478156462236985
 40
1.0
 40
1.0
 40
1.0
 40
1.0
 10
1363.383583389762
 20
1234.940326128397
 30
0.0
 10
1363.384170762948
 20
1234.951981992864
 30
0.0
 10
1363.932184856138
 20
1235.905723983868
 30
0.0
 10
1365.222732498893
 20
1239.048633053297
 30
0.0
 10
1365.916151194907
 20
1241.340328951157
 30
0.0
 10
1365.934228436775
 20
1246.151152889996
 30
0.0
 10
1365.245049545644
 20
1248.515373622397
 30
0.0
 10
1363.929422103801
 20
1251.843139056504
 30
0.0
 10
1363.354955620919
 20
1252.90101164656
 30
0.0
 10
1363.384543530716
 20
1252.938999700385
 30
0.0
  0
LINE
  5
1F82
330
1F
100
AcDbEntity
  8
Hewi
100
AcDbLine
 10
1396.383319915579
 20
544.1944510724663
 30
0.0000000000000076
 11
1396.383319915578
 21
1292.005104241014
 31
-0.0000000000000027
  0
LINE
  5
1F83
330
1F
100
AcDbEntity
  8
Hewi
100
AcDbLine
 10
1363.386440904166
 20
1292.091594887971
 30
0.0
 11
1363.376968617217
 21
668.1944510724663
 31
0.0
  0
LINE
  5
1F84
330
1F
100
AcDbEntity
  8
Hewi
100
AcDbLine
 10
1363.383319915579
 20
1292.005104241014
 30
0.0000000000000026
 11
1363.383319915579
 21
1291.894451072478
 31
0.0000000000000026
  0
LINE
  5
1F85
330
1F
100
AcDbEntity
  8
Hewi
100
AcDbLine
 10
1396.383319915579
 20
1291.894451072478
 30
-0.0000000000000006
 11
1396.383319915579
 21
1292.005104241014
 31
-0.0000000000000006
  0
LINE
  5
1F86
330
1F
100
AcDbEntity
  8
Hewi
100
AcDbLine
 10
1363.383319915579
 20
1291.894451072478
 30
0.0000000000000026
 11
1396.383319915579
 21
1291.894451072478
 31
-0.0000000000000006
  0
ARC
  5
1F87
330
1F
100
AcDbEntity
  8
Hewi
100
AcDbCircle
 10
1363.883319915579
 20
1291.394451072478
 30
0.0000000000000025
 40
0.5
100
AcDbArc
 50
90.0
 51
180.0
  0
ARC
  5
1F88
330
1F
100
AcDbEntity
  8
Hewi
100
AcDbCircle
 10
1395.883319915579
 20
1291.394451072478
 30
-0.0000000000000005
 40
0.5
100
AcDbArc
 50
0.0
 51
90.0
  0
ARC
  5
1F89
330
1F
100
AcDbEntity
  8
Hewi
100
AcDbCircle
 10
1395.183319915582
 20
1292.005104241014
 30
-0.0000000000000005
 40
1.199999999999999
100
AcDbArc
 50
0.0
 51
82.60044591067231
  0
ARC
  5
1F8A
330
1F
100
AcDbEntity
  8
Hewi
100
AcDbCircle
 10
1364.58331991559
 20
1292.005104241014
 30
0.0000000000000025
 40
1.199999999999999
100
AcDbArc
 50
97.39955408932688
 51
180.0
  0
ARC
  5
1F8B
330
1F
100
AcDbEntity
  8
Hewi
100
AcDbCircle
 10
1379.883319915579
 20
1174.194451072466
 30
0.000000000000001
 40
120.0
100
AcDbArc
 50
82.60044591067231
 51
97.39955408932688
  0
CIRCLE
  5
1F8C
330
1F
100
AcDbEntity
  8
Hewi
100
AcDbCircle
 10
1379.883319915579
 20
544.1944510724663
 30
0.0
 40
16.5
  0
LINE
  5
1F8D
330
1F
100
AcDbEntity
  8
Hewi
100
AcDbLine
 10
1363.384543530716
 20
1252.938999700385
 30
0.0
 11
1363.384543530716
 21
1291.359492269545
 31
0.0
  0
LINE
  5
1F8E
330
1F
100
AcDbEntity
  8
Hewi
100
AcDbLine
 10
1363.383295837034
 20
650.1944510724663
 30
0.0
 11
1363.383319915579
 21
544.1944510724663
 31
0.0
  0
LINE
  5
1F8F
330
1F
100
AcDbEntity
  8
Hewi
  6
Continuous
100
AcDbLine
 10
443.9524464803862
 20
584.1944510724663
 30
0.0
 11
454.9524464803862
 21
584.1944510724663
 31
0.0
  0
LINE
  5
1F90
330
1F
100
AcDbEntity
  8
Hewi
  6
Continuous
100
AcDbLine
 10
454.9524464803862
 20
504.1944510724663
 30
0.0
 11
443.9524464803862
 21
504.1944510724663
 31
0.0
  0
LINE
  5
1F91
330
1F
100
AcDbEntity
  8
Hewi
  6
Continuous
100
AcDbLine
 10
397.9587977787483
 20
553.1944510724663
 30
0.0
 11
441.9520161534187
 21
553.1944510724663
 31
0.0
  0
LINE
  5
1F92
330
1F
100
AcDbEntity
  8
Hewi
  6
Continuous
100
AcDbLine
 10
441.9520732313417
 20
535.1944510724663
 30
0.0
 11
395.2817631663256
 21
535.1944510724663
 31
0.0
  0
LINE
  5
1F93
330
1F
100
AcDbEntity
  8
Hewi
  6
Continuous
100
AcDbLine
 10
441.9524464803862
 20
506.1944510724672
 30
0.0
 11
441.9524464803862
 21
582.1944510724663
 31
0.0
  0
LINE
  5
1F94
330
1F
100
AcDbEntity
  8
Hewi
  6
Continuous
100
AcDbLine
 10
454.9524464803862
 20
504.1944510724663
 30
0.0
 11
454.9524464803862
 21
584.1944510724663
 31
0.0
  0
ARC
  5
1F95
330
1F
100
AcDbEntity
  8
Hewi
  6
Continuous
100
AcDbCircle
 10
443.9524464803862
 20
582.1944510724663
 30
0.0
 40
2.0
100
AcDbArc
 50
90.0
 51
180.0
  0
ARC
  5
1F96
330
1F
100
AcDbEntity
  8
Hewi
  6
Continuous
100
AcDbCircle
 10
443.9524464803862
 20
506.1944510724672
 30
0.0
 40
2.0
100
AcDbArc
 50
180.0
 51
270.0
  0
LINE
  5
1F97
330
1F
100
AcDbEntity
  8
Hewi
  6
Continuous
100
AcDbLine
 10
443.9524464803862
 20
699.1944510724663
 30
0.0
 11
454.9524464803862
 21
699.1944510724663
 31
0.0
  0
LINE
  5
1F98
330
1F
100
AcDbEntity
  8
Hewi
  6
Continuous
100
AcDbLine
 10
454.9524464803862
 20
619.1944510724663
 30
0.0
 11
443.9524464803862
 21
619.1944510724663
 31
0.0
  0
LINE
  5
1F99
330
1F
100
AcDbEntity
  8
Hewi
  6
Continuous
100
AcDbLine
 10
397.9587977787483
 20
668.1944510724663
 30
0.0
 11
441.9520161534187
 21
668.1944510724663
 31
0.0
  0
LINE
  5
1F9A
330
1F
100
AcDbEntity
  8
Hewi
  6
Continuous
100
AcDbLine
 10
441.9520732313417
 20
650.1944510724663
 30
0.0
 11
397.9524705589311
 21
650.1944510724663
 31
0.0
  0
LINE
  5
1F9B
330
1F
100
AcDbEntity
  8
Hewi
  6
Continuous
100
AcDbLine
 10
441.9524464803862
 20
621.1944510724663
 30
0.0
 11
441.9524464803862
 21
697.1944510724672
 31
0.0
  0
LINE
  5
1F9C
330
1F
100
AcDbEntity
  8
Hewi
  6
Continuous
100
AcDbLine
 10
454.9524464803862
 20
619.1944510724663
 30
0.0
 11
454.9524464803862
 21
699.1944510724663
 31
0.0
  0
ARC
  5
1F9D
330
1F
100
AcDbEntity
  8
Hewi
  6
Continuous
100
AcDbCircle
 10
443.9524464803862
 20
697.1944510724672
 30
0.0
 40
2.0
100
AcDbArc
 50
90.0
 51
180.0
  0
ARC
  5
1F9E
330
1F
100
AcDbEntity
  8
Hewi
  6
Continuous
100
AcDbCircle
 10
443.9524464803862
 20
621.1944510724663
 30
0.0
 40
2.0
100
AcDbArc
 50
180.0
 51
270.0
  0
SPLINE
  5
1F9F
330
1F
100
AcDbEntity
  8
Hewi
  6
Continuous
100
AcDbSpline
210
0.0
220
0.0
230
1.0
 70
     8
 71
     3
 72
    14
 73
    10
 74
     0
 42
0.0000000001
 43
0.0000000001
 40
0.0
 40
0.0
 40
0.0
 40
0.0
 40
0.2434469386710948
 40
0.2434469386710948
 40
0.4956312924473967
 40
0.4956312924473967
 40
0.7478156462236985
 40
0.7478156462236985
 40
1.0
 40
1.0
 40
1.0
 40
1.0
 10
397.9521830062031
 20
650.1946771177124
 30
0.0
 10
397.9515956330169
 20
650.2063329821782
 30
0.0
 10
397.403581539827
 20
651.1600749731833
 30
0.0
 10
396.113033897072
 20
654.3029840426122
 30
0.0
 10
395.4196152010581
 20
656.5946799404724
 30
0.0
 10
395.4015379591901
 20
661.4055038793103
 30
0.0
 10
396.0907168503213
 20
663.7697246117122
 30
0.0
 10
397.4063442921638
 20
667.0974900458193
 30
0.0
 10
397.9808107750464
 20
668.1553626358752
 30
0.0
 10
397.9512228652489
 20
668.1933506896994
 30
0.0
  0
LINE
  5
1FA0
330
1F
100
AcDbEntity
  8
Hewi
  6
Continuous
100
AcDbLine
 10
443.9524464803862
 20
1283.940100083152
 30
0.0
 11
454.9524464803862
 21
1283.940100083152
 31
0.0
  0
LINE
  5
1FA1
330
1F
100
AcDbEntity
  8
Hewi
  6
Continuous
100
AcDbLine
 10
454.9524464803862
 20
1203.940100083152
 30
0.0
 11
443.9524464803862
 21
1203.940100083152
 31
0.0
  0
LINE
  5
1FA2
330
1F
100
AcDbEntity
  8
Hewi
  6
Continuous
100
AcDbLine
 10
397.9587977787483
 20
1252.940100083152
 30
0.0
 11
441.9520161534187
 21
1252.940100083152
 31
0.0
  0
LINE
  5
1FA3
330
1F
100
AcDbEntity
  8
Hewi
  6
Continuous
100
AcDbLine
 10
441.9520732313417
 20
1234.940100083151
 30
0.0
 11
397.9524705589311
 21
1234.940100083151
 31
0.0
  0
LINE
  5
1FA4
330
1F
100
AcDbEntity
  8
Hewi
  6
Continuous
100
AcDbLine
 10
441.9524464803862
 20
1205.940100083152
 30
0.0
 11
441.9524464803862
 21
1281.940100083152
 31
0.0
  0
LINE
  5
1FA5
330
1F
100
AcDbEntity
  8
Hewi
  6
Continuous
100
AcDbLine
 10
454.9524464803862
 20
1203.940100083152
 30
0.0
 11
454.9524464803862
 21
1283.940100083152
 31
0.0
  0
ARC
  5
1FA6
330
1F
100
AcDbEntity
  8
Hewi
  6
Continuous
100
AcDbCircle
 10
443.9524464803862
 20
1281.940100083152
 30
0.0
 40
2.0
100
AcDbArc
 50
90.0
 51
180.0
  0
ARC
  5
1FA7
330
1F
100
AcDbEntity
  8
Hewi
  6
Continuous
100
AcDbCircle
 10
443.9524464803862
 20
1205.940100083152
 30
0.0
 40
2.0
100
AcDbArc
 50
180.0
 51
270.0
  0
SPLINE
  5
1FA8
330
1F
100
AcDbEntity
  8
Hewi
  6
Continuous
100
AcDbSpline
210
0.0
220
0.0
230
1.0
 70
     8
 71
     3
 72
    14
 73
    10
 74
     0
 42
0.0000000001
 43
0.0000000001
 40
0.0
 40
0.0
 40
0.0
 40
0.0
 40
0.2434469386710948
 40
0.2434469386710948
 40
0.4956312924473967
 40
0.4956312924473967
 40
0.7478156462236985
 40
0.7478156462236985
 40
1.0
 40
1.0
 40
1.0
 40
1.0
 10
397.9521830062031
 20
1234.940326128397
 30
0.0
 10
397.9515956330169
 20
1234.951981992864
 30
0.0
 10
397.403581539827
 20
1235.905723983868
 30
0.0
 10
396.113033897072
 20
1239.048633053297
 30
0.0
 10
395.4196152010581
 20
1241.340328951157
 30
0.0
 10
395.4015379591901
 20
1246.151152889996
 30
0.0
 10
396.0907168503213
 20
1248.515373622397
 30
0.0
 10
397.4063442921638
 20
1251.843139056504
 30
0.0
 10
397.9808107750464
 20
1252.90101164656
 30
0.0
 10
397.9512228652489
 20
1252.938999700385
 30
0.0
  0
LINE
  5
1FA9
330
1F
100
AcDbEntity
  8
Hewi
100
AcDbLine
 10
364.9524464803854
 20
544.1944510724663
 30
0.0000000000000076
 11
364.9524464803865
 21
1292.005104241014
 31
-0.0000000000000027
  0
LINE
  5
1FAA
330
1F
100
AcDbEntity
  8
Hewi
100
AcDbLine
 10
397.9493254917993
 20
1292.091594887965
 30
0.0
 11
397.9587977787483
 21
668.1944510724663
 31
0.0
  0
LINE
  5
1FAB
330
1F
100
AcDbEntity
  8
Hewi
100
AcDbLine
 10
397.9524464803862
 20
1292.005104241014
 30
0.0000000000000026
 11
397.9524464803862
 21
1291.894451072478
 31
0.0000000000000026
  0
LINE
  5
1FAC
330
1F
100
AcDbEntity
  8
Hewi
100
AcDbLine
 10
364.9524464803862
 20
1291.894451072478
 30
-0.0000000000000006
 11
364.9524464803862
 21
1292.005104241014
 31
-0.0000000000000006
  0
LINE
  5
1FAD
330
1F
100
AcDbEntity
  8
Hewi
100
AcDbLine
 10
397.9524464803862
 20
1291.894451072478
 30
0.0000000000000026
 11
364.9524464803862
 21
1291.894451072478
 31
-0.0000000000000006
  0
ARC
  5
1FAE
330
1F
100
AcDbEntity
  8
Hewi
100
AcDbCircle
 10
397.4524464803853
 20
1291.394451072478
 30
0.0000000000000025
 40
0.5
100
AcDbArc
 50
0.0
 51
90.0
  0
ARC
  5
1FAF
330
1F
100
AcDbEntity
  8
Hewi
100
AcDbCircle
 10
365.4524464803862
 20
1291.394451072478
 30
-0.0000000000000005
 40
0.5
100
AcDbArc
 50
90.0
 51
180.0
  0
ARC
  5
1FB0
330
1F
100
AcDbEntity
  8
Hewi
100
AcDbCircle
 10
366.1524464803833
 20
1292.005104241014
 30
-0.0000000000000005
 40
1.199999999999999
100
AcDbArc
 50
97.39955408932729
 51
180.0
  0
ARC
  5
1FB1
330
1F
100
AcDbEntity
  8
Hewi
100
AcDbCircle
 10
396.7524464803742
 20
1292.005104241014
 30
0.0000000000000025
 40
1.199999999999999
100
AcDbArc
 50
0.0
 51
82.60044591067268
  0
ARC
  5
1FB2
330
1F
100
AcDbEntity
  8
Hewi
100
AcDbCircle
 10
381.4524464803853
 20
1174.194451072466
 30
0.000000000000001
 40
120.0
100
AcDbArc
 50
82.60044591067268
 51
97.39955408932729
  0
ARC
  5
1FB3
330
1F
100
AcDbEntity
  8
Hewi
100
AcDbCircle
 10
381.4524464803863
 20
544.1944510724663
 30
0.0
 40
16.5
100
AcDbArc
 50
180.0
 51
0.0
  0
LINE
  5
1FB4
330
1F
100
AcDbEntity
  8
Hewi
100
AcDbLine
 10
397.9512228652489
 20
1252.938999700385
 30
0.0
 11
397.9512228652489
 21
1291.359492269545
 31
0.0
  0
LINE
  5
1FB5
330
1F
100
AcDbEntity
  8
Hewi
100
AcDbLine
 10
397.9524705589311
 20
650.1944510724663
 30
0.0
 11
397.9524464803862
 21
544.1944510724663
 31
0.0
  0
ARC
  5
1FB6
330
1F
100
AcDbEntity
  8
Hewi
100
AcDbCircle
 10
381.4524464803863
 20
544.1944510724663
 30
0.0
 40
16.5
100
AcDbArc
 50
180.0
 51
0.0
  0
LINE
  5
1FB7
330
1F
100
AcDbEntity
  8
Hewi
100
AcDbLine
 10
397.9524464803862
 20
544.1944510724663
 30
0.000000000000003
 11
397.9524464803862
 21
592.6944510724672
 31
0.000000000000003
210
0.0
220
1.0
230
0.0
  0
LINE
  5
1FB8
330
1F
100
AcDbEntity
  8
Hewi
100
AcDbLine
 10
364.9524464803862
 20
592.6944510724672
 30
-0.000000000000003
 11
364.9524464803862
 21
544.1944510724663
 31
-0.000000000000003
210
0.0
220
1.0
230
0.0
  0
ENDSEC
  0
SECTION
  2
OBJECTS
  0
DICTIONARY
  5
C
330
0
100
AcDbDictionary
281
     1
  3
ACAD_COLOR
350
6B
  3
ACAD_GROUP
350
D
  3
ACAD_LAYOUT
350
1A
  3
ACAD_MATERIAL
350
6A
  3
ACAD_MLINESTYLE
350
17
  3
ACAD_PLOTSETTINGS
350
19
  3
ACAD_PLOTSTYLENAME
350
E
  3
ACAD_TABLESTYLE
350
7E
  3
ACAD_VISUALSTYLE
350
EF
  3
AcDbVariableDictionary
350
5E
  3
DWGPROPS
350
1FF8
  0
DICTIONARY
  5
141
330
2
100
AcDbDictionary
280
     1
281
     1
  3
ACAD_LAYERSTATES
360
142
  0
DICTIONARY
  5
116
330
1F
100
AcDbDictionary
280
     1
281
     1
  3
ACAD_SORTENTS
360
117
  0
DICTIONARY
  5
6B
102
{ACAD_REACTORS
330
C
102
}
330
C
100
AcDbDictionary
281
     1
  0
DICTIONARY
  5
D
102
{ACAD_REACTORS
330
C
102
}
330
C
100
AcDbDictionary
281
     1
  0
DICTIONARY
  5
1A
102
{ACAD_REACTORS
330
C
102
}
330
C
100
AcDbDictionary
281
     1
  3
Layout1
350
D3
  3
Layout2
350
D7
  3
Model
350
22
  0
DICTIONARY
  5
6A
102
{ACAD_REACTORS
330
C
102
}
330
C
100
AcDbDictionary
281
     1
  3
ByBlock
350
ED
  3
ByLayer
350
EC
  3
Global
350
EE
  0
DICTIONARY
  5
17
102
{ACAD_REACTORS
330
C
102
}
330
C
100
AcDbDictionary
281
     1
  3
Standard
350
18
  0
DICTIONARY
  5
19
102
{ACAD_REACTORS
330
C
102
}
330
C
100
AcDbDictionary
281
     1
  0
ACDBDICTIONARYWDFLT
  5
E
102
{ACAD_REACTORS
330
C
102
}
330
C
100
AcDbDictionary
281
     1
  3
Normal
350
F
100
AcDbDictionaryWithDefault
340
F
  0
DICTIONARY
  5
7E
102
{ACAD_REACTORS
330
C
102
}
330
C
100
AcDbDictionary
281
     1
  3
Standard
350
7F
  0
DICTIONARY
  5
EF
102
{ACAD_REACTORS
330
C
102
}
330
C
100
AcDbDictionary
281
     1
  3
2dWireframe
350
F5
  3
3D Hidden
350
F7
  3
3dWireframe
350
F6
  3
Basic
350
F4
  3
Brighten
350
FB
  3
ColorChange
350
FF
  3
Conceptual
350
F8
  3
Dim
350
FA
  3
Facepattern
350
FE
  3
Flat
350
F0
  3
FlatWithEdges
350
F1
  3
Gouraud
350
F2
  3
GouraudWithEdges
350
F3
  3
Linepattern
350
FD
  3
Realistic
350
F9
  3
Thicken
350
FC
  0
DICTIONARY
  5
5E
102
{ACAD_REACTORS
330
C
102
}
330
C
100
AcDbDictionary
281
     1
  3
CTABLESTYLE
350
84
  3
DIMASSOC
350
5F
  3
HIDETEXT
350
63
  3
INDEXCTL
350
327
  3
LOFTANG1
350
1FBB
  3
LOFTANG2
350
1FBC
  3
PSOLHEIGHT
350
1FBA
  3
PSOLWIDTH
350
1FB9
  3
SORTENTS
350
326
  0
XRECORD
  5
1FF8
102
{ACAD_REACTORS
330
C
102
}
330
C
100
AcDbXrecord
280
     1
  1
DWGPROPS COOKIE
  2

  3

  4

  6

  7

  8
kaschu
  9

300
=
301
=
302
=
303
=
304
=
305
=
306
=
307
=
308
=
309
=
 40
0.1299901273148148
 41
2454768.510881991
 42
2456598.360544213
  1

 90
        0
  0
DICTIONARY
  5
142
102
{ACAD_REACTORS
330
141
102
}
330
141
100
AcDbDictionary
281
     1
  0
SORTENTSTABLE
  5
117
102
{ACAD_REACTORS
330
116
102
}
330
116
100
AcDbSortentsTable
330
1F
  0
LAYOUT
  5
D3
102
{ACAD_XDICTIONARY
360
1FFD
102
}
102
{ACAD_REACTORS
330
1A
102
}
330
1A
100
AcDbPlotSettings
  1

  2
C:\Documents and Settings\basas\Application Data\Autodesk\AutoCAD 2005\R16.1\enu\plotters\Default Windows System Printer.pc3
  4

  6

 40
0.0
 41
0.0
 42
0.0
 43
0.0
 44
0.0
 45
0.0
 46
0.0
 47
0.0
 48
0.0
 49
0.0
140
0.0
141
0.0
142
1.0
143
1.0
 70
   688
 72
     0
 73
     0
 74
     5
  7

 75
    16
147
1.0
148
0.0
149
0.0
100
AcDbLayout
  1
Layout1
 70
     1
 71
     1
 10
0.0
 20
0.0
 11
12.0
 21
9.0
 12
0.0
 22
0.0
 32
0.0
 14
0.0
 24
0.0
 34
0.0
 15
0.0
 25
0.0
 35
0.0
146
0.0
 13
0.0
 23
0.0
 33
0.0
 16
1.0
 26
0.0
 36
0.0
 17
0.0
 27
1.0
 37
0.0
 76
     0
330
D2
  0
LAYOUT
  5
D7
102
{ACAD_XDICTIONARY
360
1FFF
102
}
102
{ACAD_REACTORS
330
1A
102
}
330
1A
100
AcDbPlotSettings
  1

  2
C:\Documents and Settings\basas\Application Data\Autodesk\AutoCAD 2005\R16.1\enu\plotters\Default Windows System Printer.pc3
  4

  6

 40
0.0
 41
0.0
 42
0.0
 43
0.0
 44
0.0
 45
0.0
 46
0.0
 47
0.0
 48
0.0
 49
0.0
140
0.0
141
0.0
142
1.0
143
1.0
 70
   688
 72
     0
 73
     0
 74
     5
  7

 75
    16
147
1.0
148
0.0
149
0.0
100
AcDbLayout
  1
Layout2
 70
     1
 71
     2
 10
0.0
 20
0.0
 11
12.0
 21
9.0
 12
0.0
 22
0.0
 32
0.0
 14
0.0
 24
0.0
 34
0.0
 15
0.0
 25
0.0
 35
0.0
146
0.0
 13
0.0
 23
0.0
 33
0.0
 16
1.0
 26
0.0
 36
0.0
 17
0.0
 27
1.0
 37
0.0
 76
     0
330
D6
  0
LAYOUT
  5
22
102
{ACAD_XDICTIONARY
360
1FF9
102
}
102
{ACAD_REACTORS
330
1A
102
}
330
1A
100
AcDbPlotSettings
  1

  2
none_device
  4
ISO_A4_(210.00_x_297.00_MM)
  6

 40
7.5
 41
20.0
 42
7.5
 43
20.0
 44
210.0
 45
297.0
 46
11.54999923706054
 47
-13.65000009536743
 48
0.0
 49
0.0
140
0.0
141
0.0
142
1.0
143
8.704084754739808
 70
 11952
 72
     1
 73
     0
 74
     0
  7

 75
     0
147
0.1148885871608098
148
0.0
149
0.0
100
AcDbLayout
  1
Model
 70
     1
 71
     0
 10
0.0
 20
0.0
 11
12.0
 21
9.0
 12
0.0
 22
0.0
 32
0.0
 14
0.0
 24
0.0
 34
0.0
 15
0.0
 25
0.0
 35
0.0
146
0.0
 13
0.0
 23
0.0
 33
0.0
 16
1.0
 26
0.0
 36
0.0
 17
0.0
 27
1.0
 37
0.0
 76
     0
330
1F
331
EA
1001
ACAD_PSEXT
1000
None
1000
None
1000
Not applicable
1000
The layout will not be plotted unless a new plotter configuration name is selected.
1070
     0
  0
MATERIAL
  5
ED
102
{ACAD_XDICTIONARY
360
335
102
}
102
{ACAD_REACTORS
330
6A
102
}
330
6A
100
AcDbMaterial
  1
ByBlock
  0
MATERIAL
  5
EC
102
{ACAD_XDICTIONARY
360
333
102
}
102
{ACAD_REACTORS
330
6A
102
}
330
6A
100
AcDbMaterial
  1
ByLayer
  0
MATERIAL
  5
EE
102
{ACAD_XDICTIONARY
360
337
102
}
102
{ACAD_REACTORS
330
6A
102
}
330
6A
100
AcDbMaterial
  1
Global
  0
MLINESTYLE
  5
18
102
{ACAD_REACTORS
330
17
102
}
330
17
100
AcDbMlineStyle
  2
STANDARD
 70
     0
  3

 62
   256
 51
90.0
 52
90.0
 71
     2
 49
0.5
 62
   256
  6
BYLAYER
 49
-0.5
 62
   256
  6
BYLAYER
  0
ACDBPLACEHOLDER
  5
F
102
{ACAD_REACTORS
330
E
102
}
330
E
  0
TABLESTYLE
  5
7F
102
{ACAD_XDICTIONARY
360
1FFB
102
}
102
{ACAD_REACTORS
330
7E
102
}
330
7E
100
AcDbTableStyle
  3
Standard
 70
     0
 71
     0
 40
1.5
 41
1.5
280
     0
281
     0
  7
Standard
140
4.5
170
     2
 62
     0
 63
     7
283
     0
274
    -2
284
     1
 64
     0
275
    -2
285
     1
 65
     0
276
    -2
286
     1
 66
     0
277
    -2
287
     1
 67
     0
278
    -2
288
     1
 68
     0
279
    -2
289
     1
 69
     0
  7
Standard
140
6.0
170
     5
 62
     0
 63
     7
283
     0
274
    -2
284
     1
 64
     0
275
    -2
285
     1
 65
     0
276
    -2
286
     1
 66
     0
277
    -2
287
     1
 67
     0
278
    -2
288
     1
 68
     0
279
    -2
289
     1
 69
     0
  7
Standard
140
4.5
170
     5
 62
     0
 63
     7
283
     0
274
    -2
284
     1
 64
     0
275
    -2
285
     1
 65
     0
276
    -2
286
     1
 66
     0
277
    -2
287
     1
 67
     0
278
    -2
288
     1
 68
     0
279
    -2
289
     1
 69
     0
  0
VISUALSTYLE
  5
F5
102
{ACAD_REACTORS
330
EF
102
}
330
EF
100
AcDbVisualStyle
  2
2dWireframe
 70
     4
 71
     0
 72
     2
 73
     1
 90
        0
 40
-0.6
 41
-30.0
 62
     5
 63
     7
 74
     1
 91
        4
 64
     7
 65
   257
 75
     1
175
     1
 42
1.0
 92
        0
 66
   257
 43
1.0
 76
     1
 77
     6
 78
     2
 67
     7
 79
     5
170
     0
171
     0
290
     0
174
     0
 93
        1
 44
0.0
173
     0
291
     0
 45
0.0
1001
ACAD
1000
AcDbSavedByObjectVersion
1070
     0
1000
AcDbSavedByObjectVersion
1070
     0
1000
AcDbSavedByObjectVersion
1070
     0
1000
AcDbSavedByObjectVersion
1070
     0
1000
AcDbSavedByObjectVersion
1070
     0
1000
AcDbSavedByObjectVersion
1070
     0
1000
AcDbSavedByObjectVersion
1070
     0
1000
AcDbSavedByObjectVersion
1070
     0
  0
VISUALSTYLE
  5
F7
102
{ACAD_REACTORS
330
EF
102
}
330
EF
100
AcDbVisualStyle
  2
3D Hidden
 70
     6
 71
     1
 72
     2
 73
     2
 90
        0
 40
-0.6
 41
-30.0
 62
     5
 63
     7
 74
     2
 91
        2
 64
     7
 65
   257
 75
     2
175
     1
 42
40.0
 92
        0
 66
   257
 43
1.0
 76
     1
 77
     6
 78
     2
 67
     7
 79
     3
170
     0
171
     0
290
     0
174
     0
 93
        1
 44
0.0
173
     0
291
     0
 45
0.0
1001
ACAD
1000
AcDbSavedByObjectVersion
1070
     0
1000
AcDbSavedByObjectVersion
1070
     0
1000
AcDbSavedByObjectVersion
1070
     0
1000
AcDbSavedByObjectVersion
1070
     0
1000
AcDbSavedByObjectVersion
1070
     0
1000
AcDbSavedByObjectVersion
1070
     0
1000
AcDbSavedByObjectVersion
1070
     0
1000
AcDbSavedByObjectVersion
1070
     0
  0
VISUALSTYLE
  5
F6
102
{ACAD_REACTORS
330
EF
102
}
330
EF
100
AcDbVisualStyle
  2
3dWireframe
 70
     5
 71
     0
 72
     2
 73
     1
 90
        0
 40
-0.6
 41
-30.0
 62
     5
 63
     7
 74
     1
 91
        4
 64
     7
 65
   257
 75
     1
175
     1
 42
1.0
 92
        0
 66
   257
 43
1.0
 76
     1
 77
     6
 78
     2
 67
     7
 79
     5
170
     0
171
     0
290
     0
174
     0
 93
        1
 44
0.0
173
     0
291
     0
 45
0.0
1001
ACAD
1000
AcDbSavedByObjectVersion
1070
     0
1000
AcDbSavedByObjectVersion
1070
     0
1000
AcDbSavedByObjectVersion
1070
     0
1000
AcDbSavedByObjectVersion
1070
     0
1000
AcDbSavedByObjectVersion
1070
     0
1000
AcDbSavedByObjectVersion
1070
     0
1000
AcDbSavedByObjectVersion
1070
     0
1000
AcDbSavedByObjectVersion
1070
     0
  0
VISUALSTYLE
  5
F4
102
{ACAD_REACTORS
330
EF
102
}
330
EF
100
AcDbVisualStyle
  2
Basic
 70
     7
 71
     1
 72
     0
 73
     1
 90
        0
 40
-0.6
 41
-30.0
 62
     5
 63
     7
 74
     0
 91
        4
 64
     7
 65
   257
 75
     1
175
     1
 42
1.0
 92
        8
 66
     7
 43
1.0
 76
     1
 77
     6
 78
     2
 67
     7
 79
     5
170
     0
171
     0
290
     0
174
     0
 93
        1
 44
0.0
173
     0
291
     1
 45
0.0
1001
ACAD
1000
AcDbSavedByObjectVersion
1070
     0
1000
AcDbSavedByObjectVersion
1070
     0
1000
AcDbSavedByObjectVersion
1070
     0
1000
AcDbSavedByObjectVersion
1070
     0
1000
AcDbSavedByObjectVersion
1070
     0
1000
AcDbSavedByObjectVersion
1070
     0
1000
AcDbSavedByObjectVersion
1070
     0
1000
AcDbSavedByObjectVersion
1070
     0
  0
VISUALSTYLE
  5
FB
102
{ACAD_REACTORS
330
EF
102
}
330
EF
100
AcDbVisualStyle
  2
Brighten
 70
    12
 71
     2
 72
     2
 73
     1
 90
        0
 40
-0.6
 41
-30.0
 62
     5
 63
     7
 74
     1
 91
        4
 64
     7
 65
   257
 75
     1
175
     1
 42
1.0
 92
        8
 66
     7
 43
1.0
 76
     1
 77
     6
 78
     2
 67
     7
 79
     5
170
     0
171
     0
290
     0
174
     0
 93
        1
 44
50.0
173
     0
291
     1
 45
0.0
1001
ACAD
1000
AcDbSavedByObjectVersion
1070
     0
1000
AcDbSavedByObjectVersion
1070
     0
1000
AcDbSavedByObjectVersion
1070
     0
1000
AcDbSavedByObjectVersion
1070
     0
1000
AcDbSavedByObjectVersion
1070
     0
1000
AcDbSavedByObjectVersion
1070
     0
1000
AcDbSavedByObjectVersion
1070
     0
1000
AcDbSavedByObjectVersion
1070
     0
  0
VISUALSTYLE
  5
FF
102
{ACAD_REACTORS
330
EF
102
}
330
EF
100
AcDbVisualStyle
  2
ColorChange
 70
    16
 71
     2
 72
     2
 73
     3
 90
        0
 40
-0.6
 41
-30.0
 62
     5
 63
     8
 74
     1
 91
        4
 64
     7
 65
   257
 75
     1
175
     1
 42
1.0
 92
        8
 66
     8
 43
1.0
 76
     1
 77
     6
 78
     2
 67
     7
 79
     5
170
     0
171
     0
290
     0
174
     0
 93
        1
 44
0.0
173
     0
291
     1
 45
0.0
1001
ACAD
1000
AcDbSavedByObjectVersion
1070
     0
1000
AcDbSavedByObjectVersion
1070
     0
1000
AcDbSavedByObjectVersion
1070
     0
1000
AcDbSavedByObjectVersion
1070
     0
1000
AcDbSavedByObjectVersion
1070
     0
1000
AcDbSavedByObjectVersion
1070
     0
1000
AcDbSavedByObjectVersion
1070
     0
1000
AcDbSavedByObjectVersion
1070
     0
  0
VISUALSTYLE
  5
F8
102
{ACAD_REACTORS
330
EF
102
}
330
EF
100
AcDbVisualStyle
  2
Conceptual
 70
     9
 71
     3
 72
     2
 73
     1
 90
        0
 40
-0.6
 41
-30.0
 62
     5
 63
     7
 74
     2
 91
        2
 64
     7
 65
   257
 75
     1
175
     1
 42
40.0
 92
        8
 66
     7
 43
1.0
 76
     1
 77
     6
 78
     2
 67
     7
 79
     3
170
     0
171
     0
290
     0
174
     0
 93
        1
 44
0.0
173
     0
291
     0
 45
0.0
1001
ACAD
1000
AcDbSavedByObjectVersion
1070
     0
1000
AcDbSavedByObjectVersion
1070
     0
1000
AcDbSavedByObjectVersion
1070
     0
1000
AcDbSavedByObjectVersion
1070
     0
1000
AcDbSavedByObjectVersion
1070
     0
1000
AcDbSavedByObjectVersion
1070
     0
1000
AcDbSavedByObjectVersion
1070
     0
1000
AcDbSavedByObjectVersion
1070
     0
  0
VISUALSTYLE
  5
FA
102
{ACAD_REACTORS
330
EF
102
}
330
EF
100
AcDbVisualStyle
  2
Dim
 70
    11
 71
     2
 72
     2
 73
     1
 90
        0
 40
-0.6
 41
-30.0
 62
     5
 63
     7
 74
     1
 91
        4
 64
     7
 65
   257
 75
     1
175
     1
 42
1.0
 92
        8
 66
     7
 43
1.0
 76
     1
 77
     6
 78
     2
 67
     7
 79
     5
170
     0
171
     0
290
     0
174
     0
 93
        1
 44
-50.0
173
     0
291
     1
 45
0.0
1001
ACAD
1000
AcDbSavedByObjectVersion
1070
     0
1000
AcDbSavedByObjectVersion
1070
     0
1000
AcDbSavedByObjectVersion
1070
     0
1000
AcDbSavedByObjectVersion
1070
     0
1000
AcDbSavedByObjectVersion
1070
     0
1000
AcDbSavedByObjectVersion
1070
     0
1000
AcDbSavedByObjectVersion
1070
     0
1000
AcDbSavedByObjectVersion
1070
     0
  0
VISUALSTYLE
  5
FE
102
{ACAD_REACTORS
330
EF
102
}
330
EF
100
AcDbVisualStyle
  2
Facepattern
 70
    15
 71
     2
 72
     2
 73
     1
 90
        0
 40
-0.6
 41
-30.0
 62
     5
 63
     7
 74
     1
 91
        4
 64
     7
 65
   257
 75
     1
175
     1
 42
1.0
 92
        8
 66
     7
 43
1.0
 76
     1
 77
     6
 78
     2
 67
     7
 79
     5
170
     0
171
     0
290
     0
174
     0
 93
        1
 44
0.0
173
     0
291
     1
 45
0.0
1001
ACAD
1000
AcDbSavedByObjectVersion
1070
     0
1000
AcDbSavedByObjectVersion
1070
     0
1000
AcDbSavedByObjectVersion
1070
     0
1000
AcDbSavedByObjectVersion
1070
     0
1000
AcDbSavedByObjectVersion
1070
     0
1000
AcDbSavedByObjectVersion
1070
     0
1000
AcDbSavedByObjectVersion
1070
     0
1000
AcDbSavedByObjectVersion
1070
     0
  0
VISUALSTYLE
  5
F0
102
{ACAD_REACTORS
330
EF
102
}
330
EF
100
AcDbVisualStyle
  2
Flat
 70
     0
 71
     2
 72
     1
 73
     1
 90
        2
 40
-0.6
 41
30.0
 62
     5
 63
     7
 74
     0
 91
        4
 64
     7
 65
   257
 75
     1
175
     1
 42
1.0
 92
        8
 66
     7
 43
1.0
 76
     1
 77
     6
 78
     2
 67
     7
 79
     5
170
     0
171
     0
290
     0
174
     0
 93
       13
 44
0.0
173
     0
291
     1
 45
0.0
1001
ACAD
1000
AcDbSavedByObjectVersion
1070
     0
1000
AcDbSavedByObjectVersion
1070
     0
1000
AcDbSavedByObjectVersion
1070
     0
1000
AcDbSavedByObjectVersion
1070
     0
1000
AcDbSavedByObjectVersion
1070
     0
1000
AcDbSavedByObjectVersion
1070
     0
1000
AcDbSavedByObjectVersion
1070
     0
1000
AcDbSavedByObjectVersion
1070
     0
  0
VISUALSTYLE
  5
F1
102
{ACAD_REACTORS
330
EF
102
}
330
EF
100
AcDbVisualStyle
  2
FlatWithEdges
 70
     1
 71
     2
 72
     1
 73
     1
 90
        2
 40
-0.6
 41
30.0
 62
     5
 63
     7
 74
     1
 91
        4
 64
     7
 65
   257
 75
     1
175
     1
 42
1.0
 92
        0
 66
   257
 43
1.0
 76
     1
 77
     6
 78
     2
 67
     7
 79
     5
170
     0
171
     0
290
     0
174
     0
 93
       13
 44
0.0
173
     0
291
     1
 45
0.0
1001
ACAD
1000
AcDbSavedByObjectVersion
1070
     0
1000
AcDbSavedByObjectVersion
1070
     0
1000
AcDbSavedByObjectVersion
1070
     0
1000
AcDbSavedByObjectVersion
1070
     0
1000
AcDbSavedByObjectVersion
1070
     0
1000
AcDbSavedByObjectVersion
1070
     0
1000
AcDbSavedByObjectVersion
1070
     0
1000
AcDbSavedByObjectVersion
1070
     0
  0
VISUALSTYLE
  5
F2
102
{ACAD_REACTORS
330
EF
102
}
330
EF
100
AcDbVisualStyle
  2
Gouraud
 70
     2
 71
     2
 72
     2
 73
     1
 90
        2
 40
-0.6
 41
30.0
 62
     5
 63
     7
 74
     0
 91
        4
 64
     7
 65
   257
 75
     1
175
     1
 42
1.0
 92
        0
 66
     7
 43
1.0
 76
     1
 77
     6
 78
     2
 67
     7
 79
     5
170
     0
171
     0
290
     0
174
     0
 93
       13
 44
0.0
173
     0
291
     1
 45
0.0
1001
ACAD
1000
AcDbSavedByObjectVersion
1070
     0
1000
AcDbSavedByObjectVersion
1070
     0
1000
AcDbSavedByObjectVersion
1070
     0
1000
AcDbSavedByObjectVersion
1070
     0
1000
AcDbSavedByObjectVersion
1070
     0
1000
AcDbSavedByObjectVersion
1070
     0
1000
AcDbSavedByObjectVersion
1070
     0
1000
AcDbSavedByObjectVersion
1070
     0
  0
VISUALSTYLE
  5
F3
102
{ACAD_REACTORS
330
EF
102
}
330
EF
100
AcDbVisualStyle
  2
GouraudWithEdges
 70
     3
 71
     2
 72
     2
 73
     1
 90
        2
 40
-0.6
 41
30.0
 62
     5
 63
     7
 74
     1
 91
        4
 64
     7
 65
   257
 75
     1
175
     1
 42
1.0
 92
        0
 66
   257
 43
1.0
 76
     1
 77
     6
 78
     2
 67
     7
 79
     5
170
     0
171
     0
290
     0
174
     0
 93
       13
 44
0.0
173
     0
291
     1
 45
0.0
1001
ACAD
1000
AcDbSavedByObjectVersion
1070
     0
1000
AcDbSavedByObjectVersion
1070
     0
1000
AcDbSavedByObjectVersion
1070
     0
1000
AcDbSavedByObjectVersion
1070
     0
1000
AcDbSavedByObjectVersion
1070
     0
1000
AcDbSavedByObjectVersion
1070
     0
1000
AcDbSavedByObjectVersion
1070
     0
1000
AcDbSavedByObjectVersion
1070
     0
  0
VISUALSTYLE
  5
FD
102
{ACAD_REACTORS
330
EF
102
}
330
EF
100
AcDbVisualStyle
  2
Linepattern
 70
    14
 71
     2
 72
     2
 73
     1
 90
        0
 40
-0.6
 41
-30.0
 62
     5
 63
     7
 74
     1
 91
        4
 64
     7
 65
   257
 75
     7
175
     7
 42
1.0
 92
        8
 66
     7
 43
1.0
 76
     1
 77
     6
 78
     2
 67
     7
 79
     5
170
     0
171
     0
290
     0
174
     0
 93
        1
 44
0.0
173
     0
291
     1
 45
0.0
1001
ACAD
1000
AcDbSavedByObjectVersion
1070
     0
1000
AcDbSavedByObjectVersion
1070
     0
1000
AcDbSavedByObjectVersion
1070
     0
1000
AcDbSavedByObjectVersion
1070
     0
1000
AcDbSavedByObjectVersion
1070
     0
1000
AcDbSavedByObjectVersion
1070
     0
1000
AcDbSavedByObjectVersion
1070
     0
1000
AcDbSavedByObjectVersion
1070
     0
  0
VISUALSTYLE
  5
F9
102
{ACAD_REACTORS
330
EF
102
}
330
EF
100
AcDbVisualStyle
  2
Realistic
 70
     8
 71
     2
 72
     2
 73
     1
 90
        0
 40
-0.6
 41
-30.0
 62
     5
 63
     7
 74
     1
 91
        0
 64
     7
 65
   257
 75
     1
175
     1
 42
1.0
 92
        8
 66
     8
 43
1.0
 76
     1
 77
     6
 78
     2
 67
     7
 79
     5
170
     0
171
     0
290
     0
174
     0
 93
       13
 44
0.0
173
     0
291
     0
 45
0.0
1001
ACAD
1000
AcDbSavedByObjectVersion
1070
     0
1000
AcDbSavedByObjectVersion
1070
     0
1000
AcDbSavedByObjectVersion
1070
     0
1000
AcDbSavedByObjectVersion
1070
     0
1000
AcDbSavedByObjectVersion
1070
     0
1000
AcDbSavedByObjectVersion
1070
     0
1000
AcDbSavedByObjectVersion
1070
     0
1000
AcDbSavedByObjectVersion
1070
     0
  0
VISUALSTYLE
  5
FC
102
{ACAD_REACTORS
330
EF
102
}
330
EF
100
AcDbVisualStyle
  2
Thicken
 70
    13
 71
     2
 72
     2
 73
     1
 90
        0
 40
-0.6
 41
-30.0
 62
     5
 63
     7
 74
     1
 91
        4
 64
     7
 65
   257
 75
     1
175
     1
 42
1.0
 92
       12
 66
     7
 43
1.0
 76
     1
 77
     6
 78
     2
 67
     7
 79
     5
170
     0
171
     0
290
     0
174
     0
 93
        1
 44
0.0
173
     0
291
     1
 45
0.0
1001
ACAD
1000
AcDbSavedByObjectVersion
1070
     0
1000
AcDbSavedByObjectVersion
1070
     0
1000
AcDbSavedByObjectVersion
1070
     0
1000
AcDbSavedByObjectVersion
1070
     0
1000
AcDbSavedByObjectVersion
1070
     0
1000
AcDbSavedByObjectVersion
1070
     0
1000
AcDbSavedByObjectVersion
1070
     0
1000
AcDbSavedByObjectVersion
1070
     0
  0
DICTIONARYVAR
  5
84
102
{ACAD_REACTORS
330
5E
102
}
330
5E
100
DictionaryVariables
280
     0
  1
STANDARD
  0
DICTIONARYVAR
  5
5F
102
{ACAD_REACTORS
330
5E
102
}
330
5E
100
DictionaryVariables
280
     0
  1
2
  0
DICTIONARYVAR
  5
63
102
{ACAD_REACTORS
330
5E
102
}
330
5E
100
DictionaryVariables
280
     0
  1
1
  0
DICTIONARYVAR
  5
327
102
{ACAD_REACTORS
330
5E
102
}
330
5E
100
DictionaryVariables
280
     0
  1
0
  0
DICTIONARYVAR
  5
1FBB
102
{ACAD_REACTORS
330
5E
102
}
330
5E
100
DictionaryVariables
280
     0
  1
1.570796
  0
DICTIONARYVAR
  5
1FBC
102
{ACAD_REACTORS
330
5E
102
}
330
5E
100
DictionaryVariables
280
     0
  1
1.570796
  0
DICTIONARYVAR
  5
1FBA
102
{ACAD_REACTORS
330
5E
102
}
330
5E
100
DictionaryVariables
280
     0
  1
80.000000
  0
DICTIONARYVAR
  5
1FB9
102
{ACAD_REACTORS
330
5E
102
}
330
5E
100
DictionaryVariables
280
     0
  1
5.000000
  0
DICTIONARYVAR
  5
326
102
{ACAD_REACTORS
330
5E
102
}
330
5E
100
DictionaryVariables
280
     0
  1
127
  0
DICTIONARY
  5
1FFD
330
D3
100
AcDbDictionary
280
     1
281
     1
  3
ACAD_XREC_ROUNDTRIP
360
1FFE
  0
DICTIONARY
  5
1FFF
330
D7
100
AcDbDictionary
280
     1
281
     1
  3
ACAD_XREC_ROUNDTRIP
360
2000
  0
DICTIONARY
  5
1FF9
330
22
100
AcDbDictionary
280
     1
281
     1
  3
ACAD_XREC_ROUNDTRIP
360
1FFA
  0
DICTIONARY
  5
335
330
ED
100
AcDbDictionary
280
     1
281
     1
  3
ACAD_XREC_ROUNDTRIP
360
336
  0
DICTIONARY
  5
333
330
EC
100
AcDbDictionary
280
     1
281
     1
  3
ACAD_XREC_ROUNDTRIP
360
334
  0
DICTIONARY
  5
337
330
EE
100
AcDbDictionary
280
     1
281
     1
  3
ACAD_XREC_ROUNDTRIP
360
338
  0
DICTIONARY
  5
1FFB
330
7F
100
AcDbDictionary
280
     1
281
     1
  3
ACAD_XREC_ROUNDTRIP
360
1FFC
  0
XRECORD
  5
1FFE
102
{ACAD_REACTORS
330
1FFD
102
}
330
1FFD
100
AcDbXrecord
280
     1
102
SHADEPLOT
 70
     0
102
SHADEPLOTRESLEVEL
 70
     2
102
SHADEPLOTCUSTOMDPI
 70
   300
  0
XRECORD
  5
2000
102
{ACAD_REACTORS
330
1FFF
102
}
330
1FFF
100
AcDbXrecord
280
     1
102
SHADEPLOT
 70
     0
102
SHADEPLOTRESLEVEL
 70
     2
102
SHADEPLOTCUSTOMDPI
 70
   300
  0
XRECORD
  5
1FFA
102
{ACAD_REACTORS
330
1FF9
102
}
330
1FF9
100
AcDbXrecord
280
     1
102
SHADEPLOT
 70
     0
102
SHADEPLOTRESLEVEL
 70
     2
102
SHADEPLOTCUSTOMDPI
 70
   300
  0
XRECORD
  5
336
102
{ACAD_REACTORS
330
335
102
}
330
335
100
AcDbXrecord
280
     1
102
MATERIAL
148
0.0
149
0.0
149
0.0
 93
        0
 94
       63
282
     0
 72
     1
 77
     1
171
     1
175
     1
179
     1
273
     0
  0
XRECORD
  5
334
102
{ACAD_REACTORS
330
333
102
}
330
333
100
AcDbXrecord
280
     1
102
MATERIAL
148
0.0
149
0.0
149
0.0
 93
        0
 94
       63
282
     0
 72
     1
 77
     1
171
     1
175
     1
179
     1
273
     0
  0
XRECORD
  5
338
102
{ACAD_REACTORS
330
337
102
}
330
337
100
AcDbXrecord
280
     1
102
MATERIAL
148
0.0
149
0.0
149
0.0
 93
        0
 94
       63
282
     0
 72
     1
 77
     1
171
     1
175
     1
179
     1
273
     0
  0
XRECORD
  5
1FFC
102
{ACAD_REACTORS
330
1FFB
102
}
330
1FFB
100
AcDbXrecord
280
     1
102
ACAD_ROUNDTRIP_PRE2007_TABLESTYLE
 90
      512
 91
        0
  1

 92
      512
 93
        0
  2

 94
      512
 95
        0
  3

  0
ENDSEC
  0
EOF
