  0
SECTION
  2
HEADER
  9
$ACADVER
  1
AC1015
  9
$ACADMAINTVER
 70
    20
  9
$DWGCODEPAGE
  3
ANSI_1252
  9
$INSBASE
 10
0.0
 20
0.0
 30
0.0
  9
$EXTMIN
 10
177.1121799080701
 20
-25.12823943919552
 30
-0.0000000000002567
  9
$EXTMAX
 10
1973.787223846165
 20
2408.99933736742
 30
0.0000000000002486
  9
$LIMMIN
 10
0.0
 20
0.0
  9
$LIMMAX
 10
420.0
 20
297.0
  9
$ORTHOMODE
 70
     0
  9
$REGENMODE
 70
     1
  9
$FILLMODE
 70
     1
  9
$QTEXTMODE
 70
     0
  9
$MIRRTEXT
 70
     0
  9
$LTSCALE
 40
1.0
  9
$ATTMODE
 70
     1
  9
$TEXTSIZE
 40
2.5
  9
$TRACEWID
 40
1.0
  9
$TEXTSTYLE
  7
Standard
  9
$CLAYER
  8
0
  9
$CELTYPE
  6
ByLayer
  9
$CECOLOR
 62
   256
  9
$CELTSCALE
 40
1.0
  9
$DISPSILH
 70
     0
  9
$DIMSCALE
 40
1.0
  9
$DIMASZ
 40
2.5
  9
$DIMEXO
 40
0.625
  9
$DIMDLI
 40
3.75
  9
$DIMRND
 40
0.0
  9
$DIMDLE
 40
0.0
  9
$DIMEXE
 40
1.25
  9
$DIMTP
 40
0.0
  9
$DIMTM
 40
0.0
  9
$DIMTXT
 40
2.5
  9
$DIMCEN
 40
2.5
  9
$DIMTSZ
 40
0.0
  9
$DIMTOL
 70
     0
  9
$DIMLIM
 70
     0
  9
$DIMTIH
 70
     0
  9
$DIMTOH
 70
     0
  9
$DIMSE1
 70
     0
  9
$DIMSE2
 70
     0
  9
$DIMTAD
 70
     1
  9
$DIMZIN
 70
     8
  9
$DIMBLK
  1

  9
$DIMASO
 70
     1
  9
$DIMSHO
 70
     1
  9
$DIMPOST
  1

  9
$DIMAPOST
  1

  9
$DIMALT
 70
     0
  9
$DIMALTD
 70
     3
  9
$DIMALTF
 40
0.03937007874016
  9
$DIMLFAC
 40
1.0
  9
$DIMTOFL
 70
     1
  9
$DIMTVP
 40
0.0
  9
$DIMTIX
 70
     0
  9
$DIMSOXD
 70
     0
  9
$DIMSAH
 70
     0
  9
$DIMBLK1
  1

  9
$DIMBLK2
  1

  9
$DIMSTYLE
  2
ISO-25
  9
$DIMCLRD
 70
     0
  9
$DIMCLRE
 70
     0
  9
$DIMCLRT
 70
     0
  9
$DIMTFAC
 40
1.0
  9
$DIMGAP
 40
0.625
  9
$DIMJUST
 70
     0
  9
$DIMSD1
 70
     0
  9
$DIMSD2
 70
     0
  9
$DIMTOLJ
 70
     0
  9
$DIMTZIN
 70
     8
  9
$DIMALTZ
 70
     0
  9
$DIMALTTZ
 70
     0
  9
$DIMUPT
 70
     0
  9
$DIMDEC
 70
     2
  9
$DIMTDEC
 70
     2
  9
$DIMALTU
 70
     2
  9
$DIMALTTD
 70
     3
  9
$DIMTXSTY
  7
Standard
  9
$DIMAUNIT
 70
     0
  9
$DIMADEC
 70
     0
  9
$DIMALTRND
 40
0.0
  9
$DIMAZIN
 70
     0
  9
$DIMDSEP
 70
    44
  9
$DIMATFIT
 70
     3
  9
$DIMFRAC
 70
     0
  9
$DIMLDRBLK
  1

  9
$DIMLUNIT
 70
     2
  9
$DIMLWD
 70
    -2
  9
$DIMLWE
 70
    -2
  9
$DIMTMOVE
 70
     0
  9
$LUNITS
 70
     2
  9
$LUPREC
 70
     4
  9
$SKETCHINC
 40
1.0
  9
$FILLETRAD
 40
0.0
  9
$AUNITS
 70
     0
  9
$AUPREC
 70
     0
  9
$MENU
  1
.
  9
$ELEVATION
 40
0.0
  9
$PELEVATION
 40
0.0
  9
$THICKNESS
 40
0.0
  9
$LIMCHECK
 70
     0
  9
$CHAMFERA
 40
0.0
  9
$CHAMFERB
 40
0.0
  9
$CHAMFERC
 40
0.0
  9
$CHAMFERD
 40
0.0
  9
$SKPOLY
 70
     0
  9
$TDCREATE
 40
2454768.552548658
  9
$TDUCREATE
 40
2454768.469215324
  9
$TDUPDATE
 40
2457302.648943577
  9
$TDUUPDATE
 40
2457302.565610243
  9
$TDINDWG
 40
0.1101499884
  9
$TDUSRTIMER
 40
0.1101478125
  9
$USRTIMER
 70
     1
  9
$ANGBASE
 50
0.0
  9
$ANGDIR
 70
     0
  9
$PDMODE
 70
     0
  9
$PDSIZE
 40
0.0
  9
$PLINEWID
 40
0.0
  9
$SPLFRAME
 70
     0
  9
$SPLINETYPE
 70
     6
  9
$SPLINESEGS
 70
     8
  9
$HANDSEED
  5
1A1F
  9
$SURFTAB1
 70
     6
  9
$SURFTAB2
 70
     6
  9
$SURFTYPE
 70
     6
  9
$SURFU
 70
     6
  9
$SURFV
 70
     6
  9
$UCSBASE
  2

  9
$UCSNAME
  2

  9
$UCSORG
 10
0.0
 20
0.0
 30
0.0
  9
$UCSXDIR
 10
1.0
 20
0.0
 30
0.0
  9
$UCSYDIR
 10
0.0
 20
1.0
 30
0.0
  9
$UCSORTHOREF
  2

  9
$UCSORTHOVIEW
 70
     0
  9
$UCSORGTOP
 10
0.0
 20
0.0
 30
0.0
  9
$UCSORGBOTTOM
 10
0.0
 20
0.0
 30
0.0
  9
$UCSORGLEFT
 10
0.0
 20
0.0
 30
0.0
  9
$UCSORGRIGHT
 10
0.0
 20
0.0
 30
0.0
  9
$UCSORGFRONT
 10
0.0
 20
0.0
 30
0.0
  9
$UCSORGBACK
 10
0.0
 20
0.0
 30
0.0
  9
$PUCSBASE
  2

  9
$PUCSNAME
  2

  9
$PUCSORG
 10
0.0
 20
0.0
 30
0.0
  9
$PUCSXDIR
 10
1.0
 20
0.0
 30
0.0
  9
$PUCSYDIR
 10
0.0
 20
1.0
 30
0.0
  9
$PUCSORTHOREF
  2

  9
$PUCSORTHOVIEW
 70
     0
  9
$PUCSORGTOP
 10
0.0
 20
0.0
 30
0.0
  9
$PUCSORGBOTTOM
 10
0.0
 20
0.0
 30
0.0
  9
$PUCSORGLEFT
 10
0.0
 20
0.0
 30
0.0
  9
$PUCSORGRIGHT
 10
0.0
 20
0.0
 30
0.0
  9
$PUCSORGFRONT
 10
0.0
 20
0.0
 30
0.0
  9
$PUCSORGBACK
 10
0.0
 20
0.0
 30
0.0
  9
$USERI1
 70
     0
  9
$USERI2
 70
     0
  9
$USERI3
 70
     0
  9
$USERI4
 70
     0
  9
$USERI5
 70
     0
  9
$USERR1
 40
0.0
  9
$USERR2
 40
0.0
  9
$USERR3
 40
0.0
  9
$USERR4
 40
0.0
  9
$USERR5
 40
0.0
  9
$WORLDVIEW
 70
     1
  9
$SHADEDGE
 70
     3
  9
$SHADEDIF
 70
    70
  9
$TILEMODE
 70
     1
  9
$MAXACTVP
 70
    64
  9
$PINSBASE
 10
0.0
 20
0.0
 30
0.0
  9
$PLIMCHECK
 70
     0
  9
$PEXTMIN
 10
0.0
 20
0.0
 30
0.0
  9
$PEXTMAX
 10
0.0
 20
0.0
 30
0.0
  9
$PLIMMIN
 10
0.0
 20
0.0
  9
$PLIMMAX
 10
12.0
 20
9.0
  9
$UNITMODE
 70
     0
  9
$VISRETAIN
 70
     1
  9
$PLINEGEN
 70
     0
  9
$PSLTSCALE
 70
     1
  9
$TREEDEPTH
 70
  3020
  9
$CMLSTYLE
  2
Standard
  9
$CMLJUST
 70
     0
  9
$CMLSCALE
 40
20.0
  9
$PROXYGRAPHICS
 70
     1
  9
$MEASUREMENT
 70
     1
  9
$CELWEIGHT
370
    -1
  9
$ENDCAPS
280
     0
  9
$JOINSTYLE
280
     0
  9
$LWDISPLAY
290
     0
  9
$INSUNITS
 70
     4
  9
$HYPERLINKBASE
  1

  9
$STYLESHEET
  1

  9
$XEDIT
290
     1
  9
$CEPSNTYPE
380
     0
  9
$PSTYLEMODE
290
     1
  9
$FINGERPRINTGUID
  2
{A9F5D530-972F-4813-857A-78B9B08CAD27}
  9
$VERSIONGUID
  2
{F99EAF82-36DC-4595-A529-9B1153248432}
  9
$EXTNAMES
290
     1
  9
$PSVPSCALE
 40
0.0
  9
$OLESTARTUP
290
     0
  0
ENDSEC
  0
SECTION
  2
CLASSES
  0
CLASS
  1
ACDBDICTIONARYWDFLT
  2
AcDbDictionaryWithDefault
  3
ObjectDBX Classes
 90
        0
280
     0
281
     0
  0
CLASS
  1
DICTIONARYVAR
  2
AcDbDictionaryVar
  3
ObjectDBX Classes
 90
        0
280
     0
281
     0
  0
CLASS
  1
TABLESTYLE
  2
AcDbTableStyle
  3
ObjectDBX Classes
 90
     4095
280
     0
281
     0
  0
CLASS
  1
MATERIAL
  2
AcDbMaterial
  3
ObjectDBX Classes
 90
     1153
280
     0
281
     0
  0
CLASS
  1
VISUALSTYLE
  2
AcDbVisualStyle
  3
ObjectDBX Classes
 90
     4095
280
     0
281
     0
  0
CLASS
  1
SORTENTSTABLE
  2
AcDbSortentsTable
  3
ObjectDBX Classes
 90
        0
280
     0
281
     0
  0
CLASS
  1
DIMASSOC
  2
AcDbDimAssoc
  3
"AcDbDimAssoc|Product Desc:     AcDim ARX App For Dimension|Company:          Autodesk, Inc.|WEB Address:      www.autodesk.com"
 90
        0
280
     0
281
     0
  0
CLASS
  1
ACDBPLACEHOLDER
  2
AcDbPlaceHolder
  3
ObjectDBX Classes
 90
        0
280
     0
281
     0
  0
CLASS
  1
LAYOUT
  2
AcDbLayout
  3
ObjectDBX Classes
 90
        0
280
     0
281
     0
  0
CLASS
  1
SCALE
  2
AcDbScale
  3
ObjectDBX Classes
 90
     1153
280
     0
281
     0
  0
CLASS
  1
MLEADERSTYLE
  2
AcDbMLeaderStyle
  3
ACDB_MLEADERSTYLE_CLASS
 90
     4095
280
     0
281
     0
  0
CLASS
  1
ACDBSECTIONVIEWSTYLE
  2
AcDbSectionViewStyle
  3
ObjectDBX Classes
 90
     1025
280
     0
281
     0
  0
CLASS
  1
ACDBDETAILVIEWSTYLE
  2
AcDbDetailViewStyle
  3
ObjectDBX Classes
 90
     1025
280
     0
281
     0
  0
CLASS
  1
CELLSTYLEMAP
  2
AcDbCellStyleMap
  3
ObjectDBX Classes
 90
     1152
280
     0
281
     0
  0
ENDSEC
  0
SECTION
  2
TABLES
  0
TABLE
  2
VPORT
  5
8
330
0
100
AcDbSymbolTable
 70
     1
  0
VPORT
  5
EA
330
8
100
AcDbSymbolTableRecord
100
AcDbViewportTableRecord
  2
*Active
 70
     0
 10
0.0
 20
0.0
 11
1.0
 21
1.0
 12
1694.876843113055
 22
1205.410591664673
 13
0.0
 23
0.0
 14
10.0
 24
10.0
 15
10.0
 25
10.0
 16
0.0
 26
0.0
 36
1.0
 17
0.0
 27
0.0
 37
0.0
 40
3652.161505855715
 41
1.983850931677018
 42
50.0
 43
0.0
 44
0.0
 50
0.0
 51
0.0
 71
     0
 72
  1000
 73
     1
 74
     3
 75
     0
 76
     0
 77
     0
 78
     0
281
     0
 65
     1
110
0.0
120
0.0
130
0.0
111
1.0
121
0.0
131
0.0
112
0.0
122
1.0
132
0.0
 79
     0
146
0.0
1001
ACAD_NAV_VCDISPLAY
1070
     3
  0
ENDTAB
  0
TABLE
  2
LTYPE
  5
5
330
0
100
AcDbSymbolTable
 70
     1
  0
LTYPE
  5
14
330
5
100
AcDbSymbolTableRecord
100
AcDbLinetypeTableRecord
  2
ByBlock
 70
     0
  3

 72
    65
 73
     0
 40
0.0
  0
LTYPE
  5
15
330
5
100
AcDbSymbolTableRecord
100
AcDbLinetypeTableRecord
  2
ByLayer
 70
     0
  3

 72
    65
 73
     0
 40
0.0
  0
LTYPE
  5
16
330
5
100
AcDbSymbolTableRecord
100
AcDbLinetypeTableRecord
  2
Continuous
 70
     0
  3
Solid line
 72
    65
 73
     0
 40
0.0
  0
ENDTAB
  0
TABLE
  2
LAYER
  5
2
102
{ACAD_XDICTIONARY
360
141
102
}
330
0
100
AcDbSymbolTable
 70
     3
  0
LAYER
  5
10
102
{ACAD_XDICTIONARY
360
196D
102
}
330
2
100
AcDbSymbolTableRecord
100
AcDbLayerTableRecord
  2
0
 70
     0
 62
     7
  6
Continuous
370
    -3
390
F
  0
LAYER
  5
124
330
2
100
AcDbSymbolTableRecord
100
AcDbLayerTableRecord
  2
Defpoints
 70
     0
 62
     7
  6
Continuous
290
     0
370
    -3
390
F
  0
LAYER
  5
13E
102
{ACAD_XDICTIONARY
360
196F
102
}
330
2
100
AcDbSymbolTableRecord
100
AcDbLayerTableRecord
  2
Hewi
 70
     0
 62
     7
  6
Continuous
370
    -3
390
F
  0
ENDTAB
  0
TABLE
  2
STYLE
  5
3
330
0
100
AcDbSymbolTable
 70
     1
  0
STYLE
  5
11
330
3
100
AcDbSymbolTableRecord
100
AcDbTextStyleTableRecord
  2
Standard
 70
     0
 40
0.0
 41
1.0
 50
0.0
 71
     0
 42
2.5
  3
txt
  4

  0
ENDTAB
  0
TABLE
  2
VIEW
  5
6
330
0
100
AcDbSymbolTable
 70
     0
  0
ENDTAB
  0
TABLE
  2
UCS
  5
7
330
0
100
AcDbSymbolTable
 70
     0
  0
ENDTAB
  0
TABLE
  2
APPID
  5
9
330
0
100
AcDbSymbolTable
 70
     5
  0
APPID
  5
12
330
9
100
AcDbSymbolTableRecord
100
AcDbRegAppTableRecord
  2
ACAD
 70
     0
  0
APPID
  5
9E
330
9
100
AcDbSymbolTableRecord
100
AcDbRegAppTableRecord
  2
ACAD_PSEXT
 70
     0
  0
APPID
  5
212
330
9
100
AcDbSymbolTableRecord
100
AcDbRegAppTableRecord
  2
ACAD_EXEMPT_FROM_CAD_STANDARDS
 70
     0
  0
APPID
  5
1978
330
9
100
AcDbSymbolTableRecord
100
AcDbRegAppTableRecord
  2
ACAD_NAV_VCDISPLAY
 70
     0
  0
APPID
  5
19B8
330
9
100
AcDbSymbolTableRecord
100
AcDbRegAppTableRecord
  2
ACAD_MLEADERVER
 70
     0
  0
ENDTAB
  0
TABLE
  2
DIMSTYLE
  5
A
330
0
100
AcDbSymbolTable
 70
     2
100
AcDbDimStyleTable
 71
     1
340
27
  0
DIMSTYLE
105
27
330
A
100
AcDbSymbolTableRecord
100
AcDbDimStyleTableRecord
  2
ISO-25
 70
     0
 41
2.5
 42
0.625
 43
3.75
 44
1.25
 73
     0
 74
     0
 77
     1
 78
     8
140
2.5
141
2.5
143
0.03937007874016
147
0.625
171
     3
172
     1
271
     2
272
     2
274
     3
278
    44
283
     0
284
     8
340
11
  0
DIMSTYLE
105
254
330
A
100
AcDbSymbolTableRecord
100
AcDbDimStyleTableRecord
  2
Standard
 70
     0
340
11
  0
ENDTAB
  0
TABLE
  2
BLOCK_RECORD
  5
1
330
0
100
AcDbSymbolTable
 70
     2
  0
BLOCK_RECORD
  5
1F
102
{ACAD_XDICTIONARY
360
116
102
}
330
1
100
AcDbSymbolTableRecord
100
AcDbBlockTableRecord
  2
*Model_Space
340
22
  0
BLOCK_RECORD
  5
D2
330
1
100
AcDbSymbolTableRecord
100
AcDbBlockTableRecord
  2
*Paper_Space
340
D3
  0
BLOCK_RECORD
  5
D6
330
1
100
AcDbSymbolTableRecord
100
AcDbBlockTableRecord
  2
*Paper_Space0
340
D7
  0
BLOCK_RECORD
  5
19C7
330
1
100
AcDbSymbolTableRecord
100
AcDbBlockTableRecord
  2
*D1
340
0
  0
ENDTAB
  0
ENDSEC
  0
SECTION
  2
BLOCKS
  0
BLOCK
  5
20
330
1F
100
AcDbEntity
  8
0
100
AcDbBlockBegin
  2
*Model_Space
 70
     0
 10
0.0
 20
0.0
 30
0.0
  3
*Model_Space
  1

  0
ENDBLK
  5
21
330
1F
100
AcDbEntity
  8
0
100
AcDbBlockEnd
  0
BLOCK
  5
D4
330
D2
100
AcDbEntity
 67
     1
  8
0
100
AcDbBlockBegin
  2
*Paper_Space
 70
     0
 10
0.0
 20
0.0
 30
0.0
  3
*Paper_Space
  1

  0
ENDBLK
  5
D5
330
D2
100
AcDbEntity
 67
     1
  8
0
100
AcDbBlockEnd
  0
BLOCK
  5
D8
330
D6
100
AcDbEntity
 67
     1
  8
0
100
AcDbBlockBegin
  2
*Paper_Space0
 70
     0
 10
0.0
 20
0.0
 30
0.0
  3
*Paper_Space0
  1

  0
ENDBLK
  5
D9
330
D6
100
AcDbEntity
 67
     1
  8
0
100
AcDbBlockEnd
  0
BLOCK
  5
19C8
330
19C7
100
AcDbEntity
  8
0
100
AcDbBlockBegin
  2
*D1
 70
     1
 10
0.0
 20
0.0
 30
0.0
  3
*D1
  1

  0
LINE
  5
19D4
330
19C7
100
AcDbEntity
  8
0
 62
     0
370
    -2
100
AcDbLine
 10
1301.083223602508
 20
2404.842609187309
 30
0.0
 11
979.5206623875495
 21
2404.842609187309
 31
0.0
  0
LINE
  5
19D5
330
19C7
100
AcDbEntity
  8
0
 62
     0
370
    -2
100
AcDbLine
 10
1211.711994244903
 20
1158.99933736742
 30
0.0
 11
979.5206623875492
 21
1158.99933736742
 31
0.0
  0
LINE
  5
19D6
330
19C7
100
AcDbEntity
  8
0
 62
     0
370
    -2
100
AcDbLine
 10
980.7706623875494
 20
2402.342609187309
 30
0.0
 11
980.7706623875491
 21
1161.49933736742
 31
0.0
  0
SOLID
  5
19D7
330
19C7
100
AcDbEntity
  8
0
 62
     0
100
AcDbTrace
 10
980.3539957208828
 20
2402.342609187309
 30
0.0
 11
981.1873290542161
 21
2402.342609187309
 31
0.0
 12
980.7706623875494
 22
2404.842609187309
 32
0.0
 13
980.7706623875494
 23
2404.842609187309
 33
0.0
  0
SOLID
  5
19D8
330
19C7
100
AcDbEntity
  8
0
 62
     0
100
AcDbTrace
 10
980.3539957208824
 20
1161.49933736742
 30
0.0
 11
981.1873290542157
 21
1161.49933736742
 31
0.0
 12
980.7706623875491
 22
1158.99933736742
 32
0.0
 13
980.7706623875491
 23
1158.99933736742
 33
0.0
  0
MTEXT
  5
19D9
330
19C7
100
AcDbEntity
  8
0
 62
     0
100
AcDbMText
 10
978.6873290542157
 20
1781.920973277365
 30
0.0
 40
2.5
 41
0.0
 71
     5
 72
     1
  1
1245,84
 11
0.0000000000000001
 21
1.0
 31
0.0
 73
     1
 44
1.0
1001
ACAD
1000
MTEXTBEGIN
1070
    73
1070
     1
1070
    44
1040
1.0
1070
    74
1070
     0
1000
MTEXTEND
  0
POINT
  5
19DA
330
19C7
100
AcDbEntity
  8
Defpoints
 62
     0
100
AcDbPoint
 10
1301.708223602508
 20
2404.842609187309
 30
0.0
  0
POINT
  5
19DB
330
19C7
100
AcDbEntity
  8
Defpoints
 62
     0
100
AcDbPoint
 10
1212.336994244903
 20
1158.99933736742
 30
0.0
  0
POINT
  5
19DC
330
19C7
100
AcDbEntity
  8
Defpoints
 62
     0
100
AcDbPoint
 10
980.7706623875491
 20
1158.99933736742
 30
0.0
  0
ENDBLK
  5
19C9
330
19C7
100
AcDbEntity
  8
0
100
AcDbBlockEnd
  0
ENDSEC
  0
SECTION
  2
ENTITIES
  0
LINE
  5
10AD
330
1F
100
AcDbEntity
  8
Hewi
100
AcDbLine
 10
817.5583611205791
 20
679.8809022756987
 30
0.0
 11
817.5583611205791
 21
723.8715358962592
 31
0.0
  0
LINE
  5
10AE
330
1F
100
AcDbEntity
  8
Hewi
100
AcDbLine
 10
799.5583611205792
 20
723.8714881205894
 30
0.0
 11
799.5583611205792
 21
679.8724104004004
 31
0.0
  0
LINE
  5
10B3
330
1F
100
AcDbEntity
  8
Hewi
100
AcDbLine
 10
262.7583611205782
 20
646.871760560804
 30
0.0
 11
874.5602637715341
 21
646.871760560804
 31
0.0
  0
LINE
  5
10B5
330
1F
100
AcDbEntity
  8
Hewi
100
AcDbLine
 10
799.555975897877
 20
679.871760560804
 30
0.0
 11
256.6886616118515
 21
679.871760560804
 31
0.0
  0
LINE
  5
10B6
330
1F
100
AcDbEntity
  8
Hewi
100
AcDbLine
 10
874.5602637715341
 20
679.871760560804
 30
0.0
 11
817.3851216498286
 21
679.871760560804
 31
0.0
  0
LINE
  5
10BB
330
1F
100
AcDbEntity
  8
Hewi
100
AcDbLine
 10
848.5583611205791
 20
725.8717605608043
 30
0.0
 11
848.5583611205791
 21
736.8717605608044
 31
0.0
  0
LINE
  5
10BC
330
1F
100
AcDbEntity
  8
Hewi
100
AcDbLine
 10
768.5583611205792
 20
736.8717605608044
 30
0.0
 11
768.5583611205792
 21
725.8717605608043
 31
0.0
  0
LINE
  5
10C1
330
1F
100
AcDbEntity
  8
Hewi
100
AcDbLine
 10
875.060263771534
 20
647.3717605608042
 30
0.0
 11
875.060263771534
 21
679.3717605608041
 31
0.0
  0
LINE
  5
10CB
330
1F
100
AcDbEntity
  8
Hewi
100
AcDbLine
 10
875.0583611205792
 20
663.371760560804
 30
0.0
 11
875.0583611205792
 21
679.371758633156
 31
0.0
  0
LINE
  5
10CC
330
1F
100
AcDbEntity
  8
Hewi
100
AcDbLine
 10
875.0583611205792
 20
663.371760560804
 30
0.0
 11
875.0583611205792
 21
679.3717605608041
 31
0.0
  0
LINE
  5
10CE
330
1F
100
AcDbEntity
  8
Hewi
100
AcDbLine
 10
770.5583611205792
 20
723.8717605608043
 30
0.0
 11
846.5583611205794
 21
723.8717605608043
 31
0.0
  0
LINE
  5
10CF
330
1F
100
AcDbEntity
  8
Hewi
100
AcDbLine
 10
768.5583611205792
 20
736.8717605608044
 30
0.0
 11
848.5583611205791
 21
736.8717605608044
 31
0.0
  0
LINE
  5
1129
330
1F
100
AcDbEntity
  8
Hewi
100
AcDbLine
 10
941.1926144211747
 20
1142.499337367421
 30
-0.0000000000000102
 11
957.1025169978666
 21
1142.499337367421
 31
0.0000000000000085
  0
LINE
  5
112A
330
1F
100
AcDbEntity
  8
Hewi
100
AcDbLine
 10
957.1025169978666
 20
1175.49933736742
 30
0.0000000000000105
 11
941.1926144211747
 21
1175.49933736742
 31
-0.0000000000000081
  0
LINE
  5
112B
330
1F
100
AcDbEntity
  8
Hewi
100
AcDbLine
 10
996.389521457705
 20
1118.99933736742
 30
-0.0000000000000038
 11
997.5583611205792
 21
1118.99933736742
 31
-0.0000000000000024
  0
LINE
  5
112C
330
1F
100
AcDbEntity
  8
Hewi
100
AcDbLine
 10
986.5583611205792
 20
1118.99933736742
 30
-0.0000000000000154
 11
990.7039252324311
 21
1118.99933736742
 31
-0.0000000000000105
  0
LINE
  5
112D
330
1F
100
AcDbEntity
  8
Hewi
100
AcDbLine
 10
997.5583611205792
 20
1198.99933736742
 30
0.0000000000000025
 11
986.5583611205792
 21
1198.99933736742
 31
-0.0000000000000105
  0
LINE
  5
112E
330
1F
100
AcDbEntity
  8
Hewi
100
AcDbLine
 10
967.2348193003701
 20
1149.99933736742
 30
-0.0000000000000126
 11
984.5576487126956
 21
1149.99933736742
 31
-0.0000000000000119
  0
LINE
  5
112F
330
1F
100
AcDbEntity
  8
Hewi
100
AcDbLine
 10
984.557602840533
 20
1167.99933736742
 30
-0.0000000000000107
 11
967.2343192890684
 21
1167.99933736742
 31
-0.0000000000000113
  0
LINE
  5
1130
330
1F
100
AcDbEntity
  8
Hewi
100
AcDbLine
 10
924.0583611205792
 20
1142.499337367421
 30
-0.0000000000000019
 11
941.1926144211747
 21
1142.499337367421
 31
-0.0000000000000102
  0
LINE
  5
1131
330
1F
100
AcDbEntity
  8
Hewi
100
AcDbLine
 10
941.1926144211747
 20
1175.49933736742
 30
-0.0000000000000081
 11
924.0583611205792
 21
1175.49933736742
 31
0.0000000000000002
  0
LINE
  5
1133
330
1F
100
AcDbEntity
  8
Hewi
100
AcDbLine
 10
984.5583611205793
 20
1196.999337367421
 30
-0.0000000000000129
 11
984.5583611205793
 21
1120.99933736742
 31
-0.0000000000000176
  0
LINE
  5
1134
330
1F
100
AcDbEntity
  8
Hewi
100
AcDbLine
 10
997.5583611205792
 20
1198.99933736742
 30
0.0000000000000025
 11
997.5583611205792
 21
1118.99933736742
 31
-0.0000000000000024
  0
LINE
  5
1135
330
1F
100
AcDbEntity
  8
Hewi
100
AcDbLine
 10
994.9315355819701
 20
1119.031122053317
 30
-0.0000000000000055
 11
994.9315355819701
 21
1118.985905853185
 31
-0.0000000000000055
  0
LINE
  5
1136
330
1F
100
AcDbEntity
  8
Hewi
100
AcDbLine
 10
993.3307346152568
 20
1118.971748997441
 30
-0.0000000000000073
 11
993.3307346152568
 21
1119.045286819802
 31
-0.0000000000000073
  0
ARC
  5
113A
330
1F
100
AcDbEntity
  8
Hewi
100
AcDbCircle
 10
875.5583611205791
 20
647.3717605608042
 30
0.0
 40
0.5
100
AcDbArc
 50
183.5349391366616
 51
270.0
  0
ARC
  5
113B
330
1F
100
AcDbEntity
  8
Hewi
100
AcDbCircle
 10
875.5583611205791
 20
679.3717605608041
 30
0.0
 40
0.5
100
AcDbArc
 50
90.0
 51
176.4650608633384
  0
ARC
  5
1140
330
1F
100
AcDbEntity
  8
Hewi
100
AcDbCircle
 10
846.5583611205794
 20
725.8717605608043
 30
0.0
 40
2.0
100
AcDbArc
 50
270.0
 51
0.0
  0
ARC
  5
1141
330
1F
100
AcDbEntity
  8
Hewi
100
AcDbCircle
 10
770.5583611205792
 20
725.8717605608043
 30
0.0
 40
2.0
100
AcDbArc
 50
180.0
 51
270.0
  0
ARC
  5
1152
330
1F
100
AcDbEntity
  8
Hewi
100
AcDbCircle
 10
874.5602637715341
 20
679.3717605608041
 30
0.0
 40
0.5
100
AcDbArc
 50
3.53493913666162
 51
90.0
  0
ARC
  5
1153
330
1F
100
AcDbEntity
  8
Hewi
100
AcDbCircle
 10
874.5602637715341
 20
647.3717605608042
 30
0.0
 40
0.5
100
AcDbArc
 50
270.0
 51
356.4650608633384
  0
ARC
  5
116A
330
1F
100
AcDbEntity
  8
Hewi
100
AcDbCircle
 10
986.5583611205792
 20
1120.99933736742
 30
-0.0000000000001858
 40
2.0
100
AcDbArc
 50
180.0
 51
270.0
  0
ARC
  5
116B
330
1F
100
AcDbEntity
  8
Hewi
100
AcDbCircle
 10
986.5583611205792
 20
1196.999337367421
 30
-0.0000000000001811
 40
2.0
100
AcDbArc
 50
90.0
 51
180.0
  0
ARC
  5
116C
330
1F
100
AcDbEntity
  8
Hewi
100
AcDbCircle
 10
-924.0583611205792
 20
1158.99933736742
 30
0.0000000000002567
 40
16.5
210
0.0
220
0.0
230
-1.0
100
AcDbArc
 50
269.9999978889112
 51
0.0
  0
ARC
  5
116D
330
1F
100
AcDbEntity
  8
Hewi
100
AcDbCircle
 10
-924.0583611205792
 20
1158.99933736742
 30
0.0000000000002567
 40
16.5
210
0.0
220
0.0
230
-1.0
100
AcDbArc
 50
0.0
 51
90.00000211108874
  0
ARC
  5
116E
330
1F
100
AcDbEntity
  8
Hewi
100
AcDbCircle
 10
924.0583611205792
 20
1158.99933736742
 30
-0.0000000000002567
 40
16.5
100
AcDbArc
 50
90.0
 51
270.0000042213437
  0
ELLIPSE
  5
1176
330
1F
100
AcDbEntity
  8
Hewi
100
AcDbEllipse
 10
941.1926144211747
 20
1158.99933736742
 30
-0.0000000000000091
 11
0.0000000000000051
 21
16.5
 31
0.0
210
0.0
220
0.0
230
1.0
 40
0.7071067811865485
 41
0.0
 42
3.141592818617966
  0
ELLIPSE
  5
1178
330
1F
100
AcDbEntity
  8
Hewi
100
AcDbEllipse
 10
958.2967202219723
 20
1158.99933736742
 30
0.0000000000000109
 11
-0.0000000000000047
 21
-15.46314323411495
 31
0.0
210
0.0
220
0.0
230
1.0
 40
0.7071067811865487
 41
0.0
 42
6.283185307179584
  0
ELLIPSE
  5
1179
330
1F
100
AcDbEntity
  8
Hewi
100
AcDbEllipse
 10
957.4560703884626
 20
1158.99933736742
 30
0.0000000000000099
 11
-0.0000000000000051
 21
-16.5
 31
0.0
210
0.0
220
0.0
230
1.0
 40
0.7071067811865485
 41
2.064124468782268
 42
6.283185307179584
  0
ELLIPSE
  5
117A
330
1F
100
AcDbEntity
  8
Hewi
100
AcDbEllipse
 10
957.4560703884626
 20
1158.99933736742
 30
0.0000000000000099
 11
-0.0000000000000051
 21
-16.5
 31
0.0
210
0.0
220
0.0
230
1.0
 40
0.7071067811865485
 41
0.0
 42
1.077566468341812
  0
ELLIPSE
  5
117B
330
1F
100
AcDbEntity
  8
Hewi
100
AcDbEllipse
 10
993.5583611205792
 20
1119.008501825212
 30
-0.0000000000000072
 11
-1.73205
 21
0.0000000000000005
 31
0.0
210
0.0
220
0.0
230
1.0
 40
0.0214049152598428
 41
1.438993963386085
 42
2.48619232215254
  0
ELLIPSE
  5
117C
330
1F
100
AcDbEntity
  8
Hewi
100
AcDbEllipse
 10
993.5583611205792
 20
1119.008501825212
 30
-0.0000000000000072
 11
-1.73205
 21
0.0000000000000005
 31
0.0
210
0.0
220
0.0
230
1.0
 40
0.0214049152598428
 41
0.3917972197591568
 42
1.438993963386085
  0
ELLIPSE
  5
117D
330
1F
100
AcDbEntity
  8
Hewi
100
AcDbEllipse
 10
993.5583611205792
 20
1119.008501825212
 30
-0.0000000000000072
 11
-1.73205
 21
0.0000000000000005
 31
0.0
210
0.0
220
0.0
230
1.0
 40
0.0214049152598428
 41
2.48619232215254
 42
3.533389873349126
  0
ELLIPSE
  5
117E
330
1F
100
AcDbEntity
  8
Hewi
100
AcDbEllipse
 10
993.5583611205792
 20
1119.008501825212
 30
-0.0000000000000072
 11
-1.73205
 21
0.0000000000000005
 31
0.0
210
0.0
220
0.0
230
1.0
 40
0.0214049152598428
 41
5.627783360602743
 42
6.674982526938742
  0
ELLIPSE
  5
117F
330
1F
100
AcDbEntity
  8
Hewi
100
AcDbEllipse
 10
993.5583611205792
 20
1119.008501825212
 30
-0.0000000000000072
 11
-1.73205
 21
0.0000000000000005
 31
0.0
210
0.0
220
0.0
230
1.0
 40
0.0214049152598428
 41
4.580585809406063
 42
5.627783360602743
  0
ELLIPSE
  5
1180
330
1F
100
AcDbEntity
  8
Hewi
100
AcDbEllipse
 10
993.5583611205792
 20
1119.008501825212
 30
-0.0000000000000072
 11
-1.73205
 21
0.0000000000000005
 31
0.0
210
0.0
220
0.0
230
1.0
 40
0.0214049152598428
 41
3.533389873349126
 42
4.580585809406063
  0
ELLIPSE
  5
1181
330
1F
100
AcDbEntity
  8
Hewi
100
AcDbEllipse
 10
993.5583611205792
 20
1119.008501825212
 30
-0.0000000000000072
 11
2.386549999999999
 21
-0.0000000000000007
 31
0.0
210
0.0
220
0.0
230
1.0
 40
0.0214049152598428
 41
0.0
 42
4.003566860976062
  0
ELLIPSE
  5
1182
330
1F
100
AcDbEntity
  8
Hewi
100
AcDbEllipse
 10
993.5583611205792
 20
1119.008501825212
 30
-0.0000000000000072
 11
2.386549999999999
 21
-0.0000000000000007
 31
0.0
210
0.0
220
0.0
230
1.0
 40
0.0214049152598428
 41
5.424254108285664
 42
6.283185307179584
  0
SPLINE
  5
1184
330
1F
100
AcDbEntity
  8
Hewi
100
AcDbSpline
210
0.0
220
0.0
230
1.0
 70
     8
 71
     3
 72
    14
 73
    10
 74
     0
 42
0.0000000001
 43
0.0000000001
 40
0.0
 40
0.0
 40
0.0
 40
0.0
 40
0.2432394719143855
 40
0.2432394719143855
 40
0.495492981276257
 40
0.495492981276257
 40
0.7477464906381287
 40
0.7477464906381287
 40
1.0
 40
1.0
 40
1.0
 40
1.0
 10
799.5585403064169
 20
679.8714930202631
 30
0.0
 10
799.5588747420979
 20
679.8696753422782
 30
0.0
 10
800.4991503843909
 20
679.3221817728707
 30
0.0
 10
803.6214037995078
 20
678.0323479775042
 30
0.0
 10
805.9070248241177
 20
677.3389292814909
 30
0.0
 10
810.7171692249384
 20
677.3208520396082
 30
0.0
 10
813.086906233074
 20
678.0100309307536
 30
0.0
 10
816.4330822429029
 20
679.3256583725969
 30
0.0
 10
817.5042985363823
 20
679.9001248554787
 30
0.0
 10
817.5562991175819
 20
679.8705369456812
 30
0.0
  0
SPLINE
  5
1185
330
1F
100
AcDbEntity
  8
Hewi
100
AcDbSpline
210
0.0000000000000005
220
-0.0000000000000504
230
1.0
 70
     8
 71
     3
 72
    10
 73
     6
 74
     0
 42
0.0000000001
 43
0.0000000001
 40
0.0
 40
0.0
 40
0.0
 40
0.0
 40
0.5130136982945209
 40
0.5130136982945209
 40
1.0
 40
1.0
 40
1.0
 40
1.0
 10
990.5583611205791
 20
1119.008525469469
 30
-0.0000000000000107
 10
990.5583611205791
 20
1119.001325896619
 30
-0.0000000000000107
 10
990.6161597017336
 20
1118.998496001904
 30
-0.0000000000000106
 10
990.8320693614653
 20
1119.000581995466
 30
-0.0000000000000104
 10
990.9876785581719
 20
1119.005082796253
 30
-0.0000000000000102
 10
991.1819495650552
 20
1119.011230097514
 30
-0.0000000000000099
  0
SPLINE
  5
1186
330
1F
100
AcDbEntity
  8
Hewi
100
AcDbSpline
210
0.0000000000000041
220
0.0000000000002372
230
1.0
 70
     8
 71
     3
 72
    10
 73
     6
 74
     0
 42
0.0000000001
 43
0.0000000001
 40
0.0
 40
0.0
 40
0.0
 40
0.0
 40
0.3759328105490644
 40
0.3759328105490644
 40
1.0
 40
1.0
 40
1.0
 40
1.0
 10
995.9490274903357
 20
1119.01078821004
 30
-0.0000000000000044
 10
996.0717103751219
 20
1119.006918690573
 30
-0.0000000000000042
 10
996.1783545428907
 20
1119.003716457458
 30
-0.0000000000000041
 10
996.4098398834458
 20
1118.998418967529
 30
-0.0000000000000038
 10
996.5042086543679
 20
1118.998435566214
 30
-0.0000000000000036
 10
996.5406239371652
 20
1119.002855405195
 30
-0.0000000000000036
  0
SPLINE
  5
1187
330
1F
100
AcDbEntity
  8
Hewi
100
AcDbSpline
210
0.0
220
0.0
230
1.0
 70
     8
 71
     3
 72
    26
 73
    22
 74
     0
 42
0.0000000001
 43
0.0000000001
 40
0.0
 40
0.0
 40
0.0
 40
0.0
 40
0.073159940695037
 40
0.073159940695037
 40
0.1802262366768989
 40
0.1802262366768989
 40
0.2875004008189412
 40
0.2875004008189412
 40
0.3949963102065395
 40
0.3949963102065395
 40
0.5023814222194566
 40
0.5023814222194566
 40
0.6094947467966168
 40
0.6094947467966168
 40
0.7166000794715944
 40
0.7166000794715944
 40
0.8239728600702298
 40
0.8239728600702298
 40
0.9314719416040363
 40
0.9314719416040363
 40
1.0
 40
1.0
 40
1.0
 40
1.0
 10
996.5581312079583
 20
1119.008459156392
 30
-0.0000000000000036
 10
996.5582299225923
 20
1119.013392151666
 30
-0.0000000000000036
 10
996.5320526775604
 20
1119.020296686356
 30
-0.0000000000000036
 10
996.4041977225706
 20
1119.041384869049
 30
-0.0000000000000038
 10
996.2710766537773
 20
1119.057759086585
 30
-0.0000000000000039
 10
995.912224660903
 20
1119.092612275939
 30
-0.0000000000000044
 10
995.6813793757019
 20
1119.111487181128
 30
-0.0000000000000046
 10
995.154679659404
 20
1119.144922935082
 30
-0.0000000000000053
 10
994.8514016798426
 20
1119.159840087928
 30
-0.0000000000000057
 10
994.2160267126157
 20
1119.180040629026
 30
-0.0000000000000064
 10
993.87517341478
 20
1119.185549318759
 30
-0.0000000000000068
 10
993.2043241422936
 20
1119.185138350554
 30
-0.0000000000000076
 10
992.8650693048684
 20
1119.179243732227
 30
-0.000000000000008
 10
992.2342300469308
 20
1119.158478186304
 30
-0.0000000000000087
 10
991.9339613619223
 20
1119.143387225193
 30
-0.0000000000000091
 10
991.4124101443148
 20
1119.109759029537
 30
-0.0000000000000096
 10
991.184123535887
 20
1119.090845938959
 30
-0.0000000000000099
 10
990.8306293154153
 20
1119.056066009636
 30
-0.0000000000000104
 10
990.7006627108192
 20
1119.039810314991
 30
-0.0000000000000105
 10
990.5819960854705
 20
1119.019573788971
 30
-0.0000000000000107
 10
990.5583611205791
 20
1119.013128320524
 30
-0.0000000000000107
 10
990.5583611205791
 20
1119.008525469469
 30
-0.0000000000000107
  0
LINE
  5
1338
330
1F
100
AcDbEntity
  8
Hewi
  6
Continuous
100
AcDbLine
 10
1269.338210758953
 20
2403.176637573448
 30
0.0
 11
1269.33815491067
 21
2364.708325458042
 31
0.0
  0
LINE
  5
1339
330
1F
100
AcDbEntity
  8
Hewi
  6
Continuous
100
AcDbLine
 10
1269.338346572733
 20
2400.002252589415
 30
0.0
 11
1269.337896499776
 21
2089.991876379091
 31
0.0
  0
LINE
  5
133A
330
1F
100
AcDbEntity
  8
Hewi
  6
Continuous
100
AcDbLine
 10
1269.337742609012
 20
2380.714830835667
 30
0.0
 11
1269.337719374095
 21
2364.710613806949
 31
0.0
  0
LINE
  5
133B
330
1F
100
AcDbEntity
  8
Hewi
  6
Continuous
100
AcDbLine
 10
1269.337911031471
 20
2400.001312688428
 30
0.0
 11
1269.337460959878
 21
2089.991876379091
 31
0.0
  0
LINE
  5
133C
330
1F
100
AcDbEntity
  8
Hewi
  6
Continuous
100
AcDbLine
 10
1269.338178887427
 20
1983.991876379112
 30
0.0
 11
1269.336981163542
 21
1158.99933736742
 31
0.0
  0
LINE
  5
133E
330
1F
100
AcDbEntity
  8
Hewi
  6
Continuous
100
AcDbLine
 10
1302.336994244903
 20
1158.99933736742
 30
0.0
 11
1302.336994244903
 21
1983.991876379112
 31
0.0
  0
LINE
  5
133F
330
1F
100
AcDbEntity
  8
Hewi
  6
Continuous
100
AcDbLine
 10
1302.336994244903
 20
2089.991876379091
 30
0.0
 11
1302.336994244903
 21
2283.991876379112
 31
0.0
  0
LINE
  5
1340
330
1F
100
AcDbEntity
  8
Hewi
  6
Continuous
100
AcDbLine
 10
1302.336994244903
 20
2089.991876379091
 30
0.0
 11
1302.336994244903
 21
2403.787290741998
 31
0.0
  0
LINE
  5
1341
330
1F
100
AcDbEntity
  8
Hewi
  6
Continuous
100
AcDbLine
 10
1269.336500374409
 20
1167.99933736742
 30
0.0
 11
1225.337223484993
 21
1167.99933736742
 31
0.0
  0
LINE
  5
1342
330
1F
100
AcDbEntity
  8
Hewi
  6
Continuous
100
AcDbLine
 10
1225.337545816886
 20
1149.99933736742
 30
0.0
 11
1272.007677558964
 21
1149.99933736742
 31
0.0
  0
LINE
  5
1343
330
1F
100
AcDbEntity
  8
Hewi
  6
Continuous
100
AcDbLine
 10
1223.336994244903
 20
2395.722291823975
 30
0.0
 11
1212.336994244903
 21
2395.722291823975
 31
0.0
  0
LINE
  5
1344
330
1F
100
AcDbEntity
  8
Hewi
  6
Continuous
100
AcDbLine
 10
1212.336994244903
 20
2315.722291823975
 30
0.0
 11
1223.336994244903
 21
2315.722291823975
 31
0.0
  0
LINE
  5
1345
330
1F
100
AcDbEntity
  8
Hewi
  6
Continuous
100
AcDbLine
 10
1269.330642946542
 20
2364.722291823975
 30
0.0
 11
1225.337424571871
 21
2364.722291823975
 31
0.0
  0
LINE
  5
1346
330
1F
100
AcDbEntity
  8
Hewi
  6
Continuous
100
AcDbLine
 10
1225.337367493948
 20
2346.722291823975
 30
0.0
 11
1269.336970166359
 21
2346.722291823975
 31
0.0
  0
LINE
  5
1347
330
1F
100
AcDbEntity
  8
Hewi
  6
Continuous
100
AcDbLine
 10
1223.336994244903
 20
1198.99933736742
 30
0.0
 11
1212.336994244903
 21
1198.99933736742
 31
0.0
  0
LINE
  5
1348
330
1F
100
AcDbEntity
  8
Hewi
  6
Continuous
100
AcDbLine
 10
1212.336994244903
 20
1118.99933736742
 30
0.0
 11
1223.336994244903
 21
1118.99933736742
 31
0.0
  0
LINE
  5
134B
330
1F
100
AcDbEntity
  8
Hewi
  6
Continuous
100
AcDbLine
 10
1269.336994244903
 20
2403.787290741998
 30
0.0
 11
1269.336994244903
 21
2403.676637573448
 31
0.0
  0
LINE
  5
134C
330
1F
100
AcDbEntity
  8
Hewi
  6
Continuous
100
AcDbLine
 10
1302.336994244903
 20
2403.676637573448
 30
0.0
 11
1302.336994244903
 21
2403.787290741998
 31
0.0
  0
LINE
  5
134D
330
1F
100
AcDbEntity
  8
Hewi
  6
Continuous
100
AcDbLine
 10
1285.836994244903
 20
2403.176637573448
 30
0.0
 11
1269.336994244903
 21
2403.176637573448
 31
0.0
  0
LINE
  5
134E
330
1F
100
AcDbEntity
  8
Hewi
  6
Continuous
100
AcDbLine
 10
1302.336994244903
 20
2403.176637573448
 30
0.0
 11
1285.836994244903
 21
2403.176637573448
 31
0.0
  0
LINE
  5
1350
330
1F
100
AcDbEntity
  8
Hewi
  6
Continuous
100
AcDbLine
 10
1225.336994244903
 20
2317.722291823975
 30
0.0
 11
1225.336994244903
 21
2393.722291823976
 31
0.0
  0
LINE
  5
1351
330
1F
100
AcDbEntity
  8
Hewi
  6
Continuous
100
AcDbLine
 10
1212.336994244903
 20
2315.722291823975
 30
0.0
 11
1212.336994244903
 21
2395.722291823975
 31
0.0
  0
LINE
  5
1352
330
1F
100
AcDbEntity
  8
Hewi
  6
Continuous
100
AcDbLine
 10
1212.336994244903
 20
1118.99933736742
 30
0.0
 11
1212.336994244903
 21
1198.99933736742
 31
0.0
  0
LINE
  5
1353
330
1F
100
AcDbEntity
  8
Hewi
  6
Continuous
100
AcDbLine
 10
1225.336994244903
 20
1120.99933736742
 30
0.0
 11
1225.336994244903
 21
1196.999337367421
 31
0.0
  0
LINE
  5
1355
330
1F
100
AcDbEntity
  8
Hewi
  6
Continuous
100
AcDbLine
 10
1302.336994244903
 20
2403.676637573448
 30
0.0
 11
1269.336994244903
 21
2403.676637573448
 31
0.0
  0
LINE
  5
1356
330
1F
100
AcDbEntity
  8
Hewi
100
AcDbLine
 10
219.0583611205802
 20
2406.809990535968
 30
-0.0000000000000016
 11
219.0583611205802
 21
2093.906241711492
 31
-0.0000000000000016
  0
LINE
  5
1357
330
1F
100
AcDbEntity
  8
Hewi
100
AcDbLine
 10
219.0583611205802
 20
2285.906219167165
 30
-0.0000000000000016
 11
219.0583611205802
 21
2093.906241711492
 31
-0.0000000000000016
  0
LINE
  5
1358
330
1F
100
AcDbEntity
  8
Hewi
100
AcDbLine
 10
219.0583611205802
 20
1985.906219167164
 30
-0.0000000000000016
 11
219.0583611205793
 21
1207.49933736742
 31
0.0000000000000059
  0
LINE
  5
1359
330
1F
100
AcDbEntity
  8
Hewi
100
AcDbLine
 10
252.0583611205793
 20
1207.49933736742
 30
0.0000000000000059
 11
252.0583611205802
 21
1985.906219167164
 31
0.0000000000000015
  0
LINE
  5
135A
330
1F
100
AcDbEntity
  8
Hewi
100
AcDbLine
 10
252.0583611205802
 20
2093.906241711492
 30
0.0000000000000016
 11
252.0583611205802
 21
2285.906219167165
 31
0.0000000000000015
  0
LINE
  5
135B
330
1F
100
AcDbEntity
  8
Hewi
100
AcDbLine
 10
252.0583611205802
 20
2093.906241711492
 30
0.0000000000000015
 11
252.0583611205802
 21
2406.809990535968
 31
0.0000000000000015
  0
LINE
  5
135C
330
1F
100
AcDbEntity
  8
Hewi
100
AcDbLine
 10
275.4876984750872
 20
2356.369074627929
 30
0.0000000000000003
 11
275.6003814142024
 21
2356.370836862142
 31
0.0000000000000003
  0
LINE
  5
135D
330
1F
100
AcDbEntity
  8
Hewi
100
AcDbLine
 10
275.506559646717
 20
2362.370103273625
 30
0.0000000000000003
 11
275.393901919072
 21
2362.368341433696
 31
0.0000000000000003
  0
LINE
  5
1362
330
1F
100
AcDbEntity
  8
Hewi
100
AcDbLine
 10
275.5161180061109
 20
2356.907168301213
 30
0.0000000000000003
 11
275.5907889203222
 21
2356.984211858839
 31
0.0000000000000003
  0
LINE
  5
1363
330
1F
100
AcDbEntity
  8
Hewi
100
AcDbLine
 10
275.5161521405962
 20
2361.756728276942
 30
0.0000000000000003
 11
275.4391085829702
 21
2361.831399191154
 31
0.0000000000000003
  0
LINE
  5
1366
330
1F
100
AcDbEntity
  8
Hewi
100
AcDbLine
 10
219.0583611205802
 20
2406.809990535968
 30
-0.0000000000000016
 11
219.0583611205802
 21
2406.699337367417
 31
-0.0000000000000016
  0
LINE
  5
1367
330
1F
100
AcDbEntity
  8
Hewi
100
AcDbLine
 10
252.0583611205802
 20
2406.699337367417
 30
0.0000000000000016
 11
252.0583611205802
 21
2406.809990535968
 31
0.0000000000000016
  0
LINE
  5
1368
330
1F
100
AcDbEntity
  8
Hewi
100
AcDbLine
 10
275.5907889203222
 20
2356.984211858839
 30
0.0000000000000003
 11
275.5148607048022
 21
2356.983024427083
 31
0.0000000000000003
  0
LINE
  5
1369
330
1F
100
AcDbEntity
  8
Hewi
100
AcDbLine
 10
275.5161521405962
 20
2361.756728276942
 30
0.0000000000000003
 11
275.4402239250771
 21
2361.7555408452
 31
0.0000000000000003
  0
LINE
  5
136D
330
1F
100
AcDbEntity
  8
Hewi
100
AcDbLine
 10
275.5161521405962
 20
2361.756728276942
 30
0.0000000000000003
 11
275.5907889203222
 21
2356.984211858839
 31
0.0000000000000003
  0
LINE
  5
136F
330
1F
100
AcDbEntity
  8
Hewi
100
AcDbLine
 10
252.0583611205802
 20
2406.699337367417
 30
0.0000000000000016
 11
219.0583611205802
 21
2406.699337367417
 31
-0.0000000000000016
  0
ARC
  5
1370
330
1F
100
AcDbEntity
  8
Hewi
  6
Continuous
100
AcDbCircle
 10
1301.836994244903
 20
2403.176637573448
 30
0.0
 40
0.5
100
AcDbArc
 50
0.0
 51
90.0
  0
ARC
  5
1371
330
1F
100
AcDbEntity
  8
Hewi
  6
Continuous
100
AcDbCircle
 10
1269.836994244903
 20
2403.176637573448
 30
0.0
 40
0.5
100
AcDbArc
 50
90.0
 51
180.0
  0
ARC
  5
1374
330
1F
100
AcDbEntity
  8
Hewi
  6
Continuous
100
AcDbCircle
 10
1223.336994244903
 20
2393.722291823976
 30
0.0
 40
2.0
100
AcDbArc
 50
0.0
 51
90.0
  0
ARC
  5
1375
330
1F
100
AcDbEntity
  8
Hewi
  6
Continuous
100
AcDbCircle
 10
1223.336994244903
 20
2317.722291823975
 30
0.0
 40
2.0
100
AcDbArc
 50
270.0
 51
0.0
  0
ARC
  5
1376
330
1F
100
AcDbEntity
  8
Hewi
  6
Continuous
100
AcDbCircle
 10
1223.336994244903
 20
1196.999337367421
 30
0.0
 40
2.0
100
AcDbArc
 50
0.0
 51
90.0
  0
ARC
  5
1377
330
1F
100
AcDbEntity
  8
Hewi
  6
Continuous
100
AcDbCircle
 10
1223.336994244903
 20
1120.99933736742
 30
0.0
 40
2.0
100
AcDbArc
 50
270.0
 51
0.0
  0
ARC
  5
137B
330
1F
100
AcDbEntity
  8
Hewi
  6
Continuous
100
AcDbCircle
 10
1301.136994244906
 20
2403.787290741998
 30
0.0
 40
1.199999999999999
100
AcDbArc
 50
0.0
 51
82.60044591067279
  0
ARC
  5
137C
330
1F
100
AcDbEntity
  8
Hewi
  6
Continuous
100
AcDbCircle
 10
1270.536994244914
 20
2403.787290741998
 30
0.0
 40
1.199999999999999
100
AcDbArc
 50
97.39955408932717
 51
180.0
  0
ARC
  5
137D
330
1F
100
AcDbEntity
  8
Hewi
  6
Continuous
100
AcDbCircle
 10
1285.836994244903
 20
2285.976637573452
 30
0.0
 40
120.0
100
AcDbArc
 50
82.60044591067279
 51
97.39955408932717
  0
ARC
  5
137E
330
1F
100
AcDbEntity
  8
Hewi
100
AcDbCircle
 10
251.5583611205793
 20
2406.199337367418
 30
0.0000000000000015
 40
0.5
100
AcDbArc
 50
0.0
 51
90.0
  0
ARC
  5
137F
330
1F
100
AcDbEntity
  8
Hewi
100
AcDbCircle
 10
219.5583611205802
 20
2406.199337367418
 30
-0.0000000000000015
 40
0.5
100
AcDbArc
 50
90.0
 51
180.0
  0
ARC
  5
1385
330
1F
100
AcDbEntity
  8
Hewi
100
AcDbCircle
 10
250.8583611205681
 20
2406.809990535968
 30
0.0000000000000015
 40
1.199999999999999
100
AcDbArc
 50
0.0
 51
82.60044591067254
  0
ARC
  5
1386
330
1F
100
AcDbEntity
  8
Hewi
100
AcDbCircle
 10
220.2583611205774
 20
2406.809990535968
 30
-0.0000000000000015
 40
1.199999999999999
100
AcDbArc
 50
97.39955408932742
 51
180.0
  0
ARC
  5
1387
330
1F
100
AcDbEntity
  8
Hewi
100
AcDbCircle
 10
235.5583611205793
 20
2288.99933736742
 30
0.0
 40
120.0
100
AcDbArc
 50
82.60044591067254
 51
97.39955408932742
  0
ARC
  5
1388
330
1F
100
AcDbEntity
  8
Hewi
100
AcDbCircle
 10
-235.5583611205793
 20
2358.744991617944
 30
0.0
 40
40.0
210
0.0
220
0.0
230
-1.0
100
AcDbArc
 50
359.9999987526901
 51
65.63812970700351
  0
ARC
  5
1389
330
1F
100
AcDbEntity
  8
Hewi
100
AcDbCircle
 10
-235.5583611205793
 20
2358.744991617944
 30
0.0
 40
40.0
210
0.0
220
0.0
230
-1.0
100
AcDbArc
 50
114.3675059093169
 51
245.6325091968119
  0
ARC
  5
138A
330
1F
100
AcDbEntity
  8
Hewi
100
AcDbCircle
 10
-235.5583611205793
 20
2358.744991617944
 30
0.0
 40
40.0
210
0.0
220
0.0
230
-1.0
100
AcDbArc
 50
294.3618821226967
 51
0.0000130767440115
  0
ARC
  5
138B
330
1F
100
AcDbEntity
  8
Hewi
100
AcDbCircle
 10
-235.5583611205792
 20
1273.99933736742
 30
0.0
 40
40.0
210
0.0
220
0.0
230
-1.0
100
AcDbArc
 50
359.9999931814835
 51
65.638124134932
  0
ARC
  5
138C
330
1F
100
AcDbEntity
  8
Hewi
100
AcDbCircle
 10
-235.5583611205792
 20
1273.99933736742
 30
0.0
 40
40.0
210
0.0
220
0.0
230
-1.0
100
AcDbArc
 50
114.3675003378845
 51
245.6325036253645
  0
ARC
  5
138D
330
1F
100
AcDbEntity
  8
Hewi
100
AcDbCircle
 10
-235.5583611205792
 20
1273.99933736742
 30
0.0
 40
40.0
210
0.0
220
0.0
230
-1.0
100
AcDbArc
 50
294.3618765515406
 51
0.0000075055374644
  0
SPLINE
  5
138F
330
1F
100
AcDbEntity
  8
Hewi
  6
Continuous
100
AcDbSpline
210
0.0
220
0.0
230
1.0
 70
     8
 71
     3
 72
    14
 73
    10
 74
     0
 42
0.0000000001
 43
0.0000000001
 40
0.0
 40
0.0
 40
0.0
 40
0.0
 40
0.2434469386710948
 40
0.2434469386710948
 40
0.4956312924473967
 40
0.4956312924473967
 40
0.7478156462236985
 40
0.7478156462236985
 40
1.0
 40
1.0
 40
1.0
 40
1.0
 10
1269.337257719087
 20
2346.72251786922
 30
0.0
 10
1269.337845092272
 20
2346.734173733686
 30
0.0
 10
1269.885859185463
 20
2347.687915724691
 30
0.0
 10
1271.176406828218
 20
2350.83082479412
 30
0.0
 10
1271.869825524232
 20
2353.12252069198
 30
0.0
 10
1271.887902766099
 20
2357.933344630819
 30
0.0
 10
1271.198723874969
 20
2360.29756536322
 30
0.0
 10
1269.883096433126
 20
2363.625330797327
 30
0.0
 10
1269.308629950244
 20
2364.683203387383
 30
0.0
 10
1269.338217860041
 20
2364.721191441207
 30
0.0
  0
LINE
  5
1390
330
1F
100
AcDbEntity
  8
Hewi
  6
Continuous
100
AcDbLine
 10
1269.330642946542
 20
2364.722291823975
 30
0.0
 11
1269.330642946542
 21
2403.176637573448
 31
0.0
  0
LINE
  5
1391
330
1F
100
AcDbEntity
  8
Hewi
100
AcDbLine
 10
211.2621799080689
 20
2053.906219167152
 30
0.0000000000000011
 11
202.7621799080689
 21
2053.906219167152
 31
0.0000000000000001
210
0.0
220
1.0
230
0.0
  0
LINE
  5
1392
330
1F
100
AcDbEntity
  8
Hewi
100
AcDbLine
 10
211.2621799080689
 20
2093.906219167152
 30
0.0000000000000011
 11
202.7621799080689
 21
2093.906219167152
 31
0.0000000000000001
210
0.0
220
1.0
230
0.0
  0
ARC
  5
1393
330
1F
100
AcDbEntity
  8
Hewi
100
AcDbCircle
 10
178.1121799080701
 20
2092.906219167165
 30
-0.000000000000003
 40
0.9999999999999998
100
AcDbArc
 50
90.0
 51
180.0
  0
ARC
  5
1394
330
1F
100
AcDbEntity
  8
Hewi
100
AcDbCircle
 10
178.1121799080701
 20
2054.906219167165
 30
-0.000000000000003
 40
0.9999999999999998
100
AcDbArc
 50
180.0
 51
270.0
  0
SPLINE
  5
1395
330
1F
100
AcDbEntity
  8
Hewi
100
AcDbSpline
210
-0.0000000000003131
220
0.0000000000002765
230
-1.0
 70
     8
 71
     3
 72
    10
 73
     6
 74
     0
 42
0.0000000001
 43
0.0000000001
 40
0.5238557413344813
 40
0.5238557413344813
 40
0.5238557413344813
 40
0.5238557413344813
 40
3.344927373450713
 40
3.344927373450713
 40
3.375545046730997
 40
3.375545046730997
 40
3.375545046730997
 40
3.375545046730997
 10
177.8821782366776
 20
2077.669700443952
 30
-0.000000000000003
 10
178.4802390866216
 20
2078.383857516955
 30
-0.0000000000000029
 10
179.0922875188007
 20
2079.080417313736
 30
-0.0000000000000028
 10
179.7205474546745
 20
2079.764269175971
 30
-0.0000000000000028
 10
179.7272941164783
 20
2079.771609244401
 30
-0.0000000000000028
 10
179.7340420097546
 20
2079.778947080569
 30
-0.0000000000000028
  0
SPLINE
  5
1396
330
1F
100
AcDbEntity
  8
Hewi
100
AcDbSpline
210
0.0000000000000033
220
-0.0000000000000055
230
1.0
 70
     8
 71
     3
 72
    18
 73
    14
 74
     0
 42
0.0000000001
 43
0.0000000001
 40
1.6540747858433
 40
1.6540747858433
 40
1.6540747858433
 40
1.6540747858433
 40
1.715582394495875
 40
1.715582394495875
 40
1.902970208297488
 40
1.902970208297488
 40
2.031734176382974
 40
2.031734176382974
 40
2.255265245202036
 40
2.255265245202036
 40
2.814065234951959
 40
2.814065234951959
 40
3.138692671095101
 40
3.138692671095101
 40
3.138692671095101
 40
3.138692671095101
 10
179.7340418350313
 20
2079.778947207008
 30
-0.0000000000000028
 10
179.7477134333276
 20
2079.793814008967
 30
-0.0000000000000028
 10
179.7615191509958
 20
2079.808462036174
 30
-0.0000000000000028
 10
179.8178467065618
 20
2079.866813330842
 30
-0.0000000000000028
 10
179.8613838390802
 20
2079.908702575814
 30
-0.0000000000000027
 10
179.9359784547805
 20
2079.975538756902
 30
-0.0000000000000027
 10
179.9667168688565
 20
2080.001719326326
 30
-0.0000000000000027
 10
180.0514766746219
 20
2080.07030724053
 30
-0.0000000000000027
 10
180.1060859173585
 20
2080.110568679559
 30
-0.0000000000000027
 10
180.2985807206696
 20
2080.238718325846
 30
-0.0000000000000027
 10
180.4285814748264
 20
2080.301226448745
 30
-0.0000000000000027
 10
180.6174805499859
 20
2080.358195060641
 30
-0.0000000000000027
 10
180.6973764139265
 20
2080.374459290925
 30
-0.0000000000000026
 10
180.7814316544836
 20
2080.374429084796
 30
-0.0000000000000026
  0
SPLINE
  5
1397
330
1F
100
AcDbEntity
  8
Hewi
100
AcDbSpline
210
0.0
220
0.0
230
1.0
 70
     8
 71
     3
 72
    24
 73
    20
 74
     0
 42
0.0000000001
 43
0.0000000001
 40
0.0
 40
0.0
 40
0.0
 40
0.0
 40
0.0756974007302869
 40
0.0756974007302869
 40
0.2789853411804089
 40
0.2789853411804089
 40
0.3497529015458669
 40
0.3497529015458669
 40
0.5919349001703657
 40
0.5919349001703657
 40
1.276514795648737
 40
1.276514795648737
 40
1.476316936862741
 40
1.476316936862741
 40
1.827563147716625
 40
1.827563147716625
 40
1.910592365237698
 40
1.910592365237698
 40
1.954297335670274
 40
1.954297335670274
 40
1.954297335670274
 40
1.954297335670274
 10
177.1121799080701
 20
2075.997979169205
 30
-0.0000000000000031
 10
177.1121799080701
 20
2076.019068685955
 30
-0.0000000000000031
 10
177.1129424417495
 20
2076.040240068071
 30
-0.0000000000000031
 10
177.1181377683588
 20
2076.118269064183
 30
-0.0000000000000031
 10
177.1265759267198
 20
2076.175849181748
 30
-0.0000000000000031
 10
177.1424737857305
 20
2076.254194141649
 30
-0.0000000000000031
 10
177.1469914391236
 20
2076.274486333565
 30
-0.0000000000000031
 10
177.1686285125634
 20
2076.364458447319
 30
-0.0000000000000031
 10
177.1897552129467
 20
2076.434841735564
 30
-0.0000000000000031
 10
177.2835291494275
 20
2076.705447227433
 30
-0.0000000000000031
 10
177.3806346901338
 20
2076.911305870932
 30
-0.0000000000000031
 10
177.5272188007184
 20
2077.166629860525
 30
-0.000000000000003
 10
177.5619472433572
 20
2077.223928449702
 30
-0.000000000000003
 10
177.6616497409768
 20
2077.379778259182
 30
-0.000000000000003
 10
177.7300475240345
 20
2077.477407333998
 30
-0.000000000000003
 10
177.8193992710165
 20
2077.592587321055
 30
-0.000000000000003
 10
177.8367224942511
 20
2077.614387364191
 30
-0.000000000000003
 10
177.8635101388116
 20
2077.647253972484
 30
-0.000000000000003
 10
177.8728128472539
 20
2077.658516538539
 30
-0.000000000000003
 10
177.8821784546208
 20
2077.669700186449
 30
-0.000000000000003
  0
SPLINE
  5
1398
330
1F
100
AcDbEntity
  8
Hewi
100
AcDbSpline
210
0.0000000000000002
220
-0.0000000000000004
230
1.0
 70
     8
 71
     3
 72
    20
 73
    16
 74
     0
 42
0.0000000001
 43
0.0000000001
 40
1.736023434719105
 40
1.736023434719105
 40
1.736023434719105
 40
1.736023434719105
 40
4.481724718716971
 40
4.481724718716971
 40
8.494256553288714
 40
8.494256553288714
 40
12.2302098530054
 40
12.2302098530054
 40
16.0190034065687
 40
16.0190034065687
 40
20.63191901924623
 40
20.63191901924623
 40
24.55726384241274
 40
24.55726384241274
 40
27.09366019960931
 40
27.09366019960931
 40
27.09366019960931
 40
27.09366019960931
 10
182.2373310692146
 20
2080.069693832297
 30
-0.0000000000000025
 10
182.9325041524589
 20
2079.501935948209
 30
-0.0000000000000024
 10
183.6913543925993
 20
2078.996910151849
 30
-0.0000000000000023
 10
185.6832241013662
 20
2077.98129778896
 30
-0.000000000000002
 10
186.9624100400133
 20
2077.583253358078
 30
-0.0000000000000019
 10
189.5375365571008
 20
2077.359089287988
 30
-0.0000000000000016
 10
190.7665198060222
 20
2077.500401429526
 30
-0.0000000000000014
 10
193.1595991593594
 20
2078.234049965551
 30
-0.0000000000000011
 10
194.2865197251794
 20
2078.821131593571
 30
-0.000000000000001
 10
196.531032627895
 20
2080.423625137731
 30
-0.0000000000000007
 10
197.6011530211671
 20
2081.508643807198
 30
-0.0000000000000006
 10
199.1530211819035
 20
2083.65002340342
 30
-0.0000000000000004
 10
199.6954815632434
 20
2084.681658936103
 30
-0.0000000000000003
 10
200.2427893857896
 20
2086.340474377952
 30
-0.0000000000000003
 10
200.365834231744
 20
2086.968934391602
 30
-0.0000000000000002
 10
200.3950663674022
 20
2087.561867216969
 30
-0.0000000000000002
  0
SPLINE
  5
1399
330
1F
100
AcDbEntity
  8
Hewi
100
AcDbSpline
210
0.0000000000000013
220
0.0000000000000038
230
1.0
 70
     8
 71
     3
 72
    18
 73
    14
 74
     0
 42
0.0000000001
 43
0.0000000001
 40
0.203900170074742
 40
0.203900170074742
 40
0.203900170074742
 40
0.203900170074742
 40
0.4140914887330024
 40
0.4140914887330024
 40
0.5531594004291947
 40
0.5531594004291947
 40
0.9342624836064976
 40
0.9342624836064976
 40
1.058715851533574
 40
1.058715851533574
 40
1.209079349970967
 40
1.209079349970967
 40
1.267392488679218
 40
1.267392488679218
 40
1.267392488679218
 40
1.267392488679218
 10
181.4339535161489
 20
2080.374513322088
 30
-0.0000000000000026
 10
181.4823320739979
 20
2080.37452055313
 30
-0.0000000000000025
 10
181.5282689337691
 20
2080.36896341199
 30
-0.0000000000000025
 10
181.5955308681941
 20
2080.357161052477
 30
-0.0000000000000025
 10
181.6224718372486
 20
2080.351275969943
 30
-0.0000000000000025
 10
181.7236744386064
 20
2080.325536918758
 30
-0.0000000000000025
 10
181.7991490135891
 20
2080.299206238809
 30
-0.0000000000000025
 10
181.901228745739
 20
2080.257108610526
 30
-0.0000000000000025
 10
181.9264867319771
 20
2080.246168072901
 30
-0.0000000000000025
 10
181.982517895246
 20
2080.220850800222
 30
-0.0000000000000025
 10
182.0133486068171
 20
2080.206231171074
 30
-0.0000000000000025
 10
182.0563309788995
 20
2080.184988384957
 30
-0.0000000000000025
 10
182.0683639920835
 20
2080.178948368112
 30
-0.0000000000000025
 10
182.0804165438094
 20
2080.172808757219
 30
-0.0000000000000025
  0
SPLINE
  5
139A
330
1F
100
AcDbEntity
  8
Hewi
100
AcDbSpline
210
0.0
220
0.0
230
1.0
 70
     8
 71
     3
 72
    24
 73
    20
 74
     0
 42
0.0000000001
 43
0.0000000001
 40
0.0
 40
0.0
 40
0.0
 40
0.0
 40
0.0069048149749769
 40
0.0069048149749769
 40
0.0247659649317762
 40
0.0247659649317762
 40
0.0545552763944881
 40
0.0545552763944881
 40
0.0643559091378874
 40
0.0643559091378874
 40
0.0859949234863203
 40
0.0859949234863203
 40
0.1473005450050084
 40
0.1473005450050084
 40
0.1844538307831443
 40
0.1844538307831443
 40
0.2059422517223871
 40
0.2059422517223871
 40
0.2061965395260138
 40
0.2061965395260138
 40
0.2061965395260138
 40
0.2061965395260138
 10
182.080416543793
 20
2080.172808757227
 30
-0.0000000000000025
 10
182.0823048674701
 20
2080.171846838716
 30
-0.0000000000000025
 10
182.0841886060561
 20
2080.170878208344
 30
-0.0000000000000025
 10
182.0909286190945
 20
2080.167380062331
 30
-0.0000000000000025
 10
182.0957588052541
 20
2080.164812565829
 30
-0.0000000000000025
 10
182.1085628807295
 20
2080.157845776715
 30
-0.0000000000000025
 10
182.1164816824684
 20
2080.15336840943
 30
-0.0000000000000025
 10
182.1268930207297
 20
2080.147259738447
 30
-0.0000000000000025
 10
182.1294611231969
 20
2080.145734674249
 30
-0.0000000000000025
 10
182.1376698744616
 20
2080.140801508083
 30
-0.0000000000000025
 10
182.143274420081
 20
2080.137344292864
 30
-0.0000000000000025
 10
182.1645869150124
 20
2080.123859042166
 30
-0.0000000000000025
 10
182.1799692502327
 20
2080.113411710839
 30
-0.0000000000000025
 10
182.2041287310958
 20
2080.095892207191
 30
-0.0000000000000025
 10
182.2131139630436
 20
2080.089116698907
 30
-0.0000000000000025
 10
182.2271021099077
 20
2080.078169345121
 30
-0.0000000000000025
 10
182.2321854777911
 20
2080.074105221116
 30
-0.0000000000000025
 10
182.23728790728
 20
2080.069940605131
 30
-0.0000000000000025
 10
182.237347575955
 20
2080.069891891511
 30
-0.0000000000000025
 10
182.2374072387946
 20
2080.069843170765
 30
-0.0000000000000025
  0
LINE
  5
139B
330
1F
100
AcDbEntity
  8
Hewi
100
AcDbLine
 10
202.6121799080702
 20
2091.306219167164
 30
0.0
 11
202.7621799080689
 21
2091.306219167164
 31
0.0000000000000001
210
0.0
220
1.0
230
0.0
  0
LINE
  5
139C
330
1F
100
AcDbEntity
  8
Hewi
100
AcDbLine
 10
202.6121799080702
 20
2056.506219167164
 30
0.0
 11
202.7621799080689
 21
2056.506219167164
 31
0.0000000000000001
210
0.0
220
1.0
230
0.0
  0
LINE
  5
139D
330
1F
100
AcDbEntity
  8
Hewi
100
AcDbLine
 10
181.4339938455541
 20
2080.374417702685
 30
-0.0000000000000026
 11
180.7814187236126
 21
2080.374417702685
 31
-0.0000000000000026
210
0.0
220
1.0
230
0.0
  0
LINE
  5
139E
330
1F
100
AcDbEntity
  8
Hewi
100
AcDbLine
 10
178.1121799080701
 20
2093.906219167164
 30
-0.000000000000003
 11
202.6121799080702
 21
2093.906219167164
 31
0.0
210
0.0
220
1.0
230
0.0
  0
LINE
  5
139F
330
1F
100
AcDbEntity
  8
Hewi
100
AcDbLine
 10
178.1121799080701
 20
2053.906219167165
 30
-0.000000000000003
 11
202.6121799080702
 21
2053.906219167165
 31
0.0
210
0.0
220
1.0
230
0.0
  0
LINE
  5
13A0
330
1F
100
AcDbEntity
  8
Hewi
100
AcDbLine
 10
202.7621799080689
 20
2093.906219167152
 30
0.0000000000000001
 11
202.7621799080689
 21
2073.906219167152
 31
0.0000000000000001
210
0.0
220
1.0
230
0.0
  0
LINE
  5
13A1
330
1F
100
AcDbEntity
  8
Hewi
100
AcDbLine
 10
202.7621799080689
 20
2073.906219167152
 30
0.0000000000000001
 11
202.7621799080689
 21
2053.906219167152
 31
0.0000000000000001
210
0.0
220
1.0
230
0.0
  0
LINE
  5
13A2
330
1F
100
AcDbEntity
  8
Hewi
100
AcDbLine
 10
202.6121799080702
 20
2093.906219167164
 30
0.0
 11
202.6121799080702
 21
2088.048354790895
 31
0.0
210
0.0
220
1.0
230
0.0
  0
LINE
  5
13A3
330
1F
100
AcDbEntity
  8
Hewi
100
AcDbLine
 10
202.6121799080702
 20
2088.048354790896
 30
0.0
 11
202.6121799080702
 21
2053.906219167165
 31
0.0
210
0.0
220
1.0
230
0.0
  0
LINE
  5
13A4
330
1F
100
AcDbEntity
  8
Hewi
100
AcDbLine
 10
177.1121799080701
 20
2075.997979169205
 30
-0.0000000000000031
 11
177.1121799080701
 21
2054.906219167165
 31
-0.0000000000000031
210
0.0
220
1.0
230
0.0
  0
LINE
  5
13A5
330
1F
100
AcDbEntity
  8
Hewi
100
AcDbLine
 10
177.1121799080701
 20
2092.790724458378
 30
-0.0000000000000031
 11
177.1121799080701
 21
2075.997979169205
 31
-0.0000000000000031
210
0.0
220
1.0
230
0.0
  0
LINE
  5
13A6
330
1F
100
AcDbEntity
  8
Hewi
100
AcDbLine
 10
177.1121799080701
 20
2092.906219167165
 30
-0.0000000000000031
 11
177.1121799080701
 21
2092.790724458378
 31
-0.0000000000000031
210
0.0
220
1.0
230
0.0
  0
SPLINE
  5
13A7
330
1F
100
AcDbEntity
  8
Hewi
100
AcDbSpline
210
0.0000000000000002
220
0.0
230
-1.0
 70
     8
 71
     3
 72
    35
 73
    31
 74
     0
 42
0.0000000001
 43
0.0000000001
 40
132.3072857087947
 40
132.3072857087947
 40
132.3072857087947
 40
132.3072857087947
 40
136.7855331456034
 40
136.7855331456034
 40
141.7555702341805
 40
141.7555702341805
 40
141.7555702341805
 40
150.5350853176014
 40
150.5350853176014
 40
159.3158069937373
 40
159.3158069937373
 40
168.101503115555
 40
168.101503115555
 40
176.8930034281827
 40
176.8930034281827
 40
185.6877688664844
 40
185.6877688664844
 40
194.4814480186283
 40
194.4814480186283
 40
203.2703476028081
 40
203.2703476028081
 40
212.0534605094508
 40
212.0534605094508
 40
220.8330910535008
 40
220.8330910535008
 40
229.6136189378029
 40
229.6136189378029
 40
238.398942885138
 40
238.398942885138
 40
241.1243396664151
 40
241.1243396664151
 40
241.1243396664151
 40
241.1243396664151
 10
220.4621799172092
 20
2025.37351252981
 30
0.0000000000000022
 10
219.3498807632295
 20
2024.381755229526
 30
0.0000000000000021
 10
218.3389423191193
 20
2023.281809103071
 30
0.000000000000002
 10
216.4519072382254
 20
2020.766787331286
 30
0.0000000000000017
 10
215.6088839935128
 20
2019.338464370134
 30
0.0000000000000016
 10
214.93087022087
 20
2017.830769480252
 30
0.0000000000000015
 10
213.7331664537578
 20
2015.167443273423
 30
0.0000000000000014
 10
213.0683324246474
 20
2012.296374198382
 30
0.0000000000000013
 10
212.8794285284612
 20
2006.461073187816
 30
0.0000000000000013
 10
213.3573285973234
 20
2003.552814247846
 30
0.0000000000000014
 10
215.40446185359
 20
1998.080969330289
 30
0.0000000000000016
 10
216.9546663993715
 20
1995.570077598746
 30
0.0000000000000018
 10
220.9340870018816
 20
1991.280774704665
 30
0.0000000000000023
 10
223.3257672161408
 20
1989.543923101006
 30
0.0000000000000026
 10
228.6429262208421
 20
1987.081920931073
 30
0.0000000000000032
 10
231.5178170704803
 20
1986.38065793499
 30
0.0000000000000036
 10
237.3747634791816
 20
1986.116818913938
 30
0.0000000000000043
 10
240.3009763294831
 20
1986.556617146271
 30
0.0000000000000047
 10
245.8179781245945
 20
1988.529733253756
 30
0.0000000000000053
 10
248.3563581584494
 20
1990.043650483814
 30
0.0000000000000056
 10
252.7068662830161
 20
1993.95552347576
 30
0.0000000000000062
 10
254.4779175957828
 20
1996.315540371742
 30
0.0000000000000064
 10
257.012822340349
 20
2001.578924495859
 30
0.0000000000000067
 10
257.7527960188781
 20
2004.431678477539
 30
0.0000000000000068
 10
258.0947916489467
 20
2010.260002299174
 30
0.0000000000000068
 10
257.6934149671643
 20
2013.179670110859
 30
0.0000000000000068
 10
255.790698451332
 20
2018.702907340282
 30
0.0000000000000066
 10
254.3070199817048
 20
2021.253308876888
 30
0.0000000000000064
 10
251.7756826953883
 20
2024.129326426055
 30
0.0000000000000061
 10
251.1367515271631
 20
2024.772042531659
 30
0.000000000000006
 10
250.4621762838196
 20
2025.373508471858
 30
0.0000000000000059
  0
ARC
  5
13A8
330
1F
100
AcDbEntity
  8
Hewi
100
AcDbCircle
 10
254.4621799080669
 20
1986.606219167164
 30
0.0000000000000064
 40
0.6999999999999319
100
AcDbArc
 50
270.0
 51
0.0
  0
ARC
  5
13A9
330
1F
100
AcDbEntity
  8
Hewi
100
AcDbCircle
 10
216.4621799080687
 20
1986.606219167164
 30
0.0000000000000017
 40
0.6999999999999319
100
AcDbArc
 50
180.0
 51
270.0
  0
ARC
  5
13AA
330
1F
100
AcDbEntity
  8
Hewi
100
AcDbCircle
 10
268.3121799080682
 20
2055.906219167165
 30
0.0000000000000081
 40
1.999999999999999
100
AcDbArc
 50
270.0
 51
0.0
  0
ARC
  5
13AB
330
1F
100
AcDbEntity
  8
Hewi
100
AcDbCircle
 10
268.3121799080691
 20
2091.906219167166
 30
0.0000000000000081
 40
1.999999999999999
100
AcDbArc
 50
0.0
 51
90.0
  0
LINE
  5
13AC
330
1F
100
AcDbEntity
  8
Hewi
100
AcDbLine
 10
252.9621799080687
 20
2053.906196622838
 30
0.0000000000000062
 11
250.4621799080687
 21
2053.906196622838
 31
0.0000000000000059
210
0.0
220
1.0
230
0.0
  0
LINE
  5
13AD
330
1F
100
AcDbEntity
  8
Hewi
100
AcDbLine
 10
220.4621799080687
 20
2053.906196622838
 30
0.0000000000000022
 11
217.9621799080687
 21
2053.906196622838
 31
0.0000000000000019
210
0.0
220
1.0
230
0.0
  0
LINE
  5
13AE
330
1F
100
AcDbEntity
  8
Hewi
100
AcDbLine
 10
252.9621799080687
 20
2093.906241711492
 30
0.0000000000000062
 11
217.9621799080687
 21
2093.906241711492
 31
0.0000000000000019
210
0.0
220
1.0
230
0.0
  0
LINE
  5
13AF
330
1F
100
AcDbEntity
  8
Hewi
100
AcDbLine
 10
259.4621799080687
 20
2053.906219167165
 30
0.000000000000007
 11
252.9621799080687
 21
2053.906219167165
 31
0.0000000000000062
210
0.0
220
1.0
230
0.0
  0
LINE
  5
13B0
330
1F
100
AcDbEntity
  8
Hewi
100
AcDbLine
 10
259.4621799080687
 20
2093.906219167164
 30
0.000000000000007
 11
252.9621799080687
 21
2093.906219167164
 31
0.0000000000000062
210
0.0
220
1.0
230
0.0
  0
LINE
  5
13B1
330
1F
100
AcDbEntity
  8
Hewi
100
AcDbLine
 10
217.9621799080687
 20
2053.906219167165
 30
0.0000000000000019
 11
211.4621799080687
 21
2053.906219167165
 31
0.0000000000000011
210
0.0
220
1.0
230
0.0
  0
LINE
  5
13B2
330
1F
100
AcDbEntity
  8
Hewi
100
AcDbLine
 10
217.9621799080687
 20
2093.906219167164
 30
0.0000000000000019
 11
211.4621799080687
 21
2093.906219167164
 31
0.0000000000000011
210
0.0
220
1.0
230
0.0
  0
LINE
  5
13B3
330
1F
100
AcDbEntity
  8
Hewi
100
AcDbLine
 10
215.762179908068
 20
2019.491607333723
 30
0.0000000000000016
 11
215.7621799080689
 21
2053.906219167165
 31
0.0000000000000016
210
0.0
220
1.0
230
0.0
  0
LINE
  5
13B4
330
1F
100
AcDbEntity
  8
Hewi
100
AcDbLine
 10
215.762179908068
 20
1986.606219167164
 30
0.0000000000000016
 11
215.762179908068
 21
1997.819325550588
 31
0.0000000000000016
210
0.0
220
1.0
230
0.0
  0
LINE
  5
13B5
330
1F
100
AcDbEntity
  8
Hewi
100
AcDbLine
 10
255.1621799080676
 20
2019.491607333725
 30
0.0000000000000065
 11
255.1621799080685
 21
2053.906219167165
 31
0.0000000000000065
210
0.0
220
1.0
230
0.0
  0
LINE
  5
13B6
330
1F
100
AcDbEntity
  8
Hewi
100
AcDbLine
 10
255.1621799080676
 20
1986.606219167164
 30
0.0000000000000065
 11
255.1621799080676
 21
1997.819325550585
 31
0.0000000000000065
210
0.0
220
1.0
230
0.0
  0
LINE
  5
13B7
330
1F
100
AcDbEntity
  8
Hewi
100
AcDbLine
 10
268.1621799080685
 20
2053.906219167152
 30
0.0000000000000081
 11
259.6621799080685
 21
2053.906219167152
 31
0.000000000000007
210
0.0
220
1.0
230
0.0
  0
LINE
  5
13B8
330
1F
100
AcDbEntity
  8
Hewi
100
AcDbLine
 10
268.1621799080685
 20
2093.906219167152
 30
0.0000000000000081
 11
259.6621799080685
 21
2093.906219167152
 31
0.000000000000007
210
0.0
220
1.0
230
0.0
  0
LINE
  5
13B9
330
1F
100
AcDbEntity
  8
Hewi
100
AcDbLine
 10
268.1621799080685
 20
2091.306219167164
 30
0.0000000000000081
 11
268.3121799080691
 21
2091.306219167164
 31
0.0000000000000081
210
0.0
220
1.0
230
0.0
  0
LINE
  5
13BA
330
1F
100
AcDbEntity
  8
Hewi
100
AcDbLine
 10
268.1621799080685
 20
2056.506219167164
 30
0.0000000000000081
 11
268.3121799080682
 21
2056.506219167164
 31
0.0000000000000081
210
0.0
220
1.0
230
0.0
  0
LINE
  5
13BB
330
1F
100
AcDbEntity
  8
Hewi
100
AcDbLine
 10
211.2621799080689
 20
2081.906219167165
 30
0.0000000000000011
 11
211.4621799080687
 21
2081.906219167165
 31
0.0000000000000011
210
0.0
220
1.0
230
0.0
  0
LINE
  5
13BC
330
1F
100
AcDbEntity
  8
Hewi
100
AcDbLine
 10
259.4621799080687
 20
2081.906219167165
 30
0.000000000000007
 11
259.6621799080685
 21
2081.906219167165
 31
0.000000000000007
210
0.0
220
1.0
230
0.0
  0
LINE
  5
13BD
330
1F
100
AcDbEntity
  8
Hewi
100
AcDbLine
 10
211.2621799080689
 20
2065.906219167166
 30
0.0000000000000011
 11
211.4621799080687
 21
2065.906219167166
 31
0.0000000000000011
210
0.0
220
1.0
230
0.0
  0
LINE
  5
13BE
330
1F
100
AcDbEntity
  8
Hewi
100
AcDbLine
 10
259.4621799080687
 20
2065.906219167166
 30
0.000000000000007
 11
259.6621799080685
 21
2065.906219167166
 31
0.000000000000007
210
0.0
220
1.0
230
0.0
  0
LINE
  5
13BF
330
1F
100
AcDbEntity
  8
Hewi
100
AcDbLine
 10
211.4621799080687
 20
2066.178812556852
 30
0.0000000000000011
 11
211.2621799080689
 21
2066.178812556852
 31
0.0000000000000011
210
0.0
220
1.0
230
0.0
  0
LINE
  5
13C0
330
1F
100
AcDbEntity
  8
Hewi
100
AcDbLine
 10
211.2621799080689
 20
2068.110664209431
 30
0.0000000000000011
 11
211.4621799080687
 21
2068.110664209431
 31
0.0000000000000011
210
0.0
220
1.0
230
0.0
  0
LINE
  5
13C1
330
1F
100
AcDbEntity
  8
Hewi
100
AcDbLine
 10
211.2621799080689
 20
2068.249364917673
 30
0.0000000000000011
 11
211.4621799080687
 21
2068.249364917673
 31
0.0000000000000011
210
0.0
220
1.0
230
0.0
  0
LINE
  5
13C2
330
1F
100
AcDbEntity
  8
Hewi
100
AcDbLine
 10
268.3121799080691
 20
2093.906219167164
 30
0.0000000000000081
 11
268.3121799080682
 21
2053.906219167165
 31
0.0000000000000081
210
0.0
220
1.0
230
0.0
  0
LINE
  5
13C3
330
1F
100
AcDbEntity
  8
Hewi
100
AcDbLine
 10
270.3121799080691
 20
2091.906219167166
 30
0.0000000000000083
 11
270.3121799080682
 21
2055.906219167165
 31
0.0000000000000083
210
0.0
220
1.0
230
0.0
  0
LINE
  5
13C4
330
1F
100
AcDbEntity
  8
Hewi
100
AcDbLine
 10
211.2621799080689
 20
2053.906219167152
 30
0.0000000000000011
 11
211.2621799080689
 21
2093.906219167152
 31
0.0000000000000011
210
0.0
220
1.0
230
0.0
  0
LINE
  5
13C5
330
1F
100
AcDbEntity
  8
Hewi
100
AcDbLine
 10
211.4621799080687
 20
2055.906219167165
 30
0.0000000000000011
 11
211.2621799080689
 21
2055.906219167165
 31
0.0000000000000011
210
0.0
220
1.0
230
0.0
  0
LINE
  5
13C6
330
1F
100
AcDbEntity
  8
Hewi
100
AcDbLine
 10
259.6621799080685
 20
2055.906219167165
 30
0.000000000000007
 11
259.4621799080687
 21
2055.906219167165
 31
0.000000000000007
210
0.0
220
1.0
230
0.0
  0
LINE
  5
13C7
330
1F
100
AcDbEntity
  8
Hewi
100
AcDbLine
 10
259.4621799080687
 20
2058.606219167165
 30
0.000000000000007
 11
259.6621799080676
 21
2058.606219167165
 31
0.000000000000007
210
0.0
220
1.0
230
0.0
  0
LINE
  5
13C8
330
1F
100
AcDbEntity
  8
Hewi
100
AcDbLine
 10
211.2621799080698
 20
2058.606219167165
 30
0.0000000000000011
 11
211.4621799080687
 21
2058.606219167165
 31
0.0000000000000011
210
0.0
220
1.0
230
0.0
  0
LINE
  5
13C9
330
1F
100
AcDbEntity
  8
Hewi
100
AcDbLine
 10
211.4621799080687
 20
2089.206219167142
 30
0.0000000000000011
 11
211.2621799080698
 21
2089.206219167142
 31
0.0000000000000011
210
0.0
220
1.0
230
0.0
  0
LINE
  5
13CA
330
1F
100
AcDbEntity
  8
Hewi
100
AcDbLine
 10
259.6621799080676
 20
2089.206219167142
 30
0.000000000000007
 11
259.4621799080687
 21
2089.206219167142
 31
0.000000000000007
210
0.0
220
1.0
230
0.0
  0
LINE
  5
13CB
330
1F
100
AcDbEntity
  8
Hewi
100
AcDbLine
 10
259.4621799080687
 20
2091.906219167142
 30
0.000000000000007
 11
259.6621799080685
 21
2091.906219167142
 31
0.000000000000007
210
0.0
220
1.0
230
0.0
  0
LINE
  5
13CC
330
1F
100
AcDbEntity
  8
Hewi
100
AcDbLine
 10
211.2621799080689
 20
2091.906219167142
 30
0.0000000000000011
 11
211.4621799080687
 21
2091.906219167142
 31
0.0000000000000011
210
0.0
220
1.0
230
0.0
  0
LINE
  5
13CD
330
1F
100
AcDbEntity
  8
Hewi
100
AcDbLine
 10
259.6621799080685
 20
2053.906219167152
 30
0.000000000000007
 11
259.6621799080685
 21
2093.906219167152
 31
0.000000000000007
210
0.0
220
1.0
230
0.0
  0
LINE
  5
13CE
330
1F
100
AcDbEntity
  8
Hewi
100
AcDbLine
 10
268.1621799080685
 20
2093.906219167152
 30
0.0000000000000081
 11
268.1621799080685
 21
2073.906219167152
 31
0.0000000000000081
210
0.0
220
1.0
230
0.0
  0
LINE
  5
13CF
330
1F
100
AcDbEntity
  8
Hewi
100
AcDbLine
 10
268.1621799080685
 20
2073.906219167152
 30
0.0000000000000081
 11
268.1621799080685
 21
2053.906219167152
 31
0.0000000000000081
210
0.0
220
1.0
230
0.0
  0
LINE
  5
13D0
330
1F
100
AcDbEntity
  8
Hewi
100
AcDbLine
 10
254.4621799080669
 20
1985.906219167164
 30
0.0000000000000064
 11
216.4621799080687
 21
1985.906219167164
 31
0.0000000000000017
210
0.0
220
1.0
230
0.0
  0
LINE
  5
13D1
330
1F
100
AcDbEntity
  8
Hewi
100
AcDbLine
 10
211.4621799080687
 20
2093.906219167164
 30
0.0000000000000011
 11
211.4621799080687
 21
2073.906219167165
 31
0.0000000000000011
210
0.0
220
1.0
230
0.0
  0
LINE
  5
13D2
330
1F
100
AcDbEntity
  8
Hewi
100
AcDbLine
 10
211.4621799080687
 20
2073.906219167165
 30
0.0000000000000011
 11
211.4621799080687
 21
2053.906219167165
 31
0.0000000000000011
210
0.0
220
1.0
230
0.0
  0
LINE
  5
13D3
330
1F
100
AcDbEntity
  8
Hewi
100
AcDbLine
 10
217.9621799080687
 20
2093.906241711492
 30
0.0000000000000019
 11
217.9621799080687
 21
2053.906196622838
 31
0.0000000000000019
210
0.0
220
1.0
230
0.0
  0
LINE
  5
13D4
330
1F
100
AcDbEntity
  8
Hewi
100
AcDbLine
 10
259.4621799080687
 20
2093.906219167164
 30
0.000000000000007
 11
259.4621799080687
 21
2073.906219167165
 31
0.000000000000007
210
0.0
220
1.0
230
0.0
  0
LINE
  5
13D5
330
1F
100
AcDbEntity
  8
Hewi
100
AcDbLine
 10
259.4621799080687
 20
2073.906219167165
 30
0.000000000000007
 11
259.4621799080687
 21
2053.906219167165
 31
0.000000000000007
210
0.0
220
1.0
230
0.0
  0
LINE
  5
13D6
330
1F
100
AcDbEntity
  8
Hewi
100
AcDbLine
 10
252.9621799080687
 20
2053.906196622838
 30
0.0000000000000062
 11
252.9621799080687
 21
2093.906241711492
 31
0.0000000000000062
210
0.0
220
1.0
230
0.0
  0
SPLINE
  5
13D7
330
1F
100
AcDbEntity
  8
Hewi
100
AcDbSpline
210
0.0000000000000006
220
0.0000000000000026
230
1.0
 70
     8
 71
     3
 72
    14
 73
    10
 74
     0
 42
0.0000000001
 43
0.0000000001
 40
-1.51819376772367
 40
-1.51819376772367
 40
-1.51819376772367
 40
-1.51819376772367
 40
-1.135751222155821
 40
-1.135751222155821
 40
-0.7533086765879721
 40
-0.7533086765879721
 40
-0.376654338293986
 40
-0.376654338293986
 40
0.0
 40
0.0
 40
0.0
 40
0.0
 10
250.4621799080687
 20
2054.469188720775
 30
0.0000000000000059
 10
250.4621799080687
 20
2054.499223043076
 30
0.0000000000000059
 10
250.4369204663526
 20
2054.532578995305
 30
0.0000000000000059
 10
250.3342251791782
 20
2054.596357511324
 30
0.0000000000000059
 10
250.2567900582471
 20
2054.62671470118
 30
0.0000000000000059
 10
250.0789024673641
 20
2054.675372463421
 30
0.0000000000000059
 10
249.9670329966711
 20
2054.697039662949
 30
0.0000000000000058
 10
249.7214539884408
 20
2054.726126786913
 30
0.0000000000000058
 10
249.5877313541669
 20
2054.73346965818
 30
0.0000000000000058
 10
249.4621799080687
 20
2054.73346965818
 30
0.0000000000000058
  0
SPLINE
  5
13D8
330
1F
100
AcDbEntity
  8
Hewi
100
AcDbSpline
210
0.0000000000000007
220
-0.0000000000000029
230
1.0
 70
     8
 71
     3
 72
    14
 73
    10
 74
     0
 42
0.0000000001
 43
0.0000000001
 40
0.0
 40
0.0
 40
0.0
 40
0.0
 40
0.3766543382939877
 40
0.3766543382939877
 40
0.7533086765879756
 40
0.7533086765879756
 40
1.135751222155823
 40
1.135751222155823
 40
1.51819376772367
 40
1.51819376772367
 40
1.51819376772367
 40
1.51819376772367
 10
221.4621799080687
 20
2054.73346965818
 30
0.0000000000000023
 10
221.3366284619706
 20
2054.73346965818
 30
0.0000000000000023
 10
221.2029058276967
 20
2054.726126786913
 30
0.0000000000000023
 10
220.9573268194663
 20
2054.697039662949
 30
0.0000000000000023
 10
220.8454573487734
 20
2054.675372463421
 30
0.0000000000000023
 10
220.6675697578912
 20
2054.62671470118
 30
0.0000000000000022
 10
220.5901346369592
 20
2054.596357511324
 30
0.0000000000000022
 10
220.4874393497848
 20
2054.532578995305
 30
0.0000000000000022
 10
220.4621799080687
 20
2054.499223043076
 30
0.0000000000000022
 10
220.4621799080687
 20
2054.469188720775
 30
0.0000000000000022
  0
LINE
  5
13D9
330
1F
100
AcDbEntity
  8
Hewi
100
AcDbLine
 10
249.4621799080687
 20
2054.73346965818
 30
0.0000000000000058
 11
221.4621799080687
 21
2054.73346965818
 31
0.0000000000000023
210
0.0
220
1.0
230
0.0
  0
LINE
  5
13DA
330
1F
100
AcDbEntity
  8
Hewi
100
AcDbLine
 10
250.4621799080687
 20
2054.469188720775
 30
0.0000000000000059
 11
250.4621799080687
 21
2023.764673376449
 31
0.0000000000000059
210
0.0
220
1.0
230
0.0
  0
LINE
  5
13DB
330
1F
100
AcDbEntity
  8
Hewi
100
AcDbLine
 10
220.4621799080687
 20
2054.469188720775
 30
0.0000000000000022
 11
220.4621799080687
 21
2023.764673376449
 31
0.0000000000000022
210
0.0
220
1.0
230
0.0
  0
SPLINE
  5
13DC
330
1F
100
AcDbEntity
  8
Hewi
100
AcDbSpline
210
0.0
220
0.0
230
1.0
 70
     8
 71
     3
 72
    14
 73
    10
 74
     0
 42
0.0000000001
 43
0.0000000001
 40
0.649611117407552
 40
0.649611117407552
 40
0.649611117407552
 40
0.649611117407552
 40
0.7333587369340008
 40
0.7333587369340008
 40
1.466717473868001
 40
1.466717473868001
 40
2.251649856864295
 40
2.251649856864295
 40
3.036582239860591
 40
3.036582239860591
 40
3.036582239860591
 40
3.036582239860591
 10
221.1463110420491
 20
2021.652331518084
 30
0.0000000000000023
 10
221.1327183751164
 20
2021.678720814145
 30
0.0000000000000023
 10
221.1191958271566
 20
2021.70510455546
 30
0.0000000000000023
 10
220.9882075944097
 20
2021.96218617056
 30
0.0000000000000023
 10
220.8788361796205
 20
2022.190298191218
 30
0.0000000000000023
 10
220.6978169536633
 20
2022.617695276792
 30
0.0000000000000023
 10
220.6110695320376
 20
2022.856017234296
 30
0.0000000000000022
 10
220.4928741398135
 20
2023.324555912711
 30
0.0000000000000022
 10
220.4621799080687
 20
2023.555346467791
 30
0.0000000000000022
 10
220.4621799080687
 20
2023.764673376449
 30
0.0000000000000022
  0
SPLINE
  5
13DD
330
1F
100
AcDbEntity
  8
Hewi
100
AcDbSpline
210
0.0
220
0.0
230
1.0
 70
     8
 71
     3
 72
    20
 73
    16
 74
     0
 42
0.0000000001
 43
0.0000000001
 40
-2.081957642337048
 40
-2.081957642337048
 40
-2.081957642337048
 40
-2.081957642337048
 40
-2.029036545889133
 40
-2.029036545889133
 40
-1.976115449441223
 40
-1.976115449441223
 40
-1.938296586027501
 40
-1.938296586027501
 40
-1.900477722613779
 40
-1.900477722613779
 40
-1.79865290262327
 40
-1.79865290262327
 40
-1.696828082632761
 40
-1.696828082632761
 40
-1.658125044755919
 40
-1.658125044755919
 40
-1.658125044755919
 40
-1.658125044755919
 10
221.4621799080687
 20
2021.531123363601
 30
0.0000000000000023
 10
221.4503921385706
 20
2021.518049622867
 30
0.0000000000000023
 10
221.4364943449382
 20
2021.504572187847
 30
0.0000000000000023
 10
221.405872043475
 20
2021.482129783247
 30
0.0000000000000023
 10
221.3890842849405
 20
2021.473250494647
 30
0.0000000000000023
 10
221.3599908212164
 20
2021.465208300165
 30
0.0000000000000023
 10
221.3464096196458
 20
2021.463721935148
 30
0.0000000000000023
 10
221.3198066000623
 20
2021.466165524534
 30
0.0000000000000023
 10
221.3067800399676
 20
2021.470054764117
 30
0.0000000000000023
 10
221.265114450156
 20
2021.488887712353
 30
0.0000000000000023
 10
221.2423671290026
 20
2021.510713437738
 30
0.0000000000000023
 10
221.2005645117151
 20
2021.55993737209
 30
0.0000000000000023
 10
221.1821527655038
 20
2021.58787049008
 30
0.0000000000000023
 10
221.1586186345767
 20
2021.6290094347
 30
0.0000000000000023
 10
221.1523604952208
 20
2021.640586890518
 30
0.0000000000000023
 10
221.1463110420491
 20
2021.652331518084
 30
0.0000000000000023
  0
SPLINE
  5
13DE
330
1F
100
AcDbEntity
  8
Hewi
100
AcDbSpline
210
0.0
220
0.0
230
1.0
 70
     8
 71
     3
 72
    20
 73
    16
 74
     0
 42
0.0000000001
 43
0.0000000001
 40
1.658125044755959
 40
1.658125044755959
 40
1.658125044755959
 40
1.658125044755959
 40
1.696828082632773
 40
1.696828082632773
 40
1.798652902623284
 40
1.798652902623284
 40
1.900477722613793
 40
1.900477722613793
 40
1.93829658602752
 40
1.93829658602752
 40
1.976115449441245
 40
1.976115449441245
 40
2.029036545889153
 40
2.029036545889153
 40
2.081957642337064
 40
2.081957642337064
 40
2.081957642337064
 40
2.081957642337064
 10
249.7780487740883
 20
2021.652331518084
 30
0.0000000000000058
 10
249.7719993209166
 20
2021.640586890518
 30
0.0000000000000058
 10
249.7657411815608
 20
2021.6290094347
 30
0.0000000000000058
 10
249.7422070506336
 20
2021.58787049008
 30
0.0000000000000058
 10
249.7237953044223
 20
2021.55993737209
 30
0.0000000000000058
 10
249.6819926871349
 20
2021.510713437738
 30
0.0000000000000058
 10
249.6592453659814
 20
2021.488887712353
 30
0.0000000000000058
 10
249.6175797761698
 20
2021.470054764117
 30
0.0000000000000058
 10
249.6045532160751
 20
2021.466165524534
 30
0.0000000000000058
 10
249.5779501964916
 20
2021.463721935148
 30
0.0000000000000058
 10
249.5643689949211
 20
2021.465208300165
 30
0.0000000000000058
 10
249.5352755311969
 20
2021.473250494647
 30
0.0000000000000058
 10
249.5184877726624
 20
2021.482129783247
 30
0.0000000000000058
 10
249.4878654711992
 20
2021.504572187847
 30
0.0000000000000058
 10
249.4739676775671
 20
2021.518049622867
 30
0.0000000000000058
 10
249.4621799080687
 20
2021.531123363601
 30
0.0000000000000058
  0
SPLINE
  5
13DF
330
1F
100
AcDbEntity
  8
Hewi
100
AcDbSpline
210
0.0
220
0.0
230
1.0
 70
     8
 71
     3
 72
    14
 73
    10
 74
     0
 42
0.0000000001
 43
0.0000000001
 40
8.794524056531006
 40
8.794524056531006
 40
8.794524056531006
 40
8.794524056531006
 40
9.579456439527339
 40
9.579456439527339
 40
10.36438882252367
 40
10.36438882252367
 40
11.09774755945768
 40
11.09774755945768
 40
11.18149517898412
 40
11.18149517898412
 40
11.18149517898412
 40
11.18149517898412
 10
250.4621799080687
 20
2023.764673376449
 30
0.0000000000000059
 10
250.4621799080687
 20
2023.555346467791
 30
0.0000000000000059
 10
250.431485676324
 20
2023.324555912711
 30
0.0000000000000059
 10
250.3132902840998
 20
2022.856017234296
 30
0.0000000000000059
 10
250.2265428624742
 20
2022.617695276792
 30
0.0000000000000059
 10
250.0455236365169
 20
2022.190298191218
 30
0.0000000000000058
 10
249.9361522217277
 20
2021.96218617056
 30
0.0000000000000058
 10
249.8051639889809
 20
2021.70510455546
 30
0.0000000000000058
 10
249.7916414410211
 20
2021.678720814145
 30
0.0000000000000058
 10
249.7780487740883
 20
2021.652331518084
 30
0.0000000000000058
  0
ELLIPSE
  5
13E0
330
1F
100
AcDbEntity
  8
Hewi
100
AcDbEllipse
 10
235.4621799080687
 20
2009.004089413145
 30
0.0000000000000041
 11
-18.81828199961667
 21
0.0
 31
-0.0000000000000023
210
-0.0000000000000001
220
0.0
230
1.0
 40
0.9961946980917455
 41
-2.409769549797642
 42
-0.7318231037921505
  0
ELLIPSE
  5
13E1
330
1F
100
AcDbEntity
  8
Hewi
100
AcDbEllipse
 10
235.4621799080687
 20
2009.074712084438
 30
0.0000000000000041
 11
12.70449773839052
 21
0.0
 31
0.0000000000000016
210
-0.0000000000000001
220
0.0
230
1.0
 40
0.9961946980917455
 41
0.0
 42
6.283185307179584
  0
ARC
  5
13E2
330
1F
100
AcDbEntity
  8
Hewi
100
AcDbCircle
 10
1334.744374457192
 20
1988.311521739406
 30
0.000000000000014
 40
4.000000000000073
100
AcDbArc
 50
194.1768749669893
 51
355.8231250330065
  0
ARC
  5
13E3
330
1F
100
AcDbEntity
  8
Hewi
100
AcDbCircle
 10
1304.423292066389
 20
1984.691876379112
 30
0.0000000000000084
 40
0.6999999999999319
100
AcDbArc
 50
270.0
 51
0.0
  0
ARC
  5
13E4
330
1F
100
AcDbEntity
  8
Hewi
100
AcDbCircle
 10
1266.42329206639
 20
1984.691876379112
 30
0.0000000000000014
 40
0.6999999999999319
100
AcDbArc
 50
180.0
 51
270.0
  0
ARC
  5
13E5
330
1F
100
AcDbEntity
  8
Hewi
100
AcDbCircle
 10
1260.72329206639
 20
2087.99187637909
 30
0.0000000000000004
 40
1.999999999999995
100
AcDbArc
 50
90.0
 51
180.0
  0
ARC
  5
13E6
330
1F
100
AcDbEntity
  8
Hewi
100
AcDbCircle
 10
1260.72329206639
 20
2055.991876379112
 30
0.0000000000000004
 40
1.999999999999999
100
AcDbArc
 50
180.0
 51
270.0
  0
ARC
  5
13E7
330
1F
100
AcDbEntity
  8
Hewi
100
AcDbCircle
 10
1219.05247561775
 20
1996.760459123718
 30
-0.0000000000000073
 40
119.9999999999995
100
AcDbArc
 50
355.8231250330065
 51
358.9226597831567
  0
ARC
  5
13E8
330
1F
100
AcDbEntity
  8
Hewi
100
AcDbCircle
 10
1219.05247561775
 20
1996.760459123718
 30
-0.0000000000000073
 40
119.9999999999995
100
AcDbArc
 50
11.07734021684892
 51
14.02230851987761
  0
LINE
  5
13E9
330
1F
100
AcDbEntity
  8
Hewi
100
AcDbLine
 10
1265.723292066389
 20
1984.691876379112
 30
0.0000000000000013
 11
1265.723292066389
 21
2053.991876379112
 31
0.0000000000000013
210
0.0
220
1.0
230
0.0
  0
LINE
  5
13EA
330
1F
100
AcDbEntity
  8
Hewi
100
AcDbLine
 10
1305.123292066389
 20
1984.691876379112
 30
0.0000000000000085
 11
1305.123292066389
 21
2053.991876379112
 31
0.0000000000000085
210
0.0
220
1.0
230
0.0
  0
LINE
  5
13EB
330
1F
100
AcDbEntity
  8
Hewi
100
AcDbLine
 10
1258.72329206639
 20
2055.991876379112
 30
0.0
 11
1258.72329206639
 21
2087.99187637909
 31
0.0
210
0.0
220
1.0
230
0.0
  0
LINE
  5
13EC
330
1F
100
AcDbEntity
  8
Hewi
100
AcDbLine
 10
1285.42329206639
 20
2053.991876379113
 30
0.0000000000000049
 11
1318.705494179281
 21
2053.991876379113
 31
0.000000000000011
210
0.0
220
1.0
230
0.0
  0
LINE
  5
13ED
330
1F
100
AcDbEntity
  8
Hewi
100
AcDbLine
 10
1285.42329206639
 20
2089.991876379091
 30
0.0000000000000049
 11
1318.705494179291
 21
2089.991876379091
 31
0.000000000000011
210
0.0
220
1.0
230
0.0
  0
LINE
  5
13EE
330
1F
100
AcDbEntity
  8
Hewi
100
AcDbLine
 10
1260.72329206639
 20
2089.991876379091
 30
0.0000000000000004
 11
1285.42329206639
 21
2089.991876379091
 31
0.0000000000000049
210
0.0
220
1.0
230
0.0
  0
LINE
  5
13EF
330
1F
100
AcDbEntity
  8
Hewi
100
AcDbLine
 10
1260.72329206639
 20
2053.991876379112
 30
0.0000000000000004
 11
1285.42329206639
 21
2053.991876379112
 31
0.0000000000000049
210
0.0
220
1.0
230
0.0
  0
LINE
  5
13F0
330
1F
100
AcDbEntity
  8
Hewi
100
AcDbLine
 10
1304.423292066389
 20
1983.991876379112
 30
0.0000000000000084
 11
1266.42329206639
 21
1983.991876379112
 31
0.0000000000000014
210
0.0
220
1.0
230
0.0
  0
ARC
  5
13F1
330
1F
100
AcDbEntity
  8
Hewi
100
AcDbCircle
 10
1327.423292066389
 20
2071.991876379112
 30
0.0000000000000126
 40
20.00002254432668
100
AcDbArc
 50
244.1579338865253
 51
115.8420661136497
  0
LINE
  5
13F2
330
1F
100
AcDbEntity
  8
Hewi
100
AcDbLine
 10
1325.146412062487
 20
2052.121880928146
 30
0.0000000000000122
 11
1328.051240965725
 21
2018.919534633568
 31
0.0000000000000127
210
0.0
220
1.0
230
0.0
  0
SPLINE
  5
13F3
330
1F
100
AcDbEntity
  8
Hewi
100
AcDbSpline
210
0.0
220
0.0
230
1.0
 70
     8
 71
     3
 72
    20
 73
    16
 74
     0
 42
0.0000000001
 43
0.0000000001
 40
1.658125044756507
 40
1.658125044756507
 40
1.658125044756507
 40
1.658125044756507
 40
1.696828082632723
 40
1.696828082632723
 40
1.798652902623234
 40
1.798652902623234
 40
1.900477722613745
 40
1.900477722613745
 40
1.938296586027634
 40
1.938296586027634
 40
1.97611544944152
 40
1.97611544944152
 40
2.029036545890053
 40
2.029036545890053
 40
2.081957642338585
 40
2.081957642338585
 40
2.081957642338585
 40
2.081957642338585
 10
1328.091248564366
 20
2019.049667038281
 30
0.0000000000000127
 10
1328.09028516439
 20
2019.037571357495
 30
0.0000000000000127
 10
1328.089302255718
 20
2019.025641987442
 30
0.0000000000000127
 10
1328.085661545868
 20
2018.983226452913
 30
0.0000000000000127
 10
1328.082912371016
 20
2018.954377667852
 30
0.0000000000000127
 10
1328.07696996185
 20
2018.903346567905
 30
0.0000000000000127
 10
1328.073843075584
 20
2018.880632791109
 30
0.0000000000000127
 10
1328.068527736002
 20
2018.860572076512
 30
0.0000000000000127
 10
1328.066904718597
 20
2018.85633665738
 30
0.0000000000000127
 10
1328.063695420846
 20
2018.853289485907
 30
0.0000000000000127
 10
1328.062109302847
 20
2018.8545191051
 30
0.0000000000000127
 10
1328.05880482572
 20
2018.862102694919
 30
0.0000000000000127
 10
1328.056979510746
 20
2018.870797108581
 30
0.0000000000000127
 10
1328.053773948236
 20
2018.893020496289
 30
0.0000000000000127
 10
1328.052384769829
 20
2018.906460892833
 30
0.0000000000000127
 10
1328.051240965725
 20
2018.919534633568
 30
0.0000000000000127
  0
SPLINE
  5
13F4
330
1F
100
AcDbEntity
  8
Hewi
100
AcDbSpline
210
-0.0000000000000067
220
0.0000000000000022
230
-1.0
 70
     8
 71
     3
 72
    14
 73
    10
 74
     0
 42
0.0000000001
 43
0.0000000001
 40
8.778950683888792
 40
8.778950683888792
 40
8.778950683888792
 40
8.778950683888792
 40
9.563883066885145
 40
9.563883066885145
 40
10.34881544988149
 40
10.34881544988149
 40
11.08217418681549
 40
11.08217418681549
 40
11.16592180634194
 40
11.16592180634194
 40
11.16592180634194
 40
11.16592180634194
 10
1328.844400218822
 20
2021.327396131911
 30
0.0000000000000129
 10
1328.72616319721
 20
2021.093991641247
 30
0.0000000000000128
 10
1328.601886524805
 20
2020.837727439427
 30
0.0000000000000128
 10
1328.386081658202
 20
2020.323908576119
 30
0.0000000000000128
 10
1328.295240855703
 20
2020.065892433841
 30
0.0000000000000128
 10
1328.170785009556
 20
2019.609957135726
 30
0.0000000000000127
 10
1328.122780287228
 20
2019.369861591711
 30
0.0000000000000127
 10
1328.095876371644
 20
2019.104070192107
 30
0.0000000000000127
 10
1328.093413251758
 20
2019.076845124563
 30
0.0000000000000127
 10
1328.091248564366
 20
2019.049667038281
 30
0.0000000000000127
  0
SPLINE
  5
13F5
330
1F
100
AcDbEntity
  8
Hewi
100
AcDbSpline
210
0.0
220
-0.0000000000000001
230
1.0
 70
     8
 71
     3
 72
    30
 73
    26
 74
     0
 42
0.0000000001
 43
0.0000000001
 40
50.21703549202495
 40
50.21703549202495
 40
50.21703549202495
 40
50.21703549202495
 40
50.53039260880385
 40
50.53039260880385
 40
51.29598074329932
 40
51.29598074329932
 40
51.92914302530023
 40
51.92914302530023
 40
52.56230530730113
 40
52.56230530730113
 40
53.12551373138332
 40
53.12551373138332
 40
53.68872215546555
 40
53.68872215546555
 40
54.25193057954776
 40
54.25193057954776
 40
54.81513900362998
 40
54.81513900362998
 40
55.44830128563085
 40
55.44830128563085
 40
56.08146356763175
 40
56.08146356763175
 40
56.84705170212724
 40
56.84705170212724
 40
57.16040881890615
 40
57.16040881890615
 40
57.16040881890615
 40
57.16040881890615
 10
1334.821568407373
 20
2021.850330588397
 30
0.000000000000014
 10
1334.753995344705
 20
2021.940441884835
 30
0.000000000000014
 10
1334.682503396982
 20
2022.029593307015
 30
0.0000000000000139
 10
1334.425822366055
 20
2022.327203108709
 30
0.0000000000000139
 10
1334.224405778884
 20
2022.521345162253
 30
0.0000000000000139
 10
1333.860586073069
 20
2022.812934623005
 30
0.0000000000000138
 10
1333.669412552714
 20
2022.943846959755
 30
0.0000000000000138
 10
1333.265131710153
 20
2023.164621198638
 30
0.0000000000000137
 10
1333.051898541244
 20
2023.254252572712
 30
0.0000000000000136
 10
1332.671209090728
 20
2023.37303470136
 30
0.0000000000000136
 10
1332.47010788175
 20
2023.417525896406
 30
0.0000000000000135
 10
1332.063192793363
 20
2023.463143472249
 30
0.0000000000000135
 10
1331.857368724425
 20
2023.464178915129
 30
0.0000000000000134
 10
1331.483325227098
 20
2023.431454349448
 30
0.0000000000000134
 10
1331.280807891019
 20
2023.39469366278
 30
0.0000000000000133
 10
1330.887996166073
 20
2023.279109056852
 30
0.0000000000000132
 10
1330.697675951273
 20
2023.200372924566
 30
0.0000000000000132
 10
1330.343396329095
 20
2023.017289334015
 30
0.0000000000000131
 10
1330.148966975924
 20
2022.891992110714
 30
0.0000000000000131
 10
1329.789165112033
 20
2022.60436929702
 30
0.000000000000013
 10
1329.623628635728
 20
2022.442248879396
 30
0.000000000000013
 10
1329.315970147229
 20
2022.091912688836
 30
0.000000000000013
 10
1329.151325944404
 20
2021.865744466007
 30
0.0000000000000129
 10
1328.950223874815
 20
2021.528083832663
 30
0.0000000000000129
 10
1328.895299032417
 20
2021.427872374469
 30
0.0000000000000129
 10
1328.844400218822
 20
2021.327396131911
 30
0.0000000000000129
  0
SPLINE
  5
13F6
330
1F
100
AcDbEntity
  8
Hewi
100
AcDbSpline
210
-0.0000000000000116
220
-0.0000000000000062
230
-1.0
 70
     8
 71
     3
 72
    14
 73
    10
 74
     0
 42
0.0000000001
 43
0.0000000001
 40
0.649611117407552
 40
0.649611117407552
 40
0.649611117407552
 40
0.649611117407552
 40
0.7333587369340008
 40
0.7333587369340008
 40
1.466717473868001
 40
1.466717473868001
 40
2.251649856864295
 40
2.251649856864295
 40
3.036582239860591
 40
3.036582239860591
 40
3.036582239860591
 40
3.036582239860591
 10
1335.958801502203
 20
2019.737988730032
 30
0.0000000000000142
 10
1335.951950276121
 20
2019.764378026093
 30
0.0000000000000142
 10
1335.944796993195
 20
2019.790761767407
 30
0.0000000000000142
 10
1335.872147616361
 20
2020.047843382508
 30
0.0000000000000142
 10
1335.783180039947
 20
2020.275955403166
 30
0.0000000000000141
 10
1335.581442624102
 20
2020.703352488739
 30
0.0000000000000141
 10
1335.447177864595
 20
2020.941674446244
 30
0.0000000000000141
 10
1335.145427849563
 20
2021.410213124657
 30
0.000000000000014
 10
1334.978539407412
 20
2021.641003679739
 30
0.000000000000014
 10
1334.821568407373
 20
2021.850330588397
 30
0.000000000000014
  0
SPLINE
  5
13F7
330
1F
100
AcDbEntity
  8
Hewi
100
AcDbSpline
210
0.0
220
0.0
230
1.0
 70
     8
 71
     3
 72
    20
 73
    16
 74
     0
 42
0.0000000001
 43
0.0000000001
 40
-2.081957642337048
 40
-2.081957642337048
 40
-2.081957642337048
 40
-2.081957642337048
 40
-2.029036545889133
 40
-2.029036545889133
 40
-1.976115449441223
 40
-1.976115449441223
 40
-1.938296586027501
 40
-1.938296586027501
 40
-1.900477722613779
 40
-1.900477722613779
 40
-1.79865290262327
 40
-1.79865290262327
 40
-1.696828082632761
 40
-1.696828082632761
 40
-1.658125044755919
 40
-1.658125044755919
 40
-1.658125044755919
 40
-1.658125044755919
 10
1336.020798550458
 20
2019.616780575548
 30
0.0000000000000142
 10
1336.021942354563
 20
2019.603706834814
 30
0.0000000000000142
 10
1336.022908181264
 20
2019.590229399796
 30
0.0000000000000142
 10
1336.023610369229
 20
2019.567786995194
 30
0.0000000000000142
 10
1336.023322553978
 20
2019.558907706596
 30
0.0000000000000142
 10
1336.021385155836
 20
2019.550865512113
 30
0.0000000000000142
 10
1336.020036655666
 20
2019.549379147096
 30
0.0000000000000142
 10
1336.016346978585
 20
2019.551822736481
 30
0.0000000000000142
 10
1336.014013145648
 20
2019.555711976065
 30
0.0000000000000142
 10
1336.005295051485
 20
2019.5745449243
 30
0.0000000000000142
 10
1335.998271463699
 20
2019.596370649686
 30
0.0000000000000142
 10
1335.983557875571
 20
2019.645594584037
 30
0.0000000000000142
 10
1335.975840927908
 20
2019.673527702027
 30
0.0000000000000142
 10
1335.964890148346
 20
2019.714666646649
 30
0.0000000000000142
 10
1335.961850658895
 20
2019.726244102465
 30
0.0000000000000142
 10
1335.958801502203
 20
2019.737988730032
 30
0.0000000000000142
  0
LINE
  5
13F8
330
1F
100
AcDbEntity
  8
Hewi
100
AcDbLine
 10
1333.11596964722
 20
2052.819126870127
 30
0.0000000000000137
 11
1336.020798550458
 21
2019.616780575548
 31
0.0000000000000142
210
0.0
220
1.0
230
0.0
  0
LINE
  5
13F9
330
1F
100
AcDbEntity
  8
Hewi
100
AcDbLine
 10
1336.81672289873
 20
2019.816522585289
 30
0.0000000000000143
 11
1339.031262771981
 21
1994.504216007483
 31
0.0000000000000147
210
0.0
220
1.0
230
0.0
  0
LINE
  5
13FA
330
1F
100
AcDbEntity
  8
Hewi
100
AcDbLine
 10
1327.232723660741
 20
2018.978031300724
 30
0.0000000000000126
 11
1329.447263533992
 21
1993.665724722917
 31
0.000000000000013
210
0.0
220
1.0
230
0.0
  0
SPLINE
  5
13FB
330
1F
100
AcDbEntity
  8
Hewi
100
AcDbSpline
210
0.0000000000000027
220
0.0000000000000028
230
1.0
 70
     8
 71
     3
 72
    46
 73
    42
 74
     0
 42
0.0000000001
 43
0.0000000001
 40
-26.25009051702358
 40
-26.25009051702358
 40
-26.25009051702358
 40
-26.25009051702358
 40
-25.19226716828405
 40
-25.19226716828405
 40
-24.06297385938894
 40
-24.06297385938894
 40
-22.97039393615168
 40
-22.97039393615168
 40
-21.87781401291442
 40
-21.87781401291442
 40
-20.78523408967716
 40
-20.78523408967716
 40
-19.6926541664399
 40
-19.6926541664399
 40
-18.59462246291696
 40
-18.59462246291696
 40
-17.49659075939401
 40
-17.49659075939401
 40
-16.39855905587109
 40
-16.39855905587109
 40
-15.30052735234815
 40
-15.30052735234815
 40
-14.20249564882519
 40
-14.20249564882519
 40
-13.10446394530224
 40
-13.10446394530224
 40
-12.00643224177928
 40
-12.00643224177928
 40
-10.90840053825633
 40
-10.90840053825633
 40
-9.815820615019132
 40
-9.815820615019132
 40
-8.723240691781931
 40
-8.723240691781931
 40
-7.630660768544732
 40
-7.630660768544732
 40
-6.538080845307532
 40
-6.538080845307532
 40
-5.408787536412319
 40
-5.408787536412319
 40
-4.350964187672493
 40
-4.350964187672493
 40
-4.350964187672493
 40
-4.350964187672493
 10
1321.667287510806
 20
2052.838067634664
 30
0.0000000000000116
 10
1321.496018417019
 20
2052.8895418958
 30
0.0000000000000115
 10
1321.304286623272
 20
2052.949702070688
 30
0.0000000000000115
 10
1320.88072359712
 20
2053.090872658839
 30
0.0000000000000114
 10
1320.647119773309
 20
2053.17307115522
 30
0.0000000000000114
 10
1320.181197771172
 20
2053.347522774111
 30
0.0000000000000113
 10
1319.928705740589
 20
2053.446879570802
 30
0.0000000000000112
 10
1319.389039729771
 20
2053.674220409894
 30
0.0000000000000111
 10
1319.101898654488
 20
2053.802257713955
 30
0.0000000000000111
 10
1318.509283212455
 20
2054.085222262515
 30
0.000000000000011
 10
1318.20367791724
 20
2054.240274561138
 30
0.0000000000000109
 10
1317.592821753585
 20
2054.571127095795
 30
0.0000000000000108
 10
1317.287590970373
 20
2054.746963468939
 30
0.0000000000000107
 10
1316.696318901573
 20
2055.108372600831
 30
0.0000000000000106
 10
1316.383903748929
 20
2055.310095022755
 30
0.0000000000000106
 10
1315.746499826356
 20
2055.749879992335
 30
0.0000000000000105
 10
1315.421535198996
 20
2055.987988632655
 30
0.0000000000000104
 10
1314.778592420897
 20
2056.4909679612
 30
0.0000000000000103
 10
1314.460387061957
 20
2056.756054836239
 30
0.0000000000000102
 10
1313.848549836174
 20
2057.29856029242
 30
0.0000000000000101
 10
1313.55491837589
 20
2057.57597882215
 30
0.0000000000000101
 10
1313.007394509426
 20
2058.123502688613
 30
0.00000000000001
 10
1312.729975979697
 20
2058.417134148898
 30
0.0000000000000099
 10
1312.187470523516
 20
2059.028971374681
 30
0.0000000000000098
 10
1311.922383648476
 20
2059.347176733621
 30
0.0000000000000098
 10
1311.419404319932
 20
2059.990119511719
 30
0.0000000000000097
 10
1311.181295679612
 20
2060.315084139079
 30
0.0000000000000096
 10
1310.741510710031
 20
2060.952488061652
 30
0.0000000000000095
 10
1310.539788288108
 20
2061.264903214297
 30
0.0000000000000095
 10
1310.178379156216
 20
2061.856175283097
 30
0.0000000000000094
 10
1310.002542783072
 20
2062.16140606631
 30
0.0000000000000094
 10
1309.671690248415
 20
2062.772262229964
 30
0.0000000000000093
 10
1309.516637949791
 20
2063.077867525179
 30
0.0000000000000093
 10
1309.233673401231
 20
2063.670482967213
 30
0.0000000000000093
 10
1309.10563609717
 20
2063.957624042494
 30
0.0000000000000092
 10
1308.878295258079
 20
2064.497290053313
 30
0.0000000000000092
 10
1308.778938461388
 20
2064.749782083896
 30
0.0000000000000092
 10
1308.604486842497
 20
2065.215704086032
 30
0.0000000000000092
 10
1308.522288346116
 20
2065.449307909844
 30
0.0000000000000091
 10
1308.381117757964
 20
2065.872870935996
 30
0.0000000000000091
 10
1308.320957583077
 20
2066.064602729742
 30
0.0000000000000091
 10
1308.269483321941
 20
2066.235871823529
 30
0.0000000000000091
  0
SPLINE
  5
13FC
330
1F
100
AcDbEntity
  8
Hewi
100
AcDbSpline
210
-0.0000000000000025
220
-0.0000000000000026
230
-1.0
 70
     8
 71
     3
 72
    38
 73
    34
 74
     0
 42
0.0000000001
 43
0.0000000001
 40
7.989195374219312
 40
7.989195374219312
 40
7.989195374219312
 40
7.989195374219312
 40
8.254479951649056
 40
8.254479951649056
 40
9.559037833637082
 40
9.559037833637082
 40
10.8635957156251
 40
10.8635957156251
 40
12.16815359761313
 40
12.16815359761313
 40
13.47206133512371
 40
13.47206133512371
 40
14.77596907263429
 40
14.77596907263429
 40
16.07987681014486
 40
16.07987681014486
 40
17.38378454765544
 40
17.38378454765544
 40
18.68769228516606
 40
18.68769228516606
 40
19.99160002267668
 40
19.99160002267668
 40
21.29550776018729
 40
21.29550776018729
 40
22.59941549769791
 40
22.59941549769791
 40
23.90397337968593
 40
23.90397337968593
 40
25.20853126167392
 40
25.20853126167392
 40
26.51308914366193
 40
26.51308914366193
 40
26.77837372109179
 40
26.77837372109179
 40
26.77837372109179
 40
26.77837372109179
 10
1333.179317352242
 20
2091.145678955036
 30
0.0000000000000137
 10
1333.243387734866
 20
2091.126424984477
 30
0.0000000000000137
 10
1333.308651098392
 20
2091.106462058919
 30
0.0000000000000137
 10
1333.701549845135
 20
2090.983991634314
 30
0.0000000000000138
 10
1334.055352371502
 20
2090.864396928054
 30
0.0000000000000138
 10
1334.795897226178
 20
2090.587600320888
 30
0.000000000000014
 10
1335.182825094797
 20
2090.430221397149
 30
0.000000000000014
 10
1335.963962939874
 20
2090.081648651141
 30
0.0000000000000142
 10
1336.358143907421
 20
2089.890378238091
 30
0.0000000000000142
 10
1337.125145433445
 20
2089.486498414946
 30
0.0000000000000144
 10
1337.531064593751
 20
2089.256608447122
 30
0.0000000000000145
 10
1338.360873457342
 20
2088.743215196095
 30
0.0000000000000146
 10
1338.784721315283
 20
2088.45962678543
 30
0.0000000000000147
 10
1339.622793438121
 20
2087.848769022487
 30
0.0000000000000148
 10
1340.037418325419
 20
2087.521130646162
 30
0.0000000000000149
 10
1340.832357031693
 20
2086.840138773268
 30
0.0000000000000151
 10
1341.212664327189
 20
2086.486775365774
 30
0.0000000000000151
 10
1341.91819105305
 20
2085.781248639913
 30
0.0000000000000153
 10
1342.271554460544
 20
2085.400941344416
 30
0.0000000000000153
 10
1342.952546333438
 20
2084.606002638142
 30
0.0000000000000155
 10
1343.280184709763
 20
2084.191377750845
 30
0.0000000000000155
 10
1343.891042472707
 20
2083.353305628007
 30
0.0000000000000156
 10
1344.174630883372
 20
2082.929457770065
 30
0.0000000000000157
 10
1344.688024134399
 20
2082.099648906475
 30
0.0000000000000158
 10
1344.917914102222
 20
2081.693729746169
 30
0.0000000000000158
 10
1345.321793925367
 20
2080.926728220144
 30
0.0000000000000159
 10
1345.513064338418
 20
2080.532547252598
 30
0.0000000000000159
 10
1345.861637084424
 20
2079.751409407521
 30
0.000000000000016
 10
1346.019016008165
 20
2079.364481538902
 30
0.000000000000016
 10
1346.295812615331
 20
2078.623936684226
 30
0.0000000000000161
 10
1346.415407321589
 20
2078.270134157858
 30
0.0000000000000161
 10
1346.537877746195
 20
2077.877235411116
 30
0.0000000000000161
 10
1346.557840671753
 20
2077.811972047589
 30
0.0000000000000161
 10
1346.577094642313
 20
2077.747901664965
 30
0.0000000000000161
  0
ARC
  5
13FD
330
1F
100
AcDbEntity
  8
Hewi
100
AcDbCircle
 10
1327.423291878655
 20
2071.991876982661
 30
0.0000000000000056
 40
19.99999944047946
100
AcDbArc
 50
79.55669986848789
 51
196.7263068944406
  0
ARC
  5
13FE
330
1F
100
AcDbEntity
  8
Hewi
100
AcDbCircle
 10
1327.423292066389
 20
2071.991876379112
 30
0.0000000000000126
 40
20.0
100
AcDbArc
 50
259.5567007107984
 51
10.44329928917524
  0
ARC
  5
13FF
330
1F
100
AcDbEntity
  8
Hewi
100
AcDbCircle
 10
1327.423292066389
 20
2071.991876379112
 30
0.0000000000000126
 40
20.0
100
AcDbArc
 50
253.2737136313604
 51
259.5567007107984
  0
ARC
  5
1400
330
1F
100
AcDbEntity
  8
Hewi
100
AcDbCircle
 10
1447.211510814972
 20
2016.721788184487
 30
0.0000000000000346
 40
120.0000000000005
100
AcDbArc
 50
175.9776914801458
 51
178.9226597831304
  0
ARC
  5
1401
330
1F
100
AcDbEntity
  8
Hewi
100
AcDbCircle
 10
1447.211510814972
 20
2016.721788184487
 30
0.0000000000000346
 40
120.0000000000005
100
AcDbArc
 50
191.0773402168489
 51
194.1768749669893
  0
LINE
  5
1402
330
1F
100
AcDbEntity
  8
Hewi
  6
Continuous
100
AcDbLine
 10
244.5583611205793
 20
688.2332708237668
 30
0.0
 11
244.5583611205793
 21
723.8715313207152
 31
0.0
  0
LINE
  5
1403
330
1F
100
AcDbEntity
  8
Hewi
  6
Continuous
100
AcDbLine
 10
226.5583611205793
 20
723.8712089888222
 30
0.0
 11
226.5583611205793
 21
687.875158951354
 31
0.0
  0
LINE
  5
1404
330
1F
100
AcDbEntity
  8
Hewi
  6
Continuous
100
AcDbLine
 10
275.5583611205793
 20
725.8717605608044
 30
0.0
 11
275.5583611205793
 21
736.8717605608044
 31
0.0
  0
LINE
  5
1405
330
1F
100
AcDbEntity
  8
Hewi
  6
Continuous
100
AcDbLine
 10
195.5583611205793
 20
736.8717605608044
 30
0.0
 11
195.5583611205793
 21
725.8717605608044
 31
0.0
  0
LINE
  5
1406
330
1F
100
AcDbEntity
  8
Hewi
  6
Continuous
100
AcDbLine
 10
195.5583611205793
 20
736.8717605608044
 30
0.0
 11
275.5583611205793
 21
736.8717605608044
 31
0.0
  0
LINE
  5
1407
330
1F
100
AcDbEntity
  8
Hewi
  6
Continuous
100
AcDbLine
 10
197.5583611205793
 20
723.8717605608044
 30
0.0
 11
273.5583611205793
 21
723.8717605608044
 31
0.0
  0
ARC
  5
1408
330
1F
100
AcDbEntity
  8
Hewi
  6
Continuous
100
AcDbCircle
 10
273.5583611205793
 20
725.8717605608044
 30
0.0
 40
2.0
100
AcDbArc
 50
270.0
 51
0.0
  0
ARC
  5
1409
330
1F
100
AcDbEntity
  8
Hewi
  6
Continuous
100
AcDbCircle
 10
197.5583611205793
 20
725.8717605608044
 30
0.0
 40
2.0
100
AcDbArc
 50
180.0
 51
270.0
  0
CIRCLE
  5
140A
330
1F
100
AcDbEntity
  8
Hewi
100
AcDbCircle
 10
235.5583611205793
 20
663.4224035924773
 30
0.0
 40
16.5
  0
LINE
  5
140B
330
1F
100
AcDbEntity
  8
Hewi
100
AcDbLine
 10
260.0583611205793
 20
600.9224035924781
 30
0.0
 11
253.5583611205793
 21
600.9224035924781
 31
0.0
  0
LINE
  5
140C
330
1F
100
AcDbEntity
  8
Hewi
100
AcDbLine
 10
253.5583611205793
 20
629.6402014795781
 30
0.0
 11
260.2583611205791
 21
629.6402014795781
 31
0.0
  0
ARC
  5
140D
330
1F
100
AcDbEntity
  8
Hewi
100
AcDbCircle
 10
236.0583611205793
 20
662.922403592477
 30
0.0
 40
26.69999999999936
100
AcDbArc
 50
0.0
 51
110.8428039567435
  0
ARC
  5
140E
330
1F
100
AcDbEntity
  8
Hewi
100
AcDbCircle
 10
178.7083611205806
 20
639.922403592478
 30
0.0
 40
0.9999999999999998
100
AcDbArc
 50
90.0
 51
180.0
  0
SPLINE
  5
140F
330
1F
100
AcDbEntity
  8
Hewi
100
AcDbSpline
210
0.0
220
0.0
230
1.0
 70
     8
 71
     3
 72
    10
 73
     6
 74
     0
 42
0.0000000001
 43
0.0000000001
 40
1.86139545575616
 40
1.86139545575616
 40
1.86139545575616
 40
1.86139545575616
 40
3.074047116240881
 40
3.074047116240881
 40
4.714235913710636
 40
4.714235913710636
 40
4.714235913710636
 40
4.714235913710636
 10
180.3302229686751
 20
615.0496753088463
 30
0.0
 10
180.0628961907841
 20
615.3403734910916
 30
0.0
 10
179.797471513777
 20
615.6346089293942
 30
0.0
 10
179.1782623955296
 20
616.3347438736323
 30
0.0
 10
178.8259847005291
 20
616.7438167129505
 30
0.0
 10
178.4783596132456
 20
617.1589225135702
 30
0.0
  0
SPLINE
  5
1410
330
1F
100
AcDbEntity
  8
Hewi
100
AcDbSpline
210
0.0
220
0.0
230
1.0
 70
     8
 71
     3
 72
    22
 73
    18
 74
     0
 42
0.0000000001
 43
0.0000000001
 40
0.0
 40
0.0
 40
0.0
 40
0.0
 40
0.1010342156325368
 40
0.1010342156325368
 40
0.3279516765630044
 40
0.3279516765630044
 40
0.5175559881790206
 40
0.5175559881790206
 40
0.7979184818379858
 40
0.7979184818379858
 40
1.199996365120317
 40
1.199996365120317
 40
1.322552189555461
 40
1.322552189555461
 40
1.603510848517379
 40
1.603510848517379
 40
2.026822376410208
 40
2.026822376410208
 40
2.026822376410208
 40
2.026822376410208
 10
178.4783596671313
 20
617.1589225731946
 30
0.0
 10
178.4569124667669
 20
617.1845330785409
 30
0.0
 10
178.4357902431875
 20
617.2105628403477
 30
0.0
 10
178.3683594662207
 20
617.2961410929238
 30
0.0
 10
178.3233239871788
 20
617.3572107802027
 30
0.0
 10
178.244113098518
 20
617.4712519975119
 30
0.0
 10
178.209261734365
 20
617.5240617310087
 30
0.0
 10
178.1262393852566
 20
617.6562429120953
 30
0.0
 10
178.0794500368565
 20
617.7365867686687
 30
0.0
 10
177.9735141652472
 20
617.9332444071624
 30
0.0
 10
177.9172326516864
 20
618.0510620581197
 30
0.0
 10
177.8545997379588
 20
618.2036600122541
 30
0.0
 10
177.840711449583
 20
618.2393009352531
 30
0.0
 10
177.7977120707819
 20
618.3563712754356
 30
0.0
 10
177.772016946129
 20
618.4375823430755
 30
0.0
 10
177.7218134319009
 20
618.6386230308053
 30
0.0
 10
177.7083611205806
 20
618.7421107032869
 30
0.0
 10
177.7083611205806
 20
618.8306435904368
 30
0.0
  0
SPLINE
  5
1411
330
1F
100
AcDbEntity
  8
Hewi
100
AcDbSpline
210
0.0
220
0.0
230
1.0
 70
     8
 71
     3
 72
    16
 73
    12
 74
     0
 42
0.0000000001
 43
0.0000000001
 40
0.2153933378818875
 40
0.2153933378818875
 40
0.2153933378818875
 40
0.2153933378818875
 40
0.4400106383128409
 40
0.4400106383128409
 40
0.7443622166473654
 40
0.7443622166473654
 40
0.7898558523517304
 40
0.7898558523517304
 40
0.8400475890234059
 40
0.8400475890234059
 40
0.9391014517164848
 40
0.9391014517164848
 40
0.9391014517164848
 40
0.9391014517164848
 10
181.377603517034
 20
614.4542029243218
 30
0.0
 10
181.2679765405436
 20
614.4541819109772
 30
0.0
 10
181.1578265353082
 20
614.4817773549521
 30
0.0
 10
180.9130856724786
 20
614.5787364524981
 30
0.0
 10
180.7632985816935
 20
614.6673113528262
 30
0.0
 10
180.5889366348456
 20
614.8056119796547
 30
0.0
 10
180.5663862366737
 20
614.8241913446022
 30
0.0
 10
180.519304798544
 20
614.8644620683057
 30
0.0
 10
180.4947948893595
 20
614.8862893334031
 30
0.0
 10
180.422666707419
 20
614.9531722775626
 30
0.0
 10
180.3756826900417
 20
615.0002412763686
 30
0.0
 10
180.3302232051136
 20
615.0496756656125
 30
0.0
  0
ARC
  5
1412
330
1F
100
AcDbEntity
  8
Hewi
100
AcDbCircle
 10
178.7083611205806
 20
601.9224035924779
 30
0.0
 40
0.9999999999999998
100
AcDbArc
 50
180.0
 51
270.0
  0
SPLINE
  5
1413
330
1F
100
AcDbEntity
  8
Hewi
100
AcDbSpline
210
0.0
220
0.0
230
1.0
 70
     8
 71
     3
 72
    22
 73
    18
 74
     0
 42
0.0000000001
 43
0.0000000001
 40
3.061871436955371
 40
3.061871436955371
 40
3.061871436955371
 40
3.061871436955371
 40
3.560368615882661
 40
3.560368615882661
 40
7.493792974690866
 40
7.493792974690866
 40
12.10816926551457
 40
12.10816926551457
 40
16.79563105604579
 40
16.79563105604579
 40
20.70282533587922
 40
20.70282533587922
 40
24.42008836558175
 40
24.42008836558175
 40
27.33511547717966
 40
27.33511547717966
 40
28.43964690264884
 40
28.43964690264884
 40
28.43964690264884
 40
28.43964690264884
 10
200.9912811585055
 20
607.2668009089052
 30
0.0
 10
200.9854942216198
 20
607.3831504955641
 30
0.0
 10
200.9760775342556
 20
607.5013043197309
 30
0.0
 10
200.8597153271949
 20
608.5675656417613
 30
0.0
 10
200.5313086015312
 20
609.5820364403082
 30
0.0
 10
199.3825222423993
 20
611.7992253559541
 30
0.0
 10
198.5012629670973
 20
612.9756703689172
 30
0.0
 10
196.3391497833954
 20
615.0575049655217
 30
0.0
 10
195.046565659557
 20
615.9629100175411
 30
0.0
 10
192.4266133564433
 20
617.0817441632084
 30
0.0
 10
191.1614030221126
 20
617.3749079249627
 30
0.0
 10
188.6190839159681
 20
617.4155996754897
 30
0.0
 10
187.4066704997394
 20
617.1881503531712
 30
0.0
 10
185.345354631806
 20
616.4144797654885
 30
0.0
 10
184.4897442525251
 20
615.9538779370492
 30
0.0
 10
183.4022515842225
 20
615.204682076564
 30
0.0
 10
183.1127944427362
 20
614.9868114722668
 30
0.0
 10
182.8335736066374
 20
614.7588097180268
 30
0.0
  0
SPLINE
  5
1414
330
1F
100
AcDbEntity
  8
Hewi
100
AcDbSpline
210
0.0
220
0.0
230
1.0
 70
     8
 71
     3
 72
    14
 73
    10
 74
     0
 42
0.0000000001
 43
0.0000000001
 40
0.0
 40
0.0
 40
0.0
 40
0.0
 40
0.1027022129701241
 40
0.1027022129701241
 40
0.7279570392031931
 40
0.7279570392031931
 40
0.878711546942449
 40
0.878711546942449
 40
1.007573759621968
 40
1.007573759621968
 40
1.007573759621968
 40
1.007573759621968
 10
182.67659775632
 20
614.6558140024234
 30
0.0
 10
182.649585037404
 20
614.642053631419
 30
0.0
 10
182.6226691471738
 20
614.6287923464662
 30
0.0
 10
182.4327519281914
 20
614.5386857377874
 30
0.0
 10
182.2961396191222
 20
614.4918925523839
 30
0.0
 10
182.153386844211
 20
614.4644018469493
 30
0.0
 10
182.125700537099
 20
614.460261732507
 30
0.0
 10
182.0746596978924
 20
614.4553254533292
 30
0.0
 10
182.0519974303934
 20
614.4541772953886
 30
0.0
 10
182.0301082173218
 20
614.4541607974963
 30
0.0
  0
SPLINE
  5
1415
330
1F
100
AcDbEntity
  8
Hewi
100
AcDbSpline
210
0.0
220
0.0
230
1.0
 70
     8
 71
     3
 72
    20
 73
    16
 74
     0
 42
0.0000000001
 43
0.0000000001
 40
0.1476977204276086
 40
0.1476977204276086
 40
0.1476977204276086
 40
0.1476977204276086
 40
0.2758370288594389
 40
0.2758370288594389
 40
0.293331138459643
 40
0.293331138459643
 40
0.301426564545421
 40
0.301426564545421
 40
0.3203753852087088
 40
0.3203753852087088
 40
0.3465415963585574
 40
0.3465415963585574
 40
0.3510419892013851
 40
0.3510419892013851
 40
0.3544686228257871
 40
0.3544686228257871
 40
0.3544686228257871
 40
0.3544686228257871
 10
182.8335885118194
 20
614.7587793675802
 30
0.0
 10
182.8036283484798
 20
614.7343132929559
 30
0.0
 10
182.7722969021461
 20
614.7117256126294
 30
0.0
 10
182.734722925934
 20
614.6883656323835
 30
0.0
 10
182.7301803129458
 20
614.6855994883071
 30
0.0
 10
182.723492472006
 20
614.6816125211237
 30
0.0
 10
182.7213704669957
 20
614.6803599167451
 30
0.0
 10
182.7142605073786
 20
614.6762046142082
 30
0.0
 10
182.7092444831023
 20
614.673341195989
 30
0.0
 10
182.6972195742119
 20
614.6666399509597
 30
0.0
 10
182.6901796055972
 20
614.6628465531166
 30
0.0
 10
182.681851760185
 20
614.6585125539542
 30
0.0
 10
182.6806276798188
 20
614.6578793494267
 30
0.0
 10
182.6784681466197
 20
614.6567690073825
 30
0.0
 10
182.677533516432
 20
614.6562906818112
 30
0.0
 10
182.6765977563036
 20
614.6558140024152
 30
0.0
  0
LINE
  5
1416
330
1F
100
AcDbEntity
  8
Hewi
100
AcDbLine
 10
203.2083611205808
 20
638.322403592478
 30
0.0
 11
203.3583611205795
 21
638.322403592478
 31
0.0
  0
LINE
  5
1417
330
1F
100
AcDbEntity
  8
Hewi
100
AcDbLine
 10
203.2083611205808
 20
603.5224035924779
 30
0.0
 11
203.3583611205795
 21
603.5224035924779
 31
0.0
  0
LINE
  5
1418
330
1F
100
AcDbEntity
  8
Hewi
100
AcDbLine
 10
181.3775999361232
 20
614.4542050569574
 30
0.0
 11
182.0301750580647
 21
614.4542050569574
 31
0.0
  0
LINE
  5
1419
330
1F
100
AcDbEntity
  8
Hewi
100
AcDbLine
 10
178.7083611205806
 20
640.922403592478
 30
0.0
 11
203.2083611205808
 21
640.922403592478
 31
0.0
  0
LINE
  5
141A
330
1F
100
AcDbEntity
  8
Hewi
100
AcDbLine
 10
178.7083611205806
 20
600.9224035924781
 30
0.0
 11
203.2083611205808
 21
600.9224035924781
 31
0.0
  0
LINE
  5
141B
330
1F
100
AcDbEntity
  8
Hewi
100
AcDbLine
 10
253.5583611205793
 20
600.9223810481508
 30
0.0
 11
218.5583611205793
 21
600.9223810481508
 31
0.0
  0
LINE
  5
141C
330
1F
100
AcDbEntity
  8
Hewi
100
AcDbLine
 10
218.5583611205793
 20
600.9224035924781
 30
0.0
 11
212.0583611205793
 21
600.9224035924781
 31
0.0
  0
LINE
  5
141D
330
1F
100
AcDbEntity
  8
Hewi
100
AcDbLine
 10
211.8583611205795
 20
600.9224035924762
 30
0.0
 11
203.3583611205795
 21
600.9224035924762
 31
0.0
  0
LINE
  5
141E
330
1F
100
AcDbEntity
  8
Hewi
100
AcDbLine
 10
209.3583611205804
 20
640.9224035924762
 30
0.0
 11
203.3583611205795
 21
640.9224035924762
 31
0.0
  0
LINE
  5
141F
330
1F
100
AcDbEntity
  8
Hewi
100
AcDbLine
 10
211.8583611205795
 20
628.9224035924771
 30
0.0
 11
212.0583611205793
 21
628.9224035924771
 31
0.0
  0
LINE
  5
1420
330
1F
100
AcDbEntity
  8
Hewi
100
AcDbLine
 10
211.8583611205795
 20
612.9224035924777
 30
0.0
 11
212.0583611205793
 21
612.9224035924777
 31
0.0
  0
LINE
  5
1421
330
1F
100
AcDbEntity
  8
Hewi
100
AcDbLine
 10
212.0583611205793
 20
625.1650442795976
 30
0.0
 11
211.8583611205795
 21
625.1650442795976
 31
0.0
  0
LINE
  5
1422
330
1F
100
AcDbEntity
  8
Hewi
100
AcDbLine
 10
212.0583611205793
 20
622.9929559532977
 30
0.0
 11
211.8583611205795
 21
622.9929559532977
 31
0.0
  0
LINE
  5
1423
330
1F
100
AcDbEntity
  8
Hewi
100
AcDbLine
 10
211.8583611205795
 20
626.5792578419699
 30
0.0
 11
212.0583611205793
 21
626.5792578419699
 31
0.0
  0
LINE
  5
1424
330
1F
100
AcDbEntity
  8
Hewi
100
AcDbLine
 10
211.3583611205804
 20
629.6402014795781
 30
0.0
 11
211.8583611205795
 21
629.6402014795781
 31
0.0
  0
SPLINE
  5
1425
330
1F
100
AcDbEntity
  8
Hewi
100
AcDbSpline
210
0.0
220
0.0
230
1.0
 70
     8
 71
     3
 72
    18
 73
    14
 74
     0
 42
0.0000000001
 43
0.0000000001
 40
-4.49455063240396
 40
-4.49455063240396
 40
-4.49455063240396
 40
-4.49455063240396
 40
-3.042993563053926
 40
-3.042993563053926
 40
-2.317215028378913
 40
-2.317215028378913
 40
-1.591436493703898
 40
-1.591436493703898
 40
-0.7957182468519495
 40
-0.7957182468519495
 40
-0.3978591234259738
 40
-0.3978591234259738
 40
0.0
 40
0.0
 40
0.0
 40
0.0
 10
209.3583611205804
 20
632.9224035924876
 30
0.0
 10
209.3583611205804
 20
632.535321707328
 30
0.0
 10
209.4236014326116
 20
632.1045567204483
 30
0.0
 10
209.6185189536909
 20
631.4645771319908
 30
0.0
 10
209.6992794579901
 20
631.2523828573629
 30
0.0
 10
209.8908132219485
 20
630.8435120303275
 30
0.0
 10
210.0014309065136
 20
630.6467860548085
 30
0.0
 10
210.2659091342739
 20
630.266479965218
 30
0.0
 10
210.44116494647
 20
630.0607814416621
 30
0.0
 10
210.7516693486832
 20
629.8261274687214
 30
0.0
 10
210.8629934390392
 20
629.7602497265167
 30
0.0
 10
211.1000470865893
 20
629.6673157897417
 30
0.0
 10
211.2257414127717
 20
629.6402014795752
 30
0.0
 10
211.3583611205804
 20
629.6402014795752
 30
0.0
  0
LINE
  5
1426
330
1F
100
AcDbEntity
  8
Hewi
100
AcDbLine
 10
211.8583611205795
 20
600.9224035924762
 30
0.0
 11
211.8583611205795
 21
629.6402014795781
 31
0.0
  0
LINE
  5
1427
330
1F
100
AcDbEntity
  8
Hewi
100
AcDbLine
 10
203.3583611205795
 20
640.9224035924762
 30
0.0
 11
203.3583611205795
 21
600.9224035924762
 31
0.0
  0
LINE
  5
1428
330
1F
100
AcDbEntity
  8
Hewi
100
AcDbLine
 10
211.8583611205795
 20
629.6402014795781
 30
0.0
 11
218.5583611205793
 21
629.6402014795781
 31
0.0
  0
LINE
  5
1429
330
1F
100
AcDbEntity
  8
Hewi
100
AcDbLine
 10
209.3583611205804
 20
662.922403592477
 30
0.0
 11
209.3583611205804
 21
632.9224035924876
 31
0.0
  0
ARC
  5
142A
330
1F
100
AcDbEntity
  8
Hewi
100
AcDbCircle
 10
236.0583611205793
 20
662.922403592477
 30
0.0
 40
26.69999999999936
100
AcDbArc
 50
110.8428039567435
 51
180.0
  0
LINE
  5
142B
330
1F
100
AcDbEntity
  8
Hewi
100
AcDbLine
 10
212.0583611205793
 20
629.6402014795916
 30
0.0
 11
212.0583611205793
 21
600.9224035924781
 31
0.0
  0
LINE
  5
142C
330
1F
100
AcDbEntity
  8
Hewi
100
AcDbLine
 10
218.5583611205793
 20
629.6402531997132
 30
0.0
 11
218.5583611205793
 21
600.9223810481508
 31
0.0
  0
LINE
  5
142D
330
1F
100
AcDbEntity
  8
Hewi
100
AcDbLine
 10
253.5583611205793
 20
600.9223810481508
 30
0.0
 11
253.5583611205793
 21
629.6402531997132
 31
0.0
  0
LINE
  5
142E
330
1F
100
AcDbEntity
  8
Hewi
100
AcDbLine
 10
203.2083611205808
 20
640.922403592478
 30
0.0
 11
203.2083611205808
 21
606.7802679687463
 31
0.0
  0
LINE
  5
142F
330
1F
100
AcDbEntity
  8
Hewi
100
AcDbLine
 10
203.2083611205808
 20
606.780267968747
 30
0.0
 11
203.2083611205808
 21
600.9224035924781
 31
0.0
  0
LINE
  5
1430
330
1F
100
AcDbEntity
  8
Hewi
100
AcDbLine
 10
177.7083611205806
 20
618.8306435904368
 30
0.0
 11
177.7083611205806
 21
602.0378983012647
 31
0.0
  0
LINE
  5
1431
330
1F
100
AcDbEntity
  8
Hewi
100
AcDbLine
 10
177.7083611205806
 20
602.0378983012647
 30
0.0
 11
177.7083611205806
 21
601.9224035924779
 31
0.0
  0
LINE
  5
1432
330
1F
100
AcDbEntity
  8
Hewi
100
AcDbLine
 10
177.7083611205806
 20
639.922403592478
 30
0.0
 11
177.7083611205806
 21
618.8306435904368
 31
0.0
  0
ARC
  5
1433
330
1F
100
AcDbEntity
  8
Hewi
100
AcDbCircle
 10
268.9083611205797
 20
602.9224035924777
 30
0.0
 40
1.999999999999999
100
AcDbArc
 50
270.0
 51
0.0
  0
ARC
  5
1434
330
1F
100
AcDbEntity
  8
Hewi
100
AcDbCircle
 10
268.9083611205797
 20
638.9224035924776
 30
0.0
 40
1.999999999999999
100
AcDbArc
 50
0.0
 51
90.0
  0
LINE
  5
1435
330
1F
100
AcDbEntity
  8
Hewi
100
AcDbLine
 10
268.7583611205791
 20
600.9224035924762
 30
0.0
 11
260.2583611205791
 21
600.9224035924762
 31
0.0
  0
LINE
  5
1436
330
1F
100
AcDbEntity
  8
Hewi
100
AcDbLine
 10
268.7583611205791
 20
640.9224035924762
 30
0.0
 11
262.7583611205782
 21
640.9224035924762
 31
0.0
  0
LINE
  5
1437
330
1F
100
AcDbEntity
  8
Hewi
100
AcDbLine
 10
268.7583611205791
 20
638.3224035924777
 30
0.0
 11
268.9083611205797
 21
638.3224035924777
 31
0.0
  0
LINE
  5
1438
330
1F
100
AcDbEntity
  8
Hewi
100
AcDbLine
 10
268.7583611205791
 20
603.5224035924775
 30
0.0
 11
268.9083611205797
 21
603.5224035924775
 31
0.0
  0
LINE
  5
1439
330
1F
100
AcDbEntity
  8
Hewi
100
AcDbLine
 10
260.0583611205793
 20
628.9224035924771
 30
0.0
 11
260.2583611205791
 21
628.9224035924771
 31
0.0
  0
LINE
  5
143A
330
1F
100
AcDbEntity
  8
Hewi
100
AcDbLine
 10
260.0583611205793
 20
612.9224035924777
 30
0.0
 11
260.2583611205791
 21
612.9224035924777
 31
0.0
  0
LINE
  5
143B
330
1F
100
AcDbEntity
  8
Hewi
100
AcDbLine
 10
268.9083611205797
 20
640.9224035924776
 30
0.0
 11
268.9083611205797
 21
635.0645392162086
 31
0.0
  0
LINE
  5
143C
330
1F
100
AcDbEntity
  8
Hewi
100
AcDbLine
 10
268.9083611205797
 20
635.0645392162086
 30
0.0
 11
268.9083611205797
 21
600.9224035924781
 31
0.0
  0
LINE
  5
143D
330
1F
100
AcDbEntity
  8
Hewi
100
AcDbLine
 10
270.9083611205797
 20
638.9224035924776
 30
0.0
 11
270.9083611205797
 21
633.6503256538352
 31
0.0
  0
LINE
  5
143E
330
1F
100
AcDbEntity
  8
Hewi
100
AcDbLine
 10
270.9083611205797
 20
633.6503256538358
 30
0.0
 11
270.9083611205797
 21
602.9224035924777
 31
0.0
  0
LINE
  5
143F
330
1F
100
AcDbEntity
  8
Hewi
100
AcDbLine
 10
260.2583611205791
 20
629.6402014795781
 30
0.0
 11
260.7583611205782
 21
629.6402014795781
 31
0.0
  0
LINE
  5
1440
330
1F
100
AcDbEntity
  8
Hewi
100
AcDbLine
 10
260.2583611205791
 20
600.9224035924762
 30
0.0
 11
260.2583611205791
 21
629.6402014795781
 31
0.0
  0
SPLINE
  5
1441
330
1F
100
AcDbEntity
  8
Hewi
100
AcDbSpline
210
0.0
220
0.0
230
1.0
 70
     8
 71
     3
 72
    18
 73
    14
 74
     0
 42
0.0000000001
 43
0.0000000001
 40
0.0
 40
0.0
 40
0.0
 40
0.0
 40
0.3978591234259627
 40
0.3978591234259627
 40
0.7957182468519255
 40
0.7957182468519255
 40
1.59143649370385
 40
1.59143649370385
 40
2.31721502837871
 40
2.31721502837871
 40
3.042993563053578
 40
3.042993563053578
 40
4.494550632403308
 40
4.494550632403308
 40
4.494550632403308
 40
4.494550632403308
 10
260.7583611205782
 20
629.6402014795762
 30
0.0
 10
260.890980828387
 20
629.6402014795762
 30
0.0
 10
261.0166751545694
 20
629.6673157897425
 30
0.0
 10
261.2537288021195
 20
629.7602497265174
 30
0.0
 10
261.3650528924754
 20
629.826127468722
 30
0.0
 10
261.6755572946886
 20
630.0607814416625
 30
0.0
 10
261.8508131068848
 20
630.2664799652183
 30
0.0
 10
262.115291334645
 20
630.6467860548091
 30
0.0
 10
262.2259090192101
 20
630.8435120303284
 30
0.0
 10
262.4174427831686
 20
631.2523828573635
 30
0.0
 10
262.4982032874677
 20
631.4645771319908
 30
0.0
 10
262.693120808547
 20
632.1045567204487
 30
0.0
 10
262.7583611205782
 20
632.535321707328
 30
0.0
 10
262.7583611205782
 20
632.9224035924876
 30
0.0
  0
LINE
  5
1442
330
1F
100
AcDbEntity
  8
Hewi
100
AcDbLine
 10
268.7583611205791
 20
640.9224035924762
 30
0.0
 11
268.7583611205791
 21
600.9224035924762
 31
0.0
  0
LINE
  5
1443
330
1F
100
AcDbEntity
  8
Hewi
100
AcDbLine
 10
262.7583611205782
 20
662.922403592477
 30
0.0
 11
262.7583611205782
 21
632.9224035924876
 31
0.0
  0
LINE
  5
1444
330
1F
100
AcDbEntity
  8
Hewi
100
AcDbLine
 10
260.0583611205793
 20
629.6402014795916
 30
0.0
 11
260.0583611205793
 21
600.9224035924781
 31
0.0
  0
LINE
  5
1469
330
1F
100
AcDbEntity
  8
Hewi
100
AcDbLine
 10
907.5583611205791
 20
67.01969697966433
 30
0.0
 11
907.5583611205791
 21
44.51969697966432
 31
0.0
  0
LINE
  5
146A
330
1F
100
AcDbEntity
  8
Hewi
100
AcDbLine
 10
940.5583611205791
 20
44.51969697966432
 30
0.0
 11
940.5583611205791
 21
67.01969697966433
 31
0.0
  0
LINE
  5
146B
330
1F
100
AcDbEntity
  8
Hewi
100
AcDbLine
 10
929.5253525315919
 20
-8.513311609337506
 30
0.0
 11
945.4352551082983
 21
-24.42321418602956
 31
0.0
  0
LINE
  5
146C
330
1F
100
AcDbEntity
  8
Hewi
100
AcDbLine
 10
968.7697788874492
 20
-1.08869040687864
 30
0.0
 11
952.859876310743
 21
14.82121216982728
 31
0.0
  0
LINE
  5
146D
330
1F
100
AcDbEntity
  8
Hewi
100
AcDbLine
 10
908.058361120579
 20
67.51779432870944
 30
0.0
 11
940.0583611205792
 21
67.51779432870944
 31
0.0
  0
LINE
  5
146E
330
1F
100
AcDbEntity
  8
Hewi
100
AcDbLine
 10
907.5583611205791
 20
44.51969697966432
 30
0.0
 11
907.5583611205791
 21
44.51969697966432
 31
0.0
  0
LINE
  5
146F
330
1F
100
AcDbEntity
  8
Hewi
100
AcDbLine
 10
924.058361120579
 20
67.51969697966433
 30
0.0
 11
940.0583591929308
 21
67.51969697966433
 31
0.0
  0
LINE
  5
1470
330
1F
100
AcDbEntity
  8
Hewi
100
AcDbLine
 10
924.058361120579
 20
67.51969697966433
 30
0.0
 11
940.0583611205792
 21
67.51969697966433
 31
0.0
  0
LINE
  5
1471
330
1F
100
AcDbEntity
  8
Hewi
100
AcDbLine
 10
969.1233322780451
 20
-1.442243797460603
 30
0.0
 11
969.1233322780451
 21
-1.442243797460603
 31
0.0
  0
ARC
  5
1473
330
1F
100
AcDbEntity
  8
Hewi
100
AcDbCircle
 10
908.058361120579
 20
67.01969697966433
 30
0.0
 40
0.5
100
AcDbArc
 50
93.53493913666151
 51
180.0
  0
ARC
  5
1474
330
1F
100
AcDbEntity
  8
Hewi
100
AcDbCircle
 10
940.0583611205792
 20
67.01969697966433
 30
0.0
 40
0.5
100
AcDbArc
 50
0.0
 51
86.46506086333848
  0
ARC
  5
1475
330
1F
100
AcDbEntity
  8
Hewi
100
AcDbCircle
 10
-982.5583611205791
 20
44.51969697966432
 30
0.0
 40
42.00000000000001
210
0.0
220
0.0
230
-1.0
100
AcDbArc
 50
314.9999999999352
 51
0.0
  0
ARC
  5
1476
330
1F
100
AcDbEntity
  8
Hewi
100
AcDbCircle
 10
982.5583611205791
 20
44.51969697966432
 30
0.0
 40
75.00000000000001
100
AcDbArc
 50
180.0
 51
225.0000000000647
  0
ARC
  5
1477
330
1F
100
AcDbEntity
  8
Hewi
100
AcDbCircle
 10
968.4162254968532
 20
-1.442243797474475
 30
0.0
 40
0.5
100
AcDbArc
 50
314.9999999999352
 51
45.00000000006471
  0
ARC
  5
1478
330
1F
100
AcDbEntity
  8
Hewi
100
AcDbCircle
 10
945.7888084988796
 20
-24.06966079543349
 30
0.0
 40
0.5
100
AcDbArc
 50
225.0000000000647
 51
314.9999999999352
  0
ARC
  5
1479
330
1F
100
AcDbEntity
  8
Hewi
100
AcDbCircle
 10
946.6373366363104
 20
-23.92823943919552
 30
0.0
 40
1.199999999999999
100
AcDbArc
 50
225.0000000000647
 51
307.186286772202
  0
ARC
  5
147A
330
1F
100
AcDbEntity
  8
Hewi
100
AcDbCircle
 10
968.2748041406147
 20
-2.29077193489047
 30
0.0
 40
1.199999999999999
100
AcDbArc
 50
322.8137132280941
 51
45.00000000006471
  0
ARC
  5
147B
330
1F
100
AcDbEntity
  8
Hewi
100
AcDbCircle
 10
873.6298615954863
 20
69.5129525550551
 30
0.0
 40
120.0
100
AcDbArc
 50
315.4064120063231
 51
322.8137132280941
  0
ARC
  5
147C
330
1F
100
AcDbEntity
  8
Hewi
100
AcDbCircle
 10
874.8336121463644
 20
70.71670310593299
 30
0.0
 40
120.0
100
AcDbArc
 50
307.186286772202
 51
314.593587993512
  0
ARC
  5
147D
330
1F
100
AcDbEntity
  8
Hewi
100
AcDbCircle
 10
940.0583611205792
 20
68.01779432870944
 30
0.0
 40
0.5
100
AcDbArc
 50
273.5349391366615
 51
0.0
  0
ARC
  5
147E
330
1F
100
AcDbEntity
  8
Hewi
100
AcDbCircle
 10
908.058361120579
 20
68.01779432870944
 30
0.0
 40
0.5
100
AcDbArc
 50
180.0
 51
266.4650608633384
  0
LINE
  5
1720
330
1F
100
AcDbEntity
  8
Hewi
100
AcDbLine
 10
940.5583611205791
 20
564.3717605608042
 30
0.0
 11
940.5583611205791
 21
614.8717605608042
 31
0.0
  0
LINE
  5
1721
330
1F
100
AcDbEntity
  8
Hewi
100
AcDbLine
 10
907.5583611205791
 20
44.51969697966432
 30
0.0
 11
907.5583611205791
 21
614.8717605608042
 31
0.0
  0
ARC
  5
1722
330
1F
100
AcDbEntity
  8
Hewi
100
AcDbCircle
 10
875.5583611205791
 20
614.8717605608042
 30
0.0
 40
65.0
100
AcDbArc
 50
0.0
 51
90.0
  0
ARC
  5
1723
330
1F
100
AcDbEntity
  8
Hewi
100
AcDbCircle
 10
875.5583611205791
 20
614.8717605608042
 30
0.0
 40
32.0
100
AcDbArc
 50
0.0
 51
90.0
  0
LINE
  5
1725
330
1F
100
AcDbEntity
  8
Hewi
100
AcDbLine
 10
940.5752639786067
 20
538.8717605608043
 30
0.0
 11
984.5579665531539
 21
538.8717605608043
 31
0.0
  0
LINE
  5
1726
330
1F
100
AcDbEntity
  8
Hewi
100
AcDbLine
 10
984.5579619396879
 20
556.8717605608043
 30
0.0
 11
940.5589914589208
 21
556.8717605608043
 31
0.0
  0
LINE
  5
1727
330
1F
100
AcDbEntity
  8
Hewi
100
AcDbLine
 10
986.5583611205792
 20
507.8717605608042
 30
0.0
 11
997.5583611205792
 21
507.8717605608042
 31
0.0
  0
LINE
  5
1728
330
1F
100
AcDbEntity
  8
Hewi
100
AcDbLine
 10
997.5583611205792
 20
587.8717605608041
 30
0.0
 11
986.5583611205792
 21
587.8717605608041
 31
0.0
  0
LINE
  5
1729
330
1F
100
AcDbEntity
  8
Hewi
100
AcDbLine
 10
984.5583611205793
 20
509.8717605608043
 30
0.0
 11
984.5583611205793
 21
585.8717605608042
 31
0.0
  0
LINE
  5
172A
330
1F
100
AcDbEntity
  8
Hewi
100
AcDbLine
 10
997.5583611205792
 20
507.8717605608042
 30
0.0
 11
997.5583611205792
 21
587.8717605608041
 31
0.0
  0
ARC
  5
172B
330
1F
100
AcDbEntity
  8
Hewi
100
AcDbCircle
 10
986.5583611205792
 20
509.8717605608043
 30
0.0
 40
2.0
100
AcDbArc
 50
180.0
 51
270.0
  0
ARC
  5
172C
330
1F
100
AcDbEntity
  8
Hewi
100
AcDbCircle
 10
986.5583611205792
 20
585.8717605608042
 30
0.0
 40
2.0
100
AcDbArc
 50
90.0
 51
180.0
  0
SPLINE
  5
172D
330
1F
100
AcDbEntity
  8
Hewi
100
AcDbSpline
210
0.0
220
0.0
230
1.0
 70
     8
 71
     3
 72
    14
 73
    10
 74
     0
 42
0.0000000001
 43
0.0000000001
 40
0.0
 40
0.0
 40
0.0
 40
0.0
 40
0.2434300440914431
 40
0.2434300440914431
 40
0.4956200293942957
 40
0.4956200293942957
 40
0.7478100146971479
 40
0.7478100146971479
 40
1.0
 40
1.0
 40
1.0
 40
1.0
 10
940.5580974709582
 20
556.8640866733558
 30
0.0
 10
940.5574097378694
 20
556.7659729761588
 30
0.0
 10
940.0094380348592
 20
555.7290909549127
 30
0.0
 10
938.7189485372791
 20
552.4673077545092
 30
0.0
 10
938.0255298412656
 20
550.1384290496433
 30
0.0
 10
938.0074525993832
 20
545.327056998628
 30
0.0
 10
938.6966314905283
 20
543.0001245590329
 30
0.0
 10
940.0122589323718
 20
539.7931910451377
 30
0.0
 10
940.5867254152536
 20
538.8218219826166
 30
0.0
 10
940.5571375054559
 20
538.8738225638016
 30
0.0
  0
LINE
  5
1747
330
1F
100
AcDbEntity
  8
Hewi
100
AcDbLine
 10
940.5583611205791
 20
44.51969697966432
 30
0.0
 11
940.5583611205791
 21
614.8717605608042
 31
0.0
  0
LINE
  5
1749
330
1F
100
AcDbEntity
  8
Hewi
100
AcDbLine
 10
940.5583611205791
 20
131.3717605608043
 30
0.0
 11
940.5583611205791
 21
181.8717605608043
 31
0.0
  0
LINE
  5
174A
330
1F
100
AcDbEntity
  8
Hewi
100
AcDbLine
 10
940.5752639786067
 20
105.8717605608044
 30
0.0
 11
984.5579665531539
 21
105.8717605608044
 31
0.0
  0
LINE
  5
174B
330
1F
100
AcDbEntity
  8
Hewi
100
AcDbLine
 10
984.5579619396875
 20
123.8717605608044
 30
0.0
 11
940.5589914589208
 21
123.8717605608044
 31
0.0
  0
LINE
  5
174C
330
1F
100
AcDbEntity
  8
Hewi
100
AcDbLine
 10
986.5583611205792
 20
74.87176056080443
 30
0.0
 11
997.5583611205792
 21
74.87176056080443
 31
0.0
  0
LINE
  5
174D
330
1F
100
AcDbEntity
  8
Hewi
100
AcDbLine
 10
997.5583611205792
 20
154.8717605608044
 30
0.0
 11
986.5583611205792
 21
154.8717605608044
 31
0.0
  0
LINE
  5
174E
330
1F
100
AcDbEntity
  8
Hewi
100
AcDbLine
 10
984.5583611205793
 20
76.87176056080443
 30
0.0
 11
984.5583611205793
 21
152.8717605608044
 31
0.0
  0
LINE
  5
174F
330
1F
100
AcDbEntity
  8
Hewi
100
AcDbLine
 10
997.5583611205792
 20
74.87176056080443
 30
0.0
 11
997.5583611205792
 21
154.8717605608044
 31
0.0
  0
ARC
  5
1750
330
1F
100
AcDbEntity
  8
Hewi
100
AcDbCircle
 10
986.5583611205792
 20
76.87176056080443
 30
0.0
 40
2.0
100
AcDbArc
 50
180.0
 51
270.0
  0
ARC
  5
1751
330
1F
100
AcDbEntity
  8
Hewi
100
AcDbCircle
 10
986.5583611205792
 20
152.8717605608044
 30
0.0
 40
2.0
100
AcDbArc
 50
90.0
 51
180.0
  0
SPLINE
  5
1752
330
1F
100
AcDbEntity
  8
Hewi
100
AcDbSpline
210
0.0
220
0.0
230
1.0
 70
     8
 71
     3
 72
    14
 73
    10
 74
     0
 42
0.0000000001
 43
0.0000000001
 40
0.0
 40
0.0
 40
0.0
 40
0.0
 40
0.2434300440914431
 40
0.2434300440914431
 40
0.4956200293942957
 40
0.4956200293942957
 40
0.7478100146971479
 40
0.7478100146971479
 40
1.0
 40
1.0
 40
1.0
 40
1.0
 10
940.5580974709579
 20
123.8640866733557
 30
0.0
 10
940.5574097378694
 20
123.765972976159
 30
0.0
 10
940.0094380348592
 20
122.7290909549128
 30
0.0
 10
938.7189485372791
 20
119.4673077545094
 30
0.0
 10
938.0255298412656
 20
117.1384290496435
 30
0.0
 10
938.0074525993832
 20
112.327056998628
 30
0.0
 10
938.6966314905283
 20
110.0001245590329
 30
0.0
 10
940.0122589323718
 20
106.793191045138
 30
0.0
 10
940.5867254152536
 20
105.8218219826167
 30
0.0
 10
940.5571375054559
 20
105.8738225638017
 30
0.0
  0
ARC
  5
17CD
330
1F
100
AcDbEntity
  8
Hewi
100
AcDbCircle
 10
284.0583611205793
 20
1207.49933736742
 30
0.0000000000000059
 40
65.0
100
AcDbArc
 50
180.0
 51
270.0
  0
ARC
  5
17CE
330
1F
100
AcDbEntity
  8
Hewi
100
AcDbCircle
 10
284.0583611205793
 20
1207.49933736742
 30
0.0000000000000059
 40
32.0
100
AcDbArc
 50
180.0
 51
270.0
  0
ARC
  5
180A
330
1F
100
AcDbEntity
  8
Hewi
100
AcDbCircle
 10
808.5583611205791
 20
1158.99933736742
 30
0.0
 40
40.0
100
AcDbArc
 50
24.36197793997992
 51
155.63802206002
  0
LWPOLYLINE
  5
180B
330
1F
100
AcDbEntity
  8
Hewi
100
AcDbPolyline
 90
        4
 70
     0
 43
0.0
 10
924.0583611205792
 20
1175.49933736742
 10
284.0583611205793
 20
1175.49933736742
 10
284.0583611205793
 20
1142.499337367421
 10
924.0583611205792
 20
1142.499337367421
  0
ARC
  5
1855
330
1F
100
AcDbEntity
  8
Hewi
100
AcDbCircle
 10
1285.836994244903
 20
1158.99933736742
 30
0.0000000000000135
 40
16.5
100
AcDbArc
 50
180.0
 51
0.0
  0
LINE
  5
1856
330
1F
100
AcDbEntity
  8
Hewi
100
AcDbLine
 10
1302.336994244903
 20
1175.49933736742
 30
0.0
 11
1885.255717839717
 21
1175.49933736742
 31
0.0
  0
LINE
  5
1857
330
1F
100
AcDbEntity
  8
Hewi
100
AcDbLine
 10
1285.836994244903
 20
1142.499337367421
 30
0.0
 11
1885.255717839717
 21
1142.499337367421
 31
0.0
  0
LINE
  5
1858
330
1F
100
AcDbEntity
  8
Hewi
  6
Continuous
100
AcDbLine
 10
1269.336500374409
 20
1282.99933736742
 30
0.0
 11
1225.337223484993
 21
1282.99933736742
 31
0.0
  0
LINE
  5
1859
330
1F
100
AcDbEntity
  8
Hewi
  6
Continuous
100
AcDbLine
 10
1225.337545816886
 20
1264.99933736742
 30
0.0
 11
1269.337135054311
 21
1264.999341244513
 31
0.0
  0
LINE
  5
185A
330
1F
100
AcDbEntity
  8
Hewi
  6
Continuous
100
AcDbLine
 10
1223.336994244903
 20
1313.999337367421
 30
0.0
 11
1212.336994244903
 21
1313.999337367421
 31
0.0
  0
LINE
  5
185B
330
1F
100
AcDbEntity
  8
Hewi
  6
Continuous
100
AcDbLine
 10
1212.336994244903
 20
1233.99933736742
 30
0.0
 11
1223.336994244903
 21
1233.99933736742
 31
0.0
  0
LINE
  5
185C
330
1F
100
AcDbEntity
  8
Hewi
  6
Continuous
100
AcDbLine
 10
1212.336994244903
 20
1233.99933736742
 30
0.0
 11
1212.336994244903
 21
1313.999337367421
 31
0.0
  0
LINE
  5
185D
330
1F
100
AcDbEntity
  8
Hewi
  6
Continuous
100
AcDbLine
 10
1225.336994244903
 20
1235.99933736742
 30
0.0
 11
1225.336994244903
 21
1311.99933736742
 31
0.0
  0
ARC
  5
185E
330
1F
100
AcDbEntity
  8
Hewi
  6
Continuous
100
AcDbCircle
 10
1223.336994244903
 20
1311.99933736742
 30
0.0
 40
2.0
100
AcDbArc
 50
0.0
 51
90.0
  0
ARC
  5
185F
330
1F
100
AcDbEntity
  8
Hewi
  6
Continuous
100
AcDbCircle
 10
1223.336994244903
 20
1235.99933736742
 30
0.0
 40
2.0
100
AcDbArc
 50
270.0
 51
0.0
  0
ARC
  5
18B5
330
1F
100
AcDbEntity
  8
Hewi
100
AcDbCircle
 10
1401.336994244903
 20
1158.99933736742
 30
0.0
 40
40.0
100
AcDbArc
 50
204.3619779399811
 51
335.6380220600189
  0
ARC
  5
18B7
330
1F
100
AcDbEntity
  8
Hewi
100
AcDbCircle
 10
1834.336994244903
 20
1158.99933736742
 30
0.0
 40
40.0
100
AcDbArc
 50
204.3619779399811
 51
335.6380220600189
  0
LINE
  5
18B9
330
1F
100
AcDbEntity
  8
Hewi
100
AcDbLine
 10
1882.394083079215
 20
1142.499336405339
 30
-0.0000000000000092
 11
1904.894083079215
 21
1142.499336405339
 31
-0.0000000000000113
  0
LINE
  5
18BA
330
1F
100
AcDbEntity
  8
Hewi
100
AcDbLine
 10
1904.894083079215
 20
1175.499336405339
 30
-0.0000000000000093
 11
1882.394083079215
 21
1175.499336405339
 31
-0.0000000000000072
  0
LINE
  5
18BB
330
1F
100
AcDbEntity
  8
Hewi
100
AcDbLine
 10
1946.259829778634
 20
1142.499336405339
 30
0.0000000000000087
 11
1962.169732355325
 21
1142.499336405339
 31
-0.000000000000001
  0
LINE
  5
18BC
330
1F
100
AcDbEntity
  8
Hewi
100
AcDbLine
 10
1962.169732355325
 20
1175.499336405339
 30
0.000000000000001
 11
1946.259829778634
 21
1175.499336405339
 31
0.0000000000000108
  0
LINE
  5
18BD
330
1F
100
AcDbEntity
  8
Hewi
100
AcDbLine
 10
1904.894083079215
 20
1142.499336405339
 30
-0.0000000000000113
 11
1946.259829778634
 21
1142.499336405339
 31
0.0000000000000087
  0
LINE
  5
18BE
330
1F
100
AcDbEntity
  8
Hewi
100
AcDbLine
 10
1946.259829778634
 20
1175.499336405339
 30
0.0000000000000108
 11
1904.894083079215
 21
1175.499336405339
 31
-0.0000000000000093
  0
LINE
  5
18BF
330
1F
100
AcDbEntity
  8
Hewi
100
AcDbLine
 10
1881.895985730169
 20
1142.999336405339
 30
-0.0000000000000098
 11
1881.895985730169
 21
1174.999336405339
 31
-0.0000000000000078
  0
LINE
  5
18C0
330
1F
100
AcDbEntity
  8
Hewi
100
AcDbLine
 10
1904.894083079215
 20
1142.499336405339
 30
-0.0000000000000113
 11
1904.894083079215
 21
1142.499336405339
 31
-0.0000000000000113
  0
LINE
  5
18C1
330
1F
100
AcDbEntity
  8
Hewi
100
AcDbLine
 10
1881.894083079215
 20
1174.999336405339
 30
-0.0000000000000078
 11
1881.894083079215
 21
1142.999336405339
 31
-0.0000000000000098
  0
ARC
  5
18C2
330
1F
100
AcDbEntity
  8
Hewi
100
AcDbCircle
 10
1882.394083079215
 20
1142.999336405339
 30
0.0000000000002466
 40
0.5
100
AcDbArc
 50
183.5349391366616
 51
270.0
  0
ARC
  5
18C3
330
1F
100
AcDbEntity
  8
Hewi
100
AcDbCircle
 10
1882.394083079215
 20
1174.999336405339
 30
0.0000000000002486
 40
0.5
100
AcDbArc
 50
90.0
 51
176.4650608633384
  0
ARC
  5
18C4
330
1F
100
AcDbEntity
  8
Hewi
100
AcDbCircle
 10
1881.39598573017
 20
1174.999336405339
 30
0.0000000000002474
 40
0.5
100
AcDbArc
 50
3.53493913666162
 51
90.0
  0
ARC
  5
18C5
330
1F
100
AcDbEntity
  8
Hewi
100
AcDbCircle
 10
1881.39598573017
 20
1142.999336405339
 30
0.0000000000002454
 40
0.5
100
AcDbArc
 50
270.0
 51
356.4650608633384
  0
ELLIPSE
  5
18C6
330
1F
100
AcDbEntity
  8
Hewi
100
AcDbEllipse
 10
1962.169732355325
 20
1158.999336405339
 30
0.0
 11
-0.000000000000002
 21
-16.5
 31
0.0
210
0.0
220
0.0
230
1.0
 40
0.7071067811865463
 41
0.0
 42
3.14159281861797
  0
ELLIPSE
  5
18C7
330
1F
100
AcDbEntity
  8
Hewi
100
AcDbEllipse
 10
1962.523285745922
 20
1158.999336405339
 30
0.0000000000000004
 11
-0.000000000000002
 21
-16.5
 31
0.0
210
0.0
220
0.0
230
1.0
 40
0.7071067811865466
 41
6.267968099393152
 42
6.283185307179584
  0
ARC
  5
18C9
330
1F
100
AcDbEntity
  8
Hewi
100
AcDbCircle
 10
1401.336994244903
 20
1158.99933736742
 30
0.0
 40
40.0
100
AcDbArc
 50
24.36197793998113
 51
155.6380220600188
  0
ARC
  5
18CA
330
1F
100
AcDbEntity
  8
Hewi
100
AcDbCircle
 10
1834.336994244903
 20
1158.99933736742
 30
0.0
 40
40.0
100
AcDbArc
 50
24.36197793998113
 51
155.6380220600188
  0
ARC
  5
196C
330
1F
100
AcDbEntity
  8
Hewi
100
AcDbCircle
 10
808.5583611205791
 20
1158.99933736742
 30
0.0
 40
40.0
100
AcDbArc
 50
204.3619779399781
 51
335.6380220600219
  0
ENDSEC
  0
SECTION
  2
OBJECTS
  0
DICTIONARY
  5
C
330
0
100
AcDbDictionary
281
     1
  3
ACAD_CIP_PREVIOUS_PRODUCT_INFO
350
1965
  3
ACAD_COLOR
350
6B
  3
ACAD_DETAILVIEWSTYLE
350
1961
  3
ACAD_GROUP
350
D
  3
ACAD_LAYOUT
350
1A
  3
ACAD_MATERIAL
350
6A
  3
ACAD_MLEADERSTYLE
350
195D
  3
ACAD_MLINESTYLE
350
17
  3
ACAD_PLOTSETTINGS
350
19
  3
ACAD_PLOTSTYLENAME
350
E
  3
ACAD_SCALELIST
350
194B
  3
ACAD_SECTIONVIEWSTYLE
350
195F
  3
ACAD_TABLESTYLE
350
7E
  3
ACAD_VISUALSTYLE
350
EF
  3
ACDB_RECOMPOSE_DATA
350
19E2
  3
AcDbVariableDictionary
350
5E
  3
DWGPROPS
350
19E3
  0
DICTIONARY
  5
141
330
2
100
AcDbDictionary
280
     1
281
     1
  3
ACAD_LAYERSTATES
360
142
  0
DICTIONARY
  5
196D
330
10
100
AcDbDictionary
280
     1
281
     1
  3
ADSK_XREC_LAYER_RECONCILED
360
196E
  0
DICTIONARY
  5
196F
330
13E
100
AcDbDictionary
280
     1
281
     1
  3
ADSK_XREC_LAYER_RECONCILED
360
1970
  0
DICTIONARY
  5
116
330
1F
100
AcDbDictionary
280
     1
281
     1
  3
ACAD_SORTENTS
360
117
  0
XRECORD
  5
1965
102
{ACAD_REACTORS
330
C
102
}
330
C
100
AcDbXrecord
280
     1
300
ACDLT
300
2013
300
ACDLT_F_S
  0
DICTIONARY
  5
6B
102
{ACAD_REACTORS
330
C
102
}
330
C
100
AcDbDictionary
281
     1
  0
DICTIONARY
  5
1961
102
{ACAD_REACTORS
330
C
102
}
330
C
100
AcDbDictionary
281
     1
  3
Metric50
350
1962
  0
DICTIONARY
  5
D
102
{ACAD_REACTORS
330
C
102
}
330
C
100
AcDbDictionary
281
     1
  0
DICTIONARY
  5
1A
102
{ACAD_REACTORS
330
C
102
}
330
C
100
AcDbDictionary
281
     1
  3
Layout1
350
D3
  3
Layout2
350
D7
  3
Model
350
22
  0
DICTIONARY
  5
6A
102
{ACAD_REACTORS
330
C
102
}
330
C
100
AcDbDictionary
281
     1
  3
ByBlock
350
ED
  3
ByLayer
350
EC
  3
Global
350
EE
  0
DICTIONARY
  5
195D
102
{ACAD_REACTORS
330
C
102
}
330
C
100
AcDbDictionary
281
     1
  3
Standard
350
195E
  0
DICTIONARY
  5
17
102
{ACAD_REACTORS
330
C
102
}
330
C
100
AcDbDictionary
281
     1
  3
Standard
350
18
  0
DICTIONARY
  5
19
102
{ACAD_REACTORS
330
C
102
}
330
C
100
AcDbDictionary
281
     1
  0
ACDBDICTIONARYWDFLT
  5
E
102
{ACAD_REACTORS
330
C
102
}
330
C
100
AcDbDictionary
281
     1
  3
Normal
350
F
100
AcDbDictionaryWithDefault
340
F
  0
DICTIONARY
  5
194B
102
{ACAD_REACTORS
330
C
102
}
330
C
100
AcDbDictionary
281
     1
  3
A0
350
194C
  3
A1
350
194D
  3
A2
350
194E
  3
A3
350
194F
  3
A4
350
1950
  3
A5
350
1951
  3
A6
350
1952
  3
A7
350
1953
  3
A8
350
1954
  3
A9
350
1955
  3
B0
350
1956
  3
B1
350
1957
  3
B2
350
1958
  3
B3
350
1959
  3
B4
350
195A
  3
B5
350
195B
  3
B6
350
195C
  0
DICTIONARY
  5
195F
102
{ACAD_REACTORS
330
C
102
}
330
C
100
AcDbDictionary
281
     1
  3
Metric50
350
1960
  0
DICTIONARY
  5
7E
102
{ACAD_REACTORS
330
C
102
}
330
C
100
AcDbDictionary
281
     1
  3
Standard
350
7F
  0
DICTIONARY
  5
EF
102
{ACAD_REACTORS
330
C
102
}
330
C
100
AcDbDictionary
281
     1
  3
2dWireframe
350
F5
  3
3D Hidden
350
F7
  3
3dWireframe
350
F6
  3
Basic
350
F4
  3
Brighten
350
FB
  3
ColorChange
350
FF
  3
Conceptual
350
F8
  3
Dim
350
FA
  3
EdgeColorOff
350
194A
  3
Facepattern
350
FE
  3
Flat
350
F0
  3
FlatWithEdges
350
F1
  3
Gouraud
350
F2
  3
GouraudWithEdges
350
F3
  3
Hidden
350
1942
  3
JitterOff
350
1948
  3
Linepattern
350
FD
  3
OverhangOff
350
1949
  3
Realistic
350
F9
  3
Shaded
350
1947
  3
Shaded with edges
350
1946
  3
Shades of Gray
350
1943
  3
Sketchy
350
1944
  3
Thicken
350
FC
  3
Wireframe
350
1941
  3
X-Ray
350
1945
  0
XRECORD
  5
19E2
102
{ACAD_REACTORS
330
C
102
}
330
C
100
AcDbXrecord
280
     1
 90
        1
330
7F
  0
DICTIONARY
  5
5E
102
{ACAD_REACTORS
330
C
102
}
330
C
100
AcDbDictionary
281
     1
  3
CANNOSCALE
350
1974
  3
CMLEADERSTYLE
350
1971
  3
CTABLESTYLE
350
84
  3
CVIEWDETAILSTYLE
350
1972
  3
CVIEWSECTIONSTYLE
350
1973
  3
DIMASSOC
350
5F
  3
HIDETEXT
350
63
  3
INDEXCTL
350
327
  3
LAYEREVAL
350
19C0
  3
LAYERNOTIFY
350
19C1
  3
LIGHTINGUNITS
350
19BF
  3
MSLTSCALE
350
19BE
  3
PSOLHEIGHT
350
19DF
  3
PSOLWIDTH
350
19DE
  3
SORTENTS
350
326
  3
XCLIPFRAME
350
19E0
  0
XRECORD
  5
19E3
102
{ACAD_REACTORS
330
C
102
}
330
C
100
AcDbXrecord
280
     1
  1
DWGPROPS COOKIE
  2

  3

  4

  6

  7

  8
kaschu
  9

300
=
301
=
302
=
303
=
304
=
305
=
306
=
307
=
308
=
309
=
 40
0.1101487268518519
 41
2454768.552548658
 42
2457302.648943577
  1

 90
        0
  0
DICTIONARY
  5
142
102
{ACAD_REACTORS
330
141
102
}
330
141
100
AcDbDictionary
281
     1
  0
XRECORD
  5
196E
102
{ACAD_REACTORS
330
196D
102
}
330
196D
100
AcDbXrecord
280
     1
290
     1
  0
XRECORD
  5
1970
102
{ACAD_REACTORS
330
196F
102
}
330
196F
100
AcDbXrecord
280
     1
290
     1
  0
SORTENTSTABLE
  5
117
102
{ACAD_REACTORS
330
116
102
}
330
116
100
AcDbSortentsTable
330
1F
331
13A6
  5
13AD
331
117C
  5
117C
331
1367
  5
1371
331
141C
  5
1423
331
13A2
  5
13A9
331
1178
  5
1178
331
1363
  5
136C
331
139E
  5
13A5
331
13DD
  5
13E4
331
1418
  5
141F
331
180A
  5
1855
331
1477
  5
147E
331
139A
  5
13A1
331
13D9
  5
13E0
331
1414
  5
141B
331
17CE
  5
1854
331
1473
  5
147A
331
1410
  5
1417
331
135B
  5
1366
331
1396
  5
139D
331
13D5
  5
13DC
331
116C
  5
116C
331
10C1
  5
10C1
331
146F
  5
1477
331
1357
  5
135E
331
1392
  5
1399
331
13D1
  5
13D8
331
140C
  5
1413
331
146B
  5
1472
331
1353
  5
135B
331
1408
  5
140F
331
13CD
  5
13D4
331
1752
  5
180A
331
18C9
  5
18B9
331
138A
  5
1391
331
13C9
  5
13D0
331
1404
  5
140B
331
1443
  5
144A
331
174E
  5
1752
331
18C5
  5
18C9
331
1400
  5
1407
331
196C
  5
1856
331
174A
  5
174E
331
18C1
  5
18C4
331
10B5
  5
10B5
331
1386
  5
138D
331
13C5
  5
13CC
331
134B
  5
134F
331
143F
  5
1446
331
1347
  5
134B
331
13C1
  5
13C8
331
1140
  5
1140
331
10AD
  5
10AD
331
13FC
  5
1403
331
18BD
  5
18C0
331
143B
  5
1442
331
1343
  5
1347
331
137E
  5
138A
331
13BD
  5
13C4
331
13F8
  5
13FF
331
1437
  5
143E
331
18B9
  5
18BC
331
13B9
  5
13C0
331
13F4
  5
13FB
331
1433
  5
143A
331
18B5
  5
18B8
331
13F0
  5
13F7
331
172A
  5
1749
331
133F
  5
1343
331
133B
  5
133F
331
1376
  5
1380
331
13B5
  5
13BC
331
1134
  5
1134
331
142F
  5
1436
331
1187
  5
1187
331
13B1
  5
13B8
331
1130
  5
1130
331
13EC
  5
13F3
331
1726
  5
172D
331
185D
  5
18B3
331
142B
  5
1432
331
13AD
  5
13B4
331
112C
  5
112C
331
13E8
  5
13EF
331
1722
  5
172A
331
1859
  5
185D
331
1427
  5
142E
331
13A9
  5
13B0
331
1423
  5
142A
331
147E
  5
15D8
331
1855
  5
185B
331
13E4
  5
13EB
331
147A
  5
15D4
331
13E0
  5
13E7
331
117F
  5
117F
331
117B
  5
117B
331
141F
  5
1426
331
13A5
  5
13AC
331
10CC
  5
10CC
331
141B
  5
1422
331
13A1
  5
13A8
331
1366
  5
136D
331
1362
  5
136B
331
1476
  5
147D
331
1417
  5
141E
331
139D
  5
13A4
331
13DC
  5
13E3
331
1399
  5
13A0
331
17CD
  5
180B
331
1413
  5
141A
331
13D8
  5
13DF
331
116B
  5
116B
331
146E
  5
1475
331
1395
  5
139C
331
140F
  5
1416
331
13D4
  5
13DB
331
135A
  5
1361
331
10BC
  5
10BC
331
1356
  5
135D
331
146A
  5
1471
331
140B
  5
1412
331
1391
  5
1398
331
13D0
  5
13D7
331
1153
  5
1153
331
1352
  5
1356
331
1751
  5
1809
331
1407
  5
140E
331
138D
  5
1395
331
13CC
  5
13D3
331
1442
  5
1449
331
1389
  5
1390
331
174D
  5
1751
331
18C4
  5
18C7
331
1403
  5
140A
331
13C8
  5
13CF
331
1749
  5
174D
331
18C0
  5
18C3
331
134E
  5
1352
331
143E
  5
1445
331
1385
  5
138C
331
13FF
  5
1406
331
13C4
  5
13CB
331
1346
  5
134A
331
143A
  5
1441
331
18BC
  5
18BF
331
13FB
  5
1402
331
13C0
  5
13C7
331
113B
  5
113B
331
1342
  5
1346
331
1436
  5
143D
331
13F7
  5
13FE
331
137D
  5
1389
331
13BC
  5
13C3
331
1432
  5
1439
331
172D
  5
174C
331
13F3
  5
13FA
331
13B8
  5
13BF
331
1729
  5
1748
331
133E
  5
1342
331
1133
  5
1133
331
142E
  5
1435
331
1375
  5
137F
331
13EF
  5
13F6
331
13B4
  5
13BB
331
133A
  5
133E
331
112F
  5
112F
331
142A
  5
1431
331
1725
  5
172C
331
185C
  5
18B2
331
13EB
  5
13F2
331
1371
  5
137A
331
13B0
  5
13B7
331
1186
  5
1186
331
112B
  5
112B
331
1182
  5
1182
331
1426
  5
142D
331
1721
  5
1728
331
1858
  5
185C
331
13E7
  5
13EE
331
136D
  5
1375
331
13AC
  5
13B3
331
1422
  5
1429
331
147D
  5
15D7
331
13E3
  5
13EA
331
1369
  5
1374
331
13A8
  5
13AF
331
1479
  5
15D3
331
117E
  5
117E
331
117A
  5
117A
331
10CF
  5
10CF
331
141E
  5
1425
331
13A4
  5
13AB
331
1176
  5
1176
331
10CB
  5
10CB
331
141A
  5
1421
331
13A0
  5
13A7
331
13DF
  5
13E6
331
1475
  5
147C
331
1416
  5
141D
331
139C
  5
13A3
331
13DB
  5
13E2
331
1471
  5
1479
331
1398
  5
139F
331
1412
  5
1419
331
116E
  5
116E
331
13D7
  5
13DE
331
135D
  5
136A
331
116A
  5
116A
331
146D
  5
1474
331
140E
  5
1415
331
1394
  5
139B
331
13D3
  5
13DA
331
1359
  5
1360
331
10BB
  5
10BB
331
1355
  5
135C
331
1469
  5
1470
331
140A
  5
1411
331
1390
  5
1397
331
13CF
  5
13D6
331
1152
  5
1152
331
1351
  5
1355
331
1750
  5
17CE
331
18C7
  5
196C
331
1406
  5
140D
331
138C
  5
1394
331
13CB
  5
13D2
331
1441
  5
1448
331
1388
  5
138F
331
174C
  5
1750
331
18C3
  5
18C6
331
1402
  5
1409
331
10B3
  5
10B3
331
13C7
  5
13CE
331
134D
  5
1351
331
143D
  5
1444
331
18BF
  5
18C2
331
13FE
  5
1405
331
13C3
  5
13CA
331
1345
  5
1349
331
1439
  5
1440
331
18BB
  5
18BE
331
13FA
  5
1401
331
13BF
  5
13C6
331
113A
  5
113A
331
1341
  5
1345
331
1435
  5
143C
331
18B7
  5
18BA
331
13F6
  5
13FD
331
137C
  5
1383
331
13BB
  5
13C2
331
1431
  5
1438
331
172C
  5
174B
331
13F2
  5
13F9
331
1728
  5
1747
331
1136
  5
1136
331
13B7
  5
13BE
331
142D
  5
1434
331
1374
  5
137B
331
185F
  5
18B7
331
13EE
  5
13F5
331
13B3
  5
13BA
331
1339
  5
133D
331
1185
  5
1185
331
1429
  5
1430
331
185B
  5
185F
331
13EA
  5
13F1
331
1370
  5
1379
331
13AF
  5
13B6
331
112E
  5
112E
331
1181
  5
1181
331
1425
  5
142C
331
1720
  5
1727
331
1857
  5
1858
331
13E6
  5
13ED
331
13AB
  5
13B2
331
112A
  5
112A
331
1421
  5
1428
331
1368
  5
1373
331
147C
  5
15D6
331
13E2
  5
13E9
331
1478
  5
15D2
331
13A7
  5
13AE
331
117D
  5
117D
331
141D
  5
1424
331
13A3
  5
13AA
331
1179
  5
1179
331
10CE
  5
10CE
331
139F
  5
13A6
331
180B
  5
1857
331
1419
  5
1420
331
13DE
  5
13E5
331
1474
  5
147B
331
139B
  5
13A2
331
1415
  5
141C
331
13DA
  5
13E1
331
1470
  5
1478
331
1411
  5
1418
331
135C
  5
1367
331
1397
  5
139E
331
13D6
  5
13DD
331
116D
  5
116D
331
146C
  5
1473
331
140D
  5
1414
331
1393
  5
139A
331
13D2
  5
13D9
331
1358
  5
135F
331
138F
  5
1396
331
18CA
  5
18BB
331
1409
  5
1410
331
13CE
  5
13D5
331
1444
  5
144B
331
174F
  5
1753
331
18C6
  5
18CA
331
1405
  5
140C
331
138B
  5
1393
331
13CA
  5
13D1
331
1350
  5
1354
331
1440
  5
1447
331
174B
  5
174F
331
18C2
  5
18C5
331
1401
  5
1408
331
10B6
  5
10B6
331
1387
  5
138E
331
13C6
  5
13CD
331
134C
  5
1350
331
1348
  5
134C
331
143C
  5
1443
331
1747
  5
1729
331
18BE
  5
18C1
331
13FD
  5
1404
331
13C2
  5
13C9
331
1141
  5
1141
331
10AE
  5
10AE
331
1344
  5
1348
331
1438
  5
143F
331
137F
  5
138B
331
18BA
  5
18BD
331
13F9
  5
1400
331
13BE
  5
13C5
331
1340
  5
1344
331
1434
  5
143B
331
13F5
  5
13FC
331
137B
  5
1382
331
13BA
  5
13C1
331
1430
  5
1437
331
172B
  5
174A
331
13F1
  5
13F8
331
133C
  5
1340
331
1377
  5
1381
331
13B6
  5
13BD
331
1135
  5
1135
331
1338
  5
133C
331
142C
  5
1433
331
1727
  5
172E
331
185E
  5
18B4
331
13ED
  5
13F4
331
13B2
  5
13B9
331
1131
  5
1131
331
1184
  5
1184
331
1428
  5
142F
331
136F
  5
1378
331
1723
  5
172B
331
185A
  5
185E
331
13E9
  5
13F0
331
13AE
  5
13B5
331
112D
  5
112D
331
1180
  5
1180
331
1424
  5
142B
331
1856
  5
185A
331
13E5
  5
13EC
331
13AA
  5
13B1
331
1129
  5
1129
331
1420
  5
1427
331
13E1
  5
13E8
331
147B
  5
15D5
  0
ACDBDETAILVIEWSTYLE
  5
1962
102
{ACAD_REACTORS
330
1961
102
}
330
1961
100
AcDbModelDocViewStyle
 70
     0
  3
Metric50
290
     0
100
AcDbDetailViewStyle
 70
     0
 71
     0
 90
        3
 71
     1
340
11
 40
5.0
340
0
 40
5.0
300

 40
0.0
280
     1
 71
     2
340
16
 90
       25
 71
     3
340
11
 40
5.0
 90
        0
 40
15.0
 90
        1
300
%<\AcVar ViewDetailId>% (%<\AcVar ViewScale \f "%sn">%)
 71
     4
340
16
 90
       25
340
16
 90
       25
280
     0
  0
LAYOUT
  5
D3
102
{ACAD_XDICTIONARY
360
19E7
102
}
102
{ACAD_REACTORS
330
1A
102
}
330
1A
100
AcDbPlotSettings
  1

  2
C:\Documents and Settings\basas\Application Data\Autodesk\AutoCAD 2005\R16.1\enu\plotters\Default Windows System Printer.pc3
  4

  6

 40
0.0
 41
0.0
 42
0.0
 43
0.0
 44
0.0
 45
0.0
 46
0.0
 47
0.0
 48
0.0
 49
0.0
140
0.0
141
0.0
142
1.0
143
1.0
 70
   688
 72
     0
 73
     0
 74
     5
  7

 75
    16
147
1.0
148
0.0
149
0.0
100
AcDbLayout
  1
Layout1
 70
     1
 71
     1
 10
0.0
 20
0.0
 11
12.0
 21
9.0
 12
0.0
 22
0.0
 32
0.0
 14
0.0
 24
0.0
 34
0.0
 15
0.0
 25
0.0
 35
0.0
146
0.0
 13
0.0
 23
0.0
 33
0.0
 16
1.0
 26
0.0
 36
0.0
 17
0.0
 27
1.0
 37
0.0
 76
     0
330
D2
  0
LAYOUT
  5
D7
102
{ACAD_XDICTIONARY
360
19E9
102
}
102
{ACAD_REACTORS
330
1A
102
}
330
1A
100
AcDbPlotSettings
  1

  2
C:\Documents and Settings\basas\Application Data\Autodesk\AutoCAD 2005\R16.1\enu\plotters\Default Windows System Printer.pc3
  4

  6

 40
0.0
 41
0.0
 42
0.0
 43
0.0
 44
0.0
 45
0.0
 46
0.0
 47
0.0
 48
0.0
 49
0.0
140
0.0
141
0.0
142
1.0
143
1.0
 70
   688
 72
     0
 73
     0
 74
     5
  7

 75
    16
147
1.0
148
0.0
149
0.0
100
AcDbLayout
  1
Layout2
 70
     1
 71
     2
 10
0.0
 20
0.0
 11
12.0
 21
9.0
 12
0.0
 22
0.0
 32
0.0
 14
0.0
 24
0.0
 34
0.0
 15
0.0
 25
0.0
 35
0.0
146
0.0
 13
0.0
 23
0.0
 33
0.0
 16
1.0
 26
0.0
 36
0.0
 17
0.0
 27
1.0
 37
0.0
 76
     0
330
D6
  0
LAYOUT
  5
22
102
{ACAD_XDICTIONARY
360
19E4
102
}
102
{ACAD_REACTORS
330
1A
102
}
330
1A
100
AcDbPlotSettings
  1

  2
none_device
  4
ISO_A4_(210.00_x_297.00_MM)
  6

 40
7.5
 41
20.0
 42
7.5
 43
20.0
 44
210.0
 45
297.0
 46
11.54999923706054
 47
-13.65000009536743
 48
0.0
 49
0.0
140
0.0
141
0.0
142
1.0
143
8.704084754739808
 70
 11952
 72
     1
 73
     0
 74
     0
  7

 75
     0
147
0.1148885871608098
148
0.0
149
0.0
100
AcDbLayout
  1
Model
 70
     1
 71
     0
 10
0.0
 20
0.0
 11
12.0
 21
9.0
 12
0.0
 22
0.0
 32
0.0
 14
0.0
 24
0.0
 34
0.0
 15
0.0
 25
0.0
 35
0.0
146
0.0
 13
0.0
 23
0.0
 33
0.0
 16
1.0
 26
0.0
 36
0.0
 17
0.0
 27
1.0
 37
0.0
 76
     0
330
1F
331
EA
1001
ACAD_PSEXT
1000
None
1000
None
1000
Not applicable
1000
The layout will not be plotted unless a new plotter configuration name is selected.
1070
     0
  0
MATERIAL
  5
ED
102
{ACAD_XDICTIONARY
360
335
102
}
102
{ACAD_REACTORS
330
6A
102
}
330
6A
100
AcDbMaterial
  1
ByBlock
  0
MATERIAL
  5
EC
102
{ACAD_XDICTIONARY
360
333
102
}
102
{ACAD_REACTORS
330
6A
102
}
330
6A
100
AcDbMaterial
  1
ByLayer
  0
MATERIAL
  5
EE
102
{ACAD_XDICTIONARY
360
337
102
}
102
{ACAD_REACTORS
330
6A
102
}
330
6A
100
AcDbMaterial
  1
Global
  0
MLEADERSTYLE
  5
195E
102
{ACAD_REACTORS
330
195D
102
}
330
195D
100
AcDbMLeaderStyle
170
     2
171
     1
172
     0
 90
        2
 40
0.0
 41
0.0
173
     1
 91
-1056964608
340
14
 92
       -2
290
     1
 42
2.0
291
     1
 43
0.36
  3
Standard
 44
4.0
300

342
11
174
     1
178
     6
175
     1
176
     0
 93
-1056964608
 45
4.0
292
     0
297
     0
 46
4.0
 94
-1056964608
 47
1.0
 49
1.0
140
1.0
293
     1
141
0.0
294
     1
177
     0
142
1.0
295
     0
296
     0
143
0.125
1001
ACAD_MLEADERVER
1070
     2
  0
MLINESTYLE
  5
18
102
{ACAD_REACTORS
330
17
102
}
330
17
100
AcDbMlineStyle
  2
STANDARD
 70
     0
  3

 62
   256
 51
90.0
 52
90.0
 71
     2
 49
0.5
 62
   256
  6
BYLAYER
 49
-0.5
 62
   256
  6
BYLAYER
  0
ACDBPLACEHOLDER
  5
F
102
{ACAD_REACTORS
330
E
102
}
330
E
  0
SCALE
  5
194C
102
{ACAD_REACTORS
330
194B
102
}
330
194B
100
AcDbScale
 70
     0
300
1:1
140
1.0
141
1.0
290
     1
  0
SCALE
  5
194D
102
{ACAD_REACTORS
330
194B
102
}
330
194B
100
AcDbScale
 70
     0
300
1:2
140
1.0
141
2.0
290
     0
  0
SCALE
  5
194E
102
{ACAD_REACTORS
330
194B
102
}
330
194B
100
AcDbScale
 70
     0
300
1:4
140
1.0
141
4.0
290
     0
  0
SCALE
  5
194F
102
{ACAD_REACTORS
330
194B
102
}
330
194B
100
AcDbScale
 70
     0
300
1:5
140
1.0
141
5.0
290
     0
  0
SCALE
  5
1950
102
{ACAD_REACTORS
330
194B
102
}
330
194B
100
AcDbScale
 70
     0
300
1:8
140
1.0
141
8.0
290
     0
  0
SCALE
  5
1951
102
{ACAD_REACTORS
330
194B
102
}
330
194B
100
AcDbScale
 70
     0
300
1:10
140
1.0
141
10.0
290
     0
  0
SCALE
  5
1952
102
{ACAD_REACTORS
330
194B
102
}
330
194B
100
AcDbScale
 70
     0
300
1:16
140
1.0
141
16.0
290
     0
  0
SCALE
  5
1953
102
{ACAD_REACTORS
330
194B
102
}
330
194B
100
AcDbScale
 70
     0
300
1:20
140
1.0
141
20.0
290
     0
  0
SCALE
  5
1954
102
{ACAD_REACTORS
330
194B
102
}
330
194B
100
AcDbScale
 70
     0
300
1:30
140
1.0
141
30.0
290
     0
  0
SCALE
  5
1955
102
{ACAD_REACTORS
330
194B
102
}
330
194B
100
AcDbScale
 70
     0
300
1:40
140
1.0
141
40.0
290
     0
  0
SCALE
  5
1956
102
{ACAD_REACTORS
330
194B
102
}
330
194B
100
AcDbScale
 70
     0
300
1:50
140
1.0
141
50.0
290
     0
  0
SCALE
  5
1957
102
{ACAD_REACTORS
330
194B
102
}
330
194B
100
AcDbScale
 70
     0
300
1:100
140
1.0
141
100.0
290
     0
  0
SCALE
  5
1958
102
{ACAD_REACTORS
330
194B
102
}
330
194B
100
AcDbScale
 70
     0
300
2:1
140
2.0
141
1.0
290
     0
  0
SCALE
  5
1959
102
{ACAD_REACTORS
330
194B
102
}
330
194B
100
AcDbScale
 70
     0
300
4:1
140
4.0
141
1.0
290
     0
  0
SCALE
  5
195A
102
{ACAD_REACTORS
330
194B
102
}
330
194B
100
AcDbScale
 70
     0
300
8:1
140
8.0
141
1.0
290
     0
  0
SCALE
  5
195B
102
{ACAD_REACTORS
330
194B
102
}
330
194B
100
AcDbScale
 70
     0
300
10:1
140
10.0
141
1.0
290
     0
  0
SCALE
  5
195C
102
{ACAD_REACTORS
330
194B
102
}
330
194B
100
AcDbScale
 70
     0
300
100:1
140
100.0
141
1.0
290
     0
  0
ACDBSECTIONVIEWSTYLE
  5
1960
102
{ACAD_REACTORS
330
195F
102
}
330
195F
100
AcDbModelDocViewStyle
 70
     0
  3
Metric50
290
     0
100
AcDbSectionViewStyle
 70
     0
 71
     0
 90
      102
 71
     1
340
11
 40
5.0
340
0
340
0
 40
5.0
300
I, O, Q, S, X, Z
 40
10.0
 90
        0
 40
2.5
 90
        0
 71
     2
340
16
 90
       25
340
16
 90
       50
 40
5.0
 40
2.5
 40
5.0
 71
     3
340
11
 40
5.0
 90
        0
 40
15.0
 90
        1
300
%<\AcVar ViewSectionStartId>%-%<\AcVar ViewSectionEndId>% (%<\AcVar ViewScale \f "%sn">%)
 71
     4
300
ANSI31
 40
1.0
 90
        0
290
     0
290
     0
 90
        6
 40
0.0
 40
1.570796326794896
 40
0.2617993877991494
 40
1.308996938995747
 40
-0.2617993877991494
 40
1.832595714594045
  0
TABLESTYLE
  5
7F
102
{ACAD_XDICTIONARY
360
1979
102
}
102
{ACAD_REACTORS
330
7E
102
}
330
7E
100
AcDbTableStyle
  3
Standard
 70
     0
 71
     0
 40
1.5
 41
1.5
280
     0
281
     0
  7
Standard
140
4.5
170
     2
 62
     0
 63
     7
283
     0
274
    -2
284
     1
 64
     0
275
    -2
285
     1
 65
     0
276
    -2
286
     1
 66
     0
277
    -2
287
     1
 67
     0
278
    -2
288
     1
 68
     0
279
    -2
289
     1
 69
     0
  7
Standard
140
6.0
170
     5
 62
     0
 63
     7
283
     0
274
    -2
284
     1
 64
     0
275
    -2
285
     1
 65
     0
276
    -2
286
     1
 66
     0
277
    -2
287
     1
 67
     0
278
    -2
288
     1
 68
     0
279
    -2
289
     1
 69
     0
  7
Standard
140
4.5
170
     5
 62
     0
 63
     7
283
     0
274
    -2
284
     1
 64
     0
275
    -2
285
     1
 65
     0
276
    -2
286
     1
 66
     0
277
    -2
287
     1
 67
     0
278
    -2
288
     1
 68
     0
279
    -2
289
     1
 69
     0
  0
VISUALSTYLE
  5
F5
102
{ACAD_XDICTIONARY
360
19F5
102
}
102
{ACAD_REACTORS
330
EF
102
}
330
EF
100
AcDbVisualStyle
  2

 70
     4
 71
     0
 72
     2
 73
     1
 90
        0
 40
-0.6
 41
-30.0
 62
     5
 63
     7
 74
     1
 91
        4
 64
     7
 65
   257
 75
     1
175
     1
 42
1.0
 92
        0
 66
   257
 43
1.0
 76
     1
 77
     6
 78
     2
 67
     7
 79
     5
170
     0
171
     0
290
     0
174
     0
 93
        1
 44
0.0
173
     0
291
     0
 45
0.0
1001
ACAD
1000
AcDbSavedByObjectVersion
1070
     0
  0
VISUALSTYLE
  5
F7
102
{ACAD_XDICTIONARY
360
19F9
102
}
102
{ACAD_REACTORS
330
EF
102
}
330
EF
100
AcDbVisualStyle
  2

 70
     6
 71
     1
 72
     2
 73
     2
 90
        0
 40
-0.6
 41
-30.0
 62
     5
 63
     7
 74
     2
 91
        2
 64
     7
 65
   257
 75
     2
175
     1
 42
40.0
 92
        0
 66
   257
 43
1.0
 76
     1
 77
     6
 78
     2
 67
     7
 79
     3
170
     0
171
     0
290
     0
174
     0
 93
        1
 44
0.0
173
     0
291
     0
 45
0.0
1001
ACAD
1000
AcDbSavedByObjectVersion
1070
     0
  0
VISUALSTYLE
  5
F6
102
{ACAD_XDICTIONARY
360
19F7
102
}
102
{ACAD_REACTORS
330
EF
102
}
330
EF
100
AcDbVisualStyle
  2

 70
     5
 71
     0
 72
     2
 73
     1
 90
        0
 40
-0.6
 41
-30.0
 62
     5
 63
     7
 74
     1
 91
        4
 64
     7
 65
   257
 75
     1
175
     1
 42
1.0
 92
        0
 66
   257
 43
1.0
 76
     1
 77
     6
 78
     2
 67
     7
 79
     5
170
     0
171
     0
290
     0
174
     0
 93
        1
 44
0.0
173
     0
291
     0
 45
0.0
1001
ACAD
1000
AcDbSavedByObjectVersion
1070
     0
  0
VISUALSTYLE
  5
F4
102
{ACAD_XDICTIONARY
360
19F3
102
}
102
{ACAD_REACTORS
330
EF
102
}
330
EF
100
AcDbVisualStyle
  2

 70
     7
 71
     1
 72
     0
 73
     1
 90
        0
 40
-0.6
 41
-30.0
 62
     5
 63
     7
 74
     0
 91
        4
 64
     7
 65
   257
 75
     1
175
     1
 42
1.0
 92
        8
 66
     7
 43
1.0
 76
     1
 77
     6
 78
     2
 67
     7
 79
     5
170
     0
171
     0
290
     0
174
     0
 93
        1
 44
0.0
173
     0
291
     1
 45
0.0
1001
ACAD
1000
AcDbSavedByObjectVersion
1070
     0
  0
VISUALSTYLE
  5
FB
102
{ACAD_XDICTIONARY
360
1A01
102
}
102
{ACAD_REACTORS
330
EF
102
}
330
EF
100
AcDbVisualStyle
  2

 70
    12
 71
     2
 72
     2
 73
     1
 90
        0
 40
-0.6
 41
-30.0
 62
     5
 63
     7
 74
     1
 91
        4
 64
     7
 65
   257
 75
     1
175
     1
 42
1.0
 92
        8
 66
     7
 43
1.0
 76
     1
 77
     6
 78
     2
 67
     7
 79
     5
170
     0
171
     0
290
     0
174
     0
 93
        1
 44
50.0
173
     0
291
     1
 45
0.0
1001
ACAD
1000
AcDbSavedByObjectVersion
1070
     0
  0
VISUALSTYLE
  5
FF
102
{ACAD_XDICTIONARY
360
1A09
102
}
102
{ACAD_REACTORS
330
EF
102
}
330
EF
100
AcDbVisualStyle
  2

 70
    16
 71
     2
 72
     2
 73
     3
 90
        0
 40
-0.6
 41
-30.0
 62
     5
 63
     8
 74
     1
 91
        4
 64
     7
 65
   257
 75
     1
175
     1
 42
1.0
 92
        8
 66
     8
 43
1.0
 76
     1
 77
     6
 78
     2
 67
     7
 79
     5
170
     0
171
     0
290
     0
174
     0
 93
        1
 44
0.0
173
     0
291
     1
 45
0.0
1001
ACAD
1000
AcDbSavedByObjectVersion
1070
     0
  0
VISUALSTYLE
  5
F8
102
{ACAD_XDICTIONARY
360
19FB
102
}
102
{ACAD_REACTORS
330
EF
102
}
330
EF
100
AcDbVisualStyle
  2

 70
     9
 71
     3
 72
     2
 73
     1
 90
        0
 40
-0.6
 41
-30.0
 62
     5
 63
     7
 74
     2
 91
        2
 64
     7
 65
   257
 75
     1
175
     1
 42
40.0
 92
        8
 66
     7
 43
1.0
 76
     1
 77
     6
 78
     2
 67
     7
 79
     3
170
     0
171
     0
290
     0
174
     0
 93
        1
 44
0.0
173
     0
291
     0
 45
0.0
1001
ACAD
1000
AcDbSavedByObjectVersion
1070
     0
  0
VISUALSTYLE
  5
FA
102
{ACAD_XDICTIONARY
360
19FF
102
}
102
{ACAD_REACTORS
330
EF
102
}
330
EF
100
AcDbVisualStyle
  2

 70
    11
 71
     2
 72
     2
 73
     1
 90
        0
 40
-0.6
 41
-30.0
 62
     5
 63
     7
 74
     1
 91
        4
 64
     7
 65
   257
 75
     1
175
     1
 42
1.0
 92
        8
 66
     7
 43
1.0
 76
     1
 77
     6
 78
     2
 67
     7
 79
     5
170
     0
171
     0
290
     0
174
     0
 93
        1
 44
-50.0
173
     0
291
     1
 45
0.0
1001
ACAD
1000
AcDbSavedByObjectVersion
1070
     0
  0
VISUALSTYLE
  5
194A
102
{ACAD_XDICTIONARY
360
1A1D
102
}
102
{ACAD_REACTORS
330
EF
102
}
330
EF
100
AcDbVisualStyle
  2

 70
    22
 71
     2
 72
     2
 73
     0
 90
        0
 40
-0.6
 41
-30.0
 62
     5
 63
     7
 74
     1
 91
        4
 64
     7
 65
   257
 75
     1
175
     1
 42
1.0
 92
        8
 66
     7
 43
1.0
 76
     1
 77
     6
 78
     2
 67
     7
 79
     5
170
     0
171
     0
290
     0
174
     0
 93
        1
 44
0.0
173
     0
291
     1
 45
0.0
1001
ACAD
1000
AcDbSavedByObjectVersion
1070
     0
  0
VISUALSTYLE
  5
FE
102
{ACAD_XDICTIONARY
360
1A07
102
}
102
{ACAD_REACTORS
330
EF
102
}
330
EF
100
AcDbVisualStyle
  2

 70
    15
 71
     2
 72
     2
 73
     1
 90
        0
 40
-0.6
 41
-30.0
 62
     5
 63
     7
 74
     1
 91
        4
 64
     7
 65
   257
 75
     1
175
     1
 42
1.0
 92
        8
 66
     7
 43
1.0
 76
     1
 77
     6
 78
     2
 67
     7
 79
     5
170
     0
171
     0
290
     0
174
     0
 93
        1
 44
0.0
173
     0
291
     1
 45
0.0
1001
ACAD
1000
AcDbSavedByObjectVersion
1070
     0
  0
VISUALSTYLE
  5
F0
102
{ACAD_XDICTIONARY
360
19EB
102
}
102
{ACAD_REACTORS
330
EF
102
}
330
EF
100
AcDbVisualStyle
  2

 70
     0
 71
     2
 72
     1
 73
     1
 90
        2
 40
-0.6
 41
30.0
 62
     5
 63
     7
 74
     0
 91
        4
 64
     7
 65
   257
 75
     1
175
     1
 42
1.0
 92
        8
 66
     7
 43
1.0
 76
     1
 77
     6
 78
     2
 67
     7
 79
     5
170
     0
171
     0
290
     0
174
     0
 93
       13
 44
0.0
173
     0
291
     1
 45
0.0
1001
ACAD
1000
AcDbSavedByObjectVersion
1070
     0
  0
VISUALSTYLE
  5
F1
102
{ACAD_XDICTIONARY
360
19ED
102
}
102
{ACAD_REACTORS
330
EF
102
}
330
EF
100
AcDbVisualStyle
  2

 70
     1
 71
     2
 72
     1
 73
     1
 90
        2
 40
-0.6
 41
30.0
 62
     5
 63
     7
 74
     1
 91
        4
 64
     7
 65
   257
 75
     1
175
     1
 42
1.0
 92
        0
 66
   257
 43
1.0
 76
     1
 77
     6
 78
     2
 67
     7
 79
     5
170
     0
171
     0
290
     0
174
     0
 93
       13
 44
0.0
173
     0
291
     1
 45
0.0
1001
ACAD
1000
AcDbSavedByObjectVersion
1070
     0
  0
VISUALSTYLE
  5
F2
102
{ACAD_XDICTIONARY
360
19EF
102
}
102
{ACAD_REACTORS
330
EF
102
}
330
EF
100
AcDbVisualStyle
  2

 70
     2
 71
     2
 72
     2
 73
     1
 90
        2
 40
-0.6
 41
30.0
 62
     5
 63
     7
 74
     0
 91
        4
 64
     7
 65
   257
 75
     1
175
     1
 42
1.0
 92
        0
 66
     7
 43
1.0
 76
     1
 77
     6
 78
     2
 67
     7
 79
     5
170
     0
171
     0
290
     0
174
     0
 93
       13
 44
0.0
173
     0
291
     1
 45
0.0
1001
ACAD
1000
AcDbSavedByObjectVersion
1070
     0
  0
VISUALSTYLE
  5
F3
102
{ACAD_XDICTIONARY
360
19F1
102
}
102
{ACAD_REACTORS
330
EF
102
}
330
EF
100
AcDbVisualStyle
  2

 70
     3
 71
     2
 72
     2
 73
     1
 90
        2
 40
-0.6
 41
30.0
 62
     5
 63
     7
 74
     1
 91
        4
 64
     7
 65
   257
 75
     1
175
     1
 42
1.0
 92
        0
 66
   257
 43
1.0
 76
     1
 77
     6
 78
     2
 67
     7
 79
     5
170
     0
171
     0
290
     0
174
     0
 93
       13
 44
0.0
173
     0
291
     1
 45
0.0
1001
ACAD
1000
AcDbSavedByObjectVersion
1070
     0
  0
VISUALSTYLE
  5
1942
102
{ACAD_XDICTIONARY
360
1A0D
102
}
102
{ACAD_REACTORS
330
EF
102
}
330
EF
100
AcDbVisualStyle
  2

 70
     6
 71
     1
 72
     2
 73
     2
 90
        0
 40
-0.6
 41
-30.0
 62
     5
 63
     7
 74
     2
 91
        2
 64
     7
 65
   257
 75
     2
175
     1
 42
40.0
 92
        0
 66
   257
 43
1.0
 76
     1
 77
     6
 78
     2
 67
     7
 79
     3
170
     0
171
     0
290
     0
174
     0
 93
        1
 44
0.0
173
     0
291
     0
 45
0.0
1001
ACAD
1000
AcDbSavedByObjectVersion
1070
     0
  0
VISUALSTYLE
  5
1948
102
{ACAD_XDICTIONARY
360
1A19
102
}
102
{ACAD_REACTORS
330
EF
102
}
330
EF
100
AcDbVisualStyle
  2

 70
    20
 71
     2
 72
     2
 73
     0
 90
        0
 40
-0.6
 41
-30.0
 62
     5
 63
     7
 74
     1
 91
        4
 64
     7
 65
   257
 75
     1
175
     1
 42
1.0
 92
       10
 66
     7
 43
1.0
 76
     1
 77
     6
 78
     2
 67
     7
 79
     5
170
     0
171
     0
290
     0
174
     0
 93
        1
 44
0.0
173
     0
291
     1
 45
0.0
1001
ACAD
1000
AcDbSavedByObjectVersion
1070
     0
  0
VISUALSTYLE
  5
FD
102
{ACAD_XDICTIONARY
360
1A05
102
}
102
{ACAD_REACTORS
330
EF
102
}
330
EF
100
AcDbVisualStyle
  2

 70
    14
 71
     2
 72
     2
 73
     1
 90
        0
 40
-0.6
 41
-30.0
 62
     5
 63
     7
 74
     1
 91
        4
 64
     7
 65
   257
 75
     7
175
     7
 42
1.0
 92
        8
 66
     7
 43
1.0
 76
     1
 77
     6
 78
     2
 67
     7
 79
     5
170
     0
171
     0
290
     0
174
     0
 93
        1
 44
0.0
173
     0
291
     1
 45
0.0
1001
ACAD
1000
AcDbSavedByObjectVersion
1070
     0
  0
VISUALSTYLE
  5
1949
102
{ACAD_XDICTIONARY
360
1A1B
102
}
102
{ACAD_REACTORS
330
EF
102
}
330
EF
100
AcDbVisualStyle
  2

 70
    21
 71
     2
 72
     2
 73
     0
 90
        0
 40
-0.6
 41
-30.0
 62
     5
 63
     7
 74
     1
 91
        4
 64
     7
 65
   257
 75
     1
175
     1
 42
1.0
 92
        9
 66
     7
 43
1.0
 76
     1
 77
     6
 78
     2
 67
     7
 79
     5
170
     0
171
     0
290
     0
174
     0
 93
        1
 44
0.0
173
     0
291
     1
 45
0.0
1001
ACAD
1000
AcDbSavedByObjectVersion
1070
     0
  0
VISUALSTYLE
  5
F9
102
{ACAD_XDICTIONARY
360
19FD
102
}
102
{ACAD_REACTORS
330
EF
102
}
330
EF
100
AcDbVisualStyle
  2

 70
     8
 71
     2
 72
     2
 73
     1
 90
        0
 40
-0.6
 41
-30.0
 62
     5
 63
     7
 74
     1
 91
        0
 64
     7
 65
   257
 75
     1
175
     1
 42
1.0
 92
        8
 66
     8
 43
1.0
 76
     1
 77
     6
 78
     2
 67
     7
 79
     5
170
     0
171
     0
290
     0
174
     0
 93
       13
 44
0.0
173
     0
291
     0
 45
0.0
1001
ACAD
1000
AcDbSavedByObjectVersion
1070
     0
  0
VISUALSTYLE
  5
1947
102
{ACAD_XDICTIONARY
360
1A17
102
}
102
{ACAD_REACTORS
330
EF
102
}
330
EF
100
AcDbVisualStyle
  2

 70
    27
 71
     2
 72
     2
 73
     1
 90
        2
 40
-0.6
 41
30.0
 62
     5
 63
     7
 74
     0
 91
        4
 64
     7
 65
   257
 75
     1
175
     1
 42
1.0
 92
        8
 66
   257
 43
1.0
 76
     1
 77
     6
 78
     2
 67
     8
 79
     3
170
     0
171
     0
290
     0
174
     0
 93
        5
 44
0.0
173
     0
291
     0
 45
0.0
1001
ACAD
1000
AcDbSavedByObjectVersion
1070
     0
  0
VISUALSTYLE
  5
1946
102
{ACAD_XDICTIONARY
360
1A15
102
}
102
{ACAD_REACTORS
330
EF
102
}
330
EF
100
AcDbVisualStyle
  2

 70
    26
 71
     2
 72
     2
 73
     1
 90
        2
 40
-0.6
 41
30.0
 62
     5
 63
     7
 74
     1
 91
       10
 64
     7
 65
   257
 75
     2
175
     1
 42
1.0
 92
        8
 66
   257
 43
1.0
 76
     1
 77
     6
 78
     2
 67
     7
 79
     3
170
     0
171
     0
290
     0
174
     0
 93
        5
 44
0.0
173
     0
291
     0
 45
0.0
1001
ACAD
1000
AcDbSavedByObjectVersion
1070
     0
  0
VISUALSTYLE
  5
1943
102
{ACAD_XDICTIONARY
360
1A0F
102
}
102
{ACAD_REACTORS
330
EF
102
}
330
EF
100
AcDbVisualStyle
  2

 70
    23
 71
     2
 72
     2
 73
     3
 90
        0
 40
-0.6
 41
-30.0
 62
     5
 63
     7
 74
     2
 91
        2
 64
     7
 65
     7
 75
     1
175
     1
 42
40.0
 92
        8
 66
     7
 43
1.0
 76
     1
 77
     6
 78
     2
 67
     7
 79
     3
170
     0
171
     0
290
     0
174
     0
 93
        1
 44
0.0
173
     0
291
     0
 45
0.0
1001
ACAD
1000
AcDbSavedByObjectVersion
1070
     0
  0
VISUALSTYLE
  5
1944
102
{ACAD_XDICTIONARY
360
1A11
102
}
102
{ACAD_REACTORS
330
EF
102
}
330
EF
100
AcDbVisualStyle
  2

 70
    24
 71
     1
 72
     2
 73
     2
 90
        0
 40
-0.6
 41
-30.0
 62
     5
 63
     7
 74
     2
 91
        2
 64
     7
 65
     7
 75
     1
175
     1
 42
40.0
 92
       11
 66
     7
 43
1.0
 76
     1
 77
     6
 78
     2
 67
     7
 79
     6
170
     0
171
     0
290
     0
174
     0
 93
        1
 44
0.0
173
     0
291
     0
 45
0.0
1001
ACAD
1000
AcDbSavedByObjectVersion
1070
     0
  0
VISUALSTYLE
  5
FC
102
{ACAD_XDICTIONARY
360
1A03
102
}
102
{ACAD_REACTORS
330
EF
102
}
330
EF
100
AcDbVisualStyle
  2

 70
    13
 71
     2
 72
     2
 73
     1
 90
        0
 40
-0.6
 41
-30.0
 62
     5
 63
     7
 74
     1
 91
        4
 64
     7
 65
   257
 75
     1
175
     1
 42
1.0
 92
       12
 66
     7
 43
1.0
 76
     1
 77
     6
 78
     2
 67
     7
 79
     5
170
     0
171
     0
290
     0
174
     0
 93
        1
 44
0.0
173
     0
291
     1
 45
0.0
1001
ACAD
1000
AcDbSavedByObjectVersion
1070
     0
  0
VISUALSTYLE
  5
1941
102
{ACAD_XDICTIONARY
360
1A0B
102
}
102
{ACAD_REACTORS
330
EF
102
}
330
EF
100
AcDbVisualStyle
  2

 70
     5
 71
     0
 72
     2
 73
     0
 90
        0
 40
-0.6
 41
-30.0
 62
     5
 63
     7
 74
     1
 91
        4
 64
     7
 65
   257
 75
     1
175
     1
 42
1.0
 92
        0
 66
   257
 43
1.0
 76
     1
 77
     6
 78
     2
 67
     7
 79
     3
170
     0
171
     0
290
     0
174
     0
 93
        1
 44
0.0
173
     0
291
     0
 45
0.0
1001
ACAD
1000
AcDbSavedByObjectVersion
1070
     0
  0
VISUALSTYLE
  5
1945
102
{ACAD_XDICTIONARY
360
1A13
102
}
102
{ACAD_REACTORS
330
EF
102
}
330
EF
100
AcDbVisualStyle
  2

 70
    25
 71
     2
 72
     2
 73
     1
 90
        1
 40
0.5
 41
-30.0
 62
     5
 63
     7
 74
     1
 91
        0
 64
     7
 65
   257
 75
     1
175
     1
 42
1.0
 92
        8
 66
     7
 43
1.0
 76
     1
 77
     6
 78
     2
 67
     7
 79
     3
170
     0
171
     0
290
     0
174
     0
 93
       13
 44
0.0
173
     0
291
     0
 45
0.0
1001
ACAD
1000
AcDbSavedByObjectVersion
1070
     0
  0
DICTIONARYVAR
  5
1974
102
{ACAD_REACTORS
330
5E
102
}
330
5E
100
DictionaryVariables
280
     0
  1
1:1
  0
DICTIONARYVAR
  5
1971
102
{ACAD_REACTORS
330
5E
102
}
330
5E
100
DictionaryVariables
280
     0
  1
STANDARD
  0
DICTIONARYVAR
  5
84
102
{ACAD_REACTORS
330
5E
102
}
330
5E
100
DictionaryVariables
280
     0
  1
STANDARD
  0
DICTIONARYVAR
  5
1972
102
{ACAD_REACTORS
330
5E
102
}
330
5E
100
DictionaryVariables
280
     0
  1
Metric50
  0
DICTIONARYVAR
  5
1973
102
{ACAD_REACTORS
330
5E
102
}
330
5E
100
DictionaryVariables
280
     0
  1
Metric50
  0
DICTIONARYVAR
  5
5F
102
{ACAD_REACTORS
330
5E
102
}
330
5E
100
DictionaryVariables
280
     0
  1
2
  0
DICTIONARYVAR
  5
63
102
{ACAD_REACTORS
330
5E
102
}
330
5E
100
DictionaryVariables
280
     0
  1
1
  0
DICTIONARYVAR
  5
327
102
{ACAD_REACTORS
330
5E
102
}
330
5E
100
DictionaryVariables
280
     0
  1
0
  0
DICTIONARYVAR
  5
19C0
102
{ACAD_REACTORS
330
5E
102
}
330
5E
100
DictionaryVariables
280
     0
  1
1
  0
DICTIONARYVAR
  5
19C1
102
{ACAD_REACTORS
330
5E
102
}
330
5E
100
DictionaryVariables
280
     0
  1
15
  0
DICTIONARYVAR
  5
19BF
102
{ACAD_REACTORS
330
5E
102
}
330
5E
100
DictionaryVariables
280
     0
  1
0
  0
DICTIONARYVAR
  5
19BE
102
{ACAD_REACTORS
330
5E
102
}
330
5E
100
DictionaryVariables
280
     0
  1
0
  0
DICTIONARYVAR
  5
19DF
102
{ACAD_REACTORS
330
5E
102
}
330
5E
100
DictionaryVariables
280
     0
  1
80.000000
  0
DICTIONARYVAR
  5
19DE
102
{ACAD_REACTORS
330
5E
102
}
330
5E
100
DictionaryVariables
280
     0
  1
5.000000
  0
DICTIONARYVAR
  5
326
102
{ACAD_REACTORS
330
5E
102
}
330
5E
100
DictionaryVariables
280
     0
  1
127
  0
DICTIONARYVAR
  5
19E0
102
{ACAD_REACTORS
330
5E
102
}
330
5E
100
DictionaryVariables
280
     0
  1
2
  0
DICTIONARY
  5
19E7
330
D3
100
AcDbDictionary
280
     1
281
     1
  3
ACAD_XREC_ROUNDTRIP
360
19E8
  0
DICTIONARY
  5
19E9
330
D7
100
AcDbDictionary
280
     1
281
     1
  3
ACAD_XREC_ROUNDTRIP
360
19EA
  0
DICTIONARY
  5
19E4
330
22
100
AcDbDictionary
280
     1
281
     1
  3
ACAD_XREC_ROUNDTRIP
360
19E5
  0
DICTIONARY
  5
335
330
ED
100
AcDbDictionary
280
     1
281
     1
  3
ACAD_XREC_ROUNDTRIP
360
336
  0
DICTIONARY
  5
333
330
EC
100
AcDbDictionary
280
     1
281
     1
  3
ACAD_XREC_ROUNDTRIP
360
334
  0
DICTIONARY
  5
337
330
EE
100
AcDbDictionary
280
     1
281
     1
  3
ACAD_XREC_ROUNDTRIP
360
338
  0
DICTIONARY
  5
1979
330
7F
100
AcDbDictionary
280
     1
281
     1
  3
ACAD_ROUNDTRIP_2008_TABLESTYLE_CELLSTYLEMAP
360
19E1
  3
ACAD_XREC_ROUNDTRIP
360
19E6
  0
DICTIONARY
  5
19F5
330
F5
100
AcDbDictionary
280
     1
281
     1
  3
ACAD_XREC_ROUNDTRIP
360
19F6
  0
DICTIONARY
  5
19F9
330
F7
100
AcDbDictionary
280
     1
281
     1
  3
ACAD_XREC_ROUNDTRIP
360
19FA
  0
DICTIONARY
  5
19F7
330
F6
100
AcDbDictionary
280
     1
281
     1
  3
ACAD_XREC_ROUNDTRIP
360
19F8
  0
DICTIONARY
  5
19F3
330
F4
100
AcDbDictionary
280
     1
281
     1
  3
ACAD_XREC_ROUNDTRIP
360
19F4
  0
DICTIONARY
  5
1A01
330
FB
100
AcDbDictionary
280
     1
281
     1
  3
ACAD_XREC_ROUNDTRIP
360
1A02
  0
DICTIONARY
  5
1A09
330
FF
100
AcDbDictionary
280
     1
281
     1
  3
ACAD_XREC_ROUNDTRIP
360
1A0A
  0
DICTIONARY
  5
19FB
330
F8
100
AcDbDictionary
280
     1
281
     1
  3
ACAD_XREC_ROUNDTRIP
360
19FC
  0
DICTIONARY
  5
19FF
330
FA
100
AcDbDictionary
280
     1
281
     1
  3
ACAD_XREC_ROUNDTRIP
360
1A00
  0
DICTIONARY
  5
1A1D
330
194A
100
AcDbDictionary
280
     1
281
     1
  3
ACAD_XREC_ROUNDTRIP
360
1A1E
  0
DICTIONARY
  5
1A07
330
FE
100
AcDbDictionary
280
     1
281
     1
  3
ACAD_XREC_ROUNDTRIP
360
1A08
  0
DICTIONARY
  5
19EB
330
F0
100
AcDbDictionary
280
     1
281
     1
  3
ACAD_XREC_ROUNDTRIP
360
19EC
  0
DICTIONARY
  5
19ED
330
F1
100
AcDbDictionary
280
     1
281
     1
  3
ACAD_XREC_ROUNDTRIP
360
19EE
  0
DICTIONARY
  5
19EF
330
F2
100
AcDbDictionary
280
     1
281
     1
  3
ACAD_XREC_ROUNDTRIP
360
19F0
  0
DICTIONARY
  5
19F1
330
F3
100
AcDbDictionary
280
     1
281
     1
  3
ACAD_XREC_ROUNDTRIP
360
19F2
  0
DICTIONARY
  5
1A0D
330
1942
100
AcDbDictionary
280
     1
281
     1
  3
ACAD_XREC_ROUNDTRIP
360
1A0E
  0
DICTIONARY
  5
1A19
330
1948
100
AcDbDictionary
280
     1
281
     1
  3
ACAD_XREC_ROUNDTRIP
360
1A1A
  0
DICTIONARY
  5
1A05
330
FD
100
AcDbDictionary
280
     1
281
     1
  3
ACAD_XREC_ROUNDTRIP
360
1A06
  0
DICTIONARY
  5
1A1B
330
1949
100
AcDbDictionary
280
     1
281
     1
  3
ACAD_XREC_ROUNDTRIP
360
1A1C
  0
DICTIONARY
  5
19FD
330
F9
100
AcDbDictionary
280
     1
281
     1
  3
ACAD_XREC_ROUNDTRIP
360
19FE
  0
DICTIONARY
  5
1A17
330
1947
100
AcDbDictionary
280
     1
281
     1
  3
ACAD_XREC_ROUNDTRIP
360
1A18
  0
DICTIONARY
  5
1A15
330
1946
100
AcDbDictionary
280
     1
281
     1
  3
ACAD_XREC_ROUNDTRIP
360
1A16
  0
DICTIONARY
  5
1A0F
330
1943
100
AcDbDictionary
280
     1
281
     1
  3
ACAD_XREC_ROUNDTRIP
360
1A10
  0
DICTIONARY
  5
1A11
330
1944
100
AcDbDictionary
280
     1
281
     1
  3
ACAD_XREC_ROUNDTRIP
360
1A12
  0
DICTIONARY
  5
1A03
330
FC
100
AcDbDictionary
280
     1
281
     1
  3
ACAD_XREC_ROUNDTRIP
360
1A04
  0
DICTIONARY
  5
1A0B
330
1941
100
AcDbDictionary
280
     1
281
     1
  3
ACAD_XREC_ROUNDTRIP
360
1A0C
  0
DICTIONARY
  5
1A13
330
1945
100
AcDbDictionary
280
     1
281
     1
  3
ACAD_XREC_ROUNDTRIP
360
1A14
  0
XRECORD
  5
19E8
102
{ACAD_REACTORS
330
19E7
102
}
330
19E7
100
AcDbXrecord
280
     1
102
SHADEPLOT
 70
     0
102
SHADEPLOTRESLEVEL
 70
     2
102
SHADEPLOTCUSTOMDPI
 70
   300
  0
XRECORD
  5
19EA
102
{ACAD_REACTORS
330
19E9
102
}
330
19E9
100
AcDbXrecord
280
     1
102
SHADEPLOT
 70
     0
102
SHADEPLOTRESLEVEL
 70
     2
102
SHADEPLOTCUSTOMDPI
 70
   300
  0
XRECORD
  5
19E5
102
{ACAD_REACTORS
330
19E4
102
}
330
19E4
100
AcDbXrecord
280
     1
102
SHADEPLOT
 70
     0
102
SHADEPLOTRESLEVEL
 70
     2
102
SHADEPLOTCUSTOMDPI
 70
   300
  0
XRECORD
  5
336
102
{ACAD_REACTORS
330
335
102
}
330
335
100
AcDbXrecord
280
     1
102
MATERIAL
148
0.0
149
0.0
149
0.0
 93
        0
 94
      127
282
     0
 72
     1
 77
     1
171
     1
175
     1
179
     1
273
     0
  0
XRECORD
  5
334
102
{ACAD_REACTORS
330
333
102
}
330
333
100
AcDbXrecord
280
     1
102
MATERIAL
148
0.0
149
0.0
149
0.0
 93
        0
 94
      127
282
     0
 72
     1
 77
     1
171
     1
175
     1
179
     1
273
     0
  0
XRECORD
  5
338
102
{ACAD_REACTORS
330
337
102
}
330
337
100
AcDbXrecord
280
     1
102
MATERIAL
148
0.0
149
0.0
149
0.0
 93
        0
 94
      127
282
     0
 72
     1
 77
     1
171
     1
175
     1
179
     1
273
     0
  0
CELLSTYLEMAP
  5
19E1
102
{ACAD_REACTORS
330
1979
102
}
330
1979
100
AcDbCellStyleMap
 90
        3
300
CELLSTYLE
  1
TABLEFORMAT_BEGIN
 90
        5
170
     1
 91
        0
 92
    32768
 62
   257
 93
        1
300
CONTENTFORMAT
  1
CONTENTFORMAT_BEGIN
 90
        0
 91
        0
 92
      512
 93
        0
300

 40
0.0
140
1.0
 94
        5
 62
     0
340
11
144
6.0
309
CONTENTFORMAT_END
171
     1
301
MARGIN
  1
CELLMARGIN_BEGIN
 40
1.5
 40
1.5
 40
1.5
 40
1.5
 40
0.18
 40
0.18
309
CELLMARGIN_END
 94
        6
 95
        1
302
GRIDFORMAT
  1
GRIDFORMAT_BEGIN
 90
        0
 91
        1
 62
     0
 92
       -2
340
0
 93
        0
 40
0.045
309
GRIDFORMAT_END
 95
        2
302
GRIDFORMAT
  1
GRIDFORMAT_BEGIN
 90
        0
 91
        1
 62
     0
 92
       -2
340
0
 93
        0
 40
0.045
309
GRIDFORMAT_END
 95
        4
302
GRIDFORMAT
  1
GRIDFORMAT_BEGIN
 90
        0
 91
        1
 62
     0
 92
       -2
340
0
 93
        0
 40
0.045
309
GRIDFORMAT_END
 95
        8
302
GRIDFORMAT
  1
GRIDFORMAT_BEGIN
 90
        0
 91
        1
 62
     0
 92
       -2
340
0
 93
        0
 40
0.045
309
GRIDFORMAT_END
 95
       16
302
GRIDFORMAT
  1
GRIDFORMAT_BEGIN
 90
        0
 91
        1
 62
     0
 92
       -2
340
0
 93
        0
 40
0.045
309
GRIDFORMAT_END
 95
       32
302
GRIDFORMAT
  1
GRIDFORMAT_BEGIN
 90
        0
 91
        1
 62
     0
 92
       -2
340
0
 93
        0
 40
0.045
309
GRIDFORMAT_END
309
TABLEFORMAT_END
  1
CELLSTYLE_BEGIN
 90
        1
 91
        1
300
_TITLE
309
CELLSTYLE_END
300
CELLSTYLE
  1
TABLEFORMAT_BEGIN
 90
        5
170
     1
 91
        0
 92
        0
 62
   257
 93
        1
300
CONTENTFORMAT
  1
CONTENTFORMAT_BEGIN
 90
        0
 91
        0
 92
      512
 93
        0
300

 40
0.0
140
1.0
 94
        5
 62
     0
340
11
144
4.5
309
CONTENTFORMAT_END
171
     1
301
MARGIN
  1
CELLMARGIN_BEGIN
 40
1.5
 40
1.5
 40
1.5
 40
1.5
 40
0.18
 40
0.18
309
CELLMARGIN_END
 94
        6
 95
        1
302
GRIDFORMAT
  1
GRIDFORMAT_BEGIN
 90
        0
 91
        1
 62
     0
 92
       -2
340
0
 93
        0
 40
0.045
309
GRIDFORMAT_END
 95
        2
302
GRIDFORMAT
  1
GRIDFORMAT_BEGIN
 90
        0
 91
        1
 62
     0
 92
       -2
340
0
 93
        0
 40
0.045
309
GRIDFORMAT_END
 95
        4
302
GRIDFORMAT
  1
GRIDFORMAT_BEGIN
 90
        0
 91
        1
 62
     0
 92
       -2
340
0
 93
        0
 40
0.045
309
GRIDFORMAT_END
 95
        8
302
GRIDFORMAT
  1
GRIDFORMAT_BEGIN
 90
        0
 91
        1
 62
     0
 92
       -2
340
0
 93
        0
 40
0.045
309
GRIDFORMAT_END
 95
       16
302
GRIDFORMAT
  1
GRIDFORMAT_BEGIN
 90
        0
 91
        1
 62
     0
 92
       -2
340
0
 93
        0
 40
0.045
309
GRIDFORMAT_END
 95
       32
302
GRIDFORMAT
  1
GRIDFORMAT_BEGIN
 90
        0
 91
        1
 62
     0
 92
       -2
340
0
 93
        0
 40
0.045
309
GRIDFORMAT_END
309
TABLEFORMAT_END
  1
CELLSTYLE_BEGIN
 90
        2
 91
        1
300
_HEADER
309
CELLSTYLE_END
300
CELLSTYLE
  1
TABLEFORMAT_BEGIN
 90
        5
170
     1
 91
        0
 92
        0
 62
   257
 93
        1
300
CONTENTFORMAT
  1
CONTENTFORMAT_BEGIN
 90
        0
 91
        0
 92
      512
 93
        0
300

 40
0.0
140
1.0
 94
        2
 62
     0
340
11
144
4.5
309
CONTENTFORMAT_END
171
     1
301
MARGIN
  1
CELLMARGIN_BEGIN
 40
1.5
 40
1.5
 40
1.5
 40
1.5
 40
0.18
 40
0.18
309
CELLMARGIN_END
 94
        6
 95
        1
302
GRIDFORMAT
  1
GRIDFORMAT_BEGIN
 90
        0
 91
        1
 62
     0
 92
       -2
340
0
 93
        0
 40
0.045
309
GRIDFORMAT_END
 95
        2
302
GRIDFORMAT
  1
GRIDFORMAT_BEGIN
 90
        0
 91
        1
 62
     0
 92
       -2
340
0
 93
        0
 40
0.045
309
GRIDFORMAT_END
 95
        4
302
GRIDFORMAT
  1
GRIDFORMAT_BEGIN
 90
        0
 91
        1
 62
     0
 92
       -2
340
0
 93
        0
 40
0.045
309
GRIDFORMAT_END
 95
        8
302
GRIDFORMAT
  1
GRIDFORMAT_BEGIN
 90
        0
 91
        1
 62
     0
 92
       -2
340
0
 93
        0
 40
0.045
309
GRIDFORMAT_END
 95
       16
302
GRIDFORMAT
  1
GRIDFORMAT_BEGIN
 90
        0
 91
        1
 62
     0
 92
       -2
340
0
 93
        0
 40
0.045
309
GRIDFORMAT_END
 95
       32
302
GRIDFORMAT
  1
GRIDFORMAT_BEGIN
 90
        0
 91
        1
 62
     0
 92
       -2
340
0
 93
        0
 40
0.045
309
GRIDFORMAT_END
309
TABLEFORMAT_END
  1
CELLSTYLE_BEGIN
 90
        3
 91
        2
300
_DATA
309
CELLSTYLE_END
  0
XRECORD
  5
19E6
102
{ACAD_REACTORS
330
1979
102
}
330
1979
100
AcDbXrecord
280
     1
102
ACAD_ROUNDTRIP_PRE2007_TABLESTYLE
 90
      512
 91
        0
  1

 92
      512
 93
        0
  2

 94
      512
 95
        0
  3

  0
XRECORD
  5
19F6
102
{ACAD_REACTORS
330
19F5
102
}
330
19F5
100
AcDbXrecord
280
     1
102
RTVSPost2010Prop28
280
     1
102
RTVSPost2010PropOp28
 70
     1
102
RTVSPost2010Prop29
280
     1
102
RTVSPost2010PropOp29
 70
     1
102
RTVSPost2010Prop30
280
     0
102
RTVSPost2010PropOp30
 70
     1
102
RTVSPost2010Prop31
280
     0
102
RTVSPost2010PropOp31
 70
     1
102
RTVSPost2010Prop32
280
     0
102
RTVSPost2010PropOp32
 70
     1
102
RTVSPost2010Prop33
280
     0
102
RTVSPost2010PropOp33
 70
     1
102
RTVSPost2010Prop34
280
     0
102
RTVSPost2010PropOp34
 70
     1
102
RTVSPost2010Prop35
280
     0
102
RTVSPost2010PropOp35
 70
     1
102
RTVSPost2010Prop36
280
     0
102
RTVSPost2010PropOp36
 70
     1
102
RTVSPost2010Prop37
 90
       50
102
RTVSPost2010PropOp37
 70
     1
102
RTVSPost2010Prop38
140
0.0
102
RTVSPost2010PropOp38
 70
     1
102
RTVSPost2010Prop39
140
1.0
102
RTVSPost2010PropOp39
 70
     1
102
RTVSPost2010Prop40
 90
        0
102
RTVSPost2010PropOp40
 70
     1
102
RTVSPost2010Prop41ColorIndex
 90
       18
102
RTVSPost2010Prop41ColorRGB
 90
        0
102
RTVSPost2010PropOp41
 70
     1
102
RTVSPost2010Prop42
 90
       50
102
RTVSPost2010PropOp42
 70
     1
102
RTVSPost2010Prop43
 90
        3
102
RTVSPost2010PropOp43
 70
     1
102
RTVSPost2010Prop44ColorIndex
 90
        5
102
RTVSPost2010Prop44ColorRGB
 90
      255
102
RTVSPost2010PropOp44
 70
     1
102
RTVSPost2010Prop45
280
     0
102
RTVSPost2010PropOp45
 70
     1
102
RTVSPost2010Prop46
 90
       50
102
RTVSPost2010PropOp46
 70
     1
102
RTVSPost2010Prop47
 90
       50
102
RTVSPost2010PropOp47
 70
     1
102
RTVSPost2010Prop48
 90
       50
102
RTVSPost2010PropOp48
 70
     1
102
RTVSPost2010Prop49
280
     0
102
RTVSPost2010PropOp49
 70
     1
102
RTVSPost2010Prop50
 90
       50
102
RTVSPost2010PropOp50
 70
     1
102
RTVSPost2010Prop51ColorIndex
 90
      256
102
RTVSPost2010Prop51ColorRGB
 90
-16777216
102
RTVSPost2010PropOp51
 70
     0
102
RTVSPost2010Prop52
140
1.0
102
RTVSPost2010PropOp52
 70
     0
102
RTVSPost2010Prop53
 90
        2
102
RTVSPost2010PropOp53
 70
     1
102
RTVSPost2010Prop54
  1
strokes_ogs.tif
102
RTVSPost2010PropOp54
 70
     1
102
RTVSPost2010Prop55
280
     0
102
RTVSPost2010PropOp55
 70
     1
102
RTVSPost2010Prop56
140
1.0
102
RTVSPost2010PropOp56
 70
     1
102
RTVSPost2010Prop57
140
1.0
102
RTVSPost2010PropOp57
 70
     1
102
RTVSPropertyOp0
 70
     1
102
RTVSPropertyOp1
 70
     1
102
RTVSPropertyOp2
 70
     1
102
RTVSPropertyOp3
 70
     1
102
RTVSPropertyOp4
 70
     1
102
RTVSPropertyOp5
 70
     1
102
RTVSPropertyOp6
 70
     1
102
RTVSPropertyOp7
 70
     1
102
RTVSPropertyOp8
 70
     1
102
RTVSPropertyOp9
 70
     1
102
RTVSPropertyOp10
 70
     1
102
RTVSPropertyOp11
 70
     1
102
RTVSPropertyOp12
 70
     1
102
RTVSPropertyOp13
 70
     1
102
RTVSPropertyOp14
 70
     1
102
RTVSPropertyOp15
 70
     1
102
RTVSPropertyOp16
 70
     1
102
RTVSPropertyOp17
 70
     1
102
RTVSPropertyOp18
 70
     1
102
RTVSPropertyOp19
 70
     1
102
RTVSPropertyOp20
 70
     1
102
RTVSPropertyOp21
 70
     1
102
RTVSPropertyOp22
 70
     1
102
RTVSPropertyOp23
 70
     1
102
RTVSPropertyOp24
 70
     1
102
RTVSPropertyOp25
 70
     1
102
RTVSPropertyOp26
 70
     1
102
RTVSPropertyOp27
 70
     1
102
RTVSPropertyOp28
 70
     1
102
RTVSPropertyOp29
 70
     1
102
RTVSPropertyOp30
 70
     1
102
RTVSPropertyOp31
 70
     1
102
RTVSPropertyOp32
 70
     1
102
RTVSPropertyOp33
 70
     1
102
RTVSPropertyOp34
 70
     1
102
RTVSPropertyOp35
 70
     1
102
RTVSPropertyOp36
 70
     1
102
RTVSPropertyOp37
 70
     1
102
RTVSPropertyOp38
 70
     1
102
RTVSPropertyOp39
 70
     1
102
RTVSPropertyOp40
 70
     1
102
RTVSPropertyOp41
 70
     1
102
RTVSPropertyOp42
 70
     1
102
RTVSPropertyOp43
 70
     1
102
RTVSPropertyOp44
 70
     1
102
RTVSPropertyOp45
 70
     1
102
RTVSPropertyOp46
 70
     1
102
RTVSPropertyOp47
 70
     1
102
RTVSPropertyOp48
 70
     1
102
RTVSPropertyOp49
 70
     1
102
RTVSPropertyOp50
 70
     1
102
RTVSPropertyOp51
 70
     0
102
RTVSPropertyOp52
 70
     0
102
RTVSPropertyOp53
 70
     1
102
RTVSPropertyOp54
 70
     1
102
RTVSPropertyOp55
 70
     1
102
RTVSPropertyOp56
 70
     1
102
RTVSPropertyOp57
 70
     1
102
RTVSPropertyOp58
 70
     1
102
RTVSPropertyOp59
 70
     1
102
RTVSPropertyOp60
 70
     1
102
RTVSPropertyOp61
 70
     1
102
RTVSPropertyOp62
 70
     1
  0
XRECORD
  5
19FA
102
{ACAD_REACTORS
330
19F9
102
}
330
19F9
100
AcDbXrecord
280
     1
102
RTVSPost2010Prop28
280
     0
102
RTVSPost2010PropOp28
 70
     1
102
RTVSPost2010Prop29
280
     1
102
RTVSPost2010PropOp29
 70
     1
102
RTVSPost2010Prop30
280
     1
102
RTVSPost2010PropOp30
 70
     1
102
RTVSPost2010Prop31
280
     0
102
RTVSPost2010PropOp31
 70
     1
102
RTVSPost2010Prop32
280
     0
102
RTVSPost2010PropOp32
 70
     1
102
RTVSPost2010Prop33
280
     0
102
RTVSPost2010PropOp33
 70
     1
102
RTVSPost2010Prop34
280
     0
102
RTVSPost2010PropOp34
 70
     1
102
RTVSPost2010Prop35
280
     0
102
RTVSPost2010PropOp35
 70
     1
102
RTVSPost2010Prop36
280
     0
102
RTVSPost2010PropOp36
 70
     1
102
RTVSPost2010Prop37
 90
       50
102
RTVSPost2010PropOp37
 70
     1
102
RTVSPost2010Prop38
140
0.0
102
RTVSPost2010PropOp38
 70
     1
102
RTVSPost2010Prop39
140
1.0
102
RTVSPost2010PropOp39
 70
     1
102
RTVSPost2010Prop40
 90
        0
102
RTVSPost2010PropOp40
 70
     1
102
RTVSPost2010Prop41ColorIndex
 90
       18
102
RTVSPost2010Prop41ColorRGB
 90
        0
102
RTVSPost2010PropOp41
 70
     1
102
RTVSPost2010Prop42
 90
       50
102
RTVSPost2010PropOp42
 70
     1
102
RTVSPost2010Prop43
 90
        3
102
RTVSPost2010PropOp43
 70
     1
102
RTVSPost2010Prop44ColorIndex
 90
        5
102
RTVSPost2010Prop44ColorRGB
 90
      255
102
RTVSPost2010PropOp44
 70
     1
102
RTVSPost2010Prop45
280
     0
102
RTVSPost2010PropOp45
 70
     1
102
RTVSPost2010Prop46
 90
       50
102
RTVSPost2010PropOp46
 70
     1
102
RTVSPost2010Prop47
 90
       50
102
RTVSPost2010PropOp47
 70
     1
102
RTVSPost2010Prop48
 90
       50
102
RTVSPost2010PropOp48
 70
     1
102
RTVSPost2010Prop49
280
     0
102
RTVSPost2010PropOp49
 70
     1
102
RTVSPost2010Prop50
 90
       50
102
RTVSPost2010PropOp50
 70
     1
102
RTVSPost2010Prop51ColorIndex
 90
      256
102
RTVSPost2010Prop51ColorRGB
 90
-16777216
102
RTVSPost2010PropOp51
 70
     0
102
RTVSPost2010Prop52
140
1.0
102
RTVSPost2010PropOp52
 70
     0
102
RTVSPost2010Prop53
 90
        2
102
RTVSPost2010PropOp53
 70
     1
102
RTVSPost2010Prop54
  1
strokes_ogs.tif
102
RTVSPost2010PropOp54
 70
     1
102
RTVSPost2010Prop55
280
     0
102
RTVSPost2010PropOp55
 70
     1
102
RTVSPost2010Prop56
140
1.0
102
RTVSPost2010PropOp56
 70
     1
102
RTVSPost2010Prop57
140
1.0
102
RTVSPost2010PropOp57
 70
     1
102
RTVSPropertyOp0
 70
     1
102
RTVSPropertyOp1
 70
     1
102
RTVSPropertyOp2
 70
     1
102
RTVSPropertyOp3
 70
     1
102
RTVSPropertyOp4
 70
     1
102
RTVSPropertyOp5
 70
     1
102
RTVSPropertyOp6
 70
     1
102
RTVSPropertyOp7
 70
     1
102
RTVSPropertyOp8
 70
     1
102
RTVSPropertyOp9
 70
     1
102
RTVSPropertyOp10
 70
     1
102
RTVSPropertyOp11
 70
     1
102
RTVSPropertyOp12
 70
     1
102
RTVSPropertyOp13
 70
     1
102
RTVSPropertyOp14
 70
     1
102
RTVSPropertyOp15
 70
     1
102
RTVSPropertyOp16
 70
     1
102
RTVSPropertyOp17
 70
     1
102
RTVSPropertyOp18
 70
     1
102
RTVSPropertyOp19
 70
     1
102
RTVSPropertyOp20
 70
     1
102
RTVSPropertyOp21
 70
     1
102
RTVSPropertyOp22
 70
     1
102
RTVSPropertyOp23
 70
     1
102
RTVSPropertyOp24
 70
     1
102
RTVSPropertyOp25
 70
     1
102
RTVSPropertyOp26
 70
     1
102
RTVSPropertyOp27
 70
     1
102
RTVSPropertyOp28
 70
     1
102
RTVSPropertyOp29
 70
     1
102
RTVSPropertyOp30
 70
     1
102
RTVSPropertyOp31
 70
     1
102
RTVSPropertyOp32
 70
     1
102
RTVSPropertyOp33
 70
     1
102
RTVSPropertyOp34
 70
     1
102
RTVSPropertyOp35
 70
     1
102
RTVSPropertyOp36
 70
     1
102
RTVSPropertyOp37
 70
     1
102
RTVSPropertyOp38
 70
     1
102
RTVSPropertyOp39
 70
     1
102
RTVSPropertyOp40
 70
     1
102
RTVSPropertyOp41
 70
     1
102
RTVSPropertyOp42
 70
     1
102
RTVSPropertyOp43
 70
     1
102
RTVSPropertyOp44
 70
     1
102
RTVSPropertyOp45
 70
     1
102
RTVSPropertyOp46
 70
     1
102
RTVSPropertyOp47
 70
     1
102
RTVSPropertyOp48
 70
     1
102
RTVSPropertyOp49
 70
     1
102
RTVSPropertyOp50
 70
     1
102
RTVSPropertyOp51
 70
     0
102
RTVSPropertyOp52
 70
     0
102
RTVSPropertyOp53
 70
     1
102
RTVSPropertyOp54
 70
     1
102
RTVSPropertyOp55
 70
     1
102
RTVSPropertyOp56
 70
     1
102
RTVSPropertyOp57
 70
     1
102
RTVSPropertyOp58
 70
     1
102
RTVSPropertyOp59
 70
     1
102
RTVSPropertyOp60
 70
     1
102
RTVSPropertyOp61
 70
     1
102
RTVSPropertyOp62
 70
     1
  0
XRECORD
  5
19F8
102
{ACAD_REACTORS
330
19F7
102
}
330
19F7
100
AcDbXrecord
280
     1
102
RTVSPost2010Prop28
280
     0
102
RTVSPost2010PropOp28
 70
     1
102
RTVSPost2010Prop29
280
     1
102
RTVSPost2010PropOp29
 70
     1
102
RTVSPost2010Prop30
280
     1
102
RTVSPost2010PropOp30
 70
     1
102
RTVSPost2010Prop31
280
     0
102
RTVSPost2010PropOp31
 70
     1
102
RTVSPost2010Prop32
280
     0
102
RTVSPost2010PropOp32
 70
     1
102
RTVSPost2010Prop33
280
     0
102
RTVSPost2010PropOp33
 70
     1
102
RTVSPost2010Prop34
280
     0
102
RTVSPost2010PropOp34
 70
     1
102
RTVSPost2010Prop35
280
     0
102
RTVSPost2010PropOp35
 70
     1
102
RTVSPost2010Prop36
280
     0
102
RTVSPost2010PropOp36
 70
     1
102
RTVSPost2010Prop37
 90
       50
102
RTVSPost2010PropOp37
 70
     1
102
RTVSPost2010Prop38
140
0.0
102
RTVSPost2010PropOp38
 70
     1
102
RTVSPost2010Prop39
140
1.0
102
RTVSPost2010PropOp39
 70
     1
102
RTVSPost2010Prop40
 90
        0
102
RTVSPost2010PropOp40
 70
     1
102
RTVSPost2010Prop41ColorIndex
 90
       18
102
RTVSPost2010Prop41ColorRGB
 90
        0
102
RTVSPost2010PropOp41
 70
     1
102
RTVSPost2010Prop42
 90
       50
102
RTVSPost2010PropOp42
 70
     1
102
RTVSPost2010Prop43
 90
        3
102
RTVSPost2010PropOp43
 70
     1
102
RTVSPost2010Prop44ColorIndex
 90
        5
102
RTVSPost2010Prop44ColorRGB
 90
      255
102
RTVSPost2010PropOp44
 70
     1
102
RTVSPost2010Prop45
280
     0
102
RTVSPost2010PropOp45
 70
     1
102
RTVSPost2010Prop46
 90
       50
102
RTVSPost2010PropOp46
 70
     1
102
RTVSPost2010Prop47
 90
       50
102
RTVSPost2010PropOp47
 70
     1
102
RTVSPost2010Prop48
 90
       50
102
RTVSPost2010PropOp48
 70
     1
102
RTVSPost2010Prop49
280
     0
102
RTVSPost2010PropOp49
 70
     1
102
RTVSPost2010Prop50
 90
       50
102
RTVSPost2010PropOp50
 70
     1
102
RTVSPost2010Prop51ColorIndex
 90
      256
102
RTVSPost2010Prop51ColorRGB
 90
-16777216
102
RTVSPost2010PropOp51
 70
     0
102
RTVSPost2010Prop52
140
1.0
102
RTVSPost2010PropOp52
 70
     0
102
RTVSPost2010Prop53
 90
        2
102
RTVSPost2010PropOp53
 70
     1
102
RTVSPost2010Prop54
  1
strokes_ogs.tif
102
RTVSPost2010PropOp54
 70
     1
102
RTVSPost2010Prop55
280
     0
102
RTVSPost2010PropOp55
 70
     1
102
RTVSPost2010Prop56
140
1.0
102
RTVSPost2010PropOp56
 70
     1
102
RTVSPost2010Prop57
140
1.0
102
RTVSPost2010PropOp57
 70
     1
102
RTVSPropertyOp0
 70
     1
102
RTVSPropertyOp1
 70
     1
102
RTVSPropertyOp2
 70
     1
102
RTVSPropertyOp3
 70
     1
102
RTVSPropertyOp4
 70
     1
102
RTVSPropertyOp5
 70
     1
102
RTVSPropertyOp6
 70
     1
102
RTVSPropertyOp7
 70
     1
102
RTVSPropertyOp8
 70
     1
102
RTVSPropertyOp9
 70
     1
102
RTVSPropertyOp10
 70
     1
102
RTVSPropertyOp11
 70
     1
102
RTVSPropertyOp12
 70
     1
102
RTVSPropertyOp13
 70
     1
102
RTVSPropertyOp14
 70
     1
102
RTVSPropertyOp15
 70
     1
102
RTVSPropertyOp16
 70
     1
102
RTVSPropertyOp17
 70
     1
102
RTVSPropertyOp18
 70
     1
102
RTVSPropertyOp19
 70
     1
102
RTVSPropertyOp20
 70
     1
102
RTVSPropertyOp21
 70
     1
102
RTVSPropertyOp22
 70
     1
102
RTVSPropertyOp23
 70
     1
102
RTVSPropertyOp24
 70
     1
102
RTVSPropertyOp25
 70
     1
102
RTVSPropertyOp26
 70
     1
102
RTVSPropertyOp27
 70
     1
102
RTVSPropertyOp28
 70
     1
102
RTVSPropertyOp29
 70
     1
102
RTVSPropertyOp30
 70
     1
102
RTVSPropertyOp31
 70
     1
102
RTVSPropertyOp32
 70
     1
102
RTVSPropertyOp33
 70
     1
102
RTVSPropertyOp34
 70
     1
102
RTVSPropertyOp35
 70
     1
102
RTVSPropertyOp36
 70
     1
102
RTVSPropertyOp37
 70
     1
102
RTVSPropertyOp38
 70
     1
102
RTVSPropertyOp39
 70
     1
102
RTVSPropertyOp40
 70
     1
102
RTVSPropertyOp41
 70
     1
102
RTVSPropertyOp42
 70
     1
102
RTVSPropertyOp43
 70
     1
102
RTVSPropertyOp44
 70
     1
102
RTVSPropertyOp45
 70
     1
102
RTVSPropertyOp46
 70
     1
102
RTVSPropertyOp47
 70
     1
102
RTVSPropertyOp48
 70
     1
102
RTVSPropertyOp49
 70
     1
102
RTVSPropertyOp50
 70
     1
102
RTVSPropertyOp51
 70
     0
102
RTVSPropertyOp52
 70
     0
102
RTVSPropertyOp53
 70
     1
102
RTVSPropertyOp54
 70
     1
102
RTVSPropertyOp55
 70
     1
102
RTVSPropertyOp56
 70
     1
102
RTVSPropertyOp57
 70
     1
102
RTVSPropertyOp58
 70
     1
102
RTVSPropertyOp59
 70
     1
102
RTVSPropertyOp60
 70
     1
102
RTVSPropertyOp61
 70
     1
102
RTVSPropertyOp62
 70
     1
  0
XRECORD
  5
19F4
102
{ACAD_REACTORS
330
19F3
102
}
330
19F3
100
AcDbXrecord
280
     1
102
RTVSPost2010Prop28
280
     0
102
RTVSPost2010PropOp28
 70
     1
102
RTVSPost2010Prop29
280
     1
102
RTVSPost2010PropOp29
 70
     1
102
RTVSPost2010Prop30
280
     1
102
RTVSPost2010PropOp30
 70
     1
102
RTVSPost2010Prop31
280
     0
102
RTVSPost2010PropOp31
 70
     1
102
RTVSPost2010Prop32
280
     0
102
RTVSPost2010PropOp32
 70
     1
102
RTVSPost2010Prop33
280
     0
102
RTVSPost2010PropOp33
 70
     1
102
RTVSPost2010Prop34
280
     0
102
RTVSPost2010PropOp34
 70
     1
102
RTVSPost2010Prop35
280
     0
102
RTVSPost2010PropOp35
 70
     1
102
RTVSPost2010Prop36
280
     0
102
RTVSPost2010PropOp36
 70
     1
102
RTVSPost2010Prop37
 90
       50
102
RTVSPost2010PropOp37
 70
     1
102
RTVSPost2010Prop38
140
0.0
102
RTVSPost2010PropOp38
 70
     1
102
RTVSPost2010Prop39
140
1.0
102
RTVSPost2010PropOp39
 70
     1
102
RTVSPost2010Prop40
 90
        0
102
RTVSPost2010PropOp40
 70
     1
102
RTVSPost2010Prop41ColorIndex
 90
       18
102
RTVSPost2010Prop41ColorRGB
 90
        0
102
RTVSPost2010PropOp41
 70
     1
102
RTVSPost2010Prop42
 90
       50
102
RTVSPost2010PropOp42
 70
     1
102
RTVSPost2010Prop43
 90
        3
102
RTVSPost2010PropOp43
 70
     1
102
RTVSPost2010Prop44ColorIndex
 90
        5
102
RTVSPost2010Prop44ColorRGB
 90
      255
102
RTVSPost2010PropOp44
 70
     1
102
RTVSPost2010Prop45
280
     0
102
RTVSPost2010PropOp45
 70
     1
102
RTVSPost2010Prop46
 90
       50
102
RTVSPost2010PropOp46
 70
     1
102
RTVSPost2010Prop47
 90
       50
102
RTVSPost2010PropOp47
 70
     1
102
RTVSPost2010Prop48
 90
       50
102
RTVSPost2010PropOp48
 70
     1
102
RTVSPost2010Prop49
280
     0
102
RTVSPost2010PropOp49
 70
     1
102
RTVSPost2010Prop50
 90
       50
102
RTVSPost2010PropOp50
 70
     1
102
RTVSPost2010Prop51ColorIndex
 90
      256
102
RTVSPost2010Prop51ColorRGB
 90
-16777216
102
RTVSPost2010PropOp51
 70
     0
102
RTVSPost2010Prop52
140
1.0
102
RTVSPost2010PropOp52
 70
     0
102
RTVSPost2010Prop53
 90
        2
102
RTVSPost2010PropOp53
 70
     1
102
RTVSPost2010Prop54
  1
strokes_ogs.tif
102
RTVSPost2010PropOp54
 70
     1
102
RTVSPost2010Prop55
280
     0
102
RTVSPost2010PropOp55
 70
     1
102
RTVSPost2010Prop56
140
1.0
102
RTVSPost2010PropOp56
 70
     1
102
RTVSPost2010Prop57
140
1.0
102
RTVSPost2010PropOp57
 70
     1
102
RTVSPropertyOp0
 70
     1
102
RTVSPropertyOp1
 70
     1
102
RTVSPropertyOp2
 70
     1
102
RTVSPropertyOp3
 70
     1
102
RTVSPropertyOp4
 70
     1
102
RTVSPropertyOp5
 70
     1
102
RTVSPropertyOp6
 70
     1
102
RTVSPropertyOp7
 70
     1
102
RTVSPropertyOp8
 70
     1
102
RTVSPropertyOp9
 70
     1
102
RTVSPropertyOp10
 70
     1
102
RTVSPropertyOp11
 70
     1
102
RTVSPropertyOp12
 70
     1
102
RTVSPropertyOp13
 70
     1
102
RTVSPropertyOp14
 70
     1
102
RTVSPropertyOp15
 70
     1
102
RTVSPropertyOp16
 70
     1
102
RTVSPropertyOp17
 70
     1
102
RTVSPropertyOp18
 70
     1
102
RTVSPropertyOp19
 70
     1
102
RTVSPropertyOp20
 70
     1
102
RTVSPropertyOp21
 70
     1
102
RTVSPropertyOp22
 70
     1
102
RTVSPropertyOp23
 70
     1
102
RTVSPropertyOp24
 70
     1
102
RTVSPropertyOp25
 70
     1
102
RTVSPropertyOp26
 70
     1
102
RTVSPropertyOp27
 70
     1
102
RTVSPropertyOp28
 70
     1
102
RTVSPropertyOp29
 70
     1
102
RTVSPropertyOp30
 70
     1
102
RTVSPropertyOp31
 70
     1
102
RTVSPropertyOp32
 70
     1
102
RTVSPropertyOp33
 70
     1
102
RTVSPropertyOp34
 70
     1
102
RTVSPropertyOp35
 70
     1
102
RTVSPropertyOp36
 70
     1
102
RTVSPropertyOp37
 70
     1
102
RTVSPropertyOp38
 70
     1
102
RTVSPropertyOp39
 70
     1
102
RTVSPropertyOp40
 70
     1
102
RTVSPropertyOp41
 70
     1
102
RTVSPropertyOp42
 70
     1
102
RTVSPropertyOp43
 70
     1
102
RTVSPropertyOp44
 70
     1
102
RTVSPropertyOp45
 70
     1
102
RTVSPropertyOp46
 70
     1
102
RTVSPropertyOp47
 70
     1
102
RTVSPropertyOp48
 70
     1
102
RTVSPropertyOp49
 70
     1
102
RTVSPropertyOp50
 70
     1
102
RTVSPropertyOp51
 70
     0
102
RTVSPropertyOp52
 70
     0
102
RTVSPropertyOp53
 70
     1
102
RTVSPropertyOp54
 70
     1
102
RTVSPropertyOp55
 70
     1
102
RTVSPropertyOp56
 70
     1
102
RTVSPropertyOp57
 70
     1
102
RTVSPropertyOp58
 70
     1
102
RTVSPropertyOp59
 70
     1
102
RTVSPropertyOp60
 70
     1
102
RTVSPropertyOp61
 70
     1
102
RTVSPropertyOp62
 70
     1
  0
XRECORD
  5
1A02
102
{ACAD_REACTORS
330
1A01
102
}
330
1A01
100
AcDbXrecord
280
     1
102
RTVSPost2010Prop28
280
     0
102
RTVSPost2010PropOp28
 70
     1
102
RTVSPost2010Prop29
280
     1
102
RTVSPost2010PropOp29
 70
     1
102
RTVSPost2010Prop30
280
     1
102
RTVSPost2010PropOp30
 70
     1
102
RTVSPost2010Prop31
280
     0
102
RTVSPost2010PropOp31
 70
     1
102
RTVSPost2010Prop32
280
     0
102
RTVSPost2010PropOp32
 70
     1
102
RTVSPost2010Prop33
280
     0
102
RTVSPost2010PropOp33
 70
     1
102
RTVSPost2010Prop34
280
     0
102
RTVSPost2010PropOp34
 70
     1
102
RTVSPost2010Prop35
280
     0
102
RTVSPost2010PropOp35
 70
     1
102
RTVSPost2010Prop36
280
     0
102
RTVSPost2010PropOp36
 70
     1
102
RTVSPost2010Prop37
 90
       50
102
RTVSPost2010PropOp37
 70
     1
102
RTVSPost2010Prop38
140
0.0
102
RTVSPost2010PropOp38
 70
     1
102
RTVSPost2010Prop39
140
1.0
102
RTVSPost2010PropOp39
 70
     1
102
RTVSPost2010Prop40
 90
        0
102
RTVSPost2010PropOp40
 70
     1
102
RTVSPost2010Prop41ColorIndex
 90
       18
102
RTVSPost2010Prop41ColorRGB
 90
        0
102
RTVSPost2010PropOp41
 70
     1
102
RTVSPost2010Prop42
 90
       50
102
RTVSPost2010PropOp42
 70
     1
102
RTVSPost2010Prop43
 90
        3
102
RTVSPost2010PropOp43
 70
     1
102
RTVSPost2010Prop44ColorIndex
 90
        5
102
RTVSPost2010Prop44ColorRGB
 90
      255
102
RTVSPost2010PropOp44
 70
     1
102
RTVSPost2010Prop45
280
     0
102
RTVSPost2010PropOp45
 70
     1
102
RTVSPost2010Prop46
 90
       50
102
RTVSPost2010PropOp46
 70
     1
102
RTVSPost2010Prop47
 90
       50
102
RTVSPost2010PropOp47
 70
     1
102
RTVSPost2010Prop48
 90
       50
102
RTVSPost2010PropOp48
 70
     1
102
RTVSPost2010Prop49
280
     0
102
RTVSPost2010PropOp49
 70
     1
102
RTVSPost2010Prop50
 90
       50
102
RTVSPost2010PropOp50
 70
     1
102
RTVSPost2010Prop51ColorIndex
 90
      256
102
RTVSPost2010Prop51ColorRGB
 90
-16777216
102
RTVSPost2010PropOp51
 70
     0
102
RTVSPost2010Prop52
140
1.0
102
RTVSPost2010PropOp52
 70
     0
102
RTVSPost2010Prop53
 90
        2
102
RTVSPost2010PropOp53
 70
     1
102
RTVSPost2010Prop54
  1
strokes_ogs.tif
102
RTVSPost2010PropOp54
 70
     1
102
RTVSPost2010Prop55
280
     0
102
RTVSPost2010PropOp55
 70
     1
102
RTVSPost2010Prop56
140
1.0
102
RTVSPost2010PropOp56
 70
     1
102
RTVSPost2010Prop57
140
1.0
102
RTVSPost2010PropOp57
 70
     1
102
RTVSPropertyOp0
 70
     1
102
RTVSPropertyOp1
 70
     1
102
RTVSPropertyOp2
 70
     1
102
RTVSPropertyOp3
 70
     1
102
RTVSPropertyOp4
 70
     1
102
RTVSPropertyOp5
 70
     1
102
RTVSPropertyOp6
 70
     1
102
RTVSPropertyOp7
 70
     1
102
RTVSPropertyOp8
 70
     1
102
RTVSPropertyOp9
 70
     1
102
RTVSPropertyOp10
 70
     1
102
RTVSPropertyOp11
 70
     1
102
RTVSPropertyOp12
 70
     1
102
RTVSPropertyOp13
 70
     1
102
RTVSPropertyOp14
 70
     1
102
RTVSPropertyOp15
 70
     1
102
RTVSPropertyOp16
 70
     1
102
RTVSPropertyOp17
 70
     1
102
RTVSPropertyOp18
 70
     1
102
RTVSPropertyOp19
 70
     1
102
RTVSPropertyOp20
 70
     1
102
RTVSPropertyOp21
 70
     1
102
RTVSPropertyOp22
 70
     1
102
RTVSPropertyOp23
 70
     1
102
RTVSPropertyOp24
 70
     1
102
RTVSPropertyOp25
 70
     1
102
RTVSPropertyOp26
 70
     1
102
RTVSPropertyOp27
 70
     1
102
RTVSPropertyOp28
 70
     1
102
RTVSPropertyOp29
 70
     1
102
RTVSPropertyOp30
 70
     1
102
RTVSPropertyOp31
 70
     1
102
RTVSPropertyOp32
 70
     1
102
RTVSPropertyOp33
 70
     1
102
RTVSPropertyOp34
 70
     1
102
RTVSPropertyOp35
 70
     1
102
RTVSPropertyOp36
 70
     1
102
RTVSPropertyOp37
 70
     1
102
RTVSPropertyOp38
 70
     1
102
RTVSPropertyOp39
 70
     1
102
RTVSPropertyOp40
 70
     1
102
RTVSPropertyOp41
 70
     1
102
RTVSPropertyOp42
 70
     1
102
RTVSPropertyOp43
 70
     1
102
RTVSPropertyOp44
 70
     1
102
RTVSPropertyOp45
 70
     1
102
RTVSPropertyOp46
 70
     1
102
RTVSPropertyOp47
 70
     1
102
RTVSPropertyOp48
 70
     1
102
RTVSPropertyOp49
 70
     1
102
RTVSPropertyOp50
 70
     1
102
RTVSPropertyOp51
 70
     0
102
RTVSPropertyOp52
 70
     0
102
RTVSPropertyOp53
 70
     1
102
RTVSPropertyOp54
 70
     1
102
RTVSPropertyOp55
 70
     1
102
RTVSPropertyOp56
 70
     1
102
RTVSPropertyOp57
 70
     1
102
RTVSPropertyOp58
 70
     1
102
RTVSPropertyOp59
 70
     1
102
RTVSPropertyOp60
 70
     1
102
RTVSPropertyOp61
 70
     1
102
RTVSPropertyOp62
 70
     1
  0
XRECORD
  5
1A0A
102
{ACAD_REACTORS
330
1A09
102
}
330
1A09
100
AcDbXrecord
280
     1
102
RTVSPost2010Prop28
280
     0
102
RTVSPost2010PropOp28
 70
     1
102
RTVSPost2010Prop29
280
     1
102
RTVSPost2010PropOp29
 70
     1
102
RTVSPost2010Prop30
280
     1
102
RTVSPost2010PropOp30
 70
     1
102
RTVSPost2010Prop31
280
     0
102
RTVSPost2010PropOp31
 70
     1
102
RTVSPost2010Prop32
280
     0
102
RTVSPost2010PropOp32
 70
     1
102
RTVSPost2010Prop33
280
     0
102
RTVSPost2010PropOp33
 70
     1
102
RTVSPost2010Prop34
280
     0
102
RTVSPost2010PropOp34
 70
     1
102
RTVSPost2010Prop35
280
     0
102
RTVSPost2010PropOp35
 70
     1
102
RTVSPost2010Prop36
280
     0
102
RTVSPost2010PropOp36
 70
     1
102
RTVSPost2010Prop37
 90
       50
102
RTVSPost2010PropOp37
 70
     1
102
RTVSPost2010Prop38
140
0.0
102
RTVSPost2010PropOp38
 70
     1
102
RTVSPost2010Prop39
140
1.0
102
RTVSPost2010PropOp39
 70
     1
102
RTVSPost2010Prop40
 90
        0
102
RTVSPost2010PropOp40
 70
     1
102
RTVSPost2010Prop41ColorIndex
 90
       18
102
RTVSPost2010Prop41ColorRGB
 90
        0
102
RTVSPost2010PropOp41
 70
     1
102
RTVSPost2010Prop42
 90
       50
102
RTVSPost2010PropOp42
 70
     1
102
RTVSPost2010Prop43
 90
        3
102
RTVSPost2010PropOp43
 70
     1
102
RTVSPost2010Prop44ColorIndex
 90
        5
102
RTVSPost2010Prop44ColorRGB
 90
      255
102
RTVSPost2010PropOp44
 70
     1
102
RTVSPost2010Prop45
280
     0
102
RTVSPost2010PropOp45
 70
     1
102
RTVSPost2010Prop46
 90
       50
102
RTVSPost2010PropOp46
 70
     1
102
RTVSPost2010Prop47
 90
       50
102
RTVSPost2010PropOp47
 70
     1
102
RTVSPost2010Prop48
 90
       50
102
RTVSPost2010PropOp48
 70
     1
102
RTVSPost2010Prop49
280
     0
102
RTVSPost2010PropOp49
 70
     1
102
RTVSPost2010Prop50
 90
       50
102
RTVSPost2010PropOp50
 70
     1
102
RTVSPost2010Prop51ColorIndex
 90
      256
102
RTVSPost2010Prop51ColorRGB
 90
-16777216
102
RTVSPost2010PropOp51
 70
     0
102
RTVSPost2010Prop52
140
1.0
102
RTVSPost2010PropOp52
 70
     0
102
RTVSPost2010Prop53
 90
        2
102
RTVSPost2010PropOp53
 70
     1
102
RTVSPost2010Prop54
  1
strokes_ogs.tif
102
RTVSPost2010PropOp54
 70
     1
102
RTVSPost2010Prop55
280
     0
102
RTVSPost2010PropOp55
 70
     1
102
RTVSPost2010Prop56
140
1.0
102
RTVSPost2010PropOp56
 70
     1
102
RTVSPost2010Prop57
140
1.0
102
RTVSPost2010PropOp57
 70
     1
102
RTVSPropertyOp0
 70
     1
102
RTVSPropertyOp1
 70
     1
102
RTVSPropertyOp2
 70
     1
102
RTVSPropertyOp3
 70
     1
102
RTVSPropertyOp4
 70
     1
102
RTVSPropertyOp5
 70
     1
102
RTVSPropertyOp6
 70
     1
102
RTVSPropertyOp7
 70
     1
102
RTVSPropertyOp8
 70
     1
102
RTVSPropertyOp9
 70
     1
102
RTVSPropertyOp10
 70
     1
102
RTVSPropertyOp11
 70
     1
102
RTVSPropertyOp12
 70
     1
102
RTVSPropertyOp13
 70
     1
102
RTVSPropertyOp14
 70
     1
102
RTVSPropertyOp15
 70
     1
102
RTVSPropertyOp16
 70
     1
102
RTVSPropertyOp17
 70
     1
102
RTVSPropertyOp18
 70
     1
102
RTVSPropertyOp19
 70
     1
102
RTVSPropertyOp20
 70
     1
102
RTVSPropertyOp21
 70
     1
102
RTVSPropertyOp22
 70
     1
102
RTVSPropertyOp23
 70
     1
102
RTVSPropertyOp24
 70
     1
102
RTVSPropertyOp25
 70
     1
102
RTVSPropertyOp26
 70
     1
102
RTVSPropertyOp27
 70
     1
102
RTVSPropertyOp28
 70
     1
102
RTVSPropertyOp29
 70
     1
102
RTVSPropertyOp30
 70
     1
102
RTVSPropertyOp31
 70
     1
102
RTVSPropertyOp32
 70
     1
102
RTVSPropertyOp33
 70
     1
102
RTVSPropertyOp34
 70
     1
102
RTVSPropertyOp35
 70
     1
102
RTVSPropertyOp36
 70
     1
102
RTVSPropertyOp37
 70
     1
102
RTVSPropertyOp38
 70
     1
102
RTVSPropertyOp39
 70
     1
102
RTVSPropertyOp40
 70
     1
102
RTVSPropertyOp41
 70
     1
102
RTVSPropertyOp42
 70
     1
102
RTVSPropertyOp43
 70
     1
102
RTVSPropertyOp44
 70
     1
102
RTVSPropertyOp45
 70
     1
102
RTVSPropertyOp46
 70
     1
102
RTVSPropertyOp47
 70
     1
102
RTVSPropertyOp48
 70
     1
102
RTVSPropertyOp49
 70
     1
102
RTVSPropertyOp50
 70
     1
102
RTVSPropertyOp51
 70
     0
102
RTVSPropertyOp52
 70
     0
102
RTVSPropertyOp53
 70
     1
102
RTVSPropertyOp54
 70
     1
102
RTVSPropertyOp55
 70
     1
102
RTVSPropertyOp56
 70
     1
102
RTVSPropertyOp57
 70
     1
102
RTVSPropertyOp58
 70
     1
102
RTVSPropertyOp59
 70
     1
102
RTVSPropertyOp60
 70
     1
102
RTVSPropertyOp61
 70
     1
102
RTVSPropertyOp62
 70
     1
  0
XRECORD
  5
19FC
102
{ACAD_REACTORS
330
19FB
102
}
330
19FB
100
AcDbXrecord
280
     1
102
RTVSPost2010Prop28
280
     0
102
RTVSPost2010PropOp28
 70
     1
102
RTVSPost2010Prop29
280
     1
102
RTVSPost2010PropOp29
 70
     1
102
RTVSPost2010Prop30
280
     1
102
RTVSPost2010PropOp30
 70
     1
102
RTVSPost2010Prop31
280
     0
102
RTVSPost2010PropOp31
 70
     1
102
RTVSPost2010Prop32
280
     0
102
RTVSPost2010PropOp32
 70
     1
102
RTVSPost2010Prop33
280
     0
102
RTVSPost2010PropOp33
 70
     1
102
RTVSPost2010Prop34
280
     0
102
RTVSPost2010PropOp34
 70
     1
102
RTVSPost2010Prop35
280
     0
102
RTVSPost2010PropOp35
 70
     1
102
RTVSPost2010Prop36
280
     0
102
RTVSPost2010PropOp36
 70
     1
102
RTVSPost2010Prop37
 90
       50
102
RTVSPost2010PropOp37
 70
     1
102
RTVSPost2010Prop38
140
0.0
102
RTVSPost2010PropOp38
 70
     1
102
RTVSPost2010Prop39
140
1.0
102
RTVSPost2010PropOp39
 70
     1
102
RTVSPost2010Prop40
 90
        0
102
RTVSPost2010PropOp40
 70
     1
102
RTVSPost2010Prop41ColorIndex
 90
       18
102
RTVSPost2010Prop41ColorRGB
 90
        0
102
RTVSPost2010PropOp41
 70
     1
102
RTVSPost2010Prop42
 90
       50
102
RTVSPost2010PropOp42
 70
     1
102
RTVSPost2010Prop43
 90
        3
102
RTVSPost2010PropOp43
 70
     1
102
RTVSPost2010Prop44ColorIndex
 90
        5
102
RTVSPost2010Prop44ColorRGB
 90
      255
102
RTVSPost2010PropOp44
 70
     1
102
RTVSPost2010Prop45
280
     0
102
RTVSPost2010PropOp45
 70
     1
102
RTVSPost2010Prop46
 90
       50
102
RTVSPost2010PropOp46
 70
     1
102
RTVSPost2010Prop47
 90
       50
102
RTVSPost2010PropOp47
 70
     1
102
RTVSPost2010Prop48
 90
       50
102
RTVSPost2010PropOp48
 70
     1
102
RTVSPost2010Prop49
280
     0
102
RTVSPost2010PropOp49
 70
     1
102
RTVSPost2010Prop50
 90
       50
102
RTVSPost2010PropOp50
 70
     1
102
RTVSPost2010Prop51ColorIndex
 90
      256
102
RTVSPost2010Prop51ColorRGB
 90
-16777216
102
RTVSPost2010PropOp51
 70
     0
102
RTVSPost2010Prop52
140
1.0
102
RTVSPost2010PropOp52
 70
     0
102
RTVSPost2010Prop53
 90
        2
102
RTVSPost2010PropOp53
 70
     1
102
RTVSPost2010Prop54
  1
strokes_ogs.tif
102
RTVSPost2010PropOp54
 70
     1
102
RTVSPost2010Prop55
280
     0
102
RTVSPost2010PropOp55
 70
     1
102
RTVSPost2010Prop56
140
1.0
102
RTVSPost2010PropOp56
 70
     1
102
RTVSPost2010Prop57
140
1.0
102
RTVSPost2010PropOp57
 70
     1
102
RTVSPropertyOp0
 70
     1
102
RTVSPropertyOp1
 70
     1
102
RTVSPropertyOp2
 70
     1
102
RTVSPropertyOp3
 70
     1
102
RTVSPropertyOp4
 70
     1
102
RTVSPropertyOp5
 70
     1
102
RTVSPropertyOp6
 70
     1
102
RTVSPropertyOp7
 70
     1
102
RTVSPropertyOp8
 70
     1
102
RTVSPropertyOp9
 70
     1
102
RTVSPropertyOp10
 70
     1
102
RTVSPropertyOp11
 70
     1
102
RTVSPropertyOp12
 70
     1
102
RTVSPropertyOp13
 70
     1
102
RTVSPropertyOp14
 70
     1
102
RTVSPropertyOp15
 70
     1
102
RTVSPropertyOp16
 70
     1
102
RTVSPropertyOp17
 70
     1
102
RTVSPropertyOp18
 70
     1
102
RTVSPropertyOp19
 70
     1
102
RTVSPropertyOp20
 70
     1
102
RTVSPropertyOp21
 70
     1
102
RTVSPropertyOp22
 70
     1
102
RTVSPropertyOp23
 70
     1
102
RTVSPropertyOp24
 70
     1
102
RTVSPropertyOp25
 70
     1
102
RTVSPropertyOp26
 70
     1
102
RTVSPropertyOp27
 70
     1
102
RTVSPropertyOp28
 70
     1
102
RTVSPropertyOp29
 70
     1
102
RTVSPropertyOp30
 70
     1
102
RTVSPropertyOp31
 70
     1
102
RTVSPropertyOp32
 70
     1
102
RTVSPropertyOp33
 70
     1
102
RTVSPropertyOp34
 70
     1
102
RTVSPropertyOp35
 70
     1
102
RTVSPropertyOp36
 70
     1
102
RTVSPropertyOp37
 70
     1
102
RTVSPropertyOp38
 70
     1
102
RTVSPropertyOp39
 70
     1
102
RTVSPropertyOp40
 70
     1
102
RTVSPropertyOp41
 70
     1
102
RTVSPropertyOp42
 70
     1
102
RTVSPropertyOp43
 70
     1
102
RTVSPropertyOp44
 70
     1
102
RTVSPropertyOp45
 70
     1
102
RTVSPropertyOp46
 70
     1
102
RTVSPropertyOp47
 70
     1
102
RTVSPropertyOp48
 70
     1
102
RTVSPropertyOp49
 70
     1
102
RTVSPropertyOp50
 70
     1
102
RTVSPropertyOp51
 70
     0
102
RTVSPropertyOp52
 70
     0
102
RTVSPropertyOp53
 70
     1
102
RTVSPropertyOp54
 70
     1
102
RTVSPropertyOp55
 70
     1
102
RTVSPropertyOp56
 70
     1
102
RTVSPropertyOp57
 70
     1
102
RTVSPropertyOp58
 70
     1
102
RTVSPropertyOp59
 70
     1
102
RTVSPropertyOp60
 70
     1
102
RTVSPropertyOp61
 70
     1
102
RTVSPropertyOp62
 70
     1
  0
XRECORD
  5
1A00
102
{ACAD_REACTORS
330
19FF
102
}
330
19FF
100
AcDbXrecord
280
     1
102
RTVSPost2010Prop28
280
     0
102
RTVSPost2010PropOp28
 70
     1
102
RTVSPost2010Prop29
280
     1
102
RTVSPost2010PropOp29
 70
     1
102
RTVSPost2010Prop30
280
     1
102
RTVSPost2010PropOp30
 70
     1
102
RTVSPost2010Prop31
280
     0
102
RTVSPost2010PropOp31
 70
     1
102
RTVSPost2010Prop32
280
     0
102
RTVSPost2010PropOp32
 70
     1
102
RTVSPost2010Prop33
280
     0
102
RTVSPost2010PropOp33
 70
     1
102
RTVSPost2010Prop34
280
     0
102
RTVSPost2010PropOp34
 70
     1
102
RTVSPost2010Prop35
280
     0
102
RTVSPost2010PropOp35
 70
     1
102
RTVSPost2010Prop36
280
     0
102
RTVSPost2010PropOp36
 70
     1
102
RTVSPost2010Prop37
 90
       50
102
RTVSPost2010PropOp37
 70
     1
102
RTVSPost2010Prop38
140
0.0
102
RTVSPost2010PropOp38
 70
     1
102
RTVSPost2010Prop39
140
1.0
102
RTVSPost2010PropOp39
 70
     1
102
RTVSPost2010Prop40
 90
        0
102
RTVSPost2010PropOp40
 70
     1
102
RTVSPost2010Prop41ColorIndex
 90
       18
102
RTVSPost2010Prop41ColorRGB
 90
        0
102
RTVSPost2010PropOp41
 70
     1
102
RTVSPost2010Prop42
 90
       50
102
RTVSPost2010PropOp42
 70
     1
102
RTVSPost2010Prop43
 90
        3
102
RTVSPost2010PropOp43
 70
     1
102
RTVSPost2010Prop44ColorIndex
 90
        5
102
RTVSPost2010Prop44ColorRGB
 90
      255
102
RTVSPost2010PropOp44
 70
     1
102
RTVSPost2010Prop45
280
     0
102
RTVSPost2010PropOp45
 70
     1
102
RTVSPost2010Prop46
 90
       50
102
RTVSPost2010PropOp46
 70
     1
102
RTVSPost2010Prop47
 90
       50
102
RTVSPost2010PropOp47
 70
     1
102
RTVSPost2010Prop48
 90
       50
102
RTVSPost2010PropOp48
 70
     1
102
RTVSPost2010Prop49
280
     0
102
RTVSPost2010PropOp49
 70
     1
102
RTVSPost2010Prop50
 90
       50
102
RTVSPost2010PropOp50
 70
     1
102
RTVSPost2010Prop51ColorIndex
 90
      256
102
RTVSPost2010Prop51ColorRGB
 90
-16777216
102
RTVSPost2010PropOp51
 70
     0
102
RTVSPost2010Prop52
140
1.0
102
RTVSPost2010PropOp52
 70
     0
102
RTVSPost2010Prop53
 90
        2
102
RTVSPost2010PropOp53
 70
     1
102
RTVSPost2010Prop54
  1
strokes_ogs.tif
102
RTVSPost2010PropOp54
 70
     1
102
RTVSPost2010Prop55
280
     0
102
RTVSPost2010PropOp55
 70
     1
102
RTVSPost2010Prop56
140
1.0
102
RTVSPost2010PropOp56
 70
     1
102
RTVSPost2010Prop57
140
1.0
102
RTVSPost2010PropOp57
 70
     1
102
RTVSPropertyOp0
 70
     1
102
RTVSPropertyOp1
 70
     1
102
RTVSPropertyOp2
 70
     1
102
RTVSPropertyOp3
 70
     1
102
RTVSPropertyOp4
 70
     1
102
RTVSPropertyOp5
 70
     1
102
RTVSPropertyOp6
 70
     1
102
RTVSPropertyOp7
 70
     1
102
RTVSPropertyOp8
 70
     1
102
RTVSPropertyOp9
 70
     1
102
RTVSPropertyOp10
 70
     1
102
RTVSPropertyOp11
 70
     1
102
RTVSPropertyOp12
 70
     1
102
RTVSPropertyOp13
 70
     1
102
RTVSPropertyOp14
 70
     1
102
RTVSPropertyOp15
 70
     1
102
RTVSPropertyOp16
 70
     1
102
RTVSPropertyOp17
 70
     1
102
RTVSPropertyOp18
 70
     1
102
RTVSPropertyOp19
 70
     1
102
RTVSPropertyOp20
 70
     1
102
RTVSPropertyOp21
 70
     1
102
RTVSPropertyOp22
 70
     1
102
RTVSPropertyOp23
 70
     1
102
RTVSPropertyOp24
 70
     1
102
RTVSPropertyOp25
 70
     1
102
RTVSPropertyOp26
 70
     1
102
RTVSPropertyOp27
 70
     1
102
RTVSPropertyOp28
 70
     1
102
RTVSPropertyOp29
 70
     1
102
RTVSPropertyOp30
 70
     1
102
RTVSPropertyOp31
 70
     1
102
RTVSPropertyOp32
 70
     1
102
RTVSPropertyOp33
 70
     1
102
RTVSPropertyOp34
 70
     1
102
RTVSPropertyOp35
 70
     1
102
RTVSPropertyOp36
 70
     1
102
RTVSPropertyOp37
 70
     1
102
RTVSPropertyOp38
 70
     1
102
RTVSPropertyOp39
 70
     1
102
RTVSPropertyOp40
 70
     1
102
RTVSPropertyOp41
 70
     1
102
RTVSPropertyOp42
 70
     1
102
RTVSPropertyOp43
 70
     1
102
RTVSPropertyOp44
 70
     1
102
RTVSPropertyOp45
 70
     1
102
RTVSPropertyOp46
 70
     1
102
RTVSPropertyOp47
 70
     1
102
RTVSPropertyOp48
 70
     1
102
RTVSPropertyOp49
 70
     1
102
RTVSPropertyOp50
 70
     1
102
RTVSPropertyOp51
 70
     0
102
RTVSPropertyOp52
 70
     0
102
RTVSPropertyOp53
 70
     1
102
RTVSPropertyOp54
 70
     1
102
RTVSPropertyOp55
 70
     1
102
RTVSPropertyOp56
 70
     1
102
RTVSPropertyOp57
 70
     1
102
RTVSPropertyOp58
 70
     1
102
RTVSPropertyOp59
 70
     1
102
RTVSPropertyOp60
 70
     1
102
RTVSPropertyOp61
 70
     1
102
RTVSPropertyOp62
 70
     1
  0
XRECORD
  5
1A1E
102
{ACAD_REACTORS
330
1A1D
102
}
330
1A1D
100
AcDbXrecord
280
     1
102
RTVSPost2010Prop28
280
     0
102
RTVSPost2010PropOp28
 70
     1
102
RTVSPost2010Prop29
280
     1
102
RTVSPost2010PropOp29
 70
     1
102
RTVSPost2010Prop30
280
     1
102
RTVSPost2010PropOp30
 70
     1
102
RTVSPost2010Prop31
280
     0
102
RTVSPost2010PropOp31
 70
     1
102
RTVSPost2010Prop32
280
     0
102
RTVSPost2010PropOp32
 70
     1
102
RTVSPost2010Prop33
280
     0
102
RTVSPost2010PropOp33
 70
     1
102
RTVSPost2010Prop34
280
     0
102
RTVSPost2010PropOp34
 70
     1
102
RTVSPost2010Prop35
280
     0
102
RTVSPost2010PropOp35
 70
     1
102
RTVSPost2010Prop36
280
     0
102
RTVSPost2010PropOp36
 70
     1
102
RTVSPost2010Prop37
 90
       50
102
RTVSPost2010PropOp37
 70
     0
102
RTVSPost2010Prop38
140
0.0
102
RTVSPost2010PropOp38
 70
     0
102
RTVSPost2010Prop39
140
1.0
102
RTVSPost2010PropOp39
 70
     0
102
RTVSPost2010Prop40
 90
        0
102
RTVSPost2010PropOp40
 70
     0
102
RTVSPost2010Prop41ColorIndex
 90
       18
102
RTVSPost2010Prop41ColorRGB
 90
        0
102
RTVSPost2010PropOp41
 70
     0
102
RTVSPost2010Prop42
 90
       50
102
RTVSPost2010PropOp42
 70
     0
102
RTVSPost2010Prop43
 90
        3
102
RTVSPost2010PropOp43
 70
     0
102
RTVSPost2010Prop44ColorIndex
 90
        5
102
RTVSPost2010Prop44ColorRGB
 90
      255
102
RTVSPost2010PropOp44
 70
     0
102
RTVSPost2010Prop45
280
     0
102
RTVSPost2010PropOp45
 70
     1
102
RTVSPost2010Prop46
 90
       50
102
RTVSPost2010PropOp46
 70
     0
102
RTVSPost2010Prop47
 90
       50
102
RTVSPost2010PropOp47
 70
     0
102
RTVSPost2010Prop48
 90
       50
102
RTVSPost2010PropOp48
 70
     0
102
RTVSPost2010Prop49
280
     0
102
RTVSPost2010PropOp49
 70
     1
102
RTVSPost2010Prop50
 90
       50
102
RTVSPost2010PropOp50
 70
     0
102
RTVSPost2010Prop51ColorIndex
 90
      256
102
RTVSPost2010Prop51ColorRGB
 90
-16777216
102
RTVSPost2010PropOp51
 70
     0
102
RTVSPost2010Prop52
140
1.0
102
RTVSPost2010PropOp52
 70
     0
102
RTVSPost2010Prop53
 90
        2
102
RTVSPost2010PropOp53
 70
     0
102
RTVSPost2010Prop54
  1
strokes_ogs.tif
102
RTVSPost2010PropOp54
 70
     0
102
RTVSPost2010Prop55
280
     0
102
RTVSPost2010PropOp55
 70
     1
102
RTVSPost2010Prop56
140
1.0
102
RTVSPost2010PropOp56
 70
     0
102
RTVSPost2010Prop57
140
1.0
102
RTVSPost2010PropOp57
 70
     0
102
RTVSPropertyOp0
 70
     0
102
RTVSPropertyOp1
 70
     0
102
RTVSPropertyOp2
 70
     0
102
RTVSPropertyOp3
 70
     0
102
RTVSPropertyOp4
 70
     0
102
RTVSPropertyOp5
 70
     0
102
RTVSPropertyOp6
 70
     0
102
RTVSPropertyOp7
 70
     0
102
RTVSPropertyOp8
 70
     0
102
RTVSPropertyOp9
 70
     0
102
RTVSPropertyOp10
 70
     0
102
RTVSPropertyOp11
 70
     0
102
RTVSPropertyOp12
 70
     0
102
RTVSPropertyOp13
 70
     0
102
RTVSPropertyOp14
 70
     2
102
RTVSPropertyOp15
 70
     0
102
RTVSPropertyOp16
 70
     0
102
RTVSPropertyOp17
 70
     0
102
RTVSPropertyOp18
 70
     0
102
RTVSPropertyOp19
 70
     0
102
RTVSPropertyOp20
 70
     0
102
RTVSPropertyOp21
 70
     0
102
RTVSPropertyOp22
 70
     0
102
RTVSPropertyOp23
 70
     0
102
RTVSPropertyOp24
 70
     0
102
RTVSPropertyOp25
 70
     0
102
RTVSPropertyOp26
 70
     0
102
RTVSPropertyOp27
 70
     0
102
RTVSPropertyOp28
 70
     1
102
RTVSPropertyOp29
 70
     1
102
RTVSPropertyOp30
 70
     1
102
RTVSPropertyOp31
 70
     1
102
RTVSPropertyOp32
 70
     1
102
RTVSPropertyOp33
 70
     1
102
RTVSPropertyOp34
 70
     1
102
RTVSPropertyOp35
 70
     1
102
RTVSPropertyOp36
 70
     1
102
RTVSPropertyOp37
 70
     0
102
RTVSPropertyOp38
 70
     0
102
RTVSPropertyOp39
 70
     0
102
RTVSPropertyOp40
 70
     0
102
RTVSPropertyOp41
 70
     0
102
RTVSPropertyOp42
 70
     0
102
RTVSPropertyOp43
 70
     0
102
RTVSPropertyOp44
 70
     0
102
RTVSPropertyOp45
 70
     1
102
RTVSPropertyOp46
 70
     0
102
RTVSPropertyOp47
 70
     0
102
RTVSPropertyOp48
 70
     0
102
RTVSPropertyOp49
 70
     1
102
RTVSPropertyOp50
 70
     0
102
RTVSPropertyOp51
 70
     0
102
RTVSPropertyOp52
 70
     0
102
RTVSPropertyOp53
 70
     0
102
RTVSPropertyOp54
 70
     0
102
RTVSPropertyOp55
 70
     1
102
RTVSPropertyOp56
 70
     0
102
RTVSPropertyOp57
 70
     0
102
RTVSPropertyOp58
 70
     1
102
RTVSPropertyOp59
 70
     1
102
RTVSPropertyOp60
 70
     1
102
RTVSPropertyOp61
 70
     1
102
RTVSPropertyOp62
 70
     1
  0
XRECORD
  5
1A08
102
{ACAD_REACTORS
330
1A07
102
}
330
1A07
100
AcDbXrecord
280
     1
102
RTVSPost2010Prop28
280
     0
102
RTVSPost2010PropOp28
 70
     1
102
RTVSPost2010Prop29
280
     1
102
RTVSPost2010PropOp29
 70
     1
102
RTVSPost2010Prop30
280
     1
102
RTVSPost2010PropOp30
 70
     1
102
RTVSPost2010Prop31
280
     0
102
RTVSPost2010PropOp31
 70
     1
102
RTVSPost2010Prop32
280
     0
102
RTVSPost2010PropOp32
 70
     1
102
RTVSPost2010Prop33
280
     0
102
RTVSPost2010PropOp33
 70
     1
102
RTVSPost2010Prop34
280
     0
102
RTVSPost2010PropOp34
 70
     1
102
RTVSPost2010Prop35
280
     0
102
RTVSPost2010PropOp35
 70
     1
102
RTVSPost2010Prop36
280
     0
102
RTVSPost2010PropOp36
 70
     1
102
RTVSPost2010Prop37
 90
       50
102
RTVSPost2010PropOp37
 70
     1
102
RTVSPost2010Prop38
140
0.0
102
RTVSPost2010PropOp38
 70
     1
102
RTVSPost2010Prop39
140
1.0
102
RTVSPost2010PropOp39
 70
     1
102
RTVSPost2010Prop40
 90
        0
102
RTVSPost2010PropOp40
 70
     1
102
RTVSPost2010Prop41ColorIndex
 90
       18
102
RTVSPost2010Prop41ColorRGB
 90
        0
102
RTVSPost2010PropOp41
 70
     1
102
RTVSPost2010Prop42
 90
       50
102
RTVSPost2010PropOp42
 70
     1
102
RTVSPost2010Prop43
 90
        3
102
RTVSPost2010PropOp43
 70
     1
102
RTVSPost2010Prop44ColorIndex
 90
        5
102
RTVSPost2010Prop44ColorRGB
 90
      255
102
RTVSPost2010PropOp44
 70
     1
102
RTVSPost2010Prop45
280
     0
102
RTVSPost2010PropOp45
 70
     1
102
RTVSPost2010Prop46
 90
       50
102
RTVSPost2010PropOp46
 70
     1
102
RTVSPost2010Prop47
 90
       50
102
RTVSPost2010PropOp47
 70
     1
102
RTVSPost2010Prop48
 90
       50
102
RTVSPost2010PropOp48
 70
     1
102
RTVSPost2010Prop49
280
     0
102
RTVSPost2010PropOp49
 70
     1
102
RTVSPost2010Prop50
 90
       50
102
RTVSPost2010PropOp50
 70
     1
102
RTVSPost2010Prop51ColorIndex
 90
      256
102
RTVSPost2010Prop51ColorRGB
 90
-16777216
102
RTVSPost2010PropOp51
 70
     0
102
RTVSPost2010Prop52
140
1.0
102
RTVSPost2010PropOp52
 70
     0
102
RTVSPost2010Prop53
 90
        2
102
RTVSPost2010PropOp53
 70
     1
102
RTVSPost2010Prop54
  1
strokes_ogs.tif
102
RTVSPost2010PropOp54
 70
     1
102
RTVSPost2010Prop55
280
     0
102
RTVSPost2010PropOp55
 70
     1
102
RTVSPost2010Prop56
140
1.0
102
RTVSPost2010PropOp56
 70
     1
102
RTVSPost2010Prop57
140
1.0
102
RTVSPost2010PropOp57
 70
     1
102
RTVSPropertyOp0
 70
     1
102
RTVSPropertyOp1
 70
     1
102
RTVSPropertyOp2
 70
     1
102
RTVSPropertyOp3
 70
     1
102
RTVSPropertyOp4
 70
     1
102
RTVSPropertyOp5
 70
     1
102
RTVSPropertyOp6
 70
     1
102
RTVSPropertyOp7
 70
     1
102
RTVSPropertyOp8
 70
     1
102
RTVSPropertyOp9
 70
     1
102
RTVSPropertyOp10
 70
     1
102
RTVSPropertyOp11
 70
     1
102
RTVSPropertyOp12
 70
     1
102
RTVSPropertyOp13
 70
     1
102
RTVSPropertyOp14
 70
     1
102
RTVSPropertyOp15
 70
     1
102
RTVSPropertyOp16
 70
     1
102
RTVSPropertyOp17
 70
     1
102
RTVSPropertyOp18
 70
     1
102
RTVSPropertyOp19
 70
     1
102
RTVSPropertyOp20
 70
     1
102
RTVSPropertyOp21
 70
     1
102
RTVSPropertyOp22
 70
     1
102
RTVSPropertyOp23
 70
     1
102
RTVSPropertyOp24
 70
     1
102
RTVSPropertyOp25
 70
     1
102
RTVSPropertyOp26
 70
     1
102
RTVSPropertyOp27
 70
     1
102
RTVSPropertyOp28
 70
     1
102
RTVSPropertyOp29
 70
     1
102
RTVSPropertyOp30
 70
     1
102
RTVSPropertyOp31
 70
     1
102
RTVSPropertyOp32
 70
     1
102
RTVSPropertyOp33
 70
     1
102
RTVSPropertyOp34
 70
     1
102
RTVSPropertyOp35
 70
     1
102
RTVSPropertyOp36
 70
     1
102
RTVSPropertyOp37
 70
     1
102
RTVSPropertyOp38
 70
     1
102
RTVSPropertyOp39
 70
     1
102
RTVSPropertyOp40
 70
     1
102
RTVSPropertyOp41
 70
     1
102
RTVSPropertyOp42
 70
     1
102
RTVSPropertyOp43
 70
     1
102
RTVSPropertyOp44
 70
     1
102
RTVSPropertyOp45
 70
     1
102
RTVSPropertyOp46
 70
     1
102
RTVSPropertyOp47
 70
     1
102
RTVSPropertyOp48
 70
     1
102
RTVSPropertyOp49
 70
     1
102
RTVSPropertyOp50
 70
     1
102
RTVSPropertyOp51
 70
     0
102
RTVSPropertyOp52
 70
     0
102
RTVSPropertyOp53
 70
     1
102
RTVSPropertyOp54
 70
     1
102
RTVSPropertyOp55
 70
     1
102
RTVSPropertyOp56
 70
     1
102
RTVSPropertyOp57
 70
     1
102
RTVSPropertyOp58
 70
     1
102
RTVSPropertyOp59
 70
     1
102
RTVSPropertyOp60
 70
     1
102
RTVSPropertyOp61
 70
     1
102
RTVSPropertyOp62
 70
     1
  0
XRECORD
  5
19EC
102
{ACAD_REACTORS
330
19EB
102
}
330
19EB
100
AcDbXrecord
280
     1
102
RTVSPost2010Prop28
280
     0
102
RTVSPost2010PropOp28
 70
     1
102
RTVSPost2010Prop29
280
     1
102
RTVSPost2010PropOp29
 70
     1
102
RTVSPost2010Prop30
280
     1
102
RTVSPost2010PropOp30
 70
     1
102
RTVSPost2010Prop31
280
     0
102
RTVSPost2010PropOp31
 70
     1
102
RTVSPost2010Prop32
280
     0
102
RTVSPost2010PropOp32
 70
     1
102
RTVSPost2010Prop33
280
     0
102
RTVSPost2010PropOp33
 70
     1
102
RTVSPost2010Prop34
280
     0
102
RTVSPost2010PropOp34
 70
     1
102
RTVSPost2010Prop35
280
     0
102
RTVSPost2010PropOp35
 70
     1
102
RTVSPost2010Prop36
280
     0
102
RTVSPost2010PropOp36
 70
     1
102
RTVSPost2010Prop37
 90
       50
102
RTVSPost2010PropOp37
 70
     1
102
RTVSPost2010Prop38
140
0.0
102
RTVSPost2010PropOp38
 70
     1
102
RTVSPost2010Prop39
140
1.0
102
RTVSPost2010PropOp39
 70
     1
102
RTVSPost2010Prop40
 90
        0
102
RTVSPost2010PropOp40
 70
     1
102
RTVSPost2010Prop41ColorIndex
 90
       18
102
RTVSPost2010Prop41ColorRGB
 90
        0
102
RTVSPost2010PropOp41
 70
     1
102
RTVSPost2010Prop42
 90
       50
102
RTVSPost2010PropOp42
 70
     1
102
RTVSPost2010Prop43
 90
        3
102
RTVSPost2010PropOp43
 70
     1
102
RTVSPost2010Prop44ColorIndex
 90
        5
102
RTVSPost2010Prop44ColorRGB
 90
      255
102
RTVSPost2010PropOp44
 70
     1
102
RTVSPost2010Prop45
280
     0
102
RTVSPost2010PropOp45
 70
     1
102
RTVSPost2010Prop46
 90
       50
102
RTVSPost2010PropOp46
 70
     1
102
RTVSPost2010Prop47
 90
       50
102
RTVSPost2010PropOp47
 70
     1
102
RTVSPost2010Prop48
 90
       50
102
RTVSPost2010PropOp48
 70
     1
102
RTVSPost2010Prop49
280
     0
102
RTVSPost2010PropOp49
 70
     1
102
RTVSPost2010Prop50
 90
       50
102
RTVSPost2010PropOp50
 70
     1
102
RTVSPost2010Prop51ColorIndex
 90
      256
102
RTVSPost2010Prop51ColorRGB
 90
-16777216
102
RTVSPost2010PropOp51
 70
     0
102
RTVSPost2010Prop52
140
1.0
102
RTVSPost2010PropOp52
 70
     0
102
RTVSPost2010Prop53
 90
        2
102
RTVSPost2010PropOp53
 70
     1
102
RTVSPost2010Prop54
  1
strokes_ogs.tif
102
RTVSPost2010PropOp54
 70
     1
102
RTVSPost2010Prop55
280
     0
102
RTVSPost2010PropOp55
 70
     1
102
RTVSPost2010Prop56
140
1.0
102
RTVSPost2010PropOp56
 70
     1
102
RTVSPost2010Prop57
140
1.0
102
RTVSPost2010PropOp57
 70
     1
102
RTVSPropertyOp0
 70
     1
102
RTVSPropertyOp1
 70
     1
102
RTVSPropertyOp2
 70
     1
102
RTVSPropertyOp3
 70
     1
102
RTVSPropertyOp4
 70
     1
102
RTVSPropertyOp5
 70
     1
102
RTVSPropertyOp6
 70
     1
102
RTVSPropertyOp7
 70
     1
102
RTVSPropertyOp8
 70
     1
102
RTVSPropertyOp9
 70
     1
102
RTVSPropertyOp10
 70
     1
102
RTVSPropertyOp11
 70
     1
102
RTVSPropertyOp12
 70
     1
102
RTVSPropertyOp13
 70
     1
102
RTVSPropertyOp14
 70
     1
102
RTVSPropertyOp15
 70
     1
102
RTVSPropertyOp16
 70
     1
102
RTVSPropertyOp17
 70
     1
102
RTVSPropertyOp18
 70
     1
102
RTVSPropertyOp19
 70
     1
102
RTVSPropertyOp20
 70
     1
102
RTVSPropertyOp21
 70
     1
102
RTVSPropertyOp22
 70
     1
102
RTVSPropertyOp23
 70
     1
102
RTVSPropertyOp24
 70
     1
102
RTVSPropertyOp25
 70
     1
102
RTVSPropertyOp26
 70
     1
102
RTVSPropertyOp27
 70
     1
102
RTVSPropertyOp28
 70
     1
102
RTVSPropertyOp29
 70
     1
102
RTVSPropertyOp30
 70
     1
102
RTVSPropertyOp31
 70
     1
102
RTVSPropertyOp32
 70
     1
102
RTVSPropertyOp33
 70
     1
102
RTVSPropertyOp34
 70
     1
102
RTVSPropertyOp35
 70
     1
102
RTVSPropertyOp36
 70
     1
102
RTVSPropertyOp37
 70
     1
102
RTVSPropertyOp38
 70
     1
102
RTVSPropertyOp39
 70
     1
102
RTVSPropertyOp40
 70
     1
102
RTVSPropertyOp41
 70
     1
102
RTVSPropertyOp42
 70
     1
102
RTVSPropertyOp43
 70
     1
102
RTVSPropertyOp44
 70
     1
102
RTVSPropertyOp45
 70
     1
102
RTVSPropertyOp46
 70
     1
102
RTVSPropertyOp47
 70
     1
102
RTVSPropertyOp48
 70
     1
102
RTVSPropertyOp49
 70
     1
102
RTVSPropertyOp50
 70
     1
102
RTVSPropertyOp51
 70
     0
102
RTVSPropertyOp52
 70
     0
102
RTVSPropertyOp53
 70
     1
102
RTVSPropertyOp54
 70
     1
102
RTVSPropertyOp55
 70
     1
102
RTVSPropertyOp56
 70
     1
102
RTVSPropertyOp57
 70
     1
102
RTVSPropertyOp58
 70
     1
102
RTVSPropertyOp59
 70
     1
102
RTVSPropertyOp60
 70
     1
102
RTVSPropertyOp61
 70
     1
102
RTVSPropertyOp62
 70
     1
  0
XRECORD
  5
19EE
102
{ACAD_REACTORS
330
19ED
102
}
330
19ED
100
AcDbXrecord
280
     1
102
RTVSPost2010Prop28
280
     0
102
RTVSPost2010PropOp28
 70
     1
102
RTVSPost2010Prop29
280
     1
102
RTVSPost2010PropOp29
 70
     1
102
RTVSPost2010Prop30
280
     1
102
RTVSPost2010PropOp30
 70
     1
102
RTVSPost2010Prop31
280
     0
102
RTVSPost2010PropOp31
 70
     1
102
RTVSPost2010Prop32
280
     0
102
RTVSPost2010PropOp32
 70
     1
102
RTVSPost2010Prop33
280
     0
102
RTVSPost2010PropOp33
 70
     1
102
RTVSPost2010Prop34
280
     0
102
RTVSPost2010PropOp34
 70
     1
102
RTVSPost2010Prop35
280
     0
102
RTVSPost2010PropOp35
 70
     1
102
RTVSPost2010Prop36
280
     0
102
RTVSPost2010PropOp36
 70
     1
102
RTVSPost2010Prop37
 90
       50
102
RTVSPost2010PropOp37
 70
     1
102
RTVSPost2010Prop38
140
0.0
102
RTVSPost2010PropOp38
 70
     1
102
RTVSPost2010Prop39
140
1.0
102
RTVSPost2010PropOp39
 70
     1
102
RTVSPost2010Prop40
 90
        0
102
RTVSPost2010PropOp40
 70
     1
102
RTVSPost2010Prop41ColorIndex
 90
       18
102
RTVSPost2010Prop41ColorRGB
 90
        0
102
RTVSPost2010PropOp41
 70
     1
102
RTVSPost2010Prop42
 90
       50
102
RTVSPost2010PropOp42
 70
     1
102
RTVSPost2010Prop43
 90
        3
102
RTVSPost2010PropOp43
 70
     1
102
RTVSPost2010Prop44ColorIndex
 90
        5
102
RTVSPost2010Prop44ColorRGB
 90
      255
102
RTVSPost2010PropOp44
 70
     1
102
RTVSPost2010Prop45
280
     0
102
RTVSPost2010PropOp45
 70
     1
102
RTVSPost2010Prop46
 90
       50
102
RTVSPost2010PropOp46
 70
     1
102
RTVSPost2010Prop47
 90
       50
102
RTVSPost2010PropOp47
 70
     1
102
RTVSPost2010Prop48
 90
       50
102
RTVSPost2010PropOp48
 70
     1
102
RTVSPost2010Prop49
280
     0
102
RTVSPost2010PropOp49
 70
     1
102
RTVSPost2010Prop50
 90
       50
102
RTVSPost2010PropOp50
 70
     1
102
RTVSPost2010Prop51ColorIndex
 90
      256
102
RTVSPost2010Prop51ColorRGB
 90
-16777216
102
RTVSPost2010PropOp51
 70
     0
102
RTVSPost2010Prop52
140
1.0
102
RTVSPost2010PropOp52
 70
     0
102
RTVSPost2010Prop53
 90
        2
102
RTVSPost2010PropOp53
 70
     1
102
RTVSPost2010Prop54
  1
strokes_ogs.tif
102
RTVSPost2010PropOp54
 70
     1
102
RTVSPost2010Prop55
280
     0
102
RTVSPost2010PropOp55
 70
     1
102
RTVSPost2010Prop56
140
1.0
102
RTVSPost2010PropOp56
 70
     1
102
RTVSPost2010Prop57
140
1.0
102
RTVSPost2010PropOp57
 70
     1
102
RTVSPropertyOp0
 70
     1
102
RTVSPropertyOp1
 70
     1
102
RTVSPropertyOp2
 70
     1
102
RTVSPropertyOp3
 70
     1
102
RTVSPropertyOp4
 70
     1
102
RTVSPropertyOp5
 70
     1
102
RTVSPropertyOp6
 70
     1
102
RTVSPropertyOp7
 70
     1
102
RTVSPropertyOp8
 70
     1
102
RTVSPropertyOp9
 70
     1
102
RTVSPropertyOp10
 70
     1
102
RTVSPropertyOp11
 70
     1
102
RTVSPropertyOp12
 70
     1
102
RTVSPropertyOp13
 70
     1
102
RTVSPropertyOp14
 70
     1
102
RTVSPropertyOp15
 70
     1
102
RTVSPropertyOp16
 70
     1
102
RTVSPropertyOp17
 70
     1
102
RTVSPropertyOp18
 70
     1
102
RTVSPropertyOp19
 70
     1
102
RTVSPropertyOp20
 70
     1
102
RTVSPropertyOp21
 70
     1
102
RTVSPropertyOp22
 70
     1
102
RTVSPropertyOp23
 70
     1
102
RTVSPropertyOp24
 70
     1
102
RTVSPropertyOp25
 70
     1
102
RTVSPropertyOp26
 70
     1
102
RTVSPropertyOp27
 70
     1
102
RTVSPropertyOp28
 70
     1
102
RTVSPropertyOp29
 70
     1
102
RTVSPropertyOp30
 70
     1
102
RTVSPropertyOp31
 70
     1
102
RTVSPropertyOp32
 70
     1
102
RTVSPropertyOp33
 70
     1
102
RTVSPropertyOp34
 70
     1
102
RTVSPropertyOp35
 70
     1
102
RTVSPropertyOp36
 70
     1
102
RTVSPropertyOp37
 70
     1
102
RTVSPropertyOp38
 70
     1
102
RTVSPropertyOp39
 70
     1
102
RTVSPropertyOp40
 70
     1
102
RTVSPropertyOp41
 70
     1
102
RTVSPropertyOp42
 70
     1
102
RTVSPropertyOp43
 70
     1
102
RTVSPropertyOp44
 70
     1
102
RTVSPropertyOp45
 70
     1
102
RTVSPropertyOp46
 70
     1
102
RTVSPropertyOp47
 70
     1
102
RTVSPropertyOp48
 70
     1
102
RTVSPropertyOp49
 70
     1
102
RTVSPropertyOp50
 70
     1
102
RTVSPropertyOp51
 70
     0
102
RTVSPropertyOp52
 70
     0
102
RTVSPropertyOp53
 70
     1
102
RTVSPropertyOp54
 70
     1
102
RTVSPropertyOp55
 70
     1
102
RTVSPropertyOp56
 70
     1
102
RTVSPropertyOp57
 70
     1
102
RTVSPropertyOp58
 70
     1
102
RTVSPropertyOp59
 70
     1
102
RTVSPropertyOp60
 70
     1
102
RTVSPropertyOp61
 70
     1
102
RTVSPropertyOp62
 70
     1
  0
XRECORD
  5
19F0
102
{ACAD_REACTORS
330
19EF
102
}
330
19EF
100
AcDbXrecord
280
     1
102
RTVSPost2010Prop28
280
     0
102
RTVSPost2010PropOp28
 70
     1
102
RTVSPost2010Prop29
280
     1
102
RTVSPost2010PropOp29
 70
     1
102
RTVSPost2010Prop30
280
     1
102
RTVSPost2010PropOp30
 70
     1
102
RTVSPost2010Prop31
280
     0
102
RTVSPost2010PropOp31
 70
     1
102
RTVSPost2010Prop32
280
     0
102
RTVSPost2010PropOp32
 70
     1
102
RTVSPost2010Prop33
280
     0
102
RTVSPost2010PropOp33
 70
     1
102
RTVSPost2010Prop34
280
     0
102
RTVSPost2010PropOp34
 70
     1
102
RTVSPost2010Prop35
280
     0
102
RTVSPost2010PropOp35
 70
     1
102
RTVSPost2010Prop36
280
     0
102
RTVSPost2010PropOp36
 70
     1
102
RTVSPost2010Prop37
 90
       50
102
RTVSPost2010PropOp37
 70
     1
102
RTVSPost2010Prop38
140
0.0
102
RTVSPost2010PropOp38
 70
     1
102
RTVSPost2010Prop39
140
1.0
102
RTVSPost2010PropOp39
 70
     1
102
RTVSPost2010Prop40
 90
        0
102
RTVSPost2010PropOp40
 70
     1
102
RTVSPost2010Prop41ColorIndex
 90
       18
102
RTVSPost2010Prop41ColorRGB
 90
        0
102
RTVSPost2010PropOp41
 70
     1
102
RTVSPost2010Prop42
 90
       50
102
RTVSPost2010PropOp42
 70
     1
102
RTVSPost2010Prop43
 90
        3
102
RTVSPost2010PropOp43
 70
     1
102
RTVSPost2010Prop44ColorIndex
 90
        5
102
RTVSPost2010Prop44ColorRGB
 90
      255
102
RTVSPost2010PropOp44
 70
     1
102
RTVSPost2010Prop45
280
     0
102
RTVSPost2010PropOp45
 70
     1
102
RTVSPost2010Prop46
 90
       50
102
RTVSPost2010PropOp46
 70
     1
102
RTVSPost2010Prop47
 90
       50
102
RTVSPost2010PropOp47
 70
     1
102
RTVSPost2010Prop48
 90
       50
102
RTVSPost2010PropOp48
 70
     1
102
RTVSPost2010Prop49
280
     0
102
RTVSPost2010PropOp49
 70
     1
102
RTVSPost2010Prop50
 90
       50
102
RTVSPost2010PropOp50
 70
     1
102
RTVSPost2010Prop51ColorIndex
 90
      256
102
RTVSPost2010Prop51ColorRGB
 90
-16777216
102
RTVSPost2010PropOp51
 70
     0
102
RTVSPost2010Prop52
140
1.0
102
RTVSPost2010PropOp52
 70
     0
102
RTVSPost2010Prop53
 90
        2
102
RTVSPost2010PropOp53
 70
     1
102
RTVSPost2010Prop54
  1
strokes_ogs.tif
102
RTVSPost2010PropOp54
 70
     1
102
RTVSPost2010Prop55
280
     0
102
RTVSPost2010PropOp55
 70
     1
102
RTVSPost2010Prop56
140
1.0
102
RTVSPost2010PropOp56
 70
     1
102
RTVSPost2010Prop57
140
1.0
102
RTVSPost2010PropOp57
 70
     1
102
RTVSPropertyOp0
 70
     1
102
RTVSPropertyOp1
 70
     1
102
RTVSPropertyOp2
 70
     1
102
RTVSPropertyOp3
 70
     1
102
RTVSPropertyOp4
 70
     1
102
RTVSPropertyOp5
 70
     1
102
RTVSPropertyOp6
 70
     1
102
RTVSPropertyOp7
 70
     1
102
RTVSPropertyOp8
 70
     1
102
RTVSPropertyOp9
 70
     1
102
RTVSPropertyOp10
 70
     1
102
RTVSPropertyOp11
 70
     1
102
RTVSPropertyOp12
 70
     1
102
RTVSPropertyOp13
 70
     1
102
RTVSPropertyOp14
 70
     1
102
RTVSPropertyOp15
 70
     1
102
RTVSPropertyOp16
 70
     1
102
RTVSPropertyOp17
 70
     1
102
RTVSPropertyOp18
 70
     1
102
RTVSPropertyOp19
 70
     1
102
RTVSPropertyOp20
 70
     1
102
RTVSPropertyOp21
 70
     1
102
RTVSPropertyOp22
 70
     1
102
RTVSPropertyOp23
 70
     1
102
RTVSPropertyOp24
 70
     1
102
RTVSPropertyOp25
 70
     1
102
RTVSPropertyOp26
 70
     1
102
RTVSPropertyOp27
 70
     1
102
RTVSPropertyOp28
 70
     1
102
RTVSPropertyOp29
 70
     1
102
RTVSPropertyOp30
 70
     1
102
RTVSPropertyOp31
 70
     1
102
RTVSPropertyOp32
 70
     1
102
RTVSPropertyOp33
 70
     1
102
RTVSPropertyOp34
 70
     1
102
RTVSPropertyOp35
 70
     1
102
RTVSPropertyOp36
 70
     1
102
RTVSPropertyOp37
 70
     1
102
RTVSPropertyOp38
 70
     1
102
RTVSPropertyOp39
 70
     1
102
RTVSPropertyOp40
 70
     1
102
RTVSPropertyOp41
 70
     1
102
RTVSPropertyOp42
 70
     1
102
RTVSPropertyOp43
 70
     1
102
RTVSPropertyOp44
 70
     1
102
RTVSPropertyOp45
 70
     1
102
RTVSPropertyOp46
 70
     1
102
RTVSPropertyOp47
 70
     1
102
RTVSPropertyOp48
 70
     1
102
RTVSPropertyOp49
 70
     1
102
RTVSPropertyOp50
 70
     1
102
RTVSPropertyOp51
 70
     0
102
RTVSPropertyOp52
 70
     0
102
RTVSPropertyOp53
 70
     1
102
RTVSPropertyOp54
 70
     1
102
RTVSPropertyOp55
 70
     1
102
RTVSPropertyOp56
 70
     1
102
RTVSPropertyOp57
 70
     1
102
RTVSPropertyOp58
 70
     1
102
RTVSPropertyOp59
 70
     1
102
RTVSPropertyOp60
 70
     1
102
RTVSPropertyOp61
 70
     1
102
RTVSPropertyOp62
 70
     1
  0
XRECORD
  5
19F2
102
{ACAD_REACTORS
330
19F1
102
}
330
19F1
100
AcDbXrecord
280
     1
102
RTVSPost2010Prop28
280
     0
102
RTVSPost2010PropOp28
 70
     1
102
RTVSPost2010Prop29
280
     1
102
RTVSPost2010PropOp29
 70
     1
102
RTVSPost2010Prop30
280
     1
102
RTVSPost2010PropOp30
 70
     1
102
RTVSPost2010Prop31
280
     0
102
RTVSPost2010PropOp31
 70
     1
102
RTVSPost2010Prop32
280
     0
102
RTVSPost2010PropOp32
 70
     1
102
RTVSPost2010Prop33
280
     0
102
RTVSPost2010PropOp33
 70
     1
102
RTVSPost2010Prop34
280
     0
102
RTVSPost2010PropOp34
 70
     1
102
RTVSPost2010Prop35
280
     0
102
RTVSPost2010PropOp35
 70
     1
102
RTVSPost2010Prop36
280
     0
102
RTVSPost2010PropOp36
 70
     1
102
RTVSPost2010Prop37
 90
       50
102
RTVSPost2010PropOp37
 70
     1
102
RTVSPost2010Prop38
140
0.0
102
RTVSPost2010PropOp38
 70
     1
102
RTVSPost2010Prop39
140
1.0
102
RTVSPost2010PropOp39
 70
     1
102
RTVSPost2010Prop40
 90
        0
102
RTVSPost2010PropOp40
 70
     1
102
RTVSPost2010Prop41ColorIndex
 90
       18
102
RTVSPost2010Prop41ColorRGB
 90
        0
102
RTVSPost2010PropOp41
 70
     1
102
RTVSPost2010Prop42
 90
       50
102
RTVSPost2010PropOp42
 70
     1
102
RTVSPost2010Prop43
 90
        3
102
RTVSPost2010PropOp43
 70
     1
102
RTVSPost2010Prop44ColorIndex
 90
        5
102
RTVSPost2010Prop44ColorRGB
 90
      255
102
RTVSPost2010PropOp44
 70
     1
102
RTVSPost2010Prop45
280
     0
102
RTVSPost2010PropOp45
 70
     1
102
RTVSPost2010Prop46
 90
       50
102
RTVSPost2010PropOp46
 70
     1
102
RTVSPost2010Prop47
 90
       50
102
RTVSPost2010PropOp47
 70
     1
102
RTVSPost2010Prop48
 90
       50
102
RTVSPost2010PropOp48
 70
     1
102
RTVSPost2010Prop49
280
     0
102
RTVSPost2010PropOp49
 70
     1
102
RTVSPost2010Prop50
 90
       50
102
RTVSPost2010PropOp50
 70
     1
102
RTVSPost2010Prop51ColorIndex
 90
      256
102
RTVSPost2010Prop51ColorRGB
 90
-16777216
102
RTVSPost2010PropOp51
 70
     0
102
RTVSPost2010Prop52
140
1.0
102
RTVSPost2010PropOp52
 70
     0
102
RTVSPost2010Prop53
 90
        2
102
RTVSPost2010PropOp53
 70
     1
102
RTVSPost2010Prop54
  1
strokes_ogs.tif
102
RTVSPost2010PropOp54
 70
     1
102
RTVSPost2010Prop55
280
     0
102
RTVSPost2010PropOp55
 70
     1
102
RTVSPost2010Prop56
140
1.0
102
RTVSPost2010PropOp56
 70
     1
102
RTVSPost2010Prop57
140
1.0
102
RTVSPost2010PropOp57
 70
     1
102
RTVSPropertyOp0
 70
     1
102
RTVSPropertyOp1
 70
     1
102
RTVSPropertyOp2
 70
     1
102
RTVSPropertyOp3
 70
     1
102
RTVSPropertyOp4
 70
     1
102
RTVSPropertyOp5
 70
     1
102
RTVSPropertyOp6
 70
     1
102
RTVSPropertyOp7
 70
     1
102
RTVSPropertyOp8
 70
     1
102
RTVSPropertyOp9
 70
     1
102
RTVSPropertyOp10
 70
     1
102
RTVSPropertyOp11
 70
     1
102
RTVSPropertyOp12
 70
     1
102
RTVSPropertyOp13
 70
     1
102
RTVSPropertyOp14
 70
     1
102
RTVSPropertyOp15
 70
     1
102
RTVSPropertyOp16
 70
     1
102
RTVSPropertyOp17
 70
     1
102
RTVSPropertyOp18
 70
     1
102
RTVSPropertyOp19
 70
     1
102
RTVSPropertyOp20
 70
     1
102
RTVSPropertyOp21
 70
     1
102
RTVSPropertyOp22
 70
     1
102
RTVSPropertyOp23
 70
     1
102
RTVSPropertyOp24
 70
     1
102
RTVSPropertyOp25
 70
     1
102
RTVSPropertyOp26
 70
     1
102
RTVSPropertyOp27
 70
     1
102
RTVSPropertyOp28
 70
     1
102
RTVSPropertyOp29
 70
     1
102
RTVSPropertyOp30
 70
     1
102
RTVSPropertyOp31
 70
     1
102
RTVSPropertyOp32
 70
     1
102
RTVSPropertyOp33
 70
     1
102
RTVSPropertyOp34
 70
     1
102
RTVSPropertyOp35
 70
     1
102
RTVSPropertyOp36
 70
     1
102
RTVSPropertyOp37
 70
     1
102
RTVSPropertyOp38
 70
     1
102
RTVSPropertyOp39
 70
     1
102
RTVSPropertyOp40
 70
     1
102
RTVSPropertyOp41
 70
     1
102
RTVSPropertyOp42
 70
     1
102
RTVSPropertyOp43
 70
     1
102
RTVSPropertyOp44
 70
     1
102
RTVSPropertyOp45
 70
     1
102
RTVSPropertyOp46
 70
     1
102
RTVSPropertyOp47
 70
     1
102
RTVSPropertyOp48
 70
     1
102
RTVSPropertyOp49
 70
     1
102
RTVSPropertyOp50
 70
     1
102
RTVSPropertyOp51
 70
     0
102
RTVSPropertyOp52
 70
     0
102
RTVSPropertyOp53
 70
     1
102
RTVSPropertyOp54
 70
     1
102
RTVSPropertyOp55
 70
     1
102
RTVSPropertyOp56
 70
     1
102
RTVSPropertyOp57
 70
     1
102
RTVSPropertyOp58
 70
     1
102
RTVSPropertyOp59
 70
     1
102
RTVSPropertyOp60
 70
     1
102
RTVSPropertyOp61
 70
     1
102
RTVSPropertyOp62
 70
     1
  0
XRECORD
  5
1A0E
102
{ACAD_REACTORS
330
1A0D
102
}
330
1A0D
100
AcDbXrecord
280
     1
102
RTVSPost2010Prop28
280
     0
102
RTVSPost2010PropOp28
 70
     1
102
RTVSPost2010Prop29
280
     1
102
RTVSPost2010PropOp29
 70
     1
102
RTVSPost2010Prop30
280
     1
102
RTVSPost2010PropOp30
 70
     1
102
RTVSPost2010Prop31
280
     0
102
RTVSPost2010PropOp31
 70
     1
102
RTVSPost2010Prop32
280
     0
102
RTVSPost2010PropOp32
 70
     1
102
RTVSPost2010Prop33
280
     0
102
RTVSPost2010PropOp33
 70
     1
102
RTVSPost2010Prop34
280
     0
102
RTVSPost2010PropOp34
 70
     1
102
RTVSPost2010Prop35
280
     0
102
RTVSPost2010PropOp35
 70
     1
102
RTVSPost2010Prop36
280
     0
102
RTVSPost2010PropOp36
 70
     1
102
RTVSPost2010Prop37
 90
       50
102
RTVSPost2010PropOp37
 70
     1
102
RTVSPost2010Prop38
140
0.0
102
RTVSPost2010PropOp38
 70
     1
102
RTVSPost2010Prop39
140
1.0
102
RTVSPost2010PropOp39
 70
     1
102
RTVSPost2010Prop40
 90
        0
102
RTVSPost2010PropOp40
 70
     1
102
RTVSPost2010Prop41ColorIndex
 90
       18
102
RTVSPost2010Prop41ColorRGB
 90
        0
102
RTVSPost2010PropOp41
 70
     1
102
RTVSPost2010Prop42
 90
       50
102
RTVSPost2010PropOp42
 70
     1
102
RTVSPost2010Prop43
 90
        3
102
RTVSPost2010PropOp43
 70
     1
102
RTVSPost2010Prop44ColorIndex
 90
        5
102
RTVSPost2010Prop44ColorRGB
 90
      255
102
RTVSPost2010PropOp44
 70
     1
102
RTVSPost2010Prop45
280
     0
102
RTVSPost2010PropOp45
 70
     1
102
RTVSPost2010Prop46
 90
       50
102
RTVSPost2010PropOp46
 70
     1
102
RTVSPost2010Prop47
 90
       50
102
RTVSPost2010PropOp47
 70
     1
102
RTVSPost2010Prop48
 90
       50
102
RTVSPost2010PropOp48
 70
     1
102
RTVSPost2010Prop49
280
     0
102
RTVSPost2010PropOp49
 70
     1
102
RTVSPost2010Prop50
 90
       50
102
RTVSPost2010PropOp50
 70
     1
102
RTVSPost2010Prop51ColorIndex
 90
      256
102
RTVSPost2010Prop51ColorRGB
 90
-16777216
102
RTVSPost2010PropOp51
 70
     0
102
RTVSPost2010Prop52
140
1.0
102
RTVSPost2010PropOp52
 70
     0
102
RTVSPost2010Prop53
 90
        2
102
RTVSPost2010PropOp53
 70
     1
102
RTVSPost2010Prop54
  1
strokes_ogs.tif
102
RTVSPost2010PropOp54
 70
     1
102
RTVSPost2010Prop55
280
     0
102
RTVSPost2010PropOp55
 70
     1
102
RTVSPost2010Prop56
140
1.0
102
RTVSPost2010PropOp56
 70
     1
102
RTVSPost2010Prop57
140
1.0
102
RTVSPost2010PropOp57
 70
     1
102
RTVSPropertyOp0
 70
     1
102
RTVSPropertyOp1
 70
     1
102
RTVSPropertyOp2
 70
     1
102
RTVSPropertyOp3
 70
     1
102
RTVSPropertyOp4
 70
     1
102
RTVSPropertyOp5
 70
     1
102
RTVSPropertyOp6
 70
     1
102
RTVSPropertyOp7
 70
     1
102
RTVSPropertyOp8
 70
     1
102
RTVSPropertyOp9
 70
     1
102
RTVSPropertyOp10
 70
     1
102
RTVSPropertyOp11
 70
     1
102
RTVSPropertyOp12
 70
     1
102
RTVSPropertyOp13
 70
     1
102
RTVSPropertyOp14
 70
     1
102
RTVSPropertyOp15
 70
     1
102
RTVSPropertyOp16
 70
     1
102
RTVSPropertyOp17
 70
     1
102
RTVSPropertyOp18
 70
     1
102
RTVSPropertyOp19
 70
     1
102
RTVSPropertyOp20
 70
     1
102
RTVSPropertyOp21
 70
     1
102
RTVSPropertyOp22
 70
     1
102
RTVSPropertyOp23
 70
     1
102
RTVSPropertyOp24
 70
     1
102
RTVSPropertyOp25
 70
     1
102
RTVSPropertyOp26
 70
     1
102
RTVSPropertyOp27
 70
     1
102
RTVSPropertyOp28
 70
     1
102
RTVSPropertyOp29
 70
     1
102
RTVSPropertyOp30
 70
     1
102
RTVSPropertyOp31
 70
     1
102
RTVSPropertyOp32
 70
     1
102
RTVSPropertyOp33
 70
     1
102
RTVSPropertyOp34
 70
     1
102
RTVSPropertyOp35
 70
     1
102
RTVSPropertyOp36
 70
     1
102
RTVSPropertyOp37
 70
     1
102
RTVSPropertyOp38
 70
     1
102
RTVSPropertyOp39
 70
     1
102
RTVSPropertyOp40
 70
     1
102
RTVSPropertyOp41
 70
     1
102
RTVSPropertyOp42
 70
     1
102
RTVSPropertyOp43
 70
     1
102
RTVSPropertyOp44
 70
     1
102
RTVSPropertyOp45
 70
     1
102
RTVSPropertyOp46
 70
     1
102
RTVSPropertyOp47
 70
     1
102
RTVSPropertyOp48
 70
     1
102
RTVSPropertyOp49
 70
     1
102
RTVSPropertyOp50
 70
     1
102
RTVSPropertyOp51
 70
     0
102
RTVSPropertyOp52
 70
     0
102
RTVSPropertyOp53
 70
     1
102
RTVSPropertyOp54
 70
     1
102
RTVSPropertyOp55
 70
     1
102
RTVSPropertyOp56
 70
     1
102
RTVSPropertyOp57
 70
     1
102
RTVSPropertyOp58
 70
     1
102
RTVSPropertyOp59
 70
     1
102
RTVSPropertyOp60
 70
     1
102
RTVSPropertyOp61
 70
     1
102
RTVSPropertyOp62
 70
     1
  0
XRECORD
  5
1A1A
102
{ACAD_REACTORS
330
1A19
102
}
330
1A19
100
AcDbXrecord
280
     1
102
RTVSPost2010Prop28
280
     0
102
RTVSPost2010PropOp28
 70
     1
102
RTVSPost2010Prop29
280
     1
102
RTVSPost2010PropOp29
 70
     1
102
RTVSPost2010Prop30
280
     1
102
RTVSPost2010PropOp30
 70
     1
102
RTVSPost2010Prop31
280
     0
102
RTVSPost2010PropOp31
 70
     1
102
RTVSPost2010Prop32
280
     0
102
RTVSPost2010PropOp32
 70
     1
102
RTVSPost2010Prop33
280
     0
102
RTVSPost2010PropOp33
 70
     1
102
RTVSPost2010Prop34
280
     0
102
RTVSPost2010PropOp34
 70
     1
102
RTVSPost2010Prop35
280
     0
102
RTVSPost2010PropOp35
 70
     1
102
RTVSPost2010Prop36
280
     0
102
RTVSPost2010PropOp36
 70
     1
102
RTVSPost2010Prop37
 90
       50
102
RTVSPost2010PropOp37
 70
     0
102
RTVSPost2010Prop38
140
0.0
102
RTVSPost2010PropOp38
 70
     0
102
RTVSPost2010Prop39
140
1.0
102
RTVSPost2010PropOp39
 70
     0
102
RTVSPost2010Prop40
 90
        0
102
RTVSPost2010PropOp40
 70
     0
102
RTVSPost2010Prop41ColorIndex
 90
       18
102
RTVSPost2010Prop41ColorRGB
 90
        0
102
RTVSPost2010PropOp41
 70
     0
102
RTVSPost2010Prop42
 90
       50
102
RTVSPost2010PropOp42
 70
     0
102
RTVSPost2010Prop43
 90
        3
102
RTVSPost2010PropOp43
 70
     0
102
RTVSPost2010Prop44ColorIndex
 90
        5
102
RTVSPost2010Prop44ColorRGB
 90
      255
102
RTVSPost2010PropOp44
 70
     0
102
RTVSPost2010Prop45
280
     0
102
RTVSPost2010PropOp45
 70
     1
102
RTVSPost2010Prop46
 90
       50
102
RTVSPost2010PropOp46
 70
     0
102
RTVSPost2010Prop47
 90
       50
102
RTVSPost2010PropOp47
 70
     0
102
RTVSPost2010Prop48
 90
       50
102
RTVSPost2010PropOp48
 70
     0
102
RTVSPost2010Prop49
280
     0
102
RTVSPost2010PropOp49
 70
     1
102
RTVSPost2010Prop50
 90
       50
102
RTVSPost2010PropOp50
 70
     0
102
RTVSPost2010Prop51ColorIndex
 90
      256
102
RTVSPost2010Prop51ColorRGB
 90
-16777216
102
RTVSPost2010PropOp51
 70
     0
102
RTVSPost2010Prop52
140
1.0
102
RTVSPost2010PropOp52
 70
     0
102
RTVSPost2010Prop53
 90
        2
102
RTVSPost2010PropOp53
 70
     0
102
RTVSPost2010Prop54
  1
strokes_ogs.tif
102
RTVSPost2010PropOp54
 70
     0
102
RTVSPost2010Prop55
280
     0
102
RTVSPost2010PropOp55
 70
     1
102
RTVSPost2010Prop56
140
1.0
102
RTVSPost2010PropOp56
 70
     0
102
RTVSPost2010Prop57
140
1.0
102
RTVSPost2010PropOp57
 70
     0
102
RTVSPropertyOp0
 70
     0
102
RTVSPropertyOp1
 70
     0
102
RTVSPropertyOp2
 70
     0
102
RTVSPropertyOp3
 70
     0
102
RTVSPropertyOp4
 70
     0
102
RTVSPropertyOp5
 70
     0
102
RTVSPropertyOp6
 70
     0
102
RTVSPropertyOp7
 70
     0
102
RTVSPropertyOp8
 70
     0
102
RTVSPropertyOp9
 70
     0
102
RTVSPropertyOp10
 70
     0
102
RTVSPropertyOp11
 70
     0
102
RTVSPropertyOp12
 70
     0
102
RTVSPropertyOp13
 70
     0
102
RTVSPropertyOp14
 70
     2
102
RTVSPropertyOp15
 70
     0
102
RTVSPropertyOp16
 70
     0
102
RTVSPropertyOp17
 70
     0
102
RTVSPropertyOp18
 70
     0
102
RTVSPropertyOp19
 70
     0
102
RTVSPropertyOp20
 70
     0
102
RTVSPropertyOp21
 70
     0
102
RTVSPropertyOp22
 70
     0
102
RTVSPropertyOp23
 70
     0
102
RTVSPropertyOp24
 70
     0
102
RTVSPropertyOp25
 70
     0
102
RTVSPropertyOp26
 70
     0
102
RTVSPropertyOp27
 70
     0
102
RTVSPropertyOp28
 70
     1
102
RTVSPropertyOp29
 70
     1
102
RTVSPropertyOp30
 70
     1
102
RTVSPropertyOp31
 70
     1
102
RTVSPropertyOp32
 70
     1
102
RTVSPropertyOp33
 70
     1
102
RTVSPropertyOp34
 70
     1
102
RTVSPropertyOp35
 70
     1
102
RTVSPropertyOp36
 70
     1
102
RTVSPropertyOp37
 70
     0
102
RTVSPropertyOp38
 70
     0
102
RTVSPropertyOp39
 70
     0
102
RTVSPropertyOp40
 70
     0
102
RTVSPropertyOp41
 70
     0
102
RTVSPropertyOp42
 70
     0
102
RTVSPropertyOp43
 70
     0
102
RTVSPropertyOp44
 70
     0
102
RTVSPropertyOp45
 70
     1
102
RTVSPropertyOp46
 70
     0
102
RTVSPropertyOp47
 70
     0
102
RTVSPropertyOp48
 70
     0
102
RTVSPropertyOp49
 70
     1
102
RTVSPropertyOp50
 70
     0
102
RTVSPropertyOp51
 70
     0
102
RTVSPropertyOp52
 70
     0
102
RTVSPropertyOp53
 70
     0
102
RTVSPropertyOp54
 70
     0
102
RTVSPropertyOp55
 70
     1
102
RTVSPropertyOp56
 70
     0
102
RTVSPropertyOp57
 70
     0
102
RTVSPropertyOp58
 70
     1
102
RTVSPropertyOp59
 70
     1
102
RTVSPropertyOp60
 70
     1
102
RTVSPropertyOp61
 70
     1
102
RTVSPropertyOp62
 70
     1
  0
XRECORD
  5
1A06
102
{ACAD_REACTORS
330
1A05
102
}
330
1A05
100
AcDbXrecord
280
     1
102
RTVSPost2010Prop28
280
     0
102
RTVSPost2010PropOp28
 70
     1
102
RTVSPost2010Prop29
280
     1
102
RTVSPost2010PropOp29
 70
     1
102
RTVSPost2010Prop30
280
     1
102
RTVSPost2010PropOp30
 70
     1
102
RTVSPost2010Prop31
280
     0
102
RTVSPost2010PropOp31
 70
     1
102
RTVSPost2010Prop32
280
     0
102
RTVSPost2010PropOp32
 70
     1
102
RTVSPost2010Prop33
280
     0
102
RTVSPost2010PropOp33
 70
     1
102
RTVSPost2010Prop34
280
     0
102
RTVSPost2010PropOp34
 70
     1
102
RTVSPost2010Prop35
280
     0
102
RTVSPost2010PropOp35
 70
     1
102
RTVSPost2010Prop36
280
     0
102
RTVSPost2010PropOp36
 70
     1
102
RTVSPost2010Prop37
 90
       50
102
RTVSPost2010PropOp37
 70
     1
102
RTVSPost2010Prop38
140
0.0
102
RTVSPost2010PropOp38
 70
     1
102
RTVSPost2010Prop39
140
1.0
102
RTVSPost2010PropOp39
 70
     1
102
RTVSPost2010Prop40
 90
        0
102
RTVSPost2010PropOp40
 70
     1
102
RTVSPost2010Prop41ColorIndex
 90
       18
102
RTVSPost2010Prop41ColorRGB
 90
        0
102
RTVSPost2010PropOp41
 70
     1
102
RTVSPost2010Prop42
 90
       50
102
RTVSPost2010PropOp42
 70
     1
102
RTVSPost2010Prop43
 90
        3
102
RTVSPost2010PropOp43
 70
     1
102
RTVSPost2010Prop44ColorIndex
 90
        5
102
RTVSPost2010Prop44ColorRGB
 90
      255
102
RTVSPost2010PropOp44
 70
     1
102
RTVSPost2010Prop45
280
     0
102
RTVSPost2010PropOp45
 70
     1
102
RTVSPost2010Prop46
 90
       50
102
RTVSPost2010PropOp46
 70
     1
102
RTVSPost2010Prop47
 90
       50
102
RTVSPost2010PropOp47
 70
     1
102
RTVSPost2010Prop48
 90
       50
102
RTVSPost2010PropOp48
 70
     1
102
RTVSPost2010Prop49
280
     0
102
RTVSPost2010PropOp49
 70
     1
102
RTVSPost2010Prop50
 90
       50
102
RTVSPost2010PropOp50
 70
     1
102
RTVSPost2010Prop51ColorIndex
 90
      256
102
RTVSPost2010Prop51ColorRGB
 90
-16777216
102
RTVSPost2010PropOp51
 70
     0
102
RTVSPost2010Prop52
140
1.0
102
RTVSPost2010PropOp52
 70
     0
102
RTVSPost2010Prop53
 90
        2
102
RTVSPost2010PropOp53
 70
     1
102
RTVSPost2010Prop54
  1
strokes_ogs.tif
102
RTVSPost2010PropOp54
 70
     1
102
RTVSPost2010Prop55
280
     0
102
RTVSPost2010PropOp55
 70
     1
102
RTVSPost2010Prop56
140
1.0
102
RTVSPost2010PropOp56
 70
     1
102
RTVSPost2010Prop57
140
1.0
102
RTVSPost2010PropOp57
 70
     1
102
RTVSPropertyOp0
 70
     1
102
RTVSPropertyOp1
 70
     1
102
RTVSPropertyOp2
 70
     1
102
RTVSPropertyOp3
 70
     1
102
RTVSPropertyOp4
 70
     1
102
RTVSPropertyOp5
 70
     1
102
RTVSPropertyOp6
 70
     1
102
RTVSPropertyOp7
 70
     1
102
RTVSPropertyOp8
 70
     1
102
RTVSPropertyOp9
 70
     1
102
RTVSPropertyOp10
 70
     1
102
RTVSPropertyOp11
 70
     1
102
RTVSPropertyOp12
 70
     1
102
RTVSPropertyOp13
 70
     1
102
RTVSPropertyOp14
 70
     1
102
RTVSPropertyOp15
 70
     1
102
RTVSPropertyOp16
 70
     1
102
RTVSPropertyOp17
 70
     1
102
RTVSPropertyOp18
 70
     1
102
RTVSPropertyOp19
 70
     1
102
RTVSPropertyOp20
 70
     1
102
RTVSPropertyOp21
 70
     1
102
RTVSPropertyOp22
 70
     1
102
RTVSPropertyOp23
 70
     1
102
RTVSPropertyOp24
 70
     1
102
RTVSPropertyOp25
 70
     1
102
RTVSPropertyOp26
 70
     1
102
RTVSPropertyOp27
 70
     1
102
RTVSPropertyOp28
 70
     1
102
RTVSPropertyOp29
 70
     1
102
RTVSPropertyOp30
 70
     1
102
RTVSPropertyOp31
 70
     1
102
RTVSPropertyOp32
 70
     1
102
RTVSPropertyOp33
 70
     1
102
RTVSPropertyOp34
 70
     1
102
RTVSPropertyOp35
 70
     1
102
RTVSPropertyOp36
 70
     1
102
RTVSPropertyOp37
 70
     1
102
RTVSPropertyOp38
 70
     1
102
RTVSPropertyOp39
 70
     1
102
RTVSPropertyOp40
 70
     1
102
RTVSPropertyOp41
 70
     1
102
RTVSPropertyOp42
 70
     1
102
RTVSPropertyOp43
 70
     1
102
RTVSPropertyOp44
 70
     1
102
RTVSPropertyOp45
 70
     1
102
RTVSPropertyOp46
 70
     1
102
RTVSPropertyOp47
 70
     1
102
RTVSPropertyOp48
 70
     1
102
RTVSPropertyOp49
 70
     1
102
RTVSPropertyOp50
 70
     1
102
RTVSPropertyOp51
 70
     0
102
RTVSPropertyOp52
 70
     0
102
RTVSPropertyOp53
 70
     1
102
RTVSPropertyOp54
 70
     1
102
RTVSPropertyOp55
 70
     1
102
RTVSPropertyOp56
 70
     1
102
RTVSPropertyOp57
 70
     1
102
RTVSPropertyOp58
 70
     1
102
RTVSPropertyOp59
 70
     1
102
RTVSPropertyOp60
 70
     1
102
RTVSPropertyOp61
 70
     1
102
RTVSPropertyOp62
 70
     1
  0
XRECORD
  5
1A1C
102
{ACAD_REACTORS
330
1A1B
102
}
330
1A1B
100
AcDbXrecord
280
     1
102
RTVSPost2010Prop28
280
     0
102
RTVSPost2010PropOp28
 70
     1
102
RTVSPost2010Prop29
280
     1
102
RTVSPost2010PropOp29
 70
     1
102
RTVSPost2010Prop30
280
     1
102
RTVSPost2010PropOp30
 70
     1
102
RTVSPost2010Prop31
280
     0
102
RTVSPost2010PropOp31
 70
     1
102
RTVSPost2010Prop32
280
     0
102
RTVSPost2010PropOp32
 70
     1
102
RTVSPost2010Prop33
280
     0
102
RTVSPost2010PropOp33
 70
     1
102
RTVSPost2010Prop34
280
     0
102
RTVSPost2010PropOp34
 70
     1
102
RTVSPost2010Prop35
280
     0
102
RTVSPost2010PropOp35
 70
     1
102
RTVSPost2010Prop36
280
     0
102
RTVSPost2010PropOp36
 70
     1
102
RTVSPost2010Prop37
 90
       50
102
RTVSPost2010PropOp37
 70
     0
102
RTVSPost2010Prop38
140
0.0
102
RTVSPost2010PropOp38
 70
     0
102
RTVSPost2010Prop39
140
1.0
102
RTVSPost2010PropOp39
 70
     0
102
RTVSPost2010Prop40
 90
        0
102
RTVSPost2010PropOp40
 70
     0
102
RTVSPost2010Prop41ColorIndex
 90
       18
102
RTVSPost2010Prop41ColorRGB
 90
        0
102
RTVSPost2010PropOp41
 70
     0
102
RTVSPost2010Prop42
 90
       50
102
RTVSPost2010PropOp42
 70
     0
102
RTVSPost2010Prop43
 90
        3
102
RTVSPost2010PropOp43
 70
     0
102
RTVSPost2010Prop44ColorIndex
 90
        5
102
RTVSPost2010Prop44ColorRGB
 90
      255
102
RTVSPost2010PropOp44
 70
     0
102
RTVSPost2010Prop45
280
     0
102
RTVSPost2010PropOp45
 70
     1
102
RTVSPost2010Prop46
 90
       50
102
RTVSPost2010PropOp46
 70
     0
102
RTVSPost2010Prop47
 90
       50
102
RTVSPost2010PropOp47
 70
     0
102
RTVSPost2010Prop48
 90
       50
102
RTVSPost2010PropOp48
 70
     0
102
RTVSPost2010Prop49
280
     0
102
RTVSPost2010PropOp49
 70
     1
102
RTVSPost2010Prop50
 90
       50
102
RTVSPost2010PropOp50
 70
     0
102
RTVSPost2010Prop51ColorIndex
 90
      256
102
RTVSPost2010Prop51ColorRGB
 90
-16777216
102
RTVSPost2010PropOp51
 70
     0
102
RTVSPost2010Prop52
140
1.0
102
RTVSPost2010PropOp52
 70
     0
102
RTVSPost2010Prop53
 90
        2
102
RTVSPost2010PropOp53
 70
     0
102
RTVSPost2010Prop54
  1
strokes_ogs.tif
102
RTVSPost2010PropOp54
 70
     0
102
RTVSPost2010Prop55
280
     0
102
RTVSPost2010PropOp55
 70
     1
102
RTVSPost2010Prop56
140
1.0
102
RTVSPost2010PropOp56
 70
     0
102
RTVSPost2010Prop57
140
1.0
102
RTVSPost2010PropOp57
 70
     0
102
RTVSPropertyOp0
 70
     0
102
RTVSPropertyOp1
 70
     0
102
RTVSPropertyOp2
 70
     0
102
RTVSPropertyOp3
 70
     0
102
RTVSPropertyOp4
 70
     0
102
RTVSPropertyOp5
 70
     0
102
RTVSPropertyOp6
 70
     0
102
RTVSPropertyOp7
 70
     0
102
RTVSPropertyOp8
 70
     0
102
RTVSPropertyOp9
 70
     0
102
RTVSPropertyOp10
 70
     0
102
RTVSPropertyOp11
 70
     0
102
RTVSPropertyOp12
 70
     0
102
RTVSPropertyOp13
 70
     0
102
RTVSPropertyOp14
 70
     2
102
RTVSPropertyOp15
 70
     0
102
RTVSPropertyOp16
 70
     0
102
RTVSPropertyOp17
 70
     0
102
RTVSPropertyOp18
 70
     0
102
RTVSPropertyOp19
 70
     0
102
RTVSPropertyOp20
 70
     0
102
RTVSPropertyOp21
 70
     0
102
RTVSPropertyOp22
 70
     0
102
RTVSPropertyOp23
 70
     0
102
RTVSPropertyOp24
 70
     0
102
RTVSPropertyOp25
 70
     0
102
RTVSPropertyOp26
 70
     0
102
RTVSPropertyOp27
 70
     0
102
RTVSPropertyOp28
 70
     1
102
RTVSPropertyOp29
 70
     1
102
RTVSPropertyOp30
 70
     1
102
RTVSPropertyOp31
 70
     1
102
RTVSPropertyOp32
 70
     1
102
RTVSPropertyOp33
 70
     1
102
RTVSPropertyOp34
 70
     1
102
RTVSPropertyOp35
 70
     1
102
RTVSPropertyOp36
 70
     1
102
RTVSPropertyOp37
 70
     0
102
RTVSPropertyOp38
 70
     0
102
RTVSPropertyOp39
 70
     0
102
RTVSPropertyOp40
 70
     0
102
RTVSPropertyOp41
 70
     0
102
RTVSPropertyOp42
 70
     0
102
RTVSPropertyOp43
 70
     0
102
RTVSPropertyOp44
 70
     0
102
RTVSPropertyOp45
 70
     1
102
RTVSPropertyOp46
 70
     0
102
RTVSPropertyOp47
 70
     0
102
RTVSPropertyOp48
 70
     0
102
RTVSPropertyOp49
 70
     1
102
RTVSPropertyOp50
 70
     0
102
RTVSPropertyOp51
 70
     0
102
RTVSPropertyOp52
 70
     0
102
RTVSPropertyOp53
 70
     0
102
RTVSPropertyOp54
 70
     0
102
RTVSPropertyOp55
 70
     1
102
RTVSPropertyOp56
 70
     0
102
RTVSPropertyOp57
 70
     0
102
RTVSPropertyOp58
 70
     1
102
RTVSPropertyOp59
 70
     1
102
RTVSPropertyOp60
 70
     1
102
RTVSPropertyOp61
 70
     1
102
RTVSPropertyOp62
 70
     1
  0
XRECORD
  5
19FE
102
{ACAD_REACTORS
330
19FD
102
}
330
19FD
100
AcDbXrecord
280
     1
102
RTVSPost2010Prop28
280
     0
102
RTVSPost2010PropOp28
 70
     1
102
RTVSPost2010Prop29
280
     1
102
RTVSPost2010PropOp29
 70
     1
102
RTVSPost2010Prop30
280
     1
102
RTVSPost2010PropOp30
 70
     1
102
RTVSPost2010Prop31
280
     0
102
RTVSPost2010PropOp31
 70
     1
102
RTVSPost2010Prop32
280
     0
102
RTVSPost2010PropOp32
 70
     1
102
RTVSPost2010Prop33
280
     0
102
RTVSPost2010PropOp33
 70
     1
102
RTVSPost2010Prop34
280
     0
102
RTVSPost2010PropOp34
 70
     1
102
RTVSPost2010Prop35
280
     0
102
RTVSPost2010PropOp35
 70
     1
102
RTVSPost2010Prop36
280
     0
102
RTVSPost2010PropOp36
 70
     1
102
RTVSPost2010Prop37
 90
       50
102
RTVSPost2010PropOp37
 70
     1
102
RTVSPost2010Prop38
140
0.0
102
RTVSPost2010PropOp38
 70
     1
102
RTVSPost2010Prop39
140
1.0
102
RTVSPost2010PropOp39
 70
     1
102
RTVSPost2010Prop40
 90
        0
102
RTVSPost2010PropOp40
 70
     1
102
RTVSPost2010Prop41ColorIndex
 90
       18
102
RTVSPost2010Prop41ColorRGB
 90
        0
102
RTVSPost2010PropOp41
 70
     1
102
RTVSPost2010Prop42
 90
       50
102
RTVSPost2010PropOp42
 70
     1
102
RTVSPost2010Prop43
 90
        3
102
RTVSPost2010PropOp43
 70
     1
102
RTVSPost2010Prop44ColorIndex
 90
        5
102
RTVSPost2010Prop44ColorRGB
 90
      255
102
RTVSPost2010PropOp44
 70
     1
102
RTVSPost2010Prop45
280
     0
102
RTVSPost2010PropOp45
 70
     1
102
RTVSPost2010Prop46
 90
       50
102
RTVSPost2010PropOp46
 70
     1
102
RTVSPost2010Prop47
 90
       50
102
RTVSPost2010PropOp47
 70
     1
102
RTVSPost2010Prop48
 90
       50
102
RTVSPost2010PropOp48
 70
     1
102
RTVSPost2010Prop49
280
     0
102
RTVSPost2010PropOp49
 70
     1
102
RTVSPost2010Prop50
 90
       50
102
RTVSPost2010PropOp50
 70
     1
102
RTVSPost2010Prop51ColorIndex
 90
      256
102
RTVSPost2010Prop51ColorRGB
 90
-16777216
102
RTVSPost2010PropOp51
 70
     0
102
RTVSPost2010Prop52
140
1.0
102
RTVSPost2010PropOp52
 70
     0
102
RTVSPost2010Prop53
 90
        2
102
RTVSPost2010PropOp53
 70
     1
102
RTVSPost2010Prop54
  1
strokes_ogs.tif
102
RTVSPost2010PropOp54
 70
     1
102
RTVSPost2010Prop55
280
     0
102
RTVSPost2010PropOp55
 70
     1
102
RTVSPost2010Prop56
140
1.0
102
RTVSPost2010PropOp56
 70
     1
102
RTVSPost2010Prop57
140
1.0
102
RTVSPost2010PropOp57
 70
     1
102
RTVSPropertyOp0
 70
     1
102
RTVSPropertyOp1
 70
     1
102
RTVSPropertyOp2
 70
     1
102
RTVSPropertyOp3
 70
     1
102
RTVSPropertyOp4
 70
     1
102
RTVSPropertyOp5
 70
     1
102
RTVSPropertyOp6
 70
     1
102
RTVSPropertyOp7
 70
     1
102
RTVSPropertyOp8
 70
     1
102
RTVSPropertyOp9
 70
     1
102
RTVSPropertyOp10
 70
     1
102
RTVSPropertyOp11
 70
     1
102
RTVSPropertyOp12
 70
     1
102
RTVSPropertyOp13
 70
     1
102
RTVSPropertyOp14
 70
     1
102
RTVSPropertyOp15
 70
     1
102
RTVSPropertyOp16
 70
     1
102
RTVSPropertyOp17
 70
     1
102
RTVSPropertyOp18
 70
     1
102
RTVSPropertyOp19
 70
     1
102
RTVSPropertyOp20
 70
     1
102
RTVSPropertyOp21
 70
     1
102
RTVSPropertyOp22
 70
     1
102
RTVSPropertyOp23
 70
     1
102
RTVSPropertyOp24
 70
     1
102
RTVSPropertyOp25
 70
     1
102
RTVSPropertyOp26
 70
     1
102
RTVSPropertyOp27
 70
     1
102
RTVSPropertyOp28
 70
     1
102
RTVSPropertyOp29
 70
     1
102
RTVSPropertyOp30
 70
     1
102
RTVSPropertyOp31
 70
     1
102
RTVSPropertyOp32
 70
     1
102
RTVSPropertyOp33
 70
     1
102
RTVSPropertyOp34
 70
     1
102
RTVSPropertyOp35
 70
     1
102
RTVSPropertyOp36
 70
     1
102
RTVSPropertyOp37
 70
     1
102
RTVSPropertyOp38
 70
     1
102
RTVSPropertyOp39
 70
     1
102
RTVSPropertyOp40
 70
     1
102
RTVSPropertyOp41
 70
     1
102
RTVSPropertyOp42
 70
     1
102
RTVSPropertyOp43
 70
     1
102
RTVSPropertyOp44
 70
     1
102
RTVSPropertyOp45
 70
     1
102
RTVSPropertyOp46
 70
     1
102
RTVSPropertyOp47
 70
     1
102
RTVSPropertyOp48
 70
     1
102
RTVSPropertyOp49
 70
     1
102
RTVSPropertyOp50
 70
     1
102
RTVSPropertyOp51
 70
     0
102
RTVSPropertyOp52
 70
     0
102
RTVSPropertyOp53
 70
     1
102
RTVSPropertyOp54
 70
     1
102
RTVSPropertyOp55
 70
     1
102
RTVSPropertyOp56
 70
     1
102
RTVSPropertyOp57
 70
     1
102
RTVSPropertyOp58
 70
     1
102
RTVSPropertyOp59
 70
     1
102
RTVSPropertyOp60
 70
     1
102
RTVSPropertyOp61
 70
     1
102
RTVSPropertyOp62
 70
     1
  0
XRECORD
  5
1A18
102
{ACAD_REACTORS
330
1A17
102
}
330
1A17
100
AcDbXrecord
280
     1
102
RTVSPost2010Prop28
280
     0
102
RTVSPost2010PropOp28
 70
     1
102
RTVSPost2010Prop29
280
     1
102
RTVSPost2010PropOp29
 70
     1
102
RTVSPost2010Prop30
280
     1
102
RTVSPost2010PropOp30
 70
     1
102
RTVSPost2010Prop31
280
     0
102
RTVSPost2010PropOp31
 70
     1
102
RTVSPost2010Prop32
280
     0
102
RTVSPost2010PropOp32
 70
     1
102
RTVSPost2010Prop33
280
     0
102
RTVSPost2010PropOp33
 70
     1
102
RTVSPost2010Prop34
280
     0
102
RTVSPost2010PropOp34
 70
     1
102
RTVSPost2010Prop35
280
     0
102
RTVSPost2010PropOp35
 70
     1
102
RTVSPost2010Prop36
280
     0
102
RTVSPost2010PropOp36
 70
     1
102
RTVSPost2010Prop37
 90
       50
102
RTVSPost2010PropOp37
 70
     1
102
RTVSPost2010Prop38
140
0.0
102
RTVSPost2010PropOp38
 70
     1
102
RTVSPost2010Prop39
140
1.0
102
RTVSPost2010PropOp39
 70
     1
102
RTVSPost2010Prop40
 90
        0
102
RTVSPost2010PropOp40
 70
     1
102
RTVSPost2010Prop41ColorIndex
 90
       18
102
RTVSPost2010Prop41ColorRGB
 90
        0
102
RTVSPost2010PropOp41
 70
     1
102
RTVSPost2010Prop42
 90
       50
102
RTVSPost2010PropOp42
 70
     1
102
RTVSPost2010Prop43
 90
        3
102
RTVSPost2010PropOp43
 70
     1
102
RTVSPost2010Prop44ColorIndex
 90
        5
102
RTVSPost2010Prop44ColorRGB
 90
      255
102
RTVSPost2010PropOp44
 70
     1
102
RTVSPost2010Prop45
280
     0
102
RTVSPost2010PropOp45
 70
     1
102
RTVSPost2010Prop46
 90
       50
102
RTVSPost2010PropOp46
 70
     1
102
RTVSPost2010Prop47
 90
       50
102
RTVSPost2010PropOp47
 70
     1
102
RTVSPost2010Prop48
 90
       50
102
RTVSPost2010PropOp48
 70
     1
102
RTVSPost2010Prop49
280
     0
102
RTVSPost2010PropOp49
 70
     1
102
RTVSPost2010Prop50
 90
       50
102
RTVSPost2010PropOp50
 70
     1
102
RTVSPost2010Prop51ColorIndex
 90
      256
102
RTVSPost2010Prop51ColorRGB
 90
-16777216
102
RTVSPost2010PropOp51
 70
     0
102
RTVSPost2010Prop52
140
1.0
102
RTVSPost2010PropOp52
 70
     0
102
RTVSPost2010Prop53
 90
        2
102
RTVSPost2010PropOp53
 70
     1
102
RTVSPost2010Prop54
  1
strokes_ogs.tif
102
RTVSPost2010PropOp54
 70
     1
102
RTVSPost2010Prop55
280
     0
102
RTVSPost2010PropOp55
 70
     1
102
RTVSPost2010Prop56
140
1.0
102
RTVSPost2010PropOp56
 70
     1
102
RTVSPost2010Prop57
140
1.0
102
RTVSPost2010PropOp57
 70
     1
102
RTVSPropertyOp0
 70
     1
102
RTVSPropertyOp1
 70
     1
102
RTVSPropertyOp2
 70
     1
102
RTVSPropertyOp3
 70
     1
102
RTVSPropertyOp4
 70
     1
102
RTVSPropertyOp5
 70
     1
102
RTVSPropertyOp6
 70
     1
102
RTVSPropertyOp7
 70
     1
102
RTVSPropertyOp8
 70
     1
102
RTVSPropertyOp9
 70
     1
102
RTVSPropertyOp10
 70
     1
102
RTVSPropertyOp11
 70
     1
102
RTVSPropertyOp12
 70
     1
102
RTVSPropertyOp13
 70
     1
102
RTVSPropertyOp14
 70
     1
102
RTVSPropertyOp15
 70
     1
102
RTVSPropertyOp16
 70
     1
102
RTVSPropertyOp17
 70
     1
102
RTVSPropertyOp18
 70
     1
102
RTVSPropertyOp19
 70
     1
102
RTVSPropertyOp20
 70
     1
102
RTVSPropertyOp21
 70
     1
102
RTVSPropertyOp22
 70
     1
102
RTVSPropertyOp23
 70
     1
102
RTVSPropertyOp24
 70
     1
102
RTVSPropertyOp25
 70
     1
102
RTVSPropertyOp26
 70
     1
102
RTVSPropertyOp27
 70
     1
102
RTVSPropertyOp28
 70
     1
102
RTVSPropertyOp29
 70
     1
102
RTVSPropertyOp30
 70
     1
102
RTVSPropertyOp31
 70
     1
102
RTVSPropertyOp32
 70
     1
102
RTVSPropertyOp33
 70
     1
102
RTVSPropertyOp34
 70
     1
102
RTVSPropertyOp35
 70
     1
102
RTVSPropertyOp36
 70
     1
102
RTVSPropertyOp37
 70
     1
102
RTVSPropertyOp38
 70
     1
102
RTVSPropertyOp39
 70
     1
102
RTVSPropertyOp40
 70
     1
102
RTVSPropertyOp41
 70
     1
102
RTVSPropertyOp42
 70
     1
102
RTVSPropertyOp43
 70
     1
102
RTVSPropertyOp44
 70
     1
102
RTVSPropertyOp45
 70
     1
102
RTVSPropertyOp46
 70
     1
102
RTVSPropertyOp47
 70
     1
102
RTVSPropertyOp48
 70
     1
102
RTVSPropertyOp49
 70
     1
102
RTVSPropertyOp50
 70
     1
102
RTVSPropertyOp51
 70
     0
102
RTVSPropertyOp52
 70
     0
102
RTVSPropertyOp53
 70
     1
102
RTVSPropertyOp54
 70
     1
102
RTVSPropertyOp55
 70
     1
102
RTVSPropertyOp56
 70
     1
102
RTVSPropertyOp57
 70
     1
102
RTVSPropertyOp58
 70
     1
102
RTVSPropertyOp59
 70
     1
102
RTVSPropertyOp60
 70
     1
102
RTVSPropertyOp61
 70
     1
102
RTVSPropertyOp62
 70
     1
  0
XRECORD
  5
1A16
102
{ACAD_REACTORS
330
1A15
102
}
330
1A15
100
AcDbXrecord
280
     1
102
RTVSPost2010Prop28
280
     0
102
RTVSPost2010PropOp28
 70
     1
102
RTVSPost2010Prop29
280
     1
102
RTVSPost2010PropOp29
 70
     1
102
RTVSPost2010Prop30
280
     1
102
RTVSPost2010PropOp30
 70
     1
102
RTVSPost2010Prop31
280
     0
102
RTVSPost2010PropOp31
 70
     1
102
RTVSPost2010Prop32
280
     0
102
RTVSPost2010PropOp32
 70
     1
102
RTVSPost2010Prop33
280
     0
102
RTVSPost2010PropOp33
 70
     1
102
RTVSPost2010Prop34
280
     0
102
RTVSPost2010PropOp34
 70
     1
102
RTVSPost2010Prop35
280
     0
102
RTVSPost2010PropOp35
 70
     1
102
RTVSPost2010Prop36
280
     0
102
RTVSPost2010PropOp36
 70
     1
102
RTVSPost2010Prop37
 90
       50
102
RTVSPost2010PropOp37
 70
     1
102
RTVSPost2010Prop38
140
0.0
102
RTVSPost2010PropOp38
 70
     1
102
RTVSPost2010Prop39
140
1.0
102
RTVSPost2010PropOp39
 70
     1
102
RTVSPost2010Prop40
 90
        0
102
RTVSPost2010PropOp40
 70
     1
102
RTVSPost2010Prop41ColorIndex
 90
       18
102
RTVSPost2010Prop41ColorRGB
 90
        0
102
RTVSPost2010PropOp41
 70
     1
102
RTVSPost2010Prop42
 90
       50
102
RTVSPost2010PropOp42
 70
     1
102
RTVSPost2010Prop43
 90
        3
102
RTVSPost2010PropOp43
 70
     1
102
RTVSPost2010Prop44ColorIndex
 90
        5
102
RTVSPost2010Prop44ColorRGB
 90
      255
102
RTVSPost2010PropOp44
 70
     1
102
RTVSPost2010Prop45
280
     0
102
RTVSPost2010PropOp45
 70
     1
102
RTVSPost2010Prop46
 90
       50
102
RTVSPost2010PropOp46
 70
     1
102
RTVSPost2010Prop47
 90
       50
102
RTVSPost2010PropOp47
 70
     1
102
RTVSPost2010Prop48
 90
       50
102
RTVSPost2010PropOp48
 70
     1
102
RTVSPost2010Prop49
280
     0
102
RTVSPost2010PropOp49
 70
     1
102
RTVSPost2010Prop50
 90
       50
102
RTVSPost2010PropOp50
 70
     1
102
RTVSPost2010Prop51ColorIndex
 90
      256
102
RTVSPost2010Prop51ColorRGB
 90
-16777216
102
RTVSPost2010PropOp51
 70
     0
102
RTVSPost2010Prop52
140
1.0
102
RTVSPost2010PropOp52
 70
     0
102
RTVSPost2010Prop53
 90
        2
102
RTVSPost2010PropOp53
 70
     1
102
RTVSPost2010Prop54
  1
strokes_ogs.tif
102
RTVSPost2010PropOp54
 70
     1
102
RTVSPost2010Prop55
280
     0
102
RTVSPost2010PropOp55
 70
     1
102
RTVSPost2010Prop56
140
1.0
102
RTVSPost2010PropOp56
 70
     1
102
RTVSPost2010Prop57
140
1.0
102
RTVSPost2010PropOp57
 70
     1
102
RTVSPropertyOp0
 70
     1
102
RTVSPropertyOp1
 70
     1
102
RTVSPropertyOp2
 70
     1
102
RTVSPropertyOp3
 70
     1
102
RTVSPropertyOp4
 70
     1
102
RTVSPropertyOp5
 70
     1
102
RTVSPropertyOp6
 70
     1
102
RTVSPropertyOp7
 70
     1
102
RTVSPropertyOp8
 70
     1
102
RTVSPropertyOp9
 70
     1
102
RTVSPropertyOp10
 70
     1
102
RTVSPropertyOp11
 70
     1
102
RTVSPropertyOp12
 70
     1
102
RTVSPropertyOp13
 70
     1
102
RTVSPropertyOp14
 70
     1
102
RTVSPropertyOp15
 70
     1
102
RTVSPropertyOp16
 70
     1
102
RTVSPropertyOp17
 70
     1
102
RTVSPropertyOp18
 70
     1
102
RTVSPropertyOp19
 70
     1
102
RTVSPropertyOp20
 70
     1
102
RTVSPropertyOp21
 70
     1
102
RTVSPropertyOp22
 70
     1
102
RTVSPropertyOp23
 70
     1
102
RTVSPropertyOp24
 70
     1
102
RTVSPropertyOp25
 70
     1
102
RTVSPropertyOp26
 70
     1
102
RTVSPropertyOp27
 70
     1
102
RTVSPropertyOp28
 70
     1
102
RTVSPropertyOp29
 70
     1
102
RTVSPropertyOp30
 70
     1
102
RTVSPropertyOp31
 70
     1
102
RTVSPropertyOp32
 70
     1
102
RTVSPropertyOp33
 70
     1
102
RTVSPropertyOp34
 70
     1
102
RTVSPropertyOp35
 70
     1
102
RTVSPropertyOp36
 70
     1
102
RTVSPropertyOp37
 70
     1
102
RTVSPropertyOp38
 70
     1
102
RTVSPropertyOp39
 70
     1
102
RTVSPropertyOp40
 70
     1
102
RTVSPropertyOp41
 70
     1
102
RTVSPropertyOp42
 70
     1
102
RTVSPropertyOp43
 70
     1
102
RTVSPropertyOp44
 70
     1
102
RTVSPropertyOp45
 70
     1
102
RTVSPropertyOp46
 70
     1
102
RTVSPropertyOp47
 70
     1
102
RTVSPropertyOp48
 70
     1
102
RTVSPropertyOp49
 70
     1
102
RTVSPropertyOp50
 70
     1
102
RTVSPropertyOp51
 70
     0
102
RTVSPropertyOp52
 70
     0
102
RTVSPropertyOp53
 70
     1
102
RTVSPropertyOp54
 70
     1
102
RTVSPropertyOp55
 70
     1
102
RTVSPropertyOp56
 70
     1
102
RTVSPropertyOp57
 70
     1
102
RTVSPropertyOp58
 70
     1
102
RTVSPropertyOp59
 70
     1
102
RTVSPropertyOp60
 70
     1
102
RTVSPropertyOp61
 70
     1
102
RTVSPropertyOp62
 70
     1
  0
XRECORD
  5
1A10
102
{ACAD_REACTORS
330
1A0F
102
}
330
1A0F
100
AcDbXrecord
280
     1
102
RTVSPost2010Prop28
280
     0
102
RTVSPost2010PropOp28
 70
     1
102
RTVSPost2010Prop29
280
     1
102
RTVSPost2010PropOp29
 70
     1
102
RTVSPost2010Prop30
280
     1
102
RTVSPost2010PropOp30
 70
     1
102
RTVSPost2010Prop31
280
     0
102
RTVSPost2010PropOp31
 70
     1
102
RTVSPost2010Prop32
280
     0
102
RTVSPost2010PropOp32
 70
     1
102
RTVSPost2010Prop33
280
     0
102
RTVSPost2010PropOp33
 70
     1
102
RTVSPost2010Prop34
280
     0
102
RTVSPost2010PropOp34
 70
     1
102
RTVSPost2010Prop35
280
     0
102
RTVSPost2010PropOp35
 70
     1
102
RTVSPost2010Prop36
280
     0
102
RTVSPost2010PropOp36
 70
     1
102
RTVSPost2010Prop37
 90
       50
102
RTVSPost2010PropOp37
 70
     1
102
RTVSPost2010Prop38
140
0.0
102
RTVSPost2010PropOp38
 70
     1
102
RTVSPost2010Prop39
140
1.0
102
RTVSPost2010PropOp39
 70
     1
102
RTVSPost2010Prop40
 90
        0
102
RTVSPost2010PropOp40
 70
     1
102
RTVSPost2010Prop41ColorIndex
 90
       18
102
RTVSPost2010Prop41ColorRGB
 90
        0
102
RTVSPost2010PropOp41
 70
     1
102
RTVSPost2010Prop42
 90
       50
102
RTVSPost2010PropOp42
 70
     1
102
RTVSPost2010Prop43
 90
        3
102
RTVSPost2010PropOp43
 70
     1
102
RTVSPost2010Prop44ColorIndex
 90
        5
102
RTVSPost2010Prop44ColorRGB
 90
      255
102
RTVSPost2010PropOp44
 70
     1
102
RTVSPost2010Prop45
280
     0
102
RTVSPost2010PropOp45
 70
     1
102
RTVSPost2010Prop46
 90
       50
102
RTVSPost2010PropOp46
 70
     1
102
RTVSPost2010Prop47
 90
       50
102
RTVSPost2010PropOp47
 70
     1
102
RTVSPost2010Prop48
 90
       50
102
RTVSPost2010PropOp48
 70
     1
102
RTVSPost2010Prop49
280
     0
102
RTVSPost2010PropOp49
 70
     1
102
RTVSPost2010Prop50
 90
       50
102
RTVSPost2010PropOp50
 70
     1
102
RTVSPost2010Prop51ColorIndex
 90
      256
102
RTVSPost2010Prop51ColorRGB
 90
-16777216
102
RTVSPost2010PropOp51
 70
     0
102
RTVSPost2010Prop52
140
1.0
102
RTVSPost2010PropOp52
 70
     0
102
RTVSPost2010Prop53
 90
        2
102
RTVSPost2010PropOp53
 70
     1
102
RTVSPost2010Prop54
  1
strokes_ogs.tif
102
RTVSPost2010PropOp54
 70
     1
102
RTVSPost2010Prop55
280
     0
102
RTVSPost2010PropOp55
 70
     1
102
RTVSPost2010Prop56
140
1.0
102
RTVSPost2010PropOp56
 70
     1
102
RTVSPost2010Prop57
140
1.0
102
RTVSPost2010PropOp57
 70
     1
102
RTVSPropertyOp0
 70
     1
102
RTVSPropertyOp1
 70
     1
102
RTVSPropertyOp2
 70
     1
102
RTVSPropertyOp3
 70
     1
102
RTVSPropertyOp4
 70
     1
102
RTVSPropertyOp5
 70
     1
102
RTVSPropertyOp6
 70
     1
102
RTVSPropertyOp7
 70
     1
102
RTVSPropertyOp8
 70
     1
102
RTVSPropertyOp9
 70
     1
102
RTVSPropertyOp10
 70
     1
102
RTVSPropertyOp11
 70
     1
102
RTVSPropertyOp12
 70
     1
102
RTVSPropertyOp13
 70
     1
102
RTVSPropertyOp14
 70
     1
102
RTVSPropertyOp15
 70
     1
102
RTVSPropertyOp16
 70
     1
102
RTVSPropertyOp17
 70
     1
102
RTVSPropertyOp18
 70
     1
102
RTVSPropertyOp19
 70
     1
102
RTVSPropertyOp20
 70
     1
102
RTVSPropertyOp21
 70
     1
102
RTVSPropertyOp22
 70
     1
102
RTVSPropertyOp23
 70
     1
102
RTVSPropertyOp24
 70
     1
102
RTVSPropertyOp25
 70
     1
102
RTVSPropertyOp26
 70
     1
102
RTVSPropertyOp27
 70
     1
102
RTVSPropertyOp28
 70
     1
102
RTVSPropertyOp29
 70
     1
102
RTVSPropertyOp30
 70
     1
102
RTVSPropertyOp31
 70
     1
102
RTVSPropertyOp32
 70
     1
102
RTVSPropertyOp33
 70
     1
102
RTVSPropertyOp34
 70
     1
102
RTVSPropertyOp35
 70
     1
102
RTVSPropertyOp36
 70
     1
102
RTVSPropertyOp37
 70
     1
102
RTVSPropertyOp38
 70
     1
102
RTVSPropertyOp39
 70
     1
102
RTVSPropertyOp40
 70
     1
102
RTVSPropertyOp41
 70
     1
102
RTVSPropertyOp42
 70
     1
102
RTVSPropertyOp43
 70
     1
102
RTVSPropertyOp44
 70
     1
102
RTVSPropertyOp45
 70
     1
102
RTVSPropertyOp46
 70
     1
102
RTVSPropertyOp47
 70
     1
102
RTVSPropertyOp48
 70
     1
102
RTVSPropertyOp49
 70
     1
102
RTVSPropertyOp50
 70
     1
102
RTVSPropertyOp51
 70
     0
102
RTVSPropertyOp52
 70
     0
102
RTVSPropertyOp53
 70
     1
102
RTVSPropertyOp54
 70
     1
102
RTVSPropertyOp55
 70
     1
102
RTVSPropertyOp56
 70
     1
102
RTVSPropertyOp57
 70
     1
102
RTVSPropertyOp58
 70
     1
102
RTVSPropertyOp59
 70
     1
102
RTVSPropertyOp60
 70
     1
102
RTVSPropertyOp61
 70
     1
102
RTVSPropertyOp62
 70
     1
  0
XRECORD
  5
1A12
102
{ACAD_REACTORS
330
1A11
102
}
330
1A11
100
AcDbXrecord
280
     1
102
RTVSPost2010Prop28
280
     0
102
RTVSPost2010PropOp28
 70
     1
102
RTVSPost2010Prop29
280
     1
102
RTVSPost2010PropOp29
 70
     1
102
RTVSPost2010Prop30
280
     1
102
RTVSPost2010PropOp30
 70
     1
102
RTVSPost2010Prop31
280
     0
102
RTVSPost2010PropOp31
 70
     1
102
RTVSPost2010Prop32
280
     0
102
RTVSPost2010PropOp32
 70
     1
102
RTVSPost2010Prop33
280
     0
102
RTVSPost2010PropOp33
 70
     1
102
RTVSPost2010Prop34
280
     0
102
RTVSPost2010PropOp34
 70
     1
102
RTVSPost2010Prop35
280
     0
102
RTVSPost2010PropOp35
 70
     1
102
RTVSPost2010Prop36
280
     0
102
RTVSPost2010PropOp36
 70
     1
102
RTVSPost2010Prop37
 90
       50
102
RTVSPost2010PropOp37
 70
     1
102
RTVSPost2010Prop38
140
0.0
102
RTVSPost2010PropOp38
 70
     1
102
RTVSPost2010Prop39
140
1.0
102
RTVSPost2010PropOp39
 70
     1
102
RTVSPost2010Prop40
 90
        0
102
RTVSPost2010PropOp40
 70
     1
102
RTVSPost2010Prop41ColorIndex
 90
       18
102
RTVSPost2010Prop41ColorRGB
 90
        0
102
RTVSPost2010PropOp41
 70
     1
102
RTVSPost2010Prop42
 90
       50
102
RTVSPost2010PropOp42
 70
     1
102
RTVSPost2010Prop43
 90
        3
102
RTVSPost2010PropOp43
 70
     1
102
RTVSPost2010Prop44ColorIndex
 90
        5
102
RTVSPost2010Prop44ColorRGB
 90
      255
102
RTVSPost2010PropOp44
 70
     1
102
RTVSPost2010Prop45
280
     0
102
RTVSPost2010PropOp45
 70
     1
102
RTVSPost2010Prop46
 90
       50
102
RTVSPost2010PropOp46
 70
     1
102
RTVSPost2010Prop47
 90
       50
102
RTVSPost2010PropOp47
 70
     1
102
RTVSPost2010Prop48
 90
       50
102
RTVSPost2010PropOp48
 70
     1
102
RTVSPost2010Prop49
280
     0
102
RTVSPost2010PropOp49
 70
     1
102
RTVSPost2010Prop50
 90
       50
102
RTVSPost2010PropOp50
 70
     1
102
RTVSPost2010Prop51ColorIndex
 90
      256
102
RTVSPost2010Prop51ColorRGB
 90
-16777216
102
RTVSPost2010PropOp51
 70
     0
102
RTVSPost2010Prop52
140
1.0
102
RTVSPost2010PropOp52
 70
     0
102
RTVSPost2010Prop53
 90
        2
102
RTVSPost2010PropOp53
 70
     1
102
RTVSPost2010Prop54
  1
strokes_ogs.tif
102
RTVSPost2010PropOp54
 70
     1
102
RTVSPost2010Prop55
280
     0
102
RTVSPost2010PropOp55
 70
     1
102
RTVSPost2010Prop56
140
1.0
102
RTVSPost2010PropOp56
 70
     1
102
RTVSPost2010Prop57
140
1.0
102
RTVSPost2010PropOp57
 70
     1
102
RTVSPropertyOp0
 70
     1
102
RTVSPropertyOp1
 70
     1
102
RTVSPropertyOp2
 70
     1
102
RTVSPropertyOp3
 70
     1
102
RTVSPropertyOp4
 70
     1
102
RTVSPropertyOp5
 70
     1
102
RTVSPropertyOp6
 70
     1
102
RTVSPropertyOp7
 70
     1
102
RTVSPropertyOp8
 70
     1
102
RTVSPropertyOp9
 70
     1
102
RTVSPropertyOp10
 70
     1
102
RTVSPropertyOp11
 70
     1
102
RTVSPropertyOp12
 70
     1
102
RTVSPropertyOp13
 70
     1
102
RTVSPropertyOp14
 70
     1
102
RTVSPropertyOp15
 70
     1
102
RTVSPropertyOp16
 70
     1
102
RTVSPropertyOp17
 70
     1
102
RTVSPropertyOp18
 70
     1
102
RTVSPropertyOp19
 70
     1
102
RTVSPropertyOp20
 70
     1
102
RTVSPropertyOp21
 70
     1
102
RTVSPropertyOp22
 70
     1
102
RTVSPropertyOp23
 70
     1
102
RTVSPropertyOp24
 70
     1
102
RTVSPropertyOp25
 70
     1
102
RTVSPropertyOp26
 70
     1
102
RTVSPropertyOp27
 70
     1
102
RTVSPropertyOp28
 70
     1
102
RTVSPropertyOp29
 70
     1
102
RTVSPropertyOp30
 70
     1
102
RTVSPropertyOp31
 70
     1
102
RTVSPropertyOp32
 70
     1
102
RTVSPropertyOp33
 70
     1
102
RTVSPropertyOp34
 70
     1
102
RTVSPropertyOp35
 70
     1
102
RTVSPropertyOp36
 70
     1
102
RTVSPropertyOp37
 70
     1
102
RTVSPropertyOp38
 70
     1
102
RTVSPropertyOp39
 70
     1
102
RTVSPropertyOp40
 70
     1
102
RTVSPropertyOp41
 70
     1
102
RTVSPropertyOp42
 70
     1
102
RTVSPropertyOp43
 70
     1
102
RTVSPropertyOp44
 70
     1
102
RTVSPropertyOp45
 70
     1
102
RTVSPropertyOp46
 70
     1
102
RTVSPropertyOp47
 70
     1
102
RTVSPropertyOp48
 70
     1
102
RTVSPropertyOp49
 70
     1
102
RTVSPropertyOp50
 70
     1
102
RTVSPropertyOp51
 70
     0
102
RTVSPropertyOp52
 70
     0
102
RTVSPropertyOp53
 70
     1
102
RTVSPropertyOp54
 70
     1
102
RTVSPropertyOp55
 70
     1
102
RTVSPropertyOp56
 70
     1
102
RTVSPropertyOp57
 70
     1
102
RTVSPropertyOp58
 70
     1
102
RTVSPropertyOp59
 70
     1
102
RTVSPropertyOp60
 70
     1
102
RTVSPropertyOp61
 70
     1
102
RTVSPropertyOp62
 70
     1
  0
XRECORD
  5
1A04
102
{ACAD_REACTORS
330
1A03
102
}
330
1A03
100
AcDbXrecord
280
     1
102
RTVSPost2010Prop28
280
     0
102
RTVSPost2010PropOp28
 70
     1
102
RTVSPost2010Prop29
280
     1
102
RTVSPost2010PropOp29
 70
     1
102
RTVSPost2010Prop30
280
     1
102
RTVSPost2010PropOp30
 70
     1
102
RTVSPost2010Prop31
280
     0
102
RTVSPost2010PropOp31
 70
     1
102
RTVSPost2010Prop32
280
     0
102
RTVSPost2010PropOp32
 70
     1
102
RTVSPost2010Prop33
280
     0
102
RTVSPost2010PropOp33
 70
     1
102
RTVSPost2010Prop34
280
     0
102
RTVSPost2010PropOp34
 70
     1
102
RTVSPost2010Prop35
280
     0
102
RTVSPost2010PropOp35
 70
     1
102
RTVSPost2010Prop36
280
     0
102
RTVSPost2010PropOp36
 70
     1
102
RTVSPost2010Prop37
 90
       50
102
RTVSPost2010PropOp37
 70
     1
102
RTVSPost2010Prop38
140
0.0
102
RTVSPost2010PropOp38
 70
     1
102
RTVSPost2010Prop39
140
1.0
102
RTVSPost2010PropOp39
 70
     1
102
RTVSPost2010Prop40
 90
        0
102
RTVSPost2010PropOp40
 70
     1
102
RTVSPost2010Prop41ColorIndex
 90
       18
102
RTVSPost2010Prop41ColorRGB
 90
        0
102
RTVSPost2010PropOp41
 70
     1
102
RTVSPost2010Prop42
 90
       50
102
RTVSPost2010PropOp42
 70
     1
102
RTVSPost2010Prop43
 90
        3
102
RTVSPost2010PropOp43
 70
     1
102
RTVSPost2010Prop44ColorIndex
 90
        5
102
RTVSPost2010Prop44ColorRGB
 90
      255
102
RTVSPost2010PropOp44
 70
     1
102
RTVSPost2010Prop45
280
     0
102
RTVSPost2010PropOp45
 70
     1
102
RTVSPost2010Prop46
 90
       50
102
RTVSPost2010PropOp46
 70
     1
102
RTVSPost2010Prop47
 90
       50
102
RTVSPost2010PropOp47
 70
     1
102
RTVSPost2010Prop48
 90
       50
102
RTVSPost2010PropOp48
 70
     1
102
RTVSPost2010Prop49
280
     0
102
RTVSPost2010PropOp49
 70
     1
102
RTVSPost2010Prop50
 90
       50
102
RTVSPost2010PropOp50
 70
     1
102
RTVSPost2010Prop51ColorIndex
 90
      256
102
RTVSPost2010Prop51ColorRGB
 90
-16777216
102
RTVSPost2010PropOp51
 70
     0
102
RTVSPost2010Prop52
140
1.0
102
RTVSPost2010PropOp52
 70
     0
102
RTVSPost2010Prop53
 90
        2
102
RTVSPost2010PropOp53
 70
     1
102
RTVSPost2010Prop54
  1
strokes_ogs.tif
102
RTVSPost2010PropOp54
 70
     1
102
RTVSPost2010Prop55
280
     0
102
RTVSPost2010PropOp55
 70
     1
102
RTVSPost2010Prop56
140
1.0
102
RTVSPost2010PropOp56
 70
     1
102
RTVSPost2010Prop57
140
1.0
102
RTVSPost2010PropOp57
 70
     1
102
RTVSPropertyOp0
 70
     1
102
RTVSPropertyOp1
 70
     1
102
RTVSPropertyOp2
 70
     1
102
RTVSPropertyOp3
 70
     1
102
RTVSPropertyOp4
 70
     1
102
RTVSPropertyOp5
 70
     1
102
RTVSPropertyOp6
 70
     1
102
RTVSPropertyOp7
 70
     1
102
RTVSPropertyOp8
 70
     1
102
RTVSPropertyOp9
 70
     1
102
RTVSPropertyOp10
 70
     1
102
RTVSPropertyOp11
 70
     1
102
RTVSPropertyOp12
 70
     1
102
RTVSPropertyOp13
 70
     1
102
RTVSPropertyOp14
 70
     1
102
RTVSPropertyOp15
 70
     1
102
RTVSPropertyOp16
 70
     1
102
RTVSPropertyOp17
 70
     1
102
RTVSPropertyOp18
 70
     1
102
RTVSPropertyOp19
 70
     1
102
RTVSPropertyOp20
 70
     1
102
RTVSPropertyOp21
 70
     1
102
RTVSPropertyOp22
 70
     1
102
RTVSPropertyOp23
 70
     1
102
RTVSPropertyOp24
 70
     1
102
RTVSPropertyOp25
 70
     1
102
RTVSPropertyOp26
 70
     1
102
RTVSPropertyOp27
 70
     1
102
RTVSPropertyOp28
 70
     1
102
RTVSPropertyOp29
 70
     1
102
RTVSPropertyOp30
 70
     1
102
RTVSPropertyOp31
 70
     1
102
RTVSPropertyOp32
 70
     1
102
RTVSPropertyOp33
 70
     1
102
RTVSPropertyOp34
 70
     1
102
RTVSPropertyOp35
 70
     1
102
RTVSPropertyOp36
 70
     1
102
RTVSPropertyOp37
 70
     1
102
RTVSPropertyOp38
 70
     1
102
RTVSPropertyOp39
 70
     1
102
RTVSPropertyOp40
 70
     1
102
RTVSPropertyOp41
 70
     1
102
RTVSPropertyOp42
 70
     1
102
RTVSPropertyOp43
 70
     1
102
RTVSPropertyOp44
 70
     1
102
RTVSPropertyOp45
 70
     1
102
RTVSPropertyOp46
 70
     1
102
RTVSPropertyOp47
 70
     1
102
RTVSPropertyOp48
 70
     1
102
RTVSPropertyOp49
 70
     1
102
RTVSPropertyOp50
 70
     1
102
RTVSPropertyOp51
 70
     0
102
RTVSPropertyOp52
 70
     0
102
RTVSPropertyOp53
 70
     1
102
RTVSPropertyOp54
 70
     1
102
RTVSPropertyOp55
 70
     1
102
RTVSPropertyOp56
 70
     1
102
RTVSPropertyOp57
 70
     1
102
RTVSPropertyOp58
 70
     1
102
RTVSPropertyOp59
 70
     1
102
RTVSPropertyOp60
 70
     1
102
RTVSPropertyOp61
 70
     1
102
RTVSPropertyOp62
 70
     1
  0
XRECORD
  5
1A0C
102
{ACAD_REACTORS
330
1A0B
102
}
330
1A0B
100
AcDbXrecord
280
     1
102
RTVSPost2010Prop28
280
     0
102
RTVSPost2010PropOp28
 70
     1
102
RTVSPost2010Prop29
280
     1
102
RTVSPost2010PropOp29
 70
     1
102
RTVSPost2010Prop30
280
     1
102
RTVSPost2010PropOp30
 70
     1
102
RTVSPost2010Prop31
280
     0
102
RTVSPost2010PropOp31
 70
     1
102
RTVSPost2010Prop32
280
     0
102
RTVSPost2010PropOp32
 70
     1
102
RTVSPost2010Prop33
280
     0
102
RTVSPost2010PropOp33
 70
     1
102
RTVSPost2010Prop34
280
     0
102
RTVSPost2010PropOp34
 70
     1
102
RTVSPost2010Prop35
280
     0
102
RTVSPost2010PropOp35
 70
     1
102
RTVSPost2010Prop36
280
     0
102
RTVSPost2010PropOp36
 70
     1
102
RTVSPost2010Prop37
 90
       50
102
RTVSPost2010PropOp37
 70
     1
102
RTVSPost2010Prop38
140
0.0
102
RTVSPost2010PropOp38
 70
     1
102
RTVSPost2010Prop39
140
1.0
102
RTVSPost2010PropOp39
 70
     1
102
RTVSPost2010Prop40
 90
        0
102
RTVSPost2010PropOp40
 70
     1
102
RTVSPost2010Prop41ColorIndex
 90
       18
102
RTVSPost2010Prop41ColorRGB
 90
        0
102
RTVSPost2010PropOp41
 70
     1
102
RTVSPost2010Prop42
 90
       50
102
RTVSPost2010PropOp42
 70
     1
102
RTVSPost2010Prop43
 90
        3
102
RTVSPost2010PropOp43
 70
     1
102
RTVSPost2010Prop44ColorIndex
 90
        5
102
RTVSPost2010Prop44ColorRGB
 90
      255
102
RTVSPost2010PropOp44
 70
     1
102
RTVSPost2010Prop45
280
     0
102
RTVSPost2010PropOp45
 70
     1
102
RTVSPost2010Prop46
 90
       50
102
RTVSPost2010PropOp46
 70
     1
102
RTVSPost2010Prop47
 90
       50
102
RTVSPost2010PropOp47
 70
     1
102
RTVSPost2010Prop48
 90
       50
102
RTVSPost2010PropOp48
 70
     1
102
RTVSPost2010Prop49
280
     0
102
RTVSPost2010PropOp49
 70
     1
102
RTVSPost2010Prop50
 90
       50
102
RTVSPost2010PropOp50
 70
     1
102
RTVSPost2010Prop51ColorIndex
 90
      256
102
RTVSPost2010Prop51ColorRGB
 90
-16777216
102
RTVSPost2010PropOp51
 70
     0
102
RTVSPost2010Prop52
140
1.0
102
RTVSPost2010PropOp52
 70
     0
102
RTVSPost2010Prop53
 90
        2
102
RTVSPost2010PropOp53
 70
     1
102
RTVSPost2010Prop54
  1
strokes_ogs.tif
102
RTVSPost2010PropOp54
 70
     1
102
RTVSPost2010Prop55
280
     0
102
RTVSPost2010PropOp55
 70
     1
102
RTVSPost2010Prop56
140
1.0
102
RTVSPost2010PropOp56
 70
     1
102
RTVSPost2010Prop57
140
1.0
102
RTVSPost2010PropOp57
 70
     1
102
RTVSPropertyOp0
 70
     1
102
RTVSPropertyOp1
 70
     1
102
RTVSPropertyOp2
 70
     1
102
RTVSPropertyOp3
 70
     1
102
RTVSPropertyOp4
 70
     1
102
RTVSPropertyOp5
 70
     1
102
RTVSPropertyOp6
 70
     1
102
RTVSPropertyOp7
 70
     1
102
RTVSPropertyOp8
 70
     1
102
RTVSPropertyOp9
 70
     1
102
RTVSPropertyOp10
 70
     1
102
RTVSPropertyOp11
 70
     1
102
RTVSPropertyOp12
 70
     1
102
RTVSPropertyOp13
 70
     1
102
RTVSPropertyOp14
 70
     1
102
RTVSPropertyOp15
 70
     1
102
RTVSPropertyOp16
 70
     1
102
RTVSPropertyOp17
 70
     1
102
RTVSPropertyOp18
 70
     1
102
RTVSPropertyOp19
 70
     1
102
RTVSPropertyOp20
 70
     1
102
RTVSPropertyOp21
 70
     1
102
RTVSPropertyOp22
 70
     1
102
RTVSPropertyOp23
 70
     1
102
RTVSPropertyOp24
 70
     1
102
RTVSPropertyOp25
 70
     1
102
RTVSPropertyOp26
 70
     1
102
RTVSPropertyOp27
 70
     1
102
RTVSPropertyOp28
 70
     1
102
RTVSPropertyOp29
 70
     1
102
RTVSPropertyOp30
 70
     1
102
RTVSPropertyOp31
 70
     1
102
RTVSPropertyOp32
 70
     1
102
RTVSPropertyOp33
 70
     1
102
RTVSPropertyOp34
 70
     1
102
RTVSPropertyOp35
 70
     1
102
RTVSPropertyOp36
 70
     1
102
RTVSPropertyOp37
 70
     1
102
RTVSPropertyOp38
 70
     1
102
RTVSPropertyOp39
 70
     1
102
RTVSPropertyOp40
 70
     1
102
RTVSPropertyOp41
 70
     1
102
RTVSPropertyOp42
 70
     1
102
RTVSPropertyOp43
 70
     1
102
RTVSPropertyOp44
 70
     1
102
RTVSPropertyOp45
 70
     1
102
RTVSPropertyOp46
 70
     1
102
RTVSPropertyOp47
 70
     1
102
RTVSPropertyOp48
 70
     1
102
RTVSPropertyOp49
 70
     1
102
RTVSPropertyOp50
 70
     1
102
RTVSPropertyOp51
 70
     0
102
RTVSPropertyOp52
 70
     0
102
RTVSPropertyOp53
 70
     1
102
RTVSPropertyOp54
 70
     1
102
RTVSPropertyOp55
 70
     1
102
RTVSPropertyOp56
 70
     1
102
RTVSPropertyOp57
 70
     1
102
RTVSPropertyOp58
 70
     1
102
RTVSPropertyOp59
 70
     1
102
RTVSPropertyOp60
 70
     1
102
RTVSPropertyOp61
 70
     1
102
RTVSPropertyOp62
 70
     1
  0
XRECORD
  5
1A14
102
{ACAD_REACTORS
330
1A13
102
}
330
1A13
100
AcDbXrecord
280
     1
102
RTVSPost2010Prop28
280
     0
102
RTVSPost2010PropOp28
 70
     1
102
RTVSPost2010Prop29
280
     1
102
RTVSPost2010PropOp29
 70
     1
102
RTVSPost2010Prop30
280
     1
102
RTVSPost2010PropOp30
 70
     1
102
RTVSPost2010Prop31
280
     0
102
RTVSPost2010PropOp31
 70
     1
102
RTVSPost2010Prop32
280
     0
102
RTVSPost2010PropOp32
 70
     1
102
RTVSPost2010Prop33
280
     0
102
RTVSPost2010PropOp33
 70
     1
102
RTVSPost2010Prop34
280
     0
102
RTVSPost2010PropOp34
 70
     1
102
RTVSPost2010Prop35
280
     0
102
RTVSPost2010PropOp35
 70
     1
102
RTVSPost2010Prop36
280
     0
102
RTVSPost2010PropOp36
 70
     1
102
RTVSPost2010Prop37
 90
       50
102
RTVSPost2010PropOp37
 70
     1
102
RTVSPost2010Prop38
140
0.0
102
RTVSPost2010PropOp38
 70
     1
102
RTVSPost2010Prop39
140
1.0
102
RTVSPost2010PropOp39
 70
     1
102
RTVSPost2010Prop40
 90
        0
102
RTVSPost2010PropOp40
 70
     1
102
RTVSPost2010Prop41ColorIndex
 90
       18
102
RTVSPost2010Prop41ColorRGB
 90
        0
102
RTVSPost2010PropOp41
 70
     1
102
RTVSPost2010Prop42
 90
       50
102
RTVSPost2010PropOp42
 70
     1
102
RTVSPost2010Prop43
 90
        3
102
RTVSPost2010PropOp43
 70
     1
102
RTVSPost2010Prop44ColorIndex
 90
        5
102
RTVSPost2010Prop44ColorRGB
 90
      255
102
RTVSPost2010PropOp44
 70
     1
102
RTVSPost2010Prop45
280
     0
102
RTVSPost2010PropOp45
 70
     1
102
RTVSPost2010Prop46
 90
       50
102
RTVSPost2010PropOp46
 70
     1
102
RTVSPost2010Prop47
 90
       50
102
RTVSPost2010PropOp47
 70
     1
102
RTVSPost2010Prop48
 90
       50
102
RTVSPost2010PropOp48
 70
     1
102
RTVSPost2010Prop49
280
     0
102
RTVSPost2010PropOp49
 70
     1
102
RTVSPost2010Prop50
 90
       50
102
RTVSPost2010PropOp50
 70
     1
102
RTVSPost2010Prop51ColorIndex
 90
      256
102
RTVSPost2010Prop51ColorRGB
 90
-16777216
102
RTVSPost2010PropOp51
 70
     0
102
RTVSPost2010Prop52
140
1.0
102
RTVSPost2010PropOp52
 70
     0
102
RTVSPost2010Prop53
 90
        2
102
RTVSPost2010PropOp53
 70
     1
102
RTVSPost2010Prop54
  1
strokes_ogs.tif
102
RTVSPost2010PropOp54
 70
     1
102
RTVSPost2010Prop55
280
     0
102
RTVSPost2010PropOp55
 70
     1
102
RTVSPost2010Prop56
140
1.0
102
RTVSPost2010PropOp56
 70
     1
102
RTVSPost2010Prop57
140
1.0
102
RTVSPost2010PropOp57
 70
     1
102
RTVSPropertyOp0
 70
     1
102
RTVSPropertyOp1
 70
     1
102
RTVSPropertyOp2
 70
     1
102
RTVSPropertyOp3
 70
     1
102
RTVSPropertyOp4
 70
     1
102
RTVSPropertyOp5
 70
     1
102
RTVSPropertyOp6
 70
     1
102
RTVSPropertyOp7
 70
     1
102
RTVSPropertyOp8
 70
     1
102
RTVSPropertyOp9
 70
     1
102
RTVSPropertyOp10
 70
     1
102
RTVSPropertyOp11
 70
     1
102
RTVSPropertyOp12
 70
     1
102
RTVSPropertyOp13
 70
     1
102
RTVSPropertyOp14
 70
     1
102
RTVSPropertyOp15
 70
     1
102
RTVSPropertyOp16
 70
     1
102
RTVSPropertyOp17
 70
     1
102
RTVSPropertyOp18
 70
     1
102
RTVSPropertyOp19
 70
     1
102
RTVSPropertyOp20
 70
     1
102
RTVSPropertyOp21
 70
     1
102
RTVSPropertyOp22
 70
     1
102
RTVSPropertyOp23
 70
     1
102
RTVSPropertyOp24
 70
     1
102
RTVSPropertyOp25
 70
     1
102
RTVSPropertyOp26
 70
     1
102
RTVSPropertyOp27
 70
     1
102
RTVSPropertyOp28
 70
     1
102
RTVSPropertyOp29
 70
     1
102
RTVSPropertyOp30
 70
     1
102
RTVSPropertyOp31
 70
     1
102
RTVSPropertyOp32
 70
     1
102
RTVSPropertyOp33
 70
     1
102
RTVSPropertyOp34
 70
     1
102
RTVSPropertyOp35
 70
     1
102
RTVSPropertyOp36
 70
     1
102
RTVSPropertyOp37
 70
     1
102
RTVSPropertyOp38
 70
     1
102
RTVSPropertyOp39
 70
     1
102
RTVSPropertyOp40
 70
     1
102
RTVSPropertyOp41
 70
     1
102
RTVSPropertyOp42
 70
     1
102
RTVSPropertyOp43
 70
     1
102
RTVSPropertyOp44
 70
     1
102
RTVSPropertyOp45
 70
     1
102
RTVSPropertyOp46
 70
     1
102
RTVSPropertyOp47
 70
     1
102
RTVSPropertyOp48
 70
     1
102
RTVSPropertyOp49
 70
     1
102
RTVSPropertyOp50
 70
     1
102
RTVSPropertyOp51
 70
     0
102
RTVSPropertyOp52
 70
     0
102
RTVSPropertyOp53
 70
     1
102
RTVSPropertyOp54
 70
     1
102
RTVSPropertyOp55
 70
     1
102
RTVSPropertyOp56
 70
     1
102
RTVSPropertyOp57
 70
     1
102
RTVSPropertyOp58
 70
     1
102
RTVSPropertyOp59
 70
     1
102
RTVSPropertyOp60
 70
     1
102
RTVSPropertyOp61
 70
     1
102
RTVSPropertyOp62
 70
     1
  0
ENDSEC
  0
EOF
