  0
SECTION
  2
HEADER
  9
$ACADVER
  1
AC1018
  9
$ACADMAINTVER
 70
   104
  9
$DWGCODEPAGE
  3
ANSI_1252
  9
$LASTSAVEDBY
  1
kaschu
  9
$INSBASE
 10
0.0
 20
0.0
 30
0.0
  9
$EXTMIN
 10
235.5583611205794
 20
123.749718111877
 30
-0.0000000000002567
  9
$EXTMAX
 10
1973.787223846165
 20
2408.99933736742
 30
0.0000000000002486
  9
$LIMMIN
 10
0.0
 20
0.0
  9
$LIMMAX
 10
420.0
 20
297.0
  9
$ORTHOMODE
 70
     0
  9
$REGENMODE
 70
     1
  9
$FILLMODE
 70
     1
  9
$QTEXTMODE
 70
     0
  9
$MIRRTEXT
 70
     0
  9
$LTSCALE
 40
1.0
  9
$ATTMODE
 70
     1
  9
$TEXTSIZE
 40
2.5
  9
$TRACEWID
 40
1.0
  9
$TEXTSTYLE
  7
Standard
  9
$CLAYER
  8
0
  9
$CELTYPE
  6
ByLayer
  9
$CECOLOR
 62
   256
  9
$CELTSCALE
 40
1.0
  9
$DISPSILH
 70
     0
  9
$DIMSCALE
 40
1.0
  9
$DIMASZ
 40
2.5
  9
$DIMEXO
 40
0.625
  9
$DIMDLI
 40
3.75
  9
$DIMRND
 40
0.0
  9
$DIMDLE
 40
0.0
  9
$DIMEXE
 40
1.25
  9
$DIMTP
 40
0.0
  9
$DIMTM
 40
0.0
  9
$DIMTXT
 40
2.5
  9
$DIMCEN
 40
2.5
  9
$DIMTSZ
 40
0.0
  9
$DIMTOL
 70
     0
  9
$DIMLIM
 70
     0
  9
$DIMTIH
 70
     0
  9
$DIMTOH
 70
     0
  9
$DIMSE1
 70
     0
  9
$DIMSE2
 70
     0
  9
$DIMTAD
 70
     1
  9
$DIMZIN
 70
     8
  9
$DIMBLK
  1

  9
$DIMASO
 70
     1
  9
$DIMSHO
 70
     1
  9
$DIMPOST
  1

  9
$DIMAPOST
  1

  9
$DIMALT
 70
     0
  9
$DIMALTD
 70
     3
  9
$DIMALTF
 40
0.03937007874016
  9
$DIMLFAC
 40
1.0
  9
$DIMTOFL
 70
     1
  9
$DIMTVP
 40
0.0
  9
$DIMTIX
 70
     0
  9
$DIMSOXD
 70
     0
  9
$DIMSAH
 70
     0
  9
$DIMBLK1
  1

  9
$DIMBLK2
  1

  9
$DIMSTYLE
  2
ISO-25
  9
$DIMCLRD
 70
     0
  9
$DIMCLRE
 70
     0
  9
$DIMCLRT
 70
     0
  9
$DIMTFAC
 40
1.0
  9
$DIMGAP
 40
0.625
  9
$DIMJUST
 70
     0
  9
$DIMSD1
 70
     0
  9
$DIMSD2
 70
     0
  9
$DIMTOLJ
 70
     0
  9
$DIMTZIN
 70
     8
  9
$DIMALTZ
 70
     0
  9
$DIMALTTZ
 70
     0
  9
$DIMUPT
 70
     0
  9
$DIMDEC
 70
     2
  9
$DIMTDEC
 70
     2
  9
$DIMALTU
 70
     2
  9
$DIMALTTD
 70
     3
  9
$DIMTXSTY
  7
Standard
  9
$DIMAUNIT
 70
     0
  9
$DIMADEC
 70
     0
  9
$DIMALTRND
 40
0.0
  9
$DIMAZIN
 70
     0
  9
$DIMDSEP
 70
    44
  9
$DIMATFIT
 70
     3
  9
$DIMFRAC
 70
     0
  9
$DIMLDRBLK
  1

  9
$DIMLUNIT
 70
     2
  9
$DIMLWD
 70
    -2
  9
$DIMLWE
 70
    -2
  9
$DIMTMOVE
 70
     0
  9
$LUNITS
 70
     2
  9
$LUPREC
 70
     4
  9
$SKETCHINC
 40
1.0
  9
$FILLETRAD
 40
0.0
  9
$AUNITS
 70
     0
  9
$AUPREC
 70
     0
  9
$MENU
  1
.
  9
$ELEVATION
 40
0.0
  9
$PELEVATION
 40
0.0
  9
$THICKNESS
 40
0.0
  9
$LIMCHECK
 70
     0
  9
$CHAMFERA
 40
0.0
  9
$CHAMFERB
 40
0.0
  9
$CHAMFERC
 40
0.0
  9
$CHAMFERD
 40
0.0
  9
$SKPOLY
 70
     0
  9
$TDCREATE
 40
2454768.552548658
  9
$TDUCREATE
 40
2454768.469215324
  9
$TDUPDATE
 40
2457302.653748854
  9
$TDUUPDATE
 40
2457302.570415521
  9
$TDINDWG
 40
0.1221414468
  9
$TDUSRTIMER
 40
0.1221394329
  9
$USRTIMER
 70
     1
  9
$ANGBASE
 50
0.0
  9
$ANGDIR
 70
     0
  9
$PDMODE
 70
     0
  9
$PDSIZE
 40
0.0
  9
$PLINEWID
 40
0.0
  9
$SPLFRAME
 70
     0
  9
$SPLINETYPE
 70
     6
  9
$SPLINESEGS
 70
     8
  9
$HANDSEED
  5
1EF9
  9
$SURFTAB1
 70
     6
  9
$SURFTAB2
 70
     6
  9
$SURFTYPE
 70
     6
  9
$SURFU
 70
     6
  9
$SURFV
 70
     6
  9
$UCSBASE
  2

  9
$UCSNAME
  2

  9
$UCSORG
 10
0.0
 20
0.0
 30
0.0
  9
$UCSXDIR
 10
1.0
 20
0.0
 30
0.0
  9
$UCSYDIR
 10
0.0
 20
1.0
 30
0.0
  9
$UCSORTHOREF
  2

  9
$UCSORTHOVIEW
 70
     0
  9
$UCSORGTOP
 10
0.0
 20
0.0
 30
0.0
  9
$UCSORGBOTTOM
 10
0.0
 20
0.0
 30
0.0
  9
$UCSORGLEFT
 10
0.0
 20
0.0
 30
0.0
  9
$UCSORGRIGHT
 10
0.0
 20
0.0
 30
0.0
  9
$UCSORGFRONT
 10
0.0
 20
0.0
 30
0.0
  9
$UCSORGBACK
 10
0.0
 20
0.0
 30
0.0
  9
$PUCSBASE
  2

  9
$PUCSNAME
  2

  9
$PUCSORG
 10
0.0
 20
0.0
 30
0.0
  9
$PUCSXDIR
 10
1.0
 20
0.0
 30
0.0
  9
$PUCSYDIR
 10
0.0
 20
1.0
 30
0.0
  9
$PUCSORTHOREF
  2

  9
$PUCSORTHOVIEW
 70
     0
  9
$PUCSORGTOP
 10
0.0
 20
0.0
 30
0.0
  9
$PUCSORGBOTTOM
 10
0.0
 20
0.0
 30
0.0
  9
$PUCSORGLEFT
 10
0.0
 20
0.0
 30
0.0
  9
$PUCSORGRIGHT
 10
0.0
 20
0.0
 30
0.0
  9
$PUCSORGFRONT
 10
0.0
 20
0.0
 30
0.0
  9
$PUCSORGBACK
 10
0.0
 20
0.0
 30
0.0
  9
$USERI1
 70
     0
  9
$USERI2
 70
     0
  9
$USERI3
 70
     0
  9
$USERI4
 70
     0
  9
$USERI5
 70
     0
  9
$USERR1
 40
0.0
  9
$USERR2
 40
0.0
  9
$USERR3
 40
0.0
  9
$USERR4
 40
0.0
  9
$USERR5
 40
0.0
  9
$WORLDVIEW
 70
     1
  9
$SHADEDGE
 70
     3
  9
$SHADEDIF
 70
    70
  9
$TILEMODE
 70
     1
  9
$MAXACTVP
 70
    64
  9
$PINSBASE
 10
0.0
 20
0.0
 30
0.0
  9
$PLIMCHECK
 70
     0
  9
$PEXTMIN
 10
0.0
 20
0.0
 30
0.0
  9
$PEXTMAX
 10
0.0
 20
0.0
 30
0.0
  9
$PLIMMIN
 10
0.0
 20
0.0
  9
$PLIMMAX
 10
12.0
 20
9.0
  9
$UNITMODE
 70
     0
  9
$VISRETAIN
 70
     1
  9
$PLINEGEN
 70
     0
  9
$PSLTSCALE
 70
     1
  9
$TREEDEPTH
 70
  3020
  9
$CMLSTYLE
  2
Standard
  9
$CMLJUST
 70
     0
  9
$CMLSCALE
 40
20.0
  9
$PROXYGRAPHICS
 70
     1
  9
$MEASUREMENT
 70
     1
  9
$CELWEIGHT
370
    -1
  9
$ENDCAPS
280
     0
  9
$JOINSTYLE
280
     0
  9
$LWDISPLAY
290
     0
  9
$INSUNITS
 70
     4
  9
$HYPERLINKBASE
  1

  9
$STYLESHEET
  1

  9
$XEDIT
290
     1
  9
$CEPSNTYPE
380
     0
  9
$PSTYLEMODE
290
     1
  9
$FINGERPRINTGUID
  2
{A9F5D530-972F-4813-857A-78B9B08CAD27}
  9
$VERSIONGUID
  2
{09B02556-F36A-48D7-9B70-83DBE7D2B861}
  9
$EXTNAMES
290
     1
  9
$PSVPSCALE
 40
0.0
  9
$OLESTARTUP
290
     0
  9
$SORTENTS
280
   127
  9
$INDEXCTL
280
     0
  9
$HIDETEXT
280
     1
  9
$XCLIPFRAME
290
     0
  9
$HALOGAP
280
     0
  9
$OBSCOLOR
 70
   257
  9
$OBSLTYPE
280
     0
  9
$INTERSECTIONDISPLAY
280
     0
  9
$INTERSECTIONCOLOR
 70
   257
  9
$DIMASSOC
280
     2
  9
$PROJECTNAME
  1

  0
ENDSEC
  0
SECTION
  2
CLASSES
  0
CLASS
  1
ACDBDICTIONARYWDFLT
  2
AcDbDictionaryWithDefault
  3
ObjectDBX Classes
 90
        0
 91
        1
280
     0
281
     0
  0
CLASS
  1
DICTIONARYVAR
  2
AcDbDictionaryVar
  3
ObjectDBX Classes
 90
        0
 91
       16
280
     0
281
     0
  0
CLASS
  1
TABLESTYLE
  2
AcDbTableStyle
  3
ObjectDBX Classes
 90
     4095
 91
        1
280
     0
281
     0
  0
CLASS
  1
MATERIAL
  2
AcDbMaterial
  3
ObjectDBX Classes
 90
     1153
 91
        3
280
     0
281
     0
  0
CLASS
  1
VISUALSTYLE
  2
AcDbVisualStyle
  3
ObjectDBX Classes
 90
     4095
 91
       26
280
     0
281
     0
  0
CLASS
  1
SORTENTSTABLE
  2
AcDbSortentsTable
  3
ObjectDBX Classes
 90
        0
 91
        1
280
     0
281
     0
  0
CLASS
  1
DIMASSOC
  2
AcDbDimAssoc
  3
"AcDbDimAssoc|Product Desc:     AcDim ARX App For Dimension|Company:          Autodesk, Inc.|WEB Address:      www.autodesk.com"
 90
        0
 91
        1
280
     0
281
     0
  0
CLASS
  1
SCALE
  2
AcDbScale
  3
ObjectDBX Classes
 90
     1153
 91
       17
280
     0
281
     0
  0
CLASS
  1
MLEADERSTYLE
  2
AcDbMLeaderStyle
  3
ACDB_MLEADERSTYLE_CLASS
 90
     4095
 91
        1
280
     0
281
     0
  0
CLASS
  1
ACDBSECTIONVIEWSTYLE
  2
AcDbSectionViewStyle
  3
ObjectDBX Classes
 90
     1025
 91
        1
280
     0
281
     0
  0
CLASS
  1
ACDBDETAILVIEWSTYLE
  2
AcDbDetailViewStyle
  3
ObjectDBX Classes
 90
     1025
 91
        1
280
     0
281
     0
  0
CLASS
  1
CELLSTYLEMAP
  2
AcDbCellStyleMap
  3
ObjectDBX Classes
 90
     1152
 91
        1
280
     0
281
     0
  0
ENDSEC
  0
SECTION
  2
TABLES
  0
TABLE
  2
VPORT
  5
8
330
0
100
AcDbSymbolTable
 70
     1
  0
VPORT
  5
EA
330
8
100
AcDbSymbolTableRecord
100
AcDbViewportTableRecord
  2
*Active
 70
     0
 10
0.0
 20
0.0
 11
1.0
 21
1.0
 12
1761.025930983813
 22
1625.980048104807
 13
0.0
 23
0.0
 14
10.0
 24
10.0
 15
10.0
 25
10.0
 16
0.0
 26
0.0
 36
1.0
 17
0.0
 27
0.0
 37
0.0
 40
4158.043988986102
 41
1.983850931677018
 42
50.0
 43
0.0
 44
0.0
 50
0.0
 51
0.0
 71
     0
 72
  1000
 73
     1
 74
     3
 75
     0
 76
     0
 77
     0
 78
     0
281
     0
 65
     1
110
0.0
120
0.0
130
0.0
111
1.0
121
0.0
131
0.0
112
0.0
122
1.0
132
0.0
 79
     0
146
0.0
1001
ACAD_NAV_VCDISPLAY
1070
     3
  0
ENDTAB
  0
TABLE
  2
LTYPE
  5
5
330
0
100
AcDbSymbolTable
 70
     1
  0
LTYPE
  5
14
330
5
100
AcDbSymbolTableRecord
100
AcDbLinetypeTableRecord
  2
ByBlock
 70
     0
  3

 72
    65
 73
     0
 40
0.0
  0
LTYPE
  5
15
330
5
100
AcDbSymbolTableRecord
100
AcDbLinetypeTableRecord
  2
ByLayer
 70
     0
  3

 72
    65
 73
     0
 40
0.0
  0
LTYPE
  5
16
330
5
100
AcDbSymbolTableRecord
100
AcDbLinetypeTableRecord
  2
Continuous
 70
     0
  3
Solid line
 72
    65
 73
     0
 40
0.0
  0
ENDTAB
  0
TABLE
  2
LAYER
  5
2
102
{ACAD_XDICTIONARY
360
141
102
}
330
0
100
AcDbSymbolTable
 70
     3
  0
LAYER
  5
10
102
{ACAD_XDICTIONARY
360
1E4E
102
}
330
2
100
AcDbSymbolTableRecord
100
AcDbLayerTableRecord
  2
0
 70
     0
 62
     7
  6
Continuous
370
    -3
390
F
  0
LAYER
  5
124
330
2
100
AcDbSymbolTableRecord
100
AcDbLayerTableRecord
  2
Defpoints
 70
     0
 62
     7
  6
Continuous
290
     0
370
    -3
390
F
  0
LAYER
  5
13E
102
{ACAD_XDICTIONARY
360
1E50
102
}
330
2
100
AcDbSymbolTableRecord
100
AcDbLayerTableRecord
  2
Hewi
 70
     0
 62
     7
  6
Continuous
370
    -3
390
F
  0
ENDTAB
  0
TABLE
  2
STYLE
  5
3
330
0
100
AcDbSymbolTable
 70
     1
  0
STYLE
  5
11
330
3
100
AcDbSymbolTableRecord
100
AcDbTextStyleTableRecord
  2
Standard
 70
     0
 40
0.0
 41
1.0
 50
0.0
 71
     0
 42
2.5
  3
txt
  4

  0
ENDTAB
  0
TABLE
  2
VIEW
  5
6
330
0
100
AcDbSymbolTable
 70
     0
  0
ENDTAB
  0
TABLE
  2
UCS
  5
7
330
0
100
AcDbSymbolTable
 70
     0
  0
ENDTAB
  0
TABLE
  2
APPID
  5
9
330
0
100
AcDbSymbolTable
 70
     5
  0
APPID
  5
12
330
9
100
AcDbSymbolTableRecord
100
AcDbRegAppTableRecord
  2
ACAD
 70
     0
  0
APPID
  5
9E
330
9
100
AcDbSymbolTableRecord
100
AcDbRegAppTableRecord
  2
ACAD_PSEXT
 70
     0
  0
APPID
  5
212
330
9
100
AcDbSymbolTableRecord
100
AcDbRegAppTableRecord
  2
ACAD_EXEMPT_FROM_CAD_STANDARDS
 70
     0
  0
APPID
  5
1E59
330
9
100
AcDbSymbolTableRecord
100
AcDbRegAppTableRecord
  2
ACAD_NAV_VCDISPLAY
 70
     0
  0
APPID
  5
1E99
330
9
100
AcDbSymbolTableRecord
100
AcDbRegAppTableRecord
  2
ACAD_MLEADERVER
 70
     0
  0
ENDTAB
  0
TABLE
  2
DIMSTYLE
  5
A
330
0
100
AcDbSymbolTable
 70
     2
100
AcDbDimStyleTable
 71
     1
340
27
  0
DIMSTYLE
105
27
330
A
100
AcDbSymbolTableRecord
100
AcDbDimStyleTableRecord
  2
ISO-25
 70
     0
 41
2.5
 42
0.625
 43
3.75
 44
1.25
 73
     0
 74
     0
 77
     1
 78
     8
140
2.5
141
2.5
143
0.03937007874016
147
0.625
171
     3
172
     1
271
     2
272
     2
274
     3
278
    44
283
     0
284
     8
340
11
  0
DIMSTYLE
105
254
330
A
100
AcDbSymbolTableRecord
100
AcDbDimStyleTableRecord
  2
Standard
 70
     0
340
11
  0
ENDTAB
  0
TABLE
  2
BLOCK_RECORD
  5
1
330
0
100
AcDbSymbolTable
 70
     2
  0
BLOCK_RECORD
  5
1F
102
{ACAD_XDICTIONARY
360
116
102
}
330
1
100
AcDbSymbolTableRecord
100
AcDbBlockTableRecord
  2
*Model_Space
340
22
  0
BLOCK_RECORD
  5
D2
330
1
100
AcDbSymbolTableRecord
100
AcDbBlockTableRecord
  2
*Paper_Space
340
D3
  0
BLOCK_RECORD
  5
D6
330
1
100
AcDbSymbolTableRecord
100
AcDbBlockTableRecord
  2
*Paper_Space0
340
D7
  0
BLOCK_RECORD
  5
1EA8
330
1
100
AcDbSymbolTableRecord
100
AcDbBlockTableRecord
  2
*D1
340
0
  0
ENDTAB
  0
ENDSEC
  0
SECTION
  2
BLOCKS
  0
BLOCK
  5
20
330
1F
100
AcDbEntity
  8
0
100
AcDbBlockBegin
  2
*Model_Space
 70
     0
 10
0.0
 20
0.0
 30
0.0
  3
*Model_Space
  1

  0
ENDBLK
  5
21
330
1F
100
AcDbEntity
  8
0
100
AcDbBlockEnd
  0
BLOCK
  5
D4
330
D2
100
AcDbEntity
 67
     1
  8
0
100
AcDbBlockBegin
  2
*Paper_Space
 70
     0
 10
0.0
 20
0.0
 30
0.0
  3
*Paper_Space
  1

  0
ENDBLK
  5
D5
330
D2
100
AcDbEntity
 67
     1
  8
0
100
AcDbBlockEnd
  0
BLOCK
  5
D8
330
D6
100
AcDbEntity
 67
     1
  8
0
100
AcDbBlockBegin
  2
*Paper_Space0
 70
     0
 10
0.0
 20
0.0
 30
0.0
  3
*Paper_Space0
  1

  0
ENDBLK
  5
D9
330
D6
100
AcDbEntity
 67
     1
  8
0
100
AcDbBlockEnd
  0
BLOCK
  5
1EA9
330
1EA8
100
AcDbEntity
  8
0
100
AcDbBlockBegin
  2
*D1
 70
     1
 10
0.0
 20
0.0
 30
0.0
  3
*D1
  1

  0
LINE
  5
1EB5
330
1EA8
100
AcDbEntity
  8
0
 62
     0
440
 16777216
370
    -2
100
AcDbLine
 10
517.6800132392664
 20
2408.99933736742
 30
0.0
 11
1054.2206254712
 21
2408.999337367419
 31
0.0
  0
LINE
  5
1EB6
330
1EA8
100
AcDbEntity
  8
0
 62
     0
440
 16777216
370
    -2
100
AcDbLine
 10
998.1833611205791
 20
1158.99933736742
 30
0.0
 11
1054.2206254712
 21
1158.99933736742
 31
0.0
  0
LINE
  5
1EB7
330
1EA8
100
AcDbEntity
  8
0
 62
     0
440
 16777216
370
    -2
100
AcDbLine
 10
1052.9706254712
 20
2406.499337367419
 30
0.0
 11
1052.9706254712
 21
1161.49933736742
 31
0.0
  0
SOLID
  5
1EB8
330
1EA8
100
AcDbEntity
  8
0
 62
     0
440
 16777216
100
AcDbTrace
 10
1052.553958804533
 20
2406.499337367419
 30
0.0
 11
1053.387292137867
 21
2406.499337367419
 31
0.0
 12
1052.9706254712
 22
2408.999337367419
 32
0.0
 13
1052.9706254712
 23
2408.999337367419
 33
0.0
  0
SOLID
  5
1EB9
330
1EA8
100
AcDbEntity
  8
0
 62
     0
440
 16777216
100
AcDbTrace
 10
1052.553958804533
 20
1161.49933736742
 30
0.0
 11
1053.387292137867
 21
1161.49933736742
 31
0.0
 12
1052.9706254712
 22
1158.99933736742
 32
0.0
 13
1052.9706254712
 23
1158.99933736742
 33
0.0
  0
MTEXT
  5
1EBA
330
1EA8
100
AcDbEntity
  8
0
 62
     0
440
 16777216
100
AcDbMText
 10
1051.0956254712
 20
1783.99933736742
 30
0.0
 40
2.5
 41
0.0
 71
     5
 72
     1
  1
1250
 11
0.0000000000000001
 21
1.0
 31
0.0
 73
     1
 44
1.0
  0
POINT
  5
1EBB
330
1EA8
100
AcDbEntity
  8
Defpoints
 62
     0
440
 16777216
100
AcDbPoint
 10
517.0550132392665
 20
2408.99933736742
 30
0.0
  0
POINT
  5
1EBC
330
1EA8
100
AcDbEntity
  8
Defpoints
 62
     0
440
 16777216
100
AcDbPoint
 10
997.5583611205792
 20
1158.99933736742
 30
0.0000000000000001
  0
POINT
  5
1EBD
330
1EA8
100
AcDbEntity
  8
Defpoints
 62
     0
440
 16777216
100
AcDbPoint
 10
1052.9706254712
 20
1158.99933736742
 30
0.0
  0
ENDBLK
  5
1EAA
330
1EA8
100
AcDbEntity
  8
0
100
AcDbBlockEnd
  0
ENDSEC
  0
SECTION
  2
ENTITIES
  0
LINE
  5
10AD
330
1F
100
AcDbEntity
  8
Hewi
100
AcDbLine
 10
817.5583611205791
 20
828.7588598267712
 30
0.0
 11
817.5583611205791
 21
872.7494934473316
 31
0.0
  0
LINE
  5
10AE
330
1F
100
AcDbEntity
  8
Hewi
100
AcDbLine
 10
799.5583611205792
 20
872.7494456716621
 30
0.0
 11
799.5583611205792
 21
828.7503679514729
 31
0.0
  0
LINE
  5
10B3
330
1F
100
AcDbEntity
  8
Hewi
100
AcDbLine
 10
327.7062975394392
 20
795.7497181118766
 30
0.0
 11
490.8550132392673
 21
795.7497181118766
 31
0.0
  0
LINE
  5
10B5
330
1F
100
AcDbEntity
  8
Hewi
100
AcDbLine
 10
799.555975897877
 20
828.7497181118766
 30
0.0
 11
538.1854501493433
 21
828.7495520652216
 31
0.0
  0
LINE
  5
10B6
330
1F
100
AcDbEntity
  8
Hewi
100
AcDbLine
 10
874.5602637715341
 20
828.7497181118766
 30
0.0
 11
817.3851216498286
 21
828.7497181118766
 31
0.0
  0
LINE
  5
10BB
330
1F
100
AcDbEntity
  8
Hewi
100
AcDbLine
 10
848.5583611205791
 20
874.7497181118767
 30
0.0
 11
848.5583611205791
 21
885.749718111877
 31
0.0
  0
LINE
  5
10BC
330
1F
100
AcDbEntity
  8
Hewi
100
AcDbLine
 10
768.5583611205792
 20
885.749718111877
 30
0.0
 11
768.5583611205792
 21
874.7497181118767
 31
0.0
  0
LINE
  5
10C1
330
1F
100
AcDbEntity
  8
Hewi
100
AcDbLine
 10
875.060263771534
 20
796.2497181118766
 30
0.0
 11
875.060263771534
 21
828.2497181118769
 31
0.0
  0
LINE
  5
10CB
330
1F
100
AcDbEntity
  8
Hewi
100
AcDbLine
 10
875.0583611205792
 20
812.2497181118767
 30
0.0
 11
875.0583611205792
 21
828.2497161842284
 31
0.0
  0
LINE
  5
10CC
330
1F
100
AcDbEntity
  8
Hewi
100
AcDbLine
 10
875.0583611205792
 20
812.2497181118767
 30
0.0
 11
875.0583611205792
 21
828.2497181118769
 31
0.0
  0
LINE
  5
10CE
330
1F
100
AcDbEntity
  8
Hewi
100
AcDbLine
 10
770.5583611205792
 20
872.7497181118769
 30
0.0
 11
846.5583611205794
 21
872.7497181118769
 31
0.0
  0
LINE
  5
10CF
330
1F
100
AcDbEntity
  8
Hewi
100
AcDbLine
 10
768.5583611205792
 20
885.749718111877
 30
0.0
 11
848.5583611205791
 21
885.749718111877
 31
0.0
  0
LINE
  5
1129
330
1F
100
AcDbEntity
  8
Hewi
100
AcDbLine
 10
941.1926144211747
 20
1142.499337367421
 30
-0.0000000000000102
 11
957.1025169978666
 21
1142.499337367421
 31
0.0000000000000085
  0
LINE
  5
112A
330
1F
100
AcDbEntity
  8
Hewi
100
AcDbLine
 10
957.1025169978666
 20
1175.49933736742
 30
0.0000000000000105
 11
941.1926144211747
 21
1175.49933736742
 31
-0.0000000000000081
  0
LINE
  5
112B
330
1F
100
AcDbEntity
  8
Hewi
100
AcDbLine
 10
996.389521457705
 20
1118.99933736742
 30
-0.0000000000000038
 11
997.5583611205792
 21
1118.99933736742
 31
-0.0000000000000024
  0
LINE
  5
112C
330
1F
100
AcDbEntity
  8
Hewi
100
AcDbLine
 10
986.5583611205792
 20
1118.99933736742
 30
-0.0000000000000154
 11
990.7039252324311
 21
1118.99933736742
 31
-0.0000000000000105
  0
LINE
  5
112D
330
1F
100
AcDbEntity
  8
Hewi
100
AcDbLine
 10
997.5583611205792
 20
1198.99933736742
 30
0.0000000000000025
 11
986.5583611205792
 21
1198.99933736742
 31
-0.0000000000000105
  0
LINE
  5
112E
330
1F
100
AcDbEntity
  8
Hewi
100
AcDbLine
 10
967.2348193003701
 20
1149.99933736742
 30
-0.0000000000000126
 11
984.5576487126956
 21
1149.99933736742
 31
-0.0000000000000119
  0
LINE
  5
112F
330
1F
100
AcDbEntity
  8
Hewi
100
AcDbLine
 10
984.557602840533
 20
1167.99933736742
 30
-0.0000000000000107
 11
967.2343192890684
 21
1167.99933736742
 31
-0.0000000000000113
  0
LINE
  5
1130
330
1F
100
AcDbEntity
  8
Hewi
100
AcDbLine
 10
924.0583611205792
 20
1142.499337367421
 30
-0.0000000000000019
 11
941.1926144211747
 21
1142.499337367421
 31
-0.0000000000000102
  0
LINE
  5
1131
330
1F
100
AcDbEntity
  8
Hewi
100
AcDbLine
 10
941.1926144211747
 20
1175.49933736742
 30
-0.0000000000000081
 11
924.0583611205792
 21
1175.49933736742
 31
0.0000000000000002
  0
LINE
  5
1133
330
1F
100
AcDbEntity
  8
Hewi
100
AcDbLine
 10
984.5583611205793
 20
1196.999337367421
 30
-0.0000000000000129
 11
984.5583611205793
 21
1120.99933736742
 31
-0.0000000000000176
  0
LINE
  5
1134
330
1F
100
AcDbEntity
  8
Hewi
100
AcDbLine
 10
997.5583611205792
 20
1198.99933736742
 30
0.0000000000000025
 11
997.5583611205792
 21
1118.99933736742
 31
-0.0000000000000024
  0
LINE
  5
1135
330
1F
100
AcDbEntity
  8
Hewi
100
AcDbLine
 10
994.9315355819701
 20
1119.031122053317
 30
-0.0000000000000055
 11
994.9315355819701
 21
1118.985905853185
 31
-0.0000000000000055
  0
LINE
  5
1136
330
1F
100
AcDbEntity
  8
Hewi
100
AcDbLine
 10
993.3307346152568
 20
1118.971748997441
 30
-0.0000000000000073
 11
993.3307346152568
 21
1119.045286819802
 31
-0.0000000000000073
  0
ARC
  5
113A
330
1F
100
AcDbEntity
  8
Hewi
100
AcDbCircle
 10
875.5583611205791
 20
796.2497181118766
 30
0.0
 40
0.5
100
AcDbArc
 50
183.5349391366616
 51
270.0
  0
ARC
  5
113B
330
1F
100
AcDbEntity
  8
Hewi
100
AcDbCircle
 10
875.5583611205791
 20
828.2497181118769
 30
0.0
 40
0.5
100
AcDbArc
 50
90.0
 51
176.4650608633384
  0
ARC
  5
1140
330
1F
100
AcDbEntity
  8
Hewi
100
AcDbCircle
 10
846.5583611205794
 20
874.7497181118767
 30
0.0
 40
2.0
100
AcDbArc
 50
270.0
 51
0.0
  0
ARC
  5
1141
330
1F
100
AcDbEntity
  8
Hewi
100
AcDbCircle
 10
770.5583611205792
 20
874.7497181118767
 30
0.0
 40
2.0
100
AcDbArc
 50
180.0
 51
270.0
  0
ARC
  5
1152
330
1F
100
AcDbEntity
  8
Hewi
100
AcDbCircle
 10
874.5602637715341
 20
828.2497181118769
 30
0.0
 40
0.5
100
AcDbArc
 50
3.53493913666162
 51
90.0
  0
ARC
  5
1153
330
1F
100
AcDbEntity
  8
Hewi
100
AcDbCircle
 10
874.5602637715341
 20
796.2497181118766
 30
0.0
 40
0.5
100
AcDbArc
 50
270.0
 51
356.4650608633384
  0
ARC
  5
116A
330
1F
100
AcDbEntity
  8
Hewi
100
AcDbCircle
 10
986.5583611205792
 20
1120.99933736742
 30
-0.0000000000001858
 40
2.0
100
AcDbArc
 50
180.0
 51
270.0
  0
ARC
  5
116B
330
1F
100
AcDbEntity
  8
Hewi
100
AcDbCircle
 10
986.5583611205792
 20
1196.999337367421
 30
-0.0000000000001811
 40
2.0
100
AcDbArc
 50
90.0
 51
180.0
  0
ARC
  5
116C
330
1F
100
AcDbEntity
  8
Hewi
100
AcDbCircle
 10
-924.0583611205792
 20
1158.99933736742
 30
0.0000000000002567
 40
16.5
210
0.0
220
0.0
230
-1.0
100
AcDbArc
 50
269.9999978889112
 51
0.0
  0
ARC
  5
116D
330
1F
100
AcDbEntity
  8
Hewi
100
AcDbCircle
 10
-924.0583611205792
 20
1158.99933736742
 30
0.0000000000002567
 40
16.5
210
0.0
220
0.0
230
-1.0
100
AcDbArc
 50
0.0
 51
90.00000211108874
  0
ARC
  5
116E
330
1F
100
AcDbEntity
  8
Hewi
100
AcDbCircle
 10
924.0583611205792
 20
1158.99933736742
 30
-0.0000000000002567
 40
16.5
100
AcDbArc
 50
90.0
 51
270.0000042213437
  0
ELLIPSE
  5
1176
330
1F
100
AcDbEntity
  8
Hewi
100
AcDbEllipse
 10
941.1926144211747
 20
1158.99933736742
 30
-0.0000000000000091
 11
0.0000000000000051
 21
16.5
 31
0.0
210
0.0
220
0.0
230
1.0
 40
0.7071067811865485
 41
0.0
 42
3.141592818617966
  0
ELLIPSE
  5
1178
330
1F
100
AcDbEntity
  8
Hewi
100
AcDbEllipse
 10
958.2967202219723
 20
1158.99933736742
 30
0.0000000000000109
 11
-0.0000000000000047
 21
-15.46314323411495
 31
0.0
210
0.0
220
0.0
230
1.0
 40
0.7071067811865487
 41
0.0
 42
6.283185307179584
  0
ELLIPSE
  5
1179
330
1F
100
AcDbEntity
  8
Hewi
100
AcDbEllipse
 10
957.4560703884626
 20
1158.99933736742
 30
0.0000000000000099
 11
-0.0000000000000051
 21
-16.5
 31
0.0
210
0.0
220
0.0
230
1.0
 40
0.7071067811865485
 41
2.064124468782268
 42
6.283185307179584
  0
ELLIPSE
  5
117A
330
1F
100
AcDbEntity
  8
Hewi
100
AcDbEllipse
 10
957.4560703884626
 20
1158.99933736742
 30
0.0000000000000099
 11
-0.0000000000000051
 21
-16.5
 31
0.0
210
0.0
220
0.0
230
1.0
 40
0.7071067811865485
 41
0.0
 42
1.077566468341812
  0
ELLIPSE
  5
117B
330
1F
100
AcDbEntity
  8
Hewi
100
AcDbEllipse
 10
993.5583611205792
 20
1119.008501825212
 30
-0.0000000000000072
 11
-1.73205
 21
0.0000000000000005
 31
0.0
210
0.0
220
0.0
230
1.0
 40
0.0214049152598428
 41
1.438993963386085
 42
2.48619232215254
  0
ELLIPSE
  5
117C
330
1F
100
AcDbEntity
  8
Hewi
100
AcDbEllipse
 10
993.5583611205792
 20
1119.008501825212
 30
-0.0000000000000072
 11
-1.73205
 21
0.0000000000000005
 31
0.0
210
0.0
220
0.0
230
1.0
 40
0.0214049152598428
 41
0.3917972197591568
 42
1.438993963386085
  0
ELLIPSE
  5
117D
330
1F
100
AcDbEntity
  8
Hewi
100
AcDbEllipse
 10
993.5583611205792
 20
1119.008501825212
 30
-0.0000000000000072
 11
-1.73205
 21
0.0000000000000005
 31
0.0
210
0.0
220
0.0
230
1.0
 40
0.0214049152598428
 41
2.48619232215254
 42
3.533389873349126
  0
ELLIPSE
  5
117E
330
1F
100
AcDbEntity
  8
Hewi
100
AcDbEllipse
 10
993.5583611205792
 20
1119.008501825212
 30
-0.0000000000000072
 11
-1.73205
 21
0.0000000000000005
 31
0.0
210
0.0
220
0.0
230
1.0
 40
0.0214049152598428
 41
5.627783360602743
 42
6.674982526938742
  0
ELLIPSE
  5
117F
330
1F
100
AcDbEntity
  8
Hewi
100
AcDbEllipse
 10
993.5583611205792
 20
1119.008501825212
 30
-0.0000000000000072
 11
-1.73205
 21
0.0000000000000005
 31
0.0
210
0.0
220
0.0
230
1.0
 40
0.0214049152598428
 41
4.580585809406063
 42
5.627783360602743
  0
ELLIPSE
  5
1180
330
1F
100
AcDbEntity
  8
Hewi
100
AcDbEllipse
 10
993.5583611205792
 20
1119.008501825212
 30
-0.0000000000000072
 11
-1.73205
 21
0.0000000000000005
 31
0.0
210
0.0
220
0.0
230
1.0
 40
0.0214049152598428
 41
3.533389873349126
 42
4.580585809406063
  0
ELLIPSE
  5
1181
330
1F
100
AcDbEntity
  8
Hewi
100
AcDbEllipse
 10
993.5583611205792
 20
1119.008501825212
 30
-0.0000000000000072
 11
2.386549999999999
 21
-0.0000000000000007
 31
0.0
210
0.0
220
0.0
230
1.0
 40
0.0214049152598428
 41
0.0
 42
4.003566860976062
  0
ELLIPSE
  5
1182
330
1F
100
AcDbEntity
  8
Hewi
100
AcDbEllipse
 10
993.5583611205792
 20
1119.008501825212
 30
-0.0000000000000072
 11
2.386549999999999
 21
-0.0000000000000007
 31
0.0
210
0.0
220
0.0
230
1.0
 40
0.0214049152598428
 41
5.424254108285664
 42
6.283185307179584
  0
SPLINE
  5
1184
330
1F
100
AcDbEntity
  8
Hewi
100
AcDbSpline
210
0.0
220
0.0
230
1.0
 70
     8
 71
     3
 72
    14
 73
    10
 74
     0
 42
0.0000000001
 43
0.0000000001
 40
0.0
 40
0.0
 40
0.0
 40
0.0
 40
0.2432394719143855
 40
0.2432394719143855
 40
0.495492981276257
 40
0.495492981276257
 40
0.7477464906381287
 40
0.7477464906381287
 40
1.0
 40
1.0
 40
1.0
 40
1.0
 10
799.5585403064169
 20
828.7494505713357
 30
0.0
 10
799.5588747420979
 20
828.7476328933506
 30
0.0
 10
800.4991503843909
 20
828.2001393239431
 30
0.0
 10
803.6214037995078
 20
826.910305528577
 30
0.0
 10
805.9070248241177
 20
826.2168868325632
 30
0.0
 10
810.7171692249384
 20
826.1988095906806
 30
0.0
 10
813.086906233074
 20
826.8879884818261
 30
0.0
 10
816.4330822429029
 20
828.2036159236694
 30
0.0
 10
817.5042985363823
 20
828.7780824065514
 30
0.0
 10
817.5562991175819
 20
828.7484944967539
 30
0.0
  0
SPLINE
  5
1185
330
1F
100
AcDbEntity
  8
Hewi
100
AcDbSpline
210
0.0000000000000005
220
-0.0000000000000504
230
1.0
 70
     8
 71
     3
 72
    10
 73
     6
 74
     0
 42
0.0000000001
 43
0.0000000001
 40
0.0
 40
0.0
 40
0.0
 40
0.0
 40
0.5130136982945209
 40
0.5130136982945209
 40
1.0
 40
1.0
 40
1.0
 40
1.0
 10
990.5583611205791
 20
1119.008525469469
 30
-0.0000000000000107
 10
990.5583611205791
 20
1119.001325896619
 30
-0.0000000000000107
 10
990.6161597017336
 20
1118.998496001904
 30
-0.0000000000000106
 10
990.8320693614653
 20
1119.000581995466
 30
-0.0000000000000104
 10
990.9876785581719
 20
1119.005082796253
 30
-0.0000000000000102
 10
991.1819495650552
 20
1119.011230097514
 30
-0.0000000000000099
  0
SPLINE
  5
1186
330
1F
100
AcDbEntity
  8
Hewi
100
AcDbSpline
210
0.0000000000000041
220
0.0000000000002372
230
1.0
 70
     8
 71
     3
 72
    10
 73
     6
 74
     0
 42
0.0000000001
 43
0.0000000001
 40
0.0
 40
0.0
 40
0.0
 40
0.0
 40
0.3759328105490644
 40
0.3759328105490644
 40
1.0
 40
1.0
 40
1.0
 40
1.0
 10
995.9490274903357
 20
1119.01078821004
 30
-0.0000000000000044
 10
996.0717103751219
 20
1119.006918690573
 30
-0.0000000000000042
 10
996.1783545428907
 20
1119.003716457458
 30
-0.0000000000000041
 10
996.4098398834458
 20
1118.998418967529
 30
-0.0000000000000038
 10
996.5042086543679
 20
1118.998435566214
 30
-0.0000000000000036
 10
996.5406239371652
 20
1119.002855405195
 30
-0.0000000000000036
  0
SPLINE
  5
1187
330
1F
100
AcDbEntity
  8
Hewi
100
AcDbSpline
210
0.0
220
0.0
230
1.0
 70
     8
 71
     3
 72
    26
 73
    22
 74
     0
 42
0.0000000001
 43
0.0000000001
 40
0.0
 40
0.0
 40
0.0
 40
0.0
 40
0.073159940695037
 40
0.073159940695037
 40
0.1802262366768989
 40
0.1802262366768989
 40
0.2875004008189412
 40
0.2875004008189412
 40
0.3949963102065395
 40
0.3949963102065395
 40
0.5023814222194566
 40
0.5023814222194566
 40
0.6094947467966168
 40
0.6094947467966168
 40
0.7166000794715944
 40
0.7166000794715944
 40
0.8239728600702298
 40
0.8239728600702298
 40
0.9314719416040363
 40
0.9314719416040363
 40
1.0
 40
1.0
 40
1.0
 40
1.0
 10
996.5581312079583
 20
1119.008459156392
 30
-0.0000000000000036
 10
996.5582299225923
 20
1119.013392151666
 30
-0.0000000000000036
 10
996.5320526775604
 20
1119.020296686356
 30
-0.0000000000000036
 10
996.4041977225706
 20
1119.041384869049
 30
-0.0000000000000038
 10
996.2710766537773
 20
1119.057759086585
 30
-0.0000000000000039
 10
995.912224660903
 20
1119.092612275939
 30
-0.0000000000000044
 10
995.6813793757019
 20
1119.111487181128
 30
-0.0000000000000046
 10
995.154679659404
 20
1119.144922935082
 30
-0.0000000000000053
 10
994.8514016798426
 20
1119.159840087928
 30
-0.0000000000000057
 10
994.2160267126157
 20
1119.180040629026
 30
-0.0000000000000064
 10
993.87517341478
 20
1119.185549318759
 30
-0.0000000000000068
 10
993.2043241422936
 20
1119.185138350554
 30
-0.0000000000000076
 10
992.8650693048684
 20
1119.179243732227
 30
-0.000000000000008
 10
992.2342300469308
 20
1119.158478186304
 30
-0.0000000000000087
 10
991.9339613619223
 20
1119.143387225193
 30
-0.0000000000000091
 10
991.4124101443148
 20
1119.109759029537
 30
-0.0000000000000096
 10
991.184123535887
 20
1119.090845938959
 30
-0.0000000000000099
 10
990.8306293154153
 20
1119.056066009636
 30
-0.0000000000000104
 10
990.7006627108192
 20
1119.039810314991
 30
-0.0000000000000105
 10
990.5819960854705
 20
1119.019573788971
 30
-0.0000000000000107
 10
990.5583611205791
 20
1119.013128320524
 30
-0.0000000000000107
 10
990.5583611205791
 20
1119.008525469469
 30
-0.0000000000000107
  0
LINE
  5
1338
330
1F
100
AcDbEntity
  8
Hewi
  6
Continuous
100
AcDbLine
 10
1269.338210758953
 20
2406.199337367416
 30
0.0
 11
1269.33815491067
 21
2367.73102525201
 31
0.0
  0
LINE
  5
1339
330
1F
100
AcDbEntity
  8
Hewi
  6
Continuous
100
AcDbLine
 10
1269.3384285289
 20
2406.199337367416
 30
0.0
 11
1269.338372679136
 21
2367.730004729332
 31
0.0
  0
LINE
  5
133A
330
1F
100
AcDbEntity
  8
Hewi
  6
Continuous
100
AcDbLine
 10
1269.337742609012
 20
2383.737530629635
 30
0.0
 11
1269.337719374095
 21
2367.733313600917
 31
0.0
  0
LINE
  5
133B
330
1F
100
AcDbEntity
  8
Hewi
  6
Continuous
100
AcDbLine
 10
1269.337992989004
 20
2406.199337367416
 30
0.0
 11
1269.337937142307
 21
2367.732117650159
 31
0.0
  0
LINE
  5
133C
330
1F
100
AcDbEntity
  8
Hewi
  6
Continuous
100
AcDbLine
 10
1269.338178887427
 20
1983.991876379112
 30
0.0
 11
1269.337005082813
 21
1175.474938054655
 31
0.0
  0
LINE
  5
133E
330
1F
100
AcDbEntity
  8
Hewi
  6
Continuous
100
AcDbLine
 10
1302.336994244903
 20
1158.99933736742
 30
0.0
 11
1302.336994244903
 21
1983.991876379112
 31
0.0
  0
LINE
  5
133F
330
1F
100
AcDbEntity
  8
Hewi
  6
Continuous
100
AcDbLine
 10
1302.336994244903
 20
2089.991876379091
 30
0.0
 11
1302.336994244903
 21
2406.809990535966
 31
0.0
  0
LINE
  5
1340
330
1F
100
AcDbEntity
  8
Hewi
  6
Continuous
100
AcDbLine
 10
1302.336994244903
 20
2089.991876379091
 30
0.0
 11
1302.336994244903
 21
2406.809990535966
 31
0.0
  0
LINE
  5
1341
330
1F
100
AcDbEntity
  8
Hewi
  6
Continuous
100
AcDbLine
 10
1242.707381050899
 20
1167.99933736742
 30
0.0
 11
1225.337223484993
 21
1167.99933736742
 31
0.0
  0
LINE
  5
1342
330
1F
100
AcDbEntity
  8
Hewi
  6
Continuous
100
AcDbLine
 10
1225.337545816886
 20
1149.99933736742
 30
0.0
 11
1242.707381050899
 21
1149.99933736742
 31
0.0
  0
LINE
  5
1343
330
1F
100
AcDbEntity
  8
Hewi
  6
Continuous
100
AcDbLine
 10
1223.336994244903
 20
2398.744991617943
 30
0.0
 11
1212.336994244903
 21
2398.744991617943
 31
0.0
  0
LINE
  5
1344
330
1F
100
AcDbEntity
  8
Hewi
  6
Continuous
100
AcDbLine
 10
1212.336994244903
 20
2318.744991617943
 30
0.0
 11
1223.336994244903
 21
2318.744991617943
 31
0.0
  0
LINE
  5
1345
330
1F
100
AcDbEntity
  8
Hewi
  6
Continuous
100
AcDbLine
 10
1269.330642946542
 20
2367.744991617943
 30
0.0
 11
1225.337424571871
 21
2367.744991617943
 31
0.0
  0
LINE
  5
1346
330
1F
100
AcDbEntity
  8
Hewi
  6
Continuous
100
AcDbLine
 10
1225.337367493948
 20
2349.744991617943
 30
0.0
 11
1269.336970166359
 21
2349.744991617943
 31
0.0
  0
LINE
  5
1347
330
1F
100
AcDbEntity
  8
Hewi
  6
Continuous
100
AcDbLine
 10
1223.336994244903
 20
1198.99933736742
 30
0.0
 11
1212.336994244903
 21
1198.99933736742
 31
0.0
  0
LINE
  5
1348
330
1F
100
AcDbEntity
  8
Hewi
  6
Continuous
100
AcDbLine
 10
1212.336994244903
 20
1118.99933736742
 30
0.0
 11
1223.336994244903
 21
1118.99933736742
 31
0.0
  0
LINE
  5
134B
330
1F
100
AcDbEntity
  8
Hewi
  6
Continuous
100
AcDbLine
 10
1269.336994244903
 20
2406.809990535966
 30
0.0
 11
1269.336994244903
 21
2406.699337367416
 31
0.0
  0
LINE
  5
134C
330
1F
100
AcDbEntity
  8
Hewi
  6
Continuous
100
AcDbLine
 10
1302.336994244903
 20
2406.699337367416
 30
0.0
 11
1302.336994244903
 21
2406.809990535966
 31
0.0
  0
LINE
  5
134D
330
1F
100
AcDbEntity
  8
Hewi
  6
Continuous
100
AcDbLine
 10
1285.836994244903
 20
2406.199337367416
 30
0.0
 11
1269.336994244903
 21
2406.199337367416
 31
0.0
  0
LINE
  5
134E
330
1F
100
AcDbEntity
  8
Hewi
  6
Continuous
100
AcDbLine
 10
1302.336994244903
 20
2406.199337367416
 30
0.0
 11
1285.836994244903
 21
2406.199337367416
 31
0.0
  0
LINE
  5
1350
330
1F
100
AcDbEntity
  8
Hewi
  6
Continuous
100
AcDbLine
 10
1225.336994244903
 20
2320.744991617943
 30
0.0
 11
1225.336994244903
 21
2396.744991617944
 31
0.0
  0
LINE
  5
1351
330
1F
100
AcDbEntity
  8
Hewi
  6
Continuous
100
AcDbLine
 10
1212.336994244903
 20
2318.744991617943
 30
0.0
 11
1212.336994244903
 21
2398.744991617943
 31
0.0
  0
LINE
  5
1352
330
1F
100
AcDbEntity
  8
Hewi
  6
Continuous
100
AcDbLine
 10
1212.336994244903
 20
1118.99933736742
 30
0.0
 11
1212.336994244903
 21
1198.99933736742
 31
0.0
  0
LINE
  5
1353
330
1F
100
AcDbEntity
  8
Hewi
  6
Continuous
100
AcDbLine
 10
1225.336994244903
 20
1120.99933736742
 30
0.0
 11
1225.336994244903
 21
1196.999337367421
 31
0.0
  0
LINE
  5
1355
330
1F
100
AcDbEntity
  8
Hewi
  6
Continuous
100
AcDbLine
 10
1302.336994244903
 20
2406.699337367416
 30
0.0
 11
1269.336994244903
 21
2406.699337367416
 31
0.0
  0
LINE
  5
1356
330
1F
100
AcDbEntity
  8
Hewi
100
AcDbLine
 10
500.5550132392673
 20
2406.809990535967
 30
-0.0000000000000016
 11
500.5550132392673
 21
2090.883541917523
 31
-0.0000000000000016
  0
LINE
  5
1357
330
1F
100
AcDbEntity
  8
Hewi
100
AcDbLine
 10
500.5550132392673
 20
2406.809990535967
 30
-0.0000000000000016
 11
500.5550132392673
 21
2090.883541917523
 31
-0.0000000000000016
  0
LINE
  5
1358
330
1F
100
AcDbEntity
  8
Hewi
100
AcDbLine
 10
500.5550132392673
 20
1982.883519373195
 30
-0.0000000000000016
 11
500.5550132392665
 21
1204.476637573451
 31
0.0000000000000059
  0
LINE
  5
1359
330
1F
100
AcDbEntity
  8
Hewi
100
AcDbLine
 10
533.5550132392665
 20
1204.476637573451
 30
0.0000000000000059
 11
533.5550132392674
 21
1982.883519373195
 31
0.0000000000000015
  0
LINE
  5
135A
330
1F
100
AcDbEntity
  8
Hewi
100
AcDbLine
 10
533.5550132392674
 20
2090.883541917523
 30
0.0000000000000016
 11
533.5550132392675
 21
2406.809990535967
 31
0.0000000000000014
  0
LINE
  5
135B
330
1F
100
AcDbEntity
  8
Hewi
100
AcDbLine
 10
533.5550132392674
 20
2090.883541917523
 30
0.0000000000000015
 11
533.5550132392675
 21
2406.809990535967
 31
0.0000000000000015
  0
LINE
  5
135C
330
1F
100
AcDbEntity
  8
Hewi
100
AcDbLine
 10
556.9843505937743
 20
2356.369074627928
 30
0.0000000000000003
 11
557.0970335328894
 21
2356.370836862142
 31
0.0000000000000003
  0
LINE
  5
135D
330
1F
100
AcDbEntity
  8
Hewi
100
AcDbLine
 10
557.0032117654042
 20
2362.370103273625
 30
0.0000000000000003
 11
556.8905540377592
 21
2362.368341433695
 31
0.0000000000000003
  0
LINE
  5
1362
330
1F
100
AcDbEntity
  8
Hewi
100
AcDbLine
 10
557.0127701247979
 20
2356.907168301211
 30
0.0000000000000003
 11
557.0874410390094
 21
2356.984211858839
 31
0.0000000000000003
  0
LINE
  5
1363
330
1F
100
AcDbEntity
  8
Hewi
100
AcDbLine
 10
557.0128042592832
 20
2361.756728276941
 30
0.0000000000000003
 11
556.9357607016574
 21
2361.831399191154
 31
0.0000000000000003
  0
LINE
  5
1366
330
1F
100
AcDbEntity
  8
Hewi
100
AcDbLine
 10
500.5550132392673
 20
2406.809990535967
 30
-0.0000000000000016
 11
500.5550132392673
 21
2406.699337367417
 31
-0.0000000000000016
  0
LINE
  5
1367
330
1F
100
AcDbEntity
  8
Hewi
100
AcDbLine
 10
533.5550132392674
 20
2406.699337367417
 30
0.0000000000000016
 11
533.5550132392674
 21
2406.809990535967
 31
0.0000000000000016
  0
LINE
  5
1368
330
1F
100
AcDbEntity
  8
Hewi
100
AcDbLine
 10
557.0874410390094
 20
2356.984211858839
 30
0.0000000000000003
 11
557.0115128234894
 21
2356.983024427081
 31
0.0000000000000003
  0
LINE
  5
1369
330
1F
100
AcDbEntity
  8
Hewi
100
AcDbLine
 10
557.0128042592832
 20
2361.756728276941
 30
0.0000000000000003
 11
556.9368760437643
 21
2361.7555408452
 31
0.0000000000000003
  0
LINE
  5
136D
330
1F
100
AcDbEntity
  8
Hewi
100
AcDbLine
 10
557.0128042592832
 20
2361.756728276941
 30
0.0000000000000003
 11
557.0874410390094
 21
2356.984211858839
 31
0.0000000000000003
  0
LINE
  5
136F
330
1F
100
AcDbEntity
  8
Hewi
100
AcDbLine
 10
533.5550132392674
 20
2406.699337367417
 30
0.0000000000000016
 11
500.5550132392673
 21
2406.699337367417
 31
-0.0000000000000016
  0
ARC
  5
1370
330
1F
100
AcDbEntity
  8
Hewi
  6
Continuous
100
AcDbCircle
 10
1301.836994244903
 20
2406.199337367416
 30
0.0
 40
0.5
100
AcDbArc
 50
0.0
 51
90.0
  0
ARC
  5
1371
330
1F
100
AcDbEntity
  8
Hewi
  6
Continuous
100
AcDbCircle
 10
1269.836994244903
 20
2406.199337367416
 30
0.0
 40
0.5
100
AcDbArc
 50
90.0
 51
180.0
  0
ARC
  5
1374
330
1F
100
AcDbEntity
  8
Hewi
  6
Continuous
100
AcDbCircle
 10
1223.336994244903
 20
2396.744991617944
 30
0.0
 40
2.0
100
AcDbArc
 50
0.0
 51
90.0
  0
ARC
  5
1375
330
1F
100
AcDbEntity
  8
Hewi
  6
Continuous
100
AcDbCircle
 10
1223.336994244903
 20
2320.744991617943
 30
0.0
 40
2.0
100
AcDbArc
 50
270.0
 51
0.0
  0
ARC
  5
1376
330
1F
100
AcDbEntity
  8
Hewi
  6
Continuous
100
AcDbCircle
 10
1223.336994244903
 20
1196.999337367421
 30
0.0
 40
2.0
100
AcDbArc
 50
0.0
 51
90.0
  0
ARC
  5
1377
330
1F
100
AcDbEntity
  8
Hewi
  6
Continuous
100
AcDbCircle
 10
1223.336994244903
 20
1120.99933736742
 30
0.0
 40
2.0
100
AcDbArc
 50
270.0
 51
0.0
  0
ARC
  5
137B
330
1F
100
AcDbEntity
  8
Hewi
  6
Continuous
100
AcDbCircle
 10
1301.136994244906
 20
2406.809990535966
 30
0.0
 40
1.199999999999999
100
AcDbArc
 50
0.0
 51
82.60044591067279
  0
ARC
  5
137C
330
1F
100
AcDbEntity
  8
Hewi
  6
Continuous
100
AcDbCircle
 10
1270.536994244914
 20
2406.809990535966
 30
0.0
 40
1.199999999999999
100
AcDbArc
 50
97.39955408932717
 51
180.0
  0
ARC
  5
137D
330
1F
100
AcDbEntity
  8
Hewi
  6
Continuous
100
AcDbCircle
 10
1285.836994244903
 20
2288.99933736742
 30
0.0
 40
120.0
100
AcDbArc
 50
82.60044591067279
 51
97.39955408932717
  0
ARC
  5
137E
330
1F
100
AcDbEntity
  8
Hewi
100
AcDbCircle
 10
533.0550132392665
 20
2406.199337367417
 30
0.0000000000000015
 40
0.5
100
AcDbArc
 50
0.0
 51
90.0
  0
ARC
  5
137F
330
1F
100
AcDbEntity
  8
Hewi
100
AcDbCircle
 10
501.0550132392673
 20
2406.199337367417
 30
-0.0000000000000015
 40
0.5
100
AcDbArc
 50
90.0
 51
180.0
  0
ARC
  5
1385
330
1F
100
AcDbEntity
  8
Hewi
100
AcDbCircle
 10
532.3550132392552
 20
2406.809990535967
 30
0.0000000000000015
 40
1.199999999999999
100
AcDbArc
 50
0.0
 51
82.6004459106724
  0
ARC
  5
1386
330
1F
100
AcDbEntity
  8
Hewi
100
AcDbCircle
 10
501.7550132392645
 20
2406.809990535967
 30
-0.0000000000000015
 40
1.199999999999999
100
AcDbArc
 50
97.39955408932758
 51
180.0
  0
ARC
  5
1387
330
1F
100
AcDbEntity
  8
Hewi
100
AcDbCircle
 10
517.0550132392665
 20
2288.99933736742
 30
0.0
 40
120.0
100
AcDbArc
 50
82.6004459106724
 51
97.39955408932758
  0
ARC
  5
1388
330
1F
100
AcDbEntity
  8
Hewi
100
AcDbCircle
 10
-517.0550132392665
 20
2358.744991617944
 30
0.0
 40
40.0
210
0.0
220
0.0
230
-1.0
100
AcDbArc
 50
359.9999987526901
 51
65.63812970700417
  0
ARC
  5
1389
330
1F
100
AcDbEntity
  8
Hewi
100
AcDbCircle
 10
-517.0550132392665
 20
2358.744991617944
 30
0.0
 40
40.0
210
0.0
220
0.0
230
-1.0
100
AcDbArc
 50
114.3675059093169
 51
245.6325091968121
  0
ARC
  5
138A
330
1F
100
AcDbEntity
  8
Hewi
100
AcDbCircle
 10
-517.0550132392665
 20
2358.744991617944
 30
0.0
 40
40.0
210
0.0
220
0.0
230
-1.0
100
AcDbArc
 50
294.3618821226967
 51
0.0000130767440115
  0
ARC
  5
138B
330
1F
100
AcDbEntity
  8
Hewi
100
AcDbCircle
 10
-517.0550132392662
 20
1270.976637573452
 30
0.0
 40
40.0
210
0.0
220
0.0
230
-1.0
100
AcDbArc
 50
359.9999931814835
 51
65.63812413493295
  0
ARC
  5
138C
330
1F
100
AcDbEntity
  8
Hewi
100
AcDbCircle
 10
-517.0550132392662
 20
1270.976637573452
 30
0.0
 40
40.0
210
0.0
220
0.0
230
-1.0
100
AcDbArc
 50
114.3675003378842
 51
245.6325036253654
  0
ARC
  5
138D
330
1F
100
AcDbEntity
  8
Hewi
100
AcDbCircle
 10
-517.0550132392662
 20
1270.976637573452
 30
0.0
 40
40.0
210
0.0
220
0.0
230
-1.0
100
AcDbArc
 50
294.3618765515402
 51
0.0000075055374644
  0
SPLINE
  5
138F
330
1F
100
AcDbEntity
  8
Hewi
  6
Continuous
100
AcDbSpline
210
0.0
220
0.0
230
1.0
 70
     8
 71
     3
 72
    14
 73
    10
 74
     0
 42
0.0000000001
 43
0.0000000001
 40
0.0
 40
0.0
 40
0.0
 40
0.0
 40
0.2434469386710948
 40
0.2434469386710948
 40
0.4956312924473967
 40
0.4956312924473967
 40
0.7478156462236985
 40
0.7478156462236985
 40
1.0
 40
1.0
 40
1.0
 40
1.0
 10
1269.337257719087
 20
2349.745217663188
 30
0.0
 10
1269.337845092272
 20
2349.756873527654
 30
0.0
 10
1269.885859185463
 20
2350.710615518659
 30
0.0
 10
1271.176406828218
 20
2353.853524588088
 30
0.0
 10
1271.869825524232
 20
2356.145220485948
 30
0.0
 10
1271.887902766099
 20
2360.956044424787
 30
0.0
 10
1271.198723874969
 20
2363.320265157188
 30
0.0
 10
1269.883096433126
 20
2366.648030591295
 30
0.0
 10
1269.308629950244
 20
2367.705903181351
 30
0.0
 10
1269.338217860041
 20
2367.743891235175
 30
0.0
  0
LINE
  5
1390
330
1F
100
AcDbEntity
  8
Hewi
  6
Continuous
100
AcDbLine
 10
1269.330642946542
 20
2367.744991617943
 30
0.0
 11
1269.330642946542
 21
2406.199337367416
 31
0.0
  0
LINE
  5
1391
330
1F
100
AcDbEntity
  8
Hewi
100
AcDbLine
 10
492.7588320267559
 20
2050.883519373183
 30
0.0000000000000011
 11
484.2588320267561
 21
2050.883519373183
 31
0.0000000000000001
210
0.0
220
1.0
230
0.0
  0
LINE
  5
1392
330
1F
100
AcDbEntity
  8
Hewi
100
AcDbLine
 10
492.7588320267559
 20
2090.883519373184
 30
0.0000000000000011
 11
484.2588320267561
 21
2090.883519373184
 31
0.0000000000000001
210
0.0
220
1.0
230
0.0
  0
ARC
  5
1393
330
1F
100
AcDbEntity
  8
Hewi
100
AcDbCircle
 10
459.6088320267573
 20
2089.883519373196
 30
-0.000000000000003
 40
0.9999999999999998
100
AcDbArc
 50
90.0
 51
180.0
  0
ARC
  5
1394
330
1F
100
AcDbEntity
  8
Hewi
100
AcDbCircle
 10
459.6088320267573
 20
2051.883519373197
 30
-0.000000000000003
 40
0.9999999999999998
100
AcDbArc
 50
180.0
 51
270.0
  0
SPLINE
  5
1395
330
1F
100
AcDbEntity
  8
Hewi
100
AcDbSpline
210
0.0000000000003131
220
-0.0000000000002765
230
1.0
 70
     8
 71
     3
 72
    10
 73
     6
 74
     0
 42
0.0000000001
 43
0.0000000001
 40
0.5238557413344813
 40
0.5238557413344813
 40
0.5238557413344813
 40
0.5238557413344813
 40
3.344927373450713
 40
3.344927373450713
 40
3.375545046730997
 40
3.375545046730997
 40
3.375545046730997
 40
3.375545046730997
 10
459.3788303553647
 20
2074.647000649983
 30
-0.000000000000003
 10
459.9768912053088
 20
2075.361157722986
 30
-0.0000000000000029
 10
460.5889396374879
 20
2076.057717519768
 30
-0.0000000000000028
 10
461.2171995733616
 20
2076.741569382003
 30
-0.0000000000000028
 10
461.2239462351655
 20
2076.748909450433
 30
-0.0000000000000028
 10
461.2306941284415
 20
2076.756247286601
 30
-0.0000000000000028
  0
SPLINE
  5
1396
330
1F
100
AcDbEntity
  8
Hewi
100
AcDbSpline
210
-0.0000000000000033
220
0.0000000000000055
230
-1.0
 70
     8
 71
     3
 72
    18
 73
    14
 74
     0
 42
0.0000000001
 43
0.0000000001
 40
1.6540747858433
 40
1.6540747858433
 40
1.6540747858433
 40
1.6540747858433
 40
1.715582394495875
 40
1.715582394495875
 40
1.902970208297488
 40
1.902970208297488
 40
2.031734176382974
 40
2.031734176382974
 40
2.255265245202036
 40
2.255265245202036
 40
2.814065234951959
 40
2.814065234951959
 40
3.138692671095101
 40
3.138692671095101
 40
3.138692671095101
 40
3.138692671095101
 10
461.2306939537185
 20
2076.756247413039
 30
-0.0000000000000028
 10
461.2443655520147
 20
2076.771114214999
 30
-0.0000000000000028
 10
461.258171269683
 20
2076.785762242204
 30
-0.0000000000000028
 10
461.3144988252487
 20
2076.844113536873
 30
-0.0000000000000028
 10
461.3580359577674
 20
2076.886002781845
 30
-0.0000000000000027
 10
461.4326305734676
 20
2076.952838962933
 30
-0.0000000000000027
 10
461.4633689875437
 20
2076.979019532357
 30
-0.0000000000000027
 10
461.548128793309
 20
2077.047607446562
 30
-0.0000000000000027
 10
461.6027380360455
 20
2077.08786888559
 30
-0.0000000000000027
 10
461.7952328393569
 20
2077.216018531877
 30
-0.0000000000000027
 10
461.9252335935136
 20
2077.278526654776
 30
-0.0000000000000027
 10
462.1141326686728
 20
2077.335495266672
 30
-0.0000000000000027
 10
462.1940285326137
 20
2077.351759496956
 30
-0.0000000000000026
 10
462.2780837731706
 20
2077.351729290827
 30
-0.0000000000000026
  0
SPLINE
  5
1397
330
1F
100
AcDbEntity
  8
Hewi
100
AcDbSpline
210
0.0
220
0.0
230
1.0
 70
     8
 71
     3
 72
    24
 73
    20
 74
     0
 42
0.0000000001
 43
0.0000000001
 40
0.0
 40
0.0
 40
0.0
 40
0.0
 40
0.0756974007302869
 40
0.0756974007302869
 40
0.2789853411804089
 40
0.2789853411804089
 40
0.3497529015458669
 40
0.3497529015458669
 40
0.5919349001703657
 40
0.5919349001703657
 40
1.276514795648737
 40
1.276514795648737
 40
1.476316936862741
 40
1.476316936862741
 40
1.827563147716625
 40
1.827563147716625
 40
1.910592365237698
 40
1.910592365237698
 40
1.954297335670274
 40
1.954297335670274
 40
1.954297335670274
 40
1.954297335670274
 10
458.6088320267572
 20
2072.975279375237
 30
-0.0000000000000031
 10
458.6088320267572
 20
2072.996368891987
 30
-0.0000000000000031
 10
458.6095945604366
 20
2073.017540274102
 30
-0.0000000000000031
 10
458.6147898870459
 20
2073.095569270215
 30
-0.0000000000000031
 10
458.623228045407
 20
2073.153149387778
 30
-0.0000000000000031
 10
458.6391259044177
 20
2073.231494347679
 30
-0.0000000000000031
 10
458.6436435578108
 20
2073.251786539595
 30
-0.0000000000000031
 10
458.6652806312505
 20
2073.34175865335
 30
-0.0000000000000031
 10
458.6864073316339
 20
2073.412141941595
 30
-0.0000000000000031
 10
458.7801812681147
 20
2073.682747433464
 30
-0.0000000000000031
 10
458.8772868088208
 20
2073.888606076963
 30
-0.0000000000000031
 10
459.0238709194053
 20
2074.143930066556
 30
-0.000000000000003
 10
459.0585993620442
 20
2074.201228655733
 30
-0.000000000000003
 10
459.1583018596637
 20
2074.357078465213
 30
-0.000000000000003
 10
459.2266996427216
 20
2074.454707540029
 30
-0.000000000000003
 10
459.3160513897038
 20
2074.569887527085
 30
-0.000000000000003
 10
459.3333746129383
 20
2074.591687570221
 30
-0.000000000000003
 10
459.3601622574987
 20
2074.624554178515
 30
-0.000000000000003
 10
459.3694649659408
 20
2074.635816744569
 30
-0.000000000000003
 10
459.3788305733077
 20
2074.647000392479
 30
-0.000000000000003
  0
SPLINE
  5
1398
330
1F
100
AcDbEntity
  8
Hewi
100
AcDbSpline
210
0.0000000000000002
220
-0.0000000000000004
230
1.0
 70
     8
 71
     3
 72
    20
 73
    16
 74
     0
 42
0.0000000001
 43
0.0000000001
 40
1.736023434719105
 40
1.736023434719105
 40
1.736023434719105
 40
1.736023434719105
 40
4.481724718716971
 40
4.481724718716971
 40
8.494256553288714
 40
8.494256553288714
 40
12.2302098530054
 40
12.2302098530054
 40
16.0190034065687
 40
16.0190034065687
 40
20.63191901924623
 40
20.63191901924623
 40
24.55726384241274
 40
24.55726384241274
 40
27.09366019960931
 40
27.09366019960931
 40
27.09366019960931
 40
27.09366019960931
 10
463.7339831879017
 20
2077.046994038328
 30
-0.0000000000000025
 10
464.4291562711461
 20
2076.47923615424
 30
-0.0000000000000024
 10
465.1880065112863
 20
2075.974210357879
 30
-0.0000000000000023
 10
467.1798762200534
 20
2074.958597994992
 30
-0.000000000000002
 10
468.4590621587005
 20
2074.560553564109
 30
-0.0000000000000019
 10
471.034188675788
 20
2074.336389494019
 30
-0.0000000000000016
 10
472.2631719247091
 20
2074.477701635558
 30
-0.0000000000000014
 10
474.6562512780466
 20
2075.211350171582
 30
-0.0000000000000011
 10
475.7831718438666
 20
2075.798431799602
 30
-0.000000000000001
 10
478.027684746582
 20
2077.400925343763
 30
-0.0000000000000007
 10
479.0978051398544
 20
2078.485944013229
 30
-0.0000000000000006
 10
480.6496733005905
 20
2080.627323609451
 30
-0.0000000000000004
 10
481.1921336819306
 20
2081.658959142135
 30
-0.0000000000000003
 10
481.7394415044766
 20
2083.317774583983
 30
-0.0000000000000003
 10
481.8624863504311
 20
2083.946234597632
 30
-0.0000000000000002
 10
481.8917184860894
 20
2084.539167423001
 30
-0.0000000000000002
  0
SPLINE
  5
1399
330
1F
100
AcDbEntity
  8
Hewi
100
AcDbSpline
210
0.0000000000000013
220
0.0000000000000038
230
1.0
 70
     8
 71
     3
 72
    18
 73
    14
 74
     0
 42
0.0000000001
 43
0.0000000001
 40
0.203900170074742
 40
0.203900170074742
 40
0.203900170074742
 40
0.203900170074742
 40
0.4140914887330024
 40
0.4140914887330024
 40
0.5531594004291947
 40
0.5531594004291947
 40
0.9342624836064976
 40
0.9342624836064976
 40
1.058715851533574
 40
1.058715851533574
 40
1.209079349970967
 40
1.209079349970967
 40
1.267392488679218
 40
1.267392488679218
 40
1.267392488679218
 40
1.267392488679218
 10
462.9306056348361
 20
2077.351813528119
 30
-0.0000000000000026
 10
462.9789841926848
 20
2077.351820759162
 30
-0.0000000000000025
 10
463.0249210524563
 20
2077.346263618021
 30
-0.0000000000000025
 10
463.0921829868813
 20
2077.334461258509
 30
-0.0000000000000025
 10
463.1191239559358
 20
2077.328576175974
 30
-0.0000000000000025
 10
463.2203265572933
 20
2077.302837124789
 30
-0.0000000000000025
 10
463.2958011322763
 20
2077.27650644484
 30
-0.0000000000000025
 10
463.3978808644259
 20
2077.234408816558
 30
-0.0000000000000025
 10
463.4231388506641
 20
2077.223468278932
 30
-0.0000000000000025
 10
463.4791700139332
 20
2077.198151006253
 30
-0.0000000000000025
 10
463.5100007255041
 20
2077.183531377105
 30
-0.0000000000000025
 10
463.5529830975865
 20
2077.162288590987
 30
-0.0000000000000025
 10
463.5650161107706
 20
2077.156248574143
 30
-0.0000000000000025
 10
463.5770686624963
 20
2077.15010896325
 30
-0.0000000000000025
  0
SPLINE
  5
139A
330
1F
100
AcDbEntity
  8
Hewi
100
AcDbSpline
210
0.0
220
0.0
230
1.0
 70
     8
 71
     3
 72
    24
 73
    20
 74
     0
 42
0.0000000001
 43
0.0000000001
 40
0.0
 40
0.0
 40
0.0
 40
0.0
 40
0.0069048149749769
 40
0.0069048149749769
 40
0.0247659649317762
 40
0.0247659649317762
 40
0.0545552763944881
 40
0.0545552763944881
 40
0.0643559091378874
 40
0.0643559091378874
 40
0.0859949234863203
 40
0.0859949234863203
 40
0.1473005450050084
 40
0.1473005450050084
 40
0.1844538307831443
 40
0.1844538307831443
 40
0.2059422517223871
 40
0.2059422517223871
 40
0.2061965395260138
 40
0.2061965395260138
 40
0.2061965395260138
 40
0.2061965395260138
 10
463.5770686624801
 20
2077.150108963258
 30
-0.0000000000000025
 10
463.5789569861571
 20
2077.149147044747
 30
-0.0000000000000025
 10
463.5808407247433
 20
2077.148178414375
 30
-0.0000000000000025
 10
463.5875807377815
 20
2077.144680268363
 30
-0.0000000000000025
 10
463.5924109239414
 20
2077.14211277186
 30
-0.0000000000000025
 10
463.6052149994166
 20
2077.135145982746
 30
-0.0000000000000025
 10
463.6131338011556
 20
2077.130668615462
 30
-0.0000000000000025
 10
463.6235451394169
 20
2077.124559944478
 30
-0.0000000000000025
 10
463.6261132418841
 20
2077.12303488028
 30
-0.0000000000000025
 10
463.6343219931488
 20
2077.118101714114
 30
-0.0000000000000025
 10
463.6399265387681
 20
2077.114644498895
 30
-0.0000000000000025
 10
463.6612390336996
 20
2077.101159248197
 30
-0.0000000000000025
 10
463.6766213689198
 20
2077.09071191687
 30
-0.0000000000000025
 10
463.700780849783
 20
2077.073192413221
 30
-0.0000000000000025
 10
463.7097660817309
 20
2077.066416904938
 30
-0.0000000000000025
 10
463.7237542285949
 20
2077.055469551153
 30
-0.0000000000000025
 10
463.728837596478
 20
2077.051405427147
 30
-0.0000000000000025
 10
463.7339400259671
 20
2077.047240811161
 30
-0.0000000000000025
 10
463.7339996946422
 20
2077.047192097541
 30
-0.0000000000000025
 10
463.7340593574818
 20
2077.047143376796
 30
-0.0000000000000025
  0
LINE
  5
139B
330
1F
100
AcDbEntity
  8
Hewi
100
AcDbLine
 10
484.1088320267572
 20
2088.283519373195
 30
0.0
 11
484.2588320267561
 21
2088.283519373195
 31
0.0000000000000001
210
0.0
220
1.0
230
0.0
  0
LINE
  5
139C
330
1F
100
AcDbEntity
  8
Hewi
100
AcDbLine
 10
484.1088320267572
 20
2053.483519373195
 30
0.0
 11
484.2588320267561
 21
2053.483519373195
 31
0.0000000000000001
210
0.0
220
1.0
230
0.0
  0
LINE
  5
139D
330
1F
100
AcDbEntity
  8
Hewi
100
AcDbLine
 10
462.9306459642413
 20
2077.351717908716
 30
-0.0000000000000026
 11
462.2780708422998
 21
2077.351717908716
 31
-0.0000000000000026
210
0.0
220
1.0
230
0.0
  0
LINE
  5
139E
330
1F
100
AcDbEntity
  8
Hewi
100
AcDbLine
 10
459.6088320267573
 20
2090.883519373196
 30
-0.000000000000003
 11
484.1088320267572
 21
2090.883519373196
 31
0.0
210
0.0
220
1.0
230
0.0
  0
LINE
  5
139F
330
1F
100
AcDbEntity
  8
Hewi
100
AcDbLine
 10
459.6088320267573
 20
2050.883519373196
 30
-0.000000000000003
 11
484.1088320267572
 21
2050.883519373196
 31
0.0
210
0.0
220
1.0
230
0.0
  0
LINE
  5
13A0
330
1F
100
AcDbEntity
  8
Hewi
100
AcDbLine
 10
484.2588320267561
 20
2090.883519373184
 30
0.0000000000000001
 11
484.2588320267561
 21
2070.883519373183
 31
0.0000000000000001
210
0.0
220
1.0
230
0.0
  0
LINE
  5
13A1
330
1F
100
AcDbEntity
  8
Hewi
100
AcDbLine
 10
484.2588320267561
 20
2070.883519373183
 30
0.0000000000000001
 11
484.2588320267561
 21
2050.883519373183
 31
0.0000000000000001
210
0.0
220
1.0
230
0.0
  0
LINE
  5
13A2
330
1F
100
AcDbEntity
  8
Hewi
100
AcDbLine
 10
484.1088320267572
 20
2090.883519373196
 30
0.0
 11
484.1088320267572
 21
2085.025654996926
 31
0.0
210
0.0
220
1.0
230
0.0
  0
LINE
  5
13A3
330
1F
100
AcDbEntity
  8
Hewi
100
AcDbLine
 10
484.1088320267572
 20
2085.025654996927
 30
0.0
 11
484.1088320267572
 21
2050.883519373196
 31
0.0
210
0.0
220
1.0
230
0.0
  0
LINE
  5
13A4
330
1F
100
AcDbEntity
  8
Hewi
100
AcDbLine
 10
458.6088320267572
 20
2072.975279375237
 30
-0.0000000000000031
 11
458.6088320267572
 21
2051.883519373197
 31
-0.0000000000000031
210
0.0
220
1.0
230
0.0
  0
LINE
  5
13A5
330
1F
100
AcDbEntity
  8
Hewi
100
AcDbLine
 10
458.6088320267572
 20
2089.76802466441
 30
-0.0000000000000031
 11
458.6088320267572
 21
2072.975279375237
 31
-0.0000000000000031
210
0.0
220
1.0
230
0.0
  0
LINE
  5
13A6
330
1F
100
AcDbEntity
  8
Hewi
100
AcDbLine
 10
458.6088320267572
 20
2089.883519373196
 30
-0.0000000000000031
 11
458.6088320267572
 21
2089.76802466441
 31
-0.0000000000000031
210
0.0
220
1.0
230
0.0
  0
SPLINE
  5
13A7
330
1F
100
AcDbEntity
  8
Hewi
100
AcDbSpline
210
0.0000000000000002
220
0.0
230
-1.0
 70
     8
 71
     3
 72
    35
 73
    31
 74
     0
 42
0.0000000001
 43
0.0000000001
 40
132.3072857087947
 40
132.3072857087947
 40
132.3072857087947
 40
132.3072857087947
 40
136.7855331456034
 40
136.7855331456034
 40
141.7555702341805
 40
141.7555702341805
 40
141.7555702341805
 40
150.5350853176014
 40
150.5350853176014
 40
159.3158069937373
 40
159.3158069937373
 40
168.101503115555
 40
168.101503115555
 40
176.8930034281827
 40
176.8930034281827
 40
185.6877688664844
 40
185.6877688664844
 40
194.4814480186283
 40
194.4814480186283
 40
203.2703476028081
 40
203.2703476028081
 40
212.0534605094508
 40
212.0534605094508
 40
220.8330910535008
 40
220.8330910535008
 40
229.6136189378029
 40
229.6136189378029
 40
238.398942885138
 40
238.398942885138
 40
241.1243396664151
 40
241.1243396664151
 40
241.1243396664151
 40
241.1243396664151
 10
501.9588320358963
 20
2022.350812735842
 30
0.0000000000000022
 10
500.8465328819166
 20
2021.359055435557
 30
0.0000000000000021
 10
499.8355944378062
 20
2020.259109309102
 30
0.000000000000002
 10
497.9485593569125
 20
2017.744087537316
 30
0.0000000000000017
 10
497.1055361121997
 20
2016.315764576166
 30
0.0000000000000016
 10
496.4275223395572
 20
2014.808069686283
 30
0.0000000000000015
 10
495.2298185724449
 20
2012.144743479453
 30
0.0000000000000014
 10
494.5649845433345
 20
2009.273674404413
 30
0.0000000000000013
 10
494.3760806471482
 20
2003.438373393847
 30
0.0000000000000013
 10
494.8539807160106
 20
2000.530114453877
 30
0.0000000000000014
 10
496.9011139722771
 20
1995.05826953632
 30
0.0000000000000016
 10
498.4513185180587
 20
1992.547377804777
 30
0.0000000000000018
 10
502.4307391205687
 20
1988.258074910696
 30
0.0000000000000023
 10
504.8224193348278
 20
1986.521223307037
 30
0.0000000000000026
 10
510.139578339529
 20
1984.059221137104
 30
0.0000000000000032
 10
513.0144691891675
 20
1983.357958141021
 30
0.0000000000000036
 10
518.8714155978686
 20
1983.094119119969
 30
0.0000000000000043
 10
521.7976284481701
 20
1983.533917352302
 30
0.0000000000000047
 10
527.3146302432816
 20
1985.507033459787
 30
0.0000000000000053
 10
529.8530102771366
 20
1987.020950689845
 30
0.0000000000000056
 10
534.2035184017031
 20
1990.932823681791
 30
0.0000000000000062
 10
535.97456971447
 20
1993.292840577773
 30
0.0000000000000064
 10
538.5094744590361
 20
1998.55622470189
 30
0.0000000000000067
 10
539.2494481375653
 20
2001.408978683571
 30
0.0000000000000068
 10
539.5914437676339
 20
2007.237302505206
 30
0.0000000000000068
 10
539.1900670858514
 20
2010.15697031689
 30
0.0000000000000068
 10
537.2873505700191
 20
2015.680207546313
 30
0.0000000000000066
 10
535.8036721003919
 20
2018.23060908292
 30
0.0000000000000064
 10
533.2723348140754
 20
2021.106626632086
 30
0.0000000000000061
 10
532.6334036458503
 20
2021.74934273769
 30
0.000000000000006
 10
531.9588284025067
 20
2022.35080867789
 30
0.0000000000000059
  0
ARC
  5
13A8
330
1F
100
AcDbEntity
  8
Hewi
100
AcDbCircle
 10
535.958832026754
 20
1983.583519373195
 30
0.0000000000000064
 40
0.6999999999999319
100
AcDbArc
 50
270.0
 51
0.0
  0
ARC
  5
13A9
330
1F
100
AcDbEntity
  8
Hewi
100
AcDbCircle
 10
497.9588320267558
 20
1983.583519373195
 30
0.0000000000000017
 40
0.6999999999999319
100
AcDbArc
 50
180.0
 51
270.0
  0
ARC
  5
13AA
330
1F
100
AcDbEntity
  8
Hewi
100
AcDbCircle
 10
549.8088320267553
 20
2052.883519373196
 30
0.0000000000000081
 40
1.999999999999999
100
AcDbArc
 50
270.0
 51
0.0
  0
ARC
  5
13AB
330
1F
100
AcDbEntity
  8
Hewi
100
AcDbCircle
 10
549.8088320267562
 20
2088.883519373196
 30
0.0000000000000081
 40
1.999999999999999
100
AcDbArc
 50
0.0
 51
90.0
  0
LINE
  5
13AC
330
1F
100
AcDbEntity
  8
Hewi
100
AcDbLine
 10
534.4588320267559
 20
2050.883496828868
 30
0.0000000000000062
 11
531.9588320267558
 21
2050.883496828868
 31
0.0000000000000059
210
0.0
220
1.0
230
0.0
  0
LINE
  5
13AD
330
1F
100
AcDbEntity
  8
Hewi
100
AcDbLine
 10
501.9588320267557
 20
2050.883496828868
 30
0.0000000000000022
 11
499.4588320267559
 21
2050.883496828868
 31
0.0000000000000019
210
0.0
220
1.0
230
0.0
  0
LINE
  5
13AE
330
1F
100
AcDbEntity
  8
Hewi
100
AcDbLine
 10
534.4588320267559
 20
2090.883541917523
 30
0.0000000000000062
 11
499.4588320267559
 21
2090.883541917523
 31
0.0000000000000019
210
0.0
220
1.0
230
0.0
  0
LINE
  5
13AF
330
1F
100
AcDbEntity
  8
Hewi
100
AcDbLine
 10
540.9588320267558
 20
2050.883519373196
 30
0.000000000000007
 11
534.4588320267559
 21
2050.883519373196
 31
0.0000000000000062
210
0.0
220
1.0
230
0.0
  0
LINE
  5
13B0
330
1F
100
AcDbEntity
  8
Hewi
100
AcDbLine
 10
540.9588320267558
 20
2090.883519373196
 30
0.000000000000007
 11
534.4588320267559
 21
2090.883519373196
 31
0.0000000000000062
210
0.0
220
1.0
230
0.0
  0
LINE
  5
13B1
330
1F
100
AcDbEntity
  8
Hewi
100
AcDbLine
 10
499.4588320267559
 20
2050.883519373196
 30
0.0000000000000019
 11
492.9588320267558
 21
2050.883519373196
 31
0.0000000000000011
210
0.0
220
1.0
230
0.0
  0
LINE
  5
13B2
330
1F
100
AcDbEntity
  8
Hewi
100
AcDbLine
 10
499.4588320267559
 20
2090.883519373196
 30
0.0000000000000019
 11
492.9588320267558
 21
2090.883519373196
 31
0.0000000000000011
210
0.0
220
1.0
230
0.0
  0
LINE
  5
13B3
330
1F
100
AcDbEntity
  8
Hewi
100
AcDbLine
 10
497.2588320267552
 20
2016.468907539755
 30
0.0000000000000016
 11
497.258832026756
 21
2050.883519373196
 31
0.0000000000000016
210
0.0
220
1.0
230
0.0
  0
LINE
  5
13B4
330
1F
100
AcDbEntity
  8
Hewi
100
AcDbLine
 10
497.2588320267552
 20
1983.583519373195
 30
0.0000000000000016
 11
497.2588320267552
 21
1994.79662575662
 31
0.0000000000000016
210
0.0
220
1.0
230
0.0
  0
LINE
  5
13B5
330
1F
100
AcDbEntity
  8
Hewi
100
AcDbLine
 10
536.6588320267545
 20
2016.468907539756
 30
0.0000000000000065
 11
536.6588320267557
 21
2050.883519373196
 31
0.0000000000000065
210
0.0
220
1.0
230
0.0
  0
LINE
  5
13B6
330
1F
100
AcDbEntity
  8
Hewi
100
AcDbLine
 10
536.6588320267545
 20
1983.583519373195
 30
0.0000000000000065
 11
536.6588320267545
 21
1994.796625756616
 31
0.0000000000000065
210
0.0
220
1.0
230
0.0
  0
LINE
  5
13B7
330
1F
100
AcDbEntity
  8
Hewi
100
AcDbLine
 10
549.6588320267557
 20
2050.883519373183
 30
0.0000000000000081
 11
541.1588320267557
 21
2050.883519373183
 31
0.000000000000007
210
0.0
220
1.0
230
0.0
  0
LINE
  5
13B8
330
1F
100
AcDbEntity
  8
Hewi
100
AcDbLine
 10
549.6588320267557
 20
2090.883519373184
 30
0.0000000000000081
 11
541.1588320267557
 21
2090.883519373184
 31
0.000000000000007
210
0.0
220
1.0
230
0.0
  0
LINE
  5
13B9
330
1F
100
AcDbEntity
  8
Hewi
100
AcDbLine
 10
549.6588320267557
 20
2088.283519373195
 30
0.0000000000000081
 11
549.8088320267562
 21
2088.283519373195
 31
0.0000000000000081
210
0.0
220
1.0
230
0.0
  0
LINE
  5
13BA
330
1F
100
AcDbEntity
  8
Hewi
100
AcDbLine
 10
549.6588320267557
 20
2053.483519373195
 30
0.0000000000000081
 11
549.8088320267553
 21
2053.483519373195
 31
0.0000000000000081
210
0.0
220
1.0
230
0.0
  0
LINE
  5
13BB
330
1F
100
AcDbEntity
  8
Hewi
100
AcDbLine
 10
492.7588320267559
 20
2078.883519373196
 30
0.0000000000000011
 11
492.9588320267558
 21
2078.883519373196
 31
0.0000000000000011
210
0.0
220
1.0
230
0.0
  0
LINE
  5
13BC
330
1F
100
AcDbEntity
  8
Hewi
100
AcDbLine
 10
540.9588320267558
 20
2078.883519373196
 30
0.000000000000007
 11
541.1588320267557
 21
2078.883519373196
 31
0.000000000000007
210
0.0
220
1.0
230
0.0
  0
LINE
  5
13BD
330
1F
100
AcDbEntity
  8
Hewi
100
AcDbLine
 10
492.7588320267559
 20
2062.883519373197
 30
0.0000000000000011
 11
492.9588320267558
 21
2062.883519373197
 31
0.0000000000000011
210
0.0
220
1.0
230
0.0
  0
LINE
  5
13BE
330
1F
100
AcDbEntity
  8
Hewi
100
AcDbLine
 10
540.9588320267558
 20
2062.883519373197
 30
0.000000000000007
 11
541.1588320267557
 21
2062.883519373197
 31
0.000000000000007
210
0.0
220
1.0
230
0.0
  0
LINE
  5
13BF
330
1F
100
AcDbEntity
  8
Hewi
100
AcDbLine
 10
492.9588320267558
 20
2063.156112762884
 30
0.0000000000000011
 11
492.7588320267559
 21
2063.156112762884
 31
0.0000000000000011
210
0.0
220
1.0
230
0.0
  0
LINE
  5
13C0
330
1F
100
AcDbEntity
  8
Hewi
100
AcDbLine
 10
492.7588320267559
 20
2065.087964415462
 30
0.0000000000000011
 11
492.9588320267558
 21
2065.087964415462
 31
0.0000000000000011
210
0.0
220
1.0
230
0.0
  0
LINE
  5
13C1
330
1F
100
AcDbEntity
  8
Hewi
100
AcDbLine
 10
492.7588320267559
 20
2065.226665123704
 30
0.0000000000000011
 11
492.9588320267558
 21
2065.226665123704
 31
0.0000000000000011
210
0.0
220
1.0
230
0.0
  0
LINE
  5
13C2
330
1F
100
AcDbEntity
  8
Hewi
100
AcDbLine
 10
549.8088320267562
 20
2090.883519373196
 30
0.0000000000000081
 11
549.8088320267553
 21
2050.883519373196
 31
0.0000000000000081
210
0.0
220
1.0
230
0.0
  0
LINE
  5
13C3
330
1F
100
AcDbEntity
  8
Hewi
100
AcDbLine
 10
551.8088320267562
 20
2088.883519373196
 30
0.0000000000000083
 11
551.8088320267553
 21
2052.883519373196
 31
0.0000000000000083
210
0.0
220
1.0
230
0.0
  0
LINE
  5
13C4
330
1F
100
AcDbEntity
  8
Hewi
100
AcDbLine
 10
492.7588320267559
 20
2050.883519373183
 30
0.0000000000000011
 11
492.7588320267559
 21
2090.883519373184
 31
0.0000000000000011
210
0.0
220
1.0
230
0.0
  0
LINE
  5
13C5
330
1F
100
AcDbEntity
  8
Hewi
100
AcDbLine
 10
492.9588320267558
 20
2052.883519373196
 30
0.0000000000000011
 11
492.7588320267559
 21
2052.883519373196
 31
0.0000000000000011
210
0.0
220
1.0
230
0.0
  0
LINE
  5
13C6
330
1F
100
AcDbEntity
  8
Hewi
100
AcDbLine
 10
541.1588320267557
 20
2052.883519373196
 30
0.000000000000007
 11
540.9588320267558
 21
2052.883519373196
 31
0.000000000000007
210
0.0
220
1.0
230
0.0
  0
LINE
  5
13C7
330
1F
100
AcDbEntity
  8
Hewi
100
AcDbLine
 10
540.9588320267558
 20
2055.583519373195
 30
0.000000000000007
 11
541.1588320267545
 21
2055.583519373195
 31
0.000000000000007
210
0.0
220
1.0
230
0.0
  0
LINE
  5
13C8
330
1F
100
AcDbEntity
  8
Hewi
100
AcDbLine
 10
492.7588320267568
 20
2055.583519373195
 30
0.0000000000000011
 11
492.9588320267558
 21
2055.583519373195
 31
0.0000000000000011
210
0.0
220
1.0
230
0.0
  0
LINE
  5
13C9
330
1F
100
AcDbEntity
  8
Hewi
100
AcDbLine
 10
492.9588320267558
 20
2086.183519373173
 30
0.0000000000000011
 11
492.7588320267568
 21
2086.183519373173
 31
0.0000000000000011
210
0.0
220
1.0
230
0.0
  0
LINE
  5
13CA
330
1F
100
AcDbEntity
  8
Hewi
100
AcDbLine
 10
541.1588320267545
 20
2086.183519373173
 30
0.000000000000007
 11
540.9588320267558
 21
2086.183519373173
 31
0.000000000000007
210
0.0
220
1.0
230
0.0
  0
LINE
  5
13CB
330
1F
100
AcDbEntity
  8
Hewi
100
AcDbLine
 10
540.9588320267558
 20
2088.883519373173
 30
0.000000000000007
 11
541.1588320267557
 21
2088.883519373173
 31
0.000000000000007
210
0.0
220
1.0
230
0.0
  0
LINE
  5
13CC
330
1F
100
AcDbEntity
  8
Hewi
100
AcDbLine
 10
492.7588320267559
 20
2088.883519373173
 30
0.0000000000000011
 11
492.9588320267558
 21
2088.883519373173
 31
0.0000000000000011
210
0.0
220
1.0
230
0.0
  0
LINE
  5
13CD
330
1F
100
AcDbEntity
  8
Hewi
100
AcDbLine
 10
541.1588320267557
 20
2050.883519373183
 30
0.000000000000007
 11
541.1588320267557
 21
2090.883519373184
 31
0.000000000000007
210
0.0
220
1.0
230
0.0
  0
LINE
  5
13CE
330
1F
100
AcDbEntity
  8
Hewi
100
AcDbLine
 10
549.6588320267557
 20
2090.883519373184
 30
0.0000000000000081
 11
549.6588320267557
 21
2070.883519373183
 31
0.0000000000000081
210
0.0
220
1.0
230
0.0
  0
LINE
  5
13CF
330
1F
100
AcDbEntity
  8
Hewi
100
AcDbLine
 10
549.6588320267557
 20
2070.883519373183
 30
0.0000000000000081
 11
549.6588320267557
 21
2050.883519373183
 31
0.0000000000000081
210
0.0
220
1.0
230
0.0
  0
LINE
  5
13D0
330
1F
100
AcDbEntity
  8
Hewi
100
AcDbLine
 10
535.958832026754
 20
1982.883519373195
 30
0.0000000000000064
 11
497.9588320267558
 21
1982.883519373195
 31
0.0000000000000017
210
0.0
220
1.0
230
0.0
  0
LINE
  5
13D1
330
1F
100
AcDbEntity
  8
Hewi
100
AcDbLine
 10
492.9588320267558
 20
2090.883519373196
 30
0.0000000000000011
 11
492.9588320267558
 21
2070.883519373196
 31
0.0000000000000011
210
0.0
220
1.0
230
0.0
  0
LINE
  5
13D2
330
1F
100
AcDbEntity
  8
Hewi
100
AcDbLine
 10
492.9588320267558
 20
2070.883519373196
 30
0.0000000000000011
 11
492.9588320267558
 21
2050.883519373196
 31
0.0000000000000011
210
0.0
220
1.0
230
0.0
  0
LINE
  5
13D3
330
1F
100
AcDbEntity
  8
Hewi
100
AcDbLine
 10
499.4588320267559
 20
2090.883541917523
 30
0.0000000000000019
 11
499.4588320267559
 21
2050.883496828868
 31
0.0000000000000019
210
0.0
220
1.0
230
0.0
  0
LINE
  5
13D4
330
1F
100
AcDbEntity
  8
Hewi
100
AcDbLine
 10
540.9588320267558
 20
2090.883519373196
 30
0.000000000000007
 11
540.9588320267558
 21
2070.883519373196
 31
0.000000000000007
210
0.0
220
1.0
230
0.0
  0
LINE
  5
13D5
330
1F
100
AcDbEntity
  8
Hewi
100
AcDbLine
 10
540.9588320267558
 20
2070.883519373196
 30
0.000000000000007
 11
540.9588320267558
 21
2050.883519373196
 31
0.000000000000007
210
0.0
220
1.0
230
0.0
  0
LINE
  5
13D6
330
1F
100
AcDbEntity
  8
Hewi
100
AcDbLine
 10
534.4588320267559
 20
2050.883496828868
 30
0.0000000000000062
 11
534.4588320267559
 21
2090.883541917523
 31
0.0000000000000062
210
0.0
220
1.0
230
0.0
  0
SPLINE
  5
13D7
330
1F
100
AcDbEntity
  8
Hewi
100
AcDbSpline
210
0.0000000000000006
220
0.0000000000000026
230
1.0
 70
     8
 71
     3
 72
    14
 73
    10
 74
     0
 42
0.0000000001
 43
0.0000000001
 40
-1.51819376772367
 40
-1.51819376772367
 40
-1.51819376772367
 40
-1.51819376772367
 40
-1.135751222155821
 40
-1.135751222155821
 40
-0.7533086765879721
 40
-0.7533086765879721
 40
-0.376654338293986
 40
-0.376654338293986
 40
0.0
 40
0.0
 40
0.0
 40
0.0
 10
531.9588320267558
 20
2051.446488926806
 30
0.0000000000000059
 10
531.9588320267558
 20
2051.476523249107
 30
0.0000000000000059
 10
531.9335725850398
 20
2051.509879201336
 30
0.0000000000000059
 10
531.8308772978654
 20
2051.573657717355
 30
0.0000000000000059
 10
531.7534421769343
 20
2051.60401490721
 30
0.0000000000000059
 10
531.5755545860512
 20
2051.652672669453
 30
0.0000000000000059
 10
531.4636851153583
 20
2051.67433986898
 30
0.0000000000000058
 10
531.2181061071278
 20
2051.703426992945
 30
0.0000000000000058
 10
531.084383472854
 20
2051.710769864211
 30
0.0000000000000058
 10
530.9588320267558
 20
2051.710769864211
 30
0.0000000000000058
  0
SPLINE
  5
13D8
330
1F
100
AcDbEntity
  8
Hewi
100
AcDbSpline
210
0.0000000000000007
220
-0.0000000000000029
230
1.0
 70
     8
 71
     3
 72
    14
 73
    10
 74
     0
 42
0.0000000001
 43
0.0000000001
 40
0.0
 40
0.0
 40
0.0
 40
0.0
 40
0.3766543382939877
 40
0.3766543382939877
 40
0.7533086765879756
 40
0.7533086765879756
 40
1.135751222155823
 40
1.135751222155823
 40
1.51819376772367
 40
1.51819376772367
 40
1.51819376772367
 40
1.51819376772367
 10
502.9588320267558
 20
2051.710769864211
 30
0.0000000000000023
 10
502.8332805806576
 20
2051.710769864211
 30
0.0000000000000023
 10
502.6995579463838
 20
2051.703426992945
 30
0.0000000000000023
 10
502.4539789381534
 20
2051.67433986898
 30
0.0000000000000023
 10
502.3421094674604
 20
2051.652672669453
 30
0.0000000000000023
 10
502.1642218765784
 20
2051.60401490721
 30
0.0000000000000022
 10
502.0867867556463
 20
2051.573657717355
 30
0.0000000000000022
 10
501.984091468472
 20
2051.509879201336
 30
0.0000000000000022
 10
501.9588320267557
 20
2051.476523249107
 30
0.0000000000000022
 10
501.9588320267557
 20
2051.446488926806
 30
0.0000000000000022
  0
LINE
  5
13D9
330
1F
100
AcDbEntity
  8
Hewi
100
AcDbLine
 10
530.9588320267558
 20
2051.710769864211
 30
0.0000000000000058
 11
502.9588320267558
 21
2051.710769864211
 31
0.0000000000000023
210
0.0
220
1.0
230
0.0
  0
LINE
  5
13DA
330
1F
100
AcDbEntity
  8
Hewi
100
AcDbLine
 10
531.9588320267558
 20
2051.446488926806
 30
0.0000000000000059
 11
531.9588320267558
 21
2020.74197358248
 31
0.0000000000000059
210
0.0
220
1.0
230
0.0
  0
LINE
  5
13DB
330
1F
100
AcDbEntity
  8
Hewi
100
AcDbLine
 10
501.9588320267557
 20
2051.446488926806
 30
0.0000000000000022
 11
501.9588320267557
 21
2020.74197358248
 31
0.0000000000000022
210
0.0
220
1.0
230
0.0
  0
SPLINE
  5
13DC
330
1F
100
AcDbEntity
  8
Hewi
100
AcDbSpline
210
0.0
220
0.0
230
1.0
 70
     8
 71
     3
 72
    14
 73
    10
 74
     0
 42
0.0000000001
 43
0.0000000001
 40
0.649611117407552
 40
0.649611117407552
 40
0.649611117407552
 40
0.649611117407552
 40
0.7333587369340008
 40
0.7333587369340008
 40
1.466717473868001
 40
1.466717473868001
 40
2.251649856864295
 40
2.251649856864295
 40
3.036582239860591
 40
3.036582239860591
 40
3.036582239860591
 40
3.036582239860591
 10
502.6429631607363
 20
2018.629631724115
 30
0.0000000000000023
 10
502.6293704938034
 20
2018.656021020177
 30
0.0000000000000023
 10
502.6158479458437
 20
2018.68240476149
 30
0.0000000000000023
 10
502.4848597130968
 20
2018.939486376591
 30
0.0000000000000023
 10
502.3754882983077
 20
2019.167598397249
 30
0.0000000000000023
 10
502.1944690723503
 20
2019.594995482822
 30
0.0000000000000023
 10
502.1077216507247
 20
2019.833317440328
 30
0.0000000000000022
 10
501.9895262585006
 20
2020.301856118742
 30
0.0000000000000022
 10
501.9588320267557
 20
2020.532646673823
 30
0.0000000000000022
 10
501.9588320267557
 20
2020.74197358248
 30
0.0000000000000022
  0
SPLINE
  5
13DD
330
1F
100
AcDbEntity
  8
Hewi
100
AcDbSpline
210
0.0
220
0.0
230
1.0
 70
     8
 71
     3
 72
    20
 73
    16
 74
     0
 42
0.0000000001
 43
0.0000000001
 40
-2.081957642337048
 40
-2.081957642337048
 40
-2.081957642337048
 40
-2.081957642337048
 40
-2.029036545889133
 40
-2.029036545889133
 40
-1.976115449441223
 40
-1.976115449441223
 40
-1.938296586027501
 40
-1.938296586027501
 40
-1.900477722613779
 40
-1.900477722613779
 40
-1.79865290262327
 40
-1.79865290262327
 40
-1.696828082632761
 40
-1.696828082632761
 40
-1.658125044755919
 40
-1.658125044755919
 40
-1.658125044755919
 40
-1.658125044755919
 10
502.9588320267558
 20
2018.508423569631
 30
0.0000000000000023
 10
502.9470442572576
 20
2018.495349828898
 30
0.0000000000000023
 10
502.9331464636253
 20
2018.481872393878
 30
0.0000000000000023
 10
502.9025241621622
 20
2018.459429989279
 30
0.0000000000000023
 10
502.8857364036277
 20
2018.450550700678
 30
0.0000000000000023
 10
502.8566429399035
 20
2018.442508506196
 30
0.0000000000000023
 10
502.8430617383328
 20
2018.44102214118
 30
0.0000000000000023
 10
502.8164587187494
 20
2018.443465730566
 30
0.0000000000000023
 10
502.8034321586548
 20
2018.447354970148
 30
0.0000000000000023
 10
502.7617665688431
 20
2018.466187918384
 30
0.0000000000000023
 10
502.7390192476897
 20
2018.48801364377
 30
0.0000000000000023
 10
502.6972166304022
 20
2018.53723757812
 30
0.0000000000000023
 10
502.6788048841908
 20
2018.565170696112
 30
0.0000000000000023
 10
502.6552707532637
 20
2018.606309640731
 30
0.0000000000000023
 10
502.6490126139077
 20
2018.617887096548
 30
0.0000000000000023
 10
502.6429631607363
 20
2018.629631724115
 30
0.0000000000000023
  0
SPLINE
  5
13DE
330
1F
100
AcDbEntity
  8
Hewi
100
AcDbSpline
210
0.0
220
0.0
230
1.0
 70
     8
 71
     3
 72
    20
 73
    16
 74
     0
 42
0.0000000001
 43
0.0000000001
 40
1.658125044755959
 40
1.658125044755959
 40
1.658125044755959
 40
1.658125044755959
 40
1.696828082632773
 40
1.696828082632773
 40
1.798652902623284
 40
1.798652902623284
 40
1.900477722613793
 40
1.900477722613793
 40
1.93829658602752
 40
1.93829658602752
 40
1.976115449441245
 40
1.976115449441245
 40
2.029036545889153
 40
2.029036545889153
 40
2.081957642337064
 40
2.081957642337064
 40
2.081957642337064
 40
2.081957642337064
 10
531.2747008927755
 20
2018.629631724115
 30
0.0000000000000058
 10
531.2686514396038
 20
2018.617887096548
 30
0.0000000000000058
 10
531.2623933002478
 20
2018.606309640731
 30
0.0000000000000058
 10
531.2388591693205
 20
2018.565170696112
 30
0.0000000000000058
 10
531.2204474231092
 20
2018.53723757812
 30
0.0000000000000058
 10
531.178644805822
 20
2018.48801364377
 30
0.0000000000000058
 10
531.1558974846683
 20
2018.466187918384
 30
0.0000000000000058
 10
531.114231894857
 20
2018.447354970148
 30
0.0000000000000058
 10
531.1012053347623
 20
2018.443465730566
 30
0.0000000000000058
 10
531.0746023151788
 20
2018.44102214118
 30
0.0000000000000058
 10
531.0610211136081
 20
2018.442508506196
 30
0.0000000000000058
 10
531.0319276498841
 20
2018.450550700678
 30
0.0000000000000058
 10
531.0151398913497
 20
2018.459429989279
 30
0.0000000000000058
 10
530.9845175898864
 20
2018.481872393878
 30
0.0000000000000058
 10
530.9706197962541
 20
2018.495349828898
 30
0.0000000000000058
 10
530.9588320267558
 20
2018.508423569631
 30
0.0000000000000058
  0
SPLINE
  5
13DF
330
1F
100
AcDbEntity
  8
Hewi
100
AcDbSpline
210
0.0
220
0.0
230
1.0
 70
     8
 71
     3
 72
    14
 73
    10
 74
     0
 42
0.0000000001
 43
0.0000000001
 40
8.794524056531006
 40
8.794524056531006
 40
8.794524056531006
 40
8.794524056531006
 40
9.579456439527339
 40
9.579456439527339
 40
10.36438882252367
 40
10.36438882252367
 40
11.09774755945768
 40
11.09774755945768
 40
11.18149517898412
 40
11.18149517898412
 40
11.18149517898412
 40
11.18149517898412
 10
531.9588320267558
 20
2020.74197358248
 30
0.0000000000000059
 10
531.9588320267558
 20
2020.532646673823
 30
0.0000000000000059
 10
531.9281377950111
 20
2020.301856118742
 30
0.0000000000000059
 10
531.8099424027868
 20
2019.833317440328
 30
0.0000000000000059
 10
531.7231949811612
 20
2019.594995482822
 30
0.0000000000000059
 10
531.5421757552042
 20
2019.167598397249
 30
0.0000000000000058
 10
531.4328043404149
 20
2018.939486376591
 30
0.0000000000000058
 10
531.3018161076678
 20
2018.68240476149
 30
0.0000000000000058
 10
531.2882935597082
 20
2018.656021020177
 30
0.0000000000000058
 10
531.2747008927755
 20
2018.629631724115
 30
0.0000000000000058
  0
ELLIPSE
  5
13E0
330
1F
100
AcDbEntity
  8
Hewi
100
AcDbEllipse
 10
516.9588320267559
 20
2005.981389619176
 30
0.0000000000000041
 11
-18.81828199961667
 21
0.0
 31
-0.0000000000000023
210
-0.0000000000000001
220
0.0
230
1.0
 40
0.9961946980917455
 41
-2.409769549797642
 42
-0.7318231037921505
  0
ELLIPSE
  5
13E1
330
1F
100
AcDbEntity
  8
Hewi
100
AcDbEllipse
 10
516.9588320267559
 20
2006.052012290469
 30
0.0000000000000041
 11
12.70449773839052
 21
0.0
 31
0.0000000000000016
210
-0.0000000000000001
220
0.0
230
1.0
 40
0.9961946980917455
 41
0.0
 42
6.283185307179584
  0
ARC
  5
13E2
330
1F
100
AcDbEntity
  8
Hewi
100
AcDbCircle
 10
1334.744374457192
 20
1988.311521739406
 30
0.000000000000014
 40
4.000000000000073
100
AcDbArc
 50
194.1768749669893
 51
355.8231250330065
  0
ARC
  5
13E3
330
1F
100
AcDbEntity
  8
Hewi
100
AcDbCircle
 10
1304.423292066389
 20
1984.691876379112
 30
0.0000000000000084
 40
0.6999999999999319
100
AcDbArc
 50
270.0
 51
0.0
  0
ARC
  5
13E4
330
1F
100
AcDbEntity
  8
Hewi
100
AcDbCircle
 10
1266.42329206639
 20
1984.691876379112
 30
0.0000000000000014
 40
0.6999999999999319
100
AcDbArc
 50
180.0
 51
270.0
  0
ARC
  5
13E5
330
1F
100
AcDbEntity
  8
Hewi
100
AcDbCircle
 10
1260.72329206639
 20
2087.99187637909
 30
0.0000000000000004
 40
1.999999999999995
100
AcDbArc
 50
90.0
 51
180.0
  0
ARC
  5
13E6
330
1F
100
AcDbEntity
  8
Hewi
100
AcDbCircle
 10
1260.72329206639
 20
2055.991876379112
 30
0.0000000000000004
 40
1.999999999999999
100
AcDbArc
 50
180.0
 51
270.0
  0
ARC
  5
13E7
330
1F
100
AcDbEntity
  8
Hewi
100
AcDbCircle
 10
1219.05247561775
 20
1996.760459123718
 30
-0.0000000000000073
 40
119.9999999999995
100
AcDbArc
 50
355.8231250330065
 51
358.9226597831567
  0
ARC
  5
13E8
330
1F
100
AcDbEntity
  8
Hewi
100
AcDbCircle
 10
1219.05247561775
 20
1996.760459123718
 30
-0.0000000000000073
 40
119.9999999999995
100
AcDbArc
 50
11.07734021684892
 51
14.02230851987761
  0
LINE
  5
13E9
330
1F
100
AcDbEntity
  8
Hewi
100
AcDbLine
 10
1265.723292066389
 20
1984.691876379112
 30
0.0000000000000013
 11
1265.723292066389
 21
2053.991876379112
 31
0.0000000000000013
210
0.0
220
1.0
230
0.0
  0
LINE
  5
13EA
330
1F
100
AcDbEntity
  8
Hewi
100
AcDbLine
 10
1305.123292066389
 20
1984.691876379112
 30
0.0000000000000085
 11
1305.123292066389
 21
2053.991876379112
 31
0.0000000000000085
210
0.0
220
1.0
230
0.0
  0
LINE
  5
13EB
330
1F
100
AcDbEntity
  8
Hewi
100
AcDbLine
 10
1258.72329206639
 20
2055.991876379112
 30
0.0
 11
1258.72329206639
 21
2087.99187637909
 31
0.0
210
0.0
220
1.0
230
0.0
  0
LINE
  5
13EC
330
1F
100
AcDbEntity
  8
Hewi
100
AcDbLine
 10
1285.42329206639
 20
2053.991876379113
 30
0.0000000000000049
 11
1318.705494179281
 21
2053.991876379113
 31
0.000000000000011
210
0.0
220
1.0
230
0.0
  0
LINE
  5
13ED
330
1F
100
AcDbEntity
  8
Hewi
100
AcDbLine
 10
1285.42329206639
 20
2089.991876379091
 30
0.0000000000000049
 11
1318.705494179291
 21
2089.991876379091
 31
0.000000000000011
210
0.0
220
1.0
230
0.0
  0
LINE
  5
13EE
330
1F
100
AcDbEntity
  8
Hewi
100
AcDbLine
 10
1260.72329206639
 20
2089.991876379091
 30
0.0000000000000004
 11
1285.42329206639
 21
2089.991876379091
 31
0.0000000000000049
210
0.0
220
1.0
230
0.0
  0
LINE
  5
13EF
330
1F
100
AcDbEntity
  8
Hewi
100
AcDbLine
 10
1260.72329206639
 20
2053.991876379112
 30
0.0000000000000004
 11
1285.42329206639
 21
2053.991876379112
 31
0.0000000000000049
210
0.0
220
1.0
230
0.0
  0
LINE
  5
13F0
330
1F
100
AcDbEntity
  8
Hewi
100
AcDbLine
 10
1304.423292066389
 20
1983.991876379112
 30
0.0000000000000084
 11
1266.42329206639
 21
1983.991876379112
 31
0.0000000000000014
210
0.0
220
1.0
230
0.0
  0
ARC
  5
13F1
330
1F
100
AcDbEntity
  8
Hewi
100
AcDbCircle
 10
1327.423292066389
 20
2071.991876379112
 30
0.0000000000000126
 40
20.00002254432668
100
AcDbArc
 50
244.1579338865253
 51
115.8420661136497
  0
LINE
  5
13F2
330
1F
100
AcDbEntity
  8
Hewi
100
AcDbLine
 10
1325.146412062487
 20
2052.121880928146
 30
0.0000000000000122
 11
1328.051240965725
 21
2018.919534633568
 31
0.0000000000000127
210
0.0
220
1.0
230
0.0
  0
SPLINE
  5
13F3
330
1F
100
AcDbEntity
  8
Hewi
100
AcDbSpline
210
0.0
220
0.0
230
1.0
 70
     8
 71
     3
 72
    20
 73
    16
 74
     0
 42
0.0000000001
 43
0.0000000001
 40
1.658125044756507
 40
1.658125044756507
 40
1.658125044756507
 40
1.658125044756507
 40
1.696828082632723
 40
1.696828082632723
 40
1.798652902623234
 40
1.798652902623234
 40
1.900477722613745
 40
1.900477722613745
 40
1.938296586027634
 40
1.938296586027634
 40
1.97611544944152
 40
1.97611544944152
 40
2.029036545890053
 40
2.029036545890053
 40
2.081957642338585
 40
2.081957642338585
 40
2.081957642338585
 40
2.081957642338585
 10
1328.091248564366
 20
2019.049667038281
 30
0.0000000000000127
 10
1328.09028516439
 20
2019.037571357495
 30
0.0000000000000127
 10
1328.089302255718
 20
2019.025641987442
 30
0.0000000000000127
 10
1328.085661545868
 20
2018.983226452913
 30
0.0000000000000127
 10
1328.082912371016
 20
2018.954377667852
 30
0.0000000000000127
 10
1328.07696996185
 20
2018.903346567905
 30
0.0000000000000127
 10
1328.073843075584
 20
2018.880632791109
 30
0.0000000000000127
 10
1328.068527736002
 20
2018.860572076512
 30
0.0000000000000127
 10
1328.066904718597
 20
2018.85633665738
 30
0.0000000000000127
 10
1328.063695420846
 20
2018.853289485907
 30
0.0000000000000127
 10
1328.062109302847
 20
2018.8545191051
 30
0.0000000000000127
 10
1328.05880482572
 20
2018.862102694919
 30
0.0000000000000127
 10
1328.056979510746
 20
2018.870797108581
 30
0.0000000000000127
 10
1328.053773948236
 20
2018.893020496289
 30
0.0000000000000127
 10
1328.052384769829
 20
2018.906460892833
 30
0.0000000000000127
 10
1328.051240965725
 20
2018.919534633568
 30
0.0000000000000127
  0
SPLINE
  5
13F4
330
1F
100
AcDbEntity
  8
Hewi
100
AcDbSpline
210
-0.0000000000000067
220
0.0000000000000022
230
-1.0
 70
     8
 71
     3
 72
    14
 73
    10
 74
     0
 42
0.0000000001
 43
0.0000000001
 40
8.778950683888792
 40
8.778950683888792
 40
8.778950683888792
 40
8.778950683888792
 40
9.563883066885145
 40
9.563883066885145
 40
10.34881544988149
 40
10.34881544988149
 40
11.08217418681549
 40
11.08217418681549
 40
11.16592180634194
 40
11.16592180634194
 40
11.16592180634194
 40
11.16592180634194
 10
1328.844400218822
 20
2021.327396131911
 30
0.0000000000000129
 10
1328.72616319721
 20
2021.093991641247
 30
0.0000000000000128
 10
1328.601886524805
 20
2020.837727439427
 30
0.0000000000000128
 10
1328.386081658202
 20
2020.323908576119
 30
0.0000000000000128
 10
1328.295240855703
 20
2020.065892433841
 30
0.0000000000000128
 10
1328.170785009556
 20
2019.609957135726
 30
0.0000000000000127
 10
1328.122780287228
 20
2019.369861591711
 30
0.0000000000000127
 10
1328.095876371644
 20
2019.104070192107
 30
0.0000000000000127
 10
1328.093413251758
 20
2019.076845124563
 30
0.0000000000000127
 10
1328.091248564366
 20
2019.049667038281
 30
0.0000000000000127
  0
SPLINE
  5
13F5
330
1F
100
AcDbEntity
  8
Hewi
100
AcDbSpline
210
0.0
220
-0.0000000000000001
230
1.0
 70
     8
 71
     3
 72
    30
 73
    26
 74
     0
 42
0.0000000001
 43
0.0000000001
 40
50.21703549202495
 40
50.21703549202495
 40
50.21703549202495
 40
50.21703549202495
 40
50.53039260880385
 40
50.53039260880385
 40
51.29598074329932
 40
51.29598074329932
 40
51.92914302530023
 40
51.92914302530023
 40
52.56230530730113
 40
52.56230530730113
 40
53.12551373138332
 40
53.12551373138332
 40
53.68872215546555
 40
53.68872215546555
 40
54.25193057954776
 40
54.25193057954776
 40
54.81513900362998
 40
54.81513900362998
 40
55.44830128563085
 40
55.44830128563085
 40
56.08146356763175
 40
56.08146356763175
 40
56.84705170212724
 40
56.84705170212724
 40
57.16040881890615
 40
57.16040881890615
 40
57.16040881890615
 40
57.16040881890615
 10
1334.821568407373
 20
2021.850330588397
 30
0.000000000000014
 10
1334.753995344705
 20
2021.940441884835
 30
0.000000000000014
 10
1334.682503396982
 20
2022.029593307015
 30
0.0000000000000139
 10
1334.425822366055
 20
2022.327203108709
 30
0.0000000000000139
 10
1334.224405778884
 20
2022.521345162253
 30
0.0000000000000139
 10
1333.860586073069
 20
2022.812934623005
 30
0.0000000000000138
 10
1333.669412552714
 20
2022.943846959755
 30
0.0000000000000138
 10
1333.265131710153
 20
2023.164621198638
 30
0.0000000000000137
 10
1333.051898541244
 20
2023.254252572712
 30
0.0000000000000136
 10
1332.671209090728
 20
2023.37303470136
 30
0.0000000000000136
 10
1332.47010788175
 20
2023.417525896406
 30
0.0000000000000135
 10
1332.063192793363
 20
2023.463143472249
 30
0.0000000000000135
 10
1331.857368724425
 20
2023.464178915129
 30
0.0000000000000134
 10
1331.483325227098
 20
2023.431454349448
 30
0.0000000000000134
 10
1331.280807891019
 20
2023.39469366278
 30
0.0000000000000133
 10
1330.887996166073
 20
2023.279109056852
 30
0.0000000000000132
 10
1330.697675951273
 20
2023.200372924566
 30
0.0000000000000132
 10
1330.343396329095
 20
2023.017289334015
 30
0.0000000000000131
 10
1330.148966975924
 20
2022.891992110714
 30
0.0000000000000131
 10
1329.789165112033
 20
2022.60436929702
 30
0.000000000000013
 10
1329.623628635728
 20
2022.442248879396
 30
0.000000000000013
 10
1329.315970147229
 20
2022.091912688836
 30
0.000000000000013
 10
1329.151325944404
 20
2021.865744466007
 30
0.0000000000000129
 10
1328.950223874815
 20
2021.528083832663
 30
0.0000000000000129
 10
1328.895299032417
 20
2021.427872374469
 30
0.0000000000000129
 10
1328.844400218822
 20
2021.327396131911
 30
0.0000000000000129
  0
SPLINE
  5
13F6
330
1F
100
AcDbEntity
  8
Hewi
100
AcDbSpline
210
-0.0000000000000116
220
-0.0000000000000062
230
-1.0
 70
     8
 71
     3
 72
    14
 73
    10
 74
     0
 42
0.0000000001
 43
0.0000000001
 40
0.649611117407552
 40
0.649611117407552
 40
0.649611117407552
 40
0.649611117407552
 40
0.7333587369340008
 40
0.7333587369340008
 40
1.466717473868001
 40
1.466717473868001
 40
2.251649856864295
 40
2.251649856864295
 40
3.036582239860591
 40
3.036582239860591
 40
3.036582239860591
 40
3.036582239860591
 10
1335.958801502203
 20
2019.737988730032
 30
0.0000000000000142
 10
1335.951950276121
 20
2019.764378026093
 30
0.0000000000000142
 10
1335.944796993195
 20
2019.790761767407
 30
0.0000000000000142
 10
1335.872147616361
 20
2020.047843382508
 30
0.0000000000000142
 10
1335.783180039947
 20
2020.275955403166
 30
0.0000000000000141
 10
1335.581442624102
 20
2020.703352488739
 30
0.0000000000000141
 10
1335.447177864595
 20
2020.941674446244
 30
0.0000000000000141
 10
1335.145427849563
 20
2021.410213124657
 30
0.000000000000014
 10
1334.978539407412
 20
2021.641003679739
 30
0.000000000000014
 10
1334.821568407373
 20
2021.850330588397
 30
0.000000000000014
  0
SPLINE
  5
13F7
330
1F
100
AcDbEntity
  8
Hewi
100
AcDbSpline
210
0.0
220
0.0
230
1.0
 70
     8
 71
     3
 72
    20
 73
    16
 74
     0
 42
0.0000000001
 43
0.0000000001
 40
-2.081957642337048
 40
-2.081957642337048
 40
-2.081957642337048
 40
-2.081957642337048
 40
-2.029036545889133
 40
-2.029036545889133
 40
-1.976115449441223
 40
-1.976115449441223
 40
-1.938296586027501
 40
-1.938296586027501
 40
-1.900477722613779
 40
-1.900477722613779
 40
-1.79865290262327
 40
-1.79865290262327
 40
-1.696828082632761
 40
-1.696828082632761
 40
-1.658125044755919
 40
-1.658125044755919
 40
-1.658125044755919
 40
-1.658125044755919
 10
1336.020798550458
 20
2019.616780575548
 30
0.0000000000000142
 10
1336.021942354563
 20
2019.603706834814
 30
0.0000000000000142
 10
1336.022908181264
 20
2019.590229399796
 30
0.0000000000000142
 10
1336.023610369229
 20
2019.567786995194
 30
0.0000000000000142
 10
1336.023322553978
 20
2019.558907706596
 30
0.0000000000000142
 10
1336.021385155836
 20
2019.550865512113
 30
0.0000000000000142
 10
1336.020036655666
 20
2019.549379147096
 30
0.0000000000000142
 10
1336.016346978585
 20
2019.551822736481
 30
0.0000000000000142
 10
1336.014013145648
 20
2019.555711976065
 30
0.0000000000000142
 10
1336.005295051485
 20
2019.5745449243
 30
0.0000000000000142
 10
1335.998271463699
 20
2019.596370649686
 30
0.0000000000000142
 10
1335.983557875571
 20
2019.645594584037
 30
0.0000000000000142
 10
1335.975840927908
 20
2019.673527702027
 30
0.0000000000000142
 10
1335.964890148346
 20
2019.714666646649
 30
0.0000000000000142
 10
1335.961850658895
 20
2019.726244102465
 30
0.0000000000000142
 10
1335.958801502203
 20
2019.737988730032
 30
0.0000000000000142
  0
LINE
  5
13F8
330
1F
100
AcDbEntity
  8
Hewi
100
AcDbLine
 10
1333.11596964722
 20
2052.819126870127
 30
0.0000000000000137
 11
1336.020798550458
 21
2019.616780575548
 31
0.0000000000000142
210
0.0
220
1.0
230
0.0
  0
LINE
  5
13F9
330
1F
100
AcDbEntity
  8
Hewi
100
AcDbLine
 10
1336.81672289873
 20
2019.816522585289
 30
0.0000000000000143
 11
1339.031262771981
 21
1994.504216007483
 31
0.0000000000000147
210
0.0
220
1.0
230
0.0
  0
LINE
  5
13FA
330
1F
100
AcDbEntity
  8
Hewi
100
AcDbLine
 10
1327.232723660741
 20
2018.978031300724
 30
0.0000000000000126
 11
1329.447263533992
 21
1993.665724722917
 31
0.000000000000013
210
0.0
220
1.0
230
0.0
  0
SPLINE
  5
13FB
330
1F
100
AcDbEntity
  8
Hewi
100
AcDbSpline
210
0.0000000000000027
220
0.0000000000000028
230
1.0
 70
     8
 71
     3
 72
    46
 73
    42
 74
     0
 42
0.0000000001
 43
0.0000000001
 40
-26.25009051702358
 40
-26.25009051702358
 40
-26.25009051702358
 40
-26.25009051702358
 40
-25.19226716828405
 40
-25.19226716828405
 40
-24.06297385938894
 40
-24.06297385938894
 40
-22.97039393615168
 40
-22.97039393615168
 40
-21.87781401291442
 40
-21.87781401291442
 40
-20.78523408967716
 40
-20.78523408967716
 40
-19.6926541664399
 40
-19.6926541664399
 40
-18.59462246291696
 40
-18.59462246291696
 40
-17.49659075939401
 40
-17.49659075939401
 40
-16.39855905587109
 40
-16.39855905587109
 40
-15.30052735234815
 40
-15.30052735234815
 40
-14.20249564882519
 40
-14.20249564882519
 40
-13.10446394530224
 40
-13.10446394530224
 40
-12.00643224177928
 40
-12.00643224177928
 40
-10.90840053825633
 40
-10.90840053825633
 40
-9.815820615019132
 40
-9.815820615019132
 40
-8.723240691781931
 40
-8.723240691781931
 40
-7.630660768544732
 40
-7.630660768544732
 40
-6.538080845307532
 40
-6.538080845307532
 40
-5.408787536412319
 40
-5.408787536412319
 40
-4.350964187672493
 40
-4.350964187672493
 40
-4.350964187672493
 40
-4.350964187672493
 10
1321.667287510806
 20
2052.838067634664
 30
0.0000000000000116
 10
1321.496018417019
 20
2052.8895418958
 30
0.0000000000000115
 10
1321.304286623272
 20
2052.949702070688
 30
0.0000000000000115
 10
1320.88072359712
 20
2053.090872658839
 30
0.0000000000000114
 10
1320.647119773309
 20
2053.17307115522
 30
0.0000000000000114
 10
1320.181197771172
 20
2053.347522774111
 30
0.0000000000000113
 10
1319.928705740589
 20
2053.446879570802
 30
0.0000000000000112
 10
1319.389039729771
 20
2053.674220409894
 30
0.0000000000000111
 10
1319.101898654488
 20
2053.802257713955
 30
0.0000000000000111
 10
1318.509283212455
 20
2054.085222262515
 30
0.000000000000011
 10
1318.20367791724
 20
2054.240274561138
 30
0.0000000000000109
 10
1317.592821753585
 20
2054.571127095795
 30
0.0000000000000108
 10
1317.287590970373
 20
2054.746963468939
 30
0.0000000000000107
 10
1316.696318901573
 20
2055.108372600831
 30
0.0000000000000106
 10
1316.383903748929
 20
2055.310095022755
 30
0.0000000000000106
 10
1315.746499826356
 20
2055.749879992335
 30
0.0000000000000105
 10
1315.421535198996
 20
2055.987988632655
 30
0.0000000000000104
 10
1314.778592420897
 20
2056.4909679612
 30
0.0000000000000103
 10
1314.460387061957
 20
2056.756054836239
 30
0.0000000000000102
 10
1313.848549836174
 20
2057.29856029242
 30
0.0000000000000101
 10
1313.55491837589
 20
2057.57597882215
 30
0.0000000000000101
 10
1313.007394509426
 20
2058.123502688613
 30
0.00000000000001
 10
1312.729975979697
 20
2058.417134148898
 30
0.0000000000000099
 10
1312.187470523516
 20
2059.028971374681
 30
0.0000000000000098
 10
1311.922383648476
 20
2059.347176733621
 30
0.0000000000000098
 10
1311.419404319932
 20
2059.990119511719
 30
0.0000000000000097
 10
1311.181295679612
 20
2060.315084139079
 30
0.0000000000000096
 10
1310.741510710031
 20
2060.952488061652
 30
0.0000000000000095
 10
1310.539788288108
 20
2061.264903214297
 30
0.0000000000000095
 10
1310.178379156216
 20
2061.856175283097
 30
0.0000000000000094
 10
1310.002542783072
 20
2062.16140606631
 30
0.0000000000000094
 10
1309.671690248415
 20
2062.772262229964
 30
0.0000000000000093
 10
1309.516637949791
 20
2063.077867525179
 30
0.0000000000000093
 10
1309.233673401231
 20
2063.670482967213
 30
0.0000000000000093
 10
1309.10563609717
 20
2063.957624042494
 30
0.0000000000000092
 10
1308.878295258079
 20
2064.497290053313
 30
0.0000000000000092
 10
1308.778938461388
 20
2064.749782083896
 30
0.0000000000000092
 10
1308.604486842497
 20
2065.215704086032
 30
0.0000000000000092
 10
1308.522288346116
 20
2065.449307909844
 30
0.0000000000000091
 10
1308.381117757964
 20
2065.872870935996
 30
0.0000000000000091
 10
1308.320957583077
 20
2066.064602729742
 30
0.0000000000000091
 10
1308.269483321941
 20
2066.235871823529
 30
0.0000000000000091
  0
SPLINE
  5
13FC
330
1F
100
AcDbEntity
  8
Hewi
100
AcDbSpline
210
-0.0000000000000025
220
-0.0000000000000026
230
-1.0
 70
     8
 71
     3
 72
    38
 73
    34
 74
     0
 42
0.0000000001
 43
0.0000000001
 40
7.989195374219312
 40
7.989195374219312
 40
7.989195374219312
 40
7.989195374219312
 40
8.254479951649056
 40
8.254479951649056
 40
9.559037833637082
 40
9.559037833637082
 40
10.8635957156251
 40
10.8635957156251
 40
12.16815359761313
 40
12.16815359761313
 40
13.47206133512371
 40
13.47206133512371
 40
14.77596907263429
 40
14.77596907263429
 40
16.07987681014486
 40
16.07987681014486
 40
17.38378454765544
 40
17.38378454765544
 40
18.68769228516606
 40
18.68769228516606
 40
19.99160002267668
 40
19.99160002267668
 40
21.29550776018729
 40
21.29550776018729
 40
22.59941549769791
 40
22.59941549769791
 40
23.90397337968593
 40
23.90397337968593
 40
25.20853126167392
 40
25.20853126167392
 40
26.51308914366193
 40
26.51308914366193
 40
26.77837372109179
 40
26.77837372109179
 40
26.77837372109179
 40
26.77837372109179
 10
1333.179317352242
 20
2091.145678955036
 30
0.0000000000000137
 10
1333.243387734866
 20
2091.126424984477
 30
0.0000000000000137
 10
1333.308651098392
 20
2091.106462058919
 30
0.0000000000000137
 10
1333.701549845135
 20
2090.983991634314
 30
0.0000000000000138
 10
1334.055352371502
 20
2090.864396928054
 30
0.0000000000000138
 10
1334.795897226178
 20
2090.587600320888
 30
0.000000000000014
 10
1335.182825094797
 20
2090.430221397149
 30
0.000000000000014
 10
1335.963962939874
 20
2090.081648651141
 30
0.0000000000000142
 10
1336.358143907421
 20
2089.890378238091
 30
0.0000000000000142
 10
1337.125145433445
 20
2089.486498414946
 30
0.0000000000000144
 10
1337.531064593751
 20
2089.256608447122
 30
0.0000000000000145
 10
1338.360873457342
 20
2088.743215196095
 30
0.0000000000000146
 10
1338.784721315283
 20
2088.45962678543
 30
0.0000000000000147
 10
1339.622793438121
 20
2087.848769022487
 30
0.0000000000000148
 10
1340.037418325419
 20
2087.521130646162
 30
0.0000000000000149
 10
1340.832357031693
 20
2086.840138773268
 30
0.0000000000000151
 10
1341.212664327189
 20
2086.486775365774
 30
0.0000000000000151
 10
1341.91819105305
 20
2085.781248639913
 30
0.0000000000000153
 10
1342.271554460544
 20
2085.400941344416
 30
0.0000000000000153
 10
1342.952546333438
 20
2084.606002638142
 30
0.0000000000000155
 10
1343.280184709763
 20
2084.191377750845
 30
0.0000000000000155
 10
1343.891042472707
 20
2083.353305628007
 30
0.0000000000000156
 10
1344.174630883372
 20
2082.929457770065
 30
0.0000000000000157
 10
1344.688024134399
 20
2082.099648906475
 30
0.0000000000000158
 10
1344.917914102222
 20
2081.693729746169
 30
0.0000000000000158
 10
1345.321793925367
 20
2080.926728220144
 30
0.0000000000000159
 10
1345.513064338418
 20
2080.532547252598
 30
0.0000000000000159
 10
1345.861637084424
 20
2079.751409407521
 30
0.000000000000016
 10
1346.019016008165
 20
2079.364481538902
 30
0.000000000000016
 10
1346.295812615331
 20
2078.623936684226
 30
0.0000000000000161
 10
1346.415407321589
 20
2078.270134157858
 30
0.0000000000000161
 10
1346.537877746195
 20
2077.877235411116
 30
0.0000000000000161
 10
1346.557840671753
 20
2077.811972047589
 30
0.0000000000000161
 10
1346.577094642313
 20
2077.747901664965
 30
0.0000000000000161
  0
ARC
  5
13FD
330
1F
100
AcDbEntity
  8
Hewi
100
AcDbCircle
 10
1327.423291878655
 20
2071.991876982661
 30
0.0000000000000056
 40
19.99999944047946
100
AcDbArc
 50
79.55669986848789
 51
196.7263068944406
  0
ARC
  5
13FE
330
1F
100
AcDbEntity
  8
Hewi
100
AcDbCircle
 10
1327.423292066389
 20
2071.991876379112
 30
0.0000000000000126
 40
20.0
100
AcDbArc
 50
259.5567007107984
 51
10.44329928917524
  0
ARC
  5
13FF
330
1F
100
AcDbEntity
  8
Hewi
100
AcDbCircle
 10
1327.423292066389
 20
2071.991876379112
 30
0.0000000000000126
 40
20.0
100
AcDbArc
 50
253.2737136313604
 51
259.5567007107984
  0
ARC
  5
1400
330
1F
100
AcDbEntity
  8
Hewi
100
AcDbCircle
 10
1447.211510814972
 20
2016.721788184487
 30
0.0000000000000346
 40
120.0000000000005
100
AcDbArc
 50
175.9776914801458
 51
178.9226597831304
  0
ARC
  5
1401
330
1F
100
AcDbEntity
  8
Hewi
100
AcDbCircle
 10
1447.211510814972
 20
2016.721788184487
 30
0.0000000000000346
 40
120.0000000000005
100
AcDbArc
 50
191.0773402168489
 51
194.1768749669893
  0
LINE
  5
1402
330
1F
100
AcDbEntity
  8
Hewi
  6
Continuous
100
AcDbLine
 10
526.0550132392664
 20
837.1112283748393
 30
0.0
 11
526.0550132392664
 21
872.7494888717879
 31
0.0
  0
LINE
  5
1403
330
1F
100
AcDbEntity
  8
Hewi
  6
Continuous
100
AcDbLine
 10
508.0550132392661
 20
872.7491665398947
 30
0.0
 11
508.0550132392661
 21
836.7531165024264
 31
0.0
  0
LINE
  5
1404
330
1F
100
AcDbEntity
  8
Hewi
  6
Continuous
100
AcDbLine
 10
557.0550132392662
 20
874.749718111877
 30
0.0
 11
557.0550132392662
 21
885.749718111877
 31
0.0
  0
LINE
  5
1405
330
1F
100
AcDbEntity
  8
Hewi
  6
Continuous
100
AcDbLine
 10
477.0550132392664
 20
885.749718111877
 30
0.0
 11
477.0550132392664
 21
874.749718111877
 31
0.0
  0
LINE
  5
1406
330
1F
100
AcDbEntity
  8
Hewi
  6
Continuous
100
AcDbLine
 10
477.0550132392664
 20
885.749718111877
 30
0.0
 11
557.0550132392662
 21
885.749718111877
 31
0.0
  0
LINE
  5
1407
330
1F
100
AcDbEntity
  8
Hewi
  6
Continuous
100
AcDbLine
 10
479.0550132392661
 20
872.7497181118769
 30
0.0
 11
555.0550132392664
 21
872.7497181118769
 31
0.0
  0
ARC
  5
1408
330
1F
100
AcDbEntity
  8
Hewi
  6
Continuous
100
AcDbCircle
 10
555.0550132392664
 20
874.749718111877
 30
0.0
 40
2.0
100
AcDbArc
 50
270.0
 51
0.0
  0
ARC
  5
1409
330
1F
100
AcDbEntity
  8
Hewi
  6
Continuous
100
AcDbCircle
 10
479.0550132392661
 20
874.749718111877
 30
0.0
 40
2.0
100
AcDbArc
 50
180.0
 51
270.0
  0
CIRCLE
  5
140A
330
1F
100
AcDbEntity
  8
Hewi
100
AcDbCircle
 10
517.0550132392662
 20
812.3003611435496
 30
0.0
 40
16.5
  0
LINE
  5
140B
330
1F
100
AcDbEntity
  8
Hewi
100
AcDbLine
 10
541.5550132392662
 20
749.8003611435506
 30
0.0
 11
535.0550132392664
 21
749.8003611435506
 31
0.0
  0
LINE
  5
140C
330
1F
100
AcDbEntity
  8
Hewi
100
AcDbLine
 10
535.0550132392664
 20
778.5181590306506
 30
0.0
 11
541.7550132392659
 21
778.5181590306506
 31
0.0
  0
ARC
  5
140D
330
1F
100
AcDbEntity
  8
Hewi
100
AcDbCircle
 10
517.5550132392664
 20
811.8003611435494
 30
0.0
 40
26.69999999999936
100
AcDbArc
 50
0.0
 51
110.8428039567435
  0
ARC
  5
140E
330
1F
100
AcDbEntity
  8
Hewi
100
AcDbCircle
 10
460.2050132392678
 20
788.8003611435506
 30
0.0
 40
0.9999999999999998
100
AcDbArc
 50
90.0
 51
180.0
  0
SPLINE
  5
140F
330
1F
100
AcDbEntity
  8
Hewi
100
AcDbSpline
210
0.0
220
0.0
230
1.0
 70
     8
 71
     3
 72
    10
 73
     6
 74
     0
 42
0.0000000001
 43
0.0000000001
 40
1.86139545575616
 40
1.86139545575616
 40
1.86139545575616
 40
1.86139545575616
 40
3.074047116240881
 40
3.074047116240881
 40
4.714235913710636
 40
4.714235913710636
 40
4.714235913710636
 40
4.714235913710636
 10
461.8268750873621
 20
763.9276328599188
 30
0.0
 10
461.5595483094712
 20
764.2183310421643
 30
0.0
 10
461.294123632464
 20
764.5125664804667
 30
0.0
 10
460.6749145142166
 20
765.2127014247047
 30
0.0
 10
460.3226368192163
 20
765.621774264023
 30
0.0
 10
459.9750117319326
 20
766.0368800646429
 30
0.0
  0
SPLINE
  5
1410
330
1F
100
AcDbEntity
  8
Hewi
100
AcDbSpline
210
0.0
220
0.0
230
1.0
 70
     8
 71
     3
 72
    22
 73
    18
 74
     0
 42
0.0000000001
 43
0.0000000001
 40
0.0
 40
0.0
 40
0.0
 40
0.0
 40
0.1010342156325368
 40
0.1010342156325368
 40
0.3279516765630044
 40
0.3279516765630044
 40
0.5175559881790206
 40
0.5175559881790206
 40
0.7979184818379858
 40
0.7979184818379858
 40
1.199996365120317
 40
1.199996365120317
 40
1.322552189555461
 40
1.322552189555461
 40
1.603510848517379
 40
1.603510848517379
 40
2.026822376410208
 40
2.026822376410208
 40
2.026822376410208
 40
2.026822376410208
 10
459.9750117858184
 20
766.0368801242671
 30
0.0
 10
459.9535645854539
 20
766.0624906296131
 30
0.0
 10
459.9324423618743
 20
766.0885203914204
 30
0.0
 10
459.8650115849077
 20
766.1740986439963
 30
0.0
 10
459.8199761058658
 20
766.2351683312752
 30
0.0
 10
459.7407652172051
 20
766.3492095485844
 30
0.0
 10
459.7059138530521
 20
766.4020192820812
 30
0.0
 10
459.6228915039437
 20
766.5342004631677
 30
0.0
 10
459.5761021555436
 20
766.6145443197414
 30
0.0
 10
459.4701662839343
 20
766.8112019582347
 30
0.0
 10
459.4138847703733
 20
766.9290196091922
 30
0.0
 10
459.3512518566458
 20
767.0816175633267
 30
0.0
 10
459.3373635682701
 20
767.1172584863256
 30
0.0
 10
459.294364189469
 20
767.2343288265082
 30
0.0
 10
459.2686690648161
 20
767.3155398941481
 30
0.0
 10
459.218465550588
 20
767.5165805818777
 30
0.0
 10
459.2050132392678
 20
767.6200682543594
 30
0.0
 10
459.2050132392678
 20
767.7086011415092
 30
0.0
  0
SPLINE
  5
1411
330
1F
100
AcDbEntity
  8
Hewi
100
AcDbSpline
210
0.0
220
0.0
230
1.0
 70
     8
 71
     3
 72
    16
 73
    12
 74
     0
 42
0.0000000001
 43
0.0000000001
 40
0.2153933378818875
 40
0.2153933378818875
 40
0.2153933378818875
 40
0.2153933378818875
 40
0.4400106383128409
 40
0.4400106383128409
 40
0.7443622166473654
 40
0.7443622166473654
 40
0.7898558523517304
 40
0.7898558523517304
 40
0.8400475890234059
 40
0.8400475890234059
 40
0.9391014517164848
 40
0.9391014517164848
 40
0.9391014517164848
 40
0.9391014517164848
 10
462.8742556357209
 20
763.3321604753946
 30
0.0
 10
462.7646286592306
 20
763.3321394620495
 30
0.0
 10
462.6544786539953
 20
763.3597349060246
 30
0.0
 10
462.4097377911657
 20
763.4566940035705
 30
0.0
 10
462.2599507003806
 20
763.5452689038989
 30
0.0
 10
462.0855887535326
 20
763.6835695307272
 30
0.0
 10
462.0630383553607
 20
763.7021488956747
 30
0.0
 10
462.015956917231
 20
763.7424196193782
 30
0.0
 10
461.9914470080466
 20
763.7642468844756
 30
0.0
 10
461.9193188261061
 20
763.8311298286351
 30
0.0
 10
461.8723348087287
 20
763.8781988274412
 30
0.0
 10
461.8268753238006
 20
763.9276332166851
 30
0.0
  0
ARC
  5
1412
330
1F
100
AcDbEntity
  8
Hewi
100
AcDbCircle
 10
460.2050132392678
 20
750.8003611435506
 30
0.0
 40
0.9999999999999998
100
AcDbArc
 50
180.0
 51
270.0
  0
SPLINE
  5
1413
330
1F
100
AcDbEntity
  8
Hewi
100
AcDbSpline
210
0.0
220
0.0
230
1.0
 70
     8
 71
     3
 72
    22
 73
    18
 74
     0
 42
0.0000000001
 43
0.0000000001
 40
3.061871436955371
 40
3.061871436955371
 40
3.061871436955371
 40
3.061871436955371
 40
3.560368615882661
 40
3.560368615882661
 40
7.493792974690866
 40
7.493792974690866
 40
12.10816926551457
 40
12.10816926551457
 40
16.79563105604579
 40
16.79563105604579
 40
20.70282533587922
 40
20.70282533587922
 40
24.42008836558175
 40
24.42008836558175
 40
27.33511547717966
 40
27.33511547717966
 40
28.43964690264884
 40
28.43964690264884
 40
28.43964690264884
 40
28.43964690264884
 10
482.4879332771923
 20
756.1447584599777
 30
0.0
 10
482.4821463403067
 20
756.2611080466368
 30
0.0
 10
482.4727296529426
 20
756.3792618708035
 30
0.0
 10
482.3563674458817
 20
757.445523192834
 30
0.0
 10
482.0279607202182
 20
758.4599939913807
 30
0.0
 10
480.8791743610863
 20
760.6771829070266
 30
0.0
 10
479.9979150857843
 20
761.8536279199897
 30
0.0
 10
477.8358019020823
 20
763.9354625165942
 30
0.0
 10
476.5432177782438
 20
764.8408675686137
 30
0.0
 10
473.9232654751304
 20
765.9597017142807
 30
0.0
 10
472.6580551407996
 20
766.2528654760352
 30
0.0
 10
470.1157360346551
 20
766.2935572265624
 30
0.0
 10
468.9033226184265
 20
766.0661079042437
 30
0.0
 10
466.8420067504928
 20
765.292437316561
 30
0.0
 10
465.9863963712123
 20
764.8318354881219
 30
0.0
 10
464.8989037029093
 20
764.0826396276366
 30
0.0
 10
464.6094465614233
 20
763.8647690233392
 30
0.0
 10
464.3302257253243
 20
763.6367672690994
 30
0.0
  0
SPLINE
  5
1414
330
1F
100
AcDbEntity
  8
Hewi
100
AcDbSpline
210
0.0
220
0.0
230
1.0
 70
     8
 71
     3
 72
    14
 73
    10
 74
     0
 42
0.0000000001
 43
0.0000000001
 40
0.0
 40
0.0
 40
0.0
 40
0.0
 40
0.1027022129701241
 40
0.1027022129701241
 40
0.7279570392031931
 40
0.7279570392031931
 40
0.878711546942449
 40
0.878711546942449
 40
1.007573759621968
 40
1.007573759621968
 40
1.007573759621968
 40
1.007573759621968
 10
464.1732498750068
 20
763.5337715534959
 30
0.0
 10
464.1462371560908
 20
763.5200111824913
 30
0.0
 10
464.1193212658609
 20
763.5067498975386
 30
0.0
 10
463.9294040468785
 20
763.41664328886
 30
0.0
 10
463.7927917378092
 20
763.3698501034564
 30
0.0
 10
463.6500389628982
 20
763.3423593980217
 30
0.0
 10
463.6223526557858
 20
763.3382192835797
 30
0.0
 10
463.5713118165795
 20
763.3332830044015
 30
0.0
 10
463.5486495490804
 20
763.3321348464614
 30
0.0
 10
463.5267603360089
 20
763.3321183485691
 30
0.0
  0
SPLINE
  5
1415
330
1F
100
AcDbEntity
  8
Hewi
100
AcDbSpline
210
0.0
220
0.0
230
1.0
 70
     8
 71
     3
 72
    20
 73
    16
 74
     0
 42
0.0000000001
 43
0.0000000001
 40
0.1476977204276086
 40
0.1476977204276086
 40
0.1476977204276086
 40
0.1476977204276086
 40
0.2758370288594389
 40
0.2758370288594389
 40
0.293331138459643
 40
0.293331138459643
 40
0.301426564545421
 40
0.301426564545421
 40
0.3203753852087088
 40
0.3203753852087088
 40
0.3465415963585574
 40
0.3465415963585574
 40
0.3510419892013851
 40
0.3510419892013851
 40
0.3544686228257871
 40
0.3544686228257871
 40
0.3544686228257871
 40
0.3544686228257871
 10
464.3302406305065
 20
763.6367369186528
 30
0.0
 10
464.3002804671668
 20
763.6122708440283
 30
0.0
 10
464.2689490208331
 20
763.5896831637019
 30
0.0
 10
464.2313750446208
 20
763.566323183456
 30
0.0
 10
464.2268324316328
 20
763.5635570393795
 30
0.0
 10
464.220144590693
 20
763.5595700721965
 30
0.0
 10
464.2180225856828
 20
763.5583174678177
 30
0.0
 10
464.2109126260655
 20
763.554162165281
 30
0.0
 10
464.2058966017893
 20
763.5512987470613
 30
0.0
 10
464.1938716928987
 20
763.5445975020322
 30
0.0
 10
464.1868317242843
 20
763.5408041041891
 30
0.0
 10
464.1785038788722
 20
763.5364701050264
 30
0.0
 10
464.1772797985058
 20
763.5358369004992
 30
0.0
 10
464.1751202653066
 20
763.5347265584552
 30
0.0
 10
464.1741856351191
 20
763.5342482328837
 30
0.0
 10
464.1732498749907
 20
763.5337715534879
 30
0.0
  0
LINE
  5
1416
330
1F
100
AcDbEntity
  8
Hewi
100
AcDbLine
 10
484.7050132392678
 20
787.2003611435506
 30
0.0
 11
484.8550132392666
 21
787.2003611435506
 31
0.0
  0
LINE
  5
1417
330
1F
100
AcDbEntity
  8
Hewi
100
AcDbLine
 10
484.7050132392678
 20
752.4003611435505
 30
0.0
 11
484.8550132392666
 21
752.4003611435505
 31
0.0
  0
LINE
  5
1418
330
1F
100
AcDbEntity
  8
Hewi
100
AcDbLine
 10
462.8742520548103
 20
763.33216260803
 30
0.0
 11
463.5268271767515
 21
763.33216260803
 31
0.0
  0
LINE
  5
1419
330
1F
100
AcDbEntity
  8
Hewi
100
AcDbLine
 10
460.2050132392678
 20
789.8003611435506
 30
0.0
 11
484.7050132392678
 21
789.8003611435506
 31
0.0
  0
LINE
  5
141A
330
1F
100
AcDbEntity
  8
Hewi
100
AcDbLine
 10
460.2050132392678
 20
749.8003611435506
 30
0.0
 11
484.7050132392678
 21
749.8003611435506
 31
0.0
  0
LINE
  5
141B
330
1F
100
AcDbEntity
  8
Hewi
100
AcDbLine
 10
535.0550132392664
 20
749.8003385992232
 30
0.0
 11
500.0550132392661
 21
749.8003385992232
 31
0.0
  0
LINE
  5
141C
330
1F
100
AcDbEntity
  8
Hewi
100
AcDbLine
 10
500.0550132392661
 20
749.8003611435506
 30
0.0
 11
493.5550132392664
 21
749.8003611435506
 31
0.0
  0
LINE
  5
141D
330
1F
100
AcDbEntity
  8
Hewi
100
AcDbLine
 10
493.3550132392666
 20
749.8003611435485
 30
0.0
 11
484.8550132392666
 21
749.8003611435485
 31
0.0
  0
LINE
  5
141E
330
1F
100
AcDbEntity
  8
Hewi
100
AcDbLine
 10
490.8550132392673
 20
789.8003611435487
 30
0.0
 11
484.8550132392666
 21
789.8003611435487
 31
0.0
  0
LINE
  5
141F
330
1F
100
AcDbEntity
  8
Hewi
100
AcDbLine
 10
493.3550132392666
 20
777.8003611435496
 30
0.0
 11
493.5550132392664
 21
777.8003611435496
 31
0.0
  0
LINE
  5
1420
330
1F
100
AcDbEntity
  8
Hewi
100
AcDbLine
 10
493.3550132392666
 20
761.8003611435502
 30
0.0
 11
493.5550132392664
 21
761.8003611435502
 31
0.0
  0
LINE
  5
1421
330
1F
100
AcDbEntity
  8
Hewi
100
AcDbLine
 10
493.5550132392664
 20
774.0430018306701
 30
0.0
 11
493.3550132392666
 21
774.0430018306701
 31
0.0
  0
LINE
  5
1422
330
1F
100
AcDbEntity
  8
Hewi
100
AcDbLine
 10
493.5550132392664
 20
771.8709135043702
 30
0.0
 11
493.3550132392666
 21
771.8709135043702
 31
0.0
  0
LINE
  5
1423
330
1F
100
AcDbEntity
  8
Hewi
100
AcDbLine
 10
493.3550132392666
 20
775.4572153930426
 30
0.0
 11
493.5550132392664
 21
775.4572153930426
 31
0.0
  0
LINE
  5
1424
330
1F
100
AcDbEntity
  8
Hewi
100
AcDbLine
 10
492.8550132392675
 20
778.5181590306506
 30
0.0
 11
493.3550132392666
 21
778.5181590306506
 31
0.0
  0
SPLINE
  5
1425
330
1F
100
AcDbEntity
  8
Hewi
100
AcDbSpline
210
0.0
220
0.0
230
1.0
 70
     8
 71
     3
 72
    18
 73
    14
 74
     0
 42
0.0000000001
 43
0.0000000001
 40
-4.49455063240396
 40
-4.49455063240396
 40
-4.49455063240396
 40
-4.49455063240396
 40
-3.042993563053926
 40
-3.042993563053926
 40
-2.317215028378913
 40
-2.317215028378913
 40
-1.591436493703898
 40
-1.591436493703898
 40
-0.7957182468519495
 40
-0.7957182468519495
 40
-0.3978591234259738
 40
-0.3978591234259738
 40
0.0
 40
0.0
 40
0.0
 40
0.0
 10
490.8550132392673
 20
781.8003611435601
 30
0.0
 10
490.8550132392673
 20
781.4132792584006
 30
0.0
 10
490.9202535512985
 20
780.9825142715206
 30
0.0
 10
491.1151710723777
 20
780.3425346830636
 30
0.0
 10
491.1959315766771
 20
780.1303404084356
 30
0.0
 10
491.3874653406355
 20
779.7214695814
 30
0.0
 10
491.4980830252006
 20
779.5247436058811
 30
0.0
 10
491.7625612529609
 20
779.1444375162904
 30
0.0
 10
491.9378170651571
 20
778.9387389927346
 30
0.0
 10
492.2483214673702
 20
778.7040850197938
 30
0.0
 10
492.3596455577261
 20
778.6382072775891
 30
0.0
 10
492.5966992052763
 20
778.5452733408142
 30
0.0
 10
492.7223935314585
 20
778.5181590306478
 30
0.0
 10
492.8550132392675
 20
778.5181590306478
 30
0.0
  0
LINE
  5
1426
330
1F
100
AcDbEntity
  8
Hewi
100
AcDbLine
 10
493.3550132392666
 20
749.8003611435485
 30
0.0
 11
493.3550132392666
 21
778.5181590306506
 31
0.0
  0
LINE
  5
1427
330
1F
100
AcDbEntity
  8
Hewi
100
AcDbLine
 10
484.8550132392666
 20
789.8003611435487
 30
0.0
 11
484.8550132392666
 21
749.8003611435485
 31
0.0
  0
LINE
  5
1428
330
1F
100
AcDbEntity
  8
Hewi
100
AcDbLine
 10
493.3550132392666
 20
778.5181590306506
 30
0.0
 11
500.0550132392661
 21
778.5181590306506
 31
0.0
  0
LINE
  5
1429
330
1F
100
AcDbEntity
  8
Hewi
100
AcDbLine
 10
490.8550132392673
 20
811.8003611435494
 30
0.0
 11
490.8550132392673
 21
781.8003611435601
 31
0.0
  0
ARC
  5
142A
330
1F
100
AcDbEntity
  8
Hewi
100
AcDbCircle
 10
517.5550132392664
 20
811.8003611435494
 30
0.0
 40
26.69999999999936
100
AcDbArc
 50
110.8428039567435
 51
180.0
  0
LINE
  5
142B
330
1F
100
AcDbEntity
  8
Hewi
100
AcDbLine
 10
493.5550132392664
 20
778.5181590306643
 30
0.0
 11
493.5550132392664
 21
749.8003611435506
 31
0.0
  0
LINE
  5
142C
330
1F
100
AcDbEntity
  8
Hewi
100
AcDbLine
 10
500.0550132392661
 20
778.5182107507856
 30
0.0
 11
500.0550132392661
 21
749.8003385992232
 31
0.0
  0
LINE
  5
142D
330
1F
100
AcDbEntity
  8
Hewi
100
AcDbLine
 10
535.0550132392664
 20
749.8003385992232
 30
0.0
 11
535.0550132392664
 21
778.5182107507856
 31
0.0
  0
LINE
  5
142E
330
1F
100
AcDbEntity
  8
Hewi
100
AcDbLine
 10
484.7050132392678
 20
789.8003611435506
 30
0.0
 11
484.7050132392678
 21
755.6582255198192
 31
0.0
  0
LINE
  5
142F
330
1F
100
AcDbEntity
  8
Hewi
100
AcDbLine
 10
484.7050132392678
 20
755.6582255198193
 30
0.0
 11
484.7050132392678
 21
749.8003611435506
 31
0.0
  0
LINE
  5
1430
330
1F
100
AcDbEntity
  8
Hewi
100
AcDbLine
 10
459.2050132392678
 20
767.7086011415092
 30
0.0
 11
459.2050132392678
 21
750.9158558523372
 31
0.0
  0
LINE
  5
1431
330
1F
100
AcDbEntity
  8
Hewi
100
AcDbLine
 10
459.2050132392678
 20
750.9158558523372
 30
0.0
 11
459.2050132392678
 21
750.8003611435506
 31
0.0
  0
LINE
  5
1432
330
1F
100
AcDbEntity
  8
Hewi
100
AcDbLine
 10
459.2050132392678
 20
788.8003611435506
 30
0.0
 11
459.2050132392678
 21
767.7086011415092
 31
0.0
  0
ARC
  5
1433
330
1F
100
AcDbEntity
  8
Hewi
100
AcDbCircle
 10
550.4050132392666
 20
751.8003611435505
 30
0.0
 40
1.999999999999999
100
AcDbArc
 50
270.0
 51
0.0
  0
ARC
  5
1434
330
1F
100
AcDbEntity
  8
Hewi
100
AcDbCircle
 10
550.4050132392666
 20
787.8003611435501
 30
0.0
 40
1.999999999999999
100
AcDbArc
 50
0.0
 51
90.0
  0
LINE
  5
1435
330
1F
100
AcDbEntity
  8
Hewi
100
AcDbLine
 10
550.2550132392662
 20
749.8003611435485
 30
0.0
 11
541.7550132392659
 21
749.8003611435485
 31
0.0
  0
LINE
  5
1436
330
1F
100
AcDbEntity
  8
Hewi
100
AcDbLine
 10
550.2550132392662
 20
789.8003611435487
 30
0.0
 11
544.2550132392653
 21
789.8003611435487
 31
0.0
  0
LINE
  5
1437
330
1F
100
AcDbEntity
  8
Hewi
100
AcDbLine
 10
550.2550132392662
 20
787.2003611435502
 30
0.0
 11
550.4050132392666
 21
787.2003611435502
 31
0.0
  0
LINE
  5
1438
330
1F
100
AcDbEntity
  8
Hewi
100
AcDbLine
 10
550.2550132392662
 20
752.40036114355
 30
0.0
 11
550.4050132392666
 21
752.40036114355
 31
0.0
  0
LINE
  5
1439
330
1F
100
AcDbEntity
  8
Hewi
100
AcDbLine
 10
541.5550132392662
 20
777.8003611435496
 30
0.0
 11
541.7550132392659
 21
777.8003611435496
 31
0.0
  0
LINE
  5
143A
330
1F
100
AcDbEntity
  8
Hewi
100
AcDbLine
 10
541.5550132392662
 20
761.8003611435502
 30
0.0
 11
541.7550132392659
 21
761.8003611435502
 31
0.0
  0
LINE
  5
143B
330
1F
100
AcDbEntity
  8
Hewi
100
AcDbLine
 10
550.4050132392666
 20
789.8003611435501
 30
0.0
 11
550.4050132392666
 21
783.9424967672812
 31
0.0
  0
LINE
  5
143C
330
1F
100
AcDbEntity
  8
Hewi
100
AcDbLine
 10
550.4050132392666
 20
783.9424967672812
 30
0.0
 11
550.4050132392666
 21
749.8003611435506
 31
0.0
  0
LINE
  5
143D
330
1F
100
AcDbEntity
  8
Hewi
100
AcDbLine
 10
552.4050132392666
 20
787.8003611435501
 30
0.0
 11
552.4050132392666
 21
782.5282832049079
 31
0.0
  0
LINE
  5
143E
330
1F
100
AcDbEntity
  8
Hewi
100
AcDbLine
 10
552.4050132392666
 20
782.5282832049083
 30
0.0
 11
552.4050132392666
 21
751.8003611435505
 31
0.0
  0
LINE
  5
143F
330
1F
100
AcDbEntity
  8
Hewi
100
AcDbLine
 10
541.7550132392659
 20
778.5181590306506
 30
0.0
 11
542.2550132392651
 21
778.5181590306506
 31
0.0
  0
LINE
  5
1440
330
1F
100
AcDbEntity
  8
Hewi
100
AcDbLine
 10
541.7550132392659
 20
749.8003611435485
 30
0.0
 11
541.7550132392659
 21
778.5181590306506
 31
0.0
  0
SPLINE
  5
1441
330
1F
100
AcDbEntity
  8
Hewi
100
AcDbSpline
210
0.0
220
0.0
230
1.0
 70
     8
 71
     3
 72
    18
 73
    14
 74
     0
 42
0.0000000001
 43
0.0000000001
 40
0.0
 40
0.0
 40
0.0
 40
0.0
 40
0.3978591234259627
 40
0.3978591234259627
 40
0.7957182468519255
 40
0.7957182468519255
 40
1.59143649370385
 40
1.59143649370385
 40
2.31721502837871
 40
2.31721502837871
 40
3.042993563053578
 40
3.042993563053578
 40
4.494550632403308
 40
4.494550632403308
 40
4.494550632403308
 40
4.494550632403308
 10
542.2550132392651
 20
778.5181590306487
 30
0.0
 10
542.3876329470739
 20
778.5181590306487
 30
0.0
 10
542.5133272732563
 20
778.5452733408151
 30
0.0
 10
542.7503809208062
 20
778.6382072775899
 30
0.0
 10
542.8617050111625
 20
778.7040850197946
 30
0.0
 10
543.1722094133756
 20
778.9387389927351
 30
0.0
 10
543.3474652255718
 20
779.1444375162907
 30
0.0
 10
543.6119434533321
 20
779.5247436058816
 30
0.0
 10
543.7225611378972
 20
779.7214695814009
 30
0.0
 10
543.9140949018556
 20
780.1303404084358
 30
0.0
 10
543.9948554061547
 20
780.3425346830636
 30
0.0
 10
544.1897729272341
 20
780.9825142715212
 30
0.0
 10
544.2550132392653
 20
781.4132792584006
 30
0.0
 10
544.2550132392653
 20
781.8003611435601
 30
0.0
  0
LINE
  5
1442
330
1F
100
AcDbEntity
  8
Hewi
100
AcDbLine
 10
550.2550132392662
 20
789.8003611435487
 30
0.0
 11
550.2550132392662
 21
749.8003611435485
 31
0.0
  0
LINE
  5
1443
330
1F
100
AcDbEntity
  8
Hewi
100
AcDbLine
 10
544.2550132392653
 20
811.8003611435494
 30
0.0
 11
544.2550132392653
 21
781.8003611435601
 31
0.0
  0
LINE
  5
1444
330
1F
100
AcDbEntity
  8
Hewi
100
AcDbLine
 10
541.5550132392662
 20
778.5181590306643
 30
0.0
 11
541.5550132392662
 21
749.8003611435506
 31
0.0
  0
LINE
  5
1469
330
1F
100
AcDbEntity
  8
Hewi
100
AcDbLine
 10
907.5583611205791
 20
215.8976545307369
 30
0.0
 11
907.5583611205791
 21
193.3976545307368
 31
0.0
  0
LINE
  5
146A
330
1F
100
AcDbEntity
  8
Hewi
100
AcDbLine
 10
940.5583611205791
 20
193.3976545307368
 30
0.0
 11
940.5583611205791
 21
215.8976545307369
 31
0.0
  0
LINE
  5
146B
330
1F
100
AcDbEntity
  8
Hewi
100
AcDbLine
 10
929.5253525315919
 20
140.364645941735
 30
0.0
 11
945.4352551082983
 21
124.454743365043
 31
0.0
  0
LINE
  5
146C
330
1F
100
AcDbEntity
  8
Hewi
100
AcDbLine
 10
968.7697788874492
 20
147.7892671441939
 30
0.0
 11
952.859876310743
 21
163.6991697208998
 31
0.0
  0
LINE
  5
146D
330
1F
100
AcDbEntity
  8
Hewi
100
AcDbLine
 10
908.058361120579
 20
216.395751879782
 30
0.0
 11
940.0583611205792
 21
216.395751879782
 31
0.0
  0
LINE
  5
146E
330
1F
100
AcDbEntity
  8
Hewi
100
AcDbLine
 10
907.5583611205791
 20
193.3976545307368
 30
0.0
 11
907.5583611205791
 21
193.3976545307368
 31
0.0
  0
LINE
  5
146F
330
1F
100
AcDbEntity
  8
Hewi
100
AcDbLine
 10
924.058361120579
 20
216.3976545307369
 30
0.0
 11
940.0583591929308
 21
216.3976545307369
 31
0.0
  0
LINE
  5
1470
330
1F
100
AcDbEntity
  8
Hewi
100
AcDbLine
 10
924.058361120579
 20
216.3976545307369
 30
0.0
 11
940.0583611205792
 21
216.3976545307369
 31
0.0
  0
LINE
  5
1471
330
1F
100
AcDbEntity
  8
Hewi
100
AcDbLine
 10
969.1233322780451
 20
147.4357137536119
 30
0.0
 11
969.1233322780451
 21
147.4357137536119
 31
0.0
  0
ARC
  5
1473
330
1F
100
AcDbEntity
  8
Hewi
100
AcDbCircle
 10
908.058361120579
 20
215.8976545307369
 30
0.0
 40
0.5
100
AcDbArc
 50
93.53493913666149
 51
180.0
  0
ARC
  5
1474
330
1F
100
AcDbEntity
  8
Hewi
100
AcDbCircle
 10
940.0583611205792
 20
215.8976545307369
 30
0.0
 40
0.5
100
AcDbArc
 50
0.0
 51
86.46506086333843
  0
ARC
  5
1475
330
1F
100
AcDbEntity
  8
Hewi
100
AcDbCircle
 10
-982.5583611205791
 20
193.3976545307368
 30
0.0
 40
42.00000000000001
210
0.0
220
0.0
230
-1.0
100
AcDbArc
 50
314.9999999999351
 51
0.0
  0
ARC
  5
1476
330
1F
100
AcDbEntity
  8
Hewi
100
AcDbCircle
 10
982.5583611205791
 20
193.3976545307368
 30
0.0
 40
75.00000000000001
100
AcDbArc
 50
180.0
 51
225.0000000000648
  0
ARC
  5
1477
330
1F
100
AcDbEntity
  8
Hewi
100
AcDbCircle
 10
968.4162254968532
 20
147.4357137535981
 30
0.0
 40
0.5
100
AcDbArc
 50
314.9999999999351
 51
45.00000000006482
  0
ARC
  5
1478
330
1F
100
AcDbEntity
  8
Hewi
100
AcDbCircle
 10
945.7888084988796
 20
124.808296755639
 30
0.0
 40
0.5
100
AcDbArc
 50
225.0000000000648
 51
314.9999999999351
  0
ARC
  5
1479
330
1F
100
AcDbEntity
  8
Hewi
100
AcDbCircle
 10
946.6373366363104
 20
124.949718111877
 30
0.0
 40
1.199999999999999
100
AcDbArc
 50
225.0000000000648
 51
307.1862867722023
  0
ARC
  5
147A
330
1F
100
AcDbEntity
  8
Hewi
100
AcDbCircle
 10
968.2748041406147
 20
146.587185616182
 30
0.0
 40
1.199999999999999
100
AcDbArc
 50
322.8137132280937
 51
45.00000000006482
  0
ARC
  5
147B
330
1F
100
AcDbEntity
  8
Hewi
100
AcDbCircle
 10
873.6298615954863
 20
218.3909101061277
 30
0.0
 40
120.0
100
AcDbArc
 50
315.4064120063234
 51
322.8137132280937
  0
ARC
  5
147C
330
1F
100
AcDbEntity
  8
Hewi
100
AcDbCircle
 10
874.8336121463644
 20
219.5946606570055
 30
0.0
 40
120.0
100
AcDbArc
 50
307.1862867722023
 51
314.5935879935121
  0
ARC
  5
147D
330
1F
100
AcDbEntity
  8
Hewi
100
AcDbCircle
 10
940.0583611205792
 20
216.895751879782
 30
0.0
 40
0.5
100
AcDbArc
 50
273.5349391366615
 51
0.0
  0
ARC
  5
147E
330
1F
100
AcDbEntity
  8
Hewi
100
AcDbCircle
 10
908.058361120579
 20
216.895751879782
 30
0.0
 40
0.5
100
AcDbArc
 50
180.0
 51
266.4650608633384
  0
LINE
  5
1720
330
1F
100
AcDbEntity
  8
Hewi
100
AcDbLine
 10
940.5583611205791
 20
713.2497181118766
 30
0.0
 11
940.5583611205791
 21
763.7497181118766
 31
0.0
  0
LINE
  5
1721
330
1F
100
AcDbEntity
  8
Hewi
100
AcDbLine
 10
907.5583611205791
 20
193.3976545307368
 30
0.0
 11
907.5583611205791
 21
763.7497181118766
 31
0.0
  0
ARC
  5
1722
330
1F
100
AcDbEntity
  8
Hewi
100
AcDbCircle
 10
875.5583611205791
 20
763.7497181118766
 30
0.0
 40
65.0
100
AcDbArc
 50
0.0
 51
90.0
  0
ARC
  5
1723
330
1F
100
AcDbEntity
  8
Hewi
100
AcDbCircle
 10
875.5583611205791
 20
763.7497181118766
 30
0.0
 40
32.0
100
AcDbArc
 50
0.0
 51
90.0
  0
LINE
  5
1725
330
1F
100
AcDbEntity
  8
Hewi
100
AcDbLine
 10
940.5752639786067
 20
687.7497181118766
 30
0.0
 11
984.5579665531539
 21
687.7497181118766
 31
0.0
  0
LINE
  5
1726
330
1F
100
AcDbEntity
  8
Hewi
100
AcDbLine
 10
984.5579619396879
 20
705.7497181118766
 30
0.0
 11
940.5589914589208
 21
705.7497181118766
 31
0.0
  0
LINE
  5
1727
330
1F
100
AcDbEntity
  8
Hewi
100
AcDbLine
 10
986.5583611205792
 20
656.749718111877
 30
0.0
 11
997.5583611205792
 21
656.749718111877
 31
0.0
  0
LINE
  5
1728
330
1F
100
AcDbEntity
  8
Hewi
100
AcDbLine
 10
997.5583611205792
 20
736.7497181118769
 30
0.0
 11
986.5583611205792
 21
736.7497181118769
 31
0.0
  0
LINE
  5
1729
330
1F
100
AcDbEntity
  8
Hewi
100
AcDbLine
 10
984.5583611205793
 20
658.7497181118767
 30
0.0
 11
984.5583611205793
 21
734.7497181118766
 31
0.0
  0
LINE
  5
172A
330
1F
100
AcDbEntity
  8
Hewi
100
AcDbLine
 10
997.5583611205792
 20
656.749718111877
 30
0.0
 11
997.5583611205792
 21
736.7497181118769
 31
0.0
  0
ARC
  5
172B
330
1F
100
AcDbEntity
  8
Hewi
100
AcDbCircle
 10
986.5583611205792
 20
658.7497181118767
 30
0.0
 40
2.0
100
AcDbArc
 50
180.0
 51
270.0
  0
ARC
  5
172C
330
1F
100
AcDbEntity
  8
Hewi
100
AcDbCircle
 10
986.5583611205792
 20
734.7497181118766
 30
0.0
 40
2.0
100
AcDbArc
 50
90.0
 51
180.0
  0
SPLINE
  5
172D
330
1F
100
AcDbEntity
  8
Hewi
100
AcDbSpline
210
0.0
220
0.0
230
1.0
 70
     8
 71
     3
 72
    14
 73
    10
 74
     0
 42
0.0000000001
 43
0.0000000001
 40
0.0
 40
0.0
 40
0.0
 40
0.0
 40
0.2434300440914431
 40
0.2434300440914431
 40
0.4956200293942957
 40
0.4956200293942957
 40
0.7478100146971479
 40
0.7478100146971479
 40
1.0
 40
1.0
 40
1.0
 40
1.0
 10
940.5580974709582
 20
705.7420442244282
 30
0.0
 10
940.5574097378694
 20
705.6439305272314
 30
0.0
 10
940.0094380348592
 20
704.6070485059853
 30
0.0
 10
938.7189485372791
 20
701.345265305582
 30
0.0
 10
938.0255298412656
 20
699.0163866007159
 30
0.0
 10
938.0074525993832
 20
694.2050145497002
 30
0.0
 10
938.6966314905283
 20
691.8780821101054
 30
0.0
 10
940.0122589323718
 20
688.6711485962105
 30
0.0
 10
940.5867254152536
 20
687.6997795336892
 30
0.0
 10
940.5571375054559
 20
687.7517801148742
 30
0.0
  0
LINE
  5
1747
330
1F
100
AcDbEntity
  8
Hewi
100
AcDbLine
 10
940.5583611205791
 20
193.3976545307368
 30
0.0
 11
940.5583611205791
 21
763.7497181118766
 31
0.0
  0
LINE
  5
1749
330
1F
100
AcDbEntity
  8
Hewi
100
AcDbLine
 10
940.5583611205791
 20
280.2497181118769
 30
0.0
 11
940.5583611205791
 21
330.7497181118769
 31
0.0
  0
LINE
  5
174A
330
1F
100
AcDbEntity
  8
Hewi
100
AcDbLine
 10
940.5752639786067
 20
254.749718111877
 30
0.0
 11
984.5579665531539
 21
254.749718111877
 31
0.0
  0
LINE
  5
174B
330
1F
100
AcDbEntity
  8
Hewi
100
AcDbLine
 10
984.5579619396875
 20
272.749718111877
 30
0.0
 11
940.5589914589208
 21
272.749718111877
 31
0.0
  0
LINE
  5
174C
330
1F
100
AcDbEntity
  8
Hewi
100
AcDbLine
 10
986.5583611205792
 20
223.749718111877
 30
0.0
 11
997.5583611205792
 21
223.749718111877
 31
0.0
  0
LINE
  5
174D
330
1F
100
AcDbEntity
  8
Hewi
100
AcDbLine
 10
997.5583611205792
 20
303.749718111877
 30
0.0
 11
986.5583611205792
 21
303.749718111877
 31
0.0
  0
LINE
  5
174E
330
1F
100
AcDbEntity
  8
Hewi
100
AcDbLine
 10
984.5583611205793
 20
225.749718111877
 30
0.0
 11
984.5583611205793
 21
301.749718111877
 31
0.0
  0
LINE
  5
174F
330
1F
100
AcDbEntity
  8
Hewi
100
AcDbLine
 10
997.5583611205792
 20
223.749718111877
 30
0.0
 11
997.5583611205792
 21
303.749718111877
 31
0.0
  0
ARC
  5
1750
330
1F
100
AcDbEntity
  8
Hewi
100
AcDbCircle
 10
986.5583611205792
 20
225.749718111877
 30
0.0
 40
2.0
100
AcDbArc
 50
180.0
 51
270.0
  0
ARC
  5
1751
330
1F
100
AcDbEntity
  8
Hewi
100
AcDbCircle
 10
986.5583611205792
 20
301.749718111877
 30
0.0
 40
2.0
100
AcDbArc
 50
90.0
 51
180.0
  0
SPLINE
  5
1752
330
1F
100
AcDbEntity
  8
Hewi
100
AcDbSpline
210
0.0
220
0.0
230
1.0
 70
     8
 71
     3
 72
    14
 73
    10
 74
     0
 42
0.0000000001
 43
0.0000000001
 40
0.0
 40
0.0
 40
0.0
 40
0.0
 40
0.2434300440914431
 40
0.2434300440914431
 40
0.4956200293942957
 40
0.4956200293942957
 40
0.7478100146971479
 40
0.7478100146971479
 40
1.0
 40
1.0
 40
1.0
 40
1.0
 10
940.5580974709579
 20
272.7420442244284
 30
0.0
 10
940.5574097378694
 20
272.6439305272315
 30
0.0
 10
940.0094380348592
 20
271.6070485059854
 30
0.0
 10
938.7189485372791
 20
268.345265305582
 30
0.0
 10
938.0255298412656
 20
266.016386600716
 30
0.0
 10
938.0074525993832
 20
261.2050145497005
 30
0.0
 10
938.6966314905283
 20
258.8780821101054
 30
0.0
 10
940.0122589323718
 20
255.6711485962105
 30
0.0
 10
940.5867254152536
 20
254.6997795336892
 30
0.0
 10
940.5571375054559
 20
254.7517801148742
 30
0.0
  0
ARC
  5
180A
330
1F
100
AcDbEntity
  8
Hewi
100
AcDbCircle
 10
808.5583611205791
 20
1158.99933736742
 30
0.0
 40
40.0
100
AcDbArc
 50
24.36197793997992
 51
155.63802206002
  0
LWPOLYLINE
  5
180B
330
1F
100
AcDbEntity
  8
Hewi
100
AcDbPolyline
 90
        2
 70
     0
 43
0.0
 10
924.0583611205792
 20
1175.49933736742
 10
547.0549979804774
 20
1175.49933736742
  0
LINE
  5
1856
330
1F
100
AcDbEntity
  8
Hewi
100
AcDbLine
 10
1302.336994244903
 20
1175.49933736742
 30
0.0
 11
1885.255717839717
 21
1175.49933736742
 31
0.0
  0
LINE
  5
1857
330
1F
100
AcDbEntity
  8
Hewi
100
AcDbLine
 10
1285.836994244903
 20
1142.499337367421
 30
0.0
 11
1885.255717839717
 21
1142.499337367421
 31
0.0
  0
LINE
  5
1858
330
1F
100
AcDbEntity
  8
Hewi
  6
Continuous
100
AcDbLine
 10
1269.336500374409
 20
1282.99933736742
 30
0.0
 11
1225.337223484993
 21
1282.99933736742
 31
0.0
  0
LINE
  5
1859
330
1F
100
AcDbEntity
  8
Hewi
  6
Continuous
100
AcDbLine
 10
1225.337545816886
 20
1264.99933736742
 30
0.0
 11
1269.337135054311
 21
1264.999341244513
 31
0.0
  0
LINE
  5
185A
330
1F
100
AcDbEntity
  8
Hewi
  6
Continuous
100
AcDbLine
 10
1223.336994244903
 20
1313.999337367421
 30
0.0
 11
1212.336994244903
 21
1313.999337367421
 31
0.0
  0
LINE
  5
185B
330
1F
100
AcDbEntity
  8
Hewi
  6
Continuous
100
AcDbLine
 10
1212.336994244903
 20
1233.99933736742
 30
0.0
 11
1223.336994244903
 21
1233.99933736742
 31
0.0
  0
LINE
  5
185C
330
1F
100
AcDbEntity
  8
Hewi
  6
Continuous
100
AcDbLine
 10
1212.336994244903
 20
1233.99933736742
 30
0.0
 11
1212.336994244903
 21
1313.999337367421
 31
0.0
  0
LINE
  5
185D
330
1F
100
AcDbEntity
  8
Hewi
  6
Continuous
100
AcDbLine
 10
1225.336994244903
 20
1235.99933736742
 30
0.0
 11
1225.336994244903
 21
1311.99933736742
 31
0.0
  0
ARC
  5
185E
330
1F
100
AcDbEntity
  8
Hewi
  6
Continuous
100
AcDbCircle
 10
1223.336994244903
 20
1311.99933736742
 30
0.0
 40
2.0
100
AcDbArc
 50
0.0
 51
90.0
  0
ARC
  5
185F
330
1F
100
AcDbEntity
  8
Hewi
  6
Continuous
100
AcDbCircle
 10
1223.336994244903
 20
1235.99933736742
 30
0.0
 40
2.0
100
AcDbArc
 50
270.0
 51
0.0
  0
ARC
  5
18B5
330
1F
100
AcDbEntity
  8
Hewi
100
AcDbCircle
 10
1401.336994244903
 20
1158.99933736742
 30
0.0
 40
40.0
100
AcDbArc
 50
204.3619779399811
 51
335.6380220600189
  0
ARC
  5
18B7
330
1F
100
AcDbEntity
  8
Hewi
100
AcDbCircle
 10
1834.336994244903
 20
1158.99933736742
 30
0.0
 40
40.0
100
AcDbArc
 50
204.3619779399811
 51
335.6380220600189
  0
LINE
  5
18B9
330
1F
100
AcDbEntity
  8
Hewi
100
AcDbLine
 10
1882.394083079215
 20
1142.499336405339
 30
-0.0000000000000092
 11
1904.894083079215
 21
1142.499336405339
 31
-0.0000000000000113
  0
LINE
  5
18BA
330
1F
100
AcDbEntity
  8
Hewi
100
AcDbLine
 10
1904.894083079215
 20
1175.499336405339
 30
-0.0000000000000093
 11
1882.394083079215
 21
1175.499336405339
 31
-0.0000000000000072
  0
LINE
  5
18BB
330
1F
100
AcDbEntity
  8
Hewi
100
AcDbLine
 10
1946.259829778634
 20
1142.499336405339
 30
0.0000000000000087
 11
1962.169732355325
 21
1142.499336405339
 31
-0.000000000000001
  0
LINE
  5
18BC
330
1F
100
AcDbEntity
  8
Hewi
100
AcDbLine
 10
1962.169732355325
 20
1175.499336405339
 30
0.000000000000001
 11
1946.259829778634
 21
1175.499336405339
 31
0.0000000000000108
  0
LINE
  5
18BD
330
1F
100
AcDbEntity
  8
Hewi
100
AcDbLine
 10
1904.894083079215
 20
1142.499336405339
 30
-0.0000000000000113
 11
1946.259829778634
 21
1142.499336405339
 31
0.0000000000000087
  0
LINE
  5
18BE
330
1F
100
AcDbEntity
  8
Hewi
100
AcDbLine
 10
1946.259829778634
 20
1175.499336405339
 30
0.0000000000000108
 11
1904.894083079215
 21
1175.499336405339
 31
-0.0000000000000093
  0
LINE
  5
18BF
330
1F
100
AcDbEntity
  8
Hewi
100
AcDbLine
 10
1881.895985730169
 20
1142.999336405339
 30
-0.0000000000000098
 11
1881.895985730169
 21
1174.999336405339
 31
-0.0000000000000078
  0
LINE
  5
18C0
330
1F
100
AcDbEntity
  8
Hewi
100
AcDbLine
 10
1904.894083079215
 20
1142.499336405339
 30
-0.0000000000000113
 11
1904.894083079215
 21
1142.499336405339
 31
-0.0000000000000113
  0
LINE
  5
18C1
330
1F
100
AcDbEntity
  8
Hewi
100
AcDbLine
 10
1881.894083079215
 20
1174.999336405339
 30
-0.0000000000000078
 11
1881.894083079215
 21
1142.999336405339
 31
-0.0000000000000098
  0
ARC
  5
18C2
330
1F
100
AcDbEntity
  8
Hewi
100
AcDbCircle
 10
1882.394083079215
 20
1142.999336405339
 30
0.0000000000002466
 40
0.5
100
AcDbArc
 50
183.5349391366616
 51
270.0
  0
ARC
  5
18C3
330
1F
100
AcDbEntity
  8
Hewi
100
AcDbCircle
 10
1882.394083079215
 20
1174.999336405339
 30
0.0000000000002486
 40
0.5
100
AcDbArc
 50
90.0
 51
176.4650608633384
  0
ARC
  5
18C4
330
1F
100
AcDbEntity
  8
Hewi
100
AcDbCircle
 10
1881.39598573017
 20
1174.999336405339
 30
0.0000000000002474
 40
0.5
100
AcDbArc
 50
3.53493913666162
 51
90.0
  0
ARC
  5
18C5
330
1F
100
AcDbEntity
  8
Hewi
100
AcDbCircle
 10
1881.39598573017
 20
1142.999336405339
 30
0.0000000000002454
 40
0.5
100
AcDbArc
 50
270.0
 51
356.4650608633384
  0
ELLIPSE
  5
18C6
330
1F
100
AcDbEntity
  8
Hewi
100
AcDbEllipse
 10
1962.169732355325
 20
1158.999336405339
 30
0.0
 11
-0.000000000000002
 21
-16.5
 31
0.0
210
0.0
220
0.0
230
1.0
 40
0.7071067811865463
 41
0.0
 42
3.14159281861797
  0
ELLIPSE
  5
18C7
330
1F
100
AcDbEntity
  8
Hewi
100
AcDbEllipse
 10
1962.523285745922
 20
1158.999336405339
 30
0.0000000000000004
 11
-0.000000000000002
 21
-16.5
 31
0.0
210
0.0
220
0.0
230
1.0
 40
0.7071067811865466
 41
6.267968099393152
 42
6.283185307179584
  0
ARC
  5
18C9
330
1F
100
AcDbEntity
  8
Hewi
100
AcDbCircle
 10
1401.336994244903
 20
1158.99933736742
 30
0.0
 40
40.0
100
AcDbArc
 50
24.36197793998113
 51
155.6380220600188
  0
ARC
  5
18CA
330
1F
100
AcDbEntity
  8
Hewi
100
AcDbCircle
 10
1834.336994244903
 20
1158.99933736742
 30
0.0
 40
40.0
100
AcDbArc
 50
24.36197793998113
 51
155.6380220600188
  0
LINE
  5
1D47
330
1F
100
AcDbEntity
  8
Hewi
100
AcDbLine
 10
327.7062975394392
 20
795.7497181118766
 30
0.0
 11
305.2062975394392
 21
795.7497181118766
 31
0.0
  0
LINE
  5
1D48
330
1F
100
AcDbEntity
  8
Hewi
100
AcDbLine
 10
305.2062975394392
 20
828.7497181118766
 30
0.0
 11
327.7062975394392
 21
828.7497181118766
 31
0.0
  0
LINE
  5
1D49
330
1F
100
AcDbEntity
  8
Hewi
100
AcDbLine
 10
252.1732889504374
 20
817.7167095228897
 30
0.0
 11
236.2633863737453
 21
833.626612099596
 31
0.0
  0
LINE
  5
1D4A
330
1F
100
AcDbEntity
  8
Hewi
100
AcDbLine
 10
259.5979101528962
 20
856.9611358787469
 30
0.0
 11
275.5078127296022
 21
841.0512333020406
 31
0.0
  0
LINE
  5
1D4B
330
1F
100
AcDbEntity
  8
Hewi
100
AcDbLine
 10
328.2043948884843
 20
796.2497181118766
 30
0.0
 11
328.2043948884843
 21
828.2497181118769
 31
0.0
  0
LINE
  5
1D4C
330
1F
100
AcDbEntity
  8
Hewi
100
AcDbLine
 10
305.2062975394392
 20
795.7497181118766
 30
0.0
 11
305.2062975394392
 21
795.7497181118766
 31
0.0
  0
LINE
  5
1D4D
330
1F
100
AcDbEntity
  8
Hewi
100
AcDbLine
 10
328.2062975394392
 20
812.2497181118767
 30
0.0
 11
328.2062975394392
 21
828.2497161842284
 31
0.0
  0
LINE
  5
1D4E
330
1F
100
AcDbEntity
  8
Hewi
100
AcDbLine
 10
328.2062975394392
 20
812.2497181118767
 30
0.0
 11
328.2062975394392
 21
828.2497181118769
 31
0.0
  0
LINE
  5
1D4F
330
1F
100
AcDbEntity
  8
Hewi
100
AcDbLine
 10
259.2443567623143
 20
857.3146892693428
 30
0.0
 11
259.2443567623143
 21
857.3146892693428
 31
0.0
  0
ARC
  5
1D50
330
1F
100
AcDbEntity
  8
Hewi
100
AcDbCircle
 10
327.7062975394392
 20
796.2497181118766
 30
0.0
 40
0.5
100
AcDbArc
 50
270.0
 51
356.4650608633384
  0
ARC
  5
1D51
330
1F
100
AcDbEntity
  8
Hewi
100
AcDbCircle
 10
327.7062975394392
 20
828.2497181118769
 30
0.0
 40
0.5
100
AcDbArc
 50
3.534939136661618
 51
90.0
  0
ARC
  5
1D52
330
1F
100
AcDbEntity
  8
Hewi
100
AcDbCircle
 10
-305.2062975394392
 20
870.7497181118766
 30
0.0
 40
42.00000000000001
210
0.0
220
0.0
230
-1.0
100
AcDbArc
 50
270.0
 51
315.0000000000642
  0
ARC
  5
1D53
330
1F
100
AcDbEntity
  8
Hewi
100
AcDbCircle
 10
305.2062975394392
 20
870.7497181118766
 30
0.0
 40
75.00000000000001
100
AcDbArc
 50
224.9999999999357
 51
270.0
  0
ARC
  5
1D54
330
1F
100
AcDbEntity
  8
Hewi
100
AcDbCircle
 10
259.2443567623004
 20
856.6075824881508
 30
0.0
 40
0.5
100
AcDbArc
 50
44.99999999993574
 51
135.0000000000642
  0
ARC
  5
1D55
330
1F
100
AcDbEntity
  8
Hewi
100
AcDbCircle
 10
236.6169397643414
 20
833.9801654901775
 30
0.0
 40
0.5
100
AcDbArc
 50
135.0000000000642
 51
224.9999999999357
  0
ARC
  5
1D56
330
1F
100
AcDbEntity
  8
Hewi
100
AcDbCircle
 10
236.7583611205794
 20
834.8286936276082
 30
0.0
 40
1.199999999999999
100
AcDbArc
 50
142.813713227797
 51
224.9999999999357
  0
ARC
  5
1D57
330
1F
100
AcDbEntity
  8
Hewi
100
AcDbCircle
 10
258.3958286248844
 20
856.4661611319127
 30
0.0
 40
1.199999999999999
100
AcDbArc
 50
44.99999999993574
 51
127.1862867719065
  0
ARC
  5
1D58
330
1F
100
AcDbEntity
  8
Hewi
100
AcDbCircle
 10
330.19955311483
 20
761.8212185867841
 30
0.0
 40
120.0
100
AcDbArc
 50
127.1862867719065
 51
134.5935879936767
  0
ARC
  5
1D59
330
1F
100
AcDbEntity
  8
Hewi
100
AcDbCircle
 10
331.4033036657079
 20
763.0249691376621
 30
0.0
 40
120.0
100
AcDbArc
 50
135.4064120064883
 51
142.813713227797
  0
ARC
  5
1D5A
330
1F
100
AcDbEntity
  8
Hewi
100
AcDbCircle
 10
328.7043948884843
 20
828.2497181118769
 30
0.0
 40
0.5
100
AcDbArc
 50
90.0
 51
176.4650608633384
  0
ARC
  5
1D5B
330
1F
100
AcDbEntity
  8
Hewi
100
AcDbCircle
 10
328.7043948884843
 20
796.2497181118766
 30
0.0
 40
0.5
100
AcDbArc
 50
183.5349391366616
 51
270.0
  0
LINE
  5
1D5C
330
1F
100
AcDbEntity
  8
Hewi
100
AcDbLine
 10
392.0583611205792
 20
828.7497181118766
 30
0.0
 11
442.5583611205792
 21
828.7497181118766
 31
0.0
  0
LINE
  5
1D5D
330
1F
100
AcDbEntity
  8
Hewi
100
AcDbLine
 10
366.5583611205793
 20
828.7666209699045
 30
0.0
 11
366.5583611205793
 21
872.7493235444518
 31
0.0
  0
LINE
  5
1D5E
330
1F
100
AcDbEntity
  8
Hewi
100
AcDbLine
 10
384.5583611205793
 20
872.7493189309855
 30
0.0
 11
384.5583611205793
 21
828.7503484502185
 31
0.0
  0
LINE
  5
1D5F
330
1F
100
AcDbEntity
  8
Hewi
100
AcDbLine
 10
335.5583611205793
 20
874.749718111877
 30
0.0
 11
335.5583611205793
 21
885.749718111877
 31
0.0
  0
LINE
  5
1D60
330
1F
100
AcDbEntity
  8
Hewi
100
AcDbLine
 10
415.5583611205793
 20
885.749718111877
 30
0.0
 11
415.5583611205793
 21
874.749718111877
 31
0.0
  0
LINE
  5
1D61
330
1F
100
AcDbEntity
  8
Hewi
100
AcDbLine
 10
337.5583611205793
 20
872.7497181118769
 30
0.0
 11
413.5583611205793
 21
872.7497181118769
 31
0.0
  0
LINE
  5
1D62
330
1F
100
AcDbEntity
  8
Hewi
100
AcDbLine
 10
335.5583611205793
 20
885.749718111877
 30
0.0
 11
415.5583611205793
 21
885.749718111877
 31
0.0
  0
ARC
  5
1D63
330
1F
100
AcDbEntity
  8
Hewi
100
AcDbCircle
 10
337.5583611205793
 20
874.749718111877
 30
0.0
 40
2.0
100
AcDbArc
 50
180.0
 51
270.0
  0
ARC
  5
1D64
330
1F
100
AcDbEntity
  8
Hewi
100
AcDbCircle
 10
413.5583611205793
 20
874.749718111877
 30
0.0
 40
2.0
100
AcDbArc
 50
270.0
 51
0.0
  0
SPLINE
  5
1D65
330
1F
100
AcDbEntity
  8
Hewi
100
AcDbSpline
210
0.0
220
0.0
230
1.0
 70
     8
 71
     3
 72
    14
 73
    10
 74
     0
 42
0.0000000001
 43
0.0000000001
 40
0.0
 40
0.0
 40
0.0
 40
0.0
 40
0.2434300440914431
 40
0.2434300440914431
 40
0.4956200293942957
 40
0.4956200293942957
 40
0.7478100146971479
 40
0.7478100146971479
 40
1.0
 40
1.0
 40
1.0
 40
1.0
 10
384.5506872331307
 20
828.7494544622557
 30
0.0
 10
384.4525735359338
 20
828.7487667291671
 30
0.0
 10
383.4156915146877
 20
828.2007950261569
 30
0.0
 10
380.1539083142843
 20
826.910305528577
 30
0.0
 10
377.8250296094185
 20
826.2168868325632
 30
0.0
 10
373.0136575584029
 20
826.1988095906806
 30
0.0
 10
370.6867251188078
 20
826.8879884818261
 30
0.0
 10
367.4797916049129
 20
828.2036159236694
 30
0.0
 10
366.5084225423917
 20
828.7780824065514
 30
0.0
 10
366.5604231235767
 20
828.7484944967539
 30
0.0
  0
LINE
  5
1D68
330
1F
100
AcDbEntity
  8
Hewi
100
AcDbLine
 10
328.7043948884843
 20
828.7497181118766
 30
0.0
 11
366.5583611205793
 21
828.7666209699045
 31
0.0
  0
LINE
  5
1D69
330
1F
100
AcDbEntity
  8
Hewi
100
AcDbLine
 10
518.3490505666504
 20
828.749539463312
 30
0.0
 11
515.7609550118126
 21
828.7495378191149
 31
0.0
  0
LINE
  5
1D6A
330
1F
100
AcDbEntity
  8
Hewi
100
AcDbLine
 10
496.9245547938283
 20
828.7495258524968
 30
0.0
 11
384.5506872331307
 21
828.7494544622557
 31
0.0
  0
LINE
  5
1D6B
330
1F
100
AcDbEntity
  8
Hewi
100
AcDbLine
 10
544.2550132392653
 20
795.7497181118766
 30
0.0
 11
874.5602637715341
 21
795.7497181118766
 31
0.0
  0
LINE
  5
1DA9
330
1F
100
AcDbEntity
  8
Hewi
100
AcDbLine
 10
487.0549979804772
 20
1136.476607055872
 30
0.0000000000000059
 11
487.0549979804772
 21
1180.476622314662
 31
0.0000000000000059
  0
LINE
  5
1DAA
330
1F
100
AcDbEntity
  8
Hewi
100
AcDbLine
 10
547.0549979804774
 20
1136.476607055872
 30
0.0000000000000059
 11
547.0549979804774
 21
1180.476622314662
 31
0.0000000000000059
  0
LINE
  5
1DAB
330
1F
100
AcDbEntity
  8
Hewi
100
AcDbLine
 10
487.0549979804772
 20
1136.476607055872
 30
0.0000000000000059
 11
547.0549979804774
 21
1136.476607055872
 31
0.0000000000000059
  0
LINE
  5
1DAC
330
1F
100
AcDbEntity
  8
Hewi
100
AcDbLine
 10
500.5550208686608
 20
1204.476637573451
 30
0.0000000000000059
 11
533.5550132392665
 21
1204.476637573451
 31
0.0000000000000059
  0
LINE
  5
1DAD
330
1F
100
AcDbEntity
  8
Hewi
100
AcDbLine
 10
532.9928031562586
 20
1179.914412231655
 30
0.0000000000000059
 11
533.5550132392665
 21
1180.476622314662
 31
0.0000000000000059
  0
LINE
  5
1DAE
330
1F
100
AcDbEntity
  8
Hewi
100
AcDbLine
 10
525.3050056098719
 20
1175.005125732631
 30
0.0000000000000059
 11
528.7222495673915
 21
1177.017149658412
 31
0.0000000000000059
  0
LINE
  5
1DAF
330
1F
100
AcDbEntity
  8
Hewi
100
AcDbLine
 10
529.2342582343836
 20
1177.529196472377
 30
0.0000000000000059
 11
531.3444343208094
 21
1178.668265075893
 31
0.0000000000000059
  0
LINE
  5
1DB0
330
1F
100
AcDbEntity
  8
Hewi
100
AcDbLine
 10
521.3255134223719
 20
1173.535895080776
 30
0.0000000000000059
 11
522.2463813422938
 21
1174.032950134487
 31
0.0000000000000059
  0
LINE
  5
1DB1
330
1F
100
AcDbEntity
  8
Hewi
100
AcDbLine
 10
522.2463813422938
 20
1174.032950134487
 30
0.0000000000000059
 11
525.3050056098719
 21
1175.005125732631
 31
0.0000000000000059
  0
LINE
  5
1DB2
330
1F
100
AcDbEntity
  8
Hewi
100
AcDbLine
 10
532.4031272529383
 20
1179.726996154994
 30
0.0000000000000059
 11
532.9928031562586
 21
1179.914412231655
 31
0.0000000000000059
  0
LINE
  5
1DB3
330
1F
100
AcDbEntity
  8
Hewi
100
AcDbLine
 10
517.0549979804774
 20
1172.803168029994
 30
0.0000000000000059
 11
521.3255134223719
 21
1173.535895080776
 31
0.0000000000000059
  0
LINE
  5
1DB4
330
1F
100
AcDbEntity
  8
Hewi
100
AcDbLine
 10
512.7844825385828
 20
1173.535895080776
 30
0.0000000000000059
 11
517.0549979804774
 21
1172.803168029994
 31
0.0000000000000059
  0
LINE
  5
1DB5
330
1F
100
AcDbEntity
  8
Hewi
100
AcDbLine
 10
511.8636527656334
 20
1174.032950134487
 30
0.0000000000000059
 11
512.7844825385828
 21
1173.535895080776
 31
0.0000000000000059
  0
LINE
  5
1DB6
330
1F
100
AcDbEntity
  8
Hewi
100
AcDbLine
 10
531.3444343208094
 20
1178.668265075893
 30
0.0000000000000059
 11
532.4031272529383
 21
1179.726996154994
 31
0.0000000000000059
  0
LINE
  5
1DB7
330
1F
100
AcDbEntity
  8
Hewi
100
AcDbLine
 10
528.7222495673915
 20
1177.017149658412
 30
0.0000000000000059
 11
529.2342582343836
 21
1177.529196472377
 31
0.0000000000000059
  0
LINE
  5
1DB8
330
1F
100
AcDbEntity
  8
Hewi
100
AcDbLine
 10
487.0549979804772
 20
1180.476622314662
 30
0.0000000000000059
 11
500.5550208686608
 21
1180.476622314662
 31
0.0000000000000059
  0
LINE
  5
1DB9
330
1F
100
AcDbEntity
  8
Hewi
100
AcDbLine
 10
504.8757377265712
 20
1177.529196472377
 30
0.0000000000000059
 11
505.3877463935631
 21
1177.017149658412
 31
0.0000000000000059
  0
LINE
  5
1DBA
330
1F
100
AcDbEntity
  8
Hewi
100
AcDbLine
 10
501.1172309516688
 20
1179.914412231655
 30
0.0000000000000059
 11
501.7068687080165
 21
1179.726996154994
 31
0.0000000000000059
  0
LINE
  5
1DBB
330
1F
100
AcDbEntity
  8
Hewi
100
AcDbLine
 10
502.7655997871177
 20
1178.668265075893
 30
0.0000000000000059
 11
504.8757377265712
 21
1177.529196472377
 31
0.0000000000000059
  0
LINE
  5
1DBC
330
1F
100
AcDbEntity
  8
Hewi
100
AcDbLine
 10
505.3877463935631
 20
1177.017149658412
 30
0.0000000000000059
 11
508.8049903510828
 21
1175.005125732631
 31
0.0000000000000059
  0
LINE
  5
1DBD
330
1F
100
AcDbEntity
  8
Hewi
100
AcDbLine
 10
501.7068687080165
 20
1179.726996154994
 30
0.0000000000000059
 11
502.7655997871177
 21
1178.668265075893
 31
0.0000000000000059
  0
LINE
  5
1DBE
330
1F
100
AcDbEntity
  8
Hewi
100
AcDbLine
 10
500.5550208686608
 20
1180.476622314662
 30
0.0000000000000059
 11
501.1172309516688
 21
1179.914412231655
 31
0.0000000000000059
  0
LINE
  5
1DBF
330
1F
100
AcDbEntity
  8
Hewi
100
AcDbLine
 10
508.8049903510828
 20
1175.005125732631
 30
0.0000000000000059
 11
511.8636527656334
 21
1174.032950134487
 31
0.0000000000000059
  0
LINE
  5
1DC0
330
1F
100
AcDbEntity
  8
Hewi
100
AcDbLine
 10
533.5550132392665
 20
1180.476622314662
 30
0.0000000000000059
 11
533.5550132392665
 21
1204.476637573451
 31
0.0000000000000059
  0
LINE
  5
1DC1
330
1F
100
AcDbEntity
  8
Hewi
100
AcDbLine
 10
500.5550208686608
 20
1180.476622314662
 30
0.0000000000000059
 11
500.5550208686608
 21
1204.476637573451
 31
0.0000000000000059
  0
LINE
  5
1DC2
330
1F
100
AcDbEntity
  8
Hewi
100
AcDbLine
 10
533.5550132392665
 20
1180.476622314662
 30
0.0000000000000059
 11
547.0549979804774
 21
1180.476622314662
 31
0.0000000000000059
  0
LWPOLYLINE
  5
1DC3
330
1F
100
AcDbEntity
  8
Hewi
100
AcDbPolyline
 90
        4
 70
     0
 43
0.0
 10
487.0549979804772
 20
1175.49933736742
 10
327.0012722862682
 20
1174.999338329501
 10
327.0012722862682
 20
1142.999338329501
 10
487.0549979804772
 20
1142.499337367421
  0
LWPOLYLINE
  5
1DC4
330
1F
100
AcDbEntity
  8
Hewi
100
AcDbPolyline
 90
        2
 70
     0
 43
0.0
 10
547.0549979804773
 20
1142.499337367421
 10
924.0583611205792
 20
1142.499337367421
  0
ARC
  5
1DC5
330
1F
100
AcDbEntity
  8
Hewi
100
AcDbCircle
 10
375.0583611205791
 20
1158.99933736742
 30
0.0
 40
40.0
100
AcDbArc
 50
24.36197793997394
 51
155.6380220600261
  0
ARC
  5
1DC6
330
1F
100
AcDbEntity
  8
Hewi
100
AcDbCircle
 10
375.0583611205791
 20
1158.99933736742
 30
0.0
 40
40.0
100
AcDbArc
 50
204.3619779399739
 51
335.638022060026
  0
LINE
  5
1DC7
330
1F
100
AcDbEntity
  8
Hewi
100
AcDbLine
 10
327.0012722862682
 20
1175.499338329501
 30
-0.0000000000000092
 11
304.5012722862683
 21
1175.499338329501
 31
-0.0000000000000113
  0
LINE
  5
1DC8
330
1F
100
AcDbEntity
  8
Hewi
100
AcDbLine
 10
304.5012722862683
 20
1142.499338329501
 30
-0.0000000000000093
 11
327.0012722862682
 21
1142.499338329501
 31
-0.0000000000000072
  0
LINE
  5
1DC9
330
1F
100
AcDbEntity
  8
Hewi
100
AcDbLine
 10
263.1355255868482
 20
1175.499338329501
 30
0.0000000000000087
 11
247.2256230101574
 21
1175.499338329501
 31
-0.000000000000001
  0
LINE
  5
1DCA
330
1F
100
AcDbEntity
  8
Hewi
100
AcDbLine
 10
247.2256230101573
 20
1142.499338329501
 30
0.000000000000001
 11
263.1355255868482
 21
1142.499338329501
 31
0.0000000000000108
  0
LINE
  5
1DCB
330
1F
100
AcDbEntity
  8
Hewi
100
AcDbLine
 10
304.5012722862683
 20
1175.499338329501
 30
-0.0000000000000113
 11
263.1355255868482
 21
1175.499338329501
 31
0.0000000000000087
  0
LINE
  5
1DCC
330
1F
100
AcDbEntity
  8
Hewi
100
AcDbLine
 10
263.1355255868482
 20
1142.499338329501
 30
0.0000000000000108
 11
304.5012722862683
 21
1142.499338329501
 31
-0.0000000000000093
  0
LINE
  5
1DCD
330
1F
100
AcDbEntity
  8
Hewi
100
AcDbLine
 10
327.4993696353134
 20
1174.999338329501
 30
-0.0000000000000098
 11
327.4993696353134
 21
1142.999338329501
 31
-0.0000000000000078
  0
LINE
  5
1DCE
330
1F
100
AcDbEntity
  8
Hewi
100
AcDbLine
 10
304.5012722862683
 20
1175.499338329501
 30
-0.0000000000000113
 11
304.5012722862683
 21
1175.499338329501
 31
-0.0000000000000113
  0
LINE
  5
1DCF
330
1F
100
AcDbEntity
  8
Hewi
100
AcDbLine
 10
327.5012722862683
 20
1142.999338329501
 30
-0.0000000000000078
 11
327.5012722862683
 21
1174.999338329501
 31
-0.0000000000000098
  0
ARC
  5
1DD0
330
1F
100
AcDbEntity
  8
Hewi
100
AcDbCircle
 10
327.0012722862682
 20
1174.999338329501
 30
0.0000000000002466
 40
0.5
100
AcDbArc
 50
3.534939136661567
 51
90.0
  0
ARC
  5
1DD1
330
1F
100
AcDbEntity
  8
Hewi
100
AcDbCircle
 10
327.0012722862682
 20
1142.999338329501
 30
0.0000000000002486
 40
0.5
100
AcDbArc
 50
270.0
 51
356.4650608633385
  0
ARC
  5
1DD2
330
1F
100
AcDbEntity
  8
Hewi
100
AcDbCircle
 10
327.9993696353134
 20
1142.999338329501
 30
0.0000000000002474
 40
0.5
100
AcDbArc
 50
183.5349391366614
 51
270.0
  0
ARC
  5
1DD3
330
1F
100
AcDbEntity
  8
Hewi
100
AcDbCircle
 10
327.9993696353134
 20
1174.999338329501
 30
0.0000000000002454
 40
0.5
100
AcDbArc
 50
90.0
 51
176.4650608633384
  0
ELLIPSE
  5
1DD4
330
1F
100
AcDbEntity
  8
Hewi
100
AcDbEllipse
 10
247.2256230101574
 20
1158.999338329501
 30
0.0
 11
0.000000000000004
 21
16.5
 31
0.0
210
0.0
220
0.0
230
1.0
 40
0.7071067811865463
 41
0.0
 42
3.14159281861797
  0
ELLIPSE
  5
1DD5
330
1F
100
AcDbEntity
  8
Hewi
100
AcDbEllipse
 10
246.8720696195613
 20
1158.999338329501
 30
0.0000000000000004
 11
0.000000000000004
 21
16.5
 31
0.0
210
0.0
220
0.0
230
1.0
 40
0.7071067811865466
 41
6.267968099393152
 42
6.283185307179584
  0
LINE
  5
1DD6
330
1F
100
AcDbEntity
  8
Hewi
100
AcDbLine
 10
1268.702740944308
 20
1175.49933736742
 30
0.000000000000005
 11
1252.792838367616
 21
1175.49933736742
 31
0.0000000000000237
  0
LINE
  5
1DD7
330
1F
100
AcDbEntity
  8
Hewi
100
AcDbLine
 10
1252.792838367616
 20
1142.499337367421
 30
0.0000000000000257
 11
1268.702740944308
 21
1142.499337367421
 31
0.0000000000000071
  0
LINE
  5
1DD8
330
1F
100
AcDbEntity
  8
Hewi
100
AcDbLine
 10
1223.336994244903
 20
1198.99933736742
 30
-0.0000000000000002
 11
1219.191430133051
 21
1198.99933736742
 31
0.0000000000000047
  0
LINE
  5
1DD9
330
1F
100
AcDbEntity
  8
Hewi
100
AcDbLine
 10
1242.660536065113
 20
1167.99933736742
 30
0.0000000000000027
 11
1225.337706652787
 21
1167.99933736742
 31
0.0000000000000034
  0
LINE
  5
1DDA
330
1F
100
AcDbEntity
  8
Hewi
100
AcDbLine
 10
1225.33775252495
 20
1149.999337367421
 30
0.0000000000000046
 11
1242.661036076414
 21
1149.999337367421
 31
0.0000000000000039
  0
LINE
  5
1DDB
330
1F
100
AcDbEntity
  8
Hewi
100
AcDbLine
 10
1285.836994244903
 20
1175.49933736742
 30
0.0000000000000134
 11
1268.702740944308
 21
1175.49933736742
 31
0.000000000000005
  0
LINE
  5
1DDC
330
1F
100
AcDbEntity
  8
Hewi
100
AcDbLine
 10
1268.702740944308
 20
1142.499337367421
 30
0.0000000000000071
 11
1285.836994244903
 21
1142.499337367421
 31
0.0000000000000154
  0
LINE
  5
1DDD
330
1F
100
AcDbEntity
  8
Hewi
100
AcDbLine
 10
1225.336994244903
 20
1120.999337367421
 30
0.0000000000000023
 11
1225.336994244903
 21
1196.999337367421
 31
-0.0000000000000023
  0
ARC
  5
1DDE
330
1F
100
AcDbEntity
  8
Hewi
100
AcDbCircle
 10
1223.336994244903
 20
1196.999337367421
 30
-0.0000000000001706
 40
2.0
100
AcDbArc
 50
0.0
 51
90.0
  0
ARC
  5
1DDF
330
1F
100
AcDbEntity
  8
Hewi
100
AcDbCircle
 10
1223.336994244903
 20
1120.999337367421
 30
-0.0000000000001659
 40
2.0
100
AcDbArc
 50
270.0
 51
0.0
  0
ARC
  5
1DE0
330
1F
100
AcDbEntity
  8
Hewi
100
AcDbCircle
 10
-1285.836994244903
 20
1158.999337367421
 30
0.0000000000002415
 40
16.5
210
0.0
220
0.0
230
-1.0
100
AcDbArc
 50
89.99999788891125
 51
180.0
  0
ARC
  5
1DE1
330
1F
100
AcDbEntity
  8
Hewi
100
AcDbCircle
 10
-1285.836994244903
 20
1158.999337367421
 30
0.0000000000002415
 40
16.5
210
0.0
220
0.0
230
-1.0
100
AcDbArc
 50
180.0
 51
270.0000021110887
  0
ARC
  5
1DE2
330
1F
100
AcDbEntity
  8
Hewi
100
AcDbCircle
 10
1285.836994244903
 20
1158.999337367421
 30
-0.0000000000002415
 40
16.5
100
AcDbArc
 50
270.0
 51
90.0000042213437
  0
ELLIPSE
  5
1DE3
330
1F
100
AcDbEntity
  8
Hewi
100
AcDbEllipse
 10
1268.702740944308
 20
1158.999337367421
 30
0.0000000000000061
 11
-0.0000000000000071
 21
-16.5
 31
0.0
210
0.0
220
0.0
230
1.0
 40
0.7071067811865485
 41
0.0
 42
3.141592818617966
  0
ELLIPSE
  5
1DE4
330
1F
100
AcDbEntity
  8
Hewi
100
AcDbEllipse
 10
1251.59863514351
 20
1158.999337367421
 30
0.0000000000000261
 11
0.0000000000000066
 21
15.46314323411495
 31
0.0
210
0.0
220
0.0
230
1.0
 40
0.7071067811865487
 41
0.0
 42
6.283185307179584
  0
ELLIPSE
  5
1DE5
330
1F
100
AcDbEntity
  8
Hewi
100
AcDbEllipse
 10
1252.43928497702
 20
1158.999337367421
 30
0.0000000000000251
 11
0.0000000000000071
 21
16.5
 31
0.0
210
0.0
220
0.0
230
1.0
 40
0.7071067811865485
 41
2.064124468782268
 42
6.283185307179584
  0
ELLIPSE
  5
1DE6
330
1F
100
AcDbEntity
  8
Hewi
100
AcDbEllipse
 10
1252.43928497702
 20
1158.999337367421
 30
0.0000000000000251
 11
0.0000000000000071
 21
16.5
 31
0.0
210
0.0
220
0.0
230
1.0
 40
0.7071067811865485
 41
0.0
 42
1.077566468341812
  0
ELLIPSE
  5
1DE7
330
1F
100
AcDbEntity
  8
Hewi
100
AcDbEllipse
 10
1216.336994244903
 20
1198.990172909629
 30
0.000000000000008
 11
1.73205
 21
-0.0000000000000007
 31
0.0
210
0.0
220
0.0
230
1.0
 40
0.0214049152598428
 41
5.627783360602743
 42
6.674982526938742
  0
SPLINE
  5
1DE8
330
1F
100
AcDbEntity
  8
Hewi
100
AcDbSpline
210
-0.0000000000000005
220
0.0000000000000479
230
1.0
 70
     8
 71
     3
 72
    10
 73
     6
 74
     0
 42
0.0000000001
 43
0.0000000001
 40
0.0
 40
0.0
 40
0.0
 40
0.0
 40
0.5130136982945209
 40
0.5130136982945209
 40
1.0
 40
1.0
 40
1.0
 40
1.0
 10
1219.336994244903
 20
1198.990149265371
 30
0.0000000000000046
 10
1219.336994244903
 20
1198.997348838222
 30
0.0000000000000046
 10
1219.279195663749
 20
1199.000178732936
 30
0.0000000000000046
 10
1219.063286004018
 20
1198.998092739375
 30
0.0000000000000049
 10
1218.907676807311
 20
1198.993591938588
 30
0.000000000000005
 10
1218.713405800427
 20
1198.987444637327
 30
0.0000000000000053
  0
LINE
  5
1DE9
330
1F
100
AcDbEntity
  8
Hewi
100
AcDbLine
 10
907.5583611205791
 20
763.7497181118766
 30
0.0
 11
940.5583611205791
 21
763.7497181118766
 31
0.0
  0
ARC
  5
1E4B
330
1F
100
AcDbEntity
  8
Hewi
100
AcDbCircle
 10
808.5583611205791
 20
1158.99933736742
 30
0.0
 40
40.0
100
AcDbArc
 50
204.3619779399781
 51
335.6380220600219
  0
LINE
  5
1E4C
330
1F
100
AcDbEntity
  8
Hewi
  6
Continuous
100
AcDbLine
 10
1269.337911031471
 20
2400.001312688428
 30
0.0
 11
1269.337460959878
 21
2089.991876379091
 31
0.0
  0
LINE
  5
1E4D
330
1F
100
AcDbEntity
  8
Hewi
  6
Continuous
100
AcDbLine
 10
1269.338346572733
 20
2400.002252589415
 30
0.0
 11
1269.337896499776
 21
2089.991876379091
 31
0.0
  0
ENDSEC
  0
SECTION
  2
OBJECTS
  0
DICTIONARY
  5
C
330
0
100
AcDbDictionary
281
     1
  3
ACAD_CIP_PREVIOUS_PRODUCT_INFO
350
1E4A
  3
ACAD_COLOR
350
6B
  3
ACAD_DETAILVIEWSTYLE
350
1E46
  3
ACAD_GROUP
350
D
  3
ACAD_LAYOUT
350
1A
  3
ACAD_MATERIAL
350
6A
  3
ACAD_MLEADERSTYLE
350
1E42
  3
ACAD_MLINESTYLE
350
17
  3
ACAD_PLOTSETTINGS
350
19
  3
ACAD_PLOTSTYLENAME
350
E
  3
ACAD_SCALELIST
350
1E30
  3
ACAD_SECTIONVIEWSTYLE
350
1E44
  3
ACAD_TABLESTYLE
350
7E
  3
ACAD_VISUALSTYLE
350
EF
  3
ACDB_RECOMPOSE_DATA
350
1EC3
  3
AcDbVariableDictionary
350
5E
  0
DICTIONARY
  5
141
330
2
100
AcDbDictionary
280
     1
281
     1
  3
ACAD_LAYERSTATES
360
142
  0
DICTIONARY
  5
1E4E
330
10
100
AcDbDictionary
280
     1
281
     1
  3
ADSK_XREC_LAYER_RECONCILED
360
1E4F
  0
DICTIONARY
  5
1E50
330
13E
100
AcDbDictionary
280
     1
281
     1
  3
ADSK_XREC_LAYER_RECONCILED
360
1E51
  0
DICTIONARY
  5
116
330
1F
100
AcDbDictionary
280
     1
281
     1
  3
ACAD_SORTENTS
360
117
  0
XRECORD
  5
1E4A
102
{ACAD_REACTORS
330
C
102
}
330
C
100
AcDbXrecord
280
     1
300
ACDLT
300
2013
300
ACDLT_F_S
  0
DICTIONARY
  5
6B
102
{ACAD_REACTORS
330
C
102
}
330
C
100
AcDbDictionary
281
     1
  0
DICTIONARY
  5
1E46
102
{ACAD_REACTORS
330
C
102
}
330
C
100
AcDbDictionary
281
     1
  3
Metric50
350
1E47
  0
DICTIONARY
  5
D
102
{ACAD_REACTORS
330
C
102
}
330
C
100
AcDbDictionary
281
     1
  0
DICTIONARY
  5
1A
102
{ACAD_REACTORS
330
C
102
}
330
C
100
AcDbDictionary
281
     1
  3
Layout1
350
D3
  3
Layout2
350
D7
  3
Model
350
22
  0
DICTIONARY
  5
6A
102
{ACAD_REACTORS
330
C
102
}
330
C
100
AcDbDictionary
281
     1
  3
ByBlock
350
ED
  3
ByLayer
350
EC
  3
Global
350
EE
  0
DICTIONARY
  5
1E42
102
{ACAD_REACTORS
330
C
102
}
330
C
100
AcDbDictionary
281
     1
  3
Standard
350
1E43
  0
DICTIONARY
  5
17
102
{ACAD_REACTORS
330
C
102
}
330
C
100
AcDbDictionary
281
     1
  3
Standard
350
18
  0
DICTIONARY
  5
19
102
{ACAD_REACTORS
330
C
102
}
330
C
100
AcDbDictionary
281
     1
  0
ACDBDICTIONARYWDFLT
  5
E
102
{ACAD_REACTORS
330
C
102
}
330
C
100
AcDbDictionary
281
     1
  3
Normal
350
F
100
AcDbDictionaryWithDefault
340
F
  0
DICTIONARY
  5
1E30
102
{ACAD_REACTORS
330
C
102
}
330
C
100
AcDbDictionary
281
     1
  3
A0
350
1E31
  3
A1
350
1E32
  3
A2
350
1E33
  3
A3
350
1E34
  3
A4
350
1E35
  3
A5
350
1E36
  3
A6
350
1E37
  3
A7
350
1E38
  3
A8
350
1E39
  3
A9
350
1E3A
  3
B0
350
1E3B
  3
B1
350
1E3C
  3
B2
350
1E3D
  3
B3
350
1E3E
  3
B4
350
1E3F
  3
B5
350
1E40
  3
B6
350
1E41
  0
DICTIONARY
  5
1E44
102
{ACAD_REACTORS
330
C
102
}
330
C
100
AcDbDictionary
281
     1
  3
Metric50
350
1E45
  0
DICTIONARY
  5
7E
102
{ACAD_REACTORS
330
C
102
}
330
C
100
AcDbDictionary
281
     1
  3
Standard
350
7F
  0
DICTIONARY
  5
EF
102
{ACAD_REACTORS
330
C
102
}
330
C
100
AcDbDictionary
281
     1
  3
2dWireframe
350
F5
  3
3D Hidden
350
F7
  3
3dWireframe
350
F6
  3
Basic
350
F4
  3
Brighten
350
FB
  3
ColorChange
350
FF
  3
Conceptual
350
F8
  3
Dim
350
FA
  3
EdgeColorOff
350
1E2F
  3
Facepattern
350
FE
  3
Flat
350
F0
  3
FlatWithEdges
350
F1
  3
Gouraud
350
F2
  3
GouraudWithEdges
350
F3
  3
Hidden
350
1E27
  3
JitterOff
350
1E2D
  3
Linepattern
350
FD
  3
OverhangOff
350
1E2E
  3
Realistic
350
F9
  3
Shaded
350
1E2C
  3
Shaded with edges
350
1E2B
  3
Shades of Gray
350
1E28
  3
Sketchy
350
1E29
  3
Thicken
350
FC
  3
Wireframe
350
1E26
  3
X-Ray
350
1E2A
  0
XRECORD
  5
1EC3
102
{ACAD_REACTORS
330
C
102
}
330
C
100
AcDbXrecord
280
     1
 90
        1
330
7F
  0
DICTIONARY
  5
5E
102
{ACAD_REACTORS
330
C
102
}
330
C
100
AcDbDictionary
281
     1
  3
CANNOSCALE
350
1E55
  3
CMLEADERSTYLE
350
1E52
  3
CTABLESTYLE
350
84
  3
CVIEWDETAILSTYLE
350
1E53
  3
CVIEWSECTIONSTYLE
350
1E54
  3
DIMASSOC
350
5F
  3
HIDETEXT
350
63
  3
INDEXCTL
350
327
  3
LAYEREVAL
350
1EA1
  3
LAYERNOTIFY
350
1EA2
  3
LIGHTINGUNITS
350
1EA0
  3
MSLTSCALE
350
1E9F
  3
PSOLHEIGHT
350
1EC0
  3
PSOLWIDTH
350
1EBF
  3
SORTENTS
350
326
  3
XCLIPFRAME
350
1EC1
  0
DICTIONARY
  5
142
102
{ACAD_REACTORS
330
141
102
}
330
141
100
AcDbDictionary
281
     1
  0
XRECORD
  5
1E4F
102
{ACAD_REACTORS
330
1E4E
102
}
330
1E4E
100
AcDbXrecord
280
     1
290
     1
  0
XRECORD
  5
1E51
102
{ACAD_REACTORS
330
1E50
102
}
330
1E50
100
AcDbXrecord
280
     1
290
     1
  0
SORTENTSTABLE
  5
117
102
{ACAD_REACTORS
330
116
102
}
330
116
100
AcDbSortentsTable
330
1F
331
13A6
  5
13B2
331
117C
  5
117F
331
1367
  5
1379
331
1856
  5
18B4
331
141C
  5
1428
331
13A2
  5
13AE
331
1178
  5
117B
331
1363
  5
1375
331
1477
  5
15D6
331
139E
  5
13AA
331
13DD
  5
13E9
331
1418
  5
1424
331
1DC4
  5
18B2
331
1473
  5
15D2
331
139A
  5
13A6
331
1D4D
  5
1D55
331
1414
  5
1420
331
13D9
  5
13E5
331
1DC0
  5
1DC5
331
180A
  5
185B
331
1DBC
  5
1DC1
331
1D49
  5
1D51
331
1410
  5
141C
331
1DB8
  5
1DBD
331
135B
  5
136D
331
1396
  5
13A2
331
146F
  5
147C
331
13D5
  5
13E1
331
116C
  5
1176
331
10C1
  5
10CE
331
1357
  5
1367
331
1392
  5
139E
331
140C
  5
1418
331
146B
  5
1478
331
13D1
  5
13DD
331
1353
  5
1360
331
1DB4
  5
1DB9
331
1752
  5
185A
331
1408
  5
1414
331
13CD
  5
13D9
331
1443
  5
1473
331
138A
  5
1397
331
1DB0
  5
1DB5
331
174E
  5
180B
331
1404
  5
1410
331
13C9
  5
13D5
331
174A
  5
1753
331
1DAC
  5
1DB1
331
18C9
  5
18C0
331
1400
  5
140C
331
10B5
  5
10B6
331
1386
  5
1393
331
143F
  5
144B
331
13C5
  5
13D1
331
134B
  5
1355
331
1347
  5
1352
331
13FC
  5
1408
331
18C5
  5
1D4C
331
1DE7
  5
1E4B
331
143B
  5
1447
331
13C1
  5
13CD
331
1140
  5
1153
331
10AD
  5
10AD
331
1343
  5
134C
331
13F8
  5
1404
331
1437
  5
1443
331
137E
  5
138F
331
13BD
  5
13C9
331
1DE3
  5
1DE6
331
18C1
  5
1B63
331
13F4
  5
1400
331
1433
  5
143F
331
1D68
  5
1DAD
331
1DDF
  5
1DE2
331
18BD
  5
18C7
331
13B9
  5
13C5
331
172A
  5
174E
331
1D64
  5
1DAB
331
1DDB
  5
1DDE
331
18B9
  5
18C3
331
13F0
  5
13FC
331
1D60
  5
1D68
331
133F
  5
1348
331
133B
  5
1344
331
1376
  5
138A
331
142F
  5
143B
331
13B5
  5
13C1
331
1134
  5
113A
331
1187
  5
133E
331
13EC
  5
13F8
331
1726
  5
174A
331
18B5
  5
18BF
331
1DD7
  5
1DDA
331
142B
  5
1437
331
13B1
  5
13BD
331
1130
  5
1134
331
1427
  5
1433
331
1722
  5
1747
331
13E8
  5
13F4
331
13AD
  5
13B9
331
1D5C
  5
1D64
331
1DD3
  5
1DD6
331
112C
  5
112F
331
13E4
  5
13F0
331
1423
  5
142F
331
147E
  5
172B
331
1D58
  5
1D60
331
1DCF
  5
1DD2
331
185D
  5
18BC
331
13A9
  5
13B5
331
147A
  5
1727
331
1D54
  5
1D5C
331
1DCB
  5
1DCE
331
1859
  5
18B8
331
13E0
  5
13EC
331
1D50
  5
1D58
331
117F
  5
1182
331
141F
  5
142B
331
13A5
  5
13B1
331
117B
  5
117E
331
10CC
  5
1129
331
141B
  5
1427
331
1DC7
  5
1DCA
331
13A1
  5
13AD
331
1366
  5
1378
331
1362
  5
1374
331
1DC3
  5
185E
331
1417
  5
1423
331
1476
  5
15D5
331
139D
  5
13A9
331
13DC
  5
13E8
331
1399
  5
13A5
331
1DBF
  5
1DC4
331
1D4C
  5
1D54
331
1413
  5
141F
331
13D8
  5
13E4
331
1DBB
  5
1DC0
331
1D48
  5
1D50
331
116B
  5
116E
331
1395
  5
13A1
331
140F
  5
141B
331
146E
  5
147B
331
13D4
  5
13E0
331
135A
  5
136C
331
10BC
  5
10CC
331
1356
  5
1366
331
1391
  5
139D
331
1DB7
  5
1DBC
331
140B
  5
1417
331
146A
  5
1477
331
13D0
  5
13DC
331
1153
  5
116C
331
1352
  5
135F
331
1DB3
  5
1DB8
331
1751
  5
1858
331
1407
  5
1413
331
138D
  5
139A
331
13CC
  5
13D8
331
1442
  5
1472
331
1389
  5
1396
331
1DAF
  5
1DB4
331
174D
  5
180A
331
1403
  5
140F
331
13C8
  5
13D4
331
1749
  5
1752
331
1DAB
  5
1DB0
331
134E
  5
135C
331
1385
  5
1391
331
13FF
  5
140B
331
143E
  5
144A
331
13C4
  5
13D0
331
1346
  5
1351
331
13FB
  5
1407
331
18C4
  5
1B66
331
1DE6
  5
1DE9
331
143A
  5
1446
331
13C0
  5
13CC
331
113B
  5
1152
331
1342
  5
134B
331
13F7
  5
1403
331
1436
  5
1442
331
137D
  5
138E
331
13BC
  5
13C8
331
1E4D
  5
1342
331
1D6B
  5
10B5
331
1DE2
  5
1DE5
331
18C0
  5
1B62
331
1432
  5
143E
331
172D
  5
1751
331
1DDE
  5
1DE1
331
18BC
  5
18C6
331
13F3
  5
13FF
331
13B8
  5
13C4
331
1729
  5
174D
331
1D63
  5
1DA7
331
1DDA
  5
1DDD
331
133E
  5
1347
331
1133
  5
1136
331
1375
  5
1389
331
13EF
  5
13FB
331
142E
  5
143A
331
13B4
  5
13C0
331
133A
  5
1343
331
112F
  5
1133
331
1186
  5
133D
331
1371
  5
1382
331
1725
  5
1749
331
13EB
  5
13F7
331
142A
  5
1436
331
1D5F
  5
1D67
331
1DD6
  5
1DD9
331
13B0
  5
13BC
331
112B
  5
112E
331
1182
  5
1186
331
1426
  5
1432
331
1721
  5
172D
331
13E7
  5
13F3
331
136D
  5
137F
331
13AC
  5
13B8
331
1D5B
  5
1D63
331
1DD2
  5
1DD5
331
13E3
  5
13EF
331
1422
  5
142E
331
147D
  5
172A
331
1D57
  5
1D5F
331
1DCE
  5
1DD1
331
185C
  5
18BB
331
1369
  5
137B
331
13A8
  5
13B4
331
1479
  5
15D8
331
1D53
  5
1D5B
331
1DCA
  5
1DCD
331
1858
  5
18B7
331
117E
  5
1181
331
10CF
  5
112B
331
141E
  5
142A
331
13A4
  5
13B0
331
117A
  5
117D
331
1176
  5
117A
331
10CB
  5
10CF
331
13DF
  5
13EB
331
141A
  5
1426
331
1DC6
  5
1DC9
331
13A0
  5
13AC
331
1416
  5
1422
331
1475
  5
15D4
331
1D4F
  5
1D57
331
139C
  5
13A8
331
13DB
  5
13E7
331
1DC2
  5
1DC7
331
1471
  5
147E
331
1398
  5
13A4
331
1DBE
  5
1DC3
331
1D4B
  5
1D53
331
1412
  5
141E
331
1DBA
  5
1DBF
331
116E
  5
1179
331
13D7
  5
13E3
331
135D
  5
1373
331
116A
  5
116D
331
1394
  5
13A0
331
140E
  5
141A
331
1D47
  5
1D4F
331
146D
  5
147A
331
13D3
  5
13DF
331
1359
  5
136B
331
10BB
  5
10CB
331
1355
  5
1361
331
1390
  5
139C
331
13CF
  5
13DB
331
1DB6
  5
1DBB
331
140A
  5
1416
331
1469
  5
1475
331
1152
  5
116B
331
1351
  5
135E
331
1DB2
  5
1DB7
331
1750
  5
1855
331
1406
  5
1412
331
138C
  5
1399
331
13CB
  5
13D7
331
1441
  5
1471
331
1388
  5
1395
331
174C
  5
1809
331
1DAE
  5
1DB3
331
1402
  5
140E
331
1DAA
  5
1DAF
331
1DE9
  5
1E4D
331
10B3
  5
10B3
331
13C7
  5
13D3
331
134D
  5
135B
331
13FE
  5
140A
331
18C7
  5
1D4E
331
143D
  5
1449
331
13C3
  5
13CF
331
1345
  5
1350
331
13BF
  5
13CB
331
13FA
  5
1406
331
18C3
  5
1B65
331
1DE5
  5
1DE8
331
1439
  5
1445
331
113A
  5
1141
331
1341
  5
134A
331
13F6
  5
1402
331
1435
  5
1441
331
18BF
  5
18CA
331
137C
  5
138D
331
13BB
  5
13C7
331
1D6A
  5
10BC
331
1DE1
  5
1DE4
331
1E4C
  5
1345
331
1431
  5
143D
331
172C
  5
1750
331
1DDD
  5
1DE0
331
18BB
  5
18C5
331
13F2
  5
13FE
331
1728
  5
174C
331
1D62
  5
1DA6
331
1DD9
  5
1DDC
331
1136
  5
1140
331
13B7
  5
13C3
331
1374
  5
1383
331
13EE
  5
13FA
331
18B7
  5
18C1
331
142D
  5
1439
331
13B3
  5
13BF
331
1339
  5
1340
331
112E
  5
1131
331
1185
  5
133C
331
1370
  5
1381
331
13AF
  5
13BB
331
13EA
  5
13F6
331
1429
  5
1435
331
1D5E
  5
1D66
331
1DD5
  5
1DD8
331
112A
  5
112D
331
1181
  5
1185
331
13E6
  5
13F2
331
1425
  5
1431
331
1720
  5
172C
331
185F
  5
18BE
331
13AB
  5
13B7
331
1D5A
  5
1D62
331
1DD1
  5
1DD4
331
1421
  5
142D
331
1368
  5
137A
331
147C
  5
1729
331
1D56
  5
1D5E
331
1DCD
  5
1DD0
331
185B
  5
18BA
331
13E2
  5
13EE
331
1478
  5
15D7
331
1D52
  5
1D5A
331
1DC9
  5
1DCC
331
13A7
  5
13B3
331
117D
  5
1180
331
1857
  5
18B3
331
141D
  5
1429
331
13A3
  5
13AF
331
1179
  5
117C
331
10CE
  5
112A
331
139F
  5
13AB
331
13DE
  5
13EA
331
1419
  5
1425
331
1DC5
  5
1DC8
331
1474
  5
15D3
331
139B
  5
13A7
331
1D4E
  5
1D56
331
1415
  5
1421
331
13DA
  5
13E6
331
1DC1
  5
1DC6
331
1470
  5
147D
331
180B
  5
185D
331
1DBD
  5
1DC2
331
1D4A
  5
1D52
331
1411
  5
141D
331
1DB9
  5
1DBE
331
135C
  5
1371
331
1397
  5
13A3
331
13D6
  5
13E2
331
116D
  5
1178
331
1393
  5
139F
331
140D
  5
1419
331
146C
  5
1479
331
13D2
  5
13DE
331
1358
  5
136A
331
1DB5
  5
1DBA
331
1409
  5
1415
331
138F
  5
139B
331
13CE
  5
13DA
331
1DB1
  5
1DB6
331
174F
  5
1854
331
1405
  5
1411
331
1444
  5
1474
331
138B
  5
1398
331
13CA
  5
13D6
331
1350
  5
135D
331
1440
  5
1470
331
174B
  5
17CE
331
1DAD
  5
1DB2
331
18CA
  5
18C2
331
1401
  5
140D
331
1DA9
  5
1DAE
331
1DE8
  5
1E4C
331
10B6
  5
10C1
331
1387
  5
1394
331
13C6
  5
13D2
331
134C
  5
1356
331
1348
  5
1354
331
13FD
  5
1409
331
1747
  5
172E
331
18C6
  5
1D4D
331
143C
  5
1448
331
13C2
  5
13CE
331
1141
  5
116A
331
10AE
  5
10AE
331
1344
  5
134F
331
137F
  5
1390
331
13BE
  5
13CA
331
13F9
  5
1405
331
1438
  5
1444
331
1DE4
  5
1DE7
331
18C2
  5
1B64
331
1340
  5
1349
331
13F5
  5
1401
331
1434
  5
1440
331
18BE
  5
18C9
331
137B
  5
138C
331
13BA
  5
13C6
331
1D69
  5
10BB
331
1DE0
  5
1DE3
331
1E4B
  5
185C
331
1430
  5
143C
331
172B
  5
174F
331
1D65
  5
1DAC
331
1DDC
  5
1DDF
331
18BA
  5
18C4
331
13F1
  5
13FD
331
1D61
  5
1D6B
331
1DD8
  5
1DDB
331
133C
  5
1346
331
1377
  5
138B
331
13B6
  5
13C2
331
1135
  5
113B
331
1338
  5
133F
331
1727
  5
174B
331
13ED
  5
13F9
331
142C
  5
1438
331
13B2
  5
13BE
331
1131
  5
1135
331
1184
  5
1187
331
136F
  5
1380
331
13AE
  5
13BA
331
1723
  5
1748
331
13E9
  5
13F5
331
1428
  5
1434
331
1D5D
  5
1D65
331
1DD4
  5
1DD7
331
112D
  5
1130
331
1180
  5
1184
331
13E5
  5
13F1
331
1424
  5
1430
331
185E
  5
18BD
331
13AA
  5
13B6
331
1D59
  5
1D61
331
1DD0
  5
1DD3
331
1129
  5
112C
331
1420
  5
142C
331
147B
  5
1728
331
1D55
  5
1D5D
331
1DCC
  5
1DCF
331
185A
  5
18B9
331
13E1
  5
13ED
331
1D51
  5
1D59
331
1DC8
  5
1DCB
  0
ACDBDETAILVIEWSTYLE
  5
1E47
102
{ACAD_REACTORS
330
1E46
102
}
330
1E46
100
AcDbModelDocViewStyle
 70
     0
  3
Metric50
290
     0
100
AcDbDetailViewStyle
 70
     0
 71
     0
 90
        3
 71
     1
340
11
 62
   256
 40
5.0
340
0
 62
   256
 40
5.0
300

 40
0.0
280
     1
 71
     2
340
16
 90
       25
 62
   256
 71
     3
340
11
 62
   256
 40
5.0
 90
        0
 40
15.0
 90
        1
300
%<\AcVar ViewDetailId>% (%<\AcVar ViewScale \f "%sn">%)
 71
     4
340
16
 90
       25
 62
   256
340
16
 90
       25
 62
   256
280
     0
  0
LAYOUT
  5
D3
102
{ACAD_REACTORS
330
1A
102
}
330
1A
100
AcDbPlotSettings
  1

  2
C:\Documents and Settings\basas\Application Data\Autodesk\AutoCAD 2005\R16.1\enu\plotters\Default Windows System Printer.pc3
  4

  6

 40
0.0
 41
0.0
 42
0.0
 43
0.0
 44
0.0
 45
0.0
 46
0.0
 47
0.0
 48
0.0
 49
0.0
140
0.0
141
0.0
142
1.0
143
1.0
 70
   688
 72
     0
 73
     0
 74
     5
  7

 75
    16
147
1.0
 76
     0
 77
     2
 78
   300
148
0.0
149
0.0
100
AcDbLayout
  1
Layout1
 70
     1
 71
     1
 10
0.0
 20
0.0
 11
12.0
 21
9.0
 12
0.0
 22
0.0
 32
0.0
 14
0.0
 24
0.0
 34
0.0
 15
0.0
 25
0.0
 35
0.0
146
0.0
 13
0.0
 23
0.0
 33
0.0
 16
1.0
 26
0.0
 36
0.0
 17
0.0
 27
1.0
 37
0.0
 76
     0
330
D2
  0
LAYOUT
  5
D7
102
{ACAD_REACTORS
330
1A
102
}
330
1A
100
AcDbPlotSettings
  1

  2
C:\Documents and Settings\basas\Application Data\Autodesk\AutoCAD 2005\R16.1\enu\plotters\Default Windows System Printer.pc3
  4

  6

 40
0.0
 41
0.0
 42
0.0
 43
0.0
 44
0.0
 45
0.0
 46
0.0
 47
0.0
 48
0.0
 49
0.0
140
0.0
141
0.0
142
1.0
143
1.0
 70
   688
 72
     0
 73
     0
 74
     5
  7

 75
    16
147
1.0
 76
     0
 77
     2
 78
   300
148
0.0
149
0.0
100
AcDbLayout
  1
Layout2
 70
     1
 71
     2
 10
0.0
 20
0.0
 11
12.0
 21
9.0
 12
0.0
 22
0.0
 32
0.0
 14
0.0
 24
0.0
 34
0.0
 15
0.0
 25
0.0
 35
0.0
146
0.0
 13
0.0
 23
0.0
 33
0.0
 16
1.0
 26
0.0
 36
0.0
 17
0.0
 27
1.0
 37
0.0
 76
     0
330
D6
  0
LAYOUT
  5
22
102
{ACAD_REACTORS
330
1A
102
}
330
1A
100
AcDbPlotSettings
  1

  2
none_device
  4
ISO_A4_(210.00_x_297.00_MM)
  6

 40
7.5
 41
20.0
 42
7.5
 43
20.0
 44
210.0
 45
297.0
 46
11.54999923706054
 47
-13.65000009536743
 48
0.0
 49
0.0
140
0.0
141
0.0
142
1.0
143
8.704084754739808
 70
 11952
 72
     1
 73
     0
 74
     0
  7

 75
     0
147
0.1148885871608098
 76
     0
 77
     2
 78
   300
148
0.0
149
0.0
100
AcDbLayout
  1
Model
 70
     1
 71
     0
 10
0.0
 20
0.0
 11
12.0
 21
9.0
 12
0.0
 22
0.0
 32
0.0
 14
0.0
 24
0.0
 34
0.0
 15
0.0
 25
0.0
 35
0.0
146
0.0
 13
0.0
 23
0.0
 33
0.0
 16
1.0
 26
0.0
 36
0.0
 17
0.0
 27
1.0
 37
0.0
 76
     0
330
1F
331
EA
1001
ACAD_PSEXT
1000
None
1000
None
1000
Not applicable
1000
The layout will not be plotted unless a new plotter configuration name is selected.
1070
     0
  0
MATERIAL
  5
ED
102
{ACAD_XDICTIONARY
360
335
102
}
102
{ACAD_REACTORS
330
6A
102
}
330
6A
100
AcDbMaterial
  1
ByBlock
  0
MATERIAL
  5
EC
102
{ACAD_XDICTIONARY
360
333
102
}
102
{ACAD_REACTORS
330
6A
102
}
330
6A
100
AcDbMaterial
  1
ByLayer
  0
MATERIAL
  5
EE
102
{ACAD_XDICTIONARY
360
337
102
}
102
{ACAD_REACTORS
330
6A
102
}
330
6A
100
AcDbMaterial
  1
Global
  0
MLEADERSTYLE
  5
1E43
102
{ACAD_REACTORS
330
1E42
102
}
330
1E42
100
AcDbMLeaderStyle
170
     2
171
     1
172
     0
 90
        2
 40
0.0
 41
0.0
173
     1
 91
-1056964608
340
14
 92
       -2
290
     1
 42
2.0
291
     1
 43
0.36
  3
Standard
 44
4.0
300

342
11
174
     1
178
     6
175
     1
176
     0
 93
-1056964608
 45
4.0
292
     0
297
     0
 46
4.0
 94
-1056964608
 47
1.0
 49
1.0
140
1.0
293
     1
141
0.0
294
     1
177
     0
142
1.0
295
     0
296
     0
143
0.125
1001
ACAD_MLEADERVER
1070
     2
  0
MLINESTYLE
  5
18
102
{ACAD_REACTORS
330
17
102
}
330
17
100
AcDbMlineStyle
  2
STANDARD
 70
     0
  3

 62
   256
 51
90.0
 52
90.0
 71
     2
 49
0.5
 62
   256
  6
BYLAYER
 49
-0.5
 62
   256
  6
BYLAYER
  0
ACDBPLACEHOLDER
  5
F
102
{ACAD_REACTORS
330
E
102
}
330
E
  0
SCALE
  5
1E31
102
{ACAD_REACTORS
330
1E30
102
}
330
1E30
100
AcDbScale
 70
     0
300
1:1
140
1.0
141
1.0
290
     1
  0
SCALE
  5
1E32
102
{ACAD_REACTORS
330
1E30
102
}
330
1E30
100
AcDbScale
 70
     0
300
1:2
140
1.0
141
2.0
290
     0
  0
SCALE
  5
1E33
102
{ACAD_REACTORS
330
1E30
102
}
330
1E30
100
AcDbScale
 70
     0
300
1:4
140
1.0
141
4.0
290
     0
  0
SCALE
  5
1E34
102
{ACAD_REACTORS
330
1E30
102
}
330
1E30
100
AcDbScale
 70
     0
300
1:5
140
1.0
141
5.0
290
     0
  0
SCALE
  5
1E35
102
{ACAD_REACTORS
330
1E30
102
}
330
1E30
100
AcDbScale
 70
     0
300
1:8
140
1.0
141
8.0
290
     0
  0
SCALE
  5
1E36
102
{ACAD_REACTORS
330
1E30
102
}
330
1E30
100
AcDbScale
 70
     0
300
1:10
140
1.0
141
10.0
290
     0
  0
SCALE
  5
1E37
102
{ACAD_REACTORS
330
1E30
102
}
330
1E30
100
AcDbScale
 70
     0
300
1:16
140
1.0
141
16.0
290
     0
  0
SCALE
  5
1E38
102
{ACAD_REACTORS
330
1E30
102
}
330
1E30
100
AcDbScale
 70
     0
300
1:20
140
1.0
141
20.0
290
     0
  0
SCALE
  5
1E39
102
{ACAD_REACTORS
330
1E30
102
}
330
1E30
100
AcDbScale
 70
     0
300
1:30
140
1.0
141
30.0
290
     0
  0
SCALE
  5
1E3A
102
{ACAD_REACTORS
330
1E30
102
}
330
1E30
100
AcDbScale
 70
     0
300
1:40
140
1.0
141
40.0
290
     0
  0
SCALE
  5
1E3B
102
{ACAD_REACTORS
330
1E30
102
}
330
1E30
100
AcDbScale
 70
     0
300
1:50
140
1.0
141
50.0
290
     0
  0
SCALE
  5
1E3C
102
{ACAD_REACTORS
330
1E30
102
}
330
1E30
100
AcDbScale
 70
     0
300
1:100
140
1.0
141
100.0
290
     0
  0
SCALE
  5
1E3D
102
{ACAD_REACTORS
330
1E30
102
}
330
1E30
100
AcDbScale
 70
     0
300
2:1
140
2.0
141
1.0
290
     0
  0
SCALE
  5
1E3E
102
{ACAD_REACTORS
330
1E30
102
}
330
1E30
100
AcDbScale
 70
     0
300
4:1
140
4.0
141
1.0
290
     0
  0
SCALE
  5
1E3F
102
{ACAD_REACTORS
330
1E30
102
}
330
1E30
100
AcDbScale
 70
     0
300
8:1
140
8.0
141
1.0
290
     0
  0
SCALE
  5
1E40
102
{ACAD_REACTORS
330
1E30
102
}
330
1E30
100
AcDbScale
 70
     0
300
10:1
140
10.0
141
1.0
290
     0
  0
SCALE
  5
1E41
102
{ACAD_REACTORS
330
1E30
102
}
330
1E30
100
AcDbScale
 70
     0
300
100:1
140
100.0
141
1.0
290
     0
  0
ACDBSECTIONVIEWSTYLE
  5
1E45
102
{ACAD_REACTORS
330
1E44
102
}
330
1E44
100
AcDbModelDocViewStyle
 70
     0
  3
Metric50
290
     0
100
AcDbSectionViewStyle
 70
     0
 71
     0
 90
      102
 71
     1
340
11
 62
   256
 40
5.0
340
0
340
0
 62
   256
 40
5.0
300
I, O, Q, S, X, Z
 40
10.0
 90
        0
 40
2.5
 90
        0
 71
     2
340
16
 90
       25
 62
   256
340
16
 90
       50
 62
   256
 40
5.0
 40
2.5
 40
5.0
 71
     3
340
11
 62
   256
 40
5.0
 90
        0
 40
15.0
 90
        1
300
%<\AcVar ViewSectionStartId>%-%<\AcVar ViewSectionEndId>% (%<\AcVar ViewScale \f "%sn">%)
 71
     4
 62
   256
 62
   257
300
ANSI31
 40
1.0
 90
        0
290
     0
290
     0
 90
        6
 40
0.0
 40
1.570796326794896
 40
0.2617993877991494
 40
1.308996938995747
 40
-0.2617993877991494
 40
1.832595714594045
  0
TABLESTYLE
  5
7F
102
{ACAD_XDICTIONARY
360
1E5A
102
}
102
{ACAD_REACTORS
330
7E
102
}
330
7E
100
AcDbTableStyle
  3
Standard
 70
     0
 71
     0
 40
1.5
 41
1.5
280
     0
281
     0
  7
Standard
140
4.5
170
     2
 62
     0
 63
     7
283
     0
274
    -2
284
     1
 64
     0
275
    -2
285
     1
 65
     0
276
    -2
286
     1
 66
     0
277
    -2
287
     1
 67
     0
278
    -2
288
     1
 68
     0
279
    -2
289
     1
 69
     0
  7
Standard
140
6.0
170
     5
 62
     0
 63
     7
283
     0
274
    -2
284
     1
 64
     0
275
    -2
285
     1
 65
     0
276
    -2
286
     1
 66
     0
277
    -2
287
     1
 67
     0
278
    -2
288
     1
 68
     0
279
    -2
289
     1
 69
     0
  7
Standard
140
4.5
170
     5
 62
     0
 63
     7
283
     0
274
    -2
284
     1
 64
     0
275
    -2
285
     1
 65
     0
276
    -2
286
     1
 66
     0
277
    -2
287
     1
 67
     0
278
    -2
288
     1
 68
     0
279
    -2
289
     1
 69
     0
  0
VISUALSTYLE
  5
F5
102
{ACAD_XDICTIONARY
360
1ECF
102
}
102
{ACAD_REACTORS
330
EF
102
}
330
EF
100
AcDbVisualStyle
  2

 70
     4
 71
     0
 72
     2
 73
     1
 90
        0
 40
-0.6
 41
-30.0
 62
     5
 63
     7
 74
     1
 91
        4
 64
     7
 65
   257
 75
     1
175
     1
 42
1.0
 92
        0
 66
   257
 43
1.0
 76
     1
 77
     6
 78
     2
 67
     7
 79
     5
170
     0
171
     0
290
     0
174
     0
 93
        1
 44
0.0
173
     0
291
     0
 45
0.0
1001
ACAD
1000
AcDbSavedByObjectVersion
1070
     0
  0
VISUALSTYLE
  5
F7
102
{ACAD_XDICTIONARY
360
1ED3
102
}
102
{ACAD_REACTORS
330
EF
102
}
330
EF
100
AcDbVisualStyle
  2

 70
     6
 71
     1
 72
     2
 73
     2
 90
        0
 40
-0.6
 41
-30.0
 62
     5
 63
     7
 74
     2
 91
        2
 64
     7
 65
   257
 75
     2
175
     1
 42
40.0
 92
        0
 66
   257
 43
1.0
 76
     1
 77
     6
 78
     2
 67
     7
 79
     3
170
     0
171
     0
290
     0
174
     0
 93
        1
 44
0.0
173
     0
291
     0
 45
0.0
1001
ACAD
1000
AcDbSavedByObjectVersion
1070
     0
  0
VISUALSTYLE
  5
F6
102
{ACAD_XDICTIONARY
360
1ED1
102
}
102
{ACAD_REACTORS
330
EF
102
}
330
EF
100
AcDbVisualStyle
  2

 70
     5
 71
     0
 72
     2
 73
     1
 90
        0
 40
-0.6
 41
-30.0
 62
     5
 63
     7
 74
     1
 91
        4
 64
     7
 65
   257
 75
     1
175
     1
 42
1.0
 92
        0
 66
   257
 43
1.0
 76
     1
 77
     6
 78
     2
 67
     7
 79
     5
170
     0
171
     0
290
     0
174
     0
 93
        1
 44
0.0
173
     0
291
     0
 45
0.0
1001
ACAD
1000
AcDbSavedByObjectVersion
1070
     0
  0
VISUALSTYLE
  5
F4
102
{ACAD_XDICTIONARY
360
1ECD
102
}
102
{ACAD_REACTORS
330
EF
102
}
330
EF
100
AcDbVisualStyle
  2

 70
     7
 71
     1
 72
     0
 73
     1
 90
        0
 40
-0.6
 41
-30.0
 62
     5
 63
     7
 74
     0
 91
        4
 64
     7
 65
   257
 75
     1
175
     1
 42
1.0
 92
        8
 66
     7
 43
1.0
 76
     1
 77
     6
 78
     2
 67
     7
 79
     5
170
     0
171
     0
290
     0
174
     0
 93
        1
 44
0.0
173
     0
291
     1
 45
0.0
1001
ACAD
1000
AcDbSavedByObjectVersion
1070
     0
  0
VISUALSTYLE
  5
FB
102
{ACAD_XDICTIONARY
360
1EDB
102
}
102
{ACAD_REACTORS
330
EF
102
}
330
EF
100
AcDbVisualStyle
  2

 70
    12
 71
     2
 72
     2
 73
     1
 90
        0
 40
-0.6
 41
-30.0
 62
     5
 63
     7
 74
     1
 91
        4
 64
     7
 65
   257
 75
     1
175
     1
 42
1.0
 92
        8
 66
     7
 43
1.0
 76
     1
 77
     6
 78
     2
 67
     7
 79
     5
170
     0
171
     0
290
     0
174
     0
 93
        1
 44
50.0
173
     0
291
     1
 45
0.0
1001
ACAD
1000
AcDbSavedByObjectVersion
1070
     0
  0
VISUALSTYLE
  5
FF
102
{ACAD_XDICTIONARY
360
1EE3
102
}
102
{ACAD_REACTORS
330
EF
102
}
330
EF
100
AcDbVisualStyle
  2

 70
    16
 71
     2
 72
     2
 73
     3
 90
        0
 40
-0.6
 41
-30.0
 62
     5
 63
     8
 74
     1
 91
        4
 64
     7
 65
   257
 75
     1
175
     1
 42
1.0
 92
        8
 66
     8
 43
1.0
 76
     1
 77
     6
 78
     2
 67
     7
 79
     5
170
     0
171
     0
290
     0
174
     0
 93
        1
 44
0.0
173
     0
291
     1
 45
0.0
1001
ACAD
1000
AcDbSavedByObjectVersion
1070
     0
  0
VISUALSTYLE
  5
F8
102
{ACAD_XDICTIONARY
360
1ED5
102
}
102
{ACAD_REACTORS
330
EF
102
}
330
EF
100
AcDbVisualStyle
  2

 70
     9
 71
     3
 72
     2
 73
     1
 90
        0
 40
-0.6
 41
-30.0
 62
     5
 63
     7
 74
     2
 91
        2
 64
     7
 65
   257
 75
     1
175
     1
 42
40.0
 92
        8
 66
     7
 43
1.0
 76
     1
 77
     6
 78
     2
 67
     7
 79
     3
170
     0
171
     0
290
     0
174
     0
 93
        1
 44
0.0
173
     0
291
     0
 45
0.0
1001
ACAD
1000
AcDbSavedByObjectVersion
1070
     0
  0
VISUALSTYLE
  5
FA
102
{ACAD_XDICTIONARY
360
1ED9
102
}
102
{ACAD_REACTORS
330
EF
102
}
330
EF
100
AcDbVisualStyle
  2

 70
    11
 71
     2
 72
     2
 73
     1
 90
        0
 40
-0.6
 41
-30.0
 62
     5
 63
     7
 74
     1
 91
        4
 64
     7
 65
   257
 75
     1
175
     1
 42
1.0
 92
        8
 66
     7
 43
1.0
 76
     1
 77
     6
 78
     2
 67
     7
 79
     5
170
     0
171
     0
290
     0
174
     0
 93
        1
 44
-50.0
173
     0
291
     1
 45
0.0
1001
ACAD
1000
AcDbSavedByObjectVersion
1070
     0
  0
VISUALSTYLE
  5
1E2F
102
{ACAD_XDICTIONARY
360
1EF7
102
}
102
{ACAD_REACTORS
330
EF
102
}
330
EF
100
AcDbVisualStyle
  2

 70
    22
 71
     2
 72
     2
 73
     0
 90
        0
 40
-0.6
 41
-30.0
 62
     5
 63
     7
 74
     1
 91
        4
 64
     7
 65
   257
 75
     1
175
     1
 42
1.0
 92
        8
 66
     7
 43
1.0
 76
     1
 77
     6
 78
     2
 67
     7
 79
     5
170
     0
171
     0
290
     0
174
     0
 93
        1
 44
0.0
173
     0
291
     1
 45
0.0
1001
ACAD
1000
AcDbSavedByObjectVersion
1070
     0
  0
VISUALSTYLE
  5
FE
102
{ACAD_XDICTIONARY
360
1EE1
102
}
102
{ACAD_REACTORS
330
EF
102
}
330
EF
100
AcDbVisualStyle
  2

 70
    15
 71
     2
 72
     2
 73
     1
 90
        0
 40
-0.6
 41
-30.0
 62
     5
 63
     7
 74
     1
 91
        4
 64
     7
 65
   257
 75
     1
175
     1
 42
1.0
 92
        8
 66
     7
 43
1.0
 76
     1
 77
     6
 78
     2
 67
     7
 79
     5
170
     0
171
     0
290
     0
174
     0
 93
        1
 44
0.0
173
     0
291
     1
 45
0.0
1001
ACAD
1000
AcDbSavedByObjectVersion
1070
     0
  0
VISUALSTYLE
  5
F0
102
{ACAD_XDICTIONARY
360
1EC5
102
}
102
{ACAD_REACTORS
330
EF
102
}
330
EF
100
AcDbVisualStyle
  2

 70
     0
 71
     2
 72
     1
 73
     1
 90
        2
 40
-0.6
 41
30.0
 62
     5
 63
     7
 74
     0
 91
        4
 64
     7
 65
   257
 75
     1
175
     1
 42
1.0
 92
        8
 66
     7
 43
1.0
 76
     1
 77
     6
 78
     2
 67
     7
 79
     5
170
     0
171
     0
290
     0
174
     0
 93
       13
 44
0.0
173
     0
291
     1
 45
0.0
1001
ACAD
1000
AcDbSavedByObjectVersion
1070
     0
  0
VISUALSTYLE
  5
F1
102
{ACAD_XDICTIONARY
360
1EC7
102
}
102
{ACAD_REACTORS
330
EF
102
}
330
EF
100
AcDbVisualStyle
  2

 70
     1
 71
     2
 72
     1
 73
     1
 90
        2
 40
-0.6
 41
30.0
 62
     5
 63
     7
 74
     1
 91
        4
 64
     7
 65
   257
 75
     1
175
     1
 42
1.0
 92
        0
 66
   257
 43
1.0
 76
     1
 77
     6
 78
     2
 67
     7
 79
     5
170
     0
171
     0
290
     0
174
     0
 93
       13
 44
0.0
173
     0
291
     1
 45
0.0
1001
ACAD
1000
AcDbSavedByObjectVersion
1070
     0
  0
VISUALSTYLE
  5
F2
102
{ACAD_XDICTIONARY
360
1EC9
102
}
102
{ACAD_REACTORS
330
EF
102
}
330
EF
100
AcDbVisualStyle
  2

 70
     2
 71
     2
 72
     2
 73
     1
 90
        2
 40
-0.6
 41
30.0
 62
     5
 63
     7
 74
     0
 91
        4
 64
     7
 65
   257
 75
     1
175
     1
 42
1.0
 92
        0
 66
     7
 43
1.0
 76
     1
 77
     6
 78
     2
 67
     7
 79
     5
170
     0
171
     0
290
     0
174
     0
 93
       13
 44
0.0
173
     0
291
     1
 45
0.0
1001
ACAD
1000
AcDbSavedByObjectVersion
1070
     0
  0
VISUALSTYLE
  5
F3
102
{ACAD_XDICTIONARY
360
1ECB
102
}
102
{ACAD_REACTORS
330
EF
102
}
330
EF
100
AcDbVisualStyle
  2

 70
     3
 71
     2
 72
     2
 73
     1
 90
        2
 40
-0.6
 41
30.0
 62
     5
 63
     7
 74
     1
 91
        4
 64
     7
 65
   257
 75
     1
175
     1
 42
1.0
 92
        0
 66
   257
 43
1.0
 76
     1
 77
     6
 78
     2
 67
     7
 79
     5
170
     0
171
     0
290
     0
174
     0
 93
       13
 44
0.0
173
     0
291
     1
 45
0.0
1001
ACAD
1000
AcDbSavedByObjectVersion
1070
     0
  0
VISUALSTYLE
  5
1E27
102
{ACAD_XDICTIONARY
360
1EE7
102
}
102
{ACAD_REACTORS
330
EF
102
}
330
EF
100
AcDbVisualStyle
  2

 70
     6
 71
     1
 72
     2
 73
     2
 90
        0
 40
-0.6
 41
-30.0
 62
     5
 63
     7
 74
     2
 91
        2
 64
     7
 65
   257
 75
     2
175
     1
 42
40.0
 92
        0
 66
   257
 43
1.0
 76
     1
 77
     6
 78
     2
 67
     7
 79
     3
170
     0
171
     0
290
     0
174
     0
 93
        1
 44
0.0
173
     0
291
     0
 45
0.0
1001
ACAD
1000
AcDbSavedByObjectVersion
1070
     0
  0
VISUALSTYLE
  5
1E2D
102
{ACAD_XDICTIONARY
360
1EF3
102
}
102
{ACAD_REACTORS
330
EF
102
}
330
EF
100
AcDbVisualStyle
  2

 70
    20
 71
     2
 72
     2
 73
     0
 90
        0
 40
-0.6
 41
-30.0
 62
     5
 63
     7
 74
     1
 91
        4
 64
     7
 65
   257
 75
     1
175
     1
 42
1.0
 92
       10
 66
     7
 43
1.0
 76
     1
 77
     6
 78
     2
 67
     7
 79
     5
170
     0
171
     0
290
     0
174
     0
 93
        1
 44
0.0
173
     0
291
     1
 45
0.0
1001
ACAD
1000
AcDbSavedByObjectVersion
1070
     0
  0
VISUALSTYLE
  5
FD
102
{ACAD_XDICTIONARY
360
1EDF
102
}
102
{ACAD_REACTORS
330
EF
102
}
330
EF
100
AcDbVisualStyle
  2

 70
    14
 71
     2
 72
     2
 73
     1
 90
        0
 40
-0.6
 41
-30.0
 62
     5
 63
     7
 74
     1
 91
        4
 64
     7
 65
   257
 75
     7
175
     7
 42
1.0
 92
        8
 66
     7
 43
1.0
 76
     1
 77
     6
 78
     2
 67
     7
 79
     5
170
     0
171
     0
290
     0
174
     0
 93
        1
 44
0.0
173
     0
291
     1
 45
0.0
1001
ACAD
1000
AcDbSavedByObjectVersion
1070
     0
  0
VISUALSTYLE
  5
1E2E
102
{ACAD_XDICTIONARY
360
1EF5
102
}
102
{ACAD_REACTORS
330
EF
102
}
330
EF
100
AcDbVisualStyle
  2

 70
    21
 71
     2
 72
     2
 73
     0
 90
        0
 40
-0.6
 41
-30.0
 62
     5
 63
     7
 74
     1
 91
        4
 64
     7
 65
   257
 75
     1
175
     1
 42
1.0
 92
        9
 66
     7
 43
1.0
 76
     1
 77
     6
 78
     2
 67
     7
 79
     5
170
     0
171
     0
290
     0
174
     0
 93
        1
 44
0.0
173
     0
291
     1
 45
0.0
1001
ACAD
1000
AcDbSavedByObjectVersion
1070
     0
  0
VISUALSTYLE
  5
F9
102
{ACAD_XDICTIONARY
360
1ED7
102
}
102
{ACAD_REACTORS
330
EF
102
}
330
EF
100
AcDbVisualStyle
  2

 70
     8
 71
     2
 72
     2
 73
     1
 90
        0
 40
-0.6
 41
-30.0
 62
     5
 63
     7
 74
     1
 91
        0
 64
     7
 65
   257
 75
     1
175
     1
 42
1.0
 92
        8
 66
     8
 43
1.0
 76
     1
 77
     6
 78
     2
 67
     7
 79
     5
170
     0
171
     0
290
     0
174
     0
 93
       13
 44
0.0
173
     0
291
     0
 45
0.0
1001
ACAD
1000
AcDbSavedByObjectVersion
1070
     0
  0
VISUALSTYLE
  5
1E2C
102
{ACAD_XDICTIONARY
360
1EF1
102
}
102
{ACAD_REACTORS
330
EF
102
}
330
EF
100
AcDbVisualStyle
  2

 70
    27
 71
     2
 72
     2
 73
     1
 90
        2
 40
-0.6
 41
30.0
 62
     5
 63
     7
 74
     0
 91
        4
 64
     7
 65
   257
 75
     1
175
     1
 42
1.0
 92
        8
 66
   257
 43
1.0
 76
     1
 77
     6
 78
     2
 67
     8
 79
     3
170
     0
171
     0
290
     0
174
     0
 93
        5
 44
0.0
173
     0
291
     0
 45
0.0
1001
ACAD
1000
AcDbSavedByObjectVersion
1070
     0
  0
VISUALSTYLE
  5
1E2B
102
{ACAD_XDICTIONARY
360
1EEF
102
}
102
{ACAD_REACTORS
330
EF
102
}
330
EF
100
AcDbVisualStyle
  2

 70
    26
 71
     2
 72
     2
 73
     1
 90
        2
 40
-0.6
 41
30.0
 62
     5
 63
     7
 74
     1
 91
       10
 64
     7
 65
   257
 75
     2
175
     1
 42
1.0
 92
        8
 66
   257
 43
1.0
 76
     1
 77
     6
 78
     2
 67
     7
 79
     3
170
     0
171
     0
290
     0
174
     0
 93
        5
 44
0.0
173
     0
291
     0
 45
0.0
1001
ACAD
1000
AcDbSavedByObjectVersion
1070
     0
  0
VISUALSTYLE
  5
1E28
102
{ACAD_XDICTIONARY
360
1EE9
102
}
102
{ACAD_REACTORS
330
EF
102
}
330
EF
100
AcDbVisualStyle
  2

 70
    23
 71
     2
 72
     2
 73
     3
 90
        0
 40
-0.6
 41
-30.0
 62
     5
 63
     7
 74
     2
 91
        2
 64
     7
 65
     7
 75
     1
175
     1
 42
40.0
 92
        8
 66
     7
 43
1.0
 76
     1
 77
     6
 78
     2
 67
     7
 79
     3
170
     0
171
     0
290
     0
174
     0
 93
        1
 44
0.0
173
     0
291
     0
 45
0.0
1001
ACAD
1000
AcDbSavedByObjectVersion
1070
     0
  0
VISUALSTYLE
  5
1E29
102
{ACAD_XDICTIONARY
360
1EEB
102
}
102
{ACAD_REACTORS
330
EF
102
}
330
EF
100
AcDbVisualStyle
  2

 70
    24
 71
     1
 72
     2
 73
     2
 90
        0
 40
-0.6
 41
-30.0
 62
     5
 63
     7
 74
     2
 91
        2
 64
     7
 65
     7
 75
     1
175
     1
 42
40.0
 92
       11
 66
     7
 43
1.0
 76
     1
 77
     6
 78
     2
 67
     7
 79
     6
170
     0
171
     0
290
     0
174
     0
 93
        1
 44
0.0
173
     0
291
     0
 45
0.0
1001
ACAD
1000
AcDbSavedByObjectVersion
1070
     0
  0
VISUALSTYLE
  5
FC
102
{ACAD_XDICTIONARY
360
1EDD
102
}
102
{ACAD_REACTORS
330
EF
102
}
330
EF
100
AcDbVisualStyle
  2

 70
    13
 71
     2
 72
     2
 73
     1
 90
        0
 40
-0.6
 41
-30.0
 62
     5
 63
     7
 74
     1
 91
        4
 64
     7
 65
   257
 75
     1
175
     1
 42
1.0
 92
       12
 66
     7
 43
1.0
 76
     1
 77
     6
 78
     2
 67
     7
 79
     5
170
     0
171
     0
290
     0
174
     0
 93
        1
 44
0.0
173
     0
291
     1
 45
0.0
1001
ACAD
1000
AcDbSavedByObjectVersion
1070
     0
  0
VISUALSTYLE
  5
1E26
102
{ACAD_XDICTIONARY
360
1EE5
102
}
102
{ACAD_REACTORS
330
EF
102
}
330
EF
100
AcDbVisualStyle
  2

 70
     5
 71
     0
 72
     2
 73
     0
 90
        0
 40
-0.6
 41
-30.0
 62
     5
 63
     7
 74
     1
 91
        4
 64
     7
 65
   257
 75
     1
175
     1
 42
1.0
 92
        0
 66
   257
 43
1.0
 76
     1
 77
     6
 78
     2
 67
     7
 79
     3
170
     0
171
     0
290
     0
174
     0
 93
        1
 44
0.0
173
     0
291
     0
 45
0.0
1001
ACAD
1000
AcDbSavedByObjectVersion
1070
     0
  0
VISUALSTYLE
  5
1E2A
102
{ACAD_XDICTIONARY
360
1EED
102
}
102
{ACAD_REACTORS
330
EF
102
}
330
EF
100
AcDbVisualStyle
  2

 70
    25
 71
     2
 72
     2
 73
     1
 90
        1
 40
0.5
 41
-30.0
 62
     5
 63
     7
 74
     1
 91
        0
 64
     7
 65
   257
 75
     1
175
     1
 42
1.0
 92
        8
 66
     7
 43
1.0
 76
     1
 77
     6
 78
     2
 67
     7
 79
     3
170
     0
171
     0
290
     0
174
     0
 93
       13
 44
0.0
173
     0
291
     0
 45
0.0
1001
ACAD
1000
AcDbSavedByObjectVersion
1070
     0
  0
DICTIONARYVAR
  5
1E55
102
{ACAD_REACTORS
330
5E
102
}
330
5E
100
DictionaryVariables
280
     0
  1
1:1
  0
DICTIONARYVAR
  5
1E52
102
{ACAD_REACTORS
330
5E
102
}
330
5E
100
DictionaryVariables
280
     0
  1
STANDARD
  0
DICTIONARYVAR
  5
84
102
{ACAD_REACTORS
330
5E
102
}
330
5E
100
DictionaryVariables
280
     0
  1
STANDARD
  0
DICTIONARYVAR
  5
1E53
102
{ACAD_REACTORS
330
5E
102
}
330
5E
100
DictionaryVariables
280
     0
  1
Metric50
  0
DICTIONARYVAR
  5
1E54
102
{ACAD_REACTORS
330
5E
102
}
330
5E
100
DictionaryVariables
280
     0
  1
Metric50
  0
DICTIONARYVAR
  5
5F
102
{ACAD_REACTORS
330
5E
102
}
330
5E
100
DictionaryVariables
280
     0
  1
2
  0
DICTIONARYVAR
  5
63
102
{ACAD_REACTORS
330
5E
102
}
330
5E
100
DictionaryVariables
280
     0
  1
1
  0
DICTIONARYVAR
  5
327
102
{ACAD_REACTORS
330
5E
102
}
330
5E
100
DictionaryVariables
280
     0
  1
0
  0
DICTIONARYVAR
  5
1EA1
102
{ACAD_REACTORS
330
5E
102
}
330
5E
100
DictionaryVariables
280
     0
  1
1
  0
DICTIONARYVAR
  5
1EA2
102
{ACAD_REACTORS
330
5E
102
}
330
5E
100
DictionaryVariables
280
     0
  1
15
  0
DICTIONARYVAR
  5
1EA0
102
{ACAD_REACTORS
330
5E
102
}
330
5E
100
DictionaryVariables
280
     0
  1
0
  0
DICTIONARYVAR
  5
1E9F
102
{ACAD_REACTORS
330
5E
102
}
330
5E
100
DictionaryVariables
280
     0
  1
0
  0
DICTIONARYVAR
  5
1EC0
102
{ACAD_REACTORS
330
5E
102
}
330
5E
100
DictionaryVariables
280
     0
  1
80.000000
  0
DICTIONARYVAR
  5
1EBF
102
{ACAD_REACTORS
330
5E
102
}
330
5E
100
DictionaryVariables
280
     0
  1
5.000000
  0
DICTIONARYVAR
  5
326
102
{ACAD_REACTORS
330
5E
102
}
330
5E
100
DictionaryVariables
280
     0
  1
127
  0
DICTIONARYVAR
  5
1EC1
102
{ACAD_REACTORS
330
5E
102
}
330
5E
100
DictionaryVariables
280
     0
  1
2
  0
DICTIONARY
  5
335
330
ED
100
AcDbDictionary
280
     1
281
     1
  3
ACAD_XREC_ROUNDTRIP
360
336
  0
DICTIONARY
  5
333
330
EC
100
AcDbDictionary
280
     1
281
     1
  3
ACAD_XREC_ROUNDTRIP
360
334
  0
DICTIONARY
  5
337
330
EE
100
AcDbDictionary
280
     1
281
     1
  3
ACAD_XREC_ROUNDTRIP
360
338
  0
DICTIONARY
  5
1E5A
330
7F
100
AcDbDictionary
280
     1
281
     1
  3
ACAD_ROUNDTRIP_2008_TABLESTYLE_CELLSTYLEMAP
360
1EC2
  3
ACAD_XREC_ROUNDTRIP
360
1EC4
  0
DICTIONARY
  5
1ECF
330
F5
100
AcDbDictionary
280
     1
281
     1
  3
ACAD_XREC_ROUNDTRIP
360
1ED0
  0
DICTIONARY
  5
1ED3
330
F7
100
AcDbDictionary
280
     1
281
     1
  3
ACAD_XREC_ROUNDTRIP
360
1ED4
  0
DICTIONARY
  5
1ED1
330
F6
100
AcDbDictionary
280
     1
281
     1
  3
ACAD_XREC_ROUNDTRIP
360
1ED2
  0
DICTIONARY
  5
1ECD
330
F4
100
AcDbDictionary
280
     1
281
     1
  3
ACAD_XREC_ROUNDTRIP
360
1ECE
  0
DICTIONARY
  5
1EDB
330
FB
100
AcDbDictionary
280
     1
281
     1
  3
ACAD_XREC_ROUNDTRIP
360
1EDC
  0
DICTIONARY
  5
1EE3
330
FF
100
AcDbDictionary
280
     1
281
     1
  3
ACAD_XREC_ROUNDTRIP
360
1EE4
  0
DICTIONARY
  5
1ED5
330
F8
100
AcDbDictionary
280
     1
281
     1
  3
ACAD_XREC_ROUNDTRIP
360
1ED6
  0
DICTIONARY
  5
1ED9
330
FA
100
AcDbDictionary
280
     1
281
     1
  3
ACAD_XREC_ROUNDTRIP
360
1EDA
  0
DICTIONARY
  5
1EF7
330
1E2F
100
AcDbDictionary
280
     1
281
     1
  3
ACAD_XREC_ROUNDTRIP
360
1EF8
  0
DICTIONARY
  5
1EE1
330
FE
100
AcDbDictionary
280
     1
281
     1
  3
ACAD_XREC_ROUNDTRIP
360
1EE2
  0
DICTIONARY
  5
1EC5
330
F0
100
AcDbDictionary
280
     1
281
     1
  3
ACAD_XREC_ROUNDTRIP
360
1EC6
  0
DICTIONARY
  5
1EC7
330
F1
100
AcDbDictionary
280
     1
281
     1
  3
ACAD_XREC_ROUNDTRIP
360
1EC8
  0
DICTIONARY
  5
1EC9
330
F2
100
AcDbDictionary
280
     1
281
     1
  3
ACAD_XREC_ROUNDTRIP
360
1ECA
  0
DICTIONARY
  5
1ECB
330
F3
100
AcDbDictionary
280
     1
281
     1
  3
ACAD_XREC_ROUNDTRIP
360
1ECC
  0
DICTIONARY
  5
1EE7
330
1E27
100
AcDbDictionary
280
     1
281
     1
  3
ACAD_XREC_ROUNDTRIP
360
1EE8
  0
DICTIONARY
  5
1EF3
330
1E2D
100
AcDbDictionary
280
     1
281
     1
  3
ACAD_XREC_ROUNDTRIP
360
1EF4
  0
DICTIONARY
  5
1EDF
330
FD
100
AcDbDictionary
280
     1
281
     1
  3
ACAD_XREC_ROUNDTRIP
360
1EE0
  0
DICTIONARY
  5
1EF5
330
1E2E
100
AcDbDictionary
280
     1
281
     1
  3
ACAD_XREC_ROUNDTRIP
360
1EF6
  0
DICTIONARY
  5
1ED7
330
F9
100
AcDbDictionary
280
     1
281
     1
  3
ACAD_XREC_ROUNDTRIP
360
1ED8
  0
DICTIONARY
  5
1EF1
330
1E2C
100
AcDbDictionary
280
     1
281
     1
  3
ACAD_XREC_ROUNDTRIP
360
1EF2
  0
DICTIONARY
  5
1EEF
330
1E2B
100
AcDbDictionary
280
     1
281
     1
  3
ACAD_XREC_ROUNDTRIP
360
1EF0
  0
DICTIONARY
  5
1EE9
330
1E28
100
AcDbDictionary
280
     1
281
     1
  3
ACAD_XREC_ROUNDTRIP
360
1EEA
  0
DICTIONARY
  5
1EEB
330
1E29
100
AcDbDictionary
280
     1
281
     1
  3
ACAD_XREC_ROUNDTRIP
360
1EEC
  0
DICTIONARY
  5
1EDD
330
FC
100
AcDbDictionary
280
     1
281
     1
  3
ACAD_XREC_ROUNDTRIP
360
1EDE
  0
DICTIONARY
  5
1EE5
330
1E26
100
AcDbDictionary
280
     1
281
     1
  3
ACAD_XREC_ROUNDTRIP
360
1EE6
  0
DICTIONARY
  5
1EED
330
1E2A
100
AcDbDictionary
280
     1
281
     1
  3
ACAD_XREC_ROUNDTRIP
360
1EEE
  0
XRECORD
  5
336
102
{ACAD_REACTORS
330
335
102
}
330
335
100
AcDbXrecord
280
     1
102
MATERIAL
148
0.0
149
0.0
149
0.0
 93
        0
 94
      127
282
     0
 72
     1
 77
     1
171
     1
175
     1
179
     1
273
     0
  0
XRECORD
  5
334
102
{ACAD_REACTORS
330
333
102
}
330
333
100
AcDbXrecord
280
     1
102
MATERIAL
148
0.0
149
0.0
149
0.0
 93
        0
 94
      127
282
     0
 72
     1
 77
     1
171
     1
175
     1
179
     1
273
     0
  0
XRECORD
  5
338
102
{ACAD_REACTORS
330
337
102
}
330
337
100
AcDbXrecord
280
     1
102
MATERIAL
148
0.0
149
0.0
149
0.0
 93
        0
 94
      127
282
     0
 72
     1
 77
     1
171
     1
175
     1
179
     1
273
     0
  0
CELLSTYLEMAP
  5
1EC2
102
{ACAD_REACTORS
330
1E5A
102
}
330
1E5A
100
AcDbCellStyleMap
 90
        3
300
CELLSTYLE
  1
TABLEFORMAT_BEGIN
 90
        5
170
     1
 91
        0
 92
    32768
 62
   257
 93
        1
300
CONTENTFORMAT
  1
CONTENTFORMAT_BEGIN
 90
        0
 91
        0
 92
      512
 93
        0
300

 40
0.0
140
1.0
 94
        5
 62
     0
340
11
144
6.0
309
CONTENTFORMAT_END
171
     1
301
MARGIN
  1
CELLMARGIN_BEGIN
 40
1.5
 40
1.5
 40
1.5
 40
1.5
 40
0.18
 40
0.18
309
CELLMARGIN_END
 94
        6
 95
        1
302
GRIDFORMAT
  1
GRIDFORMAT_BEGIN
 90
        0
 91
        1
 62
     0
 92
       -2
340
0
 93
        0
 40
0.045
309
GRIDFORMAT_END
 95
        2
302
GRIDFORMAT
  1
GRIDFORMAT_BEGIN
 90
        0
 91
        1
 62
     0
 92
       -2
340
0
 93
        0
 40
0.045
309
GRIDFORMAT_END
 95
        4
302
GRIDFORMAT
  1
GRIDFORMAT_BEGIN
 90
        0
 91
        1
 62
     0
 92
       -2
340
0
 93
        0
 40
0.045
309
GRIDFORMAT_END
 95
        8
302
GRIDFORMAT
  1
GRIDFORMAT_BEGIN
 90
        0
 91
        1
 62
     0
 92
       -2
340
0
 93
        0
 40
0.045
309
GRIDFORMAT_END
 95
       16
302
GRIDFORMAT
  1
GRIDFORMAT_BEGIN
 90
        0
 91
        1
 62
     0
 92
       -2
340
0
 93
        0
 40
0.045
309
GRIDFORMAT_END
 95
       32
302
GRIDFORMAT
  1
GRIDFORMAT_BEGIN
 90
        0
 91
        1
 62
     0
 92
       -2
340
0
 93
        0
 40
0.045
309
GRIDFORMAT_END
309
TABLEFORMAT_END
  1
CELLSTYLE_BEGIN
 90
        1
 91
        1
300
_TITLE
309
CELLSTYLE_END
300
CELLSTYLE
  1
TABLEFORMAT_BEGIN
 90
        5
170
     1
 91
        0
 92
        0
 62
   257
 93
        1
300
CONTENTFORMAT
  1
CONTENTFORMAT_BEGIN
 90
        0
 91
        0
 92
      512
 93
        0
300

 40
0.0
140
1.0
 94
        5
 62
     0
340
11
144
4.5
309
CONTENTFORMAT_END
171
     1
301
MARGIN
  1
CELLMARGIN_BEGIN
 40
1.5
 40
1.5
 40
1.5
 40
1.5
 40
0.18
 40
0.18
309
CELLMARGIN_END
 94
        6
 95
        1
302
GRIDFORMAT
  1
GRIDFORMAT_BEGIN
 90
        0
 91
        1
 62
     0
 92
       -2
340
0
 93
        0
 40
0.045
309
GRIDFORMAT_END
 95
        2
302
GRIDFORMAT
  1
GRIDFORMAT_BEGIN
 90
        0
 91
        1
 62
     0
 92
       -2
340
0
 93
        0
 40
0.045
309
GRIDFORMAT_END
 95
        4
302
GRIDFORMAT
  1
GRIDFORMAT_BEGIN
 90
        0
 91
        1
 62
     0
 92
       -2
340
0
 93
        0
 40
0.045
309
GRIDFORMAT_END
 95
        8
302
GRIDFORMAT
  1
GRIDFORMAT_BEGIN
 90
        0
 91
        1
 62
     0
 92
       -2
340
0
 93
        0
 40
0.045
309
GRIDFORMAT_END
 95
       16
302
GRIDFORMAT
  1
GRIDFORMAT_BEGIN
 90
        0
 91
        1
 62
     0
 92
       -2
340
0
 93
        0
 40
0.045
309
GRIDFORMAT_END
 95
       32
302
GRIDFORMAT
  1
GRIDFORMAT_BEGIN
 90
        0
 91
        1
 62
     0
 92
       -2
340
0
 93
        0
 40
0.045
309
GRIDFORMAT_END
309
TABLEFORMAT_END
  1
CELLSTYLE_BEGIN
 90
        2
 91
        1
300
_HEADER
309
CELLSTYLE_END
300
CELLSTYLE
  1
TABLEFORMAT_BEGIN
 90
        5
170
     1
 91
        0
 92
        0
 62
   257
 93
        1
300
CONTENTFORMAT
  1
CONTENTFORMAT_BEGIN
 90
        0
 91
        0
 92
      512
 93
        0
300

 40
0.0
140
1.0
 94
        2
 62
     0
340
11
144
4.5
309
CONTENTFORMAT_END
171
     1
301
MARGIN
  1
CELLMARGIN_BEGIN
 40
1.5
 40
1.5
 40
1.5
 40
1.5
 40
0.18
 40
0.18
309
CELLMARGIN_END
 94
        6
 95
        1
302
GRIDFORMAT
  1
GRIDFORMAT_BEGIN
 90
        0
 91
        1
 62
     0
 92
       -2
340
0
 93
        0
 40
0.045
309
GRIDFORMAT_END
 95
        2
302
GRIDFORMAT
  1
GRIDFORMAT_BEGIN
 90
        0
 91
        1
 62
     0
 92
       -2
340
0
 93
        0
 40
0.045
309
GRIDFORMAT_END
 95
        4
302
GRIDFORMAT
  1
GRIDFORMAT_BEGIN
 90
        0
 91
        1
 62
     0
 92
       -2
340
0
 93
        0
 40
0.045
309
GRIDFORMAT_END
 95
        8
302
GRIDFORMAT
  1
GRIDFORMAT_BEGIN
 90
        0
 91
        1
 62
     0
 92
       -2
340
0
 93
        0
 40
0.045
309
GRIDFORMAT_END
 95
       16
302
GRIDFORMAT
  1
GRIDFORMAT_BEGIN
 90
        0
 91
        1
 62
     0
 92
       -2
340
0
 93
        0
 40
0.045
309
GRIDFORMAT_END
 95
       32
302
GRIDFORMAT
  1
GRIDFORMAT_BEGIN
 90
        0
 91
        1
 62
     0
 92
       -2
340
0
 93
        0
 40
0.045
309
GRIDFORMAT_END
309
TABLEFORMAT_END
  1
CELLSTYLE_BEGIN
 90
        3
 91
        2
300
_DATA
309
CELLSTYLE_END
  0
XRECORD
  5
1EC4
102
{ACAD_REACTORS
330
1E5A
102
}
330
1E5A
100
AcDbXrecord
280
     1
102
ACAD_ROUNDTRIP_PRE2007_TABLESTYLE
 90
      512
 91
        0
  1

 92
      512
 93
        0
  2

 94
      512
 95
        0
  3

  0
XRECORD
  5
1ED0
102
{ACAD_REACTORS
330
1ECF
102
}
330
1ECF
100
AcDbXrecord
280
     1
102
RTVSPost2010Prop28
280
     1
102
RTVSPost2010PropOp28
 70
     1
102
RTVSPost2010Prop29
280
     1
102
RTVSPost2010PropOp29
 70
     1
102
RTVSPost2010Prop30
280
     0
102
RTVSPost2010PropOp30
 70
     1
102
RTVSPost2010Prop31
280
     0
102
RTVSPost2010PropOp31
 70
     1
102
RTVSPost2010Prop32
280
     0
102
RTVSPost2010PropOp32
 70
     1
102
RTVSPost2010Prop33
280
     0
102
RTVSPost2010PropOp33
 70
     1
102
RTVSPost2010Prop34
280
     0
102
RTVSPost2010PropOp34
 70
     1
102
RTVSPost2010Prop35
280
     0
102
RTVSPost2010PropOp35
 70
     1
102
RTVSPost2010Prop36
280
     0
102
RTVSPost2010PropOp36
 70
     1
102
RTVSPost2010Prop37
 90
       50
102
RTVSPost2010PropOp37
 70
     1
102
RTVSPost2010Prop38
140
0.0
102
RTVSPost2010PropOp38
 70
     1
102
RTVSPost2010Prop39
140
1.0
102
RTVSPost2010PropOp39
 70
     1
102
RTVSPost2010Prop40
 90
        0
102
RTVSPost2010PropOp40
 70
     1
102
RTVSPost2010Prop41ColorIndex
 90
       18
102
RTVSPost2010Prop41ColorRGB
 90
        0
102
RTVSPost2010PropOp41
 70
     1
102
RTVSPost2010Prop42
 90
       50
102
RTVSPost2010PropOp42
 70
     1
102
RTVSPost2010Prop43
 90
        3
102
RTVSPost2010PropOp43
 70
     1
102
RTVSPost2010Prop44ColorIndex
 90
        5
102
RTVSPost2010Prop44ColorRGB
 90
      255
102
RTVSPost2010PropOp44
 70
     1
102
RTVSPost2010Prop45
280
     0
102
RTVSPost2010PropOp45
 70
     1
102
RTVSPost2010Prop46
 90
       50
102
RTVSPost2010PropOp46
 70
     1
102
RTVSPost2010Prop47
 90
       50
102
RTVSPost2010PropOp47
 70
     1
102
RTVSPost2010Prop48
 90
       50
102
RTVSPost2010PropOp48
 70
     1
102
RTVSPost2010Prop49
280
     0
102
RTVSPost2010PropOp49
 70
     1
102
RTVSPost2010Prop50
 90
       50
102
RTVSPost2010PropOp50
 70
     1
102
RTVSPost2010Prop51ColorIndex
 90
      256
102
RTVSPost2010Prop51ColorRGB
 90
-16777216
102
RTVSPost2010PropOp51
 70
     0
102
RTVSPost2010Prop52
140
1.0
102
RTVSPost2010PropOp52
 70
     0
102
RTVSPost2010Prop53
 90
        2
102
RTVSPost2010PropOp53
 70
     1
102
RTVSPost2010Prop54
  1
strokes_ogs.tif
102
RTVSPost2010PropOp54
 70
     1
102
RTVSPost2010Prop55
280
     0
102
RTVSPost2010PropOp55
 70
     1
102
RTVSPost2010Prop56
140
1.0
102
RTVSPost2010PropOp56
 70
     1
102
RTVSPost2010Prop57
140
1.0
102
RTVSPost2010PropOp57
 70
     1
102
RTVSPropertyOp0
 70
     1
102
RTVSPropertyOp1
 70
     1
102
RTVSPropertyOp2
 70
     1
102
RTVSPropertyOp3
 70
     1
102
RTVSPropertyOp4
 70
     1
102
RTVSPropertyOp5
 70
     1
102
RTVSPropertyOp6
 70
     1
102
RTVSPropertyOp7
 70
     1
102
RTVSPropertyOp8
 70
     1
102
RTVSPropertyOp9
 70
     1
102
RTVSPropertyOp10
 70
     1
102
RTVSPropertyOp11
 70
     1
102
RTVSPropertyOp12
 70
     1
102
RTVSPropertyOp13
 70
     1
102
RTVSPropertyOp14
 70
     1
102
RTVSPropertyOp15
 70
     1
102
RTVSPropertyOp16
 70
     1
102
RTVSPropertyOp17
 70
     1
102
RTVSPropertyOp18
 70
     1
102
RTVSPropertyOp19
 70
     1
102
RTVSPropertyOp20
 70
     1
102
RTVSPropertyOp21
 70
     1
102
RTVSPropertyOp22
 70
     1
102
RTVSPropertyOp23
 70
     1
102
RTVSPropertyOp24
 70
     1
102
RTVSPropertyOp25
 70
     1
102
RTVSPropertyOp26
 70
     1
102
RTVSPropertyOp27
 70
     1
102
RTVSPropertyOp28
 70
     1
102
RTVSPropertyOp29
 70
     1
102
RTVSPropertyOp30
 70
     1
102
RTVSPropertyOp31
 70
     1
102
RTVSPropertyOp32
 70
     1
102
RTVSPropertyOp33
 70
     1
102
RTVSPropertyOp34
 70
     1
102
RTVSPropertyOp35
 70
     1
102
RTVSPropertyOp36
 70
     1
102
RTVSPropertyOp37
 70
     1
102
RTVSPropertyOp38
 70
     1
102
RTVSPropertyOp39
 70
     1
102
RTVSPropertyOp40
 70
     1
102
RTVSPropertyOp41
 70
     1
102
RTVSPropertyOp42
 70
     1
102
RTVSPropertyOp43
 70
     1
102
RTVSPropertyOp44
 70
     1
102
RTVSPropertyOp45
 70
     1
102
RTVSPropertyOp46
 70
     1
102
RTVSPropertyOp47
 70
     1
102
RTVSPropertyOp48
 70
     1
102
RTVSPropertyOp49
 70
     1
102
RTVSPropertyOp50
 70
     1
102
RTVSPropertyOp51
 70
     0
102
RTVSPropertyOp52
 70
     0
102
RTVSPropertyOp53
 70
     1
102
RTVSPropertyOp54
 70
     1
102
RTVSPropertyOp55
 70
     1
102
RTVSPropertyOp56
 70
     1
102
RTVSPropertyOp57
 70
     1
102
RTVSPropertyOp58
 70
     1
102
RTVSPropertyOp59
 70
     1
102
RTVSPropertyOp60
 70
     1
102
RTVSPropertyOp61
 70
     1
102
RTVSPropertyOp62
 70
     1
  0
XRECORD
  5
1ED4
102
{ACAD_REACTORS
330
1ED3
102
}
330
1ED3
100
AcDbXrecord
280
     1
102
RTVSPost2010Prop28
280
     0
102
RTVSPost2010PropOp28
 70
     1
102
RTVSPost2010Prop29
280
     1
102
RTVSPost2010PropOp29
 70
     1
102
RTVSPost2010Prop30
280
     1
102
RTVSPost2010PropOp30
 70
     1
102
RTVSPost2010Prop31
280
     0
102
RTVSPost2010PropOp31
 70
     1
102
RTVSPost2010Prop32
280
     0
102
RTVSPost2010PropOp32
 70
     1
102
RTVSPost2010Prop33
280
     0
102
RTVSPost2010PropOp33
 70
     1
102
RTVSPost2010Prop34
280
     0
102
RTVSPost2010PropOp34
 70
     1
102
RTVSPost2010Prop35
280
     0
102
RTVSPost2010PropOp35
 70
     1
102
RTVSPost2010Prop36
280
     0
102
RTVSPost2010PropOp36
 70
     1
102
RTVSPost2010Prop37
 90
       50
102
RTVSPost2010PropOp37
 70
     1
102
RTVSPost2010Prop38
140
0.0
102
RTVSPost2010PropOp38
 70
     1
102
RTVSPost2010Prop39
140
1.0
102
RTVSPost2010PropOp39
 70
     1
102
RTVSPost2010Prop40
 90
        0
102
RTVSPost2010PropOp40
 70
     1
102
RTVSPost2010Prop41ColorIndex
 90
       18
102
RTVSPost2010Prop41ColorRGB
 90
        0
102
RTVSPost2010PropOp41
 70
     1
102
RTVSPost2010Prop42
 90
       50
102
RTVSPost2010PropOp42
 70
     1
102
RTVSPost2010Prop43
 90
        3
102
RTVSPost2010PropOp43
 70
     1
102
RTVSPost2010Prop44ColorIndex
 90
        5
102
RTVSPost2010Prop44ColorRGB
 90
      255
102
RTVSPost2010PropOp44
 70
     1
102
RTVSPost2010Prop45
280
     0
102
RTVSPost2010PropOp45
 70
     1
102
RTVSPost2010Prop46
 90
       50
102
RTVSPost2010PropOp46
 70
     1
102
RTVSPost2010Prop47
 90
       50
102
RTVSPost2010PropOp47
 70
     1
102
RTVSPost2010Prop48
 90
       50
102
RTVSPost2010PropOp48
 70
     1
102
RTVSPost2010Prop49
280
     0
102
RTVSPost2010PropOp49
 70
     1
102
RTVSPost2010Prop50
 90
       50
102
RTVSPost2010PropOp50
 70
     1
102
RTVSPost2010Prop51ColorIndex
 90
      256
102
RTVSPost2010Prop51ColorRGB
 90
-16777216
102
RTVSPost2010PropOp51
 70
     0
102
RTVSPost2010Prop52
140
1.0
102
RTVSPost2010PropOp52
 70
     0
102
RTVSPost2010Prop53
 90
        2
102
RTVSPost2010PropOp53
 70
     1
102
RTVSPost2010Prop54
  1
strokes_ogs.tif
102
RTVSPost2010PropOp54
 70
     1
102
RTVSPost2010Prop55
280
     0
102
RTVSPost2010PropOp55
 70
     1
102
RTVSPost2010Prop56
140
1.0
102
RTVSPost2010PropOp56
 70
     1
102
RTVSPost2010Prop57
140
1.0
102
RTVSPost2010PropOp57
 70
     1
102
RTVSPropertyOp0
 70
     1
102
RTVSPropertyOp1
 70
     1
102
RTVSPropertyOp2
 70
     1
102
RTVSPropertyOp3
 70
     1
102
RTVSPropertyOp4
 70
     1
102
RTVSPropertyOp5
 70
     1
102
RTVSPropertyOp6
 70
     1
102
RTVSPropertyOp7
 70
     1
102
RTVSPropertyOp8
 70
     1
102
RTVSPropertyOp9
 70
     1
102
RTVSPropertyOp10
 70
     1
102
RTVSPropertyOp11
 70
     1
102
RTVSPropertyOp12
 70
     1
102
RTVSPropertyOp13
 70
     1
102
RTVSPropertyOp14
 70
     1
102
RTVSPropertyOp15
 70
     1
102
RTVSPropertyOp16
 70
     1
102
RTVSPropertyOp17
 70
     1
102
RTVSPropertyOp18
 70
     1
102
RTVSPropertyOp19
 70
     1
102
RTVSPropertyOp20
 70
     1
102
RTVSPropertyOp21
 70
     1
102
RTVSPropertyOp22
 70
     1
102
RTVSPropertyOp23
 70
     1
102
RTVSPropertyOp24
 70
     1
102
RTVSPropertyOp25
 70
     1
102
RTVSPropertyOp26
 70
     1
102
RTVSPropertyOp27
 70
     1
102
RTVSPropertyOp28
 70
     1
102
RTVSPropertyOp29
 70
     1
102
RTVSPropertyOp30
 70
     1
102
RTVSPropertyOp31
 70
     1
102
RTVSPropertyOp32
 70
     1
102
RTVSPropertyOp33
 70
     1
102
RTVSPropertyOp34
 70
     1
102
RTVSPropertyOp35
 70
     1
102
RTVSPropertyOp36
 70
     1
102
RTVSPropertyOp37
 70
     1
102
RTVSPropertyOp38
 70
     1
102
RTVSPropertyOp39
 70
     1
102
RTVSPropertyOp40
 70
     1
102
RTVSPropertyOp41
 70
     1
102
RTVSPropertyOp42
 70
     1
102
RTVSPropertyOp43
 70
     1
102
RTVSPropertyOp44
 70
     1
102
RTVSPropertyOp45
 70
     1
102
RTVSPropertyOp46
 70
     1
102
RTVSPropertyOp47
 70
     1
102
RTVSPropertyOp48
 70
     1
102
RTVSPropertyOp49
 70
     1
102
RTVSPropertyOp50
 70
     1
102
RTVSPropertyOp51
 70
     0
102
RTVSPropertyOp52
 70
     0
102
RTVSPropertyOp53
 70
     1
102
RTVSPropertyOp54
 70
     1
102
RTVSPropertyOp55
 70
     1
102
RTVSPropertyOp56
 70
     1
102
RTVSPropertyOp57
 70
     1
102
RTVSPropertyOp58
 70
     1
102
RTVSPropertyOp59
 70
     1
102
RTVSPropertyOp60
 70
     1
102
RTVSPropertyOp61
 70
     1
102
RTVSPropertyOp62
 70
     1
  0
XRECORD
  5
1ED2
102
{ACAD_REACTORS
330
1ED1
102
}
330
1ED1
100
AcDbXrecord
280
     1
102
RTVSPost2010Prop28
280
     0
102
RTVSPost2010PropOp28
 70
     1
102
RTVSPost2010Prop29
280
     1
102
RTVSPost2010PropOp29
 70
     1
102
RTVSPost2010Prop30
280
     1
102
RTVSPost2010PropOp30
 70
     1
102
RTVSPost2010Prop31
280
     0
102
RTVSPost2010PropOp31
 70
     1
102
RTVSPost2010Prop32
280
     0
102
RTVSPost2010PropOp32
 70
     1
102
RTVSPost2010Prop33
280
     0
102
RTVSPost2010PropOp33
 70
     1
102
RTVSPost2010Prop34
280
     0
102
RTVSPost2010PropOp34
 70
     1
102
RTVSPost2010Prop35
280
     0
102
RTVSPost2010PropOp35
 70
     1
102
RTVSPost2010Prop36
280
     0
102
RTVSPost2010PropOp36
 70
     1
102
RTVSPost2010Prop37
 90
       50
102
RTVSPost2010PropOp37
 70
     1
102
RTVSPost2010Prop38
140
0.0
102
RTVSPost2010PropOp38
 70
     1
102
RTVSPost2010Prop39
140
1.0
102
RTVSPost2010PropOp39
 70
     1
102
RTVSPost2010Prop40
 90
        0
102
RTVSPost2010PropOp40
 70
     1
102
RTVSPost2010Prop41ColorIndex
 90
       18
102
RTVSPost2010Prop41ColorRGB
 90
        0
102
RTVSPost2010PropOp41
 70
     1
102
RTVSPost2010Prop42
 90
       50
102
RTVSPost2010PropOp42
 70
     1
102
RTVSPost2010Prop43
 90
        3
102
RTVSPost2010PropOp43
 70
     1
102
RTVSPost2010Prop44ColorIndex
 90
        5
102
RTVSPost2010Prop44ColorRGB
 90
      255
102
RTVSPost2010PropOp44
 70
     1
102
RTVSPost2010Prop45
280
     0
102
RTVSPost2010PropOp45
 70
     1
102
RTVSPost2010Prop46
 90
       50
102
RTVSPost2010PropOp46
 70
     1
102
RTVSPost2010Prop47
 90
       50
102
RTVSPost2010PropOp47
 70
     1
102
RTVSPost2010Prop48
 90
       50
102
RTVSPost2010PropOp48
 70
     1
102
RTVSPost2010Prop49
280
     0
102
RTVSPost2010PropOp49
 70
     1
102
RTVSPost2010Prop50
 90
       50
102
RTVSPost2010PropOp50
 70
     1
102
RTVSPost2010Prop51ColorIndex
 90
      256
102
RTVSPost2010Prop51ColorRGB
 90
-16777216
102
RTVSPost2010PropOp51
 70
     0
102
RTVSPost2010Prop52
140
1.0
102
RTVSPost2010PropOp52
 70
     0
102
RTVSPost2010Prop53
 90
        2
102
RTVSPost2010PropOp53
 70
     1
102
RTVSPost2010Prop54
  1
strokes_ogs.tif
102
RTVSPost2010PropOp54
 70
     1
102
RTVSPost2010Prop55
280
     0
102
RTVSPost2010PropOp55
 70
     1
102
RTVSPost2010Prop56
140
1.0
102
RTVSPost2010PropOp56
 70
     1
102
RTVSPost2010Prop57
140
1.0
102
RTVSPost2010PropOp57
 70
     1
102
RTVSPropertyOp0
 70
     1
102
RTVSPropertyOp1
 70
     1
102
RTVSPropertyOp2
 70
     1
102
RTVSPropertyOp3
 70
     1
102
RTVSPropertyOp4
 70
     1
102
RTVSPropertyOp5
 70
     1
102
RTVSPropertyOp6
 70
     1
102
RTVSPropertyOp7
 70
     1
102
RTVSPropertyOp8
 70
     1
102
RTVSPropertyOp9
 70
     1
102
RTVSPropertyOp10
 70
     1
102
RTVSPropertyOp11
 70
     1
102
RTVSPropertyOp12
 70
     1
102
RTVSPropertyOp13
 70
     1
102
RTVSPropertyOp14
 70
     1
102
RTVSPropertyOp15
 70
     1
102
RTVSPropertyOp16
 70
     1
102
RTVSPropertyOp17
 70
     1
102
RTVSPropertyOp18
 70
     1
102
RTVSPropertyOp19
 70
     1
102
RTVSPropertyOp20
 70
     1
102
RTVSPropertyOp21
 70
     1
102
RTVSPropertyOp22
 70
     1
102
RTVSPropertyOp23
 70
     1
102
RTVSPropertyOp24
 70
     1
102
RTVSPropertyOp25
 70
     1
102
RTVSPropertyOp26
 70
     1
102
RTVSPropertyOp27
 70
     1
102
RTVSPropertyOp28
 70
     1
102
RTVSPropertyOp29
 70
     1
102
RTVSPropertyOp30
 70
     1
102
RTVSPropertyOp31
 70
     1
102
RTVSPropertyOp32
 70
     1
102
RTVSPropertyOp33
 70
     1
102
RTVSPropertyOp34
 70
     1
102
RTVSPropertyOp35
 70
     1
102
RTVSPropertyOp36
 70
     1
102
RTVSPropertyOp37
 70
     1
102
RTVSPropertyOp38
 70
     1
102
RTVSPropertyOp39
 70
     1
102
RTVSPropertyOp40
 70
     1
102
RTVSPropertyOp41
 70
     1
102
RTVSPropertyOp42
 70
     1
102
RTVSPropertyOp43
 70
     1
102
RTVSPropertyOp44
 70
     1
102
RTVSPropertyOp45
 70
     1
102
RTVSPropertyOp46
 70
     1
102
RTVSPropertyOp47
 70
     1
102
RTVSPropertyOp48
 70
     1
102
RTVSPropertyOp49
 70
     1
102
RTVSPropertyOp50
 70
     1
102
RTVSPropertyOp51
 70
     0
102
RTVSPropertyOp52
 70
     0
102
RTVSPropertyOp53
 70
     1
102
RTVSPropertyOp54
 70
     1
102
RTVSPropertyOp55
 70
     1
102
RTVSPropertyOp56
 70
     1
102
RTVSPropertyOp57
 70
     1
102
RTVSPropertyOp58
 70
     1
102
RTVSPropertyOp59
 70
     1
102
RTVSPropertyOp60
 70
     1
102
RTVSPropertyOp61
 70
     1
102
RTVSPropertyOp62
 70
     1
  0
XRECORD
  5
1ECE
102
{ACAD_REACTORS
330
1ECD
102
}
330
1ECD
100
AcDbXrecord
280
     1
102
RTVSPost2010Prop28
280
     0
102
RTVSPost2010PropOp28
 70
     1
102
RTVSPost2010Prop29
280
     1
102
RTVSPost2010PropOp29
 70
     1
102
RTVSPost2010Prop30
280
     1
102
RTVSPost2010PropOp30
 70
     1
102
RTVSPost2010Prop31
280
     0
102
RTVSPost2010PropOp31
 70
     1
102
RTVSPost2010Prop32
280
     0
102
RTVSPost2010PropOp32
 70
     1
102
RTVSPost2010Prop33
280
     0
102
RTVSPost2010PropOp33
 70
     1
102
RTVSPost2010Prop34
280
     0
102
RTVSPost2010PropOp34
 70
     1
102
RTVSPost2010Prop35
280
     0
102
RTVSPost2010PropOp35
 70
     1
102
RTVSPost2010Prop36
280
     0
102
RTVSPost2010PropOp36
 70
     1
102
RTVSPost2010Prop37
 90
       50
102
RTVSPost2010PropOp37
 70
     1
102
RTVSPost2010Prop38
140
0.0
102
RTVSPost2010PropOp38
 70
     1
102
RTVSPost2010Prop39
140
1.0
102
RTVSPost2010PropOp39
 70
     1
102
RTVSPost2010Prop40
 90
        0
102
RTVSPost2010PropOp40
 70
     1
102
RTVSPost2010Prop41ColorIndex
 90
       18
102
RTVSPost2010Prop41ColorRGB
 90
        0
102
RTVSPost2010PropOp41
 70
     1
102
RTVSPost2010Prop42
 90
       50
102
RTVSPost2010PropOp42
 70
     1
102
RTVSPost2010Prop43
 90
        3
102
RTVSPost2010PropOp43
 70
     1
102
RTVSPost2010Prop44ColorIndex
 90
        5
102
RTVSPost2010Prop44ColorRGB
 90
      255
102
RTVSPost2010PropOp44
 70
     1
102
RTVSPost2010Prop45
280
     0
102
RTVSPost2010PropOp45
 70
     1
102
RTVSPost2010Prop46
 90
       50
102
RTVSPost2010PropOp46
 70
     1
102
RTVSPost2010Prop47
 90
       50
102
RTVSPost2010PropOp47
 70
     1
102
RTVSPost2010Prop48
 90
       50
102
RTVSPost2010PropOp48
 70
     1
102
RTVSPost2010Prop49
280
     0
102
RTVSPost2010PropOp49
 70
     1
102
RTVSPost2010Prop50
 90
       50
102
RTVSPost2010PropOp50
 70
     1
102
RTVSPost2010Prop51ColorIndex
 90
      256
102
RTVSPost2010Prop51ColorRGB
 90
-16777216
102
RTVSPost2010PropOp51
 70
     0
102
RTVSPost2010Prop52
140
1.0
102
RTVSPost2010PropOp52
 70
     0
102
RTVSPost2010Prop53
 90
        2
102
RTVSPost2010PropOp53
 70
     1
102
RTVSPost2010Prop54
  1
strokes_ogs.tif
102
RTVSPost2010PropOp54
 70
     1
102
RTVSPost2010Prop55
280
     0
102
RTVSPost2010PropOp55
 70
     1
102
RTVSPost2010Prop56
140
1.0
102
RTVSPost2010PropOp56
 70
     1
102
RTVSPost2010Prop57
140
1.0
102
RTVSPost2010PropOp57
 70
     1
102
RTVSPropertyOp0
 70
     1
102
RTVSPropertyOp1
 70
     1
102
RTVSPropertyOp2
 70
     1
102
RTVSPropertyOp3
 70
     1
102
RTVSPropertyOp4
 70
     1
102
RTVSPropertyOp5
 70
     1
102
RTVSPropertyOp6
 70
     1
102
RTVSPropertyOp7
 70
     1
102
RTVSPropertyOp8
 70
     1
102
RTVSPropertyOp9
 70
     1
102
RTVSPropertyOp10
 70
     1
102
RTVSPropertyOp11
 70
     1
102
RTVSPropertyOp12
 70
     1
102
RTVSPropertyOp13
 70
     1
102
RTVSPropertyOp14
 70
     1
102
RTVSPropertyOp15
 70
     1
102
RTVSPropertyOp16
 70
     1
102
RTVSPropertyOp17
 70
     1
102
RTVSPropertyOp18
 70
     1
102
RTVSPropertyOp19
 70
     1
102
RTVSPropertyOp20
 70
     1
102
RTVSPropertyOp21
 70
     1
102
RTVSPropertyOp22
 70
     1
102
RTVSPropertyOp23
 70
     1
102
RTVSPropertyOp24
 70
     1
102
RTVSPropertyOp25
 70
     1
102
RTVSPropertyOp26
 70
     1
102
RTVSPropertyOp27
 70
     1
102
RTVSPropertyOp28
 70
     1
102
RTVSPropertyOp29
 70
     1
102
RTVSPropertyOp30
 70
     1
102
RTVSPropertyOp31
 70
     1
102
RTVSPropertyOp32
 70
     1
102
RTVSPropertyOp33
 70
     1
102
RTVSPropertyOp34
 70
     1
102
RTVSPropertyOp35
 70
     1
102
RTVSPropertyOp36
 70
     1
102
RTVSPropertyOp37
 70
     1
102
RTVSPropertyOp38
 70
     1
102
RTVSPropertyOp39
 70
     1
102
RTVSPropertyOp40
 70
     1
102
RTVSPropertyOp41
 70
     1
102
RTVSPropertyOp42
 70
     1
102
RTVSPropertyOp43
 70
     1
102
RTVSPropertyOp44
 70
     1
102
RTVSPropertyOp45
 70
     1
102
RTVSPropertyOp46
 70
     1
102
RTVSPropertyOp47
 70
     1
102
RTVSPropertyOp48
 70
     1
102
RTVSPropertyOp49
 70
     1
102
RTVSPropertyOp50
 70
     1
102
RTVSPropertyOp51
 70
     0
102
RTVSPropertyOp52
 70
     0
102
RTVSPropertyOp53
 70
     1
102
RTVSPropertyOp54
 70
     1
102
RTVSPropertyOp55
 70
     1
102
RTVSPropertyOp56
 70
     1
102
RTVSPropertyOp57
 70
     1
102
RTVSPropertyOp58
 70
     1
102
RTVSPropertyOp59
 70
     1
102
RTVSPropertyOp60
 70
     1
102
RTVSPropertyOp61
 70
     1
102
RTVSPropertyOp62
 70
     1
  0
XRECORD
  5
1EDC
102
{ACAD_REACTORS
330
1EDB
102
}
330
1EDB
100
AcDbXrecord
280
     1
102
RTVSPost2010Prop28
280
     0
102
RTVSPost2010PropOp28
 70
     1
102
RTVSPost2010Prop29
280
     1
102
RTVSPost2010PropOp29
 70
     1
102
RTVSPost2010Prop30
280
     1
102
RTVSPost2010PropOp30
 70
     1
102
RTVSPost2010Prop31
280
     0
102
RTVSPost2010PropOp31
 70
     1
102
RTVSPost2010Prop32
280
     0
102
RTVSPost2010PropOp32
 70
     1
102
RTVSPost2010Prop33
280
     0
102
RTVSPost2010PropOp33
 70
     1
102
RTVSPost2010Prop34
280
     0
102
RTVSPost2010PropOp34
 70
     1
102
RTVSPost2010Prop35
280
     0
102
RTVSPost2010PropOp35
 70
     1
102
RTVSPost2010Prop36
280
     0
102
RTVSPost2010PropOp36
 70
     1
102
RTVSPost2010Prop37
 90
       50
102
RTVSPost2010PropOp37
 70
     1
102
RTVSPost2010Prop38
140
0.0
102
RTVSPost2010PropOp38
 70
     1
102
RTVSPost2010Prop39
140
1.0
102
RTVSPost2010PropOp39
 70
     1
102
RTVSPost2010Prop40
 90
        0
102
RTVSPost2010PropOp40
 70
     1
102
RTVSPost2010Prop41ColorIndex
 90
       18
102
RTVSPost2010Prop41ColorRGB
 90
        0
102
RTVSPost2010PropOp41
 70
     1
102
RTVSPost2010Prop42
 90
       50
102
RTVSPost2010PropOp42
 70
     1
102
RTVSPost2010Prop43
 90
        3
102
RTVSPost2010PropOp43
 70
     1
102
RTVSPost2010Prop44ColorIndex
 90
        5
102
RTVSPost2010Prop44ColorRGB
 90
      255
102
RTVSPost2010PropOp44
 70
     1
102
RTVSPost2010Prop45
280
     0
102
RTVSPost2010PropOp45
 70
     1
102
RTVSPost2010Prop46
 90
       50
102
RTVSPost2010PropOp46
 70
     1
102
RTVSPost2010Prop47
 90
       50
102
RTVSPost2010PropOp47
 70
     1
102
RTVSPost2010Prop48
 90
       50
102
RTVSPost2010PropOp48
 70
     1
102
RTVSPost2010Prop49
280
     0
102
RTVSPost2010PropOp49
 70
     1
102
RTVSPost2010Prop50
 90
       50
102
RTVSPost2010PropOp50
 70
     1
102
RTVSPost2010Prop51ColorIndex
 90
      256
102
RTVSPost2010Prop51ColorRGB
 90
-16777216
102
RTVSPost2010PropOp51
 70
     0
102
RTVSPost2010Prop52
140
1.0
102
RTVSPost2010PropOp52
 70
     0
102
RTVSPost2010Prop53
 90
        2
102
RTVSPost2010PropOp53
 70
     1
102
RTVSPost2010Prop54
  1
strokes_ogs.tif
102
RTVSPost2010PropOp54
 70
     1
102
RTVSPost2010Prop55
280
     0
102
RTVSPost2010PropOp55
 70
     1
102
RTVSPost2010Prop56
140
1.0
102
RTVSPost2010PropOp56
 70
     1
102
RTVSPost2010Prop57
140
1.0
102
RTVSPost2010PropOp57
 70
     1
102
RTVSPropertyOp0
 70
     1
102
RTVSPropertyOp1
 70
     1
102
RTVSPropertyOp2
 70
     1
102
RTVSPropertyOp3
 70
     1
102
RTVSPropertyOp4
 70
     1
102
RTVSPropertyOp5
 70
     1
102
RTVSPropertyOp6
 70
     1
102
RTVSPropertyOp7
 70
     1
102
RTVSPropertyOp8
 70
     1
102
RTVSPropertyOp9
 70
     1
102
RTVSPropertyOp10
 70
     1
102
RTVSPropertyOp11
 70
     1
102
RTVSPropertyOp12
 70
     1
102
RTVSPropertyOp13
 70
     1
102
RTVSPropertyOp14
 70
     1
102
RTVSPropertyOp15
 70
     1
102
RTVSPropertyOp16
 70
     1
102
RTVSPropertyOp17
 70
     1
102
RTVSPropertyOp18
 70
     1
102
RTVSPropertyOp19
 70
     1
102
RTVSPropertyOp20
 70
     1
102
RTVSPropertyOp21
 70
     1
102
RTVSPropertyOp22
 70
     1
102
RTVSPropertyOp23
 70
     1
102
RTVSPropertyOp24
 70
     1
102
RTVSPropertyOp25
 70
     1
102
RTVSPropertyOp26
 70
     1
102
RTVSPropertyOp27
 70
     1
102
RTVSPropertyOp28
 70
     1
102
RTVSPropertyOp29
 70
     1
102
RTVSPropertyOp30
 70
     1
102
RTVSPropertyOp31
 70
     1
102
RTVSPropertyOp32
 70
     1
102
RTVSPropertyOp33
 70
     1
102
RTVSPropertyOp34
 70
     1
102
RTVSPropertyOp35
 70
     1
102
RTVSPropertyOp36
 70
     1
102
RTVSPropertyOp37
 70
     1
102
RTVSPropertyOp38
 70
     1
102
RTVSPropertyOp39
 70
     1
102
RTVSPropertyOp40
 70
     1
102
RTVSPropertyOp41
 70
     1
102
RTVSPropertyOp42
 70
     1
102
RTVSPropertyOp43
 70
     1
102
RTVSPropertyOp44
 70
     1
102
RTVSPropertyOp45
 70
     1
102
RTVSPropertyOp46
 70
     1
102
RTVSPropertyOp47
 70
     1
102
RTVSPropertyOp48
 70
     1
102
RTVSPropertyOp49
 70
     1
102
RTVSPropertyOp50
 70
     1
102
RTVSPropertyOp51
 70
     0
102
RTVSPropertyOp52
 70
     0
102
RTVSPropertyOp53
 70
     1
102
RTVSPropertyOp54
 70
     1
102
RTVSPropertyOp55
 70
     1
102
RTVSPropertyOp56
 70
     1
102
RTVSPropertyOp57
 70
     1
102
RTVSPropertyOp58
 70
     1
102
RTVSPropertyOp59
 70
     1
102
RTVSPropertyOp60
 70
     1
102
RTVSPropertyOp61
 70
     1
102
RTVSPropertyOp62
 70
     1
  0
XRECORD
  5
1EE4
102
{ACAD_REACTORS
330
1EE3
102
}
330
1EE3
100
AcDbXrecord
280
     1
102
RTVSPost2010Prop28
280
     0
102
RTVSPost2010PropOp28
 70
     1
102
RTVSPost2010Prop29
280
     1
102
RTVSPost2010PropOp29
 70
     1
102
RTVSPost2010Prop30
280
     1
102
RTVSPost2010PropOp30
 70
     1
102
RTVSPost2010Prop31
280
     0
102
RTVSPost2010PropOp31
 70
     1
102
RTVSPost2010Prop32
280
     0
102
RTVSPost2010PropOp32
 70
     1
102
RTVSPost2010Prop33
280
     0
102
RTVSPost2010PropOp33
 70
     1
102
RTVSPost2010Prop34
280
     0
102
RTVSPost2010PropOp34
 70
     1
102
RTVSPost2010Prop35
280
     0
102
RTVSPost2010PropOp35
 70
     1
102
RTVSPost2010Prop36
280
     0
102
RTVSPost2010PropOp36
 70
     1
102
RTVSPost2010Prop37
 90
       50
102
RTVSPost2010PropOp37
 70
     1
102
RTVSPost2010Prop38
140
0.0
102
RTVSPost2010PropOp38
 70
     1
102
RTVSPost2010Prop39
140
1.0
102
RTVSPost2010PropOp39
 70
     1
102
RTVSPost2010Prop40
 90
        0
102
RTVSPost2010PropOp40
 70
     1
102
RTVSPost2010Prop41ColorIndex
 90
       18
102
RTVSPost2010Prop41ColorRGB
 90
        0
102
RTVSPost2010PropOp41
 70
     1
102
RTVSPost2010Prop42
 90
       50
102
RTVSPost2010PropOp42
 70
     1
102
RTVSPost2010Prop43
 90
        3
102
RTVSPost2010PropOp43
 70
     1
102
RTVSPost2010Prop44ColorIndex
 90
        5
102
RTVSPost2010Prop44ColorRGB
 90
      255
102
RTVSPost2010PropOp44
 70
     1
102
RTVSPost2010Prop45
280
     0
102
RTVSPost2010PropOp45
 70
     1
102
RTVSPost2010Prop46
 90
       50
102
RTVSPost2010PropOp46
 70
     1
102
RTVSPost2010Prop47
 90
       50
102
RTVSPost2010PropOp47
 70
     1
102
RTVSPost2010Prop48
 90
       50
102
RTVSPost2010PropOp48
 70
     1
102
RTVSPost2010Prop49
280
     0
102
RTVSPost2010PropOp49
 70
     1
102
RTVSPost2010Prop50
 90
       50
102
RTVSPost2010PropOp50
 70
     1
102
RTVSPost2010Prop51ColorIndex
 90
      256
102
RTVSPost2010Prop51ColorRGB
 90
-16777216
102
RTVSPost2010PropOp51
 70
     0
102
RTVSPost2010Prop52
140
1.0
102
RTVSPost2010PropOp52
 70
     0
102
RTVSPost2010Prop53
 90
        2
102
RTVSPost2010PropOp53
 70
     1
102
RTVSPost2010Prop54
  1
strokes_ogs.tif
102
RTVSPost2010PropOp54
 70
     1
102
RTVSPost2010Prop55
280
     0
102
RTVSPost2010PropOp55
 70
     1
102
RTVSPost2010Prop56
140
1.0
102
RTVSPost2010PropOp56
 70
     1
102
RTVSPost2010Prop57
140
1.0
102
RTVSPost2010PropOp57
 70
     1
102
RTVSPropertyOp0
 70
     1
102
RTVSPropertyOp1
 70
     1
102
RTVSPropertyOp2
 70
     1
102
RTVSPropertyOp3
 70
     1
102
RTVSPropertyOp4
 70
     1
102
RTVSPropertyOp5
 70
     1
102
RTVSPropertyOp6
 70
     1
102
RTVSPropertyOp7
 70
     1
102
RTVSPropertyOp8
 70
     1
102
RTVSPropertyOp9
 70
     1
102
RTVSPropertyOp10
 70
     1
102
RTVSPropertyOp11
 70
     1
102
RTVSPropertyOp12
 70
     1
102
RTVSPropertyOp13
 70
     1
102
RTVSPropertyOp14
 70
     1
102
RTVSPropertyOp15
 70
     1
102
RTVSPropertyOp16
 70
     1
102
RTVSPropertyOp17
 70
     1
102
RTVSPropertyOp18
 70
     1
102
RTVSPropertyOp19
 70
     1
102
RTVSPropertyOp20
 70
     1
102
RTVSPropertyOp21
 70
     1
102
RTVSPropertyOp22
 70
     1
102
RTVSPropertyOp23
 70
     1
102
RTVSPropertyOp24
 70
     1
102
RTVSPropertyOp25
 70
     1
102
RTVSPropertyOp26
 70
     1
102
RTVSPropertyOp27
 70
     1
102
RTVSPropertyOp28
 70
     1
102
RTVSPropertyOp29
 70
     1
102
RTVSPropertyOp30
 70
     1
102
RTVSPropertyOp31
 70
     1
102
RTVSPropertyOp32
 70
     1
102
RTVSPropertyOp33
 70
     1
102
RTVSPropertyOp34
 70
     1
102
RTVSPropertyOp35
 70
     1
102
RTVSPropertyOp36
 70
     1
102
RTVSPropertyOp37
 70
     1
102
RTVSPropertyOp38
 70
     1
102
RTVSPropertyOp39
 70
     1
102
RTVSPropertyOp40
 70
     1
102
RTVSPropertyOp41
 70
     1
102
RTVSPropertyOp42
 70
     1
102
RTVSPropertyOp43
 70
     1
102
RTVSPropertyOp44
 70
     1
102
RTVSPropertyOp45
 70
     1
102
RTVSPropertyOp46
 70
     1
102
RTVSPropertyOp47
 70
     1
102
RTVSPropertyOp48
 70
     1
102
RTVSPropertyOp49
 70
     1
102
RTVSPropertyOp50
 70
     1
102
RTVSPropertyOp51
 70
     0
102
RTVSPropertyOp52
 70
     0
102
RTVSPropertyOp53
 70
     1
102
RTVSPropertyOp54
 70
     1
102
RTVSPropertyOp55
 70
     1
102
RTVSPropertyOp56
 70
     1
102
RTVSPropertyOp57
 70
     1
102
RTVSPropertyOp58
 70
     1
102
RTVSPropertyOp59
 70
     1
102
RTVSPropertyOp60
 70
     1
102
RTVSPropertyOp61
 70
     1
102
RTVSPropertyOp62
 70
     1
  0
XRECORD
  5
1ED6
102
{ACAD_REACTORS
330
1ED5
102
}
330
1ED5
100
AcDbXrecord
280
     1
102
RTVSPost2010Prop28
280
     0
102
RTVSPost2010PropOp28
 70
     1
102
RTVSPost2010Prop29
280
     1
102
RTVSPost2010PropOp29
 70
     1
102
RTVSPost2010Prop30
280
     1
102
RTVSPost2010PropOp30
 70
     1
102
RTVSPost2010Prop31
280
     0
102
RTVSPost2010PropOp31
 70
     1
102
RTVSPost2010Prop32
280
     0
102
RTVSPost2010PropOp32
 70
     1
102
RTVSPost2010Prop33
280
     0
102
RTVSPost2010PropOp33
 70
     1
102
RTVSPost2010Prop34
280
     0
102
RTVSPost2010PropOp34
 70
     1
102
RTVSPost2010Prop35
280
     0
102
RTVSPost2010PropOp35
 70
     1
102
RTVSPost2010Prop36
280
     0
102
RTVSPost2010PropOp36
 70
     1
102
RTVSPost2010Prop37
 90
       50
102
RTVSPost2010PropOp37
 70
     1
102
RTVSPost2010Prop38
140
0.0
102
RTVSPost2010PropOp38
 70
     1
102
RTVSPost2010Prop39
140
1.0
102
RTVSPost2010PropOp39
 70
     1
102
RTVSPost2010Prop40
 90
        0
102
RTVSPost2010PropOp40
 70
     1
102
RTVSPost2010Prop41ColorIndex
 90
       18
102
RTVSPost2010Prop41ColorRGB
 90
        0
102
RTVSPost2010PropOp41
 70
     1
102
RTVSPost2010Prop42
 90
       50
102
RTVSPost2010PropOp42
 70
     1
102
RTVSPost2010Prop43
 90
        3
102
RTVSPost2010PropOp43
 70
     1
102
RTVSPost2010Prop44ColorIndex
 90
        5
102
RTVSPost2010Prop44ColorRGB
 90
      255
102
RTVSPost2010PropOp44
 70
     1
102
RTVSPost2010Prop45
280
     0
102
RTVSPost2010PropOp45
 70
     1
102
RTVSPost2010Prop46
 90
       50
102
RTVSPost2010PropOp46
 70
     1
102
RTVSPost2010Prop47
 90
       50
102
RTVSPost2010PropOp47
 70
     1
102
RTVSPost2010Prop48
 90
       50
102
RTVSPost2010PropOp48
 70
     1
102
RTVSPost2010Prop49
280
     0
102
RTVSPost2010PropOp49
 70
     1
102
RTVSPost2010Prop50
 90
       50
102
RTVSPost2010PropOp50
 70
     1
102
RTVSPost2010Prop51ColorIndex
 90
      256
102
RTVSPost2010Prop51ColorRGB
 90
-16777216
102
RTVSPost2010PropOp51
 70
     0
102
RTVSPost2010Prop52
140
1.0
102
RTVSPost2010PropOp52
 70
     0
102
RTVSPost2010Prop53
 90
        2
102
RTVSPost2010PropOp53
 70
     1
102
RTVSPost2010Prop54
  1
strokes_ogs.tif
102
RTVSPost2010PropOp54
 70
     1
102
RTVSPost2010Prop55
280
     0
102
RTVSPost2010PropOp55
 70
     1
102
RTVSPost2010Prop56
140
1.0
102
RTVSPost2010PropOp56
 70
     1
102
RTVSPost2010Prop57
140
1.0
102
RTVSPost2010PropOp57
 70
     1
102
RTVSPropertyOp0
 70
     1
102
RTVSPropertyOp1
 70
     1
102
RTVSPropertyOp2
 70
     1
102
RTVSPropertyOp3
 70
     1
102
RTVSPropertyOp4
 70
     1
102
RTVSPropertyOp5
 70
     1
102
RTVSPropertyOp6
 70
     1
102
RTVSPropertyOp7
 70
     1
102
RTVSPropertyOp8
 70
     1
102
RTVSPropertyOp9
 70
     1
102
RTVSPropertyOp10
 70
     1
102
RTVSPropertyOp11
 70
     1
102
RTVSPropertyOp12
 70
     1
102
RTVSPropertyOp13
 70
     1
102
RTVSPropertyOp14
 70
     1
102
RTVSPropertyOp15
 70
     1
102
RTVSPropertyOp16
 70
     1
102
RTVSPropertyOp17
 70
     1
102
RTVSPropertyOp18
 70
     1
102
RTVSPropertyOp19
 70
     1
102
RTVSPropertyOp20
 70
     1
102
RTVSPropertyOp21
 70
     1
102
RTVSPropertyOp22
 70
     1
102
RTVSPropertyOp23
 70
     1
102
RTVSPropertyOp24
 70
     1
102
RTVSPropertyOp25
 70
     1
102
RTVSPropertyOp26
 70
     1
102
RTVSPropertyOp27
 70
     1
102
RTVSPropertyOp28
 70
     1
102
RTVSPropertyOp29
 70
     1
102
RTVSPropertyOp30
 70
     1
102
RTVSPropertyOp31
 70
     1
102
RTVSPropertyOp32
 70
     1
102
RTVSPropertyOp33
 70
     1
102
RTVSPropertyOp34
 70
     1
102
RTVSPropertyOp35
 70
     1
102
RTVSPropertyOp36
 70
     1
102
RTVSPropertyOp37
 70
     1
102
RTVSPropertyOp38
 70
     1
102
RTVSPropertyOp39
 70
     1
102
RTVSPropertyOp40
 70
     1
102
RTVSPropertyOp41
 70
     1
102
RTVSPropertyOp42
 70
     1
102
RTVSPropertyOp43
 70
     1
102
RTVSPropertyOp44
 70
     1
102
RTVSPropertyOp45
 70
     1
102
RTVSPropertyOp46
 70
     1
102
RTVSPropertyOp47
 70
     1
102
RTVSPropertyOp48
 70
     1
102
RTVSPropertyOp49
 70
     1
102
RTVSPropertyOp50
 70
     1
102
RTVSPropertyOp51
 70
     0
102
RTVSPropertyOp52
 70
     0
102
RTVSPropertyOp53
 70
     1
102
RTVSPropertyOp54
 70
     1
102
RTVSPropertyOp55
 70
     1
102
RTVSPropertyOp56
 70
     1
102
RTVSPropertyOp57
 70
     1
102
RTVSPropertyOp58
 70
     1
102
RTVSPropertyOp59
 70
     1
102
RTVSPropertyOp60
 70
     1
102
RTVSPropertyOp61
 70
     1
102
RTVSPropertyOp62
 70
     1
  0
XRECORD
  5
1EDA
102
{ACAD_REACTORS
330
1ED9
102
}
330
1ED9
100
AcDbXrecord
280
     1
102
RTVSPost2010Prop28
280
     0
102
RTVSPost2010PropOp28
 70
     1
102
RTVSPost2010Prop29
280
     1
102
RTVSPost2010PropOp29
 70
     1
102
RTVSPost2010Prop30
280
     1
102
RTVSPost2010PropOp30
 70
     1
102
RTVSPost2010Prop31
280
     0
102
RTVSPost2010PropOp31
 70
     1
102
RTVSPost2010Prop32
280
     0
102
RTVSPost2010PropOp32
 70
     1
102
RTVSPost2010Prop33
280
     0
102
RTVSPost2010PropOp33
 70
     1
102
RTVSPost2010Prop34
280
     0
102
RTVSPost2010PropOp34
 70
     1
102
RTVSPost2010Prop35
280
     0
102
RTVSPost2010PropOp35
 70
     1
102
RTVSPost2010Prop36
280
     0
102
RTVSPost2010PropOp36
 70
     1
102
RTVSPost2010Prop37
 90
       50
102
RTVSPost2010PropOp37
 70
     1
102
RTVSPost2010Prop38
140
0.0
102
RTVSPost2010PropOp38
 70
     1
102
RTVSPost2010Prop39
140
1.0
102
RTVSPost2010PropOp39
 70
     1
102
RTVSPost2010Prop40
 90
        0
102
RTVSPost2010PropOp40
 70
     1
102
RTVSPost2010Prop41ColorIndex
 90
       18
102
RTVSPost2010Prop41ColorRGB
 90
        0
102
RTVSPost2010PropOp41
 70
     1
102
RTVSPost2010Prop42
 90
       50
102
RTVSPost2010PropOp42
 70
     1
102
RTVSPost2010Prop43
 90
        3
102
RTVSPost2010PropOp43
 70
     1
102
RTVSPost2010Prop44ColorIndex
 90
        5
102
RTVSPost2010Prop44ColorRGB
 90
      255
102
RTVSPost2010PropOp44
 70
     1
102
RTVSPost2010Prop45
280
     0
102
RTVSPost2010PropOp45
 70
     1
102
RTVSPost2010Prop46
 90
       50
102
RTVSPost2010PropOp46
 70
     1
102
RTVSPost2010Prop47
 90
       50
102
RTVSPost2010PropOp47
 70
     1
102
RTVSPost2010Prop48
 90
       50
102
RTVSPost2010PropOp48
 70
     1
102
RTVSPost2010Prop49
280
     0
102
RTVSPost2010PropOp49
 70
     1
102
RTVSPost2010Prop50
 90
       50
102
RTVSPost2010PropOp50
 70
     1
102
RTVSPost2010Prop51ColorIndex
 90
      256
102
RTVSPost2010Prop51ColorRGB
 90
-16777216
102
RTVSPost2010PropOp51
 70
     0
102
RTVSPost2010Prop52
140
1.0
102
RTVSPost2010PropOp52
 70
     0
102
RTVSPost2010Prop53
 90
        2
102
RTVSPost2010PropOp53
 70
     1
102
RTVSPost2010Prop54
  1
strokes_ogs.tif
102
RTVSPost2010PropOp54
 70
     1
102
RTVSPost2010Prop55
280
     0
102
RTVSPost2010PropOp55
 70
     1
102
RTVSPost2010Prop56
140
1.0
102
RTVSPost2010PropOp56
 70
     1
102
RTVSPost2010Prop57
140
1.0
102
RTVSPost2010PropOp57
 70
     1
102
RTVSPropertyOp0
 70
     1
102
RTVSPropertyOp1
 70
     1
102
RTVSPropertyOp2
 70
     1
102
RTVSPropertyOp3
 70
     1
102
RTVSPropertyOp4
 70
     1
102
RTVSPropertyOp5
 70
     1
102
RTVSPropertyOp6
 70
     1
102
RTVSPropertyOp7
 70
     1
102
RTVSPropertyOp8
 70
     1
102
RTVSPropertyOp9
 70
     1
102
RTVSPropertyOp10
 70
     1
102
RTVSPropertyOp11
 70
     1
102
RTVSPropertyOp12
 70
     1
102
RTVSPropertyOp13
 70
     1
102
RTVSPropertyOp14
 70
     1
102
RTVSPropertyOp15
 70
     1
102
RTVSPropertyOp16
 70
     1
102
RTVSPropertyOp17
 70
     1
102
RTVSPropertyOp18
 70
     1
102
RTVSPropertyOp19
 70
     1
102
RTVSPropertyOp20
 70
     1
102
RTVSPropertyOp21
 70
     1
102
RTVSPropertyOp22
 70
     1
102
RTVSPropertyOp23
 70
     1
102
RTVSPropertyOp24
 70
     1
102
RTVSPropertyOp25
 70
     1
102
RTVSPropertyOp26
 70
     1
102
RTVSPropertyOp27
 70
     1
102
RTVSPropertyOp28
 70
     1
102
RTVSPropertyOp29
 70
     1
102
RTVSPropertyOp30
 70
     1
102
RTVSPropertyOp31
 70
     1
102
RTVSPropertyOp32
 70
     1
102
RTVSPropertyOp33
 70
     1
102
RTVSPropertyOp34
 70
     1
102
RTVSPropertyOp35
 70
     1
102
RTVSPropertyOp36
 70
     1
102
RTVSPropertyOp37
 70
     1
102
RTVSPropertyOp38
 70
     1
102
RTVSPropertyOp39
 70
     1
102
RTVSPropertyOp40
 70
     1
102
RTVSPropertyOp41
 70
     1
102
RTVSPropertyOp42
 70
     1
102
RTVSPropertyOp43
 70
     1
102
RTVSPropertyOp44
 70
     1
102
RTVSPropertyOp45
 70
     1
102
RTVSPropertyOp46
 70
     1
102
RTVSPropertyOp47
 70
     1
102
RTVSPropertyOp48
 70
     1
102
RTVSPropertyOp49
 70
     1
102
RTVSPropertyOp50
 70
     1
102
RTVSPropertyOp51
 70
     0
102
RTVSPropertyOp52
 70
     0
102
RTVSPropertyOp53
 70
     1
102
RTVSPropertyOp54
 70
     1
102
RTVSPropertyOp55
 70
     1
102
RTVSPropertyOp56
 70
     1
102
RTVSPropertyOp57
 70
     1
102
RTVSPropertyOp58
 70
     1
102
RTVSPropertyOp59
 70
     1
102
RTVSPropertyOp60
 70
     1
102
RTVSPropertyOp61
 70
     1
102
RTVSPropertyOp62
 70
     1
  0
XRECORD
  5
1EF8
102
{ACAD_REACTORS
330
1EF7
102
}
330
1EF7
100
AcDbXrecord
280
     1
102
RTVSPost2010Prop28
280
     0
102
RTVSPost2010PropOp28
 70
     1
102
RTVSPost2010Prop29
280
     1
102
RTVSPost2010PropOp29
 70
     1
102
RTVSPost2010Prop30
280
     1
102
RTVSPost2010PropOp30
 70
     1
102
RTVSPost2010Prop31
280
     0
102
RTVSPost2010PropOp31
 70
     1
102
RTVSPost2010Prop32
280
     0
102
RTVSPost2010PropOp32
 70
     1
102
RTVSPost2010Prop33
280
     0
102
RTVSPost2010PropOp33
 70
     1
102
RTVSPost2010Prop34
280
     0
102
RTVSPost2010PropOp34
 70
     1
102
RTVSPost2010Prop35
280
     0
102
RTVSPost2010PropOp35
 70
     1
102
RTVSPost2010Prop36
280
     0
102
RTVSPost2010PropOp36
 70
     1
102
RTVSPost2010Prop37
 90
       50
102
RTVSPost2010PropOp37
 70
     0
102
RTVSPost2010Prop38
140
0.0
102
RTVSPost2010PropOp38
 70
     0
102
RTVSPost2010Prop39
140
1.0
102
RTVSPost2010PropOp39
 70
     0
102
RTVSPost2010Prop40
 90
        0
102
RTVSPost2010PropOp40
 70
     0
102
RTVSPost2010Prop41ColorIndex
 90
       18
102
RTVSPost2010Prop41ColorRGB
 90
        0
102
RTVSPost2010PropOp41
 70
     0
102
RTVSPost2010Prop42
 90
       50
102
RTVSPost2010PropOp42
 70
     0
102
RTVSPost2010Prop43
 90
        3
102
RTVSPost2010PropOp43
 70
     0
102
RTVSPost2010Prop44ColorIndex
 90
        5
102
RTVSPost2010Prop44ColorRGB
 90
      255
102
RTVSPost2010PropOp44
 70
     0
102
RTVSPost2010Prop45
280
     0
102
RTVSPost2010PropOp45
 70
     1
102
RTVSPost2010Prop46
 90
       50
102
RTVSPost2010PropOp46
 70
     0
102
RTVSPost2010Prop47
 90
       50
102
RTVSPost2010PropOp47
 70
     0
102
RTVSPost2010Prop48
 90
       50
102
RTVSPost2010PropOp48
 70
     0
102
RTVSPost2010Prop49
280
     0
102
RTVSPost2010PropOp49
 70
     1
102
RTVSPost2010Prop50
 90
       50
102
RTVSPost2010PropOp50
 70
     0
102
RTVSPost2010Prop51ColorIndex
 90
      256
102
RTVSPost2010Prop51ColorRGB
 90
-16777216
102
RTVSPost2010PropOp51
 70
     0
102
RTVSPost2010Prop52
140
1.0
102
RTVSPost2010PropOp52
 70
     0
102
RTVSPost2010Prop53
 90
        2
102
RTVSPost2010PropOp53
 70
     0
102
RTVSPost2010Prop54
  1
strokes_ogs.tif
102
RTVSPost2010PropOp54
 70
     0
102
RTVSPost2010Prop55
280
     0
102
RTVSPost2010PropOp55
 70
     1
102
RTVSPost2010Prop56
140
1.0
102
RTVSPost2010PropOp56
 70
     0
102
RTVSPost2010Prop57
140
1.0
102
RTVSPost2010PropOp57
 70
     0
102
RTVSPropertyOp0
 70
     0
102
RTVSPropertyOp1
 70
     0
102
RTVSPropertyOp2
 70
     0
102
RTVSPropertyOp3
 70
     0
102
RTVSPropertyOp4
 70
     0
102
RTVSPropertyOp5
 70
     0
102
RTVSPropertyOp6
 70
     0
102
RTVSPropertyOp7
 70
     0
102
RTVSPropertyOp8
 70
     0
102
RTVSPropertyOp9
 70
     0
102
RTVSPropertyOp10
 70
     0
102
RTVSPropertyOp11
 70
     0
102
RTVSPropertyOp12
 70
     0
102
RTVSPropertyOp13
 70
     0
102
RTVSPropertyOp14
 70
     2
102
RTVSPropertyOp15
 70
     0
102
RTVSPropertyOp16
 70
     0
102
RTVSPropertyOp17
 70
     0
102
RTVSPropertyOp18
 70
     0
102
RTVSPropertyOp19
 70
     0
102
RTVSPropertyOp20
 70
     0
102
RTVSPropertyOp21
 70
     0
102
RTVSPropertyOp22
 70
     0
102
RTVSPropertyOp23
 70
     0
102
RTVSPropertyOp24
 70
     0
102
RTVSPropertyOp25
 70
     0
102
RTVSPropertyOp26
 70
     0
102
RTVSPropertyOp27
 70
     0
102
RTVSPropertyOp28
 70
     1
102
RTVSPropertyOp29
 70
     1
102
RTVSPropertyOp30
 70
     1
102
RTVSPropertyOp31
 70
     1
102
RTVSPropertyOp32
 70
     1
102
RTVSPropertyOp33
 70
     1
102
RTVSPropertyOp34
 70
     1
102
RTVSPropertyOp35
 70
     1
102
RTVSPropertyOp36
 70
     1
102
RTVSPropertyOp37
 70
     0
102
RTVSPropertyOp38
 70
     0
102
RTVSPropertyOp39
 70
     0
102
RTVSPropertyOp40
 70
     0
102
RTVSPropertyOp41
 70
     0
102
RTVSPropertyOp42
 70
     0
102
RTVSPropertyOp43
 70
     0
102
RTVSPropertyOp44
 70
     0
102
RTVSPropertyOp45
 70
     1
102
RTVSPropertyOp46
 70
     0
102
RTVSPropertyOp47
 70
     0
102
RTVSPropertyOp48
 70
     0
102
RTVSPropertyOp49
 70
     1
102
RTVSPropertyOp50
 70
     0
102
RTVSPropertyOp51
 70
     0
102
RTVSPropertyOp52
 70
     0
102
RTVSPropertyOp53
 70
     0
102
RTVSPropertyOp54
 70
     0
102
RTVSPropertyOp55
 70
     1
102
RTVSPropertyOp56
 70
     0
102
RTVSPropertyOp57
 70
     0
102
RTVSPropertyOp58
 70
     1
102
RTVSPropertyOp59
 70
     1
102
RTVSPropertyOp60
 70
     1
102
RTVSPropertyOp61
 70
     1
102
RTVSPropertyOp62
 70
     1
  0
XRECORD
  5
1EE2
102
{ACAD_REACTORS
330
1EE1
102
}
330
1EE1
100
AcDbXrecord
280
     1
102
RTVSPost2010Prop28
280
     0
102
RTVSPost2010PropOp28
 70
     1
102
RTVSPost2010Prop29
280
     1
102
RTVSPost2010PropOp29
 70
     1
102
RTVSPost2010Prop30
280
     1
102
RTVSPost2010PropOp30
 70
     1
102
RTVSPost2010Prop31
280
     0
102
RTVSPost2010PropOp31
 70
     1
102
RTVSPost2010Prop32
280
     0
102
RTVSPost2010PropOp32
 70
     1
102
RTVSPost2010Prop33
280
     0
102
RTVSPost2010PropOp33
 70
     1
102
RTVSPost2010Prop34
280
     0
102
RTVSPost2010PropOp34
 70
     1
102
RTVSPost2010Prop35
280
     0
102
RTVSPost2010PropOp35
 70
     1
102
RTVSPost2010Prop36
280
     0
102
RTVSPost2010PropOp36
 70
     1
102
RTVSPost2010Prop37
 90
       50
102
RTVSPost2010PropOp37
 70
     1
102
RTVSPost2010Prop38
140
0.0
102
RTVSPost2010PropOp38
 70
     1
102
RTVSPost2010Prop39
140
1.0
102
RTVSPost2010PropOp39
 70
     1
102
RTVSPost2010Prop40
 90
        0
102
RTVSPost2010PropOp40
 70
     1
102
RTVSPost2010Prop41ColorIndex
 90
       18
102
RTVSPost2010Prop41ColorRGB
 90
        0
102
RTVSPost2010PropOp41
 70
     1
102
RTVSPost2010Prop42
 90
       50
102
RTVSPost2010PropOp42
 70
     1
102
RTVSPost2010Prop43
 90
        3
102
RTVSPost2010PropOp43
 70
     1
102
RTVSPost2010Prop44ColorIndex
 90
        5
102
RTVSPost2010Prop44ColorRGB
 90
      255
102
RTVSPost2010PropOp44
 70
     1
102
RTVSPost2010Prop45
280
     0
102
RTVSPost2010PropOp45
 70
     1
102
RTVSPost2010Prop46
 90
       50
102
RTVSPost2010PropOp46
 70
     1
102
RTVSPost2010Prop47
 90
       50
102
RTVSPost2010PropOp47
 70
     1
102
RTVSPost2010Prop48
 90
       50
102
RTVSPost2010PropOp48
 70
     1
102
RTVSPost2010Prop49
280
     0
102
RTVSPost2010PropOp49
 70
     1
102
RTVSPost2010Prop50
 90
       50
102
RTVSPost2010PropOp50
 70
     1
102
RTVSPost2010Prop51ColorIndex
 90
      256
102
RTVSPost2010Prop51ColorRGB
 90
-16777216
102
RTVSPost2010PropOp51
 70
     0
102
RTVSPost2010Prop52
140
1.0
102
RTVSPost2010PropOp52
 70
     0
102
RTVSPost2010Prop53
 90
        2
102
RTVSPost2010PropOp53
 70
     1
102
RTVSPost2010Prop54
  1
strokes_ogs.tif
102
RTVSPost2010PropOp54
 70
     1
102
RTVSPost2010Prop55
280
     0
102
RTVSPost2010PropOp55
 70
     1
102
RTVSPost2010Prop56
140
1.0
102
RTVSPost2010PropOp56
 70
     1
102
RTVSPost2010Prop57
140
1.0
102
RTVSPost2010PropOp57
 70
     1
102
RTVSPropertyOp0
 70
     1
102
RTVSPropertyOp1
 70
     1
102
RTVSPropertyOp2
 70
     1
102
RTVSPropertyOp3
 70
     1
102
RTVSPropertyOp4
 70
     1
102
RTVSPropertyOp5
 70
     1
102
RTVSPropertyOp6
 70
     1
102
RTVSPropertyOp7
 70
     1
102
RTVSPropertyOp8
 70
     1
102
RTVSPropertyOp9
 70
     1
102
RTVSPropertyOp10
 70
     1
102
RTVSPropertyOp11
 70
     1
102
RTVSPropertyOp12
 70
     1
102
RTVSPropertyOp13
 70
     1
102
RTVSPropertyOp14
 70
     1
102
RTVSPropertyOp15
 70
     1
102
RTVSPropertyOp16
 70
     1
102
RTVSPropertyOp17
 70
     1
102
RTVSPropertyOp18
 70
     1
102
RTVSPropertyOp19
 70
     1
102
RTVSPropertyOp20
 70
     1
102
RTVSPropertyOp21
 70
     1
102
RTVSPropertyOp22
 70
     1
102
RTVSPropertyOp23
 70
     1
102
RTVSPropertyOp24
 70
     1
102
RTVSPropertyOp25
 70
     1
102
RTVSPropertyOp26
 70
     1
102
RTVSPropertyOp27
 70
     1
102
RTVSPropertyOp28
 70
     1
102
RTVSPropertyOp29
 70
     1
102
RTVSPropertyOp30
 70
     1
102
RTVSPropertyOp31
 70
     1
102
RTVSPropertyOp32
 70
     1
102
RTVSPropertyOp33
 70
     1
102
RTVSPropertyOp34
 70
     1
102
RTVSPropertyOp35
 70
     1
102
RTVSPropertyOp36
 70
     1
102
RTVSPropertyOp37
 70
     1
102
RTVSPropertyOp38
 70
     1
102
RTVSPropertyOp39
 70
     1
102
RTVSPropertyOp40
 70
     1
102
RTVSPropertyOp41
 70
     1
102
RTVSPropertyOp42
 70
     1
102
RTVSPropertyOp43
 70
     1
102
RTVSPropertyOp44
 70
     1
102
RTVSPropertyOp45
 70
     1
102
RTVSPropertyOp46
 70
     1
102
RTVSPropertyOp47
 70
     1
102
RTVSPropertyOp48
 70
     1
102
RTVSPropertyOp49
 70
     1
102
RTVSPropertyOp50
 70
     1
102
RTVSPropertyOp51
 70
     0
102
RTVSPropertyOp52
 70
     0
102
RTVSPropertyOp53
 70
     1
102
RTVSPropertyOp54
 70
     1
102
RTVSPropertyOp55
 70
     1
102
RTVSPropertyOp56
 70
     1
102
RTVSPropertyOp57
 70
     1
102
RTVSPropertyOp58
 70
     1
102
RTVSPropertyOp59
 70
     1
102
RTVSPropertyOp60
 70
     1
102
RTVSPropertyOp61
 70
     1
102
RTVSPropertyOp62
 70
     1
  0
XRECORD
  5
1EC6
102
{ACAD_REACTORS
330
1EC5
102
}
330
1EC5
100
AcDbXrecord
280
     1
102
RTVSPost2010Prop28
280
     0
102
RTVSPost2010PropOp28
 70
     1
102
RTVSPost2010Prop29
280
     1
102
RTVSPost2010PropOp29
 70
     1
102
RTVSPost2010Prop30
280
     1
102
RTVSPost2010PropOp30
 70
     1
102
RTVSPost2010Prop31
280
     0
102
RTVSPost2010PropOp31
 70
     1
102
RTVSPost2010Prop32
280
     0
102
RTVSPost2010PropOp32
 70
     1
102
RTVSPost2010Prop33
280
     0
102
RTVSPost2010PropOp33
 70
     1
102
RTVSPost2010Prop34
280
     0
102
RTVSPost2010PropOp34
 70
     1
102
RTVSPost2010Prop35
280
     0
102
RTVSPost2010PropOp35
 70
     1
102
RTVSPost2010Prop36
280
     0
102
RTVSPost2010PropOp36
 70
     1
102
RTVSPost2010Prop37
 90
       50
102
RTVSPost2010PropOp37
 70
     1
102
RTVSPost2010Prop38
140
0.0
102
RTVSPost2010PropOp38
 70
     1
102
RTVSPost2010Prop39
140
1.0
102
RTVSPost2010PropOp39
 70
     1
102
RTVSPost2010Prop40
 90
        0
102
RTVSPost2010PropOp40
 70
     1
102
RTVSPost2010Prop41ColorIndex
 90
       18
102
RTVSPost2010Prop41ColorRGB
 90
        0
102
RTVSPost2010PropOp41
 70
     1
102
RTVSPost2010Prop42
 90
       50
102
RTVSPost2010PropOp42
 70
     1
102
RTVSPost2010Prop43
 90
        3
102
RTVSPost2010PropOp43
 70
     1
102
RTVSPost2010Prop44ColorIndex
 90
        5
102
RTVSPost2010Prop44ColorRGB
 90
      255
102
RTVSPost2010PropOp44
 70
     1
102
RTVSPost2010Prop45
280
     0
102
RTVSPost2010PropOp45
 70
     1
102
RTVSPost2010Prop46
 90
       50
102
RTVSPost2010PropOp46
 70
     1
102
RTVSPost2010Prop47
 90
       50
102
RTVSPost2010PropOp47
 70
     1
102
RTVSPost2010Prop48
 90
       50
102
RTVSPost2010PropOp48
 70
     1
102
RTVSPost2010Prop49
280
     0
102
RTVSPost2010PropOp49
 70
     1
102
RTVSPost2010Prop50
 90
       50
102
RTVSPost2010PropOp50
 70
     1
102
RTVSPost2010Prop51ColorIndex
 90
      256
102
RTVSPost2010Prop51ColorRGB
 90
-16777216
102
RTVSPost2010PropOp51
 70
     0
102
RTVSPost2010Prop52
140
1.0
102
RTVSPost2010PropOp52
 70
     0
102
RTVSPost2010Prop53
 90
        2
102
RTVSPost2010PropOp53
 70
     1
102
RTVSPost2010Prop54
  1
strokes_ogs.tif
102
RTVSPost2010PropOp54
 70
     1
102
RTVSPost2010Prop55
280
     0
102
RTVSPost2010PropOp55
 70
     1
102
RTVSPost2010Prop56
140
1.0
102
RTVSPost2010PropOp56
 70
     1
102
RTVSPost2010Prop57
140
1.0
102
RTVSPost2010PropOp57
 70
     1
102
RTVSPropertyOp0
 70
     1
102
RTVSPropertyOp1
 70
     1
102
RTVSPropertyOp2
 70
     1
102
RTVSPropertyOp3
 70
     1
102
RTVSPropertyOp4
 70
     1
102
RTVSPropertyOp5
 70
     1
102
RTVSPropertyOp6
 70
     1
102
RTVSPropertyOp7
 70
     1
102
RTVSPropertyOp8
 70
     1
102
RTVSPropertyOp9
 70
     1
102
RTVSPropertyOp10
 70
     1
102
RTVSPropertyOp11
 70
     1
102
RTVSPropertyOp12
 70
     1
102
RTVSPropertyOp13
 70
     1
102
RTVSPropertyOp14
 70
     1
102
RTVSPropertyOp15
 70
     1
102
RTVSPropertyOp16
 70
     1
102
RTVSPropertyOp17
 70
     1
102
RTVSPropertyOp18
 70
     1
102
RTVSPropertyOp19
 70
     1
102
RTVSPropertyOp20
 70
     1
102
RTVSPropertyOp21
 70
     1
102
RTVSPropertyOp22
 70
     1
102
RTVSPropertyOp23
 70
     1
102
RTVSPropertyOp24
 70
     1
102
RTVSPropertyOp25
 70
     1
102
RTVSPropertyOp26
 70
     1
102
RTVSPropertyOp27
 70
     1
102
RTVSPropertyOp28
 70
     1
102
RTVSPropertyOp29
 70
     1
102
RTVSPropertyOp30
 70
     1
102
RTVSPropertyOp31
 70
     1
102
RTVSPropertyOp32
 70
     1
102
RTVSPropertyOp33
 70
     1
102
RTVSPropertyOp34
 70
     1
102
RTVSPropertyOp35
 70
     1
102
RTVSPropertyOp36
 70
     1
102
RTVSPropertyOp37
 70
     1
102
RTVSPropertyOp38
 70
     1
102
RTVSPropertyOp39
 70
     1
102
RTVSPropertyOp40
 70
     1
102
RTVSPropertyOp41
 70
     1
102
RTVSPropertyOp42
 70
     1
102
RTVSPropertyOp43
 70
     1
102
RTVSPropertyOp44
 70
     1
102
RTVSPropertyOp45
 70
     1
102
RTVSPropertyOp46
 70
     1
102
RTVSPropertyOp47
 70
     1
102
RTVSPropertyOp48
 70
     1
102
RTVSPropertyOp49
 70
     1
102
RTVSPropertyOp50
 70
     1
102
RTVSPropertyOp51
 70
     0
102
RTVSPropertyOp52
 70
     0
102
RTVSPropertyOp53
 70
     1
102
RTVSPropertyOp54
 70
     1
102
RTVSPropertyOp55
 70
     1
102
RTVSPropertyOp56
 70
     1
102
RTVSPropertyOp57
 70
     1
102
RTVSPropertyOp58
 70
     1
102
RTVSPropertyOp59
 70
     1
102
RTVSPropertyOp60
 70
     1
102
RTVSPropertyOp61
 70
     1
102
RTVSPropertyOp62
 70
     1
  0
XRECORD
  5
1EC8
102
{ACAD_REACTORS
330
1EC7
102
}
330
1EC7
100
AcDbXrecord
280
     1
102
RTVSPost2010Prop28
280
     0
102
RTVSPost2010PropOp28
 70
     1
102
RTVSPost2010Prop29
280
     1
102
RTVSPost2010PropOp29
 70
     1
102
RTVSPost2010Prop30
280
     1
102
RTVSPost2010PropOp30
 70
     1
102
RTVSPost2010Prop31
280
     0
102
RTVSPost2010PropOp31
 70
     1
102
RTVSPost2010Prop32
280
     0
102
RTVSPost2010PropOp32
 70
     1
102
RTVSPost2010Prop33
280
     0
102
RTVSPost2010PropOp33
 70
     1
102
RTVSPost2010Prop34
280
     0
102
RTVSPost2010PropOp34
 70
     1
102
RTVSPost2010Prop35
280
     0
102
RTVSPost2010PropOp35
 70
     1
102
RTVSPost2010Prop36
280
     0
102
RTVSPost2010PropOp36
 70
     1
102
RTVSPost2010Prop37
 90
       50
102
RTVSPost2010PropOp37
 70
     1
102
RTVSPost2010Prop38
140
0.0
102
RTVSPost2010PropOp38
 70
     1
102
RTVSPost2010Prop39
140
1.0
102
RTVSPost2010PropOp39
 70
     1
102
RTVSPost2010Prop40
 90
        0
102
RTVSPost2010PropOp40
 70
     1
102
RTVSPost2010Prop41ColorIndex
 90
       18
102
RTVSPost2010Prop41ColorRGB
 90
        0
102
RTVSPost2010PropOp41
 70
     1
102
RTVSPost2010Prop42
 90
       50
102
RTVSPost2010PropOp42
 70
     1
102
RTVSPost2010Prop43
 90
        3
102
RTVSPost2010PropOp43
 70
     1
102
RTVSPost2010Prop44ColorIndex
 90
        5
102
RTVSPost2010Prop44ColorRGB
 90
      255
102
RTVSPost2010PropOp44
 70
     1
102
RTVSPost2010Prop45
280
     0
102
RTVSPost2010PropOp45
 70
     1
102
RTVSPost2010Prop46
 90
       50
102
RTVSPost2010PropOp46
 70
     1
102
RTVSPost2010Prop47
 90
       50
102
RTVSPost2010PropOp47
 70
     1
102
RTVSPost2010Prop48
 90
       50
102
RTVSPost2010PropOp48
 70
     1
102
RTVSPost2010Prop49
280
     0
102
RTVSPost2010PropOp49
 70
     1
102
RTVSPost2010Prop50
 90
       50
102
RTVSPost2010PropOp50
 70
     1
102
RTVSPost2010Prop51ColorIndex
 90
      256
102
RTVSPost2010Prop51ColorRGB
 90
-16777216
102
RTVSPost2010PropOp51
 70
     0
102
RTVSPost2010Prop52
140
1.0
102
RTVSPost2010PropOp52
 70
     0
102
RTVSPost2010Prop53
 90
        2
102
RTVSPost2010PropOp53
 70
     1
102
RTVSPost2010Prop54
  1
strokes_ogs.tif
102
RTVSPost2010PropOp54
 70
     1
102
RTVSPost2010Prop55
280
     0
102
RTVSPost2010PropOp55
 70
     1
102
RTVSPost2010Prop56
140
1.0
102
RTVSPost2010PropOp56
 70
     1
102
RTVSPost2010Prop57
140
1.0
102
RTVSPost2010PropOp57
 70
     1
102
RTVSPropertyOp0
 70
     1
102
RTVSPropertyOp1
 70
     1
102
RTVSPropertyOp2
 70
     1
102
RTVSPropertyOp3
 70
     1
102
RTVSPropertyOp4
 70
     1
102
RTVSPropertyOp5
 70
     1
102
RTVSPropertyOp6
 70
     1
102
RTVSPropertyOp7
 70
     1
102
RTVSPropertyOp8
 70
     1
102
RTVSPropertyOp9
 70
     1
102
RTVSPropertyOp10
 70
     1
102
RTVSPropertyOp11
 70
     1
102
RTVSPropertyOp12
 70
     1
102
RTVSPropertyOp13
 70
     1
102
RTVSPropertyOp14
 70
     1
102
RTVSPropertyOp15
 70
     1
102
RTVSPropertyOp16
 70
     1
102
RTVSPropertyOp17
 70
     1
102
RTVSPropertyOp18
 70
     1
102
RTVSPropertyOp19
 70
     1
102
RTVSPropertyOp20
 70
     1
102
RTVSPropertyOp21
 70
     1
102
RTVSPropertyOp22
 70
     1
102
RTVSPropertyOp23
 70
     1
102
RTVSPropertyOp24
 70
     1
102
RTVSPropertyOp25
 70
     1
102
RTVSPropertyOp26
 70
     1
102
RTVSPropertyOp27
 70
     1
102
RTVSPropertyOp28
 70
     1
102
RTVSPropertyOp29
 70
     1
102
RTVSPropertyOp30
 70
     1
102
RTVSPropertyOp31
 70
     1
102
RTVSPropertyOp32
 70
     1
102
RTVSPropertyOp33
 70
     1
102
RTVSPropertyOp34
 70
     1
102
RTVSPropertyOp35
 70
     1
102
RTVSPropertyOp36
 70
     1
102
RTVSPropertyOp37
 70
     1
102
RTVSPropertyOp38
 70
     1
102
RTVSPropertyOp39
 70
     1
102
RTVSPropertyOp40
 70
     1
102
RTVSPropertyOp41
 70
     1
102
RTVSPropertyOp42
 70
     1
102
RTVSPropertyOp43
 70
     1
102
RTVSPropertyOp44
 70
     1
102
RTVSPropertyOp45
 70
     1
102
RTVSPropertyOp46
 70
     1
102
RTVSPropertyOp47
 70
     1
102
RTVSPropertyOp48
 70
     1
102
RTVSPropertyOp49
 70
     1
102
RTVSPropertyOp50
 70
     1
102
RTVSPropertyOp51
 70
     0
102
RTVSPropertyOp52
 70
     0
102
RTVSPropertyOp53
 70
     1
102
RTVSPropertyOp54
 70
     1
102
RTVSPropertyOp55
 70
     1
102
RTVSPropertyOp56
 70
     1
102
RTVSPropertyOp57
 70
     1
102
RTVSPropertyOp58
 70
     1
102
RTVSPropertyOp59
 70
     1
102
RTVSPropertyOp60
 70
     1
102
RTVSPropertyOp61
 70
     1
102
RTVSPropertyOp62
 70
     1
  0
XRECORD
  5
1ECA
102
{ACAD_REACTORS
330
1EC9
102
}
330
1EC9
100
AcDbXrecord
280
     1
102
RTVSPost2010Prop28
280
     0
102
RTVSPost2010PropOp28
 70
     1
102
RTVSPost2010Prop29
280
     1
102
RTVSPost2010PropOp29
 70
     1
102
RTVSPost2010Prop30
280
     1
102
RTVSPost2010PropOp30
 70
     1
102
RTVSPost2010Prop31
280
     0
102
RTVSPost2010PropOp31
 70
     1
102
RTVSPost2010Prop32
280
     0
102
RTVSPost2010PropOp32
 70
     1
102
RTVSPost2010Prop33
280
     0
102
RTVSPost2010PropOp33
 70
     1
102
RTVSPost2010Prop34
280
     0
102
RTVSPost2010PropOp34
 70
     1
102
RTVSPost2010Prop35
280
     0
102
RTVSPost2010PropOp35
 70
     1
102
RTVSPost2010Prop36
280
     0
102
RTVSPost2010PropOp36
 70
     1
102
RTVSPost2010Prop37
 90
       50
102
RTVSPost2010PropOp37
 70
     1
102
RTVSPost2010Prop38
140
0.0
102
RTVSPost2010PropOp38
 70
     1
102
RTVSPost2010Prop39
140
1.0
102
RTVSPost2010PropOp39
 70
     1
102
RTVSPost2010Prop40
 90
        0
102
RTVSPost2010PropOp40
 70
     1
102
RTVSPost2010Prop41ColorIndex
 90
       18
102
RTVSPost2010Prop41ColorRGB
 90
        0
102
RTVSPost2010PropOp41
 70
     1
102
RTVSPost2010Prop42
 90
       50
102
RTVSPost2010PropOp42
 70
     1
102
RTVSPost2010Prop43
 90
        3
102
RTVSPost2010PropOp43
 70
     1
102
RTVSPost2010Prop44ColorIndex
 90
        5
102
RTVSPost2010Prop44ColorRGB
 90
      255
102
RTVSPost2010PropOp44
 70
     1
102
RTVSPost2010Prop45
280
     0
102
RTVSPost2010PropOp45
 70
     1
102
RTVSPost2010Prop46
 90
       50
102
RTVSPost2010PropOp46
 70
     1
102
RTVSPost2010Prop47
 90
       50
102
RTVSPost2010PropOp47
 70
     1
102
RTVSPost2010Prop48
 90
       50
102
RTVSPost2010PropOp48
 70
     1
102
RTVSPost2010Prop49
280
     0
102
RTVSPost2010PropOp49
 70
     1
102
RTVSPost2010Prop50
 90
       50
102
RTVSPost2010PropOp50
 70
     1
102
RTVSPost2010Prop51ColorIndex
 90
      256
102
RTVSPost2010Prop51ColorRGB
 90
-16777216
102
RTVSPost2010PropOp51
 70
     0
102
RTVSPost2010Prop52
140
1.0
102
RTVSPost2010PropOp52
 70
     0
102
RTVSPost2010Prop53
 90
        2
102
RTVSPost2010PropOp53
 70
     1
102
RTVSPost2010Prop54
  1
strokes_ogs.tif
102
RTVSPost2010PropOp54
 70
     1
102
RTVSPost2010Prop55
280
     0
102
RTVSPost2010PropOp55
 70
     1
102
RTVSPost2010Prop56
140
1.0
102
RTVSPost2010PropOp56
 70
     1
102
RTVSPost2010Prop57
140
1.0
102
RTVSPost2010PropOp57
 70
     1
102
RTVSPropertyOp0
 70
     1
102
RTVSPropertyOp1
 70
     1
102
RTVSPropertyOp2
 70
     1
102
RTVSPropertyOp3
 70
     1
102
RTVSPropertyOp4
 70
     1
102
RTVSPropertyOp5
 70
     1
102
RTVSPropertyOp6
 70
     1
102
RTVSPropertyOp7
 70
     1
102
RTVSPropertyOp8
 70
     1
102
RTVSPropertyOp9
 70
     1
102
RTVSPropertyOp10
 70
     1
102
RTVSPropertyOp11
 70
     1
102
RTVSPropertyOp12
 70
     1
102
RTVSPropertyOp13
 70
     1
102
RTVSPropertyOp14
 70
     1
102
RTVSPropertyOp15
 70
     1
102
RTVSPropertyOp16
 70
     1
102
RTVSPropertyOp17
 70
     1
102
RTVSPropertyOp18
 70
     1
102
RTVSPropertyOp19
 70
     1
102
RTVSPropertyOp20
 70
     1
102
RTVSPropertyOp21
 70
     1
102
RTVSPropertyOp22
 70
     1
102
RTVSPropertyOp23
 70
     1
102
RTVSPropertyOp24
 70
     1
102
RTVSPropertyOp25
 70
     1
102
RTVSPropertyOp26
 70
     1
102
RTVSPropertyOp27
 70
     1
102
RTVSPropertyOp28
 70
     1
102
RTVSPropertyOp29
 70
     1
102
RTVSPropertyOp30
 70
     1
102
RTVSPropertyOp31
 70
     1
102
RTVSPropertyOp32
 70
     1
102
RTVSPropertyOp33
 70
     1
102
RTVSPropertyOp34
 70
     1
102
RTVSPropertyOp35
 70
     1
102
RTVSPropertyOp36
 70
     1
102
RTVSPropertyOp37
 70
     1
102
RTVSPropertyOp38
 70
     1
102
RTVSPropertyOp39
 70
     1
102
RTVSPropertyOp40
 70
     1
102
RTVSPropertyOp41
 70
     1
102
RTVSPropertyOp42
 70
     1
102
RTVSPropertyOp43
 70
     1
102
RTVSPropertyOp44
 70
     1
102
RTVSPropertyOp45
 70
     1
102
RTVSPropertyOp46
 70
     1
102
RTVSPropertyOp47
 70
     1
102
RTVSPropertyOp48
 70
     1
102
RTVSPropertyOp49
 70
     1
102
RTVSPropertyOp50
 70
     1
102
RTVSPropertyOp51
 70
     0
102
RTVSPropertyOp52
 70
     0
102
RTVSPropertyOp53
 70
     1
102
RTVSPropertyOp54
 70
     1
102
RTVSPropertyOp55
 70
     1
102
RTVSPropertyOp56
 70
     1
102
RTVSPropertyOp57
 70
     1
102
RTVSPropertyOp58
 70
     1
102
RTVSPropertyOp59
 70
     1
102
RTVSPropertyOp60
 70
     1
102
RTVSPropertyOp61
 70
     1
102
RTVSPropertyOp62
 70
     1
  0
XRECORD
  5
1ECC
102
{ACAD_REACTORS
330
1ECB
102
}
330
1ECB
100
AcDbXrecord
280
     1
102
RTVSPost2010Prop28
280
     0
102
RTVSPost2010PropOp28
 70
     1
102
RTVSPost2010Prop29
280
     1
102
RTVSPost2010PropOp29
 70
     1
102
RTVSPost2010Prop30
280
     1
102
RTVSPost2010PropOp30
 70
     1
102
RTVSPost2010Prop31
280
     0
102
RTVSPost2010PropOp31
 70
     1
102
RTVSPost2010Prop32
280
     0
102
RTVSPost2010PropOp32
 70
     1
102
RTVSPost2010Prop33
280
     0
102
RTVSPost2010PropOp33
 70
     1
102
RTVSPost2010Prop34
280
     0
102
RTVSPost2010PropOp34
 70
     1
102
RTVSPost2010Prop35
280
     0
102
RTVSPost2010PropOp35
 70
     1
102
RTVSPost2010Prop36
280
     0
102
RTVSPost2010PropOp36
 70
     1
102
RTVSPost2010Prop37
 90
       50
102
RTVSPost2010PropOp37
 70
     1
102
RTVSPost2010Prop38
140
0.0
102
RTVSPost2010PropOp38
 70
     1
102
RTVSPost2010Prop39
140
1.0
102
RTVSPost2010PropOp39
 70
     1
102
RTVSPost2010Prop40
 90
        0
102
RTVSPost2010PropOp40
 70
     1
102
RTVSPost2010Prop41ColorIndex
 90
       18
102
RTVSPost2010Prop41ColorRGB
 90
        0
102
RTVSPost2010PropOp41
 70
     1
102
RTVSPost2010Prop42
 90
       50
102
RTVSPost2010PropOp42
 70
     1
102
RTVSPost2010Prop43
 90
        3
102
RTVSPost2010PropOp43
 70
     1
102
RTVSPost2010Prop44ColorIndex
 90
        5
102
RTVSPost2010Prop44ColorRGB
 90
      255
102
RTVSPost2010PropOp44
 70
     1
102
RTVSPost2010Prop45
280
     0
102
RTVSPost2010PropOp45
 70
     1
102
RTVSPost2010Prop46
 90
       50
102
RTVSPost2010PropOp46
 70
     1
102
RTVSPost2010Prop47
 90
       50
102
RTVSPost2010PropOp47
 70
     1
102
RTVSPost2010Prop48
 90
       50
102
RTVSPost2010PropOp48
 70
     1
102
RTVSPost2010Prop49
280
     0
102
RTVSPost2010PropOp49
 70
     1
102
RTVSPost2010Prop50
 90
       50
102
RTVSPost2010PropOp50
 70
     1
102
RTVSPost2010Prop51ColorIndex
 90
      256
102
RTVSPost2010Prop51ColorRGB
 90
-16777216
102
RTVSPost2010PropOp51
 70
     0
102
RTVSPost2010Prop52
140
1.0
102
RTVSPost2010PropOp52
 70
     0
102
RTVSPost2010Prop53
 90
        2
102
RTVSPost2010PropOp53
 70
     1
102
RTVSPost2010Prop54
  1
strokes_ogs.tif
102
RTVSPost2010PropOp54
 70
     1
102
RTVSPost2010Prop55
280
     0
102
RTVSPost2010PropOp55
 70
     1
102
RTVSPost2010Prop56
140
1.0
102
RTVSPost2010PropOp56
 70
     1
102
RTVSPost2010Prop57
140
1.0
102
RTVSPost2010PropOp57
 70
     1
102
RTVSPropertyOp0
 70
     1
102
RTVSPropertyOp1
 70
     1
102
RTVSPropertyOp2
 70
     1
102
RTVSPropertyOp3
 70
     1
102
RTVSPropertyOp4
 70
     1
102
RTVSPropertyOp5
 70
     1
102
RTVSPropertyOp6
 70
     1
102
RTVSPropertyOp7
 70
     1
102
RTVSPropertyOp8
 70
     1
102
RTVSPropertyOp9
 70
     1
102
RTVSPropertyOp10
 70
     1
102
RTVSPropertyOp11
 70
     1
102
RTVSPropertyOp12
 70
     1
102
RTVSPropertyOp13
 70
     1
102
RTVSPropertyOp14
 70
     1
102
RTVSPropertyOp15
 70
     1
102
RTVSPropertyOp16
 70
     1
102
RTVSPropertyOp17
 70
     1
102
RTVSPropertyOp18
 70
     1
102
RTVSPropertyOp19
 70
     1
102
RTVSPropertyOp20
 70
     1
102
RTVSPropertyOp21
 70
     1
102
RTVSPropertyOp22
 70
     1
102
RTVSPropertyOp23
 70
     1
102
RTVSPropertyOp24
 70
     1
102
RTVSPropertyOp25
 70
     1
102
RTVSPropertyOp26
 70
     1
102
RTVSPropertyOp27
 70
     1
102
RTVSPropertyOp28
 70
     1
102
RTVSPropertyOp29
 70
     1
102
RTVSPropertyOp30
 70
     1
102
RTVSPropertyOp31
 70
     1
102
RTVSPropertyOp32
 70
     1
102
RTVSPropertyOp33
 70
     1
102
RTVSPropertyOp34
 70
     1
102
RTVSPropertyOp35
 70
     1
102
RTVSPropertyOp36
 70
     1
102
RTVSPropertyOp37
 70
     1
102
RTVSPropertyOp38
 70
     1
102
RTVSPropertyOp39
 70
     1
102
RTVSPropertyOp40
 70
     1
102
RTVSPropertyOp41
 70
     1
102
RTVSPropertyOp42
 70
     1
102
RTVSPropertyOp43
 70
     1
102
RTVSPropertyOp44
 70
     1
102
RTVSPropertyOp45
 70
     1
102
RTVSPropertyOp46
 70
     1
102
RTVSPropertyOp47
 70
     1
102
RTVSPropertyOp48
 70
     1
102
RTVSPropertyOp49
 70
     1
102
RTVSPropertyOp50
 70
     1
102
RTVSPropertyOp51
 70
     0
102
RTVSPropertyOp52
 70
     0
102
RTVSPropertyOp53
 70
     1
102
RTVSPropertyOp54
 70
     1
102
RTVSPropertyOp55
 70
     1
102
RTVSPropertyOp56
 70
     1
102
RTVSPropertyOp57
 70
     1
102
RTVSPropertyOp58
 70
     1
102
RTVSPropertyOp59
 70
     1
102
RTVSPropertyOp60
 70
     1
102
RTVSPropertyOp61
 70
     1
102
RTVSPropertyOp62
 70
     1
  0
XRECORD
  5
1EE8
102
{ACAD_REACTORS
330
1EE7
102
}
330
1EE7
100
AcDbXrecord
280
     1
102
RTVSPost2010Prop28
280
     0
102
RTVSPost2010PropOp28
 70
     1
102
RTVSPost2010Prop29
280
     1
102
RTVSPost2010PropOp29
 70
     1
102
RTVSPost2010Prop30
280
     1
102
RTVSPost2010PropOp30
 70
     1
102
RTVSPost2010Prop31
280
     0
102
RTVSPost2010PropOp31
 70
     1
102
RTVSPost2010Prop32
280
     0
102
RTVSPost2010PropOp32
 70
     1
102
RTVSPost2010Prop33
280
     0
102
RTVSPost2010PropOp33
 70
     1
102
RTVSPost2010Prop34
280
     0
102
RTVSPost2010PropOp34
 70
     1
102
RTVSPost2010Prop35
280
     0
102
RTVSPost2010PropOp35
 70
     1
102
RTVSPost2010Prop36
280
     0
102
RTVSPost2010PropOp36
 70
     1
102
RTVSPost2010Prop37
 90
       50
102
RTVSPost2010PropOp37
 70
     1
102
RTVSPost2010Prop38
140
0.0
102
RTVSPost2010PropOp38
 70
     1
102
RTVSPost2010Prop39
140
1.0
102
RTVSPost2010PropOp39
 70
     1
102
RTVSPost2010Prop40
 90
        0
102
RTVSPost2010PropOp40
 70
     1
102
RTVSPost2010Prop41ColorIndex
 90
       18
102
RTVSPost2010Prop41ColorRGB
 90
        0
102
RTVSPost2010PropOp41
 70
     1
102
RTVSPost2010Prop42
 90
       50
102
RTVSPost2010PropOp42
 70
     1
102
RTVSPost2010Prop43
 90
        3
102
RTVSPost2010PropOp43
 70
     1
102
RTVSPost2010Prop44ColorIndex
 90
        5
102
RTVSPost2010Prop44ColorRGB
 90
      255
102
RTVSPost2010PropOp44
 70
     1
102
RTVSPost2010Prop45
280
     0
102
RTVSPost2010PropOp45
 70
     1
102
RTVSPost2010Prop46
 90
       50
102
RTVSPost2010PropOp46
 70
     1
102
RTVSPost2010Prop47
 90
       50
102
RTVSPost2010PropOp47
 70
     1
102
RTVSPost2010Prop48
 90
       50
102
RTVSPost2010PropOp48
 70
     1
102
RTVSPost2010Prop49
280
     0
102
RTVSPost2010PropOp49
 70
     1
102
RTVSPost2010Prop50
 90
       50
102
RTVSPost2010PropOp50
 70
     1
102
RTVSPost2010Prop51ColorIndex
 90
      256
102
RTVSPost2010Prop51ColorRGB
 90
-16777216
102
RTVSPost2010PropOp51
 70
     0
102
RTVSPost2010Prop52
140
1.0
102
RTVSPost2010PropOp52
 70
     0
102
RTVSPost2010Prop53
 90
        2
102
RTVSPost2010PropOp53
 70
     1
102
RTVSPost2010Prop54
  1
strokes_ogs.tif
102
RTVSPost2010PropOp54
 70
     1
102
RTVSPost2010Prop55
280
     0
102
RTVSPost2010PropOp55
 70
     1
102
RTVSPost2010Prop56
140
1.0
102
RTVSPost2010PropOp56
 70
     1
102
RTVSPost2010Prop57
140
1.0
102
RTVSPost2010PropOp57
 70
     1
102
RTVSPropertyOp0
 70
     1
102
RTVSPropertyOp1
 70
     1
102
RTVSPropertyOp2
 70
     1
102
RTVSPropertyOp3
 70
     1
102
RTVSPropertyOp4
 70
     1
102
RTVSPropertyOp5
 70
     1
102
RTVSPropertyOp6
 70
     1
102
RTVSPropertyOp7
 70
     1
102
RTVSPropertyOp8
 70
     1
102
RTVSPropertyOp9
 70
     1
102
RTVSPropertyOp10
 70
     1
102
RTVSPropertyOp11
 70
     1
102
RTVSPropertyOp12
 70
     1
102
RTVSPropertyOp13
 70
     1
102
RTVSPropertyOp14
 70
     1
102
RTVSPropertyOp15
 70
     1
102
RTVSPropertyOp16
 70
     1
102
RTVSPropertyOp17
 70
     1
102
RTVSPropertyOp18
 70
     1
102
RTVSPropertyOp19
 70
     1
102
RTVSPropertyOp20
 70
     1
102
RTVSPropertyOp21
 70
     1
102
RTVSPropertyOp22
 70
     1
102
RTVSPropertyOp23
 70
     1
102
RTVSPropertyOp24
 70
     1
102
RTVSPropertyOp25
 70
     1
102
RTVSPropertyOp26
 70
     1
102
RTVSPropertyOp27
 70
     1
102
RTVSPropertyOp28
 70
     1
102
RTVSPropertyOp29
 70
     1
102
RTVSPropertyOp30
 70
     1
102
RTVSPropertyOp31
 70
     1
102
RTVSPropertyOp32
 70
     1
102
RTVSPropertyOp33
 70
     1
102
RTVSPropertyOp34
 70
     1
102
RTVSPropertyOp35
 70
     1
102
RTVSPropertyOp36
 70
     1
102
RTVSPropertyOp37
 70
     1
102
RTVSPropertyOp38
 70
     1
102
RTVSPropertyOp39
 70
     1
102
RTVSPropertyOp40
 70
     1
102
RTVSPropertyOp41
 70
     1
102
RTVSPropertyOp42
 70
     1
102
RTVSPropertyOp43
 70
     1
102
RTVSPropertyOp44
 70
     1
102
RTVSPropertyOp45
 70
     1
102
RTVSPropertyOp46
 70
     1
102
RTVSPropertyOp47
 70
     1
102
RTVSPropertyOp48
 70
     1
102
RTVSPropertyOp49
 70
     1
102
RTVSPropertyOp50
 70
     1
102
RTVSPropertyOp51
 70
     0
102
RTVSPropertyOp52
 70
     0
102
RTVSPropertyOp53
 70
     1
102
RTVSPropertyOp54
 70
     1
102
RTVSPropertyOp55
 70
     1
102
RTVSPropertyOp56
 70
     1
102
RTVSPropertyOp57
 70
     1
102
RTVSPropertyOp58
 70
     1
102
RTVSPropertyOp59
 70
     1
102
RTVSPropertyOp60
 70
     1
102
RTVSPropertyOp61
 70
     1
102
RTVSPropertyOp62
 70
     1
  0
XRECORD
  5
1EF4
102
{ACAD_REACTORS
330
1EF3
102
}
330
1EF3
100
AcDbXrecord
280
     1
102
RTVSPost2010Prop28
280
     0
102
RTVSPost2010PropOp28
 70
     1
102
RTVSPost2010Prop29
280
     1
102
RTVSPost2010PropOp29
 70
     1
102
RTVSPost2010Prop30
280
     1
102
RTVSPost2010PropOp30
 70
     1
102
RTVSPost2010Prop31
280
     0
102
RTVSPost2010PropOp31
 70
     1
102
RTVSPost2010Prop32
280
     0
102
RTVSPost2010PropOp32
 70
     1
102
RTVSPost2010Prop33
280
     0
102
RTVSPost2010PropOp33
 70
     1
102
RTVSPost2010Prop34
280
     0
102
RTVSPost2010PropOp34
 70
     1
102
RTVSPost2010Prop35
280
     0
102
RTVSPost2010PropOp35
 70
     1
102
RTVSPost2010Prop36
280
     0
102
RTVSPost2010PropOp36
 70
     1
102
RTVSPost2010Prop37
 90
       50
102
RTVSPost2010PropOp37
 70
     0
102
RTVSPost2010Prop38
140
0.0
102
RTVSPost2010PropOp38
 70
     0
102
RTVSPost2010Prop39
140
1.0
102
RTVSPost2010PropOp39
 70
     0
102
RTVSPost2010Prop40
 90
        0
102
RTVSPost2010PropOp40
 70
     0
102
RTVSPost2010Prop41ColorIndex
 90
       18
102
RTVSPost2010Prop41ColorRGB
 90
        0
102
RTVSPost2010PropOp41
 70
     0
102
RTVSPost2010Prop42
 90
       50
102
RTVSPost2010PropOp42
 70
     0
102
RTVSPost2010Prop43
 90
        3
102
RTVSPost2010PropOp43
 70
     0
102
RTVSPost2010Prop44ColorIndex
 90
        5
102
RTVSPost2010Prop44ColorRGB
 90
      255
102
RTVSPost2010PropOp44
 70
     0
102
RTVSPost2010Prop45
280
     0
102
RTVSPost2010PropOp45
 70
     1
102
RTVSPost2010Prop46
 90
       50
102
RTVSPost2010PropOp46
 70
     0
102
RTVSPost2010Prop47
 90
       50
102
RTVSPost2010PropOp47
 70
     0
102
RTVSPost2010Prop48
 90
       50
102
RTVSPost2010PropOp48
 70
     0
102
RTVSPost2010Prop49
280
     0
102
RTVSPost2010PropOp49
 70
     1
102
RTVSPost2010Prop50
 90
       50
102
RTVSPost2010PropOp50
 70
     0
102
RTVSPost2010Prop51ColorIndex
 90
      256
102
RTVSPost2010Prop51ColorRGB
 90
-16777216
102
RTVSPost2010PropOp51
 70
     0
102
RTVSPost2010Prop52
140
1.0
102
RTVSPost2010PropOp52
 70
     0
102
RTVSPost2010Prop53
 90
        2
102
RTVSPost2010PropOp53
 70
     0
102
RTVSPost2010Prop54
  1
strokes_ogs.tif
102
RTVSPost2010PropOp54
 70
     0
102
RTVSPost2010Prop55
280
     0
102
RTVSPost2010PropOp55
 70
     1
102
RTVSPost2010Prop56
140
1.0
102
RTVSPost2010PropOp56
 70
     0
102
RTVSPost2010Prop57
140
1.0
102
RTVSPost2010PropOp57
 70
     0
102
RTVSPropertyOp0
 70
     0
102
RTVSPropertyOp1
 70
     0
102
RTVSPropertyOp2
 70
     0
102
RTVSPropertyOp3
 70
     0
102
RTVSPropertyOp4
 70
     0
102
RTVSPropertyOp5
 70
     0
102
RTVSPropertyOp6
 70
     0
102
RTVSPropertyOp7
 70
     0
102
RTVSPropertyOp8
 70
     0
102
RTVSPropertyOp9
 70
     0
102
RTVSPropertyOp10
 70
     0
102
RTVSPropertyOp11
 70
     0
102
RTVSPropertyOp12
 70
     0
102
RTVSPropertyOp13
 70
     0
102
RTVSPropertyOp14
 70
     2
102
RTVSPropertyOp15
 70
     0
102
RTVSPropertyOp16
 70
     0
102
RTVSPropertyOp17
 70
     0
102
RTVSPropertyOp18
 70
     0
102
RTVSPropertyOp19
 70
     0
102
RTVSPropertyOp20
 70
     0
102
RTVSPropertyOp21
 70
     0
102
RTVSPropertyOp22
 70
     0
102
RTVSPropertyOp23
 70
     0
102
RTVSPropertyOp24
 70
     0
102
RTVSPropertyOp25
 70
     0
102
RTVSPropertyOp26
 70
     0
102
RTVSPropertyOp27
 70
     0
102
RTVSPropertyOp28
 70
     1
102
RTVSPropertyOp29
 70
     1
102
RTVSPropertyOp30
 70
     1
102
RTVSPropertyOp31
 70
     1
102
RTVSPropertyOp32
 70
     1
102
RTVSPropertyOp33
 70
     1
102
RTVSPropertyOp34
 70
     1
102
RTVSPropertyOp35
 70
     1
102
RTVSPropertyOp36
 70
     1
102
RTVSPropertyOp37
 70
     0
102
RTVSPropertyOp38
 70
     0
102
RTVSPropertyOp39
 70
     0
102
RTVSPropertyOp40
 70
     0
102
RTVSPropertyOp41
 70
     0
102
RTVSPropertyOp42
 70
     0
102
RTVSPropertyOp43
 70
     0
102
RTVSPropertyOp44
 70
     0
102
RTVSPropertyOp45
 70
     1
102
RTVSPropertyOp46
 70
     0
102
RTVSPropertyOp47
 70
     0
102
RTVSPropertyOp48
 70
     0
102
RTVSPropertyOp49
 70
     1
102
RTVSPropertyOp50
 70
     0
102
RTVSPropertyOp51
 70
     0
102
RTVSPropertyOp52
 70
     0
102
RTVSPropertyOp53
 70
     0
102
RTVSPropertyOp54
 70
     0
102
RTVSPropertyOp55
 70
     1
102
RTVSPropertyOp56
 70
     0
102
RTVSPropertyOp57
 70
     0
102
RTVSPropertyOp58
 70
     1
102
RTVSPropertyOp59
 70
     1
102
RTVSPropertyOp60
 70
     1
102
RTVSPropertyOp61
 70
     1
102
RTVSPropertyOp62
 70
     1
  0
XRECORD
  5
1EE0
102
{ACAD_REACTORS
330
1EDF
102
}
330
1EDF
100
AcDbXrecord
280
     1
102
RTVSPost2010Prop28
280
     0
102
RTVSPost2010PropOp28
 70
     1
102
RTVSPost2010Prop29
280
     1
102
RTVSPost2010PropOp29
 70
     1
102
RTVSPost2010Prop30
280
     1
102
RTVSPost2010PropOp30
 70
     1
102
RTVSPost2010Prop31
280
     0
102
RTVSPost2010PropOp31
 70
     1
102
RTVSPost2010Prop32
280
     0
102
RTVSPost2010PropOp32
 70
     1
102
RTVSPost2010Prop33
280
     0
102
RTVSPost2010PropOp33
 70
     1
102
RTVSPost2010Prop34
280
     0
102
RTVSPost2010PropOp34
 70
     1
102
RTVSPost2010Prop35
280
     0
102
RTVSPost2010PropOp35
 70
     1
102
RTVSPost2010Prop36
280
     0
102
RTVSPost2010PropOp36
 70
     1
102
RTVSPost2010Prop37
 90
       50
102
RTVSPost2010PropOp37
 70
     1
102
RTVSPost2010Prop38
140
0.0
102
RTVSPost2010PropOp38
 70
     1
102
RTVSPost2010Prop39
140
1.0
102
RTVSPost2010PropOp39
 70
     1
102
RTVSPost2010Prop40
 90
        0
102
RTVSPost2010PropOp40
 70
     1
102
RTVSPost2010Prop41ColorIndex
 90
       18
102
RTVSPost2010Prop41ColorRGB
 90
        0
102
RTVSPost2010PropOp41
 70
     1
102
RTVSPost2010Prop42
 90
       50
102
RTVSPost2010PropOp42
 70
     1
102
RTVSPost2010Prop43
 90
        3
102
RTVSPost2010PropOp43
 70
     1
102
RTVSPost2010Prop44ColorIndex
 90
        5
102
RTVSPost2010Prop44ColorRGB
 90
      255
102
RTVSPost2010PropOp44
 70
     1
102
RTVSPost2010Prop45
280
     0
102
RTVSPost2010PropOp45
 70
     1
102
RTVSPost2010Prop46
 90
       50
102
RTVSPost2010PropOp46
 70
     1
102
RTVSPost2010Prop47
 90
       50
102
RTVSPost2010PropOp47
 70
     1
102
RTVSPost2010Prop48
 90
       50
102
RTVSPost2010PropOp48
 70
     1
102
RTVSPost2010Prop49
280
     0
102
RTVSPost2010PropOp49
 70
     1
102
RTVSPost2010Prop50
 90
       50
102
RTVSPost2010PropOp50
 70
     1
102
RTVSPost2010Prop51ColorIndex
 90
      256
102
RTVSPost2010Prop51ColorRGB
 90
-16777216
102
RTVSPost2010PropOp51
 70
     0
102
RTVSPost2010Prop52
140
1.0
102
RTVSPost2010PropOp52
 70
     0
102
RTVSPost2010Prop53
 90
        2
102
RTVSPost2010PropOp53
 70
     1
102
RTVSPost2010Prop54
  1
strokes_ogs.tif
102
RTVSPost2010PropOp54
 70
     1
102
RTVSPost2010Prop55
280
     0
102
RTVSPost2010PropOp55
 70
     1
102
RTVSPost2010Prop56
140
1.0
102
RTVSPost2010PropOp56
 70
     1
102
RTVSPost2010Prop57
140
1.0
102
RTVSPost2010PropOp57
 70
     1
102
RTVSPropertyOp0
 70
     1
102
RTVSPropertyOp1
 70
     1
102
RTVSPropertyOp2
 70
     1
102
RTVSPropertyOp3
 70
     1
102
RTVSPropertyOp4
 70
     1
102
RTVSPropertyOp5
 70
     1
102
RTVSPropertyOp6
 70
     1
102
RTVSPropertyOp7
 70
     1
102
RTVSPropertyOp8
 70
     1
102
RTVSPropertyOp9
 70
     1
102
RTVSPropertyOp10
 70
     1
102
RTVSPropertyOp11
 70
     1
102
RTVSPropertyOp12
 70
     1
102
RTVSPropertyOp13
 70
     1
102
RTVSPropertyOp14
 70
     1
102
RTVSPropertyOp15
 70
     1
102
RTVSPropertyOp16
 70
     1
102
RTVSPropertyOp17
 70
     1
102
RTVSPropertyOp18
 70
     1
102
RTVSPropertyOp19
 70
     1
102
RTVSPropertyOp20
 70
     1
102
RTVSPropertyOp21
 70
     1
102
RTVSPropertyOp22
 70
     1
102
RTVSPropertyOp23
 70
     1
102
RTVSPropertyOp24
 70
     1
102
RTVSPropertyOp25
 70
     1
102
RTVSPropertyOp26
 70
     1
102
RTVSPropertyOp27
 70
     1
102
RTVSPropertyOp28
 70
     1
102
RTVSPropertyOp29
 70
     1
102
RTVSPropertyOp30
 70
     1
102
RTVSPropertyOp31
 70
     1
102
RTVSPropertyOp32
 70
     1
102
RTVSPropertyOp33
 70
     1
102
RTVSPropertyOp34
 70
     1
102
RTVSPropertyOp35
 70
     1
102
RTVSPropertyOp36
 70
     1
102
RTVSPropertyOp37
 70
     1
102
RTVSPropertyOp38
 70
     1
102
RTVSPropertyOp39
 70
     1
102
RTVSPropertyOp40
 70
     1
102
RTVSPropertyOp41
 70
     1
102
RTVSPropertyOp42
 70
     1
102
RTVSPropertyOp43
 70
     1
102
RTVSPropertyOp44
 70
     1
102
RTVSPropertyOp45
 70
     1
102
RTVSPropertyOp46
 70
     1
102
RTVSPropertyOp47
 70
     1
102
RTVSPropertyOp48
 70
     1
102
RTVSPropertyOp49
 70
     1
102
RTVSPropertyOp50
 70
     1
102
RTVSPropertyOp51
 70
     0
102
RTVSPropertyOp52
 70
     0
102
RTVSPropertyOp53
 70
     1
102
RTVSPropertyOp54
 70
     1
102
RTVSPropertyOp55
 70
     1
102
RTVSPropertyOp56
 70
     1
102
RTVSPropertyOp57
 70
     1
102
RTVSPropertyOp58
 70
     1
102
RTVSPropertyOp59
 70
     1
102
RTVSPropertyOp60
 70
     1
102
RTVSPropertyOp61
 70
     1
102
RTVSPropertyOp62
 70
     1
  0
XRECORD
  5
1EF6
102
{ACAD_REACTORS
330
1EF5
102
}
330
1EF5
100
AcDbXrecord
280
     1
102
RTVSPost2010Prop28
280
     0
102
RTVSPost2010PropOp28
 70
     1
102
RTVSPost2010Prop29
280
     1
102
RTVSPost2010PropOp29
 70
     1
102
RTVSPost2010Prop30
280
     1
102
RTVSPost2010PropOp30
 70
     1
102
RTVSPost2010Prop31
280
     0
102
RTVSPost2010PropOp31
 70
     1
102
RTVSPost2010Prop32
280
     0
102
RTVSPost2010PropOp32
 70
     1
102
RTVSPost2010Prop33
280
     0
102
RTVSPost2010PropOp33
 70
     1
102
RTVSPost2010Prop34
280
     0
102
RTVSPost2010PropOp34
 70
     1
102
RTVSPost2010Prop35
280
     0
102
RTVSPost2010PropOp35
 70
     1
102
RTVSPost2010Prop36
280
     0
102
RTVSPost2010PropOp36
 70
     1
102
RTVSPost2010Prop37
 90
       50
102
RTVSPost2010PropOp37
 70
     0
102
RTVSPost2010Prop38
140
0.0
102
RTVSPost2010PropOp38
 70
     0
102
RTVSPost2010Prop39
140
1.0
102
RTVSPost2010PropOp39
 70
     0
102
RTVSPost2010Prop40
 90
        0
102
RTVSPost2010PropOp40
 70
     0
102
RTVSPost2010Prop41ColorIndex
 90
       18
102
RTVSPost2010Prop41ColorRGB
 90
        0
102
RTVSPost2010PropOp41
 70
     0
102
RTVSPost2010Prop42
 90
       50
102
RTVSPost2010PropOp42
 70
     0
102
RTVSPost2010Prop43
 90
        3
102
RTVSPost2010PropOp43
 70
     0
102
RTVSPost2010Prop44ColorIndex
 90
        5
102
RTVSPost2010Prop44ColorRGB
 90
      255
102
RTVSPost2010PropOp44
 70
     0
102
RTVSPost2010Prop45
280
     0
102
RTVSPost2010PropOp45
 70
     1
102
RTVSPost2010Prop46
 90
       50
102
RTVSPost2010PropOp46
 70
     0
102
RTVSPost2010Prop47
 90
       50
102
RTVSPost2010PropOp47
 70
     0
102
RTVSPost2010Prop48
 90
       50
102
RTVSPost2010PropOp48
 70
     0
102
RTVSPost2010Prop49
280
     0
102
RTVSPost2010PropOp49
 70
     1
102
RTVSPost2010Prop50
 90
       50
102
RTVSPost2010PropOp50
 70
     0
102
RTVSPost2010Prop51ColorIndex
 90
      256
102
RTVSPost2010Prop51ColorRGB
 90
-16777216
102
RTVSPost2010PropOp51
 70
     0
102
RTVSPost2010Prop52
140
1.0
102
RTVSPost2010PropOp52
 70
     0
102
RTVSPost2010Prop53
 90
        2
102
RTVSPost2010PropOp53
 70
     0
102
RTVSPost2010Prop54
  1
strokes_ogs.tif
102
RTVSPost2010PropOp54
 70
     0
102
RTVSPost2010Prop55
280
     0
102
RTVSPost2010PropOp55
 70
     1
102
RTVSPost2010Prop56
140
1.0
102
RTVSPost2010PropOp56
 70
     0
102
RTVSPost2010Prop57
140
1.0
102
RTVSPost2010PropOp57
 70
     0
102
RTVSPropertyOp0
 70
     0
102
RTVSPropertyOp1
 70
     0
102
RTVSPropertyOp2
 70
     0
102
RTVSPropertyOp3
 70
     0
102
RTVSPropertyOp4
 70
     0
102
RTVSPropertyOp5
 70
     0
102
RTVSPropertyOp6
 70
     0
102
RTVSPropertyOp7
 70
     0
102
RTVSPropertyOp8
 70
     0
102
RTVSPropertyOp9
 70
     0
102
RTVSPropertyOp10
 70
     0
102
RTVSPropertyOp11
 70
     0
102
RTVSPropertyOp12
 70
     0
102
RTVSPropertyOp13
 70
     0
102
RTVSPropertyOp14
 70
     2
102
RTVSPropertyOp15
 70
     0
102
RTVSPropertyOp16
 70
     0
102
RTVSPropertyOp17
 70
     0
102
RTVSPropertyOp18
 70
     0
102
RTVSPropertyOp19
 70
     0
102
RTVSPropertyOp20
 70
     0
102
RTVSPropertyOp21
 70
     0
102
RTVSPropertyOp22
 70
     0
102
RTVSPropertyOp23
 70
     0
102
RTVSPropertyOp24
 70
     0
102
RTVSPropertyOp25
 70
     0
102
RTVSPropertyOp26
 70
     0
102
RTVSPropertyOp27
 70
     0
102
RTVSPropertyOp28
 70
     1
102
RTVSPropertyOp29
 70
     1
102
RTVSPropertyOp30
 70
     1
102
RTVSPropertyOp31
 70
     1
102
RTVSPropertyOp32
 70
     1
102
RTVSPropertyOp33
 70
     1
102
RTVSPropertyOp34
 70
     1
102
RTVSPropertyOp35
 70
     1
102
RTVSPropertyOp36
 70
     1
102
RTVSPropertyOp37
 70
     0
102
RTVSPropertyOp38
 70
     0
102
RTVSPropertyOp39
 70
     0
102
RTVSPropertyOp40
 70
     0
102
RTVSPropertyOp41
 70
     0
102
RTVSPropertyOp42
 70
     0
102
RTVSPropertyOp43
 70
     0
102
RTVSPropertyOp44
 70
     0
102
RTVSPropertyOp45
 70
     1
102
RTVSPropertyOp46
 70
     0
102
RTVSPropertyOp47
 70
     0
102
RTVSPropertyOp48
 70
     0
102
RTVSPropertyOp49
 70
     1
102
RTVSPropertyOp50
 70
     0
102
RTVSPropertyOp51
 70
     0
102
RTVSPropertyOp52
 70
     0
102
RTVSPropertyOp53
 70
     0
102
RTVSPropertyOp54
 70
     0
102
RTVSPropertyOp55
 70
     1
102
RTVSPropertyOp56
 70
     0
102
RTVSPropertyOp57
 70
     0
102
RTVSPropertyOp58
 70
     1
102
RTVSPropertyOp59
 70
     1
102
RTVSPropertyOp60
 70
     1
102
RTVSPropertyOp61
 70
     1
102
RTVSPropertyOp62
 70
     1
  0
XRECORD
  5
1ED8
102
{ACAD_REACTORS
330
1ED7
102
}
330
1ED7
100
AcDbXrecord
280
     1
102
RTVSPost2010Prop28
280
     0
102
RTVSPost2010PropOp28
 70
     1
102
RTVSPost2010Prop29
280
     1
102
RTVSPost2010PropOp29
 70
     1
102
RTVSPost2010Prop30
280
     1
102
RTVSPost2010PropOp30
 70
     1
102
RTVSPost2010Prop31
280
     0
102
RTVSPost2010PropOp31
 70
     1
102
RTVSPost2010Prop32
280
     0
102
RTVSPost2010PropOp32
 70
     1
102
RTVSPost2010Prop33
280
     0
102
RTVSPost2010PropOp33
 70
     1
102
RTVSPost2010Prop34
280
     0
102
RTVSPost2010PropOp34
 70
     1
102
RTVSPost2010Prop35
280
     0
102
RTVSPost2010PropOp35
 70
     1
102
RTVSPost2010Prop36
280
     0
102
RTVSPost2010PropOp36
 70
     1
102
RTVSPost2010Prop37
 90
       50
102
RTVSPost2010PropOp37
 70
     1
102
RTVSPost2010Prop38
140
0.0
102
RTVSPost2010PropOp38
 70
     1
102
RTVSPost2010Prop39
140
1.0
102
RTVSPost2010PropOp39
 70
     1
102
RTVSPost2010Prop40
 90
        0
102
RTVSPost2010PropOp40
 70
     1
102
RTVSPost2010Prop41ColorIndex
 90
       18
102
RTVSPost2010Prop41ColorRGB
 90
        0
102
RTVSPost2010PropOp41
 70
     1
102
RTVSPost2010Prop42
 90
       50
102
RTVSPost2010PropOp42
 70
     1
102
RTVSPost2010Prop43
 90
        3
102
RTVSPost2010PropOp43
 70
     1
102
RTVSPost2010Prop44ColorIndex
 90
        5
102
RTVSPost2010Prop44ColorRGB
 90
      255
102
RTVSPost2010PropOp44
 70
     1
102
RTVSPost2010Prop45
280
     0
102
RTVSPost2010PropOp45
 70
     1
102
RTVSPost2010Prop46
 90
       50
102
RTVSPost2010PropOp46
 70
     1
102
RTVSPost2010Prop47
 90
       50
102
RTVSPost2010PropOp47
 70
     1
102
RTVSPost2010Prop48
 90
       50
102
RTVSPost2010PropOp48
 70
     1
102
RTVSPost2010Prop49
280
     0
102
RTVSPost2010PropOp49
 70
     1
102
RTVSPost2010Prop50
 90
       50
102
RTVSPost2010PropOp50
 70
     1
102
RTVSPost2010Prop51ColorIndex
 90
      256
102
RTVSPost2010Prop51ColorRGB
 90
-16777216
102
RTVSPost2010PropOp51
 70
     0
102
RTVSPost2010Prop52
140
1.0
102
RTVSPost2010PropOp52
 70
     0
102
RTVSPost2010Prop53
 90
        2
102
RTVSPost2010PropOp53
 70
     1
102
RTVSPost2010Prop54
  1
strokes_ogs.tif
102
RTVSPost2010PropOp54
 70
     1
102
RTVSPost2010Prop55
280
     0
102
RTVSPost2010PropOp55
 70
     1
102
RTVSPost2010Prop56
140
1.0
102
RTVSPost2010PropOp56
 70
     1
102
RTVSPost2010Prop57
140
1.0
102
RTVSPost2010PropOp57
 70
     1
102
RTVSPropertyOp0
 70
     1
102
RTVSPropertyOp1
 70
     1
102
RTVSPropertyOp2
 70
     1
102
RTVSPropertyOp3
 70
     1
102
RTVSPropertyOp4
 70
     1
102
RTVSPropertyOp5
 70
     1
102
RTVSPropertyOp6
 70
     1
102
RTVSPropertyOp7
 70
     1
102
RTVSPropertyOp8
 70
     1
102
RTVSPropertyOp9
 70
     1
102
RTVSPropertyOp10
 70
     1
102
RTVSPropertyOp11
 70
     1
102
RTVSPropertyOp12
 70
     1
102
RTVSPropertyOp13
 70
     1
102
RTVSPropertyOp14
 70
     1
102
RTVSPropertyOp15
 70
     1
102
RTVSPropertyOp16
 70
     1
102
RTVSPropertyOp17
 70
     1
102
RTVSPropertyOp18
 70
     1
102
RTVSPropertyOp19
 70
     1
102
RTVSPropertyOp20
 70
     1
102
RTVSPropertyOp21
 70
     1
102
RTVSPropertyOp22
 70
     1
102
RTVSPropertyOp23
 70
     1
102
RTVSPropertyOp24
 70
     1
102
RTVSPropertyOp25
 70
     1
102
RTVSPropertyOp26
 70
     1
102
RTVSPropertyOp27
 70
     1
102
RTVSPropertyOp28
 70
     1
102
RTVSPropertyOp29
 70
     1
102
RTVSPropertyOp30
 70
     1
102
RTVSPropertyOp31
 70
     1
102
RTVSPropertyOp32
 70
     1
102
RTVSPropertyOp33
 70
     1
102
RTVSPropertyOp34
 70
     1
102
RTVSPropertyOp35
 70
     1
102
RTVSPropertyOp36
 70
     1
102
RTVSPropertyOp37
 70
     1
102
RTVSPropertyOp38
 70
     1
102
RTVSPropertyOp39
 70
     1
102
RTVSPropertyOp40
 70
     1
102
RTVSPropertyOp41
 70
     1
102
RTVSPropertyOp42
 70
     1
102
RTVSPropertyOp43
 70
     1
102
RTVSPropertyOp44
 70
     1
102
RTVSPropertyOp45
 70
     1
102
RTVSPropertyOp46
 70
     1
102
RTVSPropertyOp47
 70
     1
102
RTVSPropertyOp48
 70
     1
102
RTVSPropertyOp49
 70
     1
102
RTVSPropertyOp50
 70
     1
102
RTVSPropertyOp51
 70
     0
102
RTVSPropertyOp52
 70
     0
102
RTVSPropertyOp53
 70
     1
102
RTVSPropertyOp54
 70
     1
102
RTVSPropertyOp55
 70
     1
102
RTVSPropertyOp56
 70
     1
102
RTVSPropertyOp57
 70
     1
102
RTVSPropertyOp58
 70
     1
102
RTVSPropertyOp59
 70
     1
102
RTVSPropertyOp60
 70
     1
102
RTVSPropertyOp61
 70
     1
102
RTVSPropertyOp62
 70
     1
  0
XRECORD
  5
1EF2
102
{ACAD_REACTORS
330
1EF1
102
}
330
1EF1
100
AcDbXrecord
280
     1
102
RTVSPost2010Prop28
280
     0
102
RTVSPost2010PropOp28
 70
     1
102
RTVSPost2010Prop29
280
     1
102
RTVSPost2010PropOp29
 70
     1
102
RTVSPost2010Prop30
280
     1
102
RTVSPost2010PropOp30
 70
     1
102
RTVSPost2010Prop31
280
     0
102
RTVSPost2010PropOp31
 70
     1
102
RTVSPost2010Prop32
280
     0
102
RTVSPost2010PropOp32
 70
     1
102
RTVSPost2010Prop33
280
     0
102
RTVSPost2010PropOp33
 70
     1
102
RTVSPost2010Prop34
280
     0
102
RTVSPost2010PropOp34
 70
     1
102
RTVSPost2010Prop35
280
     0
102
RTVSPost2010PropOp35
 70
     1
102
RTVSPost2010Prop36
280
     0
102
RTVSPost2010PropOp36
 70
     1
102
RTVSPost2010Prop37
 90
       50
102
RTVSPost2010PropOp37
 70
     1
102
RTVSPost2010Prop38
140
0.0
102
RTVSPost2010PropOp38
 70
     1
102
RTVSPost2010Prop39
140
1.0
102
RTVSPost2010PropOp39
 70
     1
102
RTVSPost2010Prop40
 90
        0
102
RTVSPost2010PropOp40
 70
     1
102
RTVSPost2010Prop41ColorIndex
 90
       18
102
RTVSPost2010Prop41ColorRGB
 90
        0
102
RTVSPost2010PropOp41
 70
     1
102
RTVSPost2010Prop42
 90
       50
102
RTVSPost2010PropOp42
 70
     1
102
RTVSPost2010Prop43
 90
        3
102
RTVSPost2010PropOp43
 70
     1
102
RTVSPost2010Prop44ColorIndex
 90
        5
102
RTVSPost2010Prop44ColorRGB
 90
      255
102
RTVSPost2010PropOp44
 70
     1
102
RTVSPost2010Prop45
280
     0
102
RTVSPost2010PropOp45
 70
     1
102
RTVSPost2010Prop46
 90
       50
102
RTVSPost2010PropOp46
 70
     1
102
RTVSPost2010Prop47
 90
       50
102
RTVSPost2010PropOp47
 70
     1
102
RTVSPost2010Prop48
 90
       50
102
RTVSPost2010PropOp48
 70
     1
102
RTVSPost2010Prop49
280
     0
102
RTVSPost2010PropOp49
 70
     1
102
RTVSPost2010Prop50
 90
       50
102
RTVSPost2010PropOp50
 70
     1
102
RTVSPost2010Prop51ColorIndex
 90
      256
102
RTVSPost2010Prop51ColorRGB
 90
-16777216
102
RTVSPost2010PropOp51
 70
     0
102
RTVSPost2010Prop52
140
1.0
102
RTVSPost2010PropOp52
 70
     0
102
RTVSPost2010Prop53
 90
        2
102
RTVSPost2010PropOp53
 70
     1
102
RTVSPost2010Prop54
  1
strokes_ogs.tif
102
RTVSPost2010PropOp54
 70
     1
102
RTVSPost2010Prop55
280
     0
102
RTVSPost2010PropOp55
 70
     1
102
RTVSPost2010Prop56
140
1.0
102
RTVSPost2010PropOp56
 70
     1
102
RTVSPost2010Prop57
140
1.0
102
RTVSPost2010PropOp57
 70
     1
102
RTVSPropertyOp0
 70
     1
102
RTVSPropertyOp1
 70
     1
102
RTVSPropertyOp2
 70
     1
102
RTVSPropertyOp3
 70
     1
102
RTVSPropertyOp4
 70
     1
102
RTVSPropertyOp5
 70
     1
102
RTVSPropertyOp6
 70
     1
102
RTVSPropertyOp7
 70
     1
102
RTVSPropertyOp8
 70
     1
102
RTVSPropertyOp9
 70
     1
102
RTVSPropertyOp10
 70
     1
102
RTVSPropertyOp11
 70
     1
102
RTVSPropertyOp12
 70
     1
102
RTVSPropertyOp13
 70
     1
102
RTVSPropertyOp14
 70
     1
102
RTVSPropertyOp15
 70
     1
102
RTVSPropertyOp16
 70
     1
102
RTVSPropertyOp17
 70
     1
102
RTVSPropertyOp18
 70
     1
102
RTVSPropertyOp19
 70
     1
102
RTVSPropertyOp20
 70
     1
102
RTVSPropertyOp21
 70
     1
102
RTVSPropertyOp22
 70
     1
102
RTVSPropertyOp23
 70
     1
102
RTVSPropertyOp24
 70
     1
102
RTVSPropertyOp25
 70
     1
102
RTVSPropertyOp26
 70
     1
102
RTVSPropertyOp27
 70
     1
102
RTVSPropertyOp28
 70
     1
102
RTVSPropertyOp29
 70
     1
102
RTVSPropertyOp30
 70
     1
102
RTVSPropertyOp31
 70
     1
102
RTVSPropertyOp32
 70
     1
102
RTVSPropertyOp33
 70
     1
102
RTVSPropertyOp34
 70
     1
102
RTVSPropertyOp35
 70
     1
102
RTVSPropertyOp36
 70
     1
102
RTVSPropertyOp37
 70
     1
102
RTVSPropertyOp38
 70
     1
102
RTVSPropertyOp39
 70
     1
102
RTVSPropertyOp40
 70
     1
102
RTVSPropertyOp41
 70
     1
102
RTVSPropertyOp42
 70
     1
102
RTVSPropertyOp43
 70
     1
102
RTVSPropertyOp44
 70
     1
102
RTVSPropertyOp45
 70
     1
102
RTVSPropertyOp46
 70
     1
102
RTVSPropertyOp47
 70
     1
102
RTVSPropertyOp48
 70
     1
102
RTVSPropertyOp49
 70
     1
102
RTVSPropertyOp50
 70
     1
102
RTVSPropertyOp51
 70
     0
102
RTVSPropertyOp52
 70
     0
102
RTVSPropertyOp53
 70
     1
102
RTVSPropertyOp54
 70
     1
102
RTVSPropertyOp55
 70
     1
102
RTVSPropertyOp56
 70
     1
102
RTVSPropertyOp57
 70
     1
102
RTVSPropertyOp58
 70
     1
102
RTVSPropertyOp59
 70
     1
102
RTVSPropertyOp60
 70
     1
102
RTVSPropertyOp61
 70
     1
102
RTVSPropertyOp62
 70
     1
  0
XRECORD
  5
1EF0
102
{ACAD_REACTORS
330
1EEF
102
}
330
1EEF
100
AcDbXrecord
280
     1
102
RTVSPost2010Prop28
280
     0
102
RTVSPost2010PropOp28
 70
     1
102
RTVSPost2010Prop29
280
     1
102
RTVSPost2010PropOp29
 70
     1
102
RTVSPost2010Prop30
280
     1
102
RTVSPost2010PropOp30
 70
     1
102
RTVSPost2010Prop31
280
     0
102
RTVSPost2010PropOp31
 70
     1
102
RTVSPost2010Prop32
280
     0
102
RTVSPost2010PropOp32
 70
     1
102
RTVSPost2010Prop33
280
     0
102
RTVSPost2010PropOp33
 70
     1
102
RTVSPost2010Prop34
280
     0
102
RTVSPost2010PropOp34
 70
     1
102
RTVSPost2010Prop35
280
     0
102
RTVSPost2010PropOp35
 70
     1
102
RTVSPost2010Prop36
280
     0
102
RTVSPost2010PropOp36
 70
     1
102
RTVSPost2010Prop37
 90
       50
102
RTVSPost2010PropOp37
 70
     1
102
RTVSPost2010Prop38
140
0.0
102
RTVSPost2010PropOp38
 70
     1
102
RTVSPost2010Prop39
140
1.0
102
RTVSPost2010PropOp39
 70
     1
102
RTVSPost2010Prop40
 90
        0
102
RTVSPost2010PropOp40
 70
     1
102
RTVSPost2010Prop41ColorIndex
 90
       18
102
RTVSPost2010Prop41ColorRGB
 90
        0
102
RTVSPost2010PropOp41
 70
     1
102
RTVSPost2010Prop42
 90
       50
102
RTVSPost2010PropOp42
 70
     1
102
RTVSPost2010Prop43
 90
        3
102
RTVSPost2010PropOp43
 70
     1
102
RTVSPost2010Prop44ColorIndex
 90
        5
102
RTVSPost2010Prop44ColorRGB
 90
      255
102
RTVSPost2010PropOp44
 70
     1
102
RTVSPost2010Prop45
280
     0
102
RTVSPost2010PropOp45
 70
     1
102
RTVSPost2010Prop46
 90
       50
102
RTVSPost2010PropOp46
 70
     1
102
RTVSPost2010Prop47
 90
       50
102
RTVSPost2010PropOp47
 70
     1
102
RTVSPost2010Prop48
 90
       50
102
RTVSPost2010PropOp48
 70
     1
102
RTVSPost2010Prop49
280
     0
102
RTVSPost2010PropOp49
 70
     1
102
RTVSPost2010Prop50
 90
       50
102
RTVSPost2010PropOp50
 70
     1
102
RTVSPost2010Prop51ColorIndex
 90
      256
102
RTVSPost2010Prop51ColorRGB
 90
-16777216
102
RTVSPost2010PropOp51
 70
     0
102
RTVSPost2010Prop52
140
1.0
102
RTVSPost2010PropOp52
 70
     0
102
RTVSPost2010Prop53
 90
        2
102
RTVSPost2010PropOp53
 70
     1
102
RTVSPost2010Prop54
  1
strokes_ogs.tif
102
RTVSPost2010PropOp54
 70
     1
102
RTVSPost2010Prop55
280
     0
102
RTVSPost2010PropOp55
 70
     1
102
RTVSPost2010Prop56
140
1.0
102
RTVSPost2010PropOp56
 70
     1
102
RTVSPost2010Prop57
140
1.0
102
RTVSPost2010PropOp57
 70
     1
102
RTVSPropertyOp0
 70
     1
102
RTVSPropertyOp1
 70
     1
102
RTVSPropertyOp2
 70
     1
102
RTVSPropertyOp3
 70
     1
102
RTVSPropertyOp4
 70
     1
102
RTVSPropertyOp5
 70
     1
102
RTVSPropertyOp6
 70
     1
102
RTVSPropertyOp7
 70
     1
102
RTVSPropertyOp8
 70
     1
102
RTVSPropertyOp9
 70
     1
102
RTVSPropertyOp10
 70
     1
102
RTVSPropertyOp11
 70
     1
102
RTVSPropertyOp12
 70
     1
102
RTVSPropertyOp13
 70
     1
102
RTVSPropertyOp14
 70
     1
102
RTVSPropertyOp15
 70
     1
102
RTVSPropertyOp16
 70
     1
102
RTVSPropertyOp17
 70
     1
102
RTVSPropertyOp18
 70
     1
102
RTVSPropertyOp19
 70
     1
102
RTVSPropertyOp20
 70
     1
102
RTVSPropertyOp21
 70
     1
102
RTVSPropertyOp22
 70
     1
102
RTVSPropertyOp23
 70
     1
102
RTVSPropertyOp24
 70
     1
102
RTVSPropertyOp25
 70
     1
102
RTVSPropertyOp26
 70
     1
102
RTVSPropertyOp27
 70
     1
102
RTVSPropertyOp28
 70
     1
102
RTVSPropertyOp29
 70
     1
102
RTVSPropertyOp30
 70
     1
102
RTVSPropertyOp31
 70
     1
102
RTVSPropertyOp32
 70
     1
102
RTVSPropertyOp33
 70
     1
102
RTVSPropertyOp34
 70
     1
102
RTVSPropertyOp35
 70
     1
102
RTVSPropertyOp36
 70
     1
102
RTVSPropertyOp37
 70
     1
102
RTVSPropertyOp38
 70
     1
102
RTVSPropertyOp39
 70
     1
102
RTVSPropertyOp40
 70
     1
102
RTVSPropertyOp41
 70
     1
102
RTVSPropertyOp42
 70
     1
102
RTVSPropertyOp43
 70
     1
102
RTVSPropertyOp44
 70
     1
102
RTVSPropertyOp45
 70
     1
102
RTVSPropertyOp46
 70
     1
102
RTVSPropertyOp47
 70
     1
102
RTVSPropertyOp48
 70
     1
102
RTVSPropertyOp49
 70
     1
102
RTVSPropertyOp50
 70
     1
102
RTVSPropertyOp51
 70
     0
102
RTVSPropertyOp52
 70
     0
102
RTVSPropertyOp53
 70
     1
102
RTVSPropertyOp54
 70
     1
102
RTVSPropertyOp55
 70
     1
102
RTVSPropertyOp56
 70
     1
102
RTVSPropertyOp57
 70
     1
102
RTVSPropertyOp58
 70
     1
102
RTVSPropertyOp59
 70
     1
102
RTVSPropertyOp60
 70
     1
102
RTVSPropertyOp61
 70
     1
102
RTVSPropertyOp62
 70
     1
  0
XRECORD
  5
1EEA
102
{ACAD_REACTORS
330
1EE9
102
}
330
1EE9
100
AcDbXrecord
280
     1
102
RTVSPost2010Prop28
280
     0
102
RTVSPost2010PropOp28
 70
     1
102
RTVSPost2010Prop29
280
     1
102
RTVSPost2010PropOp29
 70
     1
102
RTVSPost2010Prop30
280
     1
102
RTVSPost2010PropOp30
 70
     1
102
RTVSPost2010Prop31
280
     0
102
RTVSPost2010PropOp31
 70
     1
102
RTVSPost2010Prop32
280
     0
102
RTVSPost2010PropOp32
 70
     1
102
RTVSPost2010Prop33
280
     0
102
RTVSPost2010PropOp33
 70
     1
102
RTVSPost2010Prop34
280
     0
102
RTVSPost2010PropOp34
 70
     1
102
RTVSPost2010Prop35
280
     0
102
RTVSPost2010PropOp35
 70
     1
102
RTVSPost2010Prop36
280
     0
102
RTVSPost2010PropOp36
 70
     1
102
RTVSPost2010Prop37
 90
       50
102
RTVSPost2010PropOp37
 70
     1
102
RTVSPost2010Prop38
140
0.0
102
RTVSPost2010PropOp38
 70
     1
102
RTVSPost2010Prop39
140
1.0
102
RTVSPost2010PropOp39
 70
     1
102
RTVSPost2010Prop40
 90
        0
102
RTVSPost2010PropOp40
 70
     1
102
RTVSPost2010Prop41ColorIndex
 90
       18
102
RTVSPost2010Prop41ColorRGB
 90
        0
102
RTVSPost2010PropOp41
 70
     1
102
RTVSPost2010Prop42
 90
       50
102
RTVSPost2010PropOp42
 70
     1
102
RTVSPost2010Prop43
 90
        3
102
RTVSPost2010PropOp43
 70
     1
102
RTVSPost2010Prop44ColorIndex
 90
        5
102
RTVSPost2010Prop44ColorRGB
 90
      255
102
RTVSPost2010PropOp44
 70
     1
102
RTVSPost2010Prop45
280
     0
102
RTVSPost2010PropOp45
 70
     1
102
RTVSPost2010Prop46
 90
       50
102
RTVSPost2010PropOp46
 70
     1
102
RTVSPost2010Prop47
 90
       50
102
RTVSPost2010PropOp47
 70
     1
102
RTVSPost2010Prop48
 90
       50
102
RTVSPost2010PropOp48
 70
     1
102
RTVSPost2010Prop49
280
     0
102
RTVSPost2010PropOp49
 70
     1
102
RTVSPost2010Prop50
 90
       50
102
RTVSPost2010PropOp50
 70
     1
102
RTVSPost2010Prop51ColorIndex
 90
      256
102
RTVSPost2010Prop51ColorRGB
 90
-16777216
102
RTVSPost2010PropOp51
 70
     0
102
RTVSPost2010Prop52
140
1.0
102
RTVSPost2010PropOp52
 70
     0
102
RTVSPost2010Prop53
 90
        2
102
RTVSPost2010PropOp53
 70
     1
102
RTVSPost2010Prop54
  1
strokes_ogs.tif
102
RTVSPost2010PropOp54
 70
     1
102
RTVSPost2010Prop55
280
     0
102
RTVSPost2010PropOp55
 70
     1
102
RTVSPost2010Prop56
140
1.0
102
RTVSPost2010PropOp56
 70
     1
102
RTVSPost2010Prop57
140
1.0
102
RTVSPost2010PropOp57
 70
     1
102
RTVSPropertyOp0
 70
     1
102
RTVSPropertyOp1
 70
     1
102
RTVSPropertyOp2
 70
     1
102
RTVSPropertyOp3
 70
     1
102
RTVSPropertyOp4
 70
     1
102
RTVSPropertyOp5
 70
     1
102
RTVSPropertyOp6
 70
     1
102
RTVSPropertyOp7
 70
     1
102
RTVSPropertyOp8
 70
     1
102
RTVSPropertyOp9
 70
     1
102
RTVSPropertyOp10
 70
     1
102
RTVSPropertyOp11
 70
     1
102
RTVSPropertyOp12
 70
     1
102
RTVSPropertyOp13
 70
     1
102
RTVSPropertyOp14
 70
     1
102
RTVSPropertyOp15
 70
     1
102
RTVSPropertyOp16
 70
     1
102
RTVSPropertyOp17
 70
     1
102
RTVSPropertyOp18
 70
     1
102
RTVSPropertyOp19
 70
     1
102
RTVSPropertyOp20
 70
     1
102
RTVSPropertyOp21
 70
     1
102
RTVSPropertyOp22
 70
     1
102
RTVSPropertyOp23
 70
     1
102
RTVSPropertyOp24
 70
     1
102
RTVSPropertyOp25
 70
     1
102
RTVSPropertyOp26
 70
     1
102
RTVSPropertyOp27
 70
     1
102
RTVSPropertyOp28
 70
     1
102
RTVSPropertyOp29
 70
     1
102
RTVSPropertyOp30
 70
     1
102
RTVSPropertyOp31
 70
     1
102
RTVSPropertyOp32
 70
     1
102
RTVSPropertyOp33
 70
     1
102
RTVSPropertyOp34
 70
     1
102
RTVSPropertyOp35
 70
     1
102
RTVSPropertyOp36
 70
     1
102
RTVSPropertyOp37
 70
     1
102
RTVSPropertyOp38
 70
     1
102
RTVSPropertyOp39
 70
     1
102
RTVSPropertyOp40
 70
     1
102
RTVSPropertyOp41
 70
     1
102
RTVSPropertyOp42
 70
     1
102
RTVSPropertyOp43
 70
     1
102
RTVSPropertyOp44
 70
     1
102
RTVSPropertyOp45
 70
     1
102
RTVSPropertyOp46
 70
     1
102
RTVSPropertyOp47
 70
     1
102
RTVSPropertyOp48
 70
     1
102
RTVSPropertyOp49
 70
     1
102
RTVSPropertyOp50
 70
     1
102
RTVSPropertyOp51
 70
     0
102
RTVSPropertyOp52
 70
     0
102
RTVSPropertyOp53
 70
     1
102
RTVSPropertyOp54
 70
     1
102
RTVSPropertyOp55
 70
     1
102
RTVSPropertyOp56
 70
     1
102
RTVSPropertyOp57
 70
     1
102
RTVSPropertyOp58
 70
     1
102
RTVSPropertyOp59
 70
     1
102
RTVSPropertyOp60
 70
     1
102
RTVSPropertyOp61
 70
     1
102
RTVSPropertyOp62
 70
     1
  0
XRECORD
  5
1EEC
102
{ACAD_REACTORS
330
1EEB
102
}
330
1EEB
100
AcDbXrecord
280
     1
102
RTVSPost2010Prop28
280
     0
102
RTVSPost2010PropOp28
 70
     1
102
RTVSPost2010Prop29
280
     1
102
RTVSPost2010PropOp29
 70
     1
102
RTVSPost2010Prop30
280
     1
102
RTVSPost2010PropOp30
 70
     1
102
RTVSPost2010Prop31
280
     0
102
RTVSPost2010PropOp31
 70
     1
102
RTVSPost2010Prop32
280
     0
102
RTVSPost2010PropOp32
 70
     1
102
RTVSPost2010Prop33
280
     0
102
RTVSPost2010PropOp33
 70
     1
102
RTVSPost2010Prop34
280
     0
102
RTVSPost2010PropOp34
 70
     1
102
RTVSPost2010Prop35
280
     0
102
RTVSPost2010PropOp35
 70
     1
102
RTVSPost2010Prop36
280
     0
102
RTVSPost2010PropOp36
 70
     1
102
RTVSPost2010Prop37
 90
       50
102
RTVSPost2010PropOp37
 70
     1
102
RTVSPost2010Prop38
140
0.0
102
RTVSPost2010PropOp38
 70
     1
102
RTVSPost2010Prop39
140
1.0
102
RTVSPost2010PropOp39
 70
     1
102
RTVSPost2010Prop40
 90
        0
102
RTVSPost2010PropOp40
 70
     1
102
RTVSPost2010Prop41ColorIndex
 90
       18
102
RTVSPost2010Prop41ColorRGB
 90
        0
102
RTVSPost2010PropOp41
 70
     1
102
RTVSPost2010Prop42
 90
       50
102
RTVSPost2010PropOp42
 70
     1
102
RTVSPost2010Prop43
 90
        3
102
RTVSPost2010PropOp43
 70
     1
102
RTVSPost2010Prop44ColorIndex
 90
        5
102
RTVSPost2010Prop44ColorRGB
 90
      255
102
RTVSPost2010PropOp44
 70
     1
102
RTVSPost2010Prop45
280
     0
102
RTVSPost2010PropOp45
 70
     1
102
RTVSPost2010Prop46
 90
       50
102
RTVSPost2010PropOp46
 70
     1
102
RTVSPost2010Prop47
 90
       50
102
RTVSPost2010PropOp47
 70
     1
102
RTVSPost2010Prop48
 90
       50
102
RTVSPost2010PropOp48
 70
     1
102
RTVSPost2010Prop49
280
     0
102
RTVSPost2010PropOp49
 70
     1
102
RTVSPost2010Prop50
 90
       50
102
RTVSPost2010PropOp50
 70
     1
102
RTVSPost2010Prop51ColorIndex
 90
      256
102
RTVSPost2010Prop51ColorRGB
 90
-16777216
102
RTVSPost2010PropOp51
 70
     0
102
RTVSPost2010Prop52
140
1.0
102
RTVSPost2010PropOp52
 70
     0
102
RTVSPost2010Prop53
 90
        2
102
RTVSPost2010PropOp53
 70
     1
102
RTVSPost2010Prop54
  1
strokes_ogs.tif
102
RTVSPost2010PropOp54
 70
     1
102
RTVSPost2010Prop55
280
     0
102
RTVSPost2010PropOp55
 70
     1
102
RTVSPost2010Prop56
140
1.0
102
RTVSPost2010PropOp56
 70
     1
102
RTVSPost2010Prop57
140
1.0
102
RTVSPost2010PropOp57
 70
     1
102
RTVSPropertyOp0
 70
     1
102
RTVSPropertyOp1
 70
     1
102
RTVSPropertyOp2
 70
     1
102
RTVSPropertyOp3
 70
     1
102
RTVSPropertyOp4
 70
     1
102
RTVSPropertyOp5
 70
     1
102
RTVSPropertyOp6
 70
     1
102
RTVSPropertyOp7
 70
     1
102
RTVSPropertyOp8
 70
     1
102
RTVSPropertyOp9
 70
     1
102
RTVSPropertyOp10
 70
     1
102
RTVSPropertyOp11
 70
     1
102
RTVSPropertyOp12
 70
     1
102
RTVSPropertyOp13
 70
     1
102
RTVSPropertyOp14
 70
     1
102
RTVSPropertyOp15
 70
     1
102
RTVSPropertyOp16
 70
     1
102
RTVSPropertyOp17
 70
     1
102
RTVSPropertyOp18
 70
     1
102
RTVSPropertyOp19
 70
     1
102
RTVSPropertyOp20
 70
     1
102
RTVSPropertyOp21
 70
     1
102
RTVSPropertyOp22
 70
     1
102
RTVSPropertyOp23
 70
     1
102
RTVSPropertyOp24
 70
     1
102
RTVSPropertyOp25
 70
     1
102
RTVSPropertyOp26
 70
     1
102
RTVSPropertyOp27
 70
     1
102
RTVSPropertyOp28
 70
     1
102
RTVSPropertyOp29
 70
     1
102
RTVSPropertyOp30
 70
     1
102
RTVSPropertyOp31
 70
     1
102
RTVSPropertyOp32
 70
     1
102
RTVSPropertyOp33
 70
     1
102
RTVSPropertyOp34
 70
     1
102
RTVSPropertyOp35
 70
     1
102
RTVSPropertyOp36
 70
     1
102
RTVSPropertyOp37
 70
     1
102
RTVSPropertyOp38
 70
     1
102
RTVSPropertyOp39
 70
     1
102
RTVSPropertyOp40
 70
     1
102
RTVSPropertyOp41
 70
     1
102
RTVSPropertyOp42
 70
     1
102
RTVSPropertyOp43
 70
     1
102
RTVSPropertyOp44
 70
     1
102
RTVSPropertyOp45
 70
     1
102
RTVSPropertyOp46
 70
     1
102
RTVSPropertyOp47
 70
     1
102
RTVSPropertyOp48
 70
     1
102
RTVSPropertyOp49
 70
     1
102
RTVSPropertyOp50
 70
     1
102
RTVSPropertyOp51
 70
     0
102
RTVSPropertyOp52
 70
     0
102
RTVSPropertyOp53
 70
     1
102
RTVSPropertyOp54
 70
     1
102
RTVSPropertyOp55
 70
     1
102
RTVSPropertyOp56
 70
     1
102
RTVSPropertyOp57
 70
     1
102
RTVSPropertyOp58
 70
     1
102
RTVSPropertyOp59
 70
     1
102
RTVSPropertyOp60
 70
     1
102
RTVSPropertyOp61
 70
     1
102
RTVSPropertyOp62
 70
     1
  0
XRECORD
  5
1EDE
102
{ACAD_REACTORS
330
1EDD
102
}
330
1EDD
100
AcDbXrecord
280
     1
102
RTVSPost2010Prop28
280
     0
102
RTVSPost2010PropOp28
 70
     1
102
RTVSPost2010Prop29
280
     1
102
RTVSPost2010PropOp29
 70
     1
102
RTVSPost2010Prop30
280
     1
102
RTVSPost2010PropOp30
 70
     1
102
RTVSPost2010Prop31
280
     0
102
RTVSPost2010PropOp31
 70
     1
102
RTVSPost2010Prop32
280
     0
102
RTVSPost2010PropOp32
 70
     1
102
RTVSPost2010Prop33
280
     0
102
RTVSPost2010PropOp33
 70
     1
102
RTVSPost2010Prop34
280
     0
102
RTVSPost2010PropOp34
 70
     1
102
RTVSPost2010Prop35
280
     0
102
RTVSPost2010PropOp35
 70
     1
102
RTVSPost2010Prop36
280
     0
102
RTVSPost2010PropOp36
 70
     1
102
RTVSPost2010Prop37
 90
       50
102
RTVSPost2010PropOp37
 70
     1
102
RTVSPost2010Prop38
140
0.0
102
RTVSPost2010PropOp38
 70
     1
102
RTVSPost2010Prop39
140
1.0
102
RTVSPost2010PropOp39
 70
     1
102
RTVSPost2010Prop40
 90
        0
102
RTVSPost2010PropOp40
 70
     1
102
RTVSPost2010Prop41ColorIndex
 90
       18
102
RTVSPost2010Prop41ColorRGB
 90
        0
102
RTVSPost2010PropOp41
 70
     1
102
RTVSPost2010Prop42
 90
       50
102
RTVSPost2010PropOp42
 70
     1
102
RTVSPost2010Prop43
 90
        3
102
RTVSPost2010PropOp43
 70
     1
102
RTVSPost2010Prop44ColorIndex
 90
        5
102
RTVSPost2010Prop44ColorRGB
 90
      255
102
RTVSPost2010PropOp44
 70
     1
102
RTVSPost2010Prop45
280
     0
102
RTVSPost2010PropOp45
 70
     1
102
RTVSPost2010Prop46
 90
       50
102
RTVSPost2010PropOp46
 70
     1
102
RTVSPost2010Prop47
 90
       50
102
RTVSPost2010PropOp47
 70
     1
102
RTVSPost2010Prop48
 90
       50
102
RTVSPost2010PropOp48
 70
     1
102
RTVSPost2010Prop49
280
     0
102
RTVSPost2010PropOp49
 70
     1
102
RTVSPost2010Prop50
 90
       50
102
RTVSPost2010PropOp50
 70
     1
102
RTVSPost2010Prop51ColorIndex
 90
      256
102
RTVSPost2010Prop51ColorRGB
 90
-16777216
102
RTVSPost2010PropOp51
 70
     0
102
RTVSPost2010Prop52
140
1.0
102
RTVSPost2010PropOp52
 70
     0
102
RTVSPost2010Prop53
 90
        2
102
RTVSPost2010PropOp53
 70
     1
102
RTVSPost2010Prop54
  1
strokes_ogs.tif
102
RTVSPost2010PropOp54
 70
     1
102
RTVSPost2010Prop55
280
     0
102
RTVSPost2010PropOp55
 70
     1
102
RTVSPost2010Prop56
140
1.0
102
RTVSPost2010PropOp56
 70
     1
102
RTVSPost2010Prop57
140
1.0
102
RTVSPost2010PropOp57
 70
     1
102
RTVSPropertyOp0
 70
     1
102
RTVSPropertyOp1
 70
     1
102
RTVSPropertyOp2
 70
     1
102
RTVSPropertyOp3
 70
     1
102
RTVSPropertyOp4
 70
     1
102
RTVSPropertyOp5
 70
     1
102
RTVSPropertyOp6
 70
     1
102
RTVSPropertyOp7
 70
     1
102
RTVSPropertyOp8
 70
     1
102
RTVSPropertyOp9
 70
     1
102
RTVSPropertyOp10
 70
     1
102
RTVSPropertyOp11
 70
     1
102
RTVSPropertyOp12
 70
     1
102
RTVSPropertyOp13
 70
     1
102
RTVSPropertyOp14
 70
     1
102
RTVSPropertyOp15
 70
     1
102
RTVSPropertyOp16
 70
     1
102
RTVSPropertyOp17
 70
     1
102
RTVSPropertyOp18
 70
     1
102
RTVSPropertyOp19
 70
     1
102
RTVSPropertyOp20
 70
     1
102
RTVSPropertyOp21
 70
     1
102
RTVSPropertyOp22
 70
     1
102
RTVSPropertyOp23
 70
     1
102
RTVSPropertyOp24
 70
     1
102
RTVSPropertyOp25
 70
     1
102
RTVSPropertyOp26
 70
     1
102
RTVSPropertyOp27
 70
     1
102
RTVSPropertyOp28
 70
     1
102
RTVSPropertyOp29
 70
     1
102
RTVSPropertyOp30
 70
     1
102
RTVSPropertyOp31
 70
     1
102
RTVSPropertyOp32
 70
     1
102
RTVSPropertyOp33
 70
     1
102
RTVSPropertyOp34
 70
     1
102
RTVSPropertyOp35
 70
     1
102
RTVSPropertyOp36
 70
     1
102
RTVSPropertyOp37
 70
     1
102
RTVSPropertyOp38
 70
     1
102
RTVSPropertyOp39
 70
     1
102
RTVSPropertyOp40
 70
     1
102
RTVSPropertyOp41
 70
     1
102
RTVSPropertyOp42
 70
     1
102
RTVSPropertyOp43
 70
     1
102
RTVSPropertyOp44
 70
     1
102
RTVSPropertyOp45
 70
     1
102
RTVSPropertyOp46
 70
     1
102
RTVSPropertyOp47
 70
     1
102
RTVSPropertyOp48
 70
     1
102
RTVSPropertyOp49
 70
     1
102
RTVSPropertyOp50
 70
     1
102
RTVSPropertyOp51
 70
     0
102
RTVSPropertyOp52
 70
     0
102
RTVSPropertyOp53
 70
     1
102
RTVSPropertyOp54
 70
     1
102
RTVSPropertyOp55
 70
     1
102
RTVSPropertyOp56
 70
     1
102
RTVSPropertyOp57
 70
     1
102
RTVSPropertyOp58
 70
     1
102
RTVSPropertyOp59
 70
     1
102
RTVSPropertyOp60
 70
     1
102
RTVSPropertyOp61
 70
     1
102
RTVSPropertyOp62
 70
     1
  0
XRECORD
  5
1EE6
102
{ACAD_REACTORS
330
1EE5
102
}
330
1EE5
100
AcDbXrecord
280
     1
102
RTVSPost2010Prop28
280
     0
102
RTVSPost2010PropOp28
 70
     1
102
RTVSPost2010Prop29
280
     1
102
RTVSPost2010PropOp29
 70
     1
102
RTVSPost2010Prop30
280
     1
102
RTVSPost2010PropOp30
 70
     1
102
RTVSPost2010Prop31
280
     0
102
RTVSPost2010PropOp31
 70
     1
102
RTVSPost2010Prop32
280
     0
102
RTVSPost2010PropOp32
 70
     1
102
RTVSPost2010Prop33
280
     0
102
RTVSPost2010PropOp33
 70
     1
102
RTVSPost2010Prop34
280
     0
102
RTVSPost2010PropOp34
 70
     1
102
RTVSPost2010Prop35
280
     0
102
RTVSPost2010PropOp35
 70
     1
102
RTVSPost2010Prop36
280
     0
102
RTVSPost2010PropOp36
 70
     1
102
RTVSPost2010Prop37
 90
       50
102
RTVSPost2010PropOp37
 70
     1
102
RTVSPost2010Prop38
140
0.0
102
RTVSPost2010PropOp38
 70
     1
102
RTVSPost2010Prop39
140
1.0
102
RTVSPost2010PropOp39
 70
     1
102
RTVSPost2010Prop40
 90
        0
102
RTVSPost2010PropOp40
 70
     1
102
RTVSPost2010Prop41ColorIndex
 90
       18
102
RTVSPost2010Prop41ColorRGB
 90
        0
102
RTVSPost2010PropOp41
 70
     1
102
RTVSPost2010Prop42
 90
       50
102
RTVSPost2010PropOp42
 70
     1
102
RTVSPost2010Prop43
 90
        3
102
RTVSPost2010PropOp43
 70
     1
102
RTVSPost2010Prop44ColorIndex
 90
        5
102
RTVSPost2010Prop44ColorRGB
 90
      255
102
RTVSPost2010PropOp44
 70
     1
102
RTVSPost2010Prop45
280
     0
102
RTVSPost2010PropOp45
 70
     1
102
RTVSPost2010Prop46
 90
       50
102
RTVSPost2010PropOp46
 70
     1
102
RTVSPost2010Prop47
 90
       50
102
RTVSPost2010PropOp47
 70
     1
102
RTVSPost2010Prop48
 90
       50
102
RTVSPost2010PropOp48
 70
     1
102
RTVSPost2010Prop49
280
     0
102
RTVSPost2010PropOp49
 70
     1
102
RTVSPost2010Prop50
 90
       50
102
RTVSPost2010PropOp50
 70
     1
102
RTVSPost2010Prop51ColorIndex
 90
      256
102
RTVSPost2010Prop51ColorRGB
 90
-16777216
102
RTVSPost2010PropOp51
 70
     0
102
RTVSPost2010Prop52
140
1.0
102
RTVSPost2010PropOp52
 70
     0
102
RTVSPost2010Prop53
 90
        2
102
RTVSPost2010PropOp53
 70
     1
102
RTVSPost2010Prop54
  1
strokes_ogs.tif
102
RTVSPost2010PropOp54
 70
     1
102
RTVSPost2010Prop55
280
     0
102
RTVSPost2010PropOp55
 70
     1
102
RTVSPost2010Prop56
140
1.0
102
RTVSPost2010PropOp56
 70
     1
102
RTVSPost2010Prop57
140
1.0
102
RTVSPost2010PropOp57
 70
     1
102
RTVSPropertyOp0
 70
     1
102
RTVSPropertyOp1
 70
     1
102
RTVSPropertyOp2
 70
     1
102
RTVSPropertyOp3
 70
     1
102
RTVSPropertyOp4
 70
     1
102
RTVSPropertyOp5
 70
     1
102
RTVSPropertyOp6
 70
     1
102
RTVSPropertyOp7
 70
     1
102
RTVSPropertyOp8
 70
     1
102
RTVSPropertyOp9
 70
     1
102
RTVSPropertyOp10
 70
     1
102
RTVSPropertyOp11
 70
     1
102
RTVSPropertyOp12
 70
     1
102
RTVSPropertyOp13
 70
     1
102
RTVSPropertyOp14
 70
     1
102
RTVSPropertyOp15
 70
     1
102
RTVSPropertyOp16
 70
     1
102
RTVSPropertyOp17
 70
     1
102
RTVSPropertyOp18
 70
     1
102
RTVSPropertyOp19
 70
     1
102
RTVSPropertyOp20
 70
     1
102
RTVSPropertyOp21
 70
     1
102
RTVSPropertyOp22
 70
     1
102
RTVSPropertyOp23
 70
     1
102
RTVSPropertyOp24
 70
     1
102
RTVSPropertyOp25
 70
     1
102
RTVSPropertyOp26
 70
     1
102
RTVSPropertyOp27
 70
     1
102
RTVSPropertyOp28
 70
     1
102
RTVSPropertyOp29
 70
     1
102
RTVSPropertyOp30
 70
     1
102
RTVSPropertyOp31
 70
     1
102
RTVSPropertyOp32
 70
     1
102
RTVSPropertyOp33
 70
     1
102
RTVSPropertyOp34
 70
     1
102
RTVSPropertyOp35
 70
     1
102
RTVSPropertyOp36
 70
     1
102
RTVSPropertyOp37
 70
     1
102
RTVSPropertyOp38
 70
     1
102
RTVSPropertyOp39
 70
     1
102
RTVSPropertyOp40
 70
     1
102
RTVSPropertyOp41
 70
     1
102
RTVSPropertyOp42
 70
     1
102
RTVSPropertyOp43
 70
     1
102
RTVSPropertyOp44
 70
     1
102
RTVSPropertyOp45
 70
     1
102
RTVSPropertyOp46
 70
     1
102
RTVSPropertyOp47
 70
     1
102
RTVSPropertyOp48
 70
     1
102
RTVSPropertyOp49
 70
     1
102
RTVSPropertyOp50
 70
     1
102
RTVSPropertyOp51
 70
     0
102
RTVSPropertyOp52
 70
     0
102
RTVSPropertyOp53
 70
     1
102
RTVSPropertyOp54
 70
     1
102
RTVSPropertyOp55
 70
     1
102
RTVSPropertyOp56
 70
     1
102
RTVSPropertyOp57
 70
     1
102
RTVSPropertyOp58
 70
     1
102
RTVSPropertyOp59
 70
     1
102
RTVSPropertyOp60
 70
     1
102
RTVSPropertyOp61
 70
     1
102
RTVSPropertyOp62
 70
     1
  0
XRECORD
  5
1EEE
102
{ACAD_REACTORS
330
1EED
102
}
330
1EED
100
AcDbXrecord
280
     1
102
RTVSPost2010Prop28
280
     0
102
RTVSPost2010PropOp28
 70
     1
102
RTVSPost2010Prop29
280
     1
102
RTVSPost2010PropOp29
 70
     1
102
RTVSPost2010Prop30
280
     1
102
RTVSPost2010PropOp30
 70
     1
102
RTVSPost2010Prop31
280
     0
102
RTVSPost2010PropOp31
 70
     1
102
RTVSPost2010Prop32
280
     0
102
RTVSPost2010PropOp32
 70
     1
102
RTVSPost2010Prop33
280
     0
102
RTVSPost2010PropOp33
 70
     1
102
RTVSPost2010Prop34
280
     0
102
RTVSPost2010PropOp34
 70
     1
102
RTVSPost2010Prop35
280
     0
102
RTVSPost2010PropOp35
 70
     1
102
RTVSPost2010Prop36
280
     0
102
RTVSPost2010PropOp36
 70
     1
102
RTVSPost2010Prop37
 90
       50
102
RTVSPost2010PropOp37
 70
     1
102
RTVSPost2010Prop38
140
0.0
102
RTVSPost2010PropOp38
 70
     1
102
RTVSPost2010Prop39
140
1.0
102
RTVSPost2010PropOp39
 70
     1
102
RTVSPost2010Prop40
 90
        0
102
RTVSPost2010PropOp40
 70
     1
102
RTVSPost2010Prop41ColorIndex
 90
       18
102
RTVSPost2010Prop41ColorRGB
 90
        0
102
RTVSPost2010PropOp41
 70
     1
102
RTVSPost2010Prop42
 90
       50
102
RTVSPost2010PropOp42
 70
     1
102
RTVSPost2010Prop43
 90
        3
102
RTVSPost2010PropOp43
 70
     1
102
RTVSPost2010Prop44ColorIndex
 90
        5
102
RTVSPost2010Prop44ColorRGB
 90
      255
102
RTVSPost2010PropOp44
 70
     1
102
RTVSPost2010Prop45
280
     0
102
RTVSPost2010PropOp45
 70
     1
102
RTVSPost2010Prop46
 90
       50
102
RTVSPost2010PropOp46
 70
     1
102
RTVSPost2010Prop47
 90
       50
102
RTVSPost2010PropOp47
 70
     1
102
RTVSPost2010Prop48
 90
       50
102
RTVSPost2010PropOp48
 70
     1
102
RTVSPost2010Prop49
280
     0
102
RTVSPost2010PropOp49
 70
     1
102
RTVSPost2010Prop50
 90
       50
102
RTVSPost2010PropOp50
 70
     1
102
RTVSPost2010Prop51ColorIndex
 90
      256
102
RTVSPost2010Prop51ColorRGB
 90
-16777216
102
RTVSPost2010PropOp51
 70
     0
102
RTVSPost2010Prop52
140
1.0
102
RTVSPost2010PropOp52
 70
     0
102
RTVSPost2010Prop53
 90
        2
102
RTVSPost2010PropOp53
 70
     1
102
RTVSPost2010Prop54
  1
strokes_ogs.tif
102
RTVSPost2010PropOp54
 70
     1
102
RTVSPost2010Prop55
280
     0
102
RTVSPost2010PropOp55
 70
     1
102
RTVSPost2010Prop56
140
1.0
102
RTVSPost2010PropOp56
 70
     1
102
RTVSPost2010Prop57
140
1.0
102
RTVSPost2010PropOp57
 70
     1
102
RTVSPropertyOp0
 70
     1
102
RTVSPropertyOp1
 70
     1
102
RTVSPropertyOp2
 70
     1
102
RTVSPropertyOp3
 70
     1
102
RTVSPropertyOp4
 70
     1
102
RTVSPropertyOp5
 70
     1
102
RTVSPropertyOp6
 70
     1
102
RTVSPropertyOp7
 70
     1
102
RTVSPropertyOp8
 70
     1
102
RTVSPropertyOp9
 70
     1
102
RTVSPropertyOp10
 70
     1
102
RTVSPropertyOp11
 70
     1
102
RTVSPropertyOp12
 70
     1
102
RTVSPropertyOp13
 70
     1
102
RTVSPropertyOp14
 70
     1
102
RTVSPropertyOp15
 70
     1
102
RTVSPropertyOp16
 70
     1
102
RTVSPropertyOp17
 70
     1
102
RTVSPropertyOp18
 70
     1
102
RTVSPropertyOp19
 70
     1
102
RTVSPropertyOp20
 70
     1
102
RTVSPropertyOp21
 70
     1
102
RTVSPropertyOp22
 70
     1
102
RTVSPropertyOp23
 70
     1
102
RTVSPropertyOp24
 70
     1
102
RTVSPropertyOp25
 70
     1
102
RTVSPropertyOp26
 70
     1
102
RTVSPropertyOp27
 70
     1
102
RTVSPropertyOp28
 70
     1
102
RTVSPropertyOp29
 70
     1
102
RTVSPropertyOp30
 70
     1
102
RTVSPropertyOp31
 70
     1
102
RTVSPropertyOp32
 70
     1
102
RTVSPropertyOp33
 70
     1
102
RTVSPropertyOp34
 70
     1
102
RTVSPropertyOp35
 70
     1
102
RTVSPropertyOp36
 70
     1
102
RTVSPropertyOp37
 70
     1
102
RTVSPropertyOp38
 70
     1
102
RTVSPropertyOp39
 70
     1
102
RTVSPropertyOp40
 70
     1
102
RTVSPropertyOp41
 70
     1
102
RTVSPropertyOp42
 70
     1
102
RTVSPropertyOp43
 70
     1
102
RTVSPropertyOp44
 70
     1
102
RTVSPropertyOp45
 70
     1
102
RTVSPropertyOp46
 70
     1
102
RTVSPropertyOp47
 70
     1
102
RTVSPropertyOp48
 70
     1
102
RTVSPropertyOp49
 70
     1
102
RTVSPropertyOp50
 70
     1
102
RTVSPropertyOp51
 70
     0
102
RTVSPropertyOp52
 70
     0
102
RTVSPropertyOp53
 70
     1
102
RTVSPropertyOp54
 70
     1
102
RTVSPropertyOp55
 70
     1
102
RTVSPropertyOp56
 70
     1
102
RTVSPropertyOp57
 70
     1
102
RTVSPropertyOp58
 70
     1
102
RTVSPropertyOp59
 70
     1
102
RTVSPropertyOp60
 70
     1
102
RTVSPropertyOp61
 70
     1
102
RTVSPropertyOp62
 70
     1
  0
ENDSEC
  0
EOF
