  0
SECTION
  2
HEADER
  9
$ACADVER
  1
AC1015
  9
$ACADMAINTVER
 70
    20
  9
$DWGCODEPAGE
  3
ANSI_1252
  9
$INSBASE
 10
0.0
 20
0.0
 30
0.0
  9
$EXTMIN
 10
235.5583611205794
 20
749.8003385992232
 30
-0.0000000000002415
  9
$EXTMAX
 10
1672.581066593586
 20
2309.253683116897
 30
0.0000000000002486
  9
$LIMMIN
 10
0.0
 20
0.0
  9
$LIMMAX
 10
420.0
 20
297.0
  9
$ORTHOMODE
 70
     0
  9
$REGENMODE
 70
     1
  9
$FILLMODE
 70
     1
  9
$QTEXTMODE
 70
     0
  9
$MIRRTEXT
 70
     0
  9
$LTSCALE
 40
1.0
  9
$ATTMODE
 70
     1
  9
$TEXTSIZE
 40
2.5
  9
$TRACEWID
 40
1.0
  9
$TEXTSTYLE
  7
Standard
  9
$CLAYER
  8
0
  9
$CELTYPE
  6
ByLayer
  9
$CECOLOR
 62
   256
  9
$CELTSCALE
 40
1.0
  9
$DISPSILH
 70
     0
  9
$DIMSCALE
 40
1.0
  9
$DIMASZ
 40
2.5
  9
$DIMEXO
 40
0.625
  9
$DIMDLI
 40
3.75
  9
$DIMRND
 40
0.0
  9
$DIMDLE
 40
0.0
  9
$DIMEXE
 40
1.25
  9
$DIMTP
 40
0.0
  9
$DIMTM
 40
0.0
  9
$DIMTXT
 40
2.5
  9
$DIMCEN
 40
2.5
  9
$DIMTSZ
 40
0.0
  9
$DIMTOL
 70
     0
  9
$DIMLIM
 70
     0
  9
$DIMTIH
 70
     0
  9
$DIMTOH
 70
     0
  9
$DIMSE1
 70
     0
  9
$DIMSE2
 70
     0
  9
$DIMTAD
 70
     1
  9
$DIMZIN
 70
     8
  9
$DIMBLK
  1

  9
$DIMASO
 70
     1
  9
$DIMSHO
 70
     1
  9
$DIMPOST
  1

  9
$DIMAPOST
  1

  9
$DIMALT
 70
     0
  9
$DIMALTD
 70
     3
  9
$DIMALTF
 40
0.03937007874016
  9
$DIMLFAC
 40
1.0
  9
$DIMTOFL
 70
     1
  9
$DIMTVP
 40
0.0
  9
$DIMTIX
 70
     0
  9
$DIMSOXD
 70
     0
  9
$DIMSAH
 70
     0
  9
$DIMBLK1
  1

  9
$DIMBLK2
  1

  9
$DIMSTYLE
  2
ISO-25
  9
$DIMCLRD
 70
     0
  9
$DIMCLRE
 70
     0
  9
$DIMCLRT
 70
     0
  9
$DIMTFAC
 40
1.0
  9
$DIMGAP
 40
0.625
  9
$DIMJUST
 70
     0
  9
$DIMSD1
 70
     0
  9
$DIMSD2
 70
     0
  9
$DIMTOLJ
 70
     0
  9
$DIMTZIN
 70
     8
  9
$DIMALTZ
 70
     0
  9
$DIMALTTZ
 70
     0
  9
$DIMUPT
 70
     0
  9
$DIMDEC
 70
     2
  9
$DIMTDEC
 70
     2
  9
$DIMALTU
 70
     2
  9
$DIMALTTD
 70
     3
  9
$DIMTXSTY
  7
Standard
  9
$DIMAUNIT
 70
     0
  9
$DIMADEC
 70
     0
  9
$DIMALTRND
 40
0.0
  9
$DIMAZIN
 70
     0
  9
$DIMDSEP
 70
    44
  9
$DIMATFIT
 70
     3
  9
$DIMFRAC
 70
     0
  9
$DIMLDRBLK
  1

  9
$DIMLUNIT
 70
     2
  9
$DIMLWD
 70
    -2
  9
$DIMLWE
 70
    -2
  9
$DIMTMOVE
 70
     0
  9
$LUNITS
 70
     2
  9
$LUPREC
 70
     4
  9
$SKETCHINC
 40
1.0
  9
$FILLETRAD
 40
0.0
  9
$AUNITS
 70
     0
  9
$AUPREC
 70
     0
  9
$MENU
  1
.
  9
$ELEVATION
 40
0.0
  9
$PELEVATION
 40
0.0
  9
$THICKNESS
 40
0.0
  9
$LIMCHECK
 70
     0
  9
$CHAMFERA
 40
0.0
  9
$CHAMFERB
 40
0.0
  9
$CHAMFERC
 40
0.0
  9
$CHAMFERD
 40
0.0
  9
$SKPOLY
 70
     0
  9
$TDCREATE
 40
2454768.552548658
  9
$TDUCREATE
 40
2454768.469215324
  9
$TDUPDATE
 40
2457302.655461667
  9
$TDUUPDATE
 40
2457302.572128333
  9
$TDINDWG
 40
0.1262971991
  9
$TDUSRTIMER
 40
0.1262943287
  9
$USRTIMER
 70
     1
  9
$ANGBASE
 50
0.0
  9
$ANGDIR
 70
     0
  9
$PDMODE
 70
     0
  9
$PDSIZE
 40
0.0
  9
$PLINEWID
 40
0.0
  9
$SPLFRAME
 70
     0
  9
$SPLINETYPE
 70
     6
  9
$SPLINESEGS
 70
     8
  9
$HANDSEED
  5
1F4D
  9
$SURFTAB1
 70
     6
  9
$SURFTAB2
 70
     6
  9
$SURFTYPE
 70
     6
  9
$SURFU
 70
     6
  9
$SURFV
 70
     6
  9
$UCSBASE
  2

  9
$UCSNAME
  2

  9
$UCSORG
 10
0.0
 20
0.0
 30
0.0
  9
$UCSXDIR
 10
1.0
 20
0.0
 30
0.0
  9
$UCSYDIR
 10
0.0
 20
1.0
 30
0.0
  9
$UCSORTHOREF
  2

  9
$UCSORTHOVIEW
 70
     0
  9
$UCSORGTOP
 10
0.0
 20
0.0
 30
0.0
  9
$UCSORGBOTTOM
 10
0.0
 20
0.0
 30
0.0
  9
$UCSORGLEFT
 10
0.0
 20
0.0
 30
0.0
  9
$UCSORGRIGHT
 10
0.0
 20
0.0
 30
0.0
  9
$UCSORGFRONT
 10
0.0
 20
0.0
 30
0.0
  9
$UCSORGBACK
 10
0.0
 20
0.0
 30
0.0
  9
$PUCSBASE
  2

  9
$PUCSNAME
  2

  9
$PUCSORG
 10
0.0
 20
0.0
 30
0.0
  9
$PUCSXDIR
 10
1.0
 20
0.0
 30
0.0
  9
$PUCSYDIR
 10
0.0
 20
1.0
 30
0.0
  9
$PUCSORTHOREF
  2

  9
$PUCSORTHOVIEW
 70
     0
  9
$PUCSORGTOP
 10
0.0
 20
0.0
 30
0.0
  9
$PUCSORGBOTTOM
 10
0.0
 20
0.0
 30
0.0
  9
$PUCSORGLEFT
 10
0.0
 20
0.0
 30
0.0
  9
$PUCSORGRIGHT
 10
0.0
 20
0.0
 30
0.0
  9
$PUCSORGFRONT
 10
0.0
 20
0.0
 30
0.0
  9
$PUCSORGBACK
 10
0.0
 20
0.0
 30
0.0
  9
$USERI1
 70
     0
  9
$USERI2
 70
     0
  9
$USERI3
 70
     0
  9
$USERI4
 70
     0
  9
$USERI5
 70
     0
  9
$USERR1
 40
0.0
  9
$USERR2
 40
0.0
  9
$USERR3
 40
0.0
  9
$USERR4
 40
0.0
  9
$USERR5
 40
0.0
  9
$WORLDVIEW
 70
     1
  9
$SHADEDGE
 70
     3
  9
$SHADEDIF
 70
    70
  9
$TILEMODE
 70
     1
  9
$MAXACTVP
 70
    64
  9
$PINSBASE
 10
0.0
 20
0.0
 30
0.0
  9
$PLIMCHECK
 70
     0
  9
$PEXTMIN
 10
0.0
 20
0.0
 30
0.0
  9
$PEXTMAX
 10
0.0
 20
0.0
 30
0.0
  9
$PLIMMIN
 10
0.0
 20
0.0
  9
$PLIMMAX
 10
12.0
 20
9.0
  9
$UNITMODE
 70
     0
  9
$VISRETAIN
 70
     1
  9
$PLINEGEN
 70
     0
  9
$PSLTSCALE
 70
     1
  9
$TREEDEPTH
 70
  3020
  9
$CMLSTYLE
  2
Standard
  9
$CMLJUST
 70
     0
  9
$CMLSCALE
 40
20.0
  9
$PROXYGRAPHICS
 70
     1
  9
$MEASUREMENT
 70
     1
  9
$CELWEIGHT
370
    -1
  9
$ENDCAPS
280
     0
  9
$JOINSTYLE
280
     0
  9
$LWDISPLAY
290
     0
  9
$INSUNITS
 70
     4
  9
$HYPERLINKBASE
  1

  9
$STYLESHEET
  1

  9
$XEDIT
290
     1
  9
$CEPSNTYPE
380
     0
  9
$PSTYLEMODE
290
     1
  9
$FINGERPRINTGUID
  2
{A9F5D530-972F-4813-857A-78B9B08CAD27}
  9
$VERSIONGUID
  2
{10DF137B-084D-461A-AF81-BFAE880BDBA0}
  9
$EXTNAMES
290
     1
  9
$PSVPSCALE
 40
0.0
  9
$OLESTARTUP
290
     0
  0
ENDSEC
  0
SECTION
  2
CLASSES
  0
CLASS
  1
ACDBDICTIONARYWDFLT
  2
AcDbDictionaryWithDefault
  3
ObjectDBX Classes
 90
        0
280
     0
281
     0
  0
CLASS
  1
DICTIONARYVAR
  2
AcDbDictionaryVar
  3
ObjectDBX Classes
 90
        0
280
     0
281
     0
  0
CLASS
  1
TABLESTYLE
  2
AcDbTableStyle
  3
ObjectDBX Classes
 90
     4095
280
     0
281
     0
  0
CLASS
  1
MATERIAL
  2
AcDbMaterial
  3
ObjectDBX Classes
 90
     1153
280
     0
281
     0
  0
CLASS
  1
VISUALSTYLE
  2
AcDbVisualStyle
  3
ObjectDBX Classes
 90
     4095
280
     0
281
     0
  0
CLASS
  1
SORTENTSTABLE
  2
AcDbSortentsTable
  3
ObjectDBX Classes
 90
        0
280
     0
281
     0
  0
CLASS
  1
DIMASSOC
  2
AcDbDimAssoc
  3
"AcDbDimAssoc|Product Desc:     AcDim ARX App For Dimension|Company:          Autodesk, Inc.|WEB Address:      www.autodesk.com"
 90
        0
280
     0
281
     0
  0
CLASS
  1
ACDBPLACEHOLDER
  2
AcDbPlaceHolder
  3
ObjectDBX Classes
 90
        0
280
     0
281
     0
  0
CLASS
  1
LAYOUT
  2
AcDbLayout
  3
ObjectDBX Classes
 90
        0
280
     0
281
     0
  0
CLASS
  1
SCALE
  2
AcDbScale
  3
ObjectDBX Classes
 90
     1153
280
     0
281
     0
  0
CLASS
  1
MLEADERSTYLE
  2
AcDbMLeaderStyle
  3
ACDB_MLEADERSTYLE_CLASS
 90
     4095
280
     0
281
     0
  0
CLASS
  1
ACDBSECTIONVIEWSTYLE
  2
AcDbSectionViewStyle
  3
ObjectDBX Classes
 90
     1025
280
     0
281
     0
  0
CLASS
  1
ACDBDETAILVIEWSTYLE
  2
AcDbDetailViewStyle
  3
ObjectDBX Classes
 90
     1025
280
     0
281
     0
  0
CLASS
  1
CELLSTYLEMAP
  2
AcDbCellStyleMap
  3
ObjectDBX Classes
 90
     1152
280
     0
281
     0
  0
ENDSEC
  0
SECTION
  2
TABLES
  0
TABLE
  2
VPORT
  5
8
330
0
100
AcDbSymbolTable
 70
     1
  0
VPORT
  5
EA
330
8
100
AcDbSymbolTableRecord
100
AcDbViewportTableRecord
  2
*Active
 70
     0
 10
0.0
 20
0.0
 11
1.0
 21
1.0
 12
1401.454351887306
 22
1338.890924450369
 13
0.0
 23
0.0
 14
10.0
 24
10.0
 15
10.0
 25
10.0
 16
0.0
 26
0.0
 36
1.0
 17
0.0
 27
0.0
 37
0.0
 40
2431.563888024929
 41
1.983850931677018
 42
50.0
 43
0.0
 44
0.0
 50
0.0
 51
0.0
 71
     0
 72
  1000
 73
     1
 74
     3
 75
     0
 76
     0
 77
     0
 78
     0
281
     0
 65
     1
110
0.0
120
0.0
130
0.0
111
1.0
121
0.0
131
0.0
112
0.0
122
1.0
132
0.0
 79
     0
146
0.0
1001
ACAD_NAV_VCDISPLAY
1070
     3
  0
ENDTAB
  0
TABLE
  2
LTYPE
  5
5
330
0
100
AcDbSymbolTable
 70
     1
  0
LTYPE
  5
14
330
5
100
AcDbSymbolTableRecord
100
AcDbLinetypeTableRecord
  2
ByBlock
 70
     0
  3

 72
    65
 73
     0
 40
0.0
  0
LTYPE
  5
15
330
5
100
AcDbSymbolTableRecord
100
AcDbLinetypeTableRecord
  2
ByLayer
 70
     0
  3

 72
    65
 73
     0
 40
0.0
  0
LTYPE
  5
16
330
5
100
AcDbSymbolTableRecord
100
AcDbLinetypeTableRecord
  2
Continuous
 70
     0
  3
Solid line
 72
    65
 73
     0
 40
0.0
  0
ENDTAB
  0
TABLE
  2
LAYER
  5
2
102
{ACAD_XDICTIONARY
360
141
102
}
330
0
100
AcDbSymbolTable
 70
     3
  0
LAYER
  5
10
102
{ACAD_XDICTIONARY
360
1F01
102
}
330
2
100
AcDbSymbolTableRecord
100
AcDbLayerTableRecord
  2
0
 70
     0
 62
     7
  6
Continuous
370
    -3
390
F
  0
LAYER
  5
124
330
2
100
AcDbSymbolTableRecord
100
AcDbLayerTableRecord
  2
Defpoints
 70
     0
 62
     7
  6
Continuous
290
     0
370
    -3
390
F
  0
LAYER
  5
13E
102
{ACAD_XDICTIONARY
360
1F03
102
}
330
2
100
AcDbSymbolTableRecord
100
AcDbLayerTableRecord
  2
Hewi
 70
     0
 62
     7
  6
Continuous
370
    -3
390
F
  0
ENDTAB
  0
TABLE
  2
STYLE
  5
3
330
0
100
AcDbSymbolTable
 70
     1
  0
STYLE
  5
11
330
3
100
AcDbSymbolTableRecord
100
AcDbTextStyleTableRecord
  2
Standard
 70
     0
 40
0.0
 41
1.0
 50
0.0
 71
     0
 42
2.5
  3
txt
  4

  0
ENDTAB
  0
TABLE
  2
VIEW
  5
6
330
0
100
AcDbSymbolTable
 70
     0
  0
ENDTAB
  0
TABLE
  2
UCS
  5
7
330
0
100
AcDbSymbolTable
 70
     0
  0
ENDTAB
  0
TABLE
  2
APPID
  5
9
330
0
100
AcDbSymbolTable
 70
     6
  0
APPID
  5
12
330
9
100
AcDbSymbolTableRecord
100
AcDbRegAppTableRecord
  2
ACAD
 70
     0
  0
APPID
  5
9E
330
9
100
AcDbSymbolTableRecord
100
AcDbRegAppTableRecord
  2
ACAD_PSEXT
 70
     0
  0
APPID
  5
212
330
9
100
AcDbSymbolTableRecord
100
AcDbRegAppTableRecord
  2
ACAD_EXEMPT_FROM_CAD_STANDARDS
 70
     0
  0
APPID
  5
1E9D
330
9
100
AcDbSymbolTableRecord
100
AcDbRegAppTableRecord
  2
DCO15
 70
     0
  0
APPID
  5
1F0C
330
9
100
AcDbSymbolTableRecord
100
AcDbRegAppTableRecord
  2
ACAD_NAV_VCDISPLAY
 70
     0
  0
APPID
  5
1F4C
330
9
100
AcDbSymbolTableRecord
100
AcDbRegAppTableRecord
  2
ACAD_MLEADERVER
 70
     0
  0
ENDTAB
  0
TABLE
  2
DIMSTYLE
  5
A
330
0
100
AcDbSymbolTable
 70
     2
100
AcDbDimStyleTable
 71
     1
340
27
  0
DIMSTYLE
105
27
330
A
100
AcDbSymbolTableRecord
100
AcDbDimStyleTableRecord
  2
ISO-25
 70
     0
 41
2.5
 42
0.625
 43
3.75
 44
1.25
 73
     0
 74
     0
 77
     1
 78
     8
140
2.5
141
2.5
143
0.03937007874016
147
0.625
171
     3
172
     1
271
     2
272
     2
274
     3
278
    44
283
     0
284
     8
340
11
  0
DIMSTYLE
105
254
330
A
100
AcDbSymbolTableRecord
100
AcDbDimStyleTableRecord
  2
Standard
 70
     0
340
11
  0
ENDTAB
  0
TABLE
  2
BLOCK_RECORD
  5
1
330
0
100
AcDbSymbolTable
 70
     3
  0
BLOCK_RECORD
  5
1F
102
{ACAD_XDICTIONARY
360
116
102
}
330
1
100
AcDbSymbolTableRecord
100
AcDbBlockTableRecord
  2
*Model_Space
340
22
  0
BLOCK_RECORD
  5
D2
330
1
100
AcDbSymbolTableRecord
100
AcDbBlockTableRecord
  2
*Paper_Space
340
D3
  0
BLOCK_RECORD
  5
D6
330
1
100
AcDbSymbolTableRecord
100
AcDbBlockTableRecord
  2
*Paper_Space0
340
D7
  0
BLOCK_RECORD
  5
1ED2
330
1
100
AcDbSymbolTableRecord
100
AcDbBlockTableRecord
  2
*D1
340
0
  0
BLOCK_RECORD
  5
1EEA
330
1
100
AcDbSymbolTableRecord
100
AcDbBlockTableRecord
  2
*D2
340
0
  0
ENDTAB
  0
ENDSEC
  0
SECTION
  2
BLOCKS
  0
BLOCK
  5
20
330
1F
100
AcDbEntity
  8
0
100
AcDbBlockBegin
  2
*Model_Space
 70
     0
 10
0.0
 20
0.0
 30
0.0
  3
*Model_Space
  1

  0
ENDBLK
  5
21
330
1F
100
AcDbEntity
  8
0
100
AcDbBlockEnd
  0
BLOCK
  5
D4
330
D2
100
AcDbEntity
 67
     1
  8
0
100
AcDbBlockBegin
  2
*Paper_Space
 70
     0
 10
0.0
 20
0.0
 30
0.0
  3
*Paper_Space
  1

  0
ENDBLK
  5
D5
330
D2
100
AcDbEntity
 67
     1
  8
0
100
AcDbBlockEnd
  0
BLOCK
  5
D8
330
D6
100
AcDbEntity
 67
     1
  8
0
100
AcDbBlockBegin
  2
*Paper_Space0
 70
     0
 10
0.0
 20
0.0
 30
0.0
  3
*Paper_Space0
  1

  0
ENDBLK
  5
D9
330
D6
100
AcDbEntity
 67
     1
  8
0
100
AcDbBlockEnd
  0
BLOCK
  5
1ED3
330
1ED2
100
AcDbEntity
  8
0
100
AcDbBlockBegin
  2
*D1
 70
     1
 10
0.0
 20
0.0
 30
0.0
  3
*D1
  1

  0
LINE
  5
1EDF
330
1ED2
100
AcDbEntity
  8
0
 62
     0
370
    -2
100
AcDbLine
 10
642.1833611205792
 20
2309.253683116897
 30
0.0
 11
1229.129904351226
 21
2309.253683116896
 31
0.0
  0
LINE
  5
1EE0
330
1ED2
100
AcDbEntity
  8
0
 62
     0
370
    -2
100
AcDbLine
 10
908.6833611205797
 20
1158.99933736742
 30
0.0
 11
1229.129904351226
 21
1158.99933736742
 31
0.0
  0
LINE
  5
1EE1
330
1ED2
100
AcDbEntity
  8
0
 62
     0
370
    -2
100
AcDbLine
 10
1227.879904351226
 20
2306.753683116896
 30
0.0
 11
1227.879904351226
 21
1161.49933736742
 31
0.0
  0
SOLID
  5
1EE2
330
1ED2
100
AcDbEntity
  8
0
 62
     0
100
AcDbTrace
 10
1227.46323768456
 20
2306.753683116896
 30
0.0
 11
1228.296571017893
 21
2306.753683116896
 31
0.0
 12
1227.879904351226
 22
2309.253683116896
 32
0.0
 13
1227.879904351226
 23
2309.253683116896
 33
0.0
  0
SOLID
  5
1EE3
330
1ED2
100
AcDbEntity
  8
0
 62
     0
100
AcDbTrace
 10
1227.463237684559
 20
1161.49933736742
 30
0.0
 11
1228.296571017893
 21
1161.49933736742
 31
0.0
 12
1227.879904351226
 22
1158.99933736742
 32
0.0
 13
1227.879904351226
 23
1158.99933736742
 33
0.0
  0
MTEXT
  5
1EE4
330
1ED2
100
AcDbEntity
  8
0
 62
     0
100
AcDbMText
 10
1225.796571017893
 20
1734.126510242158
 30
0.0
 40
2.5
 41
0.0
 71
     5
 72
     1
  1
1150,25
 11
0.0000000000000001
 21
1.0
 31
0.0
 73
     1
 44
1.0
1001
ACAD
1000
MTEXTBEGIN
1070
    73
1070
     1
1070
    44
1040
1.0
1070
    74
1070
     0
1000
MTEXTEND
  0
POINT
  5
1EE5
330
1ED2
100
AcDbEntity
  8
Defpoints
 62
     0
100
AcDbPoint
 10
641.5583611205793
 20
2309.253683116897
 30
0.0
  0
POINT
  5
1EE6
330
1ED2
100
AcDbEntity
  8
Defpoints
 62
     0
100
AcDbPoint
 10
908.0583611205796
 20
1158.99933736742
 30
0.0
  0
POINT
  5
1EE7
330
1ED2
100
AcDbEntity
  8
Defpoints
 62
     0
100
AcDbPoint
 10
1227.879904351226
 20
1158.99933736742
 30
0.0
  0
ENDBLK
  5
1ED4
330
1ED2
100
AcDbEntity
  8
0
100
AcDbBlockEnd
  0
BLOCK
  5
1EEB
330
1EEA
100
AcDbEntity
  8
0
100
AcDbBlockBegin
  2
*D2
 70
     1
 10
0.0
 20
0.0
 30
0.0
  3
*D2
  1

  0
LINE
  5
1EF7
330
1EEA
100
AcDbEntity
  8
0
 62
     0
370
    -2
100
AcDbLine
 10
235.5583611205794
 20
1158.37433736742
 30
0.0
 11
235.5583611205794
 21
1064.617931475521
 31
0.0
  0
LINE
  5
1EF8
330
1EEA
100
AcDbEntity
  8
0
 62
     0
370
    -2
100
AcDbLine
 10
1047.558361120579
 20
1158.374338360102
 30
0.0
 11
1047.558361120579
 21
1064.617931475521
 31
0.0
  0
LINE
  5
1EF9
330
1EEA
100
AcDbEntity
  8
0
 62
     0
370
    -2
100
AcDbLine
 10
238.0583611205794
 20
1065.867931475522
 30
0.0
 11
1045.058361120579
 21
1065.867931475522
 31
0.0
  0
SOLID
  5
1EFA
330
1EEA
100
AcDbEntity
  8
0
 62
     0
100
AcDbTrace
 10
238.0583611205794
 20
1066.284598142188
 30
0.0
 11
238.0583611205794
 21
1065.451264808855
 31
0.0
 12
235.5583611205794
 22
1065.867931475522
 32
0.0
 13
235.5583611205794
 23
1065.867931475522
 33
0.0
  0
SOLID
  5
1EFB
330
1EEA
100
AcDbEntity
  8
0
 62
     0
100
AcDbTrace
 10
1045.058361120579
 20
1066.284598142188
 30
0.0
 11
1045.058361120579
 21
1065.451264808855
 31
0.0
 12
1047.558361120579
 22
1065.867931475522
 32
0.0
 13
1047.558361120579
 23
1065.867931475522
 33
0.0
  0
MTEXT
  5
1EFC
330
1EEA
100
AcDbEntity
  8
0
 62
     0
100
AcDbMText
 10
641.558361120579
 20
1067.742931475522
 30
0.0
 40
2.5
 41
0.0
 71
     5
 72
     1
  1
812
 73
     1
 44
1.0
1001
ACAD
1000
MTEXTBEGIN
1070
    73
1070
     1
1070
    44
1040
1.0
1070
    74
1070
     0
1000
MTEXTEND
  0
POINT
  5
1EFD
330
1EEA
100
AcDbEntity
  8
Defpoints
 62
     0
100
AcDbPoint
 10
235.5583611205794
 20
1158.99933736742
 30
0.0
  0
POINT
  5
1EFE
330
1EEA
100
AcDbEntity
  8
Defpoints
 62
     0
100
AcDbPoint
 10
1047.558361120579
 20
1158.999338360102
 30
0.0
  0
POINT
  5
1EFF
330
1EEA
100
AcDbEntity
  8
Defpoints
 62
     0
100
AcDbPoint
 10
1047.558361120579
 20
1065.867931475522
 30
0.0
  0
ENDBLK
  5
1EEC
330
1EEA
100
AcDbEntity
  8
0
100
AcDbBlockEnd
  0
ENDSEC
  0
SECTION
  2
ENTITIES
  0
LINE
  5
10B3
330
1F
100
AcDbEntity
  8
Hewi
100
AcDbLine
 10
327.7062975394392
 20
795.7497181118766
 30
0.0
 11
490.8550132392673
 21
795.7497181118766
 31
0.0
  0
LINE
  5
1338
330
1F
100
AcDbEntity
  8
Hewi
  6
Continuous
100
AcDbLine
 10
1594.495962741824
 20
2256.453683116893
 30
0.0
 11
1594.495906893541
 21
2217.985371001487
 31
0.0
  0
LINE
  5
1339
330
1F
100
AcDbEntity
  8
Hewi
  6
Continuous
100
AcDbLine
 10
1594.495880784982
 20
2250.001788364091
 30
0.0
 11
1594.495648482647
 21
2089.991876379091
 31
0.0
  0
LINE
  5
133A
330
1F
100
AcDbEntity
  8
Hewi
  6
Continuous
100
AcDbLine
 10
1594.495494591883
 20
2233.991876379112
 30
0.0
 11
1594.495471356967
 21
2217.987659350394
 31
0.0
  0
LINE
  5
133B
330
1F
100
AcDbEntity
  8
Hewi
  6
Continuous
100
AcDbLine
 10
1594.495445243677
 20
2250.000818993354
 30
0.0
 11
1594.495212942749
 21
2089.991876379091
 31
0.0
  0
LINE
  5
133C
330
1F
100
AcDbEntity
  8
Hewi
  6
Continuous
100
AcDbLine
 10
1594.495930870299
 20
1983.991876379112
 30
0.0
 11
1594.494757065684
 21
1175.474938054655
 31
0.0
  0
LINE
  5
133E
330
1F
100
AcDbEntity
  8
Hewi
  6
Continuous
100
AcDbLine
 10
1627.494746227775
 20
1158.99933736742
 30
0.0
 11
1627.494746227775
 21
1983.991876379112
 31
0.0
  0
LINE
  5
133F
330
1F
100
AcDbEntity
  8
Hewi
  6
Continuous
100
AcDbLine
 10
1627.494746227775
 20
2089.991876379091
 30
0.0
 11
1627.494746227775
 21
2257.064336285443
 31
0.0
  0
LINE
  5
1340
330
1F
100
AcDbEntity
  8
Hewi
  6
Continuous
100
AcDbLine
 10
1627.494746227775
 20
2089.991876379091
 30
0.0
 11
1627.494746227775
 21
2257.064336285443
 31
0.0
  0
LINE
  5
1341
330
1F
100
AcDbEntity
  8
Hewi
  6
Continuous
100
AcDbLine
 10
1567.865133033771
 20
1167.99933736742
 30
0.0
 11
1550.494975467865
 21
1167.99933736742
 31
0.0
  0
LINE
  5
1342
330
1F
100
AcDbEntity
  8
Hewi
  6
Continuous
100
AcDbLine
 10
1550.495297799757
 20
1149.99933736742
 30
0.0
 11
1567.865133033771
 21
1149.99933736742
 31
0.0
  0
LINE
  5
1343
330
1F
100
AcDbEntity
  8
Hewi
  6
Continuous
100
AcDbLine
 10
1548.494746227774
 20
2248.99933736742
 30
0.0
 11
1537.494746227775
 21
2248.99933736742
 31
0.0
  0
LINE
  5
1344
330
1F
100
AcDbEntity
  8
Hewi
  6
Continuous
100
AcDbLine
 10
1537.494746227775
 20
2168.99933736742
 30
0.0
 11
1548.494746227774
 21
2168.99933736742
 31
0.0
  0
LINE
  5
1345
330
1F
100
AcDbEntity
  8
Hewi
  6
Continuous
100
AcDbLine
 10
1594.488394929413
 20
2217.99933736742
 30
0.0
 11
1550.495176554743
 21
2217.99933736742
 31
0.0
  0
LINE
  5
1346
330
1F
100
AcDbEntity
  8
Hewi
  6
Continuous
100
AcDbLine
 10
1550.495119476819
 20
2199.99933736742
 30
0.0
 11
1594.49472214923
 21
2199.99933736742
 31
0.0
  0
LINE
  5
1347
330
1F
100
AcDbEntity
  8
Hewi
  6
Continuous
100
AcDbLine
 10
1548.494746227774
 20
1198.99933736742
 30
0.0
 11
1537.494746227775
 21
1198.99933736742
 31
0.0
  0
LINE
  5
1348
330
1F
100
AcDbEntity
  8
Hewi
  6
Continuous
100
AcDbLine
 10
1537.494746227775
 20
1118.99933736742
 30
0.0
 11
1548.494746227774
 21
1118.99933736742
 31
0.0
  0
LINE
  5
134B
330
1F
100
AcDbEntity
  8
Hewi
  6
Continuous
100
AcDbLine
 10
1594.494746227774
 20
2257.064336285443
 30
0.0
 11
1594.494746227774
 21
2256.953683116893
 31
0.0
  0
LINE
  5
134C
330
1F
100
AcDbEntity
  8
Hewi
  6
Continuous
100
AcDbLine
 10
1627.494746227775
 20
2256.953683116893
 30
0.0
 11
1627.494746227775
 21
2257.064336285443
 31
0.0
  0
LINE
  5
134D
330
1F
100
AcDbEntity
  8
Hewi
  6
Continuous
100
AcDbLine
 10
1610.994746227774
 20
2256.453683116893
 30
0.0
 11
1594.494746227774
 21
2256.453683116893
 31
0.0
  0
LINE
  5
134E
330
1F
100
AcDbEntity
  8
Hewi
  6
Continuous
100
AcDbLine
 10
1627.494746227775
 20
2256.453683116893
 30
0.0
 11
1610.994746227774
 21
2256.453683116893
 31
0.0
  0
LINE
  5
1350
330
1F
100
AcDbEntity
  8
Hewi
  6
Continuous
100
AcDbLine
 10
1550.494746227774
 20
2170.99933736742
 30
0.0
 11
1550.494746227774
 21
2246.99933736742
 31
0.0
  0
LINE
  5
1351
330
1F
100
AcDbEntity
  8
Hewi
  6
Continuous
100
AcDbLine
 10
1537.494746227775
 20
2168.99933736742
 30
0.0
 11
1537.494746227775
 21
2248.99933736742
 31
0.0
  0
LINE
  5
1352
330
1F
100
AcDbEntity
  8
Hewi
  6
Continuous
100
AcDbLine
 10
1537.494746227775
 20
1118.99933736742
 30
0.0
 11
1537.494746227775
 21
1198.99933736742
 31
0.0
  0
LINE
  5
1353
330
1F
100
AcDbEntity
  8
Hewi
  6
Continuous
100
AcDbLine
 10
1550.494746227774
 20
1120.99933736742
 30
0.0
 11
1550.494746227774
 21
1196.999337367421
 31
0.0
  0
LINE
  5
1355
330
1F
100
AcDbEntity
  8
Hewi
  6
Continuous
100
AcDbLine
 10
1627.494746227775
 20
2256.953683116893
 30
0.0
 11
1594.494746227774
 21
2256.953683116893
 31
0.0
  0
LINE
  5
1356
330
1F
100
AcDbEntity
  8
Hewi
100
AcDbLine
 10
625.0583611205802
 20
2257.064336285444
 30
-0.0000000000000016
 11
625.0583611205802
 21
2090.883541917523
 31
-0.0000000000000016
  0
LINE
  5
1357
330
1F
100
AcDbEntity
  8
Hewi
100
AcDbLine
 10
625.0583611205802
 20
2257.064336285444
 30
-0.0000000000000016
 11
625.0583611205802
 21
2090.883541917523
 31
-0.0000000000000016
  0
LINE
  5
1358
330
1F
100
AcDbEntity
  8
Hewi
100
AcDbLine
 10
625.0583611205802
 20
1982.883519373195
 30
-0.0000000000000016
 11
625.0583611205793
 21
1204.476637573451
 31
0.0000000000000059
  0
LINE
  5
1359
330
1F
100
AcDbEntity
  8
Hewi
100
AcDbLine
 10
658.0583611205793
 20
1204.476637573451
 30
0.0000000000000059
 11
658.0583611205802
 21
1982.883519373195
 31
0.0000000000000015
  0
LINE
  5
135A
330
1F
100
AcDbEntity
  8
Hewi
100
AcDbLine
 10
658.0583611205802
 20
2090.883541917523
 30
0.0000000000000016
 11
658.0583611205802
 21
2257.064336285444
 31
0.0000000000000015
  0
LINE
  5
135B
330
1F
100
AcDbEntity
  8
Hewi
100
AcDbLine
 10
658.0583611205802
 20
2090.883541917523
 30
0.0000000000000015
 11
658.0583611205801
 21
2257.064336285444
 31
0.0000000000000015
  0
LINE
  5
135C
330
1F
100
AcDbEntity
  8
Hewi
100
AcDbLine
 10
681.4876984750871
 20
2206.623420377405
 30
0.0000000000000003
 11
681.6003814142022
 21
2206.625182611619
 31
0.0000000000000003
  0
LINE
  5
135D
330
1F
100
AcDbEntity
  8
Hewi
100
AcDbLine
 10
681.5065596467173
 20
2212.624449023102
 30
0.0000000000000003
 11
681.3939019190721
 21
2212.622687183172
 31
0.0000000000000003
  0
LINE
  5
1362
330
1F
100
AcDbEntity
  8
Hewi
100
AcDbLine
 10
681.5161180061108
 20
2207.161514050688
 30
0.0000000000000003
 11
681.5907889203222
 21
2207.238557608316
 31
0.0000000000000003
  0
LINE
  5
1363
330
1F
100
AcDbEntity
  8
Hewi
100
AcDbLine
 10
681.5161521405961
 20
2212.011074026418
 30
0.0000000000000003
 11
681.4391085829702
 21
2212.085744940631
 31
0.0000000000000003
  0
LINE
  5
1366
330
1F
100
AcDbEntity
  8
Hewi
100
AcDbLine
 10
625.0583611205802
 20
2257.064336285444
 30
-0.0000000000000016
 11
625.0583611205802
 21
2256.953683116894
 31
-0.0000000000000016
  0
LINE
  5
1367
330
1F
100
AcDbEntity
  8
Hewi
100
AcDbLine
 10
658.0583611205802
 20
2256.953683116894
 30
0.0000000000000016
 11
658.0583611205802
 21
2257.064336285444
 31
0.0000000000000016
  0
LINE
  5
1368
330
1F
100
AcDbEntity
  8
Hewi
100
AcDbLine
 10
681.5907889203222
 20
2207.238557608316
 30
0.0000000000000003
 11
681.5148607048022
 21
2207.237370176558
 31
0.0000000000000003
  0
LINE
  5
1369
330
1F
100
AcDbEntity
  8
Hewi
100
AcDbLine
 10
681.5161521405961
 20
2212.011074026418
 30
0.0000000000000003
 11
681.4402239250772
 21
2212.009886594677
 31
0.0000000000000003
  0
LINE
  5
136D
330
1F
100
AcDbEntity
  8
Hewi
100
AcDbLine
 10
681.5161521405961
 20
2212.011074026418
 30
0.0000000000000003
 11
681.5907889203222
 21
2207.238557608316
 31
0.0000000000000003
  0
LINE
  5
136F
330
1F
100
AcDbEntity
  8
Hewi
100
AcDbLine
 10
658.0583611205802
 20
2256.953683116894
 30
0.0000000000000016
 11
625.0583611205802
 21
2256.953683116894
 31
-0.0000000000000016
  0
ARC
  5
1370
330
1F
100
AcDbEntity
  8
Hewi
  6
Continuous
100
AcDbCircle
 10
1626.994746227774
 20
2256.453683116893
 30
0.0
 40
0.5
100
AcDbArc
 50
0.0
 51
90.0
  0
ARC
  5
1371
330
1F
100
AcDbEntity
  8
Hewi
  6
Continuous
100
AcDbCircle
 10
1594.994746227774
 20
2256.453683116893
 30
0.0
 40
0.5
100
AcDbArc
 50
90.0
 51
180.0
  0
ARC
  5
1374
330
1F
100
AcDbEntity
  8
Hewi
  6
Continuous
100
AcDbCircle
 10
1548.494746227774
 20
2246.99933736742
 30
0.0
 40
2.0
100
AcDbArc
 50
0.0
 51
90.0
  0
ARC
  5
1375
330
1F
100
AcDbEntity
  8
Hewi
  6
Continuous
100
AcDbCircle
 10
1548.494746227774
 20
2170.99933736742
 30
0.0
 40
2.0
100
AcDbArc
 50
270.0
 51
0.0
  0
ARC
  5
1376
330
1F
100
AcDbEntity
  8
Hewi
  6
Continuous
100
AcDbCircle
 10
1548.494746227774
 20
1196.999337367421
 30
0.0
 40
2.0
100
AcDbArc
 50
0.0
 51
90.0
  0
ARC
  5
1377
330
1F
100
AcDbEntity
  8
Hewi
  6
Continuous
100
AcDbCircle
 10
1548.494746227774
 20
1120.99933736742
 30
0.0
 40
2.0
100
AcDbArc
 50
270.0
 51
0.0
  0
ARC
  5
137B
330
1F
100
AcDbEntity
  8
Hewi
  6
Continuous
100
AcDbCircle
 10
1626.294746227777
 20
2257.064336285443
 30
0.0
 40
1.199999999999999
100
AcDbArc
 50
0.0
 51
82.60044591067227
  0
ARC
  5
137C
330
1F
100
AcDbEntity
  8
Hewi
  6
Continuous
100
AcDbCircle
 10
1595.694746227785
 20
2257.064336285443
 30
0.0
 40
1.199999999999999
100
AcDbArc
 50
97.3995540893277
 51
180.0
  0
ARC
  5
137D
330
1F
100
AcDbEntity
  8
Hewi
  6
Continuous
100
AcDbCircle
 10
1610.994746227774
 20
2139.253683116897
 30
0.0
 40
120.0
100
AcDbArc
 50
82.60044591067227
 51
97.3995540893277
  0
ARC
  5
137E
330
1F
100
AcDbEntity
  8
Hewi
100
AcDbCircle
 10
657.5583611205793
 20
2256.453683116894
 30
0.0000000000000015
 40
0.5
100
AcDbArc
 50
0.0
 51
90.0
  0
ARC
  5
137F
330
1F
100
AcDbEntity
  8
Hewi
100
AcDbCircle
 10
625.5583611205802
 20
2256.453683116894
 30
-0.0000000000000015
 40
0.5
100
AcDbArc
 50
90.0
 51
180.0
  0
ARC
  5
1385
330
1F
100
AcDbEntity
  8
Hewi
100
AcDbCircle
 10
656.8583611205681
 20
2257.064336285444
 30
0.0000000000000015
 40
1.199999999999999
100
AcDbArc
 50
0.0
 51
82.60044591067227
  0
ARC
  5
1386
330
1F
100
AcDbEntity
  8
Hewi
100
AcDbCircle
 10
626.2583611205774
 20
2257.064336285444
 30
-0.0000000000000015
 40
1.199999999999999
100
AcDbArc
 50
97.3995540893277
 51
180.0
  0
ARC
  5
1387
330
1F
100
AcDbEntity
  8
Hewi
100
AcDbCircle
 10
641.5583611205793
 20
2139.253683116897
 30
0.0
 40
120.0
100
AcDbArc
 50
82.60044591067227
 51
97.3995540893277
  0
ARC
  5
1388
330
1F
100
AcDbEntity
  8
Hewi
100
AcDbCircle
 10
-641.5583611205793
 20
2208.999337367421
 30
0.0
 40
40.0
210
0.0
220
0.0
230
-1.0
100
AcDbArc
 50
359.9999987526901
 51
65.63812970700446
  0
ARC
  5
1389
330
1F
100
AcDbEntity
  8
Hewi
100
AcDbCircle
 10
-641.5583611205793
 20
2208.999337367421
 30
0.0
 40
40.0
210
0.0
220
0.0
230
-1.0
100
AcDbArc
 50
114.3675059093169
 51
245.6325091968126
  0
ARC
  5
138A
330
1F
100
AcDbEntity
  8
Hewi
100
AcDbCircle
 10
-641.5583611205793
 20
2208.999337367421
 30
0.0
 40
40.0
210
0.0
220
0.0
230
-1.0
100
AcDbArc
 50
294.3618821226967
 51
0.0000130767440115
  0
ARC
  5
138B
330
1F
100
AcDbEntity
  8
Hewi
100
AcDbCircle
 10
-641.5583611205792
 20
1270.976637573452
 30
0.0
 40
40.0
210
0.0
220
0.0
230
-1.0
100
AcDbArc
 50
359.9999931814835
 51
65.63812413493298
  0
ARC
  5
138C
330
1F
100
AcDbEntity
  8
Hewi
100
AcDbCircle
 10
-641.5583611205792
 20
1270.976637573452
 30
0.0
 40
40.0
210
0.0
220
0.0
230
-1.0
100
AcDbArc
 50
114.3675003378842
 51
245.6325036253658
  0
ARC
  5
138D
330
1F
100
AcDbEntity
  8
Hewi
100
AcDbCircle
 10
-641.5583611205792
 20
1270.976637573452
 30
0.0
 40
40.0
210
0.0
220
0.0
230
-1.0
100
AcDbArc
 50
294.3618765515402
 51
0.0000075055374644
  0
SPLINE
  5
138F
330
1F
100
AcDbEntity
  8
Hewi
  6
Continuous
100
AcDbSpline
210
0.0
220
0.0
230
1.0
 70
     8
 71
     3
 72
    14
 73
    10
 74
     0
 42
0.0000000001
 43
0.0000000001
 40
0.0
 40
0.0
 40
0.0
 40
0.0
 40
0.2434469386710948
 40
0.2434469386710948
 40
0.4956312924473967
 40
0.4956312924473967
 40
0.7478156462236985
 40
0.7478156462236985
 40
1.0
 40
1.0
 40
1.0
 40
1.0
 10
1594.495009701959
 20
2199.999563412665
 30
0.0
 10
1594.495597075144
 20
2200.011219277131
 30
0.0
 10
1595.043611168335
 20
2200.964961268136
 30
0.0
 10
1596.334158811089
 20
2204.107870337566
 30
0.0
 10
1597.027577507103
 20
2206.399566235425
 30
0.0
 10
1597.04565474897
 20
2211.210390174264
 30
0.0
 10
1596.356475857841
 20
2213.574610906665
 30
0.0
 10
1595.040848415997
 20
2216.902376340772
 30
0.0
 10
1594.466381933115
 20
2217.960248930828
 30
0.0
 10
1594.495969842913
 20
2217.998236984652
 30
0.0
  0
LINE
  5
1390
330
1F
100
AcDbEntity
  8
Hewi
  6
Continuous
100
AcDbLine
 10
1594.488394929413
 20
2217.99933736742
 30
0.0
 11
1594.488394929413
 21
2256.453683116893
 31
0.0
  0
LINE
  5
1391
330
1F
100
AcDbEntity
  8
Hewi
100
AcDbLine
 10
617.2621799080689
 20
2050.883519373183
 30
0.0000000000000011
 11
608.762179908069
 21
2050.883519373183
 31
0.0000000000000001
210
0.0
220
1.0
230
0.0
  0
LINE
  5
1392
330
1F
100
AcDbEntity
  8
Hewi
100
AcDbLine
 10
617.2621799080689
 20
2090.883519373184
 30
0.0000000000000011
 11
608.762179908069
 21
2090.883519373184
 31
0.0000000000000001
210
0.0
220
1.0
230
0.0
  0
ARC
  5
1393
330
1F
100
AcDbEntity
  8
Hewi
100
AcDbCircle
 10
584.1121799080702
 20
2089.883519373196
 30
-0.000000000000003
 40
0.9999999999999998
100
AcDbArc
 50
90.0
 51
180.0
  0
ARC
  5
1394
330
1F
100
AcDbEntity
  8
Hewi
100
AcDbCircle
 10
584.1121799080702
 20
2051.883519373197
 30
-0.000000000000003
 40
0.9999999999999998
100
AcDbArc
 50
180.0
 51
270.0
  0
SPLINE
  5
1395
330
1F
100
AcDbEntity
  8
Hewi
100
AcDbSpline
210
0.0000000000003131
220
-0.0000000000002765
230
1.0
 70
     8
 71
     3
 72
    10
 73
     6
 74
     0
 42
0.0000000001
 43
0.0000000001
 40
0.5238557413344813
 40
0.5238557413344813
 40
0.5238557413344813
 40
0.5238557413344813
 40
3.344927373450713
 40
3.344927373450713
 40
3.375545046730997
 40
3.375545046730997
 40
3.375545046730997
 40
3.375545046730997
 10
583.8821782366776
 20
2074.647000649983
 30
-0.000000000000003
 10
584.4802390866217
 20
2075.361157722986
 30
-0.0000000000000029
 10
585.0922875188007
 20
2076.057717519768
 30
-0.0000000000000028
 10
585.7205474546743
 20
2076.741569382003
 30
-0.0000000000000028
 10
585.7272941164783
 20
2076.748909450433
 30
-0.0000000000000028
 10
585.7340420097544
 20
2076.756247286601
 30
-0.0000000000000028
  0
SPLINE
  5
1396
330
1F
100
AcDbEntity
  8
Hewi
100
AcDbSpline
210
-0.0000000000000033
220
0.0000000000000055
230
-1.0
 70
     8
 71
     3
 72
    18
 73
    14
 74
     0
 42
0.0000000001
 43
0.0000000001
 40
1.6540747858433
 40
1.6540747858433
 40
1.6540747858433
 40
1.6540747858433
 40
1.715582394495875
 40
1.715582394495875
 40
1.902970208297488
 40
1.902970208297488
 40
2.031734176382974
 40
2.031734176382974
 40
2.255265245202036
 40
2.255265245202036
 40
2.814065234951959
 40
2.814065234951959
 40
3.138692671095101
 40
3.138692671095101
 40
3.138692671095101
 40
3.138692671095101
 10
585.7340418350315
 20
2076.756247413039
 30
-0.0000000000000028
 10
585.7477134333276
 20
2076.771114214999
 30
-0.0000000000000028
 10
585.7615191509957
 20
2076.785762242204
 30
-0.0000000000000028
 10
585.8178467065616
 20
2076.844113536873
 30
-0.0000000000000028
 10
585.8613838390803
 20
2076.886002781845
 30
-0.0000000000000027
 10
585.9359784547803
 20
2076.952838962933
 30
-0.0000000000000027
 10
585.9667168688567
 20
2076.979019532357
 30
-0.0000000000000027
 10
586.0514766746218
 20
2077.047607446562
 30
-0.0000000000000027
 10
586.1060859173582
 20
2077.08786888559
 30
-0.0000000000000027
 10
586.2985807206697
 20
2077.216018531877
 30
-0.0000000000000027
 10
586.4285814748265
 20
2077.278526654776
 30
-0.0000000000000027
 10
586.6174805499857
 20
2077.335495266672
 30
-0.0000000000000027
 10
586.6973764139266
 20
2077.351759496956
 30
-0.0000000000000026
 10
586.7814316544836
 20
2077.351729290827
 30
-0.0000000000000026
  0
SPLINE
  5
1397
330
1F
100
AcDbEntity
  8
Hewi
100
AcDbSpline
210
0.0
220
0.0
230
1.0
 70
     8
 71
     3
 72
    24
 73
    20
 74
     0
 42
0.0000000001
 43
0.0000000001
 40
0.0
 40
0.0
 40
0.0
 40
0.0
 40
0.0756974007302869
 40
0.0756974007302869
 40
0.2789853411804089
 40
0.2789853411804089
 40
0.3497529015458669
 40
0.3497529015458669
 40
0.5919349001703657
 40
0.5919349001703657
 40
1.276514795648737
 40
1.276514795648737
 40
1.476316936862741
 40
1.476316936862741
 40
1.827563147716625
 40
1.827563147716625
 40
1.910592365237698
 40
1.910592365237698
 40
1.954297335670274
 40
1.954297335670274
 40
1.954297335670274
 40
1.954297335670274
 10
583.1121799080701
 20
2072.975279375237
 30
-0.0000000000000031
 10
583.1121799080701
 20
2072.996368891987
 30
-0.0000000000000031
 10
583.1129424417495
 20
2073.017540274102
 30
-0.0000000000000031
 10
583.1181377683585
 20
2073.095569270215
 30
-0.0000000000000031
 10
583.1265759267198
 20
2073.153149387778
 30
-0.0000000000000031
 10
583.1424737857305
 20
2073.231494347679
 30
-0.0000000000000031
 10
583.1469914391237
 20
2073.251786539595
 30
-0.0000000000000031
 10
583.1686285125633
 20
2073.34175865335
 30
-0.0000000000000031
 10
583.1897552129468
 20
2073.412141941595
 30
-0.0000000000000031
 10
583.2835291494276
 20
2073.682747433464
 30
-0.0000000000000031
 10
583.3806346901337
 20
2073.888606076963
 30
-0.0000000000000031
 10
583.5272188007182
 20
2074.143930066556
 30
-0.000000000000003
 10
583.5619472433571
 20
2074.201228655733
 30
-0.000000000000003
 10
583.6616497409766
 20
2074.357078465213
 30
-0.000000000000003
 10
583.7300475240346
 20
2074.454707540029
 30
-0.000000000000003
 10
583.8193992710167
 20
2074.569887527085
 30
-0.000000000000003
 10
583.8367224942512
 20
2074.591687570221
 30
-0.000000000000003
 10
583.8635101388116
 20
2074.624554178515
 30
-0.000000000000003
 10
583.8728128472537
 20
2074.635816744569
 30
-0.000000000000003
 10
583.8821784546205
 20
2074.647000392479
 30
-0.000000000000003
  0
SPLINE
  5
1398
330
1F
100
AcDbEntity
  8
Hewi
100
AcDbSpline
210
0.0000000000000002
220
-0.0000000000000004
230
1.0
 70
     8
 71
     3
 72
    20
 73
    16
 74
     0
 42
0.0000000001
 43
0.0000000001
 40
1.736023434719105
 40
1.736023434719105
 40
1.736023434719105
 40
1.736023434719105
 40
4.481724718716971
 40
4.481724718716971
 40
8.494256553288714
 40
8.494256553288714
 40
12.2302098530054
 40
12.2302098530054
 40
16.0190034065687
 40
16.0190034065687
 40
20.63191901924623
 40
20.63191901924623
 40
24.55726384241274
 40
24.55726384241274
 40
27.09366019960931
 40
27.09366019960931
 40
27.09366019960931
 40
27.09366019960931
 10
588.2373310692146
 20
2077.046994038328
 30
-0.0000000000000025
 10
588.932504152459
 20
2076.47923615424
 30
-0.0000000000000024
 10
589.6913543925992
 20
2075.974210357879
 30
-0.0000000000000023
 10
591.6832241013662
 20
2074.958597994992
 30
-0.000000000000002
 10
592.9624100400133
 20
2074.560553564109
 30
-0.0000000000000019
 10
595.5375365571009
 20
2074.336389494019
 30
-0.0000000000000016
 10
596.766519806022
 20
2074.477701635558
 30
-0.0000000000000014
 10
599.1595991593595
 20
2075.211350171582
 30
-0.0000000000000011
 10
600.2865197251797
 20
2075.798431799602
 30
-0.000000000000001
 10
602.5310326278948
 20
2077.400925343763
 30
-0.0000000000000007
 10
603.6011530211672
 20
2078.485944013229
 30
-0.0000000000000006
 10
605.1530211819033
 20
2080.627323609451
 30
-0.0000000000000004
 10
605.6954815632434
 20
2081.658959142135
 30
-0.0000000000000003
 10
606.2427893857893
 20
2083.317774583983
 30
-0.0000000000000003
 10
606.3658342317442
 20
2083.946234597632
 30
-0.0000000000000002
 10
606.3950663674022
 20
2084.539167423001
 30
-0.0000000000000002
  0
SPLINE
  5
1399
330
1F
100
AcDbEntity
  8
Hewi
100
AcDbSpline
210
0.0000000000000013
220
0.0000000000000038
230
1.0
 70
     8
 71
     3
 72
    18
 73
    14
 74
     0
 42
0.0000000001
 43
0.0000000001
 40
0.203900170074742
 40
0.203900170074742
 40
0.203900170074742
 40
0.203900170074742
 40
0.4140914887330024
 40
0.4140914887330024
 40
0.5531594004291947
 40
0.5531594004291947
 40
0.9342624836064976
 40
0.9342624836064976
 40
1.058715851533574
 40
1.058715851533574
 40
1.209079349970967
 40
1.209079349970967
 40
1.267392488679218
 40
1.267392488679218
 40
1.267392488679218
 40
1.267392488679218
 10
587.4339535161491
 20
2077.351813528119
 30
-0.0000000000000026
 10
587.4823320739977
 20
2077.351820759162
 30
-0.0000000000000025
 10
587.5282689337691
 20
2077.346263618021
 30
-0.0000000000000025
 10
587.5955308681942
 20
2077.334461258509
 30
-0.0000000000000025
 10
587.6224718372488
 20
2077.328576175974
 30
-0.0000000000000025
 10
587.7236744386062
 20
2077.302837124789
 30
-0.0000000000000025
 10
587.7991490135892
 20
2077.27650644484
 30
-0.0000000000000025
 10
587.9012287457388
 20
2077.234408816558
 30
-0.0000000000000025
 10
587.9264867319769
 20
2077.223468278932
 30
-0.0000000000000025
 10
587.9825178952462
 20
2077.198151006253
 30
-0.0000000000000025
 10
588.0133486068171
 20
2077.183531377105
 30
-0.0000000000000025
 10
588.0563309788993
 20
2077.162288590987
 30
-0.0000000000000025
 10
588.0683639920836
 20
2077.156248574143
 30
-0.0000000000000025
 10
588.0804165438092
 20
2077.15010896325
 30
-0.0000000000000025
  0
SPLINE
  5
139A
330
1F
100
AcDbEntity
  8
Hewi
100
AcDbSpline
210
0.0
220
0.0
230
1.0
 70
     8
 71
     3
 72
    24
 73
    20
 74
     0
 42
0.0000000001
 43
0.0000000001
 40
0.0
 40
0.0
 40
0.0
 40
0.0
 40
0.0069048149749769
 40
0.0069048149749769
 40
0.0247659649317762
 40
0.0247659649317762
 40
0.0545552763944881
 40
0.0545552763944881
 40
0.0643559091378874
 40
0.0643559091378874
 40
0.0859949234863203
 40
0.0859949234863203
 40
0.1473005450050084
 40
0.1473005450050084
 40
0.1844538307831443
 40
0.1844538307831443
 40
0.2059422517223871
 40
0.2059422517223871
 40
0.2061965395260138
 40
0.2061965395260138
 40
0.2061965395260138
 40
0.2061965395260138
 10
588.080416543793
 20
2077.150108963258
 30
-0.0000000000000025
 10
588.08230486747
 20
2077.149147044747
 30
-0.0000000000000025
 10
588.0841886060562
 20
2077.148178414375
 30
-0.0000000000000025
 10
588.0909286190943
 20
2077.144680268363
 30
-0.0000000000000025
 10
588.0957588052543
 20
2077.14211277186
 30
-0.0000000000000025
 10
588.1085628807293
 20
2077.135145982746
 30
-0.0000000000000025
 10
588.1164816824686
 20
2077.130668615462
 30
-0.0000000000000025
 10
588.1268930207297
 20
2077.124559944478
 30
-0.0000000000000025
 10
588.1294611231971
 20
2077.12303488028
 30
-0.0000000000000025
 10
588.1376698744617
 20
2077.118101714114
 30
-0.0000000000000025
 10
588.143274420081
 20
2077.114644498895
 30
-0.0000000000000025
 10
588.1645869150124
 20
2077.101159248197
 30
-0.0000000000000025
 10
588.1799692502327
 20
2077.09071191687
 30
-0.0000000000000025
 10
588.2041287310959
 20
2077.073192413221
 30
-0.0000000000000025
 10
588.2131139630437
 20
2077.066416904938
 30
-0.0000000000000025
 10
588.2271021099077
 20
2077.055469551153
 30
-0.0000000000000025
 10
588.2321854777909
 20
2077.051405427147
 30
-0.0000000000000025
 10
588.2372879072797
 20
2077.047240811161
 30
-0.0000000000000025
 10
588.2373475759552
 20
2077.047192097541
 30
-0.0000000000000025
 10
588.2374072387947
 20
2077.047143376796
 30
-0.0000000000000025
  0
LINE
  5
139B
330
1F
100
AcDbEntity
  8
Hewi
100
AcDbLine
 10
608.6121799080701
 20
2088.283519373195
 30
0.0
 11
608.762179908069
 21
2088.283519373195
 31
0.0000000000000001
210
0.0
220
1.0
230
0.0
  0
LINE
  5
139C
330
1F
100
AcDbEntity
  8
Hewi
100
AcDbLine
 10
608.6121799080701
 20
2053.483519373195
 30
0.0
 11
608.762179908069
 21
2053.483519373195
 31
0.0000000000000001
210
0.0
220
1.0
230
0.0
  0
LINE
  5
139D
330
1F
100
AcDbEntity
  8
Hewi
100
AcDbLine
 10
587.4339938455542
 20
2077.351717908716
 30
-0.0000000000000026
 11
586.7814187236128
 21
2077.351717908716
 31
-0.0000000000000026
210
0.0
220
1.0
230
0.0
  0
LINE
  5
139E
330
1F
100
AcDbEntity
  8
Hewi
100
AcDbLine
 10
584.1121799080702
 20
2090.883519373196
 30
-0.000000000000003
 11
608.6121799080701
 21
2090.883519373196
 31
0.0
210
0.0
220
1.0
230
0.0
  0
LINE
  5
139F
330
1F
100
AcDbEntity
  8
Hewi
100
AcDbLine
 10
584.1121799080702
 20
2050.883519373196
 30
-0.000000000000003
 11
608.6121799080701
 21
2050.883519373196
 31
0.0
210
0.0
220
1.0
230
0.0
  0
LINE
  5
13A0
330
1F
100
AcDbEntity
  8
Hewi
100
AcDbLine
 10
608.762179908069
 20
2090.883519373184
 30
0.0000000000000001
 11
608.762179908069
 21
2070.883519373183
 31
0.0000000000000001
210
0.0
220
1.0
230
0.0
  0
LINE
  5
13A1
330
1F
100
AcDbEntity
  8
Hewi
100
AcDbLine
 10
608.762179908069
 20
2070.883519373183
 30
0.0000000000000001
 11
608.762179908069
 21
2050.883519373183
 31
0.0000000000000001
210
0.0
220
1.0
230
0.0
  0
LINE
  5
13A2
330
1F
100
AcDbEntity
  8
Hewi
100
AcDbLine
 10
608.6121799080701
 20
2090.883519373196
 30
0.0
 11
608.6121799080701
 21
2085.025654996926
 31
0.0
210
0.0
220
1.0
230
0.0
  0
LINE
  5
13A3
330
1F
100
AcDbEntity
  8
Hewi
100
AcDbLine
 10
608.6121799080701
 20
2085.025654996927
 30
0.0
 11
608.6121799080701
 21
2050.883519373196
 31
0.0
210
0.0
220
1.0
230
0.0
  0
LINE
  5
13A4
330
1F
100
AcDbEntity
  8
Hewi
100
AcDbLine
 10
583.1121799080701
 20
2072.975279375237
 30
-0.0000000000000031
 11
583.1121799080701
 21
2051.883519373197
 31
-0.0000000000000031
210
0.0
220
1.0
230
0.0
  0
LINE
  5
13A5
330
1F
100
AcDbEntity
  8
Hewi
100
AcDbLine
 10
583.1121799080701
 20
2089.76802466441
 30
-0.0000000000000031
 11
583.1121799080701
 21
2072.975279375237
 31
-0.0000000000000031
210
0.0
220
1.0
230
0.0
  0
LINE
  5
13A6
330
1F
100
AcDbEntity
  8
Hewi
100
AcDbLine
 10
583.1121799080701
 20
2089.883519373196
 30
-0.0000000000000031
 11
583.1121799080701
 21
2089.76802466441
 31
-0.0000000000000031
210
0.0
220
1.0
230
0.0
  0
SPLINE
  5
13A7
330
1F
100
AcDbEntity
  8
Hewi
100
AcDbSpline
210
0.0000000000000002
220
0.0
230
-1.0
 70
     8
 71
     3
 72
    35
 73
    31
 74
     0
 42
0.0000000001
 43
0.0000000001
 40
132.3072857087947
 40
132.3072857087947
 40
132.3072857087947
 40
132.3072857087947
 40
136.7855331456034
 40
136.7855331456034
 40
141.7555702341805
 40
141.7555702341805
 40
141.7555702341805
 40
150.5350853176014
 40
150.5350853176014
 40
159.3158069937373
 40
159.3158069937373
 40
168.101503115555
 40
168.101503115555
 40
176.8930034281827
 40
176.8930034281827
 40
185.6877688664844
 40
185.6877688664844
 40
194.4814480186283
 40
194.4814480186283
 40
203.2703476028081
 40
203.2703476028081
 40
212.0534605094508
 40
212.0534605094508
 40
220.8330910535008
 40
220.8330910535008
 40
229.6136189378029
 40
229.6136189378029
 40
238.398942885138
 40
238.398942885138
 40
241.1243396664151
 40
241.1243396664151
 40
241.1243396664151
 40
241.1243396664151
 10
626.4621799172092
 20
2022.350812735842
 30
0.0000000000000022
 10
625.3498807632292
 20
2021.359055435557
 30
0.0000000000000021
 10
624.3389423191191
 20
2020.259109309102
 30
0.000000000000002
 10
622.4519072382252
 20
2017.744087537316
 30
0.0000000000000017
 10
621.6088839935126
 20
2016.315764576166
 30
0.0000000000000016
 10
620.9308702208701
 20
2014.808069686283
 30
0.0000000000000015
 10
619.7331664537577
 20
2012.144743479453
 30
0.0000000000000014
 10
619.0683324246473
 20
2009.273674404413
 30
0.0000000000000013
 10
618.8794285284611
 20
2003.438373393847
 30
0.0000000000000013
 10
619.3573285973235
 20
2000.530114453877
 30
0.0000000000000014
 10
621.4044618535901
 20
1995.05826953632
 30
0.0000000000000016
 10
622.9546663993716
 20
1992.547377804777
 30
0.0000000000000018
 10
626.9340870018814
 20
1988.258074910696
 30
0.0000000000000023
 10
629.3257672161407
 20
1986.521223307037
 30
0.0000000000000026
 10
634.6429262208419
 20
1984.059221137104
 30
0.0000000000000032
 10
637.5178170704803
 20
1983.357958141021
 30
0.0000000000000036
 10
643.3747634791814
 20
1983.094119119969
 30
0.0000000000000043
 10
646.3009763294831
 20
1983.533917352302
 30
0.0000000000000047
 10
651.8179781245946
 20
1985.507033459787
 30
0.0000000000000053
 10
654.3563581584494
 20
1987.020950689845
 30
0.0000000000000056
 10
658.706866283016
 20
1990.932823681791
 30
0.0000000000000062
 10
660.477917595783
 20
1993.292840577773
 30
0.0000000000000064
 10
663.0128223403493
 20
1998.55622470189
 30
0.0000000000000067
 10
663.7527960188783
 20
2001.408978683571
 30
0.0000000000000068
 10
664.0947916489467
 20
2007.237302505206
 30
0.0000000000000068
 10
663.6934149671644
 20
2010.15697031689
 30
0.0000000000000068
 10
661.7906984513321
 20
2015.680207546313
 30
0.0000000000000066
 10
660.3070199817047
 20
2018.23060908292
 30
0.0000000000000064
 10
657.7756826953882
 20
2021.106626632086
 30
0.0000000000000061
 10
657.1367515271632
 20
2021.74934273769
 30
0.000000000000006
 10
656.4621762838196
 20
2022.35080867789
 30
0.0000000000000059
  0
ARC
  5
13A8
330
1F
100
AcDbEntity
  8
Hewi
100
AcDbCircle
 10
660.4621799080669
 20
1983.583519373195
 30
0.0000000000000064
 40
0.6999999999999319
100
AcDbArc
 50
270.0
 51
0.0
  0
ARC
  5
13A9
330
1F
100
AcDbEntity
  8
Hewi
100
AcDbCircle
 10
622.4621799080686
 20
1983.583519373195
 30
0.0000000000000017
 40
0.6999999999999319
100
AcDbArc
 50
180.0
 51
270.0
  0
ARC
  5
13AA
330
1F
100
AcDbEntity
  8
Hewi
100
AcDbCircle
 10
674.3121799080682
 20
2052.883519373196
 30
0.0000000000000081
 40
1.999999999999999
100
AcDbArc
 50
270.0
 51
0.0
  0
ARC
  5
13AB
330
1F
100
AcDbEntity
  8
Hewi
100
AcDbCircle
 10
674.3121799080691
 20
2088.883519373196
 30
0.0000000000000081
 40
1.999999999999999
100
AcDbArc
 50
0.0
 51
90.0
  0
LINE
  5
13AC
330
1F
100
AcDbEntity
  8
Hewi
100
AcDbLine
 10
658.9621799080687
 20
2050.883496828868
 30
0.0000000000000062
 11
656.4621799080687
 21
2050.883496828868
 31
0.0000000000000059
210
0.0
220
1.0
230
0.0
  0
LINE
  5
13AD
330
1F
100
AcDbEntity
  8
Hewi
100
AcDbLine
 10
626.4621799080686
 20
2050.883496828868
 30
0.0000000000000022
 11
623.9621799080687
 21
2050.883496828868
 31
0.0000000000000019
210
0.0
220
1.0
230
0.0
  0
LINE
  5
13AE
330
1F
100
AcDbEntity
  8
Hewi
100
AcDbLine
 10
658.9621799080687
 20
2090.883541917523
 30
0.0000000000000062
 11
623.9621799080687
 21
2090.883541917523
 31
0.0000000000000019
210
0.0
220
1.0
230
0.0
  0
LINE
  5
13AF
330
1F
100
AcDbEntity
  8
Hewi
100
AcDbLine
 10
665.4621799080687
 20
2050.883519373196
 30
0.000000000000007
 11
658.9621799080687
 21
2050.883519373196
 31
0.0000000000000062
210
0.0
220
1.0
230
0.0
  0
LINE
  5
13B0
330
1F
100
AcDbEntity
  8
Hewi
100
AcDbLine
 10
665.4621799080687
 20
2090.883519373196
 30
0.000000000000007
 11
658.9621799080687
 21
2090.883519373196
 31
0.0000000000000062
210
0.0
220
1.0
230
0.0
  0
LINE
  5
13B1
330
1F
100
AcDbEntity
  8
Hewi
100
AcDbLine
 10
623.9621799080687
 20
2050.883519373196
 30
0.0000000000000019
 11
617.4621799080687
 21
2050.883519373196
 31
0.0000000000000011
210
0.0
220
1.0
230
0.0
  0
LINE
  5
13B2
330
1F
100
AcDbEntity
  8
Hewi
100
AcDbLine
 10
623.9621799080687
 20
2090.883519373196
 30
0.0000000000000019
 11
617.4621799080687
 21
2090.883519373196
 31
0.0000000000000011
210
0.0
220
1.0
230
0.0
  0
LINE
  5
13B3
330
1F
100
AcDbEntity
  8
Hewi
100
AcDbLine
 10
621.7621799080681
 20
2016.468907539755
 30
0.0000000000000016
 11
621.7621799080688
 21
2050.883519373196
 31
0.0000000000000016
210
0.0
220
1.0
230
0.0
  0
LINE
  5
13B4
330
1F
100
AcDbEntity
  8
Hewi
100
AcDbLine
 10
621.7621799080681
 20
1983.583519373195
 30
0.0000000000000016
 11
621.7621799080681
 21
1994.79662575662
 31
0.0000000000000016
210
0.0
220
1.0
230
0.0
  0
LINE
  5
13B5
330
1F
100
AcDbEntity
  8
Hewi
100
AcDbLine
 10
661.1621799080676
 20
2016.468907539756
 30
0.0000000000000065
 11
661.1621799080687
 21
2050.883519373196
 31
0.0000000000000065
210
0.0
220
1.0
230
0.0
  0
LINE
  5
13B6
330
1F
100
AcDbEntity
  8
Hewi
100
AcDbLine
 10
661.1621799080676
 20
1983.583519373195
 30
0.0000000000000065
 11
661.1621799080676
 21
1994.796625756616
 31
0.0000000000000065
210
0.0
220
1.0
230
0.0
  0
LINE
  5
13B7
330
1F
100
AcDbEntity
  8
Hewi
100
AcDbLine
 10
674.1621799080688
 20
2050.883519373183
 30
0.0000000000000081
 11
665.6621799080688
 21
2050.883519373183
 31
0.000000000000007
210
0.0
220
1.0
230
0.0
  0
LINE
  5
13B8
330
1F
100
AcDbEntity
  8
Hewi
100
AcDbLine
 10
674.1621799080688
 20
2090.883519373184
 30
0.0000000000000081
 11
665.6621799080688
 21
2090.883519373184
 31
0.000000000000007
210
0.0
220
1.0
230
0.0
  0
LINE
  5
13B9
330
1F
100
AcDbEntity
  8
Hewi
100
AcDbLine
 10
674.1621799080688
 20
2088.283519373195
 30
0.0000000000000081
 11
674.3121799080691
 21
2088.283519373195
 31
0.0000000000000081
210
0.0
220
1.0
230
0.0
  0
LINE
  5
13BA
330
1F
100
AcDbEntity
  8
Hewi
100
AcDbLine
 10
674.1621799080688
 20
2053.483519373195
 30
0.0000000000000081
 11
674.3121799080682
 21
2053.483519373195
 31
0.0000000000000081
210
0.0
220
1.0
230
0.0
  0
LINE
  5
13BB
330
1F
100
AcDbEntity
  8
Hewi
100
AcDbLine
 10
617.2621799080689
 20
2078.883519373196
 30
0.0000000000000011
 11
617.4621799080687
 21
2078.883519373196
 31
0.0000000000000011
210
0.0
220
1.0
230
0.0
  0
LINE
  5
13BC
330
1F
100
AcDbEntity
  8
Hewi
100
AcDbLine
 10
665.4621799080687
 20
2078.883519373196
 30
0.000000000000007
 11
665.6621799080688
 21
2078.883519373196
 31
0.000000000000007
210
0.0
220
1.0
230
0.0
  0
LINE
  5
13BD
330
1F
100
AcDbEntity
  8
Hewi
100
AcDbLine
 10
617.2621799080689
 20
2062.883519373197
 30
0.0000000000000011
 11
617.4621799080687
 21
2062.883519373197
 31
0.0000000000000011
210
0.0
220
1.0
230
0.0
  0
LINE
  5
13BE
330
1F
100
AcDbEntity
  8
Hewi
100
AcDbLine
 10
665.4621799080687
 20
2062.883519373197
 30
0.000000000000007
 11
665.6621799080688
 21
2062.883519373197
 31
0.000000000000007
210
0.0
220
1.0
230
0.0
  0
LINE
  5
13BF
330
1F
100
AcDbEntity
  8
Hewi
100
AcDbLine
 10
617.4621799080687
 20
2063.156112762884
 30
0.0000000000000011
 11
617.2621799080689
 21
2063.156112762884
 31
0.0000000000000011
210
0.0
220
1.0
230
0.0
  0
LINE
  5
13C0
330
1F
100
AcDbEntity
  8
Hewi
100
AcDbLine
 10
617.2621799080689
 20
2065.087964415462
 30
0.0000000000000011
 11
617.4621799080687
 21
2065.087964415462
 31
0.0000000000000011
210
0.0
220
1.0
230
0.0
  0
LINE
  5
13C1
330
1F
100
AcDbEntity
  8
Hewi
100
AcDbLine
 10
617.2621799080689
 20
2065.226665123704
 30
0.0000000000000011
 11
617.4621799080687
 21
2065.226665123704
 31
0.0000000000000011
210
0.0
220
1.0
230
0.0
  0
LINE
  5
13C2
330
1F
100
AcDbEntity
  8
Hewi
100
AcDbLine
 10
674.3121799080691
 20
2090.883519373196
 30
0.0000000000000081
 11
674.3121799080682
 21
2050.883519373196
 31
0.0000000000000081
210
0.0
220
1.0
230
0.0
  0
LINE
  5
13C3
330
1F
100
AcDbEntity
  8
Hewi
100
AcDbLine
 10
676.3121799080692
 20
2088.883519373196
 30
0.0000000000000083
 11
676.3121799080683
 21
2052.883519373196
 31
0.0000000000000083
210
0.0
220
1.0
230
0.0
  0
LINE
  5
13C4
330
1F
100
AcDbEntity
  8
Hewi
100
AcDbLine
 10
617.2621799080689
 20
2050.883519373183
 30
0.0000000000000011
 11
617.2621799080689
 21
2090.883519373184
 31
0.0000000000000011
210
0.0
220
1.0
230
0.0
  0
LINE
  5
13C5
330
1F
100
AcDbEntity
  8
Hewi
100
AcDbLine
 10
617.4621799080687
 20
2052.883519373196
 30
0.0000000000000011
 11
617.2621799080689
 21
2052.883519373196
 31
0.0000000000000011
210
0.0
220
1.0
230
0.0
  0
LINE
  5
13C6
330
1F
100
AcDbEntity
  8
Hewi
100
AcDbLine
 10
665.6621799080688
 20
2052.883519373196
 30
0.000000000000007
 11
665.4621799080687
 21
2052.883519373196
 31
0.000000000000007
210
0.0
220
1.0
230
0.0
  0
LINE
  5
13C7
330
1F
100
AcDbEntity
  8
Hewi
100
AcDbLine
 10
665.4621799080687
 20
2055.583519373195
 30
0.000000000000007
 11
665.6621799080676
 21
2055.583519373195
 31
0.000000000000007
210
0.0
220
1.0
230
0.0
  0
LINE
  5
13C8
330
1F
100
AcDbEntity
  8
Hewi
100
AcDbLine
 10
617.2621799080697
 20
2055.583519373195
 30
0.0000000000000011
 11
617.4621799080687
 21
2055.583519373195
 31
0.0000000000000011
210
0.0
220
1.0
230
0.0
  0
LINE
  5
13C9
330
1F
100
AcDbEntity
  8
Hewi
100
AcDbLine
 10
617.4621799080687
 20
2086.183519373173
 30
0.0000000000000011
 11
617.2621799080697
 21
2086.183519373173
 31
0.0000000000000011
210
0.0
220
1.0
230
0.0
  0
LINE
  5
13CA
330
1F
100
AcDbEntity
  8
Hewi
100
AcDbLine
 10
665.6621799080676
 20
2086.183519373173
 30
0.000000000000007
 11
665.4621799080687
 21
2086.183519373173
 31
0.000000000000007
210
0.0
220
1.0
230
0.0
  0
LINE
  5
13CB
330
1F
100
AcDbEntity
  8
Hewi
100
AcDbLine
 10
665.4621799080687
 20
2088.883519373173
 30
0.000000000000007
 11
665.6621799080688
 21
2088.883519373173
 31
0.000000000000007
210
0.0
220
1.0
230
0.0
  0
LINE
  5
13CC
330
1F
100
AcDbEntity
  8
Hewi
100
AcDbLine
 10
617.2621799080689
 20
2088.883519373173
 30
0.0000000000000011
 11
617.4621799080687
 21
2088.883519373173
 31
0.0000000000000011
210
0.0
220
1.0
230
0.0
  0
LINE
  5
13CD
330
1F
100
AcDbEntity
  8
Hewi
100
AcDbLine
 10
665.6621799080688
 20
2050.883519373183
 30
0.000000000000007
 11
665.6621799080688
 21
2090.883519373184
 31
0.000000000000007
210
0.0
220
1.0
230
0.0
  0
LINE
  5
13CE
330
1F
100
AcDbEntity
  8
Hewi
100
AcDbLine
 10
674.1621799080688
 20
2090.883519373184
 30
0.0000000000000081
 11
674.1621799080688
 21
2070.883519373183
 31
0.0000000000000081
210
0.0
220
1.0
230
0.0
  0
LINE
  5
13CF
330
1F
100
AcDbEntity
  8
Hewi
100
AcDbLine
 10
674.1621799080688
 20
2070.883519373183
 30
0.0000000000000081
 11
674.1621799080688
 21
2050.883519373183
 31
0.0000000000000081
210
0.0
220
1.0
230
0.0
  0
LINE
  5
13D0
330
1F
100
AcDbEntity
  8
Hewi
100
AcDbLine
 10
660.4621799080669
 20
1982.883519373195
 30
0.0000000000000064
 11
622.4621799080686
 21
1982.883519373195
 31
0.0000000000000017
210
0.0
220
1.0
230
0.0
  0
LINE
  5
13D1
330
1F
100
AcDbEntity
  8
Hewi
100
AcDbLine
 10
617.4621799080687
 20
2090.883519373196
 30
0.0000000000000011
 11
617.4621799080687
 21
2070.883519373196
 31
0.0000000000000011
210
0.0
220
1.0
230
0.0
  0
LINE
  5
13D2
330
1F
100
AcDbEntity
  8
Hewi
100
AcDbLine
 10
617.4621799080687
 20
2070.883519373196
 30
0.0000000000000011
 11
617.4621799080687
 21
2050.883519373196
 31
0.0000000000000011
210
0.0
220
1.0
230
0.0
  0
LINE
  5
13D3
330
1F
100
AcDbEntity
  8
Hewi
100
AcDbLine
 10
623.9621799080687
 20
2090.883541917523
 30
0.0000000000000019
 11
623.9621799080687
 21
2050.883496828868
 31
0.0000000000000019
210
0.0
220
1.0
230
0.0
  0
LINE
  5
13D4
330
1F
100
AcDbEntity
  8
Hewi
100
AcDbLine
 10
665.4621799080687
 20
2090.883519373196
 30
0.000000000000007
 11
665.4621799080687
 21
2070.883519373196
 31
0.000000000000007
210
0.0
220
1.0
230
0.0
  0
LINE
  5
13D5
330
1F
100
AcDbEntity
  8
Hewi
100
AcDbLine
 10
665.4621799080687
 20
2070.883519373196
 30
0.000000000000007
 11
665.4621799080687
 21
2050.883519373196
 31
0.000000000000007
210
0.0
220
1.0
230
0.0
  0
LINE
  5
13D6
330
1F
100
AcDbEntity
  8
Hewi
100
AcDbLine
 10
658.9621799080687
 20
2050.883496828868
 30
0.0000000000000062
 11
658.9621799080687
 21
2090.883541917523
 31
0.0000000000000062
210
0.0
220
1.0
230
0.0
  0
SPLINE
  5
13D7
330
1F
100
AcDbEntity
  8
Hewi
100
AcDbSpline
210
0.0000000000000006
220
0.0000000000000026
230
1.0
 70
     8
 71
     3
 72
    14
 73
    10
 74
     0
 42
0.0000000001
 43
0.0000000001
 40
-1.51819376772367
 40
-1.51819376772367
 40
-1.51819376772367
 40
-1.51819376772367
 40
-1.135751222155821
 40
-1.135751222155821
 40
-0.7533086765879721
 40
-0.7533086765879721
 40
-0.376654338293986
 40
-0.376654338293986
 40
0.0
 40
0.0
 40
0.0
 40
0.0
 10
656.4621799080687
 20
2051.446488926806
 30
0.0000000000000059
 10
656.4621799080687
 20
2051.476523249107
 30
0.0000000000000059
 10
656.4369204663527
 20
2051.509879201336
 30
0.0000000000000059
 10
656.3342251791782
 20
2051.573657717355
 30
0.0000000000000059
 10
656.2567900582472
 20
2051.60401490721
 30
0.0000000000000059
 10
656.0789024673643
 20
2051.652672669453
 30
0.0000000000000059
 10
655.9670329966711
 20
2051.67433986898
 30
0.0000000000000058
 10
655.7214539884407
 20
2051.703426992945
 30
0.0000000000000058
 10
655.5877313541667
 20
2051.710769864211
 30
0.0000000000000058
 10
655.4621799080686
 20
2051.710769864211
 30
0.0000000000000058
  0
SPLINE
  5
13D8
330
1F
100
AcDbEntity
  8
Hewi
100
AcDbSpline
210
0.0000000000000007
220
-0.0000000000000029
230
1.0
 70
     8
 71
     3
 72
    14
 73
    10
 74
     0
 42
0.0000000001
 43
0.0000000001
 40
0.0
 40
0.0
 40
0.0
 40
0.0
 40
0.3766543382939877
 40
0.3766543382939877
 40
0.7533086765879756
 40
0.7533086765879756
 40
1.135751222155823
 40
1.135751222155823
 40
1.51819376772367
 40
1.51819376772367
 40
1.51819376772367
 40
1.51819376772367
 10
627.4621799080687
 20
2051.710769864211
 30
0.0000000000000023
 10
627.3366284619704
 20
2051.710769864211
 30
0.0000000000000023
 10
627.2029058276967
 20
2051.703426992945
 30
0.0000000000000023
 10
626.9573268194663
 20
2051.67433986898
 30
0.0000000000000023
 10
626.8454573487733
 20
2051.652672669453
 30
0.0000000000000023
 10
626.6675697578912
 20
2051.60401490721
 30
0.0000000000000022
 10
626.5901346369592
 20
2051.573657717355
 30
0.0000000000000022
 10
626.4874393497851
 20
2051.509879201336
 30
0.0000000000000022
 10
626.4621799080686
 20
2051.476523249107
 30
0.0000000000000022
 10
626.4621799080686
 20
2051.446488926806
 30
0.0000000000000022
  0
LINE
  5
13D9
330
1F
100
AcDbEntity
  8
Hewi
100
AcDbLine
 10
655.4621799080686
 20
2051.710769864211
 30
0.0000000000000058
 11
627.4621799080687
 21
2051.710769864211
 31
0.0000000000000023
210
0.0
220
1.0
230
0.0
  0
LINE
  5
13DA
330
1F
100
AcDbEntity
  8
Hewi
100
AcDbLine
 10
656.4621799080687
 20
2051.446488926806
 30
0.0000000000000059
 11
656.4621799080687
 21
2020.74197358248
 31
0.0000000000000059
210
0.0
220
1.0
230
0.0
  0
LINE
  5
13DB
330
1F
100
AcDbEntity
  8
Hewi
100
AcDbLine
 10
626.4621799080686
 20
2051.446488926806
 30
0.0000000000000022
 11
626.4621799080686
 21
2020.74197358248
 31
0.0000000000000022
210
0.0
220
1.0
230
0.0
  0
SPLINE
  5
13DC
330
1F
100
AcDbEntity
  8
Hewi
100
AcDbSpline
210
0.0
220
0.0
230
1.0
 70
     8
 71
     3
 72
    14
 73
    10
 74
     0
 42
0.0000000001
 43
0.0000000001
 40
0.649611117407552
 40
0.649611117407552
 40
0.649611117407552
 40
0.649611117407552
 40
0.7333587369340008
 40
0.7333587369340008
 40
1.466717473868001
 40
1.466717473868001
 40
2.251649856864295
 40
2.251649856864295
 40
3.036582239860591
 40
3.036582239860591
 40
3.036582239860591
 40
3.036582239860591
 10
627.1463110420491
 20
2018.629631724115
 30
0.0000000000000023
 10
627.1327183751161
 20
2018.656021020177
 30
0.0000000000000023
 10
627.1191958271565
 20
2018.68240476149
 30
0.0000000000000023
 10
626.9882075944097
 20
2018.939486376591
 30
0.0000000000000023
 10
626.8788361796207
 20
2019.167598397249
 30
0.0000000000000023
 10
626.6978169536632
 20
2019.594995482822
 30
0.0000000000000023
 10
626.6110695320374
 20
2019.833317440328
 30
0.0000000000000022
 10
626.4928741398136
 20
2020.301856118742
 30
0.0000000000000022
 10
626.4621799080686
 20
2020.532646673823
 30
0.0000000000000022
 10
626.4621799080686
 20
2020.74197358248
 30
0.0000000000000022
  0
SPLINE
  5
13DD
330
1F
100
AcDbEntity
  8
Hewi
100
AcDbSpline
210
0.0
220
0.0
230
1.0
 70
     8
 71
     3
 72
    20
 73
    16
 74
     0
 42
0.0000000001
 43
0.0000000001
 40
-2.081957642337048
 40
-2.081957642337048
 40
-2.081957642337048
 40
-2.081957642337048
 40
-2.029036545889133
 40
-2.029036545889133
 40
-1.976115449441223
 40
-1.976115449441223
 40
-1.938296586027501
 40
-1.938296586027501
 40
-1.900477722613779
 40
-1.900477722613779
 40
-1.79865290262327
 40
-1.79865290262327
 40
-1.696828082632761
 40
-1.696828082632761
 40
-1.658125044755919
 40
-1.658125044755919
 40
-1.658125044755919
 40
-1.658125044755919
 10
627.4621799080687
 20
2018.508423569631
 30
0.0000000000000023
 10
627.4503921385704
 20
2018.495349828898
 30
0.0000000000000023
 10
627.4364943449382
 20
2018.481872393878
 30
0.0000000000000023
 10
627.405872043475
 20
2018.459429989279
 30
0.0000000000000023
 10
627.3890842849405
 20
2018.450550700678
 30
0.0000000000000023
 10
627.3599908212162
 20
2018.442508506196
 30
0.0000000000000023
 10
627.3464096196457
 20
2018.44102214118
 30
0.0000000000000023
 10
627.319806600062
 20
2018.443465730566
 30
0.0000000000000023
 10
627.3067800399677
 20
2018.447354970148
 30
0.0000000000000023
 10
627.265114450156
 20
2018.466187918384
 30
0.0000000000000023
 10
627.2423671290026
 20
2018.48801364377
 30
0.0000000000000023
 10
627.2005645117151
 20
2018.53723757812
 30
0.0000000000000023
 10
627.1821527655037
 20
2018.565170696112
 30
0.0000000000000023
 10
627.1586186345766
 20
2018.606309640731
 30
0.0000000000000023
 10
627.1523604952207
 20
2018.617887096548
 30
0.0000000000000023
 10
627.1463110420491
 20
2018.629631724115
 30
0.0000000000000023
  0
SPLINE
  5
13DE
330
1F
100
AcDbEntity
  8
Hewi
100
AcDbSpline
210
0.0
220
0.0
230
1.0
 70
     8
 71
     3
 72
    20
 73
    16
 74
     0
 42
0.0000000001
 43
0.0000000001
 40
1.658125044755959
 40
1.658125044755959
 40
1.658125044755959
 40
1.658125044755959
 40
1.696828082632773
 40
1.696828082632773
 40
1.798652902623284
 40
1.798652902623284
 40
1.900477722613793
 40
1.900477722613793
 40
1.93829658602752
 40
1.93829658602752
 40
1.976115449441245
 40
1.976115449441245
 40
2.029036545889153
 40
2.029036545889153
 40
2.081957642337064
 40
2.081957642337064
 40
2.081957642337064
 40
2.081957642337064
 10
655.7780487740885
 20
2018.629631724115
 30
0.0000000000000058
 10
655.7719993209167
 20
2018.617887096548
 30
0.0000000000000058
 10
655.7657411815608
 20
2018.606309640731
 30
0.0000000000000058
 10
655.7422070506336
 20
2018.565170696112
 30
0.0000000000000058
 10
655.7237953044221
 20
2018.53723757812
 30
0.0000000000000058
 10
655.6819926871347
 20
2018.48801364377
 30
0.0000000000000058
 10
655.6592453659812
 20
2018.466187918384
 30
0.0000000000000058
 10
655.6175797761697
 20
2018.447354970148
 30
0.0000000000000058
 10
655.6045532160752
 20
2018.443465730566
 30
0.0000000000000058
 10
655.5779501964917
 20
2018.44102214118
 30
0.0000000000000058
 10
655.5643689949212
 20
2018.442508506196
 30
0.0000000000000058
 10
655.5352755311969
 20
2018.450550700678
 30
0.0000000000000058
 10
655.5184877726627
 20
2018.459429989279
 30
0.0000000000000058
 10
655.4878654711992
 20
2018.481872393878
 30
0.0000000000000058
 10
655.4739676775668
 20
2018.495349828898
 30
0.0000000000000058
 10
655.4621799080686
 20
2018.508423569631
 30
0.0000000000000058
  0
SPLINE
  5
13DF
330
1F
100
AcDbEntity
  8
Hewi
100
AcDbSpline
210
0.0
220
0.0
230
1.0
 70
     8
 71
     3
 72
    14
 73
    10
 74
     0
 42
0.0000000001
 43
0.0000000001
 40
8.794524056531006
 40
8.794524056531006
 40
8.794524056531006
 40
8.794524056531006
 40
9.579456439527339
 40
9.579456439527339
 40
10.36438882252367
 40
10.36438882252367
 40
11.09774755945768
 40
11.09774755945768
 40
11.18149517898412
 40
11.18149517898412
 40
11.18149517898412
 40
11.18149517898412
 10
656.4621799080687
 20
2020.74197358248
 30
0.0000000000000059
 10
656.4621799080687
 20
2020.532646673823
 30
0.0000000000000059
 10
656.4314856763242
 20
2020.301856118742
 30
0.0000000000000059
 10
656.3132902840997
 20
2019.833317440328
 30
0.0000000000000059
 10
656.2265428624741
 20
2019.594995482822
 30
0.0000000000000059
 10
656.0455236365172
 20
2019.167598397249
 30
0.0000000000000058
 10
655.9361522217277
 20
2018.939486376591
 30
0.0000000000000058
 10
655.8051639889809
 20
2018.68240476149
 30
0.0000000000000058
 10
655.7916414410211
 20
2018.656021020177
 30
0.0000000000000058
 10
655.7780487740885
 20
2018.629631724115
 30
0.0000000000000058
  0
ELLIPSE
  5
13E0
330
1F
100
AcDbEntity
  8
Hewi
100
AcDbEllipse
 10
641.4621799080688
 20
2005.981389619176
 30
0.0000000000000041
 11
-18.81828199961667
 21
0.0
 31
-0.0000000000000023
210
-0.0000000000000001
220
0.0
230
1.0
 40
0.9961946980917455
 41
-2.409769549797642
 42
-0.7318231037921505
  0
ELLIPSE
  5
13E1
330
1F
100
AcDbEntity
  8
Hewi
100
AcDbEllipse
 10
641.4621799080688
 20
2006.052012290469
 30
0.0000000000000041
 11
12.70449773839052
 21
0.0
 31
0.0000000000000016
210
-0.0000000000000001
220
0.0
230
1.0
 40
0.9961946980917455
 41
0.0
 42
6.283185307179584
  0
ARC
  5
13E2
330
1F
100
AcDbEntity
  8
Hewi
100
AcDbCircle
 10
1659.902126440063
 20
1988.311521739406
 30
0.000000000000014
 40
4.000000000000073
100
AcDbArc
 50
194.1768749669887
 51
355.8231250330063
  0
ARC
  5
13E3
330
1F
100
AcDbEntity
  8
Hewi
100
AcDbCircle
 10
1629.58104404926
 20
1984.691876379112
 30
0.0000000000000084
 40
0.6999999999999319
100
AcDbArc
 50
270.0
 51
0.0
  0
ARC
  5
13E4
330
1F
100
AcDbEntity
  8
Hewi
100
AcDbCircle
 10
1591.58104404926
 20
1984.691876379112
 30
0.0000000000000014
 40
0.6999999999999319
100
AcDbArc
 50
180.0
 51
270.0
  0
ARC
  5
13E5
330
1F
100
AcDbEntity
  8
Hewi
100
AcDbCircle
 10
1585.881044049261
 20
2087.99187637909
 30
0.0000000000000004
 40
1.999999999999995
100
AcDbArc
 50
90.0
 51
180.0
  0
ARC
  5
13E6
330
1F
100
AcDbEntity
  8
Hewi
100
AcDbCircle
 10
1585.881044049261
 20
2055.991876379112
 30
0.0000000000000004
 40
1.999999999999999
100
AcDbArc
 50
180.0
 51
270.0
  0
ARC
  5
13E7
330
1F
100
AcDbEntity
  8
Hewi
100
AcDbCircle
 10
1544.210227600621
 20
1996.760459123718
 30
-0.0000000000000073
 40
119.9999999999995
100
AcDbArc
 50
355.8231250330063
 51
358.9226597831567
  0
ARC
  5
13E8
330
1F
100
AcDbEntity
  8
Hewi
100
AcDbCircle
 10
1544.210227600621
 20
1996.760459123718
 30
-0.0000000000000073
 40
119.9999999999995
100
AcDbArc
 50
11.07734021684899
 51
14.02230851987716
  0
LINE
  5
13E9
330
1F
100
AcDbEntity
  8
Hewi
100
AcDbLine
 10
1590.88104404926
 20
1984.691876379112
 30
0.0000000000000013
 11
1590.88104404926
 21
2053.991876379112
 31
0.0000000000000013
210
0.0
220
1.0
230
0.0
  0
LINE
  5
13EA
330
1F
100
AcDbEntity
  8
Hewi
100
AcDbLine
 10
1630.281044049261
 20
1984.691876379112
 30
0.0000000000000085
 11
1630.281044049261
 21
2053.991876379112
 31
0.0000000000000085
210
0.0
220
1.0
230
0.0
  0
LINE
  5
13EB
330
1F
100
AcDbEntity
  8
Hewi
100
AcDbLine
 10
1583.881044049262
 20
2055.991876379112
 30
0.0
 11
1583.881044049262
 21
2087.99187637909
 31
0.0
210
0.0
220
1.0
230
0.0
  0
LINE
  5
13EC
330
1F
100
AcDbEntity
  8
Hewi
100
AcDbLine
 10
1610.581044049262
 20
2053.991876379113
 30
0.0000000000000049
 11
1643.863246162152
 21
2053.991876379113
 31
0.000000000000011
210
0.0
220
1.0
230
0.0
  0
LINE
  5
13ED
330
1F
100
AcDbEntity
  8
Hewi
100
AcDbLine
 10
1610.581044049262
 20
2089.991876379091
 30
0.0000000000000049
 11
1643.863246162162
 21
2089.991876379091
 31
0.000000000000011
210
0.0
220
1.0
230
0.0
  0
LINE
  5
13EE
330
1F
100
AcDbEntity
  8
Hewi
100
AcDbLine
 10
1585.881044049261
 20
2089.991876379091
 30
0.0000000000000004
 11
1610.581044049262
 21
2089.991876379091
 31
0.0000000000000049
210
0.0
220
1.0
230
0.0
  0
LINE
  5
13EF
330
1F
100
AcDbEntity
  8
Hewi
100
AcDbLine
 10
1585.881044049261
 20
2053.991876379112
 30
0.0000000000000004
 11
1610.581044049262
 21
2053.991876379112
 31
0.0000000000000049
210
0.0
220
1.0
230
0.0
  0
LINE
  5
13F0
330
1F
100
AcDbEntity
  8
Hewi
100
AcDbLine
 10
1629.58104404926
 20
1983.991876379112
 30
0.0000000000000084
 11
1591.58104404926
 21
1983.991876379112
 31
0.0000000000000014
210
0.0
220
1.0
230
0.0
  0
ARC
  5
13F1
330
1F
100
AcDbEntity
  8
Hewi
100
AcDbCircle
 10
1652.58104404926
 20
2071.991876379112
 30
0.0000000000000126
 40
20.00002254432668
100
AcDbArc
 50
244.1579338865261
 51
115.8420661136494
  0
LINE
  5
13F2
330
1F
100
AcDbEntity
  8
Hewi
100
AcDbLine
 10
1650.304164045359
 20
2052.121880928146
 30
0.0000000000000122
 11
1653.208992948596
 21
2018.919534633568
 31
0.0000000000000127
210
0.0
220
1.0
230
0.0
  0
SPLINE
  5
13F3
330
1F
100
AcDbEntity
  8
Hewi
100
AcDbSpline
210
0.0
220
0.0
230
1.0
 70
     8
 71
     3
 72
    20
 73
    16
 74
     0
 42
0.0000000001
 43
0.0000000001
 40
1.658125044756507
 40
1.658125044756507
 40
1.658125044756507
 40
1.658125044756507
 40
1.696828082632723
 40
1.696828082632723
 40
1.798652902623234
 40
1.798652902623234
 40
1.900477722613745
 40
1.900477722613745
 40
1.938296586027634
 40
1.938296586027634
 40
1.97611544944152
 40
1.97611544944152
 40
2.029036545890053
 40
2.029036545890053
 40
2.081957642338585
 40
2.081957642338585
 40
2.081957642338585
 40
2.081957642338585
 10
1653.249000547237
 20
2019.049667038281
 30
0.0000000000000127
 10
1653.248037147261
 20
2019.037571357495
 30
0.0000000000000127
 10
1653.247054238589
 20
2019.025641987442
 30
0.0000000000000127
 10
1653.243413528739
 20
2018.983226452913
 30
0.0000000000000127
 10
1653.240664353887
 20
2018.954377667852
 30
0.0000000000000127
 10
1653.234721944721
 20
2018.903346567905
 30
0.0000000000000127
 10
1653.231595058455
 20
2018.880632791109
 30
0.0000000000000127
 10
1653.226279718873
 20
2018.860572076512
 30
0.0000000000000127
 10
1653.224656701468
 20
2018.85633665738
 30
0.0000000000000127
 10
1653.221447403717
 20
2018.853289485907
 30
0.0000000000000127
 10
1653.219861285719
 20
2018.8545191051
 30
0.0000000000000127
 10
1653.21655680859
 20
2018.862102694919
 30
0.0000000000000127
 10
1653.214731493617
 20
2018.870797108581
 30
0.0000000000000127
 10
1653.211525931107
 20
2018.893020496289
 30
0.0000000000000127
 10
1653.2101367527
 20
2018.906460892833
 30
0.0000000000000127
 10
1653.208992948596
 20
2018.919534633568
 30
0.0000000000000127
  0
SPLINE
  5
13F4
330
1F
100
AcDbEntity
  8
Hewi
100
AcDbSpline
210
0.0000000000000067
220
-0.0000000000000022
230
1.0
 70
     8
 71
     3
 72
    14
 73
    10
 74
     0
 42
0.0000000001
 43
0.0000000001
 40
8.778950683888792
 40
8.778950683888792
 40
8.778950683888792
 40
8.778950683888792
 40
9.563883066885145
 40
9.563883066885145
 40
10.34881544988149
 40
10.34881544988149
 40
11.08217418681549
 40
11.08217418681549
 40
11.16592180634194
 40
11.16592180634194
 40
11.16592180634194
 40
11.16592180634194
 10
1654.002152201693
 20
2021.327396131911
 30
0.0000000000000129
 10
1653.883915180081
 20
2021.093991641247
 30
0.0000000000000128
 10
1653.759638507676
 20
2020.837727439427
 30
0.0000000000000128
 10
1653.543833641074
 20
2020.323908576119
 30
0.0000000000000128
 10
1653.452992838574
 20
2020.065892433841
 30
0.0000000000000128
 10
1653.328536992427
 20
2019.609957135726
 30
0.0000000000000127
 10
1653.280532270098
 20
2019.369861591711
 30
0.0000000000000127
 10
1653.253628354515
 20
2019.104070192107
 30
0.0000000000000127
 10
1653.251165234629
 20
2019.076845124563
 30
0.0000000000000127
 10
1653.249000547237
 20
2019.049667038281
 30
0.0000000000000127
  0
SPLINE
  5
13F5
330
1F
100
AcDbEntity
  8
Hewi
100
AcDbSpline
210
0.0
220
-0.0000000000000001
230
1.0
 70
     8
 71
     3
 72
    30
 73
    26
 74
     0
 42
0.0000000001
 43
0.0000000001
 40
50.21703549202495
 40
50.21703549202495
 40
50.21703549202495
 40
50.21703549202495
 40
50.53039260880385
 40
50.53039260880385
 40
51.29598074329932
 40
51.29598074329932
 40
51.92914302530023
 40
51.92914302530023
 40
52.56230530730113
 40
52.56230530730113
 40
53.12551373138332
 40
53.12551373138332
 40
53.68872215546555
 40
53.68872215546555
 40
54.25193057954776
 40
54.25193057954776
 40
54.81513900362998
 40
54.81513900362998
 40
55.44830128563085
 40
55.44830128563085
 40
56.08146356763175
 40
56.08146356763175
 40
56.84705170212724
 40
56.84705170212724
 40
57.16040881890615
 40
57.16040881890615
 40
57.16040881890615
 40
57.16040881890615
 10
1659.979320390245
 20
2021.850330588397
 30
0.000000000000014
 10
1659.911747327577
 20
2021.940441884835
 30
0.000000000000014
 10
1659.840255379853
 20
2022.029593307015
 30
0.0000000000000139
 10
1659.583574348926
 20
2022.327203108709
 30
0.0000000000000139
 10
1659.382157761755
 20
2022.521345162253
 30
0.0000000000000139
 10
1659.01833805594
 20
2022.812934623005
 30
0.0000000000000138
 10
1658.827164535585
 20
2022.943846959755
 30
0.0000000000000138
 10
1658.422883693025
 20
2023.164621198638
 30
0.0000000000000137
 10
1658.209650524115
 20
2023.254252572712
 30
0.0000000000000136
 10
1657.828961073599
 20
2023.37303470136
 30
0.0000000000000136
 10
1657.627859864621
 20
2023.417525896406
 30
0.0000000000000135
 10
1657.220944776234
 20
2023.463143472249
 30
0.0000000000000135
 10
1657.015120707296
 20
2023.464178915129
 30
0.0000000000000134
 10
1656.64107720997
 20
2023.431454349448
 30
0.0000000000000134
 10
1656.43855987389
 20
2023.39469366278
 30
0.0000000000000133
 10
1656.045748148945
 20
2023.279109056852
 30
0.0000000000000132
 10
1655.855427934145
 20
2023.200372924566
 30
0.0000000000000132
 10
1655.501148311966
 20
2023.017289334015
 30
0.0000000000000131
 10
1655.306718958795
 20
2022.891992110714
 30
0.0000000000000131
 10
1654.946917094904
 20
2022.60436929702
 30
0.000000000000013
 10
1654.781380618599
 20
2022.442248879396
 30
0.000000000000013
 10
1654.4737221301
 20
2022.091912688836
 30
0.000000000000013
 10
1654.309077927275
 20
2021.865744466007
 30
0.0000000000000129
 10
1654.107975857687
 20
2021.528083832663
 30
0.0000000000000129
 10
1654.053051015288
 20
2021.427872374469
 30
0.0000000000000129
 10
1654.002152201693
 20
2021.327396131911
 30
0.0000000000000129
  0
SPLINE
  5
13F6
330
1F
100
AcDbEntity
  8
Hewi
100
AcDbSpline
210
0.0000000000000116
220
0.0000000000000062
230
1.0
 70
     8
 71
     3
 72
    14
 73
    10
 74
     0
 42
0.0000000001
 43
0.0000000001
 40
0.649611117407552
 40
0.649611117407552
 40
0.649611117407552
 40
0.649611117407552
 40
0.7333587369340008
 40
0.7333587369340008
 40
1.466717473868001
 40
1.466717473868001
 40
2.251649856864295
 40
2.251649856864295
 40
3.036582239860591
 40
3.036582239860591
 40
3.036582239860591
 40
3.036582239860591
 10
1661.116553485074
 20
2019.737988730032
 30
0.0000000000000142
 10
1661.109702258993
 20
2019.764378026093
 30
0.0000000000000142
 10
1661.102548976067
 20
2019.790761767407
 30
0.0000000000000142
 10
1661.029899599232
 20
2020.047843382508
 30
0.0000000000000142
 10
1660.940932022818
 20
2020.275955403166
 30
0.0000000000000141
 10
1660.739194606973
 20
2020.703352488739
 30
0.0000000000000141
 10
1660.604929847466
 20
2020.941674446244
 30
0.0000000000000141
 10
1660.303179832434
 20
2021.410213124657
 30
0.000000000000014
 10
1660.136291390283
 20
2021.641003679739
 30
0.000000000000014
 10
1659.979320390245
 20
2021.850330588397
 30
0.000000000000014
  0
SPLINE
  5
13F7
330
1F
100
AcDbEntity
  8
Hewi
100
AcDbSpline
210
0.0
220
0.0
230
1.0
 70
     8
 71
     3
 72
    20
 73
    16
 74
     0
 42
0.0000000001
 43
0.0000000001
 40
-2.081957642337048
 40
-2.081957642337048
 40
-2.081957642337048
 40
-2.081957642337048
 40
-2.029036545889133
 40
-2.029036545889133
 40
-1.976115449441223
 40
-1.976115449441223
 40
-1.938296586027501
 40
-1.938296586027501
 40
-1.900477722613779
 40
-1.900477722613779
 40
-1.79865290262327
 40
-1.79865290262327
 40
-1.696828082632761
 40
-1.696828082632761
 40
-1.658125044755919
 40
-1.658125044755919
 40
-1.658125044755919
 40
-1.658125044755919
 10
1661.178550533329
 20
2019.616780575548
 30
0.0000000000000142
 10
1661.179694337434
 20
2019.603706834814
 30
0.0000000000000142
 10
1661.180660164135
 20
2019.590229399796
 30
0.0000000000000142
 10
1661.1813623521
 20
2019.567786995194
 30
0.0000000000000142
 10
1661.181074536849
 20
2019.558907706596
 30
0.0000000000000142
 10
1661.179137138708
 20
2019.550865512113
 30
0.0000000000000142
 10
1661.177788638537
 20
2019.549379147096
 30
0.0000000000000142
 10
1661.174098961456
 20
2019.551822736481
 30
0.0000000000000142
 10
1661.17176512852
 20
2019.555711976065
 30
0.0000000000000142
 10
1661.163047034357
 20
2019.5745449243
 30
0.0000000000000142
 10
1661.15602344657
 20
2019.596370649686
 30
0.0000000000000142
 10
1661.141309858442
 20
2019.645594584037
 30
0.0000000000000142
 10
1661.133592910779
 20
2019.673527702027
 30
0.0000000000000142
 10
1661.122642131217
 20
2019.714666646649
 30
0.0000000000000142
 10
1661.119602641766
 20
2019.726244102465
 30
0.0000000000000142
 10
1661.116553485074
 20
2019.737988730032
 30
0.0000000000000142
  0
LINE
  5
13F8
330
1F
100
AcDbEntity
  8
Hewi
100
AcDbLine
 10
1658.273721630091
 20
2052.819126870127
 30
0.0000000000000137
 11
1661.178550533329
 21
2019.616780575548
 31
0.0000000000000142
210
0.0
220
1.0
230
0.0
  0
LINE
  5
13F9
330
1F
100
AcDbEntity
  8
Hewi
100
AcDbLine
 10
1661.974474881601
 20
2019.816522585289
 30
0.0000000000000143
 11
1664.189014754852
 21
1994.504216007483
 31
0.0000000000000147
210
0.0
220
1.0
230
0.0
  0
LINE
  5
13FA
330
1F
100
AcDbEntity
  8
Hewi
100
AcDbLine
 10
1652.390475643612
 20
2018.978031300724
 30
0.0000000000000126
 11
1654.605015516863
 21
1993.665724722917
 31
0.000000000000013
210
0.0
220
1.0
230
0.0
  0
SPLINE
  5
13FB
330
1F
100
AcDbEntity
  8
Hewi
100
AcDbSpline
210
-0.0000000000000027
220
-0.0000000000000028
230
-1.0
 70
     8
 71
     3
 72
    46
 73
    42
 74
     0
 42
0.0000000001
 43
0.0000000001
 40
-26.25009051702358
 40
-26.25009051702358
 40
-26.25009051702358
 40
-26.25009051702358
 40
-25.19226716828405
 40
-25.19226716828405
 40
-24.06297385938894
 40
-24.06297385938894
 40
-22.97039393615168
 40
-22.97039393615168
 40
-21.87781401291442
 40
-21.87781401291442
 40
-20.78523408967716
 40
-20.78523408967716
 40
-19.6926541664399
 40
-19.6926541664399
 40
-18.59462246291696
 40
-18.59462246291696
 40
-17.49659075939401
 40
-17.49659075939401
 40
-16.39855905587109
 40
-16.39855905587109
 40
-15.30052735234815
 40
-15.30052735234815
 40
-14.20249564882519
 40
-14.20249564882519
 40
-13.10446394530224
 40
-13.10446394530224
 40
-12.00643224177928
 40
-12.00643224177928
 40
-10.90840053825633
 40
-10.90840053825633
 40
-9.815820615019132
 40
-9.815820615019132
 40
-8.723240691781931
 40
-8.723240691781931
 40
-7.630660768544732
 40
-7.630660768544732
 40
-6.538080845307532
 40
-6.538080845307532
 40
-5.408787536412319
 40
-5.408787536412319
 40
-4.350964187672493
 40
-4.350964187672493
 40
-4.350964187672493
 40
-4.350964187672493
 10
1646.825039493677
 20
2052.838067634664
 30
0.0000000000000116
 10
1646.65377039989
 20
2052.8895418958
 30
0.0000000000000115
 10
1646.462038606143
 20
2052.949702070688
 30
0.0000000000000115
 10
1646.038475579991
 20
2053.090872658839
 30
0.0000000000000114
 10
1645.80487175618
 20
2053.17307115522
 30
0.0000000000000114
 10
1645.338949754043
 20
2053.347522774111
 30
0.0000000000000113
 10
1645.086457723461
 20
2053.446879570802
 30
0.0000000000000112
 10
1644.546791712642
 20
2053.674220409894
 30
0.0000000000000111
 10
1644.25965063736
 20
2053.802257713955
 30
0.0000000000000111
 10
1643.667035195326
 20
2054.085222262515
 30
0.000000000000011
 10
1643.361429900111
 20
2054.240274561138
 30
0.0000000000000109
 10
1642.750573736456
 20
2054.571127095795
 30
0.0000000000000108
 10
1642.445342953244
 20
2054.746963468939
 30
0.0000000000000107
 10
1641.854070884444
 20
2055.108372600831
 30
0.0000000000000106
 10
1641.5416557318
 20
2055.310095022755
 30
0.0000000000000106
 10
1640.904251809228
 20
2055.749879992335
 30
0.0000000000000105
 10
1640.579287181867
 20
2055.987988632655
 30
0.0000000000000104
 10
1639.936344403768
 20
2056.4909679612
 30
0.0000000000000103
 10
1639.618139044827
 20
2056.756054836239
 30
0.0000000000000102
 10
1639.006301819045
 20
2057.29856029242
 30
0.0000000000000101
 10
1638.712670358762
 20
2057.57597882215
 30
0.0000000000000101
 10
1638.165146492297
 20
2058.123502688613
 30
0.00000000000001
 10
1637.887727962568
 20
2058.417134148898
 30
0.0000000000000099
 10
1637.345222506387
 20
2059.028971374681
 30
0.0000000000000098
 10
1637.080135631347
 20
2059.347176733621
 30
0.0000000000000098
 10
1636.577156302803
 20
2059.990119511719
 30
0.0000000000000097
 10
1636.339047662483
 20
2060.315084139079
 30
0.0000000000000096
 10
1635.899262692903
 20
2060.952488061652
 30
0.0000000000000095
 10
1635.697540270979
 20
2061.264903214297
 30
0.0000000000000095
 10
1635.336131139087
 20
2061.856175283097
 30
0.0000000000000094
 10
1635.160294765944
 20
2062.16140606631
 30
0.0000000000000094
 10
1634.829442231286
 20
2062.772262229964
 30
0.0000000000000093
 10
1634.674389932662
 20
2063.077867525179
 30
0.0000000000000093
 10
1634.391425384102
 20
2063.670482967213
 30
0.0000000000000093
 10
1634.263388080041
 20
2063.957624042494
 30
0.0000000000000092
 10
1634.03604724095
 20
2064.497290053313
 30
0.0000000000000092
 10
1633.936690444259
 20
2064.749782083896
 30
0.0000000000000092
 10
1633.762238825368
 20
2065.215704086032
 30
0.0000000000000092
 10
1633.680040328988
 20
2065.449307909844
 30
0.0000000000000091
 10
1633.538869740835
 20
2065.872870935996
 30
0.0000000000000091
 10
1633.478709565948
 20
2066.064602729742
 30
0.0000000000000091
 10
1633.427235304813
 20
2066.235871823529
 30
0.0000000000000091
  0
SPLINE
  5
13FC
330
1F
100
AcDbEntity
  8
Hewi
100
AcDbSpline
210
-0.0000000000000025
220
-0.0000000000000026
230
-1.0
 70
     8
 71
     3
 72
    38
 73
    34
 74
     0
 42
0.0000000001
 43
0.0000000001
 40
7.989195374219312
 40
7.989195374219312
 40
7.989195374219312
 40
7.989195374219312
 40
8.254479951649056
 40
8.254479951649056
 40
9.559037833637082
 40
9.559037833637082
 40
10.8635957156251
 40
10.8635957156251
 40
12.16815359761313
 40
12.16815359761313
 40
13.47206133512371
 40
13.47206133512371
 40
14.77596907263429
 40
14.77596907263429
 40
16.07987681014486
 40
16.07987681014486
 40
17.38378454765544
 40
17.38378454765544
 40
18.68769228516606
 40
18.68769228516606
 40
19.99160002267668
 40
19.99160002267668
 40
21.29550776018729
 40
21.29550776018729
 40
22.59941549769791
 40
22.59941549769791
 40
23.90397337968593
 40
23.90397337968593
 40
25.20853126167392
 40
25.20853126167392
 40
26.51308914366193
 40
26.51308914366193
 40
26.77837372109179
 40
26.77837372109179
 40
26.77837372109179
 40
26.77837372109179
 10
1658.337069335113
 20
2091.145678955036
 30
0.0000000000000137
 10
1658.401139717738
 20
2091.126424984477
 30
0.0000000000000137
 10
1658.466403081263
 20
2091.106462058919
 30
0.0000000000000137
 10
1658.859301828007
 20
2090.983991634314
 30
0.0000000000000138
 10
1659.213104354374
 20
2090.864396928054
 30
0.0000000000000138
 10
1659.953649209049
 20
2090.587600320888
 30
0.000000000000014
 10
1660.340577077668
 20
2090.430221397149
 30
0.000000000000014
 10
1661.121714922745
 20
2090.081648651141
 30
0.0000000000000142
 10
1661.515895890292
 20
2089.890378238091
 30
0.0000000000000142
 10
1662.282897416316
 20
2089.486498414946
 30
0.0000000000000144
 10
1662.688816576623
 20
2089.256608447122
 30
0.0000000000000145
 10
1663.518625440213
 20
2088.743215196095
 30
0.0000000000000146
 10
1663.942473298154
 20
2088.45962678543
 30
0.0000000000000147
 10
1664.780545420993
 20
2087.848769022487
 30
0.0000000000000148
 10
1665.19517030829
 20
2087.521130646162
 30
0.0000000000000149
 10
1665.990109014564
 20
2086.840138773268
 30
0.0000000000000151
 10
1666.37041631006
 20
2086.486775365774
 30
0.0000000000000151
 10
1667.075943035921
 20
2085.781248639913
 30
0.0000000000000153
 10
1667.429306443415
 20
2085.400941344416
 30
0.0000000000000153
 10
1668.11029831631
 20
2084.606002638142
 30
0.0000000000000155
 10
1668.437936692634
 20
2084.191377750845
 30
0.0000000000000155
 10
1669.048794455578
 20
2083.353305628007
 30
0.0000000000000156
 10
1669.332382866243
 20
2082.929457770065
 30
0.0000000000000157
 10
1669.84577611727
 20
2082.099648906475
 30
0.0000000000000158
 10
1670.075666085093
 20
2081.693729746169
 30
0.0000000000000158
 10
1670.479545908239
 20
2080.926728220144
 30
0.0000000000000159
 10
1670.670816321289
 20
2080.532547252598
 30
0.0000000000000159
 10
1671.019389067296
 20
2079.751409407521
 30
0.000000000000016
 10
1671.176767991036
 20
2079.364481538902
 30
0.000000000000016
 10
1671.453564598202
 20
2078.623936684226
 30
0.0000000000000161
 10
1671.573159304459
 20
2078.270134157858
 30
0.0000000000000161
 10
1671.695629729067
 20
2077.877235411116
 30
0.0000000000000161
 10
1671.715592654624
 20
2077.811972047589
 30
0.0000000000000161
 10
1671.734846625184
 20
2077.747901664965
 30
0.0000000000000161
  0
ARC
  5
13FD
330
1F
100
AcDbEntity
  8
Hewi
100
AcDbCircle
 10
1652.581043861526
 20
2071.991876982661
 30
0.0000000000000056
 40
19.99999944047946
100
AcDbArc
 50
79.55669986848831
 51
196.7263068944412
  0
ARC
  5
13FE
330
1F
100
AcDbEntity
  8
Hewi
100
AcDbCircle
 10
1652.58104404926
 20
2071.991876379112
 30
0.0000000000000126
 40
20.0
100
AcDbArc
 50
259.5567007107983
 51
10.44329928917546
  0
ARC
  5
13FF
330
1F
100
AcDbEntity
  8
Hewi
100
AcDbCircle
 10
1652.58104404926
 20
2071.991876379112
 30
0.0000000000000126
 40
20.0
100
AcDbArc
 50
253.2737136313601
 51
259.5567007107983
  0
ARC
  5
1400
330
1F
100
AcDbEntity
  8
Hewi
100
AcDbCircle
 10
1772.369262797843
 20
2016.721788184487
 30
0.0000000000000346
 40
120.0000000000005
100
AcDbArc
 50
175.9776914801459
 51
178.9226597831304
  0
ARC
  5
1401
330
1F
100
AcDbEntity
  8
Hewi
100
AcDbCircle
 10
1772.369262797843
 20
2016.721788184487
 30
0.0000000000000346
 40
120.0000000000005
100
AcDbArc
 50
191.077340216849
 51
194.1768749669887
  0
LINE
  5
1402
330
1F
100
AcDbEntity
  8
Hewi
  6
Continuous
100
AcDbLine
 10
650.5583611205792
 20
837.1112283748393
 30
0.0
 11
650.5583611205792
 21
872.7494888717879
 31
0.0
  0
LINE
  5
1403
330
1F
100
AcDbEntity
  8
Hewi
  6
Continuous
100
AcDbLine
 10
632.5583611205789
 20
872.7491665398947
 30
0.0
 11
632.5583611205789
 21
836.7531165024264
 31
0.0
  0
LINE
  5
1404
330
1F
100
AcDbEntity
  8
Hewi
  6
Continuous
100
AcDbLine
 10
681.5583611205791
 20
874.749718111877
 30
0.0
 11
681.5583611205791
 21
885.749718111877
 31
0.0
  0
LINE
  5
1405
330
1F
100
AcDbEntity
  8
Hewi
  6
Continuous
100
AcDbLine
 10
601.5583611205792
 20
885.749718111877
 30
0.0
 11
601.5583611205792
 21
874.749718111877
 31
0.0
  0
LINE
  5
1406
330
1F
100
AcDbEntity
  8
Hewi
  6
Continuous
100
AcDbLine
 10
601.5583611205792
 20
885.749718111877
 30
0.0
 11
681.5583611205791
 21
885.749718111877
 31
0.0
  0
LINE
  5
1407
330
1F
100
AcDbEntity
  8
Hewi
  6
Continuous
100
AcDbLine
 10
603.5583611205789
 20
872.7497181118769
 30
0.0
 11
679.5583611205792
 21
872.7497181118769
 31
0.0
  0
ARC
  5
1408
330
1F
100
AcDbEntity
  8
Hewi
  6
Continuous
100
AcDbCircle
 10
679.5583611205792
 20
874.749718111877
 30
0.0
 40
2.0
100
AcDbArc
 50
270.0
 51
0.0
  0
ARC
  5
1409
330
1F
100
AcDbEntity
  8
Hewi
  6
Continuous
100
AcDbCircle
 10
603.5583611205789
 20
874.749718111877
 30
0.0
 40
2.0
100
AcDbArc
 50
180.0
 51
270.0
  0
CIRCLE
  5
140A
330
1F
100
AcDbEntity
  8
Hewi
100
AcDbCircle
 10
641.5583611205789
 20
812.3003611435496
 30
0.0
 40
16.5
  0
LINE
  5
140B
330
1F
100
AcDbEntity
  8
Hewi
100
AcDbLine
 10
666.0583611205789
 20
749.8003611435506
 30
0.0
 11
659.5583611205792
 21
749.8003611435506
 31
0.0
  0
LINE
  5
140C
330
1F
100
AcDbEntity
  8
Hewi
100
AcDbLine
 10
659.5583611205792
 20
778.5181590306506
 30
0.0
 11
666.2583611205787
 21
778.5181590306506
 31
0.0
  0
ARC
  5
140D
330
1F
100
AcDbEntity
  8
Hewi
100
AcDbCircle
 10
642.0583611205792
 20
811.8003611435494
 30
0.0
 40
26.69999999999936
100
AcDbArc
 50
0.0
 51
110.8428039567437
  0
ARC
  5
140E
330
1F
100
AcDbEntity
  8
Hewi
100
AcDbCircle
 10
584.7083611205805
 20
788.8003611435506
 30
0.0
 40
0.9999999999999998
100
AcDbArc
 50
90.0
 51
180.0
  0
SPLINE
  5
140F
330
1F
100
AcDbEntity
  8
Hewi
100
AcDbSpline
210
0.0
220
0.0
230
1.0
 70
     8
 71
     3
 72
    10
 73
     6
 74
     0
 42
0.0000000001
 43
0.0000000001
 40
1.86139545575616
 40
1.86139545575616
 40
1.86139545575616
 40
1.86139545575616
 40
3.074047116240881
 40
3.074047116240881
 40
4.714235913710636
 40
4.714235913710636
 40
4.714235913710636
 40
4.714235913710636
 10
586.330222968675
 20
763.9276328599188
 30
0.0
 10
586.062896190784
 20
764.2183310421643
 30
0.0
 10
585.7974715137768
 20
764.5125664804667
 30
0.0
 10
585.1782623955296
 20
765.2127014247047
 30
0.0
 10
584.8259847005293
 20
765.621774264023
 30
0.0
 10
584.4783596132456
 20
766.0368800646429
 30
0.0
  0
SPLINE
  5
1410
330
1F
100
AcDbEntity
  8
Hewi
100
AcDbSpline
210
0.0
220
0.0
230
1.0
 70
     8
 71
     3
 72
    22
 73
    18
 74
     0
 42
0.0000000001
 43
0.0000000001
 40
0.0
 40
0.0
 40
0.0
 40
0.0
 40
0.1010342156325368
 40
0.1010342156325368
 40
0.3279516765630044
 40
0.3279516765630044
 40
0.5175559881790206
 40
0.5175559881790206
 40
0.7979184818379858
 40
0.7979184818379858
 40
1.199996365120317
 40
1.199996365120317
 40
1.322552189555461
 40
1.322552189555461
 40
1.603510848517379
 40
1.603510848517379
 40
2.026822376410208
 40
2.026822376410208
 40
2.026822376410208
 40
2.026822376410208
 10
584.4783596671312
 20
766.0368801242671
 30
0.0
 10
584.4569124667668
 20
766.0624906296131
 30
0.0
 10
584.4357902431872
 20
766.0885203914204
 30
0.0
 10
584.3683594662206
 20
766.1740986439963
 30
0.0
 10
584.3233239871786
 20
766.2351683312752
 30
0.0
 10
584.2441130985178
 20
766.3492095485844
 30
0.0
 10
584.209261734365
 20
766.4020192820812
 30
0.0
 10
584.1262393852566
 20
766.5342004631677
 30
0.0
 10
584.0794500368564
 20
766.6145443197414
 30
0.0
 10
583.9735141652472
 20
766.8112019582347
 30
0.0
 10
583.9172326516862
 20
766.9290196091922
 30
0.0
 10
583.8545997379587
 20
767.0816175633267
 30
0.0
 10
583.8407114495829
 20
767.1172584863256
 30
0.0
 10
583.7977120707818
 20
767.2343288265082
 30
0.0
 10
583.7720169461288
 20
767.3155398941481
 30
0.0
 10
583.7218134319008
 20
767.5165805818777
 30
0.0
 10
583.7083611205805
 20
767.6200682543594
 30
0.0
 10
583.7083611205805
 20
767.7086011415092
 30
0.0
  0
SPLINE
  5
1411
330
1F
100
AcDbEntity
  8
Hewi
100
AcDbSpline
210
0.0
220
0.0
230
1.0
 70
     8
 71
     3
 72
    16
 73
    12
 74
     0
 42
0.0000000001
 43
0.0000000001
 40
0.2153933378818875
 40
0.2153933378818875
 40
0.2153933378818875
 40
0.2153933378818875
 40
0.4400106383128409
 40
0.4400106383128409
 40
0.7443622166473654
 40
0.7443622166473654
 40
0.7898558523517304
 40
0.7898558523517304
 40
0.8400475890234059
 40
0.8400475890234059
 40
0.9391014517164848
 40
0.9391014517164848
 40
0.9391014517164848
 40
0.9391014517164848
 10
587.3776035170338
 20
763.3321604753946
 30
0.0
 10
587.2679765405433
 20
763.3321394620495
 30
0.0
 10
587.1578265353082
 20
763.3597349060246
 30
0.0
 10
586.9130856724787
 20
763.4566940035705
 30
0.0
 10
586.7632985816933
 20
763.5452689038989
 30
0.0
 10
586.5889366348453
 20
763.6835695307272
 30
0.0
 10
586.5663862366734
 20
763.7021488956747
 30
0.0
 10
586.519304798544
 20
763.7424196193782
 30
0.0
 10
586.4947948893593
 20
763.7642468844756
 30
0.0
 10
586.4226667074189
 20
763.8311298286351
 30
0.0
 10
586.3756826900416
 20
763.8781988274412
 30
0.0
 10
586.3302232051132
 20
763.9276332166851
 30
0.0
  0
ARC
  5
1412
330
1F
100
AcDbEntity
  8
Hewi
100
AcDbCircle
 10
584.7083611205805
 20
750.8003611435506
 30
0.0
 40
0.9999999999999998
100
AcDbArc
 50
180.0
 51
270.0
  0
SPLINE
  5
1413
330
1F
100
AcDbEntity
  8
Hewi
100
AcDbSpline
210
0.0
220
0.0
230
1.0
 70
     8
 71
     3
 72
    22
 73
    18
 74
     0
 42
0.0000000001
 43
0.0000000001
 40
3.061871436955371
 40
3.061871436955371
 40
3.061871436955371
 40
3.061871436955371
 40
3.560368615882661
 40
3.560368615882661
 40
7.493792974690866
 40
7.493792974690866
 40
12.10816926551457
 40
12.10816926551457
 40
16.79563105604579
 40
16.79563105604579
 40
20.70282533587922
 40
20.70282533587922
 40
24.42008836558175
 40
24.42008836558175
 40
27.33511547717966
 40
27.33511547717966
 40
28.43964690264884
 40
28.43964690264884
 40
28.43964690264884
 40
28.43964690264884
 10
606.9912811585052
 20
756.1447584599777
 30
0.0
 10
606.9854942216196
 20
756.2611080466368
 30
0.0
 10
606.9760775342556
 20
756.3792618708035
 30
0.0
 10
606.8597153271947
 20
757.445523192834
 30
0.0
 10
606.531308601531
 20
758.4599939913807
 30
0.0
 10
605.3825222423991
 20
760.6771829070266
 30
0.0
 10
604.5012629670972
 20
761.8536279199897
 30
0.0
 10
602.3391497833952
 20
763.9354625165942
 30
0.0
 10
601.046565659557
 20
764.8408675686137
 30
0.0
 10
598.4266133564432
 20
765.9597017142807
 30
0.0
 10
597.1614030221124
 20
766.2528654760352
 30
0.0
 10
594.619083915968
 20
766.2935572265624
 30
0.0
 10
593.4066704997393
 20
766.0661079042437
 30
0.0
 10
591.3453546318057
 20
765.292437316561
 30
0.0
 10
590.4897442525252
 20
764.8318354881219
 30
0.0
 10
589.4022515842224
 20
764.0826396276366
 30
0.0
 10
589.1127944427361
 20
763.8647690233392
 30
0.0
 10
588.8335736066372
 20
763.6367672690994
 30
0.0
  0
SPLINE
  5
1414
330
1F
100
AcDbEntity
  8
Hewi
100
AcDbSpline
210
0.0
220
0.0
230
1.0
 70
     8
 71
     3
 72
    14
 73
    10
 74
     0
 42
0.0000000001
 43
0.0000000001
 40
0.0
 40
0.0
 40
0.0
 40
0.0
 40
0.1027022129701241
 40
0.1027022129701241
 40
0.7279570392031931
 40
0.7279570392031931
 40
0.878711546942449
 40
0.878711546942449
 40
1.007573759621968
 40
1.007573759621968
 40
1.007573759621968
 40
1.007573759621968
 10
588.6765977563197
 20
763.5337715534959
 30
0.0
 10
588.6495850374038
 20
763.5200111824913
 30
0.0
 10
588.6226691471737
 20
763.5067498975386
 30
0.0
 10
588.4327519281915
 20
763.41664328886
 30
0.0
 10
588.2961396191221
 20
763.3698501034564
 30
0.0
 10
588.1533868442111
 20
763.3423593980217
 30
0.0
 10
588.1257005370988
 20
763.3382192835797
 30
0.0
 10
588.0746596978923
 20
763.3332830044015
 30
0.0
 10
588.0519974303934
 20
763.3321348464614
 30
0.0
 10
588.0301082173217
 20
763.3321183485691
 30
0.0
  0
SPLINE
  5
1415
330
1F
100
AcDbEntity
  8
Hewi
100
AcDbSpline
210
0.0
220
0.0
230
1.0
 70
     8
 71
     3
 72
    20
 73
    16
 74
     0
 42
0.0000000001
 43
0.0000000001
 40
0.1476977204276086
 40
0.1476977204276086
 40
0.1476977204276086
 40
0.1476977204276086
 40
0.2758370288594389
 40
0.2758370288594389
 40
0.293331138459643
 40
0.293331138459643
 40
0.301426564545421
 40
0.301426564545421
 40
0.3203753852087088
 40
0.3203753852087088
 40
0.3465415963585574
 40
0.3465415963585574
 40
0.3510419892013851
 40
0.3510419892013851
 40
0.3544686228257871
 40
0.3544686228257871
 40
0.3544686228257871
 40
0.3544686228257871
 10
588.8335885118193
 20
763.6367369186528
 30
0.0
 10
588.8036283484797
 20
763.6122708440283
 30
0.0
 10
588.7722969021458
 20
763.5896831637019
 30
0.0
 10
588.7347229259338
 20
763.566323183456
 30
0.0
 10
588.7301803129457
 20
763.5635570393795
 30
0.0
 10
588.7234924720059
 20
763.5595700721965
 30
0.0
 10
588.7213704669956
 20
763.5583174678177
 30
0.0
 10
588.7142605073782
 20
763.554162165281
 30
0.0
 10
588.7092444831022
 20
763.5512987470613
 30
0.0
 10
588.6972195742117
 20
763.5445975020322
 30
0.0
 10
588.6901796055972
 20
763.5408041041891
 30
0.0
 10
588.6818517601848
 20
763.5364701050264
 30
0.0
 10
588.6806276798187
 20
763.5358369004992
 30
0.0
 10
588.6784681466195
 20
763.5347265584552
 30
0.0
 10
588.6775335164319
 20
763.5342482328837
 30
0.0
 10
588.6765977563036
 20
763.5337715534879
 30
0.0
  0
LINE
  5
1416
330
1F
100
AcDbEntity
  8
Hewi
100
AcDbLine
 10
609.2083611205805
 20
787.2003611435506
 30
0.0
 11
609.3583611205795
 21
787.2003611435506
 31
0.0
  0
LINE
  5
1417
330
1F
100
AcDbEntity
  8
Hewi
100
AcDbLine
 10
609.2083611205805
 20
752.4003611435505
 30
0.0
 11
609.3583611205795
 21
752.4003611435505
 31
0.0
  0
LINE
  5
1418
330
1F
100
AcDbEntity
  8
Hewi
100
AcDbLine
 10
587.3775999361231
 20
763.33216260803
 30
0.0
 11
588.0301750580644
 21
763.33216260803
 31
0.0
  0
LINE
  5
1419
330
1F
100
AcDbEntity
  8
Hewi
100
AcDbLine
 10
584.7083611205805
 20
789.8003611435506
 30
0.0
 11
609.2083611205805
 21
789.8003611435506
 31
0.0
  0
LINE
  5
141A
330
1F
100
AcDbEntity
  8
Hewi
100
AcDbLine
 10
584.7083611205805
 20
749.8003611435506
 30
0.0
 11
609.2083611205805
 21
749.8003611435506
 31
0.0
  0
LINE
  5
141B
330
1F
100
AcDbEntity
  8
Hewi
100
AcDbLine
 10
659.5583611205792
 20
749.8003385992232
 30
0.0
 11
624.5583611205789
 21
749.8003385992232
 31
0.0
  0
LINE
  5
141C
330
1F
100
AcDbEntity
  8
Hewi
100
AcDbLine
 10
624.5583611205789
 20
749.8003611435506
 30
0.0
 11
618.0583611205792
 21
749.8003611435506
 31
0.0
  0
LINE
  5
141D
330
1F
100
AcDbEntity
  8
Hewi
100
AcDbLine
 10
617.8583611205795
 20
749.8003611435485
 30
0.0
 11
609.3583611205795
 21
749.8003611435485
 31
0.0
  0
LINE
  5
141E
330
1F
100
AcDbEntity
  8
Hewi
100
AcDbLine
 10
615.3583611205801
 20
789.8003611435487
 30
0.0
 11
609.3583611205795
 21
789.8003611435487
 31
0.0
  0
LINE
  5
141F
330
1F
100
AcDbEntity
  8
Hewi
100
AcDbLine
 10
617.8583611205795
 20
777.8003611435496
 30
0.0
 11
618.0583611205792
 21
777.8003611435496
 31
0.0
  0
LINE
  5
1420
330
1F
100
AcDbEntity
  8
Hewi
100
AcDbLine
 10
617.8583611205795
 20
761.8003611435502
 30
0.0
 11
618.0583611205792
 21
761.8003611435502
 31
0.0
  0
LINE
  5
1421
330
1F
100
AcDbEntity
  8
Hewi
100
AcDbLine
 10
618.0583611205792
 20
774.0430018306701
 30
0.0
 11
617.8583611205795
 21
774.0430018306701
 31
0.0
  0
LINE
  5
1422
330
1F
100
AcDbEntity
  8
Hewi
100
AcDbLine
 10
618.0583611205792
 20
771.8709135043702
 30
0.0
 11
617.8583611205795
 21
771.8709135043702
 31
0.0
  0
LINE
  5
1423
330
1F
100
AcDbEntity
  8
Hewi
100
AcDbLine
 10
617.8583611205795
 20
775.4572153930426
 30
0.0
 11
618.0583611205792
 21
775.4572153930426
 31
0.0
  0
LINE
  5
1424
330
1F
100
AcDbEntity
  8
Hewi
100
AcDbLine
 10
617.3583611205804
 20
778.5181590306506
 30
0.0
 11
617.8583611205795
 21
778.5181590306506
 31
0.0
  0
SPLINE
  5
1425
330
1F
100
AcDbEntity
  8
Hewi
100
AcDbSpline
210
0.0
220
0.0
230
1.0
 70
     8
 71
     3
 72
    18
 73
    14
 74
     0
 42
0.0000000001
 43
0.0000000001
 40
-4.49455063240396
 40
-4.49455063240396
 40
-4.49455063240396
 40
-4.49455063240396
 40
-3.042993563053926
 40
-3.042993563053926
 40
-2.317215028378913
 40
-2.317215028378913
 40
-1.591436493703898
 40
-1.591436493703898
 40
-0.7957182468519495
 40
-0.7957182468519495
 40
-0.3978591234259738
 40
-0.3978591234259738
 40
0.0
 40
0.0
 40
0.0
 40
0.0
 10
615.3583611205801
 20
781.8003611435601
 30
0.0
 10
615.3583611205801
 20
781.4132792584006
 30
0.0
 10
615.4236014326113
 20
780.9825142715206
 30
0.0
 10
615.6185189536906
 20
780.3425346830636
 30
0.0
 10
615.6992794579901
 20
780.1303404084356
 30
0.0
 10
615.8908132219485
 20
779.7214695814
 30
0.0
 10
616.0014309065136
 20
779.5247436058811
 30
0.0
 10
616.2659091342739
 20
779.1444375162904
 30
0.0
 10
616.44116494647
 20
778.9387389927346
 30
0.0
 10
616.7516693486831
 20
778.7040850197938
 30
0.0
 10
616.8629934390391
 20
778.6382072775891
 30
0.0
 10
617.1000470865891
 20
778.5452733408142
 30
0.0
 10
617.2257414127715
 20
778.5181590306478
 30
0.0
 10
617.3583611205804
 20
778.5181590306478
 30
0.0
  0
LINE
  5
1426
330
1F
100
AcDbEntity
  8
Hewi
100
AcDbLine
 10
617.8583611205795
 20
749.8003611435485
 30
0.0
 11
617.8583611205795
 21
778.5181590306506
 31
0.0
  0
LINE
  5
1427
330
1F
100
AcDbEntity
  8
Hewi
100
AcDbLine
 10
609.3583611205795
 20
789.8003611435487
 30
0.0
 11
609.3583611205795
 21
749.8003611435485
 31
0.0
  0
LINE
  5
1428
330
1F
100
AcDbEntity
  8
Hewi
100
AcDbLine
 10
617.8583611205795
 20
778.5181590306506
 30
0.0
 11
624.5583611205789
 21
778.5181590306506
 31
0.0
  0
LINE
  5
1429
330
1F
100
AcDbEntity
  8
Hewi
100
AcDbLine
 10
615.3583611205801
 20
811.8003611435494
 30
0.0
 11
615.3583611205801
 21
781.8003611435601
 31
0.0
  0
ARC
  5
142A
330
1F
100
AcDbEntity
  8
Hewi
100
AcDbCircle
 10
642.0583611205792
 20
811.8003611435494
 30
0.0
 40
26.69999999999936
100
AcDbArc
 50
110.8428039567437
 51
180.0
  0
LINE
  5
142B
330
1F
100
AcDbEntity
  8
Hewi
100
AcDbLine
 10
618.0583611205792
 20
778.5181590306643
 30
0.0
 11
618.0583611205792
 21
749.8003611435506
 31
0.0
  0
LINE
  5
142C
330
1F
100
AcDbEntity
  8
Hewi
100
AcDbLine
 10
624.5583611205789
 20
778.5182107507856
 30
0.0
 11
624.5583611205789
 21
749.8003385992232
 31
0.0
  0
LINE
  5
142D
330
1F
100
AcDbEntity
  8
Hewi
100
AcDbLine
 10
659.5583611205792
 20
749.8003385992232
 30
0.0
 11
659.5583611205792
 21
778.5182107507856
 31
0.0
  0
LINE
  5
142E
330
1F
100
AcDbEntity
  8
Hewi
100
AcDbLine
 10
609.2083611205805
 20
789.8003611435506
 30
0.0
 11
609.2083611205805
 21
755.6582255198192
 31
0.0
  0
LINE
  5
142F
330
1F
100
AcDbEntity
  8
Hewi
100
AcDbLine
 10
609.2083611205805
 20
755.6582255198192
 30
0.0
 11
609.2083611205805
 21
749.8003611435506
 31
0.0
  0
LINE
  5
1430
330
1F
100
AcDbEntity
  8
Hewi
100
AcDbLine
 10
583.7083611205805
 20
767.7086011415092
 30
0.0
 11
583.7083611205805
 21
750.9158558523372
 31
0.0
  0
LINE
  5
1431
330
1F
100
AcDbEntity
  8
Hewi
100
AcDbLine
 10
583.7083611205805
 20
750.9158558523372
 30
0.0
 11
583.7083611205805
 21
750.8003611435506
 31
0.0
  0
LINE
  5
1432
330
1F
100
AcDbEntity
  8
Hewi
100
AcDbLine
 10
583.7083611205805
 20
788.8003611435506
 30
0.0
 11
583.7083611205805
 21
767.7086011415092
 31
0.0
  0
ARC
  5
1433
330
1F
100
AcDbEntity
  8
Hewi
100
AcDbCircle
 10
674.9083611205795
 20
751.8003611435505
 30
0.0
 40
1.999999999999999
100
AcDbArc
 50
270.0
 51
0.0
  0
ARC
  5
1434
330
1F
100
AcDbEntity
  8
Hewi
100
AcDbCircle
 10
674.9083611205795
 20
787.8003611435501
 30
0.0
 40
1.999999999999999
100
AcDbArc
 50
0.0
 51
90.0
  0
LINE
  5
1435
330
1F
100
AcDbEntity
  8
Hewi
100
AcDbLine
 10
674.758361120579
 20
749.8003611435485
 30
0.0
 11
666.2583611205787
 21
749.8003611435485
 31
0.0
  0
LINE
  5
1436
330
1F
100
AcDbEntity
  8
Hewi
100
AcDbLine
 10
674.758361120579
 20
789.8003611435487
 30
0.0
 11
668.7583611205782
 21
789.8003611435487
 31
0.0
  0
LINE
  5
1437
330
1F
100
AcDbEntity
  8
Hewi
100
AcDbLine
 10
674.758361120579
 20
787.2003611435502
 30
0.0
 11
674.9083611205795
 21
787.2003611435502
 31
0.0
  0
LINE
  5
1438
330
1F
100
AcDbEntity
  8
Hewi
100
AcDbLine
 10
674.758361120579
 20
752.40036114355
 30
0.0
 11
674.9083611205795
 21
752.40036114355
 31
0.0
  0
LINE
  5
1439
330
1F
100
AcDbEntity
  8
Hewi
100
AcDbLine
 10
666.0583611205789
 20
777.8003611435496
 30
0.0
 11
666.2583611205787
 21
777.8003611435496
 31
0.0
  0
LINE
  5
143A
330
1F
100
AcDbEntity
  8
Hewi
100
AcDbLine
 10
666.0583611205789
 20
761.8003611435502
 30
0.0
 11
666.2583611205787
 21
761.8003611435502
 31
0.0
  0
LINE
  5
143B
330
1F
100
AcDbEntity
  8
Hewi
100
AcDbLine
 10
674.9083611205795
 20
789.8003611435501
 30
0.0
 11
674.9083611205795
 21
783.9424967672812
 31
0.0
  0
LINE
  5
143C
330
1F
100
AcDbEntity
  8
Hewi
100
AcDbLine
 10
674.9083611205795
 20
783.9424967672812
 30
0.0
 11
674.9083611205795
 21
749.8003611435506
 31
0.0
  0
LINE
  5
143D
330
1F
100
AcDbEntity
  8
Hewi
100
AcDbLine
 10
676.9083611205793
 20
787.8003611435501
 30
0.0
 11
676.9083611205793
 21
782.5282832049079
 31
0.0
  0
LINE
  5
143E
330
1F
100
AcDbEntity
  8
Hewi
100
AcDbLine
 10
676.9083611205793
 20
782.5282832049083
 30
0.0
 11
676.9083611205793
 21
751.8003611435505
 31
0.0
  0
LINE
  5
143F
330
1F
100
AcDbEntity
  8
Hewi
100
AcDbLine
 10
666.2583611205787
 20
778.5181590306506
 30
0.0
 11
666.7583611205778
 21
778.5181590306506
 31
0.0
  0
LINE
  5
1440
330
1F
100
AcDbEntity
  8
Hewi
100
AcDbLine
 10
666.2583611205787
 20
749.8003611435485
 30
0.0
 11
666.2583611205787
 21
778.5181590306506
 31
0.0
  0
SPLINE
  5
1441
330
1F
100
AcDbEntity
  8
Hewi
100
AcDbSpline
210
0.0
220
0.0
230
1.0
 70
     8
 71
     3
 72
    18
 73
    14
 74
     0
 42
0.0000000001
 43
0.0000000001
 40
0.0
 40
0.0
 40
0.0
 40
0.0
 40
0.3978591234259627
 40
0.3978591234259627
 40
0.7957182468519255
 40
0.7957182468519255
 40
1.59143649370385
 40
1.59143649370385
 40
2.31721502837871
 40
2.31721502837871
 40
3.042993563053578
 40
3.042993563053578
 40
4.494550632403308
 40
4.494550632403308
 40
4.494550632403308
 40
4.494550632403308
 10
666.7583611205778
 20
778.5181590306487
 30
0.0
 10
666.8909808283867
 20
778.5181590306487
 30
0.0
 10
667.016675154569
 20
778.5452733408151
 30
0.0
 10
667.2537288021191
 20
778.6382072775899
 30
0.0
 10
667.3650528924753
 20
778.7040850197946
 30
0.0
 10
667.6755572946882
 20
778.9387389927351
 30
0.0
 10
667.8508131068847
 20
779.1444375162907
 30
0.0
 10
668.115291334645
 20
779.5247436058816
 30
0.0
 10
668.22590901921
 20
779.7214695814009
 30
0.0
 10
668.4174427831684
 20
780.1303404084358
 30
0.0
 10
668.4982032874676
 20
780.3425346830636
 30
0.0
 10
668.6931208085471
 20
780.9825142715212
 30
0.0
 10
668.7583611205782
 20
781.4132792584006
 30
0.0
 10
668.7583611205782
 20
781.8003611435601
 30
0.0
  0
LINE
  5
1442
330
1F
100
AcDbEntity
  8
Hewi
100
AcDbLine
 10
674.758361120579
 20
789.8003611435487
 30
0.0
 11
674.758361120579
 21
749.8003611435485
 31
0.0
  0
LINE
  5
1443
330
1F
100
AcDbEntity
  8
Hewi
100
AcDbLine
 10
668.7583611205782
 20
811.8003611435494
 30
0.0
 11
668.7583611205782
 21
781.8003611435601
 31
0.0
  0
LINE
  5
1444
330
1F
100
AcDbEntity
  8
Hewi
100
AcDbLine
 10
666.0583611205789
 20
778.5181590306643
 30
0.0
 11
666.0583611205789
 21
749.8003611435506
 31
0.0
  0
LWPOLYLINE
  5
180B
330
1F
100
AcDbEntity
  8
Hewi
100
AcDbPolyline
 90
        2
 70
     0
 43
0.0
 10
1039.074760584002
 20
1174.873172169466
 10
542.2862092676823
 20
1175.275063331172
  0
LINE
  5
1858
330
1F
100
AcDbEntity
  8
Hewi
  6
Continuous
100
AcDbLine
 10
1594.494252357281
 20
1282.99933736742
 30
0.0
 11
1550.494975467865
 21
1282.99933736742
 31
0.0
  0
LINE
  5
1859
330
1F
100
AcDbEntity
  8
Hewi
  6
Continuous
100
AcDbLine
 10
1550.495297799757
 20
1264.99933736742
 30
0.0
 11
1594.494887037183
 21
1264.999341244513
 31
0.0
  0
LINE
  5
185A
330
1F
100
AcDbEntity
  8
Hewi
  6
Continuous
100
AcDbLine
 10
1548.494746227774
 20
1313.999337367421
 30
0.0
 11
1537.494746227775
 21
1313.999337367421
 31
0.0
  0
LINE
  5
185B
330
1F
100
AcDbEntity
  8
Hewi
  6
Continuous
100
AcDbLine
 10
1537.494746227775
 20
1233.99933736742
 30
0.0
 11
1548.494746227774
 21
1233.99933736742
 31
0.0
  0
LINE
  5
185C
330
1F
100
AcDbEntity
  8
Hewi
  6
Continuous
100
AcDbLine
 10
1537.494746227775
 20
1233.99933736742
 30
0.0
 11
1537.494746227775
 21
1313.999337367421
 31
0.0
  0
LINE
  5
185D
330
1F
100
AcDbEntity
  8
Hewi
  6
Continuous
100
AcDbLine
 10
1550.494746227774
 20
1235.99933736742
 30
0.0
 11
1550.494746227774
 21
1311.99933736742
 31
0.0
  0
ARC
  5
185E
330
1F
100
AcDbEntity
  8
Hewi
  6
Continuous
100
AcDbCircle
 10
1548.494746227774
 20
1311.99933736742
 30
0.0
 40
2.0
100
AcDbArc
 50
0.0
 51
90.0
  0
ARC
  5
185F
330
1F
100
AcDbEntity
  8
Hewi
  6
Continuous
100
AcDbCircle
 10
1548.494746227774
 20
1235.99933736742
 30
0.0
 40
2.0
100
AcDbArc
 50
270.0
 51
0.0
  0
LINE
  5
1D47
330
1F
100
AcDbEntity
  8
Hewi
100
AcDbLine
 10
327.7062975394392
 20
795.7497181118766
 30
0.0
 11
305.2062975394392
 21
795.7497181118766
 31
0.0
  0
LINE
  5
1D48
330
1F
100
AcDbEntity
  8
Hewi
100
AcDbLine
 10
305.2062975394392
 20
828.7497181118766
 30
0.0
 11
327.7062975394392
 21
828.7497181118766
 31
0.0
  0
LINE
  5
1D49
330
1F
100
AcDbEntity
  8
Hewi
100
AcDbLine
 10
252.1732889504374
 20
817.7167095228897
 30
0.0
 11
236.2633863737453
 21
833.626612099596
 31
0.0
  0
LINE
  5
1D4A
330
1F
100
AcDbEntity
  8
Hewi
100
AcDbLine
 10
259.5979101528962
 20
856.9611358787469
 30
0.0
 11
275.5078127296022
 21
841.0512333020406
 31
0.0
  0
LINE
  5
1D4B
330
1F
100
AcDbEntity
  8
Hewi
100
AcDbLine
 10
328.2043948884843
 20
796.2497181118766
 30
0.0
 11
328.2043948884843
 21
828.2497181118769
 31
0.0
  0
LINE
  5
1D4C
330
1F
100
AcDbEntity
  8
Hewi
100
AcDbLine
 10
305.2062975394392
 20
795.7497181118766
 30
0.0
 11
305.2062975394392
 21
795.7497181118766
 31
0.0
  0
LINE
  5
1D4D
330
1F
100
AcDbEntity
  8
Hewi
100
AcDbLine
 10
328.2062975394392
 20
812.2497181118767
 30
0.0
 11
328.2062975394392
 21
828.2497161842284
 31
0.0
  0
LINE
  5
1D4E
330
1F
100
AcDbEntity
  8
Hewi
100
AcDbLine
 10
328.2062975394392
 20
812.2497181118767
 30
0.0
 11
328.2062975394392
 21
828.2497181118769
 31
0.0
  0
LINE
  5
1D4F
330
1F
100
AcDbEntity
  8
Hewi
100
AcDbLine
 10
259.2443567623143
 20
857.3146892693428
 30
0.0
 11
259.2443567623143
 21
857.3146892693428
 31
0.0
  0
ARC
  5
1D50
330
1F
100
AcDbEntity
  8
Hewi
100
AcDbCircle
 10
327.7062975394392
 20
796.2497181118766
 30
0.0
 40
0.5
100
AcDbArc
 50
270.0
 51
356.4650608633384
  0
ARC
  5
1D51
330
1F
100
AcDbEntity
  8
Hewi
100
AcDbCircle
 10
327.7062975394392
 20
828.2497181118769
 30
0.0
 40
0.5
100
AcDbArc
 50
3.534939136661618
 51
90.0
  0
ARC
  5
1D52
330
1F
100
AcDbEntity
  8
Hewi
100
AcDbCircle
 10
-305.2062975394392
 20
870.7497181118766
 30
0.0
 40
42.00000000000001
210
0.0
220
0.0
230
-1.0
100
AcDbArc
 50
270.0
 51
315.0000000000642
  0
ARC
  5
1D53
330
1F
100
AcDbEntity
  8
Hewi
100
AcDbCircle
 10
305.2062975394392
 20
870.7497181118766
 30
0.0
 40
75.00000000000001
100
AcDbArc
 50
224.9999999999357
 51
270.0
  0
ARC
  5
1D54
330
1F
100
AcDbEntity
  8
Hewi
100
AcDbCircle
 10
259.2443567623004
 20
856.6075824881508
 30
0.0
 40
0.5
100
AcDbArc
 50
44.99999999993574
 51
135.0000000000642
  0
ARC
  5
1D55
330
1F
100
AcDbEntity
  8
Hewi
100
AcDbCircle
 10
236.6169397643414
 20
833.9801654901775
 30
0.0
 40
0.5
100
AcDbArc
 50
135.0000000000642
 51
224.9999999999357
  0
ARC
  5
1D56
330
1F
100
AcDbEntity
  8
Hewi
100
AcDbCircle
 10
236.7583611205794
 20
834.8286936276082
 30
0.0
 40
1.199999999999999
100
AcDbArc
 50
142.813713227797
 51
224.9999999999357
  0
ARC
  5
1D57
330
1F
100
AcDbEntity
  8
Hewi
100
AcDbCircle
 10
258.3958286248844
 20
856.4661611319127
 30
0.0
 40
1.199999999999999
100
AcDbArc
 50
44.99999999993574
 51
127.1862867719065
  0
ARC
  5
1D58
330
1F
100
AcDbEntity
  8
Hewi
100
AcDbCircle
 10
330.19955311483
 20
761.821218586784
 30
0.0
 40
120.0
100
AcDbArc
 50
127.1862867719065
 51
134.5935879936767
  0
ARC
  5
1D59
330
1F
100
AcDbEntity
  8
Hewi
100
AcDbCircle
 10
331.4033036657079
 20
763.0249691376621
 30
0.0
 40
120.0
100
AcDbArc
 50
135.4064120064883
 51
142.813713227797
  0
ARC
  5
1D5A
330
1F
100
AcDbEntity
  8
Hewi
100
AcDbCircle
 10
328.7043948884843
 20
828.2497181118769
 30
0.0
 40
0.5
100
AcDbArc
 50
90.0
 51
176.4650608633384
  0
ARC
  5
1D5B
330
1F
100
AcDbEntity
  8
Hewi
100
AcDbCircle
 10
328.7043948884843
 20
796.2497181118766
 30
0.0
 40
0.5
100
AcDbArc
 50
183.5349391366616
 51
270.0
  0
LINE
  5
1D5C
330
1F
100
AcDbEntity
  8
Hewi
100
AcDbLine
 10
392.0583611205792
 20
828.7497181118766
 30
0.0
 11
442.5583611205792
 21
828.7497181118766
 31
0.0
  0
LINE
  5
1D5D
330
1F
100
AcDbEntity
  8
Hewi
100
AcDbLine
 10
366.5583611205793
 20
828.7666209699045
 30
0.0
 11
366.5583611205793
 21
872.7493235444518
 31
0.0
  0
LINE
  5
1D5E
330
1F
100
AcDbEntity
  8
Hewi
100
AcDbLine
 10
384.5583611205793
 20
872.7493189309855
 30
0.0
 11
384.5583611205793
 21
828.7503484502185
 31
0.0
  0
LINE
  5
1D5F
330
1F
100
AcDbEntity
  8
Hewi
100
AcDbLine
 10
335.5583611205793
 20
874.749718111877
 30
0.0
 11
335.5583611205793
 21
885.749718111877
 31
0.0
  0
LINE
  5
1D60
330
1F
100
AcDbEntity
  8
Hewi
100
AcDbLine
 10
415.5583611205793
 20
885.749718111877
 30
0.0
 11
415.5583611205793
 21
874.749718111877
 31
0.0
  0
LINE
  5
1D61
330
1F
100
AcDbEntity
  8
Hewi
100
AcDbLine
 10
337.5583611205793
 20
872.7497181118769
 30
0.0
 11
413.5583611205793
 21
872.7497181118769
 31
0.0
  0
LINE
  5
1D62
330
1F
100
AcDbEntity
  8
Hewi
100
AcDbLine
 10
335.5583611205793
 20
885.749718111877
 30
0.0
 11
415.5583611205793
 21
885.749718111877
 31
0.0
  0
ARC
  5
1D63
330
1F
100
AcDbEntity
  8
Hewi
100
AcDbCircle
 10
337.5583611205793
 20
874.749718111877
 30
0.0
 40
2.0
100
AcDbArc
 50
180.0
 51
270.0
  0
ARC
  5
1D64
330
1F
100
AcDbEntity
  8
Hewi
100
AcDbCircle
 10
413.5583611205793
 20
874.749718111877
 30
0.0
 40
2.0
100
AcDbArc
 50
270.0
 51
0.0
  0
SPLINE
  5
1D65
330
1F
100
AcDbEntity
  8
Hewi
100
AcDbSpline
210
0.0
220
0.0
230
1.0
 70
     8
 71
     3
 72
    14
 73
    10
 74
     0
 42
0.0000000001
 43
0.0000000001
 40
0.0
 40
0.0
 40
0.0
 40
0.0
 40
0.2434300440914431
 40
0.2434300440914431
 40
0.4956200293942957
 40
0.4956200293942957
 40
0.7478100146971479
 40
0.7478100146971479
 40
1.0
 40
1.0
 40
1.0
 40
1.0
 10
384.5506872331307
 20
828.7494544622557
 30
0.0
 10
384.4525735359338
 20
828.7487667291671
 30
0.0
 10
383.4156915146877
 20
828.2007950261569
 30
0.0
 10
380.1539083142843
 20
826.910305528577
 30
0.0
 10
377.8250296094185
 20
826.2168868325632
 30
0.0
 10
373.0136575584029
 20
826.1988095906806
 30
0.0
 10
370.6867251188078
 20
826.8879884818261
 30
0.0
 10
367.4797916049129
 20
828.2036159236694
 30
0.0
 10
366.5084225423917
 20
828.7780824065514
 30
0.0
 10
366.5604231235767
 20
828.7484944967539
 30
0.0
  0
LINE
  5
1D68
330
1F
100
AcDbEntity
  8
Hewi
100
AcDbLine
 10
328.7043948884843
 20
828.7497181118766
 30
0.0
 11
366.5583611205793
 21
828.7666209699045
 31
0.0
  0
LINE
  5
1D69
330
1F
100
AcDbEntity
  8
Hewi
100
AcDbLine
 10
642.8523984479634
 20
828.749539463312
 30
0.0
 11
640.2643028931254
 21
828.7495378191149
 31
0.0
  0
LINE
  5
1D6A
330
1F
100
AcDbEntity
  8
Hewi
100
AcDbLine
 10
496.9245547938283
 20
828.7495258524968
 30
0.0
 11
384.5506872331307
 21
828.7494544622557
 31
0.0
  0
LINE
  5
1D6B
330
1F
100
AcDbEntity
  8
Hewi
100
AcDbLine
 10
490.8550132392673
 20
795.7497181118766
 30
0.0
 11
615.3583611205801
 21
795.7497181118766
 31
0.0
  0
LINE
  5
1DA9
330
1F
100
AcDbEntity
  8
Hewi
100
AcDbLine
 10
611.5583458617902
 20
1136.476607055872
 30
0.0000000000000059
 11
611.5583458617902
 21
1180.476622314662
 31
0.0000000000000059
  0
LINE
  5
1DAA
330
1F
100
AcDbEntity
  8
Hewi
100
AcDbLine
 10
671.5583458617904
 20
1136.476607055872
 30
0.0000000000000059
 11
671.5583458617904
 21
1180.476622314662
 31
0.0000000000000059
  0
LINE
  5
1DAB
330
1F
100
AcDbEntity
  8
Hewi
100
AcDbLine
 10
611.5583458617902
 20
1136.476607055872
 30
0.0000000000000059
 11
671.5583458617904
 21
1136.476607055872
 31
0.0000000000000059
  0
LINE
  5
1DAC
330
1F
100
AcDbEntity
  8
Hewi
100
AcDbLine
 10
625.0583687499737
 20
1204.476637573451
 30
0.0000000000000059
 11
658.0583611205793
 21
1204.476637573451
 31
0.0000000000000059
  0
LINE
  5
1DAD
330
1F
100
AcDbEntity
  8
Hewi
100
AcDbLine
 10
657.4961510375715
 20
1179.914412231655
 30
0.0000000000000059
 11
658.0583611205793
 21
1180.476622314662
 31
0.0000000000000059
  0
LINE
  5
1DAE
330
1F
100
AcDbEntity
  8
Hewi
100
AcDbLine
 10
649.8083534911848
 20
1175.005125732631
 30
0.0000000000000059
 11
653.2255974487043
 21
1177.017149658412
 31
0.0000000000000059
  0
LINE
  5
1DAF
330
1F
100
AcDbEntity
  8
Hewi
100
AcDbLine
 10
653.7376061156966
 20
1177.529196472377
 30
0.0000000000000059
 11
655.8477822021223
 21
1178.668265075893
 31
0.0000000000000059
  0
LINE
  5
1DB0
330
1F
100
AcDbEntity
  8
Hewi
100
AcDbLine
 10
645.8288613036848
 20
1173.535895080776
 30
0.0000000000000059
 11
646.7497292236067
 21
1174.032950134487
 31
0.0000000000000059
  0
LINE
  5
1DB1
330
1F
100
AcDbEntity
  8
Hewi
100
AcDbLine
 10
646.7497292236067
 20
1174.032950134487
 30
0.0000000000000059
 11
649.8083534911848
 21
1175.005125732631
 31
0.0000000000000059
  0
LINE
  5
1DB2
330
1F
100
AcDbEntity
  8
Hewi
100
AcDbLine
 10
656.9064751342511
 20
1179.726996154994
 30
0.0000000000000059
 11
657.4961510375715
 21
1179.914412231655
 31
0.0000000000000059
  0
LINE
  5
1DB3
330
1F
100
AcDbEntity
  8
Hewi
100
AcDbLine
 10
641.5583458617902
 20
1172.803168029994
 30
0.0000000000000059
 11
645.8288613036848
 21
1173.535895080776
 31
0.0000000000000059
  0
LINE
  5
1DB4
330
1F
100
AcDbEntity
  8
Hewi
100
AcDbLine
 10
637.2878304198957
 20
1173.535895080776
 30
0.0000000000000059
 11
641.5583458617902
 21
1172.803168029994
 31
0.0000000000000059
  0
LINE
  5
1DB5
330
1F
100
AcDbEntity
  8
Hewi
100
AcDbLine
 10
636.3670006469464
 20
1174.032950134487
 30
0.0000000000000059
 11
637.2878304198957
 21
1173.535895080776
 31
0.0000000000000059
  0
LINE
  5
1DB6
330
1F
100
AcDbEntity
  8
Hewi
100
AcDbLine
 10
655.8477822021223
 20
1178.668265075893
 30
0.0000000000000059
 11
656.9064751342511
 21
1179.726996154994
 31
0.0000000000000059
  0
LINE
  5
1DB7
330
1F
100
AcDbEntity
  8
Hewi
100
AcDbLine
 10
653.2255974487043
 20
1177.017149658412
 30
0.0000000000000059
 11
653.7376061156966
 21
1177.529196472377
 31
0.0000000000000059
  0
LINE
  5
1DB8
330
1F
100
AcDbEntity
  8
Hewi
100
AcDbLine
 10
611.5583458617902
 20
1180.476622314662
 30
0.0000000000000059
 11
625.0583687499737
 21
1180.476622314662
 31
0.0000000000000059
  0
LINE
  5
1DB9
330
1F
100
AcDbEntity
  8
Hewi
100
AcDbLine
 10
629.3790856078842
 20
1177.529196472377
 30
0.0000000000000059
 11
629.8910942748761
 21
1177.017149658412
 31
0.0000000000000059
  0
LINE
  5
1DBA
330
1F
100
AcDbEntity
  8
Hewi
100
AcDbLine
 10
625.6205788329816
 20
1179.914412231655
 30
0.0000000000000059
 11
626.2102165893293
 21
1179.726996154994
 31
0.0000000000000059
  0
LINE
  5
1DBB
330
1F
100
AcDbEntity
  8
Hewi
100
AcDbLine
 10
627.2689476684307
 20
1178.668265075893
 30
0.0000000000000059
 11
629.3790856078842
 21
1177.529196472377
 31
0.0000000000000059
  0
LINE
  5
1DBC
330
1F
100
AcDbEntity
  8
Hewi
100
AcDbLine
 10
629.8910942748761
 20
1177.017149658412
 30
0.0000000000000059
 11
633.3083382323957
 21
1175.005125732631
 31
0.0000000000000059
  0
LINE
  5
1DBD
330
1F
100
AcDbEntity
  8
Hewi
100
AcDbLine
 10
626.2102165893293
 20
1179.726996154994
 30
0.0000000000000059
 11
627.2689476684307
 21
1178.668265075893
 31
0.0000000000000059
  0
LINE
  5
1DBE
330
1F
100
AcDbEntity
  8
Hewi
100
AcDbLine
 10
625.0583687499737
 20
1180.476622314662
 30
0.0000000000000059
 11
625.6205788329816
 21
1179.914412231655
 31
0.0000000000000059
  0
LINE
  5
1DBF
330
1F
100
AcDbEntity
  8
Hewi
100
AcDbLine
 10
633.3083382323957
 20
1175.005125732631
 30
0.0000000000000059
 11
636.3670006469464
 21
1174.032950134487
 31
0.0000000000000059
  0
LINE
  5
1DC0
330
1F
100
AcDbEntity
  8
Hewi
100
AcDbLine
 10
658.0583611205793
 20
1180.476622314662
 30
0.0000000000000059
 11
658.0583611205793
 21
1204.476637573451
 31
0.0000000000000059
  0
LINE
  5
1DC1
330
1F
100
AcDbEntity
  8
Hewi
100
AcDbLine
 10
625.0583687499737
 20
1180.476622314662
 30
0.0000000000000059
 11
625.0583687499737
 21
1204.476637573451
 31
0.0000000000000059
  0
LINE
  5
1DC2
330
1F
100
AcDbEntity
  8
Hewi
100
AcDbLine
 10
658.0583611205793
 20
1180.476622314662
 30
0.0000000000000059
 11
671.5583458617904
 21
1180.476622314662
 31
0.0000000000000059
  0
LWPOLYLINE
  5
1DC3
330
1F
100
AcDbEntity
  8
Hewi
100
AcDbPolyline
 90
        4
 70
     0
 43
0.0
 10
487.0549979804772
 20
1175.49933736742
 10
327.0012722862682
 20
1174.999338329501
 10
327.0012722862682
 20
1142.999338329501
 10
487.0549979804772
 20
1142.499337367421
  0
LWPOLYLINE
  5
1DC4
330
1F
100
AcDbEntity
  8
Hewi
100
AcDbPolyline
 90
        2
 70
     0
 43
0.0
 10
487.0549979804772
 20
1142.499337367421
 10
671.0141031911507
 20
1142.499337653773
  0
ARC
  5
1DC5
330
1F
100
AcDbEntity
  8
Hewi
100
AcDbCircle
 10
375.0583611205791
 20
1158.99933736742
 30
0.0
 40
40.0
100
AcDbArc
 50
24.36197793997394
 51
155.6380220600261
  0
ARC
  5
1DC6
330
1F
100
AcDbEntity
  8
Hewi
100
AcDbCircle
 10
375.0583611205791
 20
1158.99933736742
 30
0.0
 40
40.0
100
AcDbArc
 50
204.3619779399739
 51
335.638022060026
  0
LINE
  5
1DC7
330
1F
100
AcDbEntity
  8
Hewi
100
AcDbLine
 10
327.0012722862682
 20
1175.499338329501
 30
-0.0000000000000092
 11
304.5012722862683
 21
1175.499338329501
 31
-0.0000000000000113
  0
LINE
  5
1DC8
330
1F
100
AcDbEntity
  8
Hewi
100
AcDbLine
 10
304.5012722862683
 20
1142.499338329501
 30
-0.0000000000000093
 11
327.0012722862682
 21
1142.499338329501
 31
-0.0000000000000072
  0
LINE
  5
1DC9
330
1F
100
AcDbEntity
  8
Hewi
100
AcDbLine
 10
263.1355255868482
 20
1175.499338329501
 30
0.0000000000000087
 11
247.2256230101574
 21
1175.499338329501
 31
-0.000000000000001
  0
LINE
  5
1DCA
330
1F
100
AcDbEntity
  8
Hewi
100
AcDbLine
 10
247.2256230101573
 20
1142.499338329501
 30
0.000000000000001
 11
263.1355255868482
 21
1142.499338329501
 31
0.0000000000000108
  0
LINE
  5
1DCB
330
1F
100
AcDbEntity
  8
Hewi
100
AcDbLine
 10
304.5012722862683
 20
1175.499338329501
 30
-0.0000000000000113
 11
263.1355255868482
 21
1175.499338329501
 31
0.0000000000000087
  0
LINE
  5
1DCC
330
1F
100
AcDbEntity
  8
Hewi
100
AcDbLine
 10
263.1355255868482
 20
1142.499338329501
 30
0.0000000000000108
 11
304.5012722862683
 21
1142.499338329501
 31
-0.0000000000000093
  0
LINE
  5
1DCD
330
1F
100
AcDbEntity
  8
Hewi
100
AcDbLine
 10
327.4993696353134
 20
1174.999338329501
 30
-0.0000000000000098
 11
327.4993696353134
 21
1142.999338329501
 31
-0.0000000000000078
  0
LINE
  5
1DCE
330
1F
100
AcDbEntity
  8
Hewi
100
AcDbLine
 10
304.5012722862683
 20
1175.499338329501
 30
-0.0000000000000113
 11
304.5012722862683
 21
1175.499338329501
 31
-0.0000000000000113
  0
LINE
  5
1DCF
330
1F
100
AcDbEntity
  8
Hewi
100
AcDbLine
 10
327.5012722862683
 20
1142.999338329501
 30
-0.0000000000000078
 11
327.5012722862683
 21
1174.999338329501
 31
-0.0000000000000098
  0
ARC
  5
1DD0
330
1F
100
AcDbEntity
  8
Hewi
100
AcDbCircle
 10
327.0012722862682
 20
1174.999338329501
 30
0.0000000000002466
 40
0.5
100
AcDbArc
 50
3.534939136661567
 51
90.0
  0
ARC
  5
1DD1
330
1F
100
AcDbEntity
  8
Hewi
100
AcDbCircle
 10
327.0012722862682
 20
1142.999338329501
 30
0.0000000000002486
 40
0.5
100
AcDbArc
 50
270.0
 51
356.4650608633385
  0
ARC
  5
1DD2
330
1F
100
AcDbEntity
  8
Hewi
100
AcDbCircle
 10
327.9993696353134
 20
1142.999338329501
 30
0.0000000000002474
 40
0.5
100
AcDbArc
 50
183.5349391366614
 51
270.0
  0
ARC
  5
1DD3
330
1F
100
AcDbEntity
  8
Hewi
100
AcDbCircle
 10
327.9993696353134
 20
1174.999338329501
 30
0.0000000000002454
 40
0.5
100
AcDbArc
 50
90.0
 51
176.4650608633384
  0
ELLIPSE
  5
1DD4
330
1F
100
AcDbEntity
  8
Hewi
100
AcDbEllipse
 10
247.2256230101574
 20
1158.999338329501
 30
0.0
 11
0.000000000000004
 21
16.5
 31
0.0
210
0.0
220
0.0
230
1.0
 40
0.7071067811865463
 41
0.0
 42
3.14159281861797
  0
ELLIPSE
  5
1DD5
330
1F
100
AcDbEntity
  8
Hewi
100
AcDbEllipse
 10
246.8720696195613
 20
1158.999338329501
 30
0.0000000000000004
 11
0.000000000000004
 21
16.5
 31
0.0
210
0.0
220
0.0
230
1.0
 40
0.7071067811865466
 41
6.267968099393152
 42
6.283185307179584
  0
LINE
  5
1DD6
330
1F
100
AcDbEntity
  8
Hewi
100
AcDbLine
 10
1593.86049292718
 20
1175.49933736742
 30
0.000000000000005
 11
1577.950590350488
 21
1175.49933736742
 31
0.0000000000000237
  0
LINE
  5
1DD7
330
1F
100
AcDbEntity
  8
Hewi
100
AcDbLine
 10
1577.950590350488
 20
1142.499337367421
 30
0.0000000000000257
 11
1593.86049292718
 21
1142.499337367421
 31
0.0000000000000071
  0
LINE
  5
1DD8
330
1F
100
AcDbEntity
  8
Hewi
100
AcDbLine
 10
1548.494746227774
 20
1198.99933736742
 30
-0.0000000000000002
 11
1544.349182115922
 21
1198.99933736742
 31
0.0000000000000047
  0
LINE
  5
1DD9
330
1F
100
AcDbEntity
  8
Hewi
100
AcDbLine
 10
1567.818288047984
 20
1167.99933736742
 30
0.0000000000000027
 11
1550.495458635659
 21
1167.99933736742
 31
0.0000000000000034
  0
LINE
  5
1DDA
330
1F
100
AcDbEntity
  8
Hewi
100
AcDbLine
 10
1550.495504507821
 20
1149.999337367421
 30
0.0000000000000046
 11
1567.818788059286
 21
1149.999337367421
 31
0.0000000000000039
  0
LINE
  5
1DDB
330
1F
100
AcDbEntity
  8
Hewi
100
AcDbLine
 10
1610.994746227774
 20
1175.49933736742
 30
0.0000000000000134
 11
1593.86049292718
 21
1175.49933736742
 31
0.000000000000005
  0
LINE
  5
1DDC
330
1F
100
AcDbEntity
  8
Hewi
100
AcDbLine
 10
1593.86049292718
 20
1142.499337367421
 30
0.0000000000000071
 11
1610.994746227774
 21
1142.499337367421
 31
0.0000000000000154
  0
LINE
  5
1DDD
330
1F
100
AcDbEntity
  8
Hewi
100
AcDbLine
 10
1550.494746227774
 20
1120.999337367421
 30
0.0000000000000023
 11
1550.494746227774
 21
1196.999337367421
 31
-0.0000000000000023
  0
ARC
  5
1DDE
330
1F
100
AcDbEntity
  8
Hewi
100
AcDbCircle
 10
1548.494746227774
 20
1196.999337367421
 30
-0.0000000000001706
 40
2.0
100
AcDbArc
 50
0.0
 51
90.0
  0
ARC
  5
1DDF
330
1F
100
AcDbEntity
  8
Hewi
100
AcDbCircle
 10
1548.494746227774
 20
1120.999337367421
 30
-0.0000000000001659
 40
2.0
100
AcDbArc
 50
270.0
 51
0.0
  0
ARC
  5
1DE0
330
1F
100
AcDbEntity
  8
Hewi
100
AcDbCircle
 10
-1610.994746227774
 20
1158.999337367421
 30
0.0000000000002415
 40
16.5
210
0.0
220
0.0
230
-1.0
100
AcDbArc
 50
89.99999788891125
 51
180.0
  0
ARC
  5
1DE1
330
1F
100
AcDbEntity
  8
Hewi
100
AcDbCircle
 10
-1610.994746227774
 20
1158.999337367421
 30
0.0000000000002415
 40
16.5
210
0.0
220
0.0
230
-1.0
100
AcDbArc
 50
180.0
 51
270.0000021110887
  0
ARC
  5
1DE2
330
1F
100
AcDbEntity
  8
Hewi
100
AcDbCircle
 10
1610.994746227774
 20
1158.999337367421
 30
-0.0000000000002415
 40
16.5
100
AcDbArc
 50
270.0
 51
90.0000042213437
  0
ELLIPSE
  5
1DE3
330
1F
100
AcDbEntity
  8
Hewi
100
AcDbEllipse
 10
1593.86049292718
 20
1158.999337367421
 30
0.0000000000000061
 11
-0.0000000000000071
 21
-16.5
 31
0.0
210
0.0
220
0.0
230
1.0
 40
0.7071067811865485
 41
0.0
 42
3.141592818617966
  0
ELLIPSE
  5
1DE4
330
1F
100
AcDbEntity
  8
Hewi
100
AcDbEllipse
 10
1576.756387126381
 20
1158.999337367421
 30
0.0000000000000261
 11
0.0000000000000066
 21
15.46314323411495
 31
0.0
210
0.0
220
0.0
230
0.9999999999999998
 40
0.7071067811865487
 41
0.0
 42
6.283185307179584
  0
ELLIPSE
  5
1DE5
330
1F
100
AcDbEntity
  8
Hewi
100
AcDbEllipse
 10
1577.597036959891
 20
1158.999337367421
 30
0.0000000000000251
 11
0.0000000000000071
 21
16.5
 31
0.0
210
0.0
220
0.0
230
1.0
 40
0.7071067811865485
 41
2.064124468782268
 42
6.283185307179584
  0
ELLIPSE
  5
1DE6
330
1F
100
AcDbEntity
  8
Hewi
100
AcDbEllipse
 10
1577.597036959891
 20
1158.999337367421
 30
0.0000000000000251
 11
0.0000000000000071
 21
16.5
 31
0.0
210
0.0
220
0.0
230
1.0
 40
0.7071067811865485
 41
0.0
 42
1.077566468341812
  0
ELLIPSE
  5
1DE7
330
1F
100
AcDbEntity
  8
Hewi
100
AcDbEllipse
 10
1541.494746227775
 20
1198.990172909629
 30
0.000000000000008
 11
1.73205
 21
-0.0000000000000007
 31
0.0
210
0.0
220
0.0
230
1.0
 40
0.0214049152598428
 41
5.627783360602743
 42
6.674982526938742
  0
SPLINE
  5
1DE8
330
1F
100
AcDbEntity
  8
Hewi
100
AcDbSpline
210
-0.0000000000000005
220
0.0000000000000479
230
1.0
 70
     8
 71
     3
 72
    10
 73
     6
 74
     0
 42
0.0000000001
 43
0.0000000001
 40
0.0
 40
0.0
 40
0.0
 40
0.0
 40
0.5130136982945209
 40
0.5130136982945209
 40
1.0
 40
1.0
 40
1.0
 40
1.0
 10
1544.494746227774
 20
1198.990149265371
 30
0.0000000000000046
 10
1544.494746227774
 20
1198.997348838222
 30
0.0000000000000046
 10
1544.43694764662
 20
1199.000178732936
 30
0.0000000000000046
 10
1544.221037986889
 20
1198.998092739375
 30
0.0000000000000049
 10
1544.065428790182
 20
1198.993591938588
 30
0.000000000000005
 10
1543.871157783298
 20
1198.987444637327
 30
0.0000000000000053
  0
ARC
  5
1E29
330
1F
100
AcDbEntity
  8
Hewi
100
AcDbCircle
 10
908.0583611205796
 20
1158.99933736742
 30
0.0
 40
40.0
100
AcDbArc
 50
24.36197793997452
 51
155.6380220600255
  0
ARC
  5
1E2A
330
1F
100
AcDbEntity
  8
Hewi
100
AcDbCircle
 10
908.0583611205796
 20
1158.99933736742
 30
0.0
 40
40.0
100
AcDbArc
 50
204.3619779399745
 51
335.6380220600255
  0
LINE
  5
1E2B
330
1F
100
AcDbEntity
  8
Hewi
100
AcDbLine
 10
956.1154499548903
 20
1175.499338329501
 30
-0.0000000000000092
 11
978.6154499548905
 21
1175.499338329501
 31
-0.0000000000000113
  0
LINE
  5
1E2C
330
1F
100
AcDbEntity
  8
Hewi
100
AcDbLine
 10
978.6154499548905
 20
1142.499338329501
 30
-0.0000000000000093
 11
956.1154499548903
 21
1142.499338329501
 31
-0.0000000000000072
  0
LINE
  5
1E2D
330
1F
100
AcDbEntity
  8
Hewi
100
AcDbLine
 10
1019.98119665431
 20
1175.499338329501
 30
0.0000000000000087
 11
1035.891099231001
 21
1175.499338329501
 31
-0.000000000000001
  0
LINE
  5
1E2E
330
1F
100
AcDbEntity
  8
Hewi
100
AcDbLine
 10
1035.891099231001
 20
1142.499338329501
 30
0.000000000000001
 11
1019.98119665431
 21
1142.499338329501
 31
0.0000000000000108
  0
LINE
  5
1E2F
330
1F
100
AcDbEntity
  8
Hewi
100
AcDbLine
 10
978.6154499548905
 20
1175.499338329501
 30
-0.0000000000000113
 11
1019.98119665431
 21
1175.499338329501
 31
0.0000000000000087
  0
LINE
  5
1E30
330
1F
100
AcDbEntity
  8
Hewi
100
AcDbLine
 10
1019.98119665431
 20
1142.499338329501
 30
0.0000000000000108
 11
978.6154499548905
 21
1142.499338329501
 31
-0.0000000000000093
  0
LINE
  5
1E31
330
1F
100
AcDbEntity
  8
Hewi
100
AcDbLine
 10
955.6173526058456
 20
1174.999338329501
 30
-0.0000000000000098
 11
955.6173526058456
 21
1142.999338329501
 31
-0.0000000000000078
  0
LINE
  5
1E32
330
1F
100
AcDbEntity
  8
Hewi
100
AcDbLine
 10
978.6154499548905
 20
1175.499338329501
 30
-0.0000000000000113
 11
978.6154499548905
 21
1175.499338329501
 31
-0.0000000000000113
  0
LINE
  5
1E33
330
1F
100
AcDbEntity
  8
Hewi
100
AcDbLine
 10
955.6154499548904
 20
1142.999338329501
 30
-0.0000000000000078
 11
955.6154499548904
 21
1174.999338329501
 31
-0.0000000000000098
  0
ARC
  5
1E34
330
1F
100
AcDbEntity
  8
Hewi
100
AcDbCircle
 10
956.1154499548903
 20
1174.999338329501
 30
0.0000000000002466
 40
0.5
100
AcDbArc
 50
90.0
 51
176.4650608633383
  0
ARC
  5
1E35
330
1F
100
AcDbEntity
  8
Hewi
100
AcDbCircle
 10
956.1154499548903
 20
1142.999338329501
 30
0.0000000000002486
 40
0.5
100
AcDbArc
 50
183.5349391366614
 51
270.0
  0
ARC
  5
1E36
330
1F
100
AcDbEntity
  8
Hewi
100
AcDbCircle
 10
955.1173526058457
 20
1142.999338329501
 30
0.0000000000002474
 40
0.5
100
AcDbArc
 50
270.0
 51
356.4650608633388
  0
ARC
  5
1E37
330
1F
100
AcDbEntity
  8
Hewi
100
AcDbCircle
 10
955.1173526058457
 20
1174.999338329501
 30
0.0000000000002454
 40
0.5
100
AcDbArc
 50
3.53493913666169
 51
90.0
  0
ELLIPSE
  5
1E38
330
1F
100
AcDbEntity
  8
Hewi
100
AcDbEllipse
 10
1035.891099231001
 20
1158.999338329501
 30
0.0
 11
-0.000000000000004
 21
16.5
 31
0.0
210
0.0
220
0.0
230
-1.0
 40
0.7071067811865463
 41
0.0
 42
3.14159281861797
  0
ELLIPSE
  5
1E39
330
1F
100
AcDbEntity
  8
Hewi
100
AcDbEllipse
 10
1036.244652621597
 20
1158.999338329501
 30
0.0000000000000004
 11
-0.000000000000004
 21
16.5
 31
0.0
210
0.0
220
0.0
230
-1.0
 40
0.7071067811865466
 41
6.267968099393152
 42
6.283185307179584
  0
LWPOLYLINE
  5
1E40
330
1F
100
AcDbEntity
  8
Hewi
100
AcDbPolyline
 90
        2
 70
     0
 43
0.0
 10
671.0141031911507
 20
1175.350518441734
 10
487.0549979804772
 20
1175.49933736742
  0
LWPOLYLINE
  5
1E41
330
1F
100
AcDbEntity
  8
Hewi
100
AcDbPolyline
 90
        2
 70
     0
 43
0.0
 10
479.8737548244853
 20
1142.499337645771
 10
611.5583458617902
 20
1142.499337850752
  0
LINE
  5
1E42
330
1F
100
AcDbEntity
  8
Hewi
100
AcDbLine
 10
955.4746194155644
 20
795.7497181118766
 30
0.0
 11
977.9746194155645
 21
795.7497181118766
 31
0.0
  0
LINE
  5
1E43
330
1F
100
AcDbEntity
  8
Hewi
100
AcDbLine
 10
977.9746194155645
 20
828.7497181118766
 30
0.0
 11
955.4746194155644
 21
828.7497181118766
 31
0.0
  0
LINE
  5
1E44
330
1F
100
AcDbEntity
  8
Hewi
100
AcDbLine
 10
1031.007628004567
 20
817.7167095228897
 30
0.0
 11
1046.917530581259
 21
833.626612099596
 31
0.0
  0
LINE
  5
1E45
330
1F
100
AcDbEntity
  8
Hewi
100
AcDbLine
 10
1023.583006802108
 20
856.9611358787469
 30
0.0
 11
1007.673104225402
 21
841.0512333020406
 31
0.0
  0
LINE
  5
1E46
330
1F
100
AcDbEntity
  8
Hewi
100
AcDbLine
 10
954.9765220665204
 20
796.2497181118766
 30
0.0
 11
954.9765220665204
 21
828.2497181118769
 31
0.0
  0
LINE
  5
1E47
330
1F
100
AcDbEntity
  8
Hewi
100
AcDbLine
 10
977.9746194155645
 20
795.7497181118766
 30
0.0
 11
977.9746194155645
 21
795.7497181118766
 31
0.0
  0
LINE
  5
1E48
330
1F
100
AcDbEntity
  8
Hewi
100
AcDbLine
 10
954.9746194155655
 20
812.2497181118767
 30
0.0
 11
954.9746194155655
 21
828.2497161842284
 31
0.0
  0
LINE
  5
1E49
330
1F
100
AcDbEntity
  8
Hewi
100
AcDbLine
 10
954.9746194155655
 20
812.2497181118767
 30
0.0
 11
954.9746194155655
 21
828.2497181118769
 31
0.0
  0
LINE
  5
1E4A
330
1F
100
AcDbEntity
  8
Hewi
100
AcDbLine
 10
1023.936560192689
 20
857.3146892693428
 30
0.0
 11
1023.936560192689
 21
857.3146892693428
 31
0.0
  0
ARC
  5
1E4B
330
1F
100
AcDbEntity
  8
Hewi
100
AcDbCircle
 10
955.4746194155644
 20
796.2497181118766
 30
0.0
 40
0.5
100
AcDbArc
 50
183.5349391366617
 51
270.0
  0
ARC
  5
1E4C
330
1F
100
AcDbEntity
  8
Hewi
100
AcDbCircle
 10
955.4746194155644
 20
828.2497181118769
 30
0.0
 40
0.5
100
AcDbArc
 50
90.0
 51
176.4650608633382
  0
ARC
  5
1E4D
330
1F
100
AcDbEntity
  8
Hewi
100
AcDbCircle
 10
-977.9746194155645
 20
870.7497181118766
 30
0.0
 40
42.00000000000001
210
0.0
220
0.0
230
-1.0
100
AcDbArc
 50
224.9999999999351
 51
270.0
  0
ARC
  5
1E4E
330
1F
100
AcDbEntity
  8
Hewi
100
AcDbCircle
 10
977.9746194155645
 20
870.7497181118766
 30
0.0
 40
75.00000000000001
100
AcDbArc
 50
270.0
 51
315.0000000000649
  0
ARC
  5
1E4F
330
1F
100
AcDbEntity
  8
Hewi
100
AcDbCircle
 10
1023.936560192703
 20
856.6075824881508
 30
0.0
 40
0.5
100
AcDbArc
 50
44.9999999999351
 51
135.0000000000649
  0
ARC
  5
1E50
330
1F
100
AcDbEntity
  8
Hewi
100
AcDbCircle
 10
1046.563977190662
 20
833.9801654901775
 30
0.0
 40
0.5
100
AcDbArc
 50
315.0000000000649
 51
44.9999999999351
  0
ARC
  5
1E51
330
1F
100
AcDbEntity
  8
Hewi
100
AcDbCircle
 10
1046.422555834424
 20
834.8286936276082
 30
0.0
 40
1.199999999999999
100
AcDbArc
 50
315.0000000000649
 51
37.18628677220284
  0
ARC
  5
1E52
330
1F
100
AcDbEntity
  8
Hewi
100
AcDbCircle
 10
1024.785088330119
 20
856.4661611319127
 30
0.0
 40
1.199999999999999
100
AcDbArc
 50
52.8137132280934
 51
135.0000000000649
  0
ARC
  5
1E53
330
1F
100
AcDbEntity
  8
Hewi
100
AcDbCircle
 10
952.9813638401744
 20
761.821218586784
 30
0.0
 40
120.0
100
AcDbArc
 50
45.40641200632378
 51
52.8137132280934
  0
ARC
  5
1E54
330
1F
100
AcDbEntity
  8
Hewi
100
AcDbCircle
 10
951.7776132892963
 20
763.0249691376621
 30
0.0
 40
120.0
100
AcDbArc
 50
37.18628677220284
 51
44.59358799351213
  0
ARC
  5
1E55
330
1F
100
AcDbEntity
  8
Hewi
100
AcDbCircle
 10
954.4765220665194
 20
828.2497181118769
 30
0.0
 40
0.5
100
AcDbArc
 50
3.53493913666169
 51
90.0
  0
ARC
  5
1E56
330
1F
100
AcDbEntity
  8
Hewi
100
AcDbCircle
 10
954.4765220665194
 20
796.2497181118766
 30
0.0
 40
0.5
100
AcDbArc
 50
270.0
 51
356.4650608633384
  0
LINE
  5
1E57
330
1F
100
AcDbEntity
  8
Hewi
100
AcDbLine
 10
916.6225558344244
 20
828.7666209699045
 30
0.0
 11
916.6225558344244
 21
872.7493235444518
 31
0.0
  0
LINE
  5
1E58
330
1F
100
AcDbEntity
  8
Hewi
100
AcDbLine
 10
898.6225558344244
 20
872.7493189309855
 30
0.0
 11
898.6225558344244
 21
828.7503484502185
 31
0.0
  0
LINE
  5
1E59
330
1F
100
AcDbEntity
  8
Hewi
100
AcDbLine
 10
947.6225558344244
 20
874.749718111877
 30
0.0
 11
947.6225558344244
 21
885.749718111877
 31
0.0
  0
LINE
  5
1E5A
330
1F
100
AcDbEntity
  8
Hewi
100
AcDbLine
 10
867.6225558344244
 20
885.749718111877
 30
0.0
 11
867.6225558344244
 21
874.749718111877
 31
0.0
  0
LINE
  5
1E5B
330
1F
100
AcDbEntity
  8
Hewi
100
AcDbLine
 10
945.6225558344256
 20
872.7497181118769
 30
0.0
 11
869.6225558344256
 21
872.7497181118769
 31
0.0
  0
LINE
  5
1E5C
330
1F
100
AcDbEntity
  8
Hewi
100
AcDbLine
 10
947.6225558344244
 20
885.749718111877
 30
0.0
 11
867.6225558344244
 21
885.749718111877
 31
0.0
  0
ARC
  5
1E5D
330
1F
100
AcDbEntity
  8
Hewi
100
AcDbCircle
 10
945.6225558344256
 20
874.749718111877
 30
0.0
 40
2.0
100
AcDbArc
 50
270.0
 51
0.000000000000007
  0
ARC
  5
1E5E
330
1F
100
AcDbEntity
  8
Hewi
100
AcDbCircle
 10
869.6225558344256
 20
874.749718111877
 30
0.0
 40
2.0
100
AcDbArc
 50
180.0
 51
270.0
  0
SPLINE
  5
1E5F
330
1F
100
AcDbEntity
  8
Hewi
100
AcDbSpline
210
0.0
220
0.0
230
1.0
 70
     8
 71
     3
 72
    14
 73
    10
 74
     0
 42
0.0000000001
 43
0.0000000001
 40
0.0
 40
0.0
 40
0.0
 40
0.0
 40
0.2434300440914431
 40
0.2434300440914431
 40
0.4956200293942957
 40
0.4956200293942957
 40
0.7478100146971479
 40
0.7478100146971479
 40
1.0
 40
1.0
 40
1.0
 40
1.0
 10
898.6302297218735
 20
828.7494544622557
 30
0.0
 10
898.7283434190706
 20
828.7487667291671
 30
0.0
 10
899.7652254403165
 20
828.2007950261569
 30
0.0
 10
903.0270086407195
 20
826.910305528577
 30
0.0
 10
905.3558873455855
 20
826.2168868325632
 30
0.0
 10
910.1672593966013
 20
826.1988095906806
 30
0.0
 10
912.4941918361965
 20
826.8879884818261
 30
0.0
 10
915.7011253500913
 20
828.2036159236694
 30
0.0
 10
916.6724944126123
 20
828.7780824065514
 30
0.0
 10
916.6204938314272
 20
828.7484944967539
 30
0.0
  0
LINE
  5
1E60
330
1F
100
AcDbEntity
  8
Hewi
100
AcDbLine
 10
954.4765220665194
 20
828.7497181118766
 30
0.0
 11
916.6225558344244
 21
828.7666209699045
 31
0.0
  0
LINE
  5
1E62
330
1F
100
AcDbEntity
  8
Hewi
100
AcDbLine
 10
557.761149761856
 20
795.7497181118765
 30
0.0
 11
615.3583611205801
 21
795.7497181118764
 31
0.0
  0
LINE
  5
1E63
330
1F
100
AcDbEntity
  8
Hewi
100
AcDbLine
 10
714.7002013321806
 20
828.7497231129531
 30
0.0
 11
662.6886846499849
 21
828.7496900704429
 31
0.0
  0
LINE
  5
1E66
330
1F
100
AcDbEntity
  8
Hewi
100
AcDbLine
 10
621.4280647380721
 20
828.7497231129535
 30
0.0
 11
551.6914825426656
 21
828.7496788098469
 31
0.0
  0
LINE
  5
1E67
330
1F
100
AcDbEntity
  8
Hewi
100
AcDbLine
 10
579.4169785518707
 20
795.7497181118764
 30
0.0
 11
615.3583611205804
 21
795.7497181118764
 31
0.0
  0
LWPOLYLINE
  5
1E68
330
1F
100
AcDbEntity
  8
Hewi
100
AcDbPolyline
 90
        2
 70
     0
 43
0.0
 10
611.5583458617902
 20
1175.248146894404
 10
485.0141031911506
 20
1175.350518441734
  0
LWPOLYLINE
  5
1E69
330
1F
100
AcDbEntity
  8
Hewi
100
AcDbPolyline
 90
        2
 70
     0
 43
0.0
 10
542.2862092676823
 20
1142.499337798961
 10
1035.893080113474
 20
1142.499338567313
  0
LINE
  5
1E7E
330
1F
100
AcDbEntity
  8
Hewi
100
AcDbLine
 10
978.1208136945924
 20
828.7499725503524
 30
0.0
 11
662.6886172081341
 21
828.7497721587403
 31
0.0
  0
LINE
  5
1E80
330
1F
100
AcDbEntity
  8
Hewi
100
AcDbLine
 10
714.1558794615288
 20
828.749663857862
 30
0.0
 11
662.6887330481338
 21
828.7496311611855
 31
0.0
  0
LINE
  5
1E81
330
1F
100
AcDbEntity
  8
Hewi
100
AcDbLine
 10
668.7583611205782
 20
795.7497181118764
 30
0.0
 11
708.6304977146888
 21
795.7497181118764
 31
0.0
  0
LINE
  5
1E97
330
1F
100
AcDbEntity
  8
Hewi
100
AcDbLine
 10
621.4279676575634
 20
828.7496049485429
 30
0.0
 11
496.9245547938283
 21
828.7495258524968
 31
0.0
  0
LINE
  5
1E98
330
1F
100
AcDbEntity
  8
Hewi
100
AcDbLine
 10
621.4280834973841
 20
828.7497459462453
 30
0.0
 11
571.6257438668224
 21
828.7497143072075
 31
0.0
  0
LINE
  5
1E99
330
1F
100
AcDbEntity
  8
Hewi
100
AcDbLine
 10
668.7583611205782
 20
795.7497181118764
 30
0.0
 11
977.9746194155645
 21
795.7497181118764
 31
0.0
  0
LINE
  5
1E9A
330
1F
100
AcDbEntity
  8
Hewi
100
AcDbLine
 10
668.7583611205781
 20
795.7497181118766
 30
0.0
 11
708.0862245264714
 21
795.7497181118765
 31
0.0
  0
ENDSEC
  0
SECTION
  2
OBJECTS
  0
DICTIONARY
  5
C
330
0
100
AcDbDictionary
281
     1
  3
ACAD_CIP_PREVIOUS_PRODUCT_INFO
350
1ED0
  3
ACAD_COLOR
350
6B
  3
ACAD_DETAILVIEWSTYLE
350
1ECC
  3
ACAD_GROUP
350
D
  3
ACAD_LAYOUT
350
1A
  3
ACAD_MATERIAL
350
6A
  3
ACAD_MLEADERSTYLE
350
1EC8
  3
ACAD_MLINESTYLE
350
17
  3
ACAD_PLOTSETTINGS
350
19
  3
ACAD_PLOTSTYLENAME
350
E
  3
ACAD_SCALELIST
350
1EB6
  3
ACAD_SECTIONVIEWSTYLE
350
1ECA
  3
ACAD_TABLESTYLE
350
7E
  3
ACAD_VISUALSTYLE
350
EF
  3
ACDB_RECOMPOSE_DATA
350
1F0F
  3
AcDbVariableDictionary
350
5E
  3
ASE_INDEX_DICTIONARY
350
1E9C
  3
DWGPROPS
350
1F10
  0
DICTIONARY
  5
141
330
2
100
AcDbDictionary
280
     1
281
     1
  3
ACAD_LAYERSTATES
360
142
  0
DICTIONARY
  5
1F01
330
10
100
AcDbDictionary
280
     1
281
     1
  3
ADSK_XREC_LAYER_RECONCILED
360
1F02
  0
DICTIONARY
  5
1F03
330
13E
100
AcDbDictionary
280
     1
281
     1
  3
ADSK_XREC_LAYER_RECONCILED
360
1F04
  0
DICTIONARY
  5
116
330
1F
100
AcDbDictionary
280
     1
281
     1
  3
ACAD_SORTENTS
360
117
  0
XRECORD
  5
1ED0
102
{ACAD_REACTORS
330
C
102
}
330
C
100
AcDbXrecord
280
     1
300
ACDLT
300
2013
300
ACDLT_F_S
  0
DICTIONARY
  5
6B
102
{ACAD_REACTORS
330
C
102
}
330
C
100
AcDbDictionary
281
     1
  0
DICTIONARY
  5
1ECC
102
{ACAD_REACTORS
330
C
102
}
330
C
100
AcDbDictionary
281
     1
  3
Metric50
350
1ECD
  0
DICTIONARY
  5
D
102
{ACAD_REACTORS
330
C
102
}
330
C
100
AcDbDictionary
281
     1
  0
DICTIONARY
  5
1A
102
{ACAD_REACTORS
330
C
102
}
330
C
100
AcDbDictionary
281
     1
  3
Layout1
350
D3
  3
Layout2
350
D7
  3
Model
350
22
  0
DICTIONARY
  5
6A
102
{ACAD_REACTORS
330
C
102
}
330
C
100
AcDbDictionary
281
     1
  3
ByBlock
350
ED
  3
ByLayer
350
EC
  3
Global
350
EE
  0
DICTIONARY
  5
1EC8
102
{ACAD_REACTORS
330
C
102
}
330
C
100
AcDbDictionary
281
     1
  3
Standard
350
1EC9
  0
DICTIONARY
  5
17
102
{ACAD_REACTORS
330
C
102
}
330
C
100
AcDbDictionary
281
     1
  3
Standard
350
18
  0
DICTIONARY
  5
19
102
{ACAD_REACTORS
330
C
102
}
330
C
100
AcDbDictionary
281
     1
  0
ACDBDICTIONARYWDFLT
  5
E
102
{ACAD_REACTORS
330
C
102
}
330
C
100
AcDbDictionary
281
     1
  3
Normal
350
F
100
AcDbDictionaryWithDefault
340
F
  0
DICTIONARY
  5
1EB6
102
{ACAD_REACTORS
330
C
102
}
330
C
100
AcDbDictionary
281
     1
  3
A0
350
1EB7
  3
A1
350
1EB8
  3
A2
350
1EB9
  3
A3
350
1EBA
  3
A4
350
1EBB
  3
A5
350
1EBC
  3
A6
350
1EBD
  3
A7
350
1EBE
  3
A8
350
1EBF
  3
A9
350
1EC0
  3
B0
350
1EC1
  3
B1
350
1EC2
  3
B2
350
1EC3
  3
B3
350
1EC4
  3
B4
350
1EC5
  3
B5
350
1EC6
  3
B6
350
1EC7
  0
DICTIONARY
  5
1ECA
102
{ACAD_REACTORS
330
C
102
}
330
C
100
AcDbDictionary
281
     1
  3
Metric50
350
1ECB
  0
DICTIONARY
  5
7E
102
{ACAD_REACTORS
330
C
102
}
330
C
100
AcDbDictionary
281
     1
  3
Standard
350
7F
  0
DICTIONARY
  5
EF
102
{ACAD_REACTORS
330
C
102
}
330
C
100
AcDbDictionary
281
     1
  3
2dWireframe
350
F5
  3
3D Hidden
350
F7
  3
3dWireframe
350
F6
  3
Basic
350
F4
  3
Brighten
350
FB
  3
ColorChange
350
FF
  3
Conceptual
350
F8
  3
Dim
350
FA
  3
EdgeColorOff
350
1EB5
  3
Facepattern
350
FE
  3
Flat
350
F0
  3
FlatWithEdges
350
F1
  3
Gouraud
350
F2
  3
GouraudWithEdges
350
F3
  3
Hidden
350
1EAD
  3
JitterOff
350
1EB3
  3
Linepattern
350
FD
  3
OverhangOff
350
1EB4
  3
Realistic
350
F9
  3
Shaded
350
1EB2
  3
Shaded with edges
350
1EB1
  3
Shades of Gray
350
1EAE
  3
Sketchy
350
1EAF
  3
Thicken
350
FC
  3
Wireframe
350
1EAC
  3
X-Ray
350
1EB0
  0
XRECORD
  5
1F0F
102
{ACAD_REACTORS
330
C
102
}
330
C
100
AcDbXrecord
280
     1
 90
        1
330
7F
  0
DICTIONARY
  5
5E
102
{ACAD_REACTORS
330
C
102
}
330
C
100
AcDbDictionary
281
     1
  3
CANNOSCALE
350
1F08
  3
CMLEADERSTYLE
350
1F05
  3
CTABLESTYLE
350
84
  3
CVIEWDETAILSTYLE
350
1F06
  3
CVIEWSECTIONSTYLE
350
1F07
  3
DIMASSOC
350
5F
  3
HIDETEXT
350
63
  3
INDEXCTL
350
327
  3
PSOLHEIGHT
350
1F0A
  3
PSOLWIDTH
350
1F09
  3
SORTENTS
350
326
  3
XCLIPFRAME
350
1F0B
  0
DICTIONARY
  5
1E9C
102
{ACAD_REACTORS
330
C
102
}
330
C
100
AcDbDictionary
281
     1
  3
ASEBlockHierarchyIndexRecord
350
1E9E
1001
DCO15
1040
1797671492.553
  0
XRECORD
  5
1F10
102
{ACAD_REACTORS
330
C
102
}
330
C
100
AcDbXrecord
280
     1
  1
DWGPROPS COOKIE
  2

  3

  4

  6

  7

  8
kaschu
  9

300
=
301
=
302
=
303
=
304
=
305
=
306
=
307
=
308
=
309
=
 40
0.1262962731481481
 41
2454768.552548658
 42
2457302.655461667
  1

 90
        0
  0
DICTIONARY
  5
142
102
{ACAD_REACTORS
330
141
102
}
330
141
100
AcDbDictionary
281
     1
  0
XRECORD
  5
1F02
102
{ACAD_REACTORS
330
1F01
102
}
330
1F01
100
AcDbXrecord
280
     1
290
     1
  0
XRECORD
  5
1F04
102
{ACAD_REACTORS
330
1F03
102
}
330
1F03
100
AcDbXrecord
280
     1
290
     1
  0
SORTENTSTABLE
  5
117
102
{ACAD_REACTORS
330
116
102
}
330
116
100
AcDbSortentsTable
330
1F
331
1366
  5
1389
331
13DE
  5
13F3
331
1362
  5
1382
331
139D
  5
13B2
331
185C
  5
1D57
331
13DA
  5
13EF
331
135A
  5
137B
331
13D6
  5
13EB
331
1415
  5
142A
331
1399
  5
13AE
331
1858
  5
1D53
331
1DAF
  5
1DC0
331
1DAB
  5
1DBC
331
13D2
  5
13E7
331
1411
  5
1426
331
1DE6
  5
1E35
331
1E5D
  5
1E8F
331
1DE2
  5
1E31
331
1E59
  5
1E67
331
1356
  5
1375
331
1395
  5
13AA
331
1391
  5
13A6
331
1352
  5
1371
331
13CE
  5
13E3
331
140D
  5
1422
331
134E
  5
136B
331
138D
  5
13A3
331
1409
  5
141E
331
1E98
  5
1344
331
1444
  5
18BB
331
1D6B
  5
10B5
331
13CA
  5
13DF
331
13C6
  5
13DB
331
1405
  5
141A
331
1E55
  5
1E62
331
1440
  5
18B3
331
1389
  5
139F
331
1DDE
  5
1E2D
331
1D63
  5
1DB6
331
13C2
  5
13D7
331
1401
  5
1416
331
1DDA
  5
1DE9
331
1E51
  5
1E5E
331
143C
  5
185C
331
1438
  5
1471
331
1DD6
  5
1DE5
331
1E4D
  5
1E5A
331
1DD2
  5
1DE1
331
1E49
  5
1E56
331
1346
  5
135F
331
1385
  5
139B
331
1342
  5
135B
331
1D5F
  5
1DB2
331
13BE
  5
13D3
331
13FD
  5
1412
331
133E
  5
1352
331
13F9
  5
140E
331
137D
  5
1398
331
1434
  5
1449
331
1D5B
  5
1DAE
331
13BA
  5
13CF
331
133A
  5
134F
331
13B6
  5
13CB
331
13F5
  5
140A
331
1E45
  5
1E52
331
1430
  5
1445
331
1DCE
  5
1DDD
331
1D57
  5
1DA7
331
1D53
  5
1D67
331
13B2
  5
13C7
331
13F1
  5
1406
331
1E41
  5
1D51
331
142C
  5
1441
331
1DCA
  5
1DD9
331
1DC6
  5
1DD5
331
1E80
  5
1347
331
1428
  5
143D
331
1DC2
  5
1DD3
331
1E39
  5
1E4E
331
1375
  5
1393
331
1371
  5
1390
331
1D4F
  5
1D63
331
13AE
  5
13C3
331
13ED
  5
1402
331
13E9
  5
13FE
331
136D
  5
138D
331
1424
  5
1439
331
1D4B
  5
1D5F
331
13AA
  5
13BF
331
13A6
  5
13BB
331
13E5
  5
13FA
331
1369
  5
138C
331
1420
  5
1435
331
1D47
  5
1D5B
331
1DBE
  5
1DCF
331
1E35
  5
1E4A
331
13A2
  5
13B7
331
13E1
  5
13F6
331
1E31
  5
1E46
331
141C
  5
1431
331
1DBA
  5
1DCB
331
1DB6
  5
1DC7
331
1E2D
  5
1E42
331
1E68
  5
18BD
331
1418
  5
142D
331
1DB2
  5
1DC3
331
1E29
  5
1E38
331
1E60
  5
1E98
331
185F
  5
1D5A
331
13DD
  5
13F2
331
13D9
  5
13EE
331
135D
  5
1381
331
185B
  5
1D56
331
139C
  5
13B1
331
1359
  5
137A
331
13D5
  5
13EA
331
1414
  5
1429
331
1398
  5
13AD
331
1DAE
  5
1DBF
331
1DAA
  5
1DBB
331
13D1
  5
13E6
331
1410
  5
1425
331
180B
  5
18BC
331
1DE5
  5
1E34
331
1E5C
  5
1E80
331
1DE1
  5
1E30
331
1E58
  5
1E66
331
1355
  5
1374
331
1394
  5
13A9
331
1390
  5
13A5
331
140C
  5
1421
331
13CD
  5
13E2
331
1351
  5
136D
331
134D
  5
136A
331
1408
  5
141D
331
138C
  5
13A2
331
1443
  5
18BA
331
1D6A
  5
134A
331
13C9
  5
13DE
331
13C5
  5
13DA
331
1404
  5
1419
331
1E54
  5
1E61
331
143F
  5
18B2
331
1388
  5
139E
331
1DDD
  5
1E2B
331
1D62
  5
1DB5
331
13C1
  5
13D6
331
1400
  5
1415
331
1DD9
  5
1DE8
331
1E50
  5
1E5D
331
143B
  5
185B
331
1DD5
  5
1DE4
331
1E4C
  5
1E59
331
1E97
  5
1348
331
1DD1
  5
1DE0
331
1E48
  5
1E55
331
1345
  5
135E
331
1341
  5
1356
331
1437
  5
1470
331
1D5E
  5
1DB1
331
13BD
  5
13D2
331
13FC
  5
1411
331
13F8
  5
140D
331
137C
  5
1397
331
1433
  5
1448
331
1D5A
  5
1DAD
331
13B9
  5
13CE
331
1339
  5
134C
331
13B5
  5
13CA
331
13F4
  5
1409
331
1E44
  5
1E51
331
142F
  5
1444
331
1DCD
  5
1DDC
331
1D56
  5
1DA6
331
1D52
  5
1D66
331
13B1
  5
13C6
331
13F0
  5
1405
331
1DC9
  5
1DD8
331
1E40
  5
18BE
331
142B
  5
1440
331
1DC5
  5
1DD4
331
1DC1
  5
1DD2
331
1E38
  5
1E4D
331
1374
  5
1391
331
1370
  5
138F
331
1427
  5
143C
331
1D4E
  5
1D62
331
13AD
  5
13C2
331
13EC
  5
1401
331
13E8
  5
13FD
331
1423
  5
1438
331
1D4A
  5
1D5E
331
13A9
  5
13BE
331
13A5
  5
13BA
331
13E4
  5
13F9
331
1E34
  5
1E49
331
141F
  5
1434
331
1368
  5
138B
331
1DBD
  5
1DCE
331
13A1
  5
13B6
331
13E0
  5
13F5
331
1E30
  5
1E45
331
141B
  5
1430
331
1DB9
  5
1DCA
331
1DB5
  5
1DC6
331
1E2C
  5
1E41
331
1E67
  5
1340
331
1DB1
  5
1DC2
331
1E63
  5
1346
331
139F
  5
13B4
331
185E
  5
1D59
331
13DC
  5
13F1
331
135C
  5
1380
331
13D8
  5
13ED
331
1417
  5
142C
331
185A
  5
1D55
331
139B
  5
13B0
331
1358
  5
1379
331
1DAD
  5
1DBE
331
13D4
  5
13E9
331
1413
  5
1428
331
1DA9
  5
1DBA
331
1DE8
  5
1E37
331
1E5F
  5
1E97
331
13D0
  5
13E5
331
1DE4
  5
1E33
331
1E5B
  5
1E7F
331
1DE0
  5
1E2F
331
1397
  5
13AC
331
1393
  5
13A8
331
140F
  5
1424
331
138F
  5
13A4
331
140B
  5
1420
331
1E9A
  5
10B6
331
13CC
  5
13E1
331
1350
  5
136C
331
134C
  5
1367
331
13C8
  5
13DD
331
1407
  5
141C
331
138B
  5
13A1
331
1442
  5
18B9
331
1D69
  5
1349
331
1E57
  5
1E65
331
1348
  5
1361
331
13C4
  5
13D9
331
1403
  5
1418
331
1E53
  5
1E60
331
143E
  5
185E
331
1DDC
  5
1E2A
331
1D65
  5
1DB8
331
1D61
  5
1DB4
331
13C0
  5
13D5
331
1DD8
  5
1DE7
331
1E4F
  5
1E5C
331
143A
  5
185A
331
1DD4
  5
1DE3
331
1E4B
  5
1E58
331
1DD0
  5
1DDF
331
1387
  5
139D
331
1344
  5
135D
331
13FF
  5
1414
331
137F
  5
139A
331
13FB
  5
1410
331
1436
  5
144B
331
1D5D
  5
1DB0
331
13BC
  5
13D1
331
1340
  5
1355
331
133C
  5
1351
331
13F7
  5
140C
331
137B
  5
1396
331
1432
  5
1447
331
1D59
  5
1DAC
331
1E47
  5
1E54
331
13B8
  5
13CD
331
1338
  5
134B
331
13B4
  5
13C9
331
13F3
  5
1408
331
1E43
  5
1E50
331
142E
  5
1443
331
1DCC
  5
1DDB
331
1D55
  5
1D6B
331
1D51
  5
1D65
331
13B0
  5
13C5
331
1DC8
  5
1DD7
331
142A
  5
143F
331
1DC4
  5
1D50
331
1E7E
  5
1343
331
1DC0
  5
1DD1
331
1377
  5
1395
331
13EF
  5
1404
331
136F
  5
138E
331
1426
  5
143B
331
1D4D
  5
1D61
331
13AC
  5
13C1
331
13EB
  5
1400
331
13E7
  5
13FC
331
1422
  5
1437
331
1D49
  5
1D5D
331
1E37
  5
1E4C
331
13A8
  5
13BD
331
13A4
  5
13B9
331
13E3
  5
13F8
331
1E33
  5
1E48
331
141E
  5
1433
331
1DBC
  5
1DCD
331
13A0
  5
13B5
331
1DB8
  5
1DC9
331
1E2F
  5
1E44
331
141A
  5
142F
331
1DB4
  5
1DC5
331
1E2B
  5
1E40
331
1E66
  5
1345
331
1DB0
  5
1DC1
331
1E62
  5
133F
331
1367
  5
138A
331
13DF
  5
13F4
331
1363
  5
1383
331
139E
  5
13B3
331
185D
  5
1D58
331
13DB
  5
13F0
331
135B
  5
137F
331
13D7
  5
13EC
331
1416
  5
142B
331
1859
  5
1D54
331
139A
  5
13AF
331
1DAC
  5
1DBD
331
13D3
  5
13E8
331
1412
  5
1427
331
1DE7
  5
1E36
331
1E5E
  5
1E90
331
1DE3
  5
1E32
331
1E5A
  5
1E7E
331
1357
  5
1378
331
1396
  5
13AB
331
1392
  5
13A7
331
1353
  5
1373
331
13CF
  5
13E4
331
140E
  5
1423
331
140A
  5
141F
331
1E99
  5
1342
331
13CB
  5
13E0
331
134B
  5
1366
331
13C7
  5
13DC
331
1406
  5
141B
331
138A
  5
13A0
331
1E56
  5
1E64
331
1441
  5
18B8
331
1DDF
  5
1E2E
331
1D68
  5
1DB9
331
1D64
  5
1DB7
331
13C3
  5
13D8
331
1402
  5
1417
331
1E52
  5
1E5F
331
143D
  5
185D
331
1DDB
  5
1E28
331
1D60
  5
1DB3
331
1DD7
  5
1DE6
331
1E4E
  5
1E5B
331
1439
  5
1472
331
1DD3
  5
1DE2
331
1E4A
  5
1E57
331
1347
  5
1360
331
1386
  5
139C
331
1343
  5
135C
331
13BF
  5
13D4
331
13FE
  5
1413
331
137E
  5
1399
331
13FA
  5
140F
331
1435
  5
144A
331
1D5C
  5
1DAF
331
13BB
  5
13D0
331
133F
  5
1354
331
133B
  5
1350
331
13B7
  5
13CC
331
13F6
  5
140B
331
1431
  5
1446
331
1D58
  5
1DAB
331
1DCF
  5
1DDE
331
1E46
  5
1E53
331
13B3
  5
13C8
331
13F2
  5
1407
331
1E42
  5
1E4F
331
142D
  5
1442
331
1DCB
  5
1DDA
331
1D54
  5
1D68
331
1D50
  5
1D64
331
1DC7
  5
1DD6
331
1E81
  5
10BB
331
1429
  5
143E
331
1DC3
  5
18BF
331
1376
  5
1394
331
10B3
  5
10B3
331
13AF
  5
13C4
331
13EE
  5
1403
331
13EA
  5
13FF
331
1425
  5
143A
331
1D4C
  5
1D60
331
13AB
  5
13C0
331
13E6
  5
13FB
331
1421
  5
1436
331
1D48
  5
1D5C
331
1DBF
  5
1DD0
331
1E36
  5
1E4B
331
13A7
  5
13BC
331
13A3
  5
13B8
331
13E2
  5
13F7
331
1E32
  5
1E47
331
141D
  5
1432
331
1DBB
  5
1DCC
331
1DB7
  5
1DC8
331
1E2E
  5
1E43
331
1E69
  5
1D52
331
1419
  5
142E
331
1DB3
  5
1DC4
331
1E2A
  5
1E39
  0
ACDBDETAILVIEWSTYLE
  5
1ECD
102
{ACAD_REACTORS
330
1ECC
102
}
330
1ECC
100
AcDbModelDocViewStyle
 70
     0
  3
Metric50
290
     0
100
AcDbDetailViewStyle
 70
     0
 71
     0
 90
        3
 71
     1
340
11
 40
5.0
340
0
 40
5.0
300

 40
0.0
280
     1
 71
     2
340
16
 90
       25
 71
     3
340
11
 40
5.0
 90
        0
 40
15.0
 90
        1
300
%<\AcVar ViewDetailId>% (%<\AcVar ViewScale \f "%sn">%)
 71
     4
340
16
 90
       25
340
16
 90
       25
280
     0
  0
LAYOUT
  5
D3
102
{ACAD_XDICTIONARY
360
1F14
102
}
102
{ACAD_REACTORS
330
1A
102
}
330
1A
100
AcDbPlotSettings
  1

  2
C:\Documents and Settings\basas\Application Data\Autodesk\AutoCAD 2005\R16.1\enu\plotters\Default Windows System Printer.pc3
  4

  6

 40
0.0
 41
0.0
 42
0.0
 43
0.0
 44
0.0
 45
0.0
 46
0.0
 47
0.0
 48
0.0
 49
0.0
140
0.0
141
0.0
142
1.0
143
1.0
 70
   688
 72
     0
 73
     0
 74
     5
  7

 75
    16
147
1.0
148
0.0
149
0.0
100
AcDbLayout
  1
Layout1
 70
     1
 71
     1
 10
0.0
 20
0.0
 11
12.0
 21
9.0
 12
0.0
 22
0.0
 32
0.0
 14
0.0
 24
0.0
 34
0.0
 15
0.0
 25
0.0
 35
0.0
146
0.0
 13
0.0
 23
0.0
 33
0.0
 16
1.0
 26
0.0
 36
0.0
 17
0.0
 27
1.0
 37
0.0
 76
     0
330
D2
  0
LAYOUT
  5
D7
102
{ACAD_XDICTIONARY
360
1F16
102
}
102
{ACAD_REACTORS
330
1A
102
}
330
1A
100
AcDbPlotSettings
  1

  2
C:\Documents and Settings\basas\Application Data\Autodesk\AutoCAD 2005\R16.1\enu\plotters\Default Windows System Printer.pc3
  4

  6

 40
0.0
 41
0.0
 42
0.0
 43
0.0
 44
0.0
 45
0.0
 46
0.0
 47
0.0
 48
0.0
 49
0.0
140
0.0
141
0.0
142
1.0
143
1.0
 70
   688
 72
     0
 73
     0
 74
     5
  7

 75
    16
147
1.0
148
0.0
149
0.0
100
AcDbLayout
  1
Layout2
 70
     1
 71
     2
 10
0.0
 20
0.0
 11
12.0
 21
9.0
 12
0.0
 22
0.0
 32
0.0
 14
0.0
 24
0.0
 34
0.0
 15
0.0
 25
0.0
 35
0.0
146
0.0
 13
0.0
 23
0.0
 33
0.0
 16
1.0
 26
0.0
 36
0.0
 17
0.0
 27
1.0
 37
0.0
 76
     0
330
D6
  0
LAYOUT
  5
22
102
{ACAD_XDICTIONARY
360
1F11
102
}
102
{ACAD_REACTORS
330
1A
102
}
330
1A
100
AcDbPlotSettings
  1

  2
none_device
  4
ISO_A4_(210.00_x_297.00_MM)
  6

 40
7.5
 41
20.0
 42
7.5
 43
20.0
 44
210.0
 45
297.0
 46
11.54999923706054
 47
-13.65000009536743
 48
0.0
 49
0.0
140
0.0
141
0.0
142
1.0
143
8.704084754739808
 70
 11952
 72
     1
 73
     0
 74
     0
  7

 75
     0
147
0.1148885871608098
148
0.0
149
0.0
100
AcDbLayout
  1
Model
 70
     1
 71
     0
 10
0.0
 20
0.0
 11
12.0
 21
9.0
 12
0.0
 22
0.0
 32
0.0
 14
0.0
 24
0.0
 34
0.0
 15
0.0
 25
0.0
 35
0.0
146
0.0
 13
0.0
 23
0.0
 33
0.0
 16
1.0
 26
0.0
 36
0.0
 17
0.0
 27
1.0
 37
0.0
 76
     0
330
1F
331
EA
1001
ACAD_PSEXT
1000
None
1000
None
1000
Not applicable
1000
The layout will not be plotted unless a new plotter configuration name is selected.
1070
     0
  0
MATERIAL
  5
ED
102
{ACAD_XDICTIONARY
360
335
102
}
102
{ACAD_REACTORS
330
6A
102
}
330
6A
100
AcDbMaterial
  1
ByBlock
  0
MATERIAL
  5
EC
102
{ACAD_XDICTIONARY
360
333
102
}
102
{ACAD_REACTORS
330
6A
102
}
330
6A
100
AcDbMaterial
  1
ByLayer
  0
MATERIAL
  5
EE
102
{ACAD_XDICTIONARY
360
337
102
}
102
{ACAD_REACTORS
330
6A
102
}
330
6A
100
AcDbMaterial
  1
Global
  0
MLEADERSTYLE
  5
1EC9
102
{ACAD_REACTORS
330
1EC8
102
}
330
1EC8
100
AcDbMLeaderStyle
170
     2
171
     1
172
     0
 90
        2
 40
0.0
 41
0.0
173
     1
 91
-1056964608
340
14
 92
       -2
290
     1
 42
2.0
291
     1
 43
0.36
  3
Standard
 44
4.0
300

342
11
174
     1
178
     6
175
     1
176
     0
 93
-1056964608
 45
4.0
292
     0
297
     0
 46
4.0
 94
-1056964608
 47
1.0
 49
1.0
140
1.0
293
     1
141
0.0
294
     1
177
     0
142
1.0
295
     0
296
     0
143
0.125
1001
ACAD_MLEADERVER
1070
     2
  0
MLINESTYLE
  5
18
102
{ACAD_REACTORS
330
17
102
}
330
17
100
AcDbMlineStyle
  2
STANDARD
 70
     0
  3

 62
   256
 51
90.0
 52
90.0
 71
     2
 49
0.5
 62
   256
  6
BYLAYER
 49
-0.5
 62
   256
  6
BYLAYER
  0
ACDBPLACEHOLDER
  5
F
102
{ACAD_REACTORS
330
E
102
}
330
E
  0
SCALE
  5
1EB7
102
{ACAD_REACTORS
330
1EB6
102
}
330
1EB6
100
AcDbScale
 70
     0
300
1:1
140
1.0
141
1.0
290
     1
  0
SCALE
  5
1EB8
102
{ACAD_REACTORS
330
1EB6
102
}
330
1EB6
100
AcDbScale
 70
     0
300
1:2
140
1.0
141
2.0
290
     0
  0
SCALE
  5
1EB9
102
{ACAD_REACTORS
330
1EB6
102
}
330
1EB6
100
AcDbScale
 70
     0
300
1:4
140
1.0
141
4.0
290
     0
  0
SCALE
  5
1EBA
102
{ACAD_REACTORS
330
1EB6
102
}
330
1EB6
100
AcDbScale
 70
     0
300
1:5
140
1.0
141
5.0
290
     0
  0
SCALE
  5
1EBB
102
{ACAD_REACTORS
330
1EB6
102
}
330
1EB6
100
AcDbScale
 70
     0
300
1:8
140
1.0
141
8.0
290
     0
  0
SCALE
  5
1EBC
102
{ACAD_REACTORS
330
1EB6
102
}
330
1EB6
100
AcDbScale
 70
     0
300
1:10
140
1.0
141
10.0
290
     0
  0
SCALE
  5
1EBD
102
{ACAD_REACTORS
330
1EB6
102
}
330
1EB6
100
AcDbScale
 70
     0
300
1:16
140
1.0
141
16.0
290
     0
  0
SCALE
  5
1EBE
102
{ACAD_REACTORS
330
1EB6
102
}
330
1EB6
100
AcDbScale
 70
     0
300
1:20
140
1.0
141
20.0
290
     0
  0
SCALE
  5
1EBF
102
{ACAD_REACTORS
330
1EB6
102
}
330
1EB6
100
AcDbScale
 70
     0
300
1:30
140
1.0
141
30.0
290
     0
  0
SCALE
  5
1EC0
102
{ACAD_REACTORS
330
1EB6
102
}
330
1EB6
100
AcDbScale
 70
     0
300
1:40
140
1.0
141
40.0
290
     0
  0
SCALE
  5
1EC1
102
{ACAD_REACTORS
330
1EB6
102
}
330
1EB6
100
AcDbScale
 70
     0
300
1:50
140
1.0
141
50.0
290
     0
  0
SCALE
  5
1EC2
102
{ACAD_REACTORS
330
1EB6
102
}
330
1EB6
100
AcDbScale
 70
     0
300
1:100
140
1.0
141
100.0
290
     0
  0
SCALE
  5
1EC3
102
{ACAD_REACTORS
330
1EB6
102
}
330
1EB6
100
AcDbScale
 70
     0
300
2:1
140
2.0
141
1.0
290
     0
  0
SCALE
  5
1EC4
102
{ACAD_REACTORS
330
1EB6
102
}
330
1EB6
100
AcDbScale
 70
     0
300
4:1
140
4.0
141
1.0
290
     0
  0
SCALE
  5
1EC5
102
{ACAD_REACTORS
330
1EB6
102
}
330
1EB6
100
AcDbScale
 70
     0
300
8:1
140
8.0
141
1.0
290
     0
  0
SCALE
  5
1EC6
102
{ACAD_REACTORS
330
1EB6
102
}
330
1EB6
100
AcDbScale
 70
     0
300
10:1
140
10.0
141
1.0
290
     0
  0
SCALE
  5
1EC7
102
{ACAD_REACTORS
330
1EB6
102
}
330
1EB6
100
AcDbScale
 70
     0
300
100:1
140
100.0
141
1.0
290
     0
  0
ACDBSECTIONVIEWSTYLE
  5
1ECB
102
{ACAD_REACTORS
330
1ECA
102
}
330
1ECA
100
AcDbModelDocViewStyle
 70
     0
  3
Metric50
290
     0
100
AcDbSectionViewStyle
 70
     0
 71
     0
 90
      102
 71
     1
340
11
 40
5.0
340
0
340
0
 40
5.0
300
I, O, Q, S, X, Z
 40
10.0
 90
        0
 40
2.5
 90
        0
 71
     2
340
16
 90
       25
340
16
 90
       50
 40
5.0
 40
2.5
 40
5.0
 71
     3
340
11
 40
5.0
 90
        0
 40
15.0
 90
        1
300
%<\AcVar ViewSectionStartId>%-%<\AcVar ViewSectionEndId>% (%<\AcVar ViewScale \f "%sn">%)
 71
     4
300
ANSI31
 40
1.0
 90
        0
290
     0
290
     0
 90
        6
 40
0.0
 40
1.570796326794896
 40
0.2617993877991494
 40
1.308996938995747
 40
-0.2617993877991494
 40
1.832595714594046
  0
TABLESTYLE
  5
7F
102
{ACAD_XDICTIONARY
360
1F0D
102
}
102
{ACAD_REACTORS
330
7E
102
}
330
7E
100
AcDbTableStyle
  3
Standard
 70
     0
 71
     0
 40
1.5
 41
1.5
280
     0
281
     0
  7
Standard
140
4.5
170
     2
 62
     0
 63
     7
283
     0
274
    -2
284
     1
 64
     0
275
    -2
285
     1
 65
     0
276
    -2
286
     1
 66
     0
277
    -2
287
     1
 67
     0
278
    -2
288
     1
 68
     0
279
    -2
289
     1
 69
     0
  7
Standard
140
6.0
170
     5
 62
     0
 63
     7
283
     0
274
    -2
284
     1
 64
     0
275
    -2
285
     1
 65
     0
276
    -2
286
     1
 66
     0
277
    -2
287
     1
 67
     0
278
    -2
288
     1
 68
     0
279
    -2
289
     1
 69
     0
  7
Standard
140
4.5
170
     5
 62
     0
 63
     7
283
     0
274
    -2
284
     1
 64
     0
275
    -2
285
     1
 65
     0
276
    -2
286
     1
 66
     0
277
    -2
287
     1
 67
     0
278
    -2
288
     1
 68
     0
279
    -2
289
     1
 69
     0
  0
VISUALSTYLE
  5
F5
102
{ACAD_XDICTIONARY
360
1F22
102
}
102
{ACAD_REACTORS
330
EF
102
}
330
EF
100
AcDbVisualStyle
  2

 70
     4
 71
     0
 72
     2
 73
     1
 90
        0
 40
-0.6
 41
-30.0
 62
     5
 63
     7
 74
     1
 91
        4
 64
     7
 65
   257
 75
     1
175
     1
 42
1.0
 92
        0
 66
   257
 43
1.0
 76
     1
 77
     6
 78
     2
 67
     7
 79
     5
170
     0
171
     0
290
     0
174
     0
 93
        1
 44
0.0
173
     0
291
     0
 45
0.0
1001
ACAD
1000
AcDbSavedByObjectVersion
1070
     0
  0
VISUALSTYLE
  5
F7
102
{ACAD_XDICTIONARY
360
1F26
102
}
102
{ACAD_REACTORS
330
EF
102
}
330
EF
100
AcDbVisualStyle
  2

 70
     6
 71
     1
 72
     2
 73
     2
 90
        0
 40
-0.6
 41
-30.0
 62
     5
 63
     7
 74
     2
 91
        2
 64
     7
 65
   257
 75
     2
175
     1
 42
40.0
 92
        0
 66
   257
 43
1.0
 76
     1
 77
     6
 78
     2
 67
     7
 79
     3
170
     0
171
     0
290
     0
174
     0
 93
        1
 44
0.0
173
     0
291
     0
 45
0.0
1001
ACAD
1000
AcDbSavedByObjectVersion
1070
     0
  0
VISUALSTYLE
  5
F6
102
{ACAD_XDICTIONARY
360
1F24
102
}
102
{ACAD_REACTORS
330
EF
102
}
330
EF
100
AcDbVisualStyle
  2

 70
     5
 71
     0
 72
     2
 73
     1
 90
        0
 40
-0.6
 41
-30.0
 62
     5
 63
     7
 74
     1
 91
        4
 64
     7
 65
   257
 75
     1
175
     1
 42
1.0
 92
        0
 66
   257
 43
1.0
 76
     1
 77
     6
 78
     2
 67
     7
 79
     5
170
     0
171
     0
290
     0
174
     0
 93
        1
 44
0.0
173
     0
291
     0
 45
0.0
1001
ACAD
1000
AcDbSavedByObjectVersion
1070
     0
  0
VISUALSTYLE
  5
F4
102
{ACAD_XDICTIONARY
360
1F20
102
}
102
{ACAD_REACTORS
330
EF
102
}
330
EF
100
AcDbVisualStyle
  2

 70
     7
 71
     1
 72
     0
 73
     1
 90
        0
 40
-0.6
 41
-30.0
 62
     5
 63
     7
 74
     0
 91
        4
 64
     7
 65
   257
 75
     1
175
     1
 42
1.0
 92
        8
 66
     7
 43
1.0
 76
     1
 77
     6
 78
     2
 67
     7
 79
     5
170
     0
171
     0
290
     0
174
     0
 93
        1
 44
0.0
173
     0
291
     1
 45
0.0
1001
ACAD
1000
AcDbSavedByObjectVersion
1070
     0
  0
VISUALSTYLE
  5
FB
102
{ACAD_XDICTIONARY
360
1F2E
102
}
102
{ACAD_REACTORS
330
EF
102
}
330
EF
100
AcDbVisualStyle
  2

 70
    12
 71
     2
 72
     2
 73
     1
 90
        0
 40
-0.6
 41
-30.0
 62
     5
 63
     7
 74
     1
 91
        4
 64
     7
 65
   257
 75
     1
175
     1
 42
1.0
 92
        8
 66
     7
 43
1.0
 76
     1
 77
     6
 78
     2
 67
     7
 79
     5
170
     0
171
     0
290
     0
174
     0
 93
        1
 44
50.0
173
     0
291
     1
 45
0.0
1001
ACAD
1000
AcDbSavedByObjectVersion
1070
     0
  0
VISUALSTYLE
  5
FF
102
{ACAD_XDICTIONARY
360
1F36
102
}
102
{ACAD_REACTORS
330
EF
102
}
330
EF
100
AcDbVisualStyle
  2

 70
    16
 71
     2
 72
     2
 73
     3
 90
        0
 40
-0.6
 41
-30.0
 62
     5
 63
     8
 74
     1
 91
        4
 64
     7
 65
   257
 75
     1
175
     1
 42
1.0
 92
        8
 66
     8
 43
1.0
 76
     1
 77
     6
 78
     2
 67
     7
 79
     5
170
     0
171
     0
290
     0
174
     0
 93
        1
 44
0.0
173
     0
291
     1
 45
0.0
1001
ACAD
1000
AcDbSavedByObjectVersion
1070
     0
  0
VISUALSTYLE
  5
F8
102
{ACAD_XDICTIONARY
360
1F28
102
}
102
{ACAD_REACTORS
330
EF
102
}
330
EF
100
AcDbVisualStyle
  2

 70
     9
 71
     3
 72
     2
 73
     1
 90
        0
 40
-0.6
 41
-30.0
 62
     5
 63
     7
 74
     2
 91
        2
 64
     7
 65
   257
 75
     1
175
     1
 42
40.0
 92
        8
 66
     7
 43
1.0
 76
     1
 77
     6
 78
     2
 67
     7
 79
     3
170
     0
171
     0
290
     0
174
     0
 93
        1
 44
0.0
173
     0
291
     0
 45
0.0
1001
ACAD
1000
AcDbSavedByObjectVersion
1070
     0
  0
VISUALSTYLE
  5
FA
102
{ACAD_XDICTIONARY
360
1F2C
102
}
102
{ACAD_REACTORS
330
EF
102
}
330
EF
100
AcDbVisualStyle
  2

 70
    11
 71
     2
 72
     2
 73
     1
 90
        0
 40
-0.6
 41
-30.0
 62
     5
 63
     7
 74
     1
 91
        4
 64
     7
 65
   257
 75
     1
175
     1
 42
1.0
 92
        8
 66
     7
 43
1.0
 76
     1
 77
     6
 78
     2
 67
     7
 79
     5
170
     0
171
     0
290
     0
174
     0
 93
        1
 44
-50.0
173
     0
291
     1
 45
0.0
1001
ACAD
1000
AcDbSavedByObjectVersion
1070
     0
  0
VISUALSTYLE
  5
1EB5
102
{ACAD_XDICTIONARY
360
1F4A
102
}
102
{ACAD_REACTORS
330
EF
102
}
330
EF
100
AcDbVisualStyle
  2
EdgeColorOff
 70
    22
 71
     2
 72
     2
 73
     0
 90
        0
 40
-0.6
 41
-30.0
 62
     5
 63
     7
 74
     1
 91
        4
 64
     7
 65
   257
 75
     1
175
     1
 42
1.0
 92
        8
 66
     7
 43
1.0
 76
     1
 77
     6
 78
     2
 67
     7
 79
     5
170
     0
171
     0
290
     0
174
     0
 93
        1
 44
0.0
173
     0
291
     1
 45
0.0
1001
ACAD
1000
AcDbSavedByObjectVersion
1070
     0
  0
VISUALSTYLE
  5
FE
102
{ACAD_XDICTIONARY
360
1F34
102
}
102
{ACAD_REACTORS
330
EF
102
}
330
EF
100
AcDbVisualStyle
  2

 70
    15
 71
     2
 72
     2
 73
     1
 90
        0
 40
-0.6
 41
-30.0
 62
     5
 63
     7
 74
     1
 91
        4
 64
     7
 65
   257
 75
     1
175
     1
 42
1.0
 92
        8
 66
     7
 43
1.0
 76
     1
 77
     6
 78
     2
 67
     7
 79
     5
170
     0
171
     0
290
     0
174
     0
 93
        1
 44
0.0
173
     0
291
     1
 45
0.0
1001
ACAD
1000
AcDbSavedByObjectVersion
1070
     0
  0
VISUALSTYLE
  5
F0
102
{ACAD_XDICTIONARY
360
1F18
102
}
102
{ACAD_REACTORS
330
EF
102
}
330
EF
100
AcDbVisualStyle
  2

 70
     0
 71
     2
 72
     1
 73
     1
 90
        2
 40
-0.6
 41
30.0
 62
     5
 63
     7
 74
     0
 91
        4
 64
     7
 65
   257
 75
     1
175
     1
 42
1.0
 92
        8
 66
     7
 43
1.0
 76
     1
 77
     6
 78
     2
 67
     7
 79
     5
170
     0
171
     0
290
     0
174
     0
 93
       13
 44
0.0
173
     0
291
     1
 45
0.0
1001
ACAD
1000
AcDbSavedByObjectVersion
1070
     0
  0
VISUALSTYLE
  5
F1
102
{ACAD_XDICTIONARY
360
1F1A
102
}
102
{ACAD_REACTORS
330
EF
102
}
330
EF
100
AcDbVisualStyle
  2

 70
     1
 71
     2
 72
     1
 73
     1
 90
        2
 40
-0.6
 41
30.0
 62
     5
 63
     7
 74
     1
 91
        4
 64
     7
 65
   257
 75
     1
175
     1
 42
1.0
 92
        0
 66
   257
 43
1.0
 76
     1
 77
     6
 78
     2
 67
     7
 79
     5
170
     0
171
     0
290
     0
174
     0
 93
       13
 44
0.0
173
     0
291
     1
 45
0.0
1001
ACAD
1000
AcDbSavedByObjectVersion
1070
     0
  0
VISUALSTYLE
  5
F2
102
{ACAD_XDICTIONARY
360
1F1C
102
}
102
{ACAD_REACTORS
330
EF
102
}
330
EF
100
AcDbVisualStyle
  2

 70
     2
 71
     2
 72
     2
 73
     1
 90
        2
 40
-0.6
 41
30.0
 62
     5
 63
     7
 74
     0
 91
        4
 64
     7
 65
   257
 75
     1
175
     1
 42
1.0
 92
        0
 66
     7
 43
1.0
 76
     1
 77
     6
 78
     2
 67
     7
 79
     5
170
     0
171
     0
290
     0
174
     0
 93
       13
 44
0.0
173
     0
291
     1
 45
0.0
1001
ACAD
1000
AcDbSavedByObjectVersion
1070
     0
  0
VISUALSTYLE
  5
F3
102
{ACAD_XDICTIONARY
360
1F1E
102
}
102
{ACAD_REACTORS
330
EF
102
}
330
EF
100
AcDbVisualStyle
  2

 70
     3
 71
     2
 72
     2
 73
     1
 90
        2
 40
-0.6
 41
30.0
 62
     5
 63
     7
 74
     1
 91
        4
 64
     7
 65
   257
 75
     1
175
     1
 42
1.0
 92
        0
 66
   257
 43
1.0
 76
     1
 77
     6
 78
     2
 67
     7
 79
     5
170
     0
171
     0
290
     0
174
     0
 93
       13
 44
0.0
173
     0
291
     1
 45
0.0
1001
ACAD
1000
AcDbSavedByObjectVersion
1070
     0
  0
VISUALSTYLE
  5
1EAD
102
{ACAD_XDICTIONARY
360
1F3A
102
}
102
{ACAD_REACTORS
330
EF
102
}
330
EF
100
AcDbVisualStyle
  2
Hidden
 70
     6
 71
     1
 72
     2
 73
     2
 90
        0
 40
-0.6
 41
-30.0
 62
     5
 63
     7
 74
     2
 91
        2
 64
     7
 65
   257
 75
     2
175
     1
 42
40.0
 92
        0
 66
   257
 43
1.0
 76
     1
 77
     6
 78
     2
 67
     7
 79
     3
170
     0
171
     0
290
     0
174
     0
 93
        1
 44
0.0
173
     0
291
     0
 45
0.0
1001
ACAD
1000
AcDbSavedByObjectVersion
1070
     0
  0
VISUALSTYLE
  5
1EB3
102
{ACAD_XDICTIONARY
360
1F46
102
}
102
{ACAD_REACTORS
330
EF
102
}
330
EF
100
AcDbVisualStyle
  2
JitterOff
 70
    20
 71
     2
 72
     2
 73
     0
 90
        0
 40
-0.6
 41
-30.0
 62
     5
 63
     7
 74
     1
 91
        4
 64
     7
 65
   257
 75
     1
175
     1
 42
1.0
 92
       10
 66
     7
 43
1.0
 76
     1
 77
     6
 78
     2
 67
     7
 79
     5
170
     0
171
     0
290
     0
174
     0
 93
        1
 44
0.0
173
     0
291
     1
 45
0.0
1001
ACAD
1000
AcDbSavedByObjectVersion
1070
     0
  0
VISUALSTYLE
  5
FD
102
{ACAD_XDICTIONARY
360
1F32
102
}
102
{ACAD_REACTORS
330
EF
102
}
330
EF
100
AcDbVisualStyle
  2

 70
    14
 71
     2
 72
     2
 73
     1
 90
        0
 40
-0.6
 41
-30.0
 62
     5
 63
     7
 74
     1
 91
        4
 64
     7
 65
   257
 75
     7
175
     7
 42
1.0
 92
        8
 66
     7
 43
1.0
 76
     1
 77
     6
 78
     2
 67
     7
 79
     5
170
     0
171
     0
290
     0
174
     0
 93
        1
 44
0.0
173
     0
291
     1
 45
0.0
1001
ACAD
1000
AcDbSavedByObjectVersion
1070
     0
  0
VISUALSTYLE
  5
1EB4
102
{ACAD_XDICTIONARY
360
1F48
102
}
102
{ACAD_REACTORS
330
EF
102
}
330
EF
100
AcDbVisualStyle
  2
OverhangOff
 70
    21
 71
     2
 72
     2
 73
     0
 90
        0
 40
-0.6
 41
-30.0
 62
     5
 63
     7
 74
     1
 91
        4
 64
     7
 65
   257
 75
     1
175
     1
 42
1.0
 92
        9
 66
     7
 43
1.0
 76
     1
 77
     6
 78
     2
 67
     7
 79
     5
170
     0
171
     0
290
     0
174
     0
 93
        1
 44
0.0
173
     0
291
     1
 45
0.0
1001
ACAD
1000
AcDbSavedByObjectVersion
1070
     0
  0
VISUALSTYLE
  5
F9
102
{ACAD_XDICTIONARY
360
1F2A
102
}
102
{ACAD_REACTORS
330
EF
102
}
330
EF
100
AcDbVisualStyle
  2

 70
     8
 71
     2
 72
     2
 73
     1
 90
        0
 40
-0.6
 41
-30.0
 62
     5
 63
     7
 74
     1
 91
        0
 64
     7
 65
   257
 75
     1
175
     1
 42
1.0
 92
        8
 66
     8
 43
1.0
 76
     1
 77
     6
 78
     2
 67
     7
 79
     5
170
     0
171
     0
290
     0
174
     0
 93
       13
 44
0.0
173
     0
291
     0
 45
0.0
1001
ACAD
1000
AcDbSavedByObjectVersion
1070
     0
  0
VISUALSTYLE
  5
1EB2
102
{ACAD_XDICTIONARY
360
1F44
102
}
102
{ACAD_REACTORS
330
EF
102
}
330
EF
100
AcDbVisualStyle
  2
Shaded
 70
    27
 71
     2
 72
     2
 73
     1
 90
        2
 40
-0.6
 41
30.0
 62
     5
 63
     7
 74
     0
 91
        4
 64
     7
 65
   257
 75
     1
175
     1
 42
1.0
 92
        8
 66
   257
 43
1.0
 76
     1
 77
     6
 78
     2
 67
     8
 79
     3
170
     0
171
     0
290
     0
174
     0
 93
        5
 44
0.0
173
     0
291
     0
 45
0.0
1001
ACAD
1000
AcDbSavedByObjectVersion
1070
     0
  0
VISUALSTYLE
  5
1EB1
102
{ACAD_XDICTIONARY
360
1F42
102
}
102
{ACAD_REACTORS
330
EF
102
}
330
EF
100
AcDbVisualStyle
  2
Shaded with edges
 70
    26
 71
     2
 72
     2
 73
     1
 90
        2
 40
-0.6
 41
30.0
 62
     5
 63
     7
 74
     1
 91
       10
 64
     7
 65
   257
 75
     2
175
     1
 42
1.0
 92
        8
 66
   257
 43
1.0
 76
     1
 77
     6
 78
     2
 67
     7
 79
     3
170
     0
171
     0
290
     0
174
     0
 93
        5
 44
0.0
173
     0
291
     0
 45
0.0
1001
ACAD
1000
AcDbSavedByObjectVersion
1070
     0
  0
VISUALSTYLE
  5
1EAE
102
{ACAD_XDICTIONARY
360
1F3C
102
}
102
{ACAD_REACTORS
330
EF
102
}
330
EF
100
AcDbVisualStyle
  2
Shades of Gray
 70
    23
 71
     2
 72
     2
 73
     3
 90
        0
 40
-0.6
 41
-30.0
 62
     5
 63
     7
 74
     2
 91
        2
 64
     7
 65
     7
 75
     1
175
     1
 42
40.0
 92
        8
 66
     7
 43
1.0
 76
     1
 77
     6
 78
     2
 67
     7
 79
     3
170
     0
171
     0
290
     0
174
     0
 93
        1
 44
0.0
173
     0
291
     0
 45
0.0
1001
ACAD
1000
AcDbSavedByObjectVersion
1070
     0
  0
VISUALSTYLE
  5
1EAF
102
{ACAD_XDICTIONARY
360
1F3E
102
}
102
{ACAD_REACTORS
330
EF
102
}
330
EF
100
AcDbVisualStyle
  2
Sketchy
 70
    24
 71
     1
 72
     2
 73
     2
 90
        0
 40
-0.6
 41
-30.0
 62
     5
 63
     7
 74
     2
 91
        2
 64
     7
 65
     7
 75
     1
175
     1
 42
40.0
 92
       11
 66
     7
 43
1.0
 76
     1
 77
     6
 78
     2
 67
     7
 79
     6
170
     0
171
     0
290
     0
174
     0
 93
        1
 44
0.0
173
     0
291
     0
 45
0.0
1001
ACAD
1000
AcDbSavedByObjectVersion
1070
     0
  0
VISUALSTYLE
  5
FC
102
{ACAD_XDICTIONARY
360
1F30
102
}
102
{ACAD_REACTORS
330
EF
102
}
330
EF
100
AcDbVisualStyle
  2

 70
    13
 71
     2
 72
     2
 73
     1
 90
        0
 40
-0.6
 41
-30.0
 62
     5
 63
     7
 74
     1
 91
        4
 64
     7
 65
   257
 75
     1
175
     1
 42
1.0
 92
       12
 66
     7
 43
1.0
 76
     1
 77
     6
 78
     2
 67
     7
 79
     5
170
     0
171
     0
290
     0
174
     0
 93
        1
 44
0.0
173
     0
291
     1
 45
0.0
1001
ACAD
1000
AcDbSavedByObjectVersion
1070
     0
  0
VISUALSTYLE
  5
1EAC
102
{ACAD_XDICTIONARY
360
1F38
102
}
102
{ACAD_REACTORS
330
EF
102
}
330
EF
100
AcDbVisualStyle
  2
Wireframe
 70
     5
 71
     0
 72
     2
 73
     0
 90
        0
 40
-0.6
 41
-30.0
 62
     5
 63
     7
 74
     1
 91
        4
 64
     7
 65
   257
 75
     1
175
     1
 42
1.0
 92
        0
 66
   257
 43
1.0
 76
     1
 77
     6
 78
     2
 67
     7
 79
     3
170
     0
171
     0
290
     0
174
     0
 93
        1
 44
0.0
173
     0
291
     0
 45
0.0
1001
ACAD
1000
AcDbSavedByObjectVersion
1070
     0
  0
VISUALSTYLE
  5
1EB0
102
{ACAD_XDICTIONARY
360
1F40
102
}
102
{ACAD_REACTORS
330
EF
102
}
330
EF
100
AcDbVisualStyle
  2
X-Ray
 70
    25
 71
     2
 72
     2
 73
     1
 90
        1
 40
0.5
 41
-30.0
 62
     5
 63
     7
 74
     1
 91
        0
 64
     7
 65
   257
 75
     1
175
     1
 42
1.0
 92
        8
 66
     7
 43
1.0
 76
     1
 77
     6
 78
     2
 67
     7
 79
     3
170
     0
171
     0
290
     0
174
     0
 93
       13
 44
0.0
173
     0
291
     0
 45
0.0
1001
ACAD
1000
AcDbSavedByObjectVersion
1070
     0
  0
DICTIONARYVAR
  5
1F08
102
{ACAD_REACTORS
330
5E
102
}
330
5E
100
DictionaryVariables
280
     0
  1
1:1
  0
DICTIONARYVAR
  5
1F05
102
{ACAD_REACTORS
330
5E
102
}
330
5E
100
DictionaryVariables
280
     0
  1
STANDARD
  0
DICTIONARYVAR
  5
84
102
{ACAD_REACTORS
330
5E
102
}
330
5E
100
DictionaryVariables
280
     0
  1
STANDARD
  0
DICTIONARYVAR
  5
1F06
102
{ACAD_REACTORS
330
5E
102
}
330
5E
100
DictionaryVariables
280
     0
  1
Metric50
  0
DICTIONARYVAR
  5
1F07
102
{ACAD_REACTORS
330
5E
102
}
330
5E
100
DictionaryVariables
280
     0
  1
Metric50
  0
DICTIONARYVAR
  5
5F
102
{ACAD_REACTORS
330
5E
102
}
330
5E
100
DictionaryVariables
280
     0
  1
2
  0
DICTIONARYVAR
  5
63
102
{ACAD_REACTORS
330
5E
102
}
330
5E
100
DictionaryVariables
280
     0
  1
1
  0
DICTIONARYVAR
  5
327
102
{ACAD_REACTORS
330
5E
102
}
330
5E
100
DictionaryVariables
280
     0
  1
0
  0
DICTIONARYVAR
  5
1F0A
102
{ACAD_REACTORS
330
5E
102
}
330
5E
100
DictionaryVariables
280
     0
  1
80.000000
  0
DICTIONARYVAR
  5
1F09
102
{ACAD_REACTORS
330
5E
102
}
330
5E
100
DictionaryVariables
280
     0
  1
5.000000
  0
DICTIONARYVAR
  5
326
102
{ACAD_REACTORS
330
5E
102
}
330
5E
100
DictionaryVariables
280
     0
  1
127
  0
DICTIONARYVAR
  5
1F0B
102
{ACAD_REACTORS
330
5E
102
}
330
5E
100
DictionaryVariables
280
     0
  1
2
  0
XRECORD
  5
1E9E
102
{ACAD_REACTORS
330
1E9C
102
}
330
1E9C
100
AcDbXrecord
280
     1
  0
DICTIONARY
  5
1F14
330
D3
100
AcDbDictionary
280
     1
281
     1
  3
ACAD_XREC_ROUNDTRIP
360
1F15
  0
DICTIONARY
  5
1F16
330
D7
100
AcDbDictionary
280
     1
281
     1
  3
ACAD_XREC_ROUNDTRIP
360
1F17
  0
DICTIONARY
  5
1F11
330
22
100
AcDbDictionary
280
     1
281
     1
  3
ACAD_XREC_ROUNDTRIP
360
1F12
  0
DICTIONARY
  5
335
330
ED
100
AcDbDictionary
280
     1
281
     1
  3
ACAD_XREC_ROUNDTRIP
360
336
  0
DICTIONARY
  5
333
330
EC
100
AcDbDictionary
280
     1
281
     1
  3
ACAD_XREC_ROUNDTRIP
360
334
  0
DICTIONARY
  5
337
330
EE
100
AcDbDictionary
280
     1
281
     1
  3
ACAD_XREC_ROUNDTRIP
360
338
  0
DICTIONARY
  5
1F0D
330
7F
100
AcDbDictionary
280
     1
281
     1
  3
ACAD_ROUNDTRIP_2008_TABLESTYLE_CELLSTYLEMAP
360
1F0E
  3
ACAD_XREC_ROUNDTRIP
360
1F13
  0
DICTIONARY
  5
1F22
330
F5
100
AcDbDictionary
280
     1
281
     1
  3
ACAD_XREC_ROUNDTRIP
360
1F23
  0
DICTIONARY
  5
1F26
330
F7
100
AcDbDictionary
280
     1
281
     1
  3
ACAD_XREC_ROUNDTRIP
360
1F27
  0
DICTIONARY
  5
1F24
330
F6
100
AcDbDictionary
280
     1
281
     1
  3
ACAD_XREC_ROUNDTRIP
360
1F25
  0
DICTIONARY
  5
1F20
330
F4
100
AcDbDictionary
280
     1
281
     1
  3
ACAD_XREC_ROUNDTRIP
360
1F21
  0
DICTIONARY
  5
1F2E
330
FB
100
AcDbDictionary
280
     1
281
     1
  3
ACAD_XREC_ROUNDTRIP
360
1F2F
  0
DICTIONARY
  5
1F36
330
FF
100
AcDbDictionary
280
     1
281
     1
  3
ACAD_XREC_ROUNDTRIP
360
1F37
  0
DICTIONARY
  5
1F28
330
F8
100
AcDbDictionary
280
     1
281
     1
  3
ACAD_XREC_ROUNDTRIP
360
1F29
  0
DICTIONARY
  5
1F2C
330
FA
100
AcDbDictionary
280
     1
281
     1
  3
ACAD_XREC_ROUNDTRIP
360
1F2D
  0
DICTIONARY
  5
1F4A
330
1EB5
100
AcDbDictionary
280
     1
281
     1
  3
ACAD_XREC_ROUNDTRIP
360
1F4B
  0
DICTIONARY
  5
1F34
330
FE
100
AcDbDictionary
280
     1
281
     1
  3
ACAD_XREC_ROUNDTRIP
360
1F35
  0
DICTIONARY
  5
1F18
330
F0
100
AcDbDictionary
280
     1
281
     1
  3
ACAD_XREC_ROUNDTRIP
360
1F19
  0
DICTIONARY
  5
1F1A
330
F1
100
AcDbDictionary
280
     1
281
     1
  3
ACAD_XREC_ROUNDTRIP
360
1F1B
  0
DICTIONARY
  5
1F1C
330
F2
100
AcDbDictionary
280
     1
281
     1
  3
ACAD_XREC_ROUNDTRIP
360
1F1D
  0
DICTIONARY
  5
1F1E
330
F3
100
AcDbDictionary
280
     1
281
     1
  3
ACAD_XREC_ROUNDTRIP
360
1F1F
  0
DICTIONARY
  5
1F3A
330
1EAD
100
AcDbDictionary
280
     1
281
     1
  3
ACAD_XREC_ROUNDTRIP
360
1F3B
  0
DICTIONARY
  5
1F46
330
1EB3
100
AcDbDictionary
280
     1
281
     1
  3
ACAD_XREC_ROUNDTRIP
360
1F47
  0
DICTIONARY
  5
1F32
330
FD
100
AcDbDictionary
280
     1
281
     1
  3
ACAD_XREC_ROUNDTRIP
360
1F33
  0
DICTIONARY
  5
1F48
330
1EB4
100
AcDbDictionary
280
     1
281
     1
  3
ACAD_XREC_ROUNDTRIP
360
1F49
  0
DICTIONARY
  5
1F2A
330
F9
100
AcDbDictionary
280
     1
281
     1
  3
ACAD_XREC_ROUNDTRIP
360
1F2B
  0
DICTIONARY
  5
1F44
330
1EB2
100
AcDbDictionary
280
     1
281
     1
  3
ACAD_XREC_ROUNDTRIP
360
1F45
  0
DICTIONARY
  5
1F42
330
1EB1
100
AcDbDictionary
280
     1
281
     1
  3
ACAD_XREC_ROUNDTRIP
360
1F43
  0
DICTIONARY
  5
1F3C
330
1EAE
100
AcDbDictionary
280
     1
281
     1
  3
ACAD_XREC_ROUNDTRIP
360
1F3D
  0
DICTIONARY
  5
1F3E
330
1EAF
100
AcDbDictionary
280
     1
281
     1
  3
ACAD_XREC_ROUNDTRIP
360
1F3F
  0
DICTIONARY
  5
1F30
330
FC
100
AcDbDictionary
280
     1
281
     1
  3
ACAD_XREC_ROUNDTRIP
360
1F31
  0
DICTIONARY
  5
1F38
330
1EAC
100
AcDbDictionary
280
     1
281
     1
  3
ACAD_XREC_ROUNDTRIP
360
1F39
  0
DICTIONARY
  5
1F40
330
1EB0
100
AcDbDictionary
280
     1
281
     1
  3
ACAD_XREC_ROUNDTRIP
360
1F41
  0
XRECORD
  5
1F15
102
{ACAD_REACTORS
330
1F14
102
}
330
1F14
100
AcDbXrecord
280
     1
102
SHADEPLOT
 70
     0
102
SHADEPLOTRESLEVEL
 70
     2
102
SHADEPLOTCUSTOMDPI
 70
   300
  0
XRECORD
  5
1F17
102
{ACAD_REACTORS
330
1F16
102
}
330
1F16
100
AcDbXrecord
280
     1
102
SHADEPLOT
 70
     0
102
SHADEPLOTRESLEVEL
 70
     2
102
SHADEPLOTCUSTOMDPI
 70
   300
  0
XRECORD
  5
1F12
102
{ACAD_REACTORS
330
1F11
102
}
330
1F11
100
AcDbXrecord
280
     1
102
SHADEPLOT
 70
     0
102
SHADEPLOTRESLEVEL
 70
     2
102
SHADEPLOTCUSTOMDPI
 70
   300
  0
XRECORD
  5
336
102
{ACAD_REACTORS
330
335
102
}
330
335
100
AcDbXrecord
280
     1
102
MATERIAL
148
0.0
149
0.0
149
0.0
 93
        0
 94
      127
282
     0
 72
     1
 77
     1
171
     1
175
     1
179
     1
273
     0
  0
XRECORD
  5
334
102
{ACAD_REACTORS
330
333
102
}
330
333
100
AcDbXrecord
280
     1
102
MATERIAL
148
0.0
149
0.0
149
0.0
 93
        0
 94
      127
282
     0
 72
     1
 77
     1
171
     1
175
     1
179
     1
273
     0
  0
XRECORD
  5
338
102
{ACAD_REACTORS
330
337
102
}
330
337
100
AcDbXrecord
280
     1
102
MATERIAL
148
0.0
149
0.0
149
0.0
 93
        0
 94
      127
282
     0
 72
     1
 77
     1
171
     1
175
     1
179
     1
273
     0
  0
CELLSTYLEMAP
  5
1F0E
102
{ACAD_REACTORS
330
1F0D
102
}
330
1F0D
100
AcDbCellStyleMap
 90
        3
300
CELLSTYLE
  1
TABLEFORMAT_BEGIN
 90
        5
170
     1
 91
        0
 92
    32768
 62
   257
 93
        1
300
CONTENTFORMAT
  1
CONTENTFORMAT_BEGIN
 90
        0
 91
        0
 92
      512
 93
        0
300

 40
0.0
140
1.0
 94
        5
 62
     0
340
11
144
6.0
309
CONTENTFORMAT_END
171
     1
301
MARGIN
  1
CELLMARGIN_BEGIN
 40
1.5
 40
1.5
 40
1.5
 40
1.5
 40
0.18
 40
0.18
309
CELLMARGIN_END
 94
        6
 95
        1
302
GRIDFORMAT
  1
GRIDFORMAT_BEGIN
 90
        0
 91
        1
 62
     0
 92
       -2
340
0
 93
        0
 40
0.045
309
GRIDFORMAT_END
 95
        2
302
GRIDFORMAT
  1
GRIDFORMAT_BEGIN
 90
        0
 91
        1
 62
     0
 92
       -2
340
0
 93
        0
 40
0.045
309
GRIDFORMAT_END
 95
        4
302
GRIDFORMAT
  1
GRIDFORMAT_BEGIN
 90
        0
 91
        1
 62
     0
 92
       -2
340
0
 93
        0
 40
0.045
309
GRIDFORMAT_END
 95
        8
302
GRIDFORMAT
  1
GRIDFORMAT_BEGIN
 90
        0
 91
        1
 62
     0
 92
       -2
340
0
 93
        0
 40
0.045
309
GRIDFORMAT_END
 95
       16
302
GRIDFORMAT
  1
GRIDFORMAT_BEGIN
 90
        0
 91
        1
 62
     0
 92
       -2
340
0
 93
        0
 40
0.045
309
GRIDFORMAT_END
 95
       32
302
GRIDFORMAT
  1
GRIDFORMAT_BEGIN
 90
        0
 91
        1
 62
     0
 92
       -2
340
0
 93
        0
 40
0.045
309
GRIDFORMAT_END
309
TABLEFORMAT_END
  1
CELLSTYLE_BEGIN
 90
        1
 91
        1
300
_TITLE
309
CELLSTYLE_END
300
CELLSTYLE
  1
TABLEFORMAT_BEGIN
 90
        5
170
     1
 91
        0
 92
        0
 62
   257
 93
        1
300
CONTENTFORMAT
  1
CONTENTFORMAT_BEGIN
 90
        0
 91
        0
 92
      512
 93
        0
300

 40
0.0
140
1.0
 94
        5
 62
     0
340
11
144
4.5
309
CONTENTFORMAT_END
171
     1
301
MARGIN
  1
CELLMARGIN_BEGIN
 40
1.5
 40
1.5
 40
1.5
 40
1.5
 40
0.18
 40
0.18
309
CELLMARGIN_END
 94
        6
 95
        1
302
GRIDFORMAT
  1
GRIDFORMAT_BEGIN
 90
        0
 91
        1
 62
     0
 92
       -2
340
0
 93
        0
 40
0.045
309
GRIDFORMAT_END
 95
        2
302
GRIDFORMAT
  1
GRIDFORMAT_BEGIN
 90
        0
 91
        1
 62
     0
 92
       -2
340
0
 93
        0
 40
0.045
309
GRIDFORMAT_END
 95
        4
302
GRIDFORMAT
  1
GRIDFORMAT_BEGIN
 90
        0
 91
        1
 62
     0
 92
       -2
340
0
 93
        0
 40
0.045
309
GRIDFORMAT_END
 95
        8
302
GRIDFORMAT
  1
GRIDFORMAT_BEGIN
 90
        0
 91
        1
 62
     0
 92
       -2
340
0
 93
        0
 40
0.045
309
GRIDFORMAT_END
 95
       16
302
GRIDFORMAT
  1
GRIDFORMAT_BEGIN
 90
        0
 91
        1
 62
     0
 92
       -2
340
0
 93
        0
 40
0.045
309
GRIDFORMAT_END
 95
       32
302
GRIDFORMAT
  1
GRIDFORMAT_BEGIN
 90
        0
 91
        1
 62
     0
 92
       -2
340
0
 93
        0
 40
0.045
309
GRIDFORMAT_END
309
TABLEFORMAT_END
  1
CELLSTYLE_BEGIN
 90
        2
 91
        1
300
_HEADER
309
CELLSTYLE_END
300
CELLSTYLE
  1
TABLEFORMAT_BEGIN
 90
        5
170
     1
 91
        0
 92
        0
 62
   257
 93
        1
300
CONTENTFORMAT
  1
CONTENTFORMAT_BEGIN
 90
        0
 91
        0
 92
      512
 93
        0
300

 40
0.0
140
1.0
 94
        2
 62
     0
340
11
144
4.5
309
CONTENTFORMAT_END
171
     1
301
MARGIN
  1
CELLMARGIN_BEGIN
 40
1.5
 40
1.5
 40
1.5
 40
1.5
 40
0.18
 40
0.18
309
CELLMARGIN_END
 94
        6
 95
        1
302
GRIDFORMAT
  1
GRIDFORMAT_BEGIN
 90
        0
 91
        1
 62
     0
 92
       -2
340
0
 93
        0
 40
0.045
309
GRIDFORMAT_END
 95
        2
302
GRIDFORMAT
  1
GRIDFORMAT_BEGIN
 90
        0
 91
        1
 62
     0
 92
       -2
340
0
 93
        0
 40
0.045
309
GRIDFORMAT_END
 95
        4
302
GRIDFORMAT
  1
GRIDFORMAT_BEGIN
 90
        0
 91
        1
 62
     0
 92
       -2
340
0
 93
        0
 40
0.045
309
GRIDFORMAT_END
 95
        8
302
GRIDFORMAT
  1
GRIDFORMAT_BEGIN
 90
        0
 91
        1
 62
     0
 92
       -2
340
0
 93
        0
 40
0.045
309
GRIDFORMAT_END
 95
       16
302
GRIDFORMAT
  1
GRIDFORMAT_BEGIN
 90
        0
 91
        1
 62
     0
 92
       -2
340
0
 93
        0
 40
0.045
309
GRIDFORMAT_END
 95
       32
302
GRIDFORMAT
  1
GRIDFORMAT_BEGIN
 90
        0
 91
        1
 62
     0
 92
       -2
340
0
 93
        0
 40
0.045
309
GRIDFORMAT_END
309
TABLEFORMAT_END
  1
CELLSTYLE_BEGIN
 90
        3
 91
        2
300
_DATA
309
CELLSTYLE_END
  0
XRECORD
  5
1F13
102
{ACAD_REACTORS
330
1F0D
102
}
330
1F0D
100
AcDbXrecord
280
     1
102
ACAD_ROUNDTRIP_PRE2007_TABLESTYLE
 90
      512
 91
        0
  1

 92
      512
 93
        0
  2

 94
      512
 95
        0
  3

  0
XRECORD
  5
1F23
102
{ACAD_REACTORS
330
1F22
102
}
330
1F22
100
AcDbXrecord
280
     1
102
RTVSPost2010Prop28
280
     1
102
RTVSPost2010PropOp28
 70
     1
102
RTVSPost2010Prop29
280
     1
102
RTVSPost2010PropOp29
 70
     1
102
RTVSPost2010Prop30
280
     0
102
RTVSPost2010PropOp30
 70
     1
102
RTVSPost2010Prop31
280
     0
102
RTVSPost2010PropOp31
 70
     1
102
RTVSPost2010Prop32
280
     0
102
RTVSPost2010PropOp32
 70
     1
102
RTVSPost2010Prop33
280
     0
102
RTVSPost2010PropOp33
 70
     1
102
RTVSPost2010Prop34
280
     0
102
RTVSPost2010PropOp34
 70
     1
102
RTVSPost2010Prop35
280
     0
102
RTVSPost2010PropOp35
 70
     1
102
RTVSPost2010Prop36
280
     0
102
RTVSPost2010PropOp36
 70
     1
102
RTVSPost2010Prop37
 90
       50
102
RTVSPost2010PropOp37
 70
     1
102
RTVSPost2010Prop38
140
0.0
102
RTVSPost2010PropOp38
 70
     1
102
RTVSPost2010Prop39
140
1.0
102
RTVSPost2010PropOp39
 70
     1
102
RTVSPost2010Prop40
 90
        0
102
RTVSPost2010PropOp40
 70
     1
102
RTVSPost2010Prop41ColorIndex
 90
       18
102
RTVSPost2010Prop41ColorRGB
 90
        0
102
RTVSPost2010PropOp41
 70
     1
102
RTVSPost2010Prop42
 90
       50
102
RTVSPost2010PropOp42
 70
     1
102
RTVSPost2010Prop43
 90
        3
102
RTVSPost2010PropOp43
 70
     1
102
RTVSPost2010Prop44ColorIndex
 90
        5
102
RTVSPost2010Prop44ColorRGB
 90
      255
102
RTVSPost2010PropOp44
 70
     1
102
RTVSPost2010Prop45
280
     0
102
RTVSPost2010PropOp45
 70
     1
102
RTVSPost2010Prop46
 90
       50
102
RTVSPost2010PropOp46
 70
     1
102
RTVSPost2010Prop47
 90
       50
102
RTVSPost2010PropOp47
 70
     1
102
RTVSPost2010Prop48
 90
       50
102
RTVSPost2010PropOp48
 70
     1
102
RTVSPost2010Prop49
280
     0
102
RTVSPost2010PropOp49
 70
     1
102
RTVSPost2010Prop50
 90
       50
102
RTVSPost2010PropOp50
 70
     1
102
RTVSPost2010Prop51ColorIndex
 90
      256
102
RTVSPost2010Prop51ColorRGB
 90
-16777216
102
RTVSPost2010PropOp51
 70
     0
102
RTVSPost2010Prop52
140
1.0
102
RTVSPost2010PropOp52
 70
     0
102
RTVSPost2010Prop53
 90
        2
102
RTVSPost2010PropOp53
 70
     1
102
RTVSPost2010Prop54
  1
strokes_ogs.tif
102
RTVSPost2010PropOp54
 70
     1
102
RTVSPost2010Prop55
280
     0
102
RTVSPost2010PropOp55
 70
     1
102
RTVSPost2010Prop56
140
1.0
102
RTVSPost2010PropOp56
 70
     1
102
RTVSPost2010Prop57
140
1.0
102
RTVSPost2010PropOp57
 70
     1
102
RTVSPropertyOp0
 70
     1
102
RTVSPropertyOp1
 70
     1
102
RTVSPropertyOp2
 70
     1
102
RTVSPropertyOp3
 70
     1
102
RTVSPropertyOp4
 70
     1
102
RTVSPropertyOp5
 70
     1
102
RTVSPropertyOp6
 70
     1
102
RTVSPropertyOp7
 70
     1
102
RTVSPropertyOp8
 70
     1
102
RTVSPropertyOp9
 70
     1
102
RTVSPropertyOp10
 70
     1
102
RTVSPropertyOp11
 70
     1
102
RTVSPropertyOp12
 70
     1
102
RTVSPropertyOp13
 70
     1
102
RTVSPropertyOp14
 70
     1
102
RTVSPropertyOp15
 70
     1
102
RTVSPropertyOp16
 70
     1
102
RTVSPropertyOp17
 70
     1
102
RTVSPropertyOp18
 70
     1
102
RTVSPropertyOp19
 70
     1
102
RTVSPropertyOp20
 70
     1
102
RTVSPropertyOp21
 70
     1
102
RTVSPropertyOp22
 70
     1
102
RTVSPropertyOp23
 70
     1
102
RTVSPropertyOp24
 70
     1
102
RTVSPropertyOp25
 70
     1
102
RTVSPropertyOp26
 70
     1
102
RTVSPropertyOp27
 70
     1
102
RTVSPropertyOp28
 70
     1
102
RTVSPropertyOp29
 70
     1
102
RTVSPropertyOp30
 70
     1
102
RTVSPropertyOp31
 70
     1
102
RTVSPropertyOp32
 70
     1
102
RTVSPropertyOp33
 70
     1
102
RTVSPropertyOp34
 70
     1
102
RTVSPropertyOp35
 70
     1
102
RTVSPropertyOp36
 70
     1
102
RTVSPropertyOp37
 70
     1
102
RTVSPropertyOp38
 70
     1
102
RTVSPropertyOp39
 70
     1
102
RTVSPropertyOp40
 70
     1
102
RTVSPropertyOp41
 70
     1
102
RTVSPropertyOp42
 70
     1
102
RTVSPropertyOp43
 70
     1
102
RTVSPropertyOp44
 70
     1
102
RTVSPropertyOp45
 70
     1
102
RTVSPropertyOp46
 70
     1
102
RTVSPropertyOp47
 70
     1
102
RTVSPropertyOp48
 70
     1
102
RTVSPropertyOp49
 70
     1
102
RTVSPropertyOp50
 70
     1
102
RTVSPropertyOp51
 70
     0
102
RTVSPropertyOp52
 70
     0
102
RTVSPropertyOp53
 70
     1
102
RTVSPropertyOp54
 70
     1
102
RTVSPropertyOp55
 70
     1
102
RTVSPropertyOp56
 70
     1
102
RTVSPropertyOp57
 70
     1
102
RTVSPropertyOp58
 70
     1
102
RTVSPropertyOp59
 70
     1
102
RTVSPropertyOp60
 70
     1
102
RTVSPropertyOp61
 70
     1
102
RTVSPropertyOp62
 70
     1
  0
XRECORD
  5
1F27
102
{ACAD_REACTORS
330
1F26
102
}
330
1F26
100
AcDbXrecord
280
     1
102
RTVSPost2010Prop28
280
     0
102
RTVSPost2010PropOp28
 70
     1
102
RTVSPost2010Prop29
280
     1
102
RTVSPost2010PropOp29
 70
     1
102
RTVSPost2010Prop30
280
     1
102
RTVSPost2010PropOp30
 70
     1
102
RTVSPost2010Prop31
280
     0
102
RTVSPost2010PropOp31
 70
     1
102
RTVSPost2010Prop32
280
     0
102
RTVSPost2010PropOp32
 70
     1
102
RTVSPost2010Prop33
280
     0
102
RTVSPost2010PropOp33
 70
     1
102
RTVSPost2010Prop34
280
     0
102
RTVSPost2010PropOp34
 70
     1
102
RTVSPost2010Prop35
280
     0
102
RTVSPost2010PropOp35
 70
     1
102
RTVSPost2010Prop36
280
     0
102
RTVSPost2010PropOp36
 70
     1
102
RTVSPost2010Prop37
 90
       50
102
RTVSPost2010PropOp37
 70
     1
102
RTVSPost2010Prop38
140
0.0
102
RTVSPost2010PropOp38
 70
     1
102
RTVSPost2010Prop39
140
1.0
102
RTVSPost2010PropOp39
 70
     1
102
RTVSPost2010Prop40
 90
        0
102
RTVSPost2010PropOp40
 70
     1
102
RTVSPost2010Prop41ColorIndex
 90
       18
102
RTVSPost2010Prop41ColorRGB
 90
        0
102
RTVSPost2010PropOp41
 70
     1
102
RTVSPost2010Prop42
 90
       50
102
RTVSPost2010PropOp42
 70
     1
102
RTVSPost2010Prop43
 90
        3
102
RTVSPost2010PropOp43
 70
     1
102
RTVSPost2010Prop44ColorIndex
 90
        5
102
RTVSPost2010Prop44ColorRGB
 90
      255
102
RTVSPost2010PropOp44
 70
     1
102
RTVSPost2010Prop45
280
     0
102
RTVSPost2010PropOp45
 70
     1
102
RTVSPost2010Prop46
 90
       50
102
RTVSPost2010PropOp46
 70
     1
102
RTVSPost2010Prop47
 90
       50
102
RTVSPost2010PropOp47
 70
     1
102
RTVSPost2010Prop48
 90
       50
102
RTVSPost2010PropOp48
 70
     1
102
RTVSPost2010Prop49
280
     0
102
RTVSPost2010PropOp49
 70
     1
102
RTVSPost2010Prop50
 90
       50
102
RTVSPost2010PropOp50
 70
     1
102
RTVSPost2010Prop51ColorIndex
 90
      256
102
RTVSPost2010Prop51ColorRGB
 90
-16777216
102
RTVSPost2010PropOp51
 70
     0
102
RTVSPost2010Prop52
140
1.0
102
RTVSPost2010PropOp52
 70
     0
102
RTVSPost2010Prop53
 90
        2
102
RTVSPost2010PropOp53
 70
     1
102
RTVSPost2010Prop54
  1
strokes_ogs.tif
102
RTVSPost2010PropOp54
 70
     1
102
RTVSPost2010Prop55
280
     0
102
RTVSPost2010PropOp55
 70
     1
102
RTVSPost2010Prop56
140
1.0
102
RTVSPost2010PropOp56
 70
     1
102
RTVSPost2010Prop57
140
1.0
102
RTVSPost2010PropOp57
 70
     1
102
RTVSPropertyOp0
 70
     1
102
RTVSPropertyOp1
 70
     1
102
RTVSPropertyOp2
 70
     1
102
RTVSPropertyOp3
 70
     1
102
RTVSPropertyOp4
 70
     1
102
RTVSPropertyOp5
 70
     1
102
RTVSPropertyOp6
 70
     1
102
RTVSPropertyOp7
 70
     1
102
RTVSPropertyOp8
 70
     1
102
RTVSPropertyOp9
 70
     1
102
RTVSPropertyOp10
 70
     1
102
RTVSPropertyOp11
 70
     1
102
RTVSPropertyOp12
 70
     1
102
RTVSPropertyOp13
 70
     1
102
RTVSPropertyOp14
 70
     1
102
RTVSPropertyOp15
 70
     1
102
RTVSPropertyOp16
 70
     1
102
RTVSPropertyOp17
 70
     1
102
RTVSPropertyOp18
 70
     1
102
RTVSPropertyOp19
 70
     1
102
RTVSPropertyOp20
 70
     1
102
RTVSPropertyOp21
 70
     1
102
RTVSPropertyOp22
 70
     1
102
RTVSPropertyOp23
 70
     1
102
RTVSPropertyOp24
 70
     1
102
RTVSPropertyOp25
 70
     1
102
RTVSPropertyOp26
 70
     1
102
RTVSPropertyOp27
 70
     1
102
RTVSPropertyOp28
 70
     1
102
RTVSPropertyOp29
 70
     1
102
RTVSPropertyOp30
 70
     1
102
RTVSPropertyOp31
 70
     1
102
RTVSPropertyOp32
 70
     1
102
RTVSPropertyOp33
 70
     1
102
RTVSPropertyOp34
 70
     1
102
RTVSPropertyOp35
 70
     1
102
RTVSPropertyOp36
 70
     1
102
RTVSPropertyOp37
 70
     1
102
RTVSPropertyOp38
 70
     1
102
RTVSPropertyOp39
 70
     1
102
RTVSPropertyOp40
 70
     1
102
RTVSPropertyOp41
 70
     1
102
RTVSPropertyOp42
 70
     1
102
RTVSPropertyOp43
 70
     1
102
RTVSPropertyOp44
 70
     1
102
RTVSPropertyOp45
 70
     1
102
RTVSPropertyOp46
 70
     1
102
RTVSPropertyOp47
 70
     1
102
RTVSPropertyOp48
 70
     1
102
RTVSPropertyOp49
 70
     1
102
RTVSPropertyOp50
 70
     1
102
RTVSPropertyOp51
 70
     0
102
RTVSPropertyOp52
 70
     0
102
RTVSPropertyOp53
 70
     1
102
RTVSPropertyOp54
 70
     1
102
RTVSPropertyOp55
 70
     1
102
RTVSPropertyOp56
 70
     1
102
RTVSPropertyOp57
 70
     1
102
RTVSPropertyOp58
 70
     1
102
RTVSPropertyOp59
 70
     1
102
RTVSPropertyOp60
 70
     1
102
RTVSPropertyOp61
 70
     1
102
RTVSPropertyOp62
 70
     1
  0
XRECORD
  5
1F25
102
{ACAD_REACTORS
330
1F24
102
}
330
1F24
100
AcDbXrecord
280
     1
102
RTVSPost2010Prop28
280
     0
102
RTVSPost2010PropOp28
 70
     1
102
RTVSPost2010Prop29
280
     1
102
RTVSPost2010PropOp29
 70
     1
102
RTVSPost2010Prop30
280
     1
102
RTVSPost2010PropOp30
 70
     1
102
RTVSPost2010Prop31
280
     0
102
RTVSPost2010PropOp31
 70
     1
102
RTVSPost2010Prop32
280
     0
102
RTVSPost2010PropOp32
 70
     1
102
RTVSPost2010Prop33
280
     0
102
RTVSPost2010PropOp33
 70
     1
102
RTVSPost2010Prop34
280
     0
102
RTVSPost2010PropOp34
 70
     1
102
RTVSPost2010Prop35
280
     0
102
RTVSPost2010PropOp35
 70
     1
102
RTVSPost2010Prop36
280
     0
102
RTVSPost2010PropOp36
 70
     1
102
RTVSPost2010Prop37
 90
       50
102
RTVSPost2010PropOp37
 70
     1
102
RTVSPost2010Prop38
140
0.0
102
RTVSPost2010PropOp38
 70
     1
102
RTVSPost2010Prop39
140
1.0
102
RTVSPost2010PropOp39
 70
     1
102
RTVSPost2010Prop40
 90
        0
102
RTVSPost2010PropOp40
 70
     1
102
RTVSPost2010Prop41ColorIndex
 90
       18
102
RTVSPost2010Prop41ColorRGB
 90
        0
102
RTVSPost2010PropOp41
 70
     1
102
RTVSPost2010Prop42
 90
       50
102
RTVSPost2010PropOp42
 70
     1
102
RTVSPost2010Prop43
 90
        3
102
RTVSPost2010PropOp43
 70
     1
102
RTVSPost2010Prop44ColorIndex
 90
        5
102
RTVSPost2010Prop44ColorRGB
 90
      255
102
RTVSPost2010PropOp44
 70
     1
102
RTVSPost2010Prop45
280
     0
102
RTVSPost2010PropOp45
 70
     1
102
RTVSPost2010Prop46
 90
       50
102
RTVSPost2010PropOp46
 70
     1
102
RTVSPost2010Prop47
 90
       50
102
RTVSPost2010PropOp47
 70
     1
102
RTVSPost2010Prop48
 90
       50
102
RTVSPost2010PropOp48
 70
     1
102
RTVSPost2010Prop49
280
     0
102
RTVSPost2010PropOp49
 70
     1
102
RTVSPost2010Prop50
 90
       50
102
RTVSPost2010PropOp50
 70
     1
102
RTVSPost2010Prop51ColorIndex
 90
      256
102
RTVSPost2010Prop51ColorRGB
 90
-16777216
102
RTVSPost2010PropOp51
 70
     0
102
RTVSPost2010Prop52
140
1.0
102
RTVSPost2010PropOp52
 70
     0
102
RTVSPost2010Prop53
 90
        2
102
RTVSPost2010PropOp53
 70
     1
102
RTVSPost2010Prop54
  1
strokes_ogs.tif
102
RTVSPost2010PropOp54
 70
     1
102
RTVSPost2010Prop55
280
     0
102
RTVSPost2010PropOp55
 70
     1
102
RTVSPost2010Prop56
140
1.0
102
RTVSPost2010PropOp56
 70
     1
102
RTVSPost2010Prop57
140
1.0
102
RTVSPost2010PropOp57
 70
     1
102
RTVSPropertyOp0
 70
     1
102
RTVSPropertyOp1
 70
     1
102
RTVSPropertyOp2
 70
     1
102
RTVSPropertyOp3
 70
     1
102
RTVSPropertyOp4
 70
     1
102
RTVSPropertyOp5
 70
     1
102
RTVSPropertyOp6
 70
     1
102
RTVSPropertyOp7
 70
     1
102
RTVSPropertyOp8
 70
     1
102
RTVSPropertyOp9
 70
     1
102
RTVSPropertyOp10
 70
     1
102
RTVSPropertyOp11
 70
     1
102
RTVSPropertyOp12
 70
     1
102
RTVSPropertyOp13
 70
     1
102
RTVSPropertyOp14
 70
     1
102
RTVSPropertyOp15
 70
     1
102
RTVSPropertyOp16
 70
     1
102
RTVSPropertyOp17
 70
     1
102
RTVSPropertyOp18
 70
     1
102
RTVSPropertyOp19
 70
     1
102
RTVSPropertyOp20
 70
     1
102
RTVSPropertyOp21
 70
     1
102
RTVSPropertyOp22
 70
     1
102
RTVSPropertyOp23
 70
     1
102
RTVSPropertyOp24
 70
     1
102
RTVSPropertyOp25
 70
     1
102
RTVSPropertyOp26
 70
     1
102
RTVSPropertyOp27
 70
     1
102
RTVSPropertyOp28
 70
     1
102
RTVSPropertyOp29
 70
     1
102
RTVSPropertyOp30
 70
     1
102
RTVSPropertyOp31
 70
     1
102
RTVSPropertyOp32
 70
     1
102
RTVSPropertyOp33
 70
     1
102
RTVSPropertyOp34
 70
     1
102
RTVSPropertyOp35
 70
     1
102
RTVSPropertyOp36
 70
     1
102
RTVSPropertyOp37
 70
     1
102
RTVSPropertyOp38
 70
     1
102
RTVSPropertyOp39
 70
     1
102
RTVSPropertyOp40
 70
     1
102
RTVSPropertyOp41
 70
     1
102
RTVSPropertyOp42
 70
     1
102
RTVSPropertyOp43
 70
     1
102
RTVSPropertyOp44
 70
     1
102
RTVSPropertyOp45
 70
     1
102
RTVSPropertyOp46
 70
     1
102
RTVSPropertyOp47
 70
     1
102
RTVSPropertyOp48
 70
     1
102
RTVSPropertyOp49
 70
     1
102
RTVSPropertyOp50
 70
     1
102
RTVSPropertyOp51
 70
     0
102
RTVSPropertyOp52
 70
     0
102
RTVSPropertyOp53
 70
     1
102
RTVSPropertyOp54
 70
     1
102
RTVSPropertyOp55
 70
     1
102
RTVSPropertyOp56
 70
     1
102
RTVSPropertyOp57
 70
     1
102
RTVSPropertyOp58
 70
     1
102
RTVSPropertyOp59
 70
     1
102
RTVSPropertyOp60
 70
     1
102
RTVSPropertyOp61
 70
     1
102
RTVSPropertyOp62
 70
     1
  0
XRECORD
  5
1F21
102
{ACAD_REACTORS
330
1F20
102
}
330
1F20
100
AcDbXrecord
280
     1
102
RTVSPost2010Prop28
280
     0
102
RTVSPost2010PropOp28
 70
     1
102
RTVSPost2010Prop29
280
     1
102
RTVSPost2010PropOp29
 70
     1
102
RTVSPost2010Prop30
280
     1
102
RTVSPost2010PropOp30
 70
     1
102
RTVSPost2010Prop31
280
     0
102
RTVSPost2010PropOp31
 70
     1
102
RTVSPost2010Prop32
280
     0
102
RTVSPost2010PropOp32
 70
     1
102
RTVSPost2010Prop33
280
     0
102
RTVSPost2010PropOp33
 70
     1
102
RTVSPost2010Prop34
280
     0
102
RTVSPost2010PropOp34
 70
     1
102
RTVSPost2010Prop35
280
     0
102
RTVSPost2010PropOp35
 70
     1
102
RTVSPost2010Prop36
280
     0
102
RTVSPost2010PropOp36
 70
     1
102
RTVSPost2010Prop37
 90
       50
102
RTVSPost2010PropOp37
 70
     1
102
RTVSPost2010Prop38
140
0.0
102
RTVSPost2010PropOp38
 70
     1
102
RTVSPost2010Prop39
140
1.0
102
RTVSPost2010PropOp39
 70
     1
102
RTVSPost2010Prop40
 90
        0
102
RTVSPost2010PropOp40
 70
     1
102
RTVSPost2010Prop41ColorIndex
 90
       18
102
RTVSPost2010Prop41ColorRGB
 90
        0
102
RTVSPost2010PropOp41
 70
     1
102
RTVSPost2010Prop42
 90
       50
102
RTVSPost2010PropOp42
 70
     1
102
RTVSPost2010Prop43
 90
        3
102
RTVSPost2010PropOp43
 70
     1
102
RTVSPost2010Prop44ColorIndex
 90
        5
102
RTVSPost2010Prop44ColorRGB
 90
      255
102
RTVSPost2010PropOp44
 70
     1
102
RTVSPost2010Prop45
280
     0
102
RTVSPost2010PropOp45
 70
     1
102
RTVSPost2010Prop46
 90
       50
102
RTVSPost2010PropOp46
 70
     1
102
RTVSPost2010Prop47
 90
       50
102
RTVSPost2010PropOp47
 70
     1
102
RTVSPost2010Prop48
 90
       50
102
RTVSPost2010PropOp48
 70
     1
102
RTVSPost2010Prop49
280
     0
102
RTVSPost2010PropOp49
 70
     1
102
RTVSPost2010Prop50
 90
       50
102
RTVSPost2010PropOp50
 70
     1
102
RTVSPost2010Prop51ColorIndex
 90
      256
102
RTVSPost2010Prop51ColorRGB
 90
-16777216
102
RTVSPost2010PropOp51
 70
     0
102
RTVSPost2010Prop52
140
1.0
102
RTVSPost2010PropOp52
 70
     0
102
RTVSPost2010Prop53
 90
        2
102
RTVSPost2010PropOp53
 70
     1
102
RTVSPost2010Prop54
  1
strokes_ogs.tif
102
RTVSPost2010PropOp54
 70
     1
102
RTVSPost2010Prop55
280
     0
102
RTVSPost2010PropOp55
 70
     1
102
RTVSPost2010Prop56
140
1.0
102
RTVSPost2010PropOp56
 70
     1
102
RTVSPost2010Prop57
140
1.0
102
RTVSPost2010PropOp57
 70
     1
102
RTVSPropertyOp0
 70
     1
102
RTVSPropertyOp1
 70
     1
102
RTVSPropertyOp2
 70
     1
102
RTVSPropertyOp3
 70
     1
102
RTVSPropertyOp4
 70
     1
102
RTVSPropertyOp5
 70
     1
102
RTVSPropertyOp6
 70
     1
102
RTVSPropertyOp7
 70
     1
102
RTVSPropertyOp8
 70
     1
102
RTVSPropertyOp9
 70
     1
102
RTVSPropertyOp10
 70
     1
102
RTVSPropertyOp11
 70
     1
102
RTVSPropertyOp12
 70
     1
102
RTVSPropertyOp13
 70
     1
102
RTVSPropertyOp14
 70
     1
102
RTVSPropertyOp15
 70
     1
102
RTVSPropertyOp16
 70
     1
102
RTVSPropertyOp17
 70
     1
102
RTVSPropertyOp18
 70
     1
102
RTVSPropertyOp19
 70
     1
102
RTVSPropertyOp20
 70
     1
102
RTVSPropertyOp21
 70
     1
102
RTVSPropertyOp22
 70
     1
102
RTVSPropertyOp23
 70
     1
102
RTVSPropertyOp24
 70
     1
102
RTVSPropertyOp25
 70
     1
102
RTVSPropertyOp26
 70
     1
102
RTVSPropertyOp27
 70
     1
102
RTVSPropertyOp28
 70
     1
102
RTVSPropertyOp29
 70
     1
102
RTVSPropertyOp30
 70
     1
102
RTVSPropertyOp31
 70
     1
102
RTVSPropertyOp32
 70
     1
102
RTVSPropertyOp33
 70
     1
102
RTVSPropertyOp34
 70
     1
102
RTVSPropertyOp35
 70
     1
102
RTVSPropertyOp36
 70
     1
102
RTVSPropertyOp37
 70
     1
102
RTVSPropertyOp38
 70
     1
102
RTVSPropertyOp39
 70
     1
102
RTVSPropertyOp40
 70
     1
102
RTVSPropertyOp41
 70
     1
102
RTVSPropertyOp42
 70
     1
102
RTVSPropertyOp43
 70
     1
102
RTVSPropertyOp44
 70
     1
102
RTVSPropertyOp45
 70
     1
102
RTVSPropertyOp46
 70
     1
102
RTVSPropertyOp47
 70
     1
102
RTVSPropertyOp48
 70
     1
102
RTVSPropertyOp49
 70
     1
102
RTVSPropertyOp50
 70
     1
102
RTVSPropertyOp51
 70
     0
102
RTVSPropertyOp52
 70
     0
102
RTVSPropertyOp53
 70
     1
102
RTVSPropertyOp54
 70
     1
102
RTVSPropertyOp55
 70
     1
102
RTVSPropertyOp56
 70
     1
102
RTVSPropertyOp57
 70
     1
102
RTVSPropertyOp58
 70
     1
102
RTVSPropertyOp59
 70
     1
102
RTVSPropertyOp60
 70
     1
102
RTVSPropertyOp61
 70
     1
102
RTVSPropertyOp62
 70
     1
  0
XRECORD
  5
1F2F
102
{ACAD_REACTORS
330
1F2E
102
}
330
1F2E
100
AcDbXrecord
280
     1
102
RTVSPost2010Prop28
280
     0
102
RTVSPost2010PropOp28
 70
     1
102
RTVSPost2010Prop29
280
     1
102
RTVSPost2010PropOp29
 70
     1
102
RTVSPost2010Prop30
280
     1
102
RTVSPost2010PropOp30
 70
     1
102
RTVSPost2010Prop31
280
     0
102
RTVSPost2010PropOp31
 70
     1
102
RTVSPost2010Prop32
280
     0
102
RTVSPost2010PropOp32
 70
     1
102
RTVSPost2010Prop33
280
     0
102
RTVSPost2010PropOp33
 70
     1
102
RTVSPost2010Prop34
280
     0
102
RTVSPost2010PropOp34
 70
     1
102
RTVSPost2010Prop35
280
     0
102
RTVSPost2010PropOp35
 70
     1
102
RTVSPost2010Prop36
280
     0
102
RTVSPost2010PropOp36
 70
     1
102
RTVSPost2010Prop37
 90
       50
102
RTVSPost2010PropOp37
 70
     1
102
RTVSPost2010Prop38
140
0.0
102
RTVSPost2010PropOp38
 70
     1
102
RTVSPost2010Prop39
140
1.0
102
RTVSPost2010PropOp39
 70
     1
102
RTVSPost2010Prop40
 90
        0
102
RTVSPost2010PropOp40
 70
     1
102
RTVSPost2010Prop41ColorIndex
 90
       18
102
RTVSPost2010Prop41ColorRGB
 90
        0
102
RTVSPost2010PropOp41
 70
     1
102
RTVSPost2010Prop42
 90
       50
102
RTVSPost2010PropOp42
 70
     1
102
RTVSPost2010Prop43
 90
        3
102
RTVSPost2010PropOp43
 70
     1
102
RTVSPost2010Prop44ColorIndex
 90
        5
102
RTVSPost2010Prop44ColorRGB
 90
      255
102
RTVSPost2010PropOp44
 70
     1
102
RTVSPost2010Prop45
280
     0
102
RTVSPost2010PropOp45
 70
     1
102
RTVSPost2010Prop46
 90
       50
102
RTVSPost2010PropOp46
 70
     1
102
RTVSPost2010Prop47
 90
       50
102
RTVSPost2010PropOp47
 70
     1
102
RTVSPost2010Prop48
 90
       50
102
RTVSPost2010PropOp48
 70
     1
102
RTVSPost2010Prop49
280
     0
102
RTVSPost2010PropOp49
 70
     1
102
RTVSPost2010Prop50
 90
       50
102
RTVSPost2010PropOp50
 70
     1
102
RTVSPost2010Prop51ColorIndex
 90
      256
102
RTVSPost2010Prop51ColorRGB
 90
-16777216
102
RTVSPost2010PropOp51
 70
     0
102
RTVSPost2010Prop52
140
1.0
102
RTVSPost2010PropOp52
 70
     0
102
RTVSPost2010Prop53
 90
        2
102
RTVSPost2010PropOp53
 70
     1
102
RTVSPost2010Prop54
  1
strokes_ogs.tif
102
RTVSPost2010PropOp54
 70
     1
102
RTVSPost2010Prop55
280
     0
102
RTVSPost2010PropOp55
 70
     1
102
RTVSPost2010Prop56
140
1.0
102
RTVSPost2010PropOp56
 70
     1
102
RTVSPost2010Prop57
140
1.0
102
RTVSPost2010PropOp57
 70
     1
102
RTVSPropertyOp0
 70
     1
102
RTVSPropertyOp1
 70
     1
102
RTVSPropertyOp2
 70
     1
102
RTVSPropertyOp3
 70
     1
102
RTVSPropertyOp4
 70
     1
102
RTVSPropertyOp5
 70
     1
102
RTVSPropertyOp6
 70
     1
102
RTVSPropertyOp7
 70
     1
102
RTVSPropertyOp8
 70
     1
102
RTVSPropertyOp9
 70
     1
102
RTVSPropertyOp10
 70
     1
102
RTVSPropertyOp11
 70
     1
102
RTVSPropertyOp12
 70
     1
102
RTVSPropertyOp13
 70
     1
102
RTVSPropertyOp14
 70
     1
102
RTVSPropertyOp15
 70
     1
102
RTVSPropertyOp16
 70
     1
102
RTVSPropertyOp17
 70
     1
102
RTVSPropertyOp18
 70
     1
102
RTVSPropertyOp19
 70
     1
102
RTVSPropertyOp20
 70
     1
102
RTVSPropertyOp21
 70
     1
102
RTVSPropertyOp22
 70
     1
102
RTVSPropertyOp23
 70
     1
102
RTVSPropertyOp24
 70
     1
102
RTVSPropertyOp25
 70
     1
102
RTVSPropertyOp26
 70
     1
102
RTVSPropertyOp27
 70
     1
102
RTVSPropertyOp28
 70
     1
102
RTVSPropertyOp29
 70
     1
102
RTVSPropertyOp30
 70
     1
102
RTVSPropertyOp31
 70
     1
102
RTVSPropertyOp32
 70
     1
102
RTVSPropertyOp33
 70
     1
102
RTVSPropertyOp34
 70
     1
102
RTVSPropertyOp35
 70
     1
102
RTVSPropertyOp36
 70
     1
102
RTVSPropertyOp37
 70
     1
102
RTVSPropertyOp38
 70
     1
102
RTVSPropertyOp39
 70
     1
102
RTVSPropertyOp40
 70
     1
102
RTVSPropertyOp41
 70
     1
102
RTVSPropertyOp42
 70
     1
102
RTVSPropertyOp43
 70
     1
102
RTVSPropertyOp44
 70
     1
102
RTVSPropertyOp45
 70
     1
102
RTVSPropertyOp46
 70
     1
102
RTVSPropertyOp47
 70
     1
102
RTVSPropertyOp48
 70
     1
102
RTVSPropertyOp49
 70
     1
102
RTVSPropertyOp50
 70
     1
102
RTVSPropertyOp51
 70
     0
102
RTVSPropertyOp52
 70
     0
102
RTVSPropertyOp53
 70
     1
102
RTVSPropertyOp54
 70
     1
102
RTVSPropertyOp55
 70
     1
102
RTVSPropertyOp56
 70
     1
102
RTVSPropertyOp57
 70
     1
102
RTVSPropertyOp58
 70
     1
102
RTVSPropertyOp59
 70
     1
102
RTVSPropertyOp60
 70
     1
102
RTVSPropertyOp61
 70
     1
102
RTVSPropertyOp62
 70
     1
  0
XRECORD
  5
1F37
102
{ACAD_REACTORS
330
1F36
102
}
330
1F36
100
AcDbXrecord
280
     1
102
RTVSPost2010Prop28
280
     0
102
RTVSPost2010PropOp28
 70
     1
102
RTVSPost2010Prop29
280
     1
102
RTVSPost2010PropOp29
 70
     1
102
RTVSPost2010Prop30
280
     1
102
RTVSPost2010PropOp30
 70
     1
102
RTVSPost2010Prop31
280
     0
102
RTVSPost2010PropOp31
 70
     1
102
RTVSPost2010Prop32
280
     0
102
RTVSPost2010PropOp32
 70
     1
102
RTVSPost2010Prop33
280
     0
102
RTVSPost2010PropOp33
 70
     1
102
RTVSPost2010Prop34
280
     0
102
RTVSPost2010PropOp34
 70
     1
102
RTVSPost2010Prop35
280
     0
102
RTVSPost2010PropOp35
 70
     1
102
RTVSPost2010Prop36
280
     0
102
RTVSPost2010PropOp36
 70
     1
102
RTVSPost2010Prop37
 90
       50
102
RTVSPost2010PropOp37
 70
     1
102
RTVSPost2010Prop38
140
0.0
102
RTVSPost2010PropOp38
 70
     1
102
RTVSPost2010Prop39
140
1.0
102
RTVSPost2010PropOp39
 70
     1
102
RTVSPost2010Prop40
 90
        0
102
RTVSPost2010PropOp40
 70
     1
102
RTVSPost2010Prop41ColorIndex
 90
       18
102
RTVSPost2010Prop41ColorRGB
 90
        0
102
RTVSPost2010PropOp41
 70
     1
102
RTVSPost2010Prop42
 90
       50
102
RTVSPost2010PropOp42
 70
     1
102
RTVSPost2010Prop43
 90
        3
102
RTVSPost2010PropOp43
 70
     1
102
RTVSPost2010Prop44ColorIndex
 90
        5
102
RTVSPost2010Prop44ColorRGB
 90
      255
102
RTVSPost2010PropOp44
 70
     1
102
RTVSPost2010Prop45
280
     0
102
RTVSPost2010PropOp45
 70
     1
102
RTVSPost2010Prop46
 90
       50
102
RTVSPost2010PropOp46
 70
     1
102
RTVSPost2010Prop47
 90
       50
102
RTVSPost2010PropOp47
 70
     1
102
RTVSPost2010Prop48
 90
       50
102
RTVSPost2010PropOp48
 70
     1
102
RTVSPost2010Prop49
280
     0
102
RTVSPost2010PropOp49
 70
     1
102
RTVSPost2010Prop50
 90
       50
102
RTVSPost2010PropOp50
 70
     1
102
RTVSPost2010Prop51ColorIndex
 90
      256
102
RTVSPost2010Prop51ColorRGB
 90
-16777216
102
RTVSPost2010PropOp51
 70
     0
102
RTVSPost2010Prop52
140
1.0
102
RTVSPost2010PropOp52
 70
     0
102
RTVSPost2010Prop53
 90
        2
102
RTVSPost2010PropOp53
 70
     1
102
RTVSPost2010Prop54
  1
strokes_ogs.tif
102
RTVSPost2010PropOp54
 70
     1
102
RTVSPost2010Prop55
280
     0
102
RTVSPost2010PropOp55
 70
     1
102
RTVSPost2010Prop56
140
1.0
102
RTVSPost2010PropOp56
 70
     1
102
RTVSPost2010Prop57
140
1.0
102
RTVSPost2010PropOp57
 70
     1
102
RTVSPropertyOp0
 70
     1
102
RTVSPropertyOp1
 70
     1
102
RTVSPropertyOp2
 70
     1
102
RTVSPropertyOp3
 70
     1
102
RTVSPropertyOp4
 70
     1
102
RTVSPropertyOp5
 70
     1
102
RTVSPropertyOp6
 70
     1
102
RTVSPropertyOp7
 70
     1
102
RTVSPropertyOp8
 70
     1
102
RTVSPropertyOp9
 70
     1
102
RTVSPropertyOp10
 70
     1
102
RTVSPropertyOp11
 70
     1
102
RTVSPropertyOp12
 70
     1
102
RTVSPropertyOp13
 70
     1
102
RTVSPropertyOp14
 70
     1
102
RTVSPropertyOp15
 70
     1
102
RTVSPropertyOp16
 70
     1
102
RTVSPropertyOp17
 70
     1
102
RTVSPropertyOp18
 70
     1
102
RTVSPropertyOp19
 70
     1
102
RTVSPropertyOp20
 70
     1
102
RTVSPropertyOp21
 70
     1
102
RTVSPropertyOp22
 70
     1
102
RTVSPropertyOp23
 70
     1
102
RTVSPropertyOp24
 70
     1
102
RTVSPropertyOp25
 70
     1
102
RTVSPropertyOp26
 70
     1
102
RTVSPropertyOp27
 70
     1
102
RTVSPropertyOp28
 70
     1
102
RTVSPropertyOp29
 70
     1
102
RTVSPropertyOp30
 70
     1
102
RTVSPropertyOp31
 70
     1
102
RTVSPropertyOp32
 70
     1
102
RTVSPropertyOp33
 70
     1
102
RTVSPropertyOp34
 70
     1
102
RTVSPropertyOp35
 70
     1
102
RTVSPropertyOp36
 70
     1
102
RTVSPropertyOp37
 70
     1
102
RTVSPropertyOp38
 70
     1
102
RTVSPropertyOp39
 70
     1
102
RTVSPropertyOp40
 70
     1
102
RTVSPropertyOp41
 70
     1
102
RTVSPropertyOp42
 70
     1
102
RTVSPropertyOp43
 70
     1
102
RTVSPropertyOp44
 70
     1
102
RTVSPropertyOp45
 70
     1
102
RTVSPropertyOp46
 70
     1
102
RTVSPropertyOp47
 70
     1
102
RTVSPropertyOp48
 70
     1
102
RTVSPropertyOp49
 70
     1
102
RTVSPropertyOp50
 70
     1
102
RTVSPropertyOp51
 70
     0
102
RTVSPropertyOp52
 70
     0
102
RTVSPropertyOp53
 70
     1
102
RTVSPropertyOp54
 70
     1
102
RTVSPropertyOp55
 70
     1
102
RTVSPropertyOp56
 70
     1
102
RTVSPropertyOp57
 70
     1
102
RTVSPropertyOp58
 70
     1
102
RTVSPropertyOp59
 70
     1
102
RTVSPropertyOp60
 70
     1
102
RTVSPropertyOp61
 70
     1
102
RTVSPropertyOp62
 70
     1
  0
XRECORD
  5
1F29
102
{ACAD_REACTORS
330
1F28
102
}
330
1F28
100
AcDbXrecord
280
     1
102
RTVSPost2010Prop28
280
     0
102
RTVSPost2010PropOp28
 70
     1
102
RTVSPost2010Prop29
280
     1
102
RTVSPost2010PropOp29
 70
     1
102
RTVSPost2010Prop30
280
     1
102
RTVSPost2010PropOp30
 70
     1
102
RTVSPost2010Prop31
280
     0
102
RTVSPost2010PropOp31
 70
     1
102
RTVSPost2010Prop32
280
     0
102
RTVSPost2010PropOp32
 70
     1
102
RTVSPost2010Prop33
280
     0
102
RTVSPost2010PropOp33
 70
     1
102
RTVSPost2010Prop34
280
     0
102
RTVSPost2010PropOp34
 70
     1
102
RTVSPost2010Prop35
280
     0
102
RTVSPost2010PropOp35
 70
     1
102
RTVSPost2010Prop36
280
     0
102
RTVSPost2010PropOp36
 70
     1
102
RTVSPost2010Prop37
 90
       50
102
RTVSPost2010PropOp37
 70
     1
102
RTVSPost2010Prop38
140
0.0
102
RTVSPost2010PropOp38
 70
     1
102
RTVSPost2010Prop39
140
1.0
102
RTVSPost2010PropOp39
 70
     1
102
RTVSPost2010Prop40
 90
        0
102
RTVSPost2010PropOp40
 70
     1
102
RTVSPost2010Prop41ColorIndex
 90
       18
102
RTVSPost2010Prop41ColorRGB
 90
        0
102
RTVSPost2010PropOp41
 70
     1
102
RTVSPost2010Prop42
 90
       50
102
RTVSPost2010PropOp42
 70
     1
102
RTVSPost2010Prop43
 90
        3
102
RTVSPost2010PropOp43
 70
     1
102
RTVSPost2010Prop44ColorIndex
 90
        5
102
RTVSPost2010Prop44ColorRGB
 90
      255
102
RTVSPost2010PropOp44
 70
     1
102
RTVSPost2010Prop45
280
     0
102
RTVSPost2010PropOp45
 70
     1
102
RTVSPost2010Prop46
 90
       50
102
RTVSPost2010PropOp46
 70
     1
102
RTVSPost2010Prop47
 90
       50
102
RTVSPost2010PropOp47
 70
     1
102
RTVSPost2010Prop48
 90
       50
102
RTVSPost2010PropOp48
 70
     1
102
RTVSPost2010Prop49
280
     0
102
RTVSPost2010PropOp49
 70
     1
102
RTVSPost2010Prop50
 90
       50
102
RTVSPost2010PropOp50
 70
     1
102
RTVSPost2010Prop51ColorIndex
 90
      256
102
RTVSPost2010Prop51ColorRGB
 90
-16777216
102
RTVSPost2010PropOp51
 70
     0
102
RTVSPost2010Prop52
140
1.0
102
RTVSPost2010PropOp52
 70
     0
102
RTVSPost2010Prop53
 90
        2
102
RTVSPost2010PropOp53
 70
     1
102
RTVSPost2010Prop54
  1
strokes_ogs.tif
102
RTVSPost2010PropOp54
 70
     1
102
RTVSPost2010Prop55
280
     0
102
RTVSPost2010PropOp55
 70
     1
102
RTVSPost2010Prop56
140
1.0
102
RTVSPost2010PropOp56
 70
     1
102
RTVSPost2010Prop57
140
1.0
102
RTVSPost2010PropOp57
 70
     1
102
RTVSPropertyOp0
 70
     1
102
RTVSPropertyOp1
 70
     1
102
RTVSPropertyOp2
 70
     1
102
RTVSPropertyOp3
 70
     1
102
RTVSPropertyOp4
 70
     1
102
RTVSPropertyOp5
 70
     1
102
RTVSPropertyOp6
 70
     1
102
RTVSPropertyOp7
 70
     1
102
RTVSPropertyOp8
 70
     1
102
RTVSPropertyOp9
 70
     1
102
RTVSPropertyOp10
 70
     1
102
RTVSPropertyOp11
 70
     1
102
RTVSPropertyOp12
 70
     1
102
RTVSPropertyOp13
 70
     1
102
RTVSPropertyOp14
 70
     1
102
RTVSPropertyOp15
 70
     1
102
RTVSPropertyOp16
 70
     1
102
RTVSPropertyOp17
 70
     1
102
RTVSPropertyOp18
 70
     1
102
RTVSPropertyOp19
 70
     1
102
RTVSPropertyOp20
 70
     1
102
RTVSPropertyOp21
 70
     1
102
RTVSPropertyOp22
 70
     1
102
RTVSPropertyOp23
 70
     1
102
RTVSPropertyOp24
 70
     1
102
RTVSPropertyOp25
 70
     1
102
RTVSPropertyOp26
 70
     1
102
RTVSPropertyOp27
 70
     1
102
RTVSPropertyOp28
 70
     1
102
RTVSPropertyOp29
 70
     1
102
RTVSPropertyOp30
 70
     1
102
RTVSPropertyOp31
 70
     1
102
RTVSPropertyOp32
 70
     1
102
RTVSPropertyOp33
 70
     1
102
RTVSPropertyOp34
 70
     1
102
RTVSPropertyOp35
 70
     1
102
RTVSPropertyOp36
 70
     1
102
RTVSPropertyOp37
 70
     1
102
RTVSPropertyOp38
 70
     1
102
RTVSPropertyOp39
 70
     1
102
RTVSPropertyOp40
 70
     1
102
RTVSPropertyOp41
 70
     1
102
RTVSPropertyOp42
 70
     1
102
RTVSPropertyOp43
 70
     1
102
RTVSPropertyOp44
 70
     1
102
RTVSPropertyOp45
 70
     1
102
RTVSPropertyOp46
 70
     1
102
RTVSPropertyOp47
 70
     1
102
RTVSPropertyOp48
 70
     1
102
RTVSPropertyOp49
 70
     1
102
RTVSPropertyOp50
 70
     1
102
RTVSPropertyOp51
 70
     0
102
RTVSPropertyOp52
 70
     0
102
RTVSPropertyOp53
 70
     1
102
RTVSPropertyOp54
 70
     1
102
RTVSPropertyOp55
 70
     1
102
RTVSPropertyOp56
 70
     1
102
RTVSPropertyOp57
 70
     1
102
RTVSPropertyOp58
 70
     1
102
RTVSPropertyOp59
 70
     1
102
RTVSPropertyOp60
 70
     1
102
RTVSPropertyOp61
 70
     1
102
RTVSPropertyOp62
 70
     1
  0
XRECORD
  5
1F2D
102
{ACAD_REACTORS
330
1F2C
102
}
330
1F2C
100
AcDbXrecord
280
     1
102
RTVSPost2010Prop28
280
     0
102
RTVSPost2010PropOp28
 70
     1
102
RTVSPost2010Prop29
280
     1
102
RTVSPost2010PropOp29
 70
     1
102
RTVSPost2010Prop30
280
     1
102
RTVSPost2010PropOp30
 70
     1
102
RTVSPost2010Prop31
280
     0
102
RTVSPost2010PropOp31
 70
     1
102
RTVSPost2010Prop32
280
     0
102
RTVSPost2010PropOp32
 70
     1
102
RTVSPost2010Prop33
280
     0
102
RTVSPost2010PropOp33
 70
     1
102
RTVSPost2010Prop34
280
     0
102
RTVSPost2010PropOp34
 70
     1
102
RTVSPost2010Prop35
280
     0
102
RTVSPost2010PropOp35
 70
     1
102
RTVSPost2010Prop36
280
     0
102
RTVSPost2010PropOp36
 70
     1
102
RTVSPost2010Prop37
 90
       50
102
RTVSPost2010PropOp37
 70
     1
102
RTVSPost2010Prop38
140
0.0
102
RTVSPost2010PropOp38
 70
     1
102
RTVSPost2010Prop39
140
1.0
102
RTVSPost2010PropOp39
 70
     1
102
RTVSPost2010Prop40
 90
        0
102
RTVSPost2010PropOp40
 70
     1
102
RTVSPost2010Prop41ColorIndex
 90
       18
102
RTVSPost2010Prop41ColorRGB
 90
        0
102
RTVSPost2010PropOp41
 70
     1
102
RTVSPost2010Prop42
 90
       50
102
RTVSPost2010PropOp42
 70
     1
102
RTVSPost2010Prop43
 90
        3
102
RTVSPost2010PropOp43
 70
     1
102
RTVSPost2010Prop44ColorIndex
 90
        5
102
RTVSPost2010Prop44ColorRGB
 90
      255
102
RTVSPost2010PropOp44
 70
     1
102
RTVSPost2010Prop45
280
     0
102
RTVSPost2010PropOp45
 70
     1
102
RTVSPost2010Prop46
 90
       50
102
RTVSPost2010PropOp46
 70
     1
102
RTVSPost2010Prop47
 90
       50
102
RTVSPost2010PropOp47
 70
     1
102
RTVSPost2010Prop48
 90
       50
102
RTVSPost2010PropOp48
 70
     1
102
RTVSPost2010Prop49
280
     0
102
RTVSPost2010PropOp49
 70
     1
102
RTVSPost2010Prop50
 90
       50
102
RTVSPost2010PropOp50
 70
     1
102
RTVSPost2010Prop51ColorIndex
 90
      256
102
RTVSPost2010Prop51ColorRGB
 90
-16777216
102
RTVSPost2010PropOp51
 70
     0
102
RTVSPost2010Prop52
140
1.0
102
RTVSPost2010PropOp52
 70
     0
102
RTVSPost2010Prop53
 90
        2
102
RTVSPost2010PropOp53
 70
     1
102
RTVSPost2010Prop54
  1
strokes_ogs.tif
102
RTVSPost2010PropOp54
 70
     1
102
RTVSPost2010Prop55
280
     0
102
RTVSPost2010PropOp55
 70
     1
102
RTVSPost2010Prop56
140
1.0
102
RTVSPost2010PropOp56
 70
     1
102
RTVSPost2010Prop57
140
1.0
102
RTVSPost2010PropOp57
 70
     1
102
RTVSPropertyOp0
 70
     1
102
RTVSPropertyOp1
 70
     1
102
RTVSPropertyOp2
 70
     1
102
RTVSPropertyOp3
 70
     1
102
RTVSPropertyOp4
 70
     1
102
RTVSPropertyOp5
 70
     1
102
RTVSPropertyOp6
 70
     1
102
RTVSPropertyOp7
 70
     1
102
RTVSPropertyOp8
 70
     1
102
RTVSPropertyOp9
 70
     1
102
RTVSPropertyOp10
 70
     1
102
RTVSPropertyOp11
 70
     1
102
RTVSPropertyOp12
 70
     1
102
RTVSPropertyOp13
 70
     1
102
RTVSPropertyOp14
 70
     1
102
RTVSPropertyOp15
 70
     1
102
RTVSPropertyOp16
 70
     1
102
RTVSPropertyOp17
 70
     1
102
RTVSPropertyOp18
 70
     1
102
RTVSPropertyOp19
 70
     1
102
RTVSPropertyOp20
 70
     1
102
RTVSPropertyOp21
 70
     1
102
RTVSPropertyOp22
 70
     1
102
RTVSPropertyOp23
 70
     1
102
RTVSPropertyOp24
 70
     1
102
RTVSPropertyOp25
 70
     1
102
RTVSPropertyOp26
 70
     1
102
RTVSPropertyOp27
 70
     1
102
RTVSPropertyOp28
 70
     1
102
RTVSPropertyOp29
 70
     1
102
RTVSPropertyOp30
 70
     1
102
RTVSPropertyOp31
 70
     1
102
RTVSPropertyOp32
 70
     1
102
RTVSPropertyOp33
 70
     1
102
RTVSPropertyOp34
 70
     1
102
RTVSPropertyOp35
 70
     1
102
RTVSPropertyOp36
 70
     1
102
RTVSPropertyOp37
 70
     1
102
RTVSPropertyOp38
 70
     1
102
RTVSPropertyOp39
 70
     1
102
RTVSPropertyOp40
 70
     1
102
RTVSPropertyOp41
 70
     1
102
RTVSPropertyOp42
 70
     1
102
RTVSPropertyOp43
 70
     1
102
RTVSPropertyOp44
 70
     1
102
RTVSPropertyOp45
 70
     1
102
RTVSPropertyOp46
 70
     1
102
RTVSPropertyOp47
 70
     1
102
RTVSPropertyOp48
 70
     1
102
RTVSPropertyOp49
 70
     1
102
RTVSPropertyOp50
 70
     1
102
RTVSPropertyOp51
 70
     0
102
RTVSPropertyOp52
 70
     0
102
RTVSPropertyOp53
 70
     1
102
RTVSPropertyOp54
 70
     1
102
RTVSPropertyOp55
 70
     1
102
RTVSPropertyOp56
 70
     1
102
RTVSPropertyOp57
 70
     1
102
RTVSPropertyOp58
 70
     1
102
RTVSPropertyOp59
 70
     1
102
RTVSPropertyOp60
 70
     1
102
RTVSPropertyOp61
 70
     1
102
RTVSPropertyOp62
 70
     1
  0
XRECORD
  5
1F4B
102
{ACAD_REACTORS
330
1F4A
102
}
330
1F4A
100
AcDbXrecord
280
     1
102
RTVSPost2010Prop28
280
     0
102
RTVSPost2010PropOp28
 70
     1
102
RTVSPost2010Prop29
280
     1
102
RTVSPost2010PropOp29
 70
     1
102
RTVSPost2010Prop30
280
     1
102
RTVSPost2010PropOp30
 70
     1
102
RTVSPost2010Prop31
280
     0
102
RTVSPost2010PropOp31
 70
     1
102
RTVSPost2010Prop32
280
     0
102
RTVSPost2010PropOp32
 70
     1
102
RTVSPost2010Prop33
280
     0
102
RTVSPost2010PropOp33
 70
     1
102
RTVSPost2010Prop34
280
     0
102
RTVSPost2010PropOp34
 70
     1
102
RTVSPost2010Prop35
280
     0
102
RTVSPost2010PropOp35
 70
     1
102
RTVSPost2010Prop36
280
     0
102
RTVSPost2010PropOp36
 70
     1
102
RTVSPost2010Prop37
 90
       50
102
RTVSPost2010PropOp37
 70
     0
102
RTVSPost2010Prop38
140
0.0
102
RTVSPost2010PropOp38
 70
     0
102
RTVSPost2010Prop39
140
1.0
102
RTVSPost2010PropOp39
 70
     0
102
RTVSPost2010Prop40
 90
        0
102
RTVSPost2010PropOp40
 70
     0
102
RTVSPost2010Prop41ColorIndex
 90
       18
102
RTVSPost2010Prop41ColorRGB
 90
        0
102
RTVSPost2010PropOp41
 70
     0
102
RTVSPost2010Prop42
 90
       50
102
RTVSPost2010PropOp42
 70
     0
102
RTVSPost2010Prop43
 90
        3
102
RTVSPost2010PropOp43
 70
     0
102
RTVSPost2010Prop44ColorIndex
 90
        5
102
RTVSPost2010Prop44ColorRGB
 90
      255
102
RTVSPost2010PropOp44
 70
     0
102
RTVSPost2010Prop45
280
     0
102
RTVSPost2010PropOp45
 70
     1
102
RTVSPost2010Prop46
 90
       50
102
RTVSPost2010PropOp46
 70
     0
102
RTVSPost2010Prop47
 90
       50
102
RTVSPost2010PropOp47
 70
     0
102
RTVSPost2010Prop48
 90
       50
102
RTVSPost2010PropOp48
 70
     0
102
RTVSPost2010Prop49
280
     0
102
RTVSPost2010PropOp49
 70
     1
102
RTVSPost2010Prop50
 90
       50
102
RTVSPost2010PropOp50
 70
     0
102
RTVSPost2010Prop51ColorIndex
 90
      256
102
RTVSPost2010Prop51ColorRGB
 90
-16777216
102
RTVSPost2010PropOp51
 70
     0
102
RTVSPost2010Prop52
140
1.0
102
RTVSPost2010PropOp52
 70
     0
102
RTVSPost2010Prop53
 90
        2
102
RTVSPost2010PropOp53
 70
     0
102
RTVSPost2010Prop54
  1
strokes_ogs.tif
102
RTVSPost2010PropOp54
 70
     0
102
RTVSPost2010Prop55
280
     0
102
RTVSPost2010PropOp55
 70
     1
102
RTVSPost2010Prop56
140
1.0
102
RTVSPost2010PropOp56
 70
     0
102
RTVSPost2010Prop57
140
1.0
102
RTVSPost2010PropOp57
 70
     0
102
RTVSPropertyOp0
 70
     0
102
RTVSPropertyOp1
 70
     0
102
RTVSPropertyOp2
 70
     0
102
RTVSPropertyOp3
 70
     0
102
RTVSPropertyOp4
 70
     0
102
RTVSPropertyOp5
 70
     0
102
RTVSPropertyOp6
 70
     0
102
RTVSPropertyOp7
 70
     0
102
RTVSPropertyOp8
 70
     0
102
RTVSPropertyOp9
 70
     0
102
RTVSPropertyOp10
 70
     0
102
RTVSPropertyOp11
 70
     0
102
RTVSPropertyOp12
 70
     0
102
RTVSPropertyOp13
 70
     0
102
RTVSPropertyOp14
 70
     2
102
RTVSPropertyOp15
 70
     0
102
RTVSPropertyOp16
 70
     0
102
RTVSPropertyOp17
 70
     0
102
RTVSPropertyOp18
 70
     0
102
RTVSPropertyOp19
 70
     0
102
RTVSPropertyOp20
 70
     0
102
RTVSPropertyOp21
 70
     0
102
RTVSPropertyOp22
 70
     0
102
RTVSPropertyOp23
 70
     0
102
RTVSPropertyOp24
 70
     0
102
RTVSPropertyOp25
 70
     0
102
RTVSPropertyOp26
 70
     0
102
RTVSPropertyOp27
 70
     0
102
RTVSPropertyOp28
 70
     1
102
RTVSPropertyOp29
 70
     1
102
RTVSPropertyOp30
 70
     1
102
RTVSPropertyOp31
 70
     1
102
RTVSPropertyOp32
 70
     1
102
RTVSPropertyOp33
 70
     1
102
RTVSPropertyOp34
 70
     1
102
RTVSPropertyOp35
 70
     1
102
RTVSPropertyOp36
 70
     1
102
RTVSPropertyOp37
 70
     0
102
RTVSPropertyOp38
 70
     0
102
RTVSPropertyOp39
 70
     0
102
RTVSPropertyOp40
 70
     0
102
RTVSPropertyOp41
 70
     0
102
RTVSPropertyOp42
 70
     0
102
RTVSPropertyOp43
 70
     0
102
RTVSPropertyOp44
 70
     0
102
RTVSPropertyOp45
 70
     1
102
RTVSPropertyOp46
 70
     0
102
RTVSPropertyOp47
 70
     0
102
RTVSPropertyOp48
 70
     0
102
RTVSPropertyOp49
 70
     1
102
RTVSPropertyOp50
 70
     0
102
RTVSPropertyOp51
 70
     0
102
RTVSPropertyOp52
 70
     0
102
RTVSPropertyOp53
 70
     0
102
RTVSPropertyOp54
 70
     0
102
RTVSPropertyOp55
 70
     1
102
RTVSPropertyOp56
 70
     0
102
RTVSPropertyOp57
 70
     0
102
RTVSPropertyOp58
 70
     0
102
RTVSPropertyOp59
 70
     0
102
RTVSPropertyOp60
 70
     0
102
RTVSPropertyOp61
 70
     0
102
RTVSPropertyOp62
 70
     0
  0
XRECORD
  5
1F35
102
{ACAD_REACTORS
330
1F34
102
}
330
1F34
100
AcDbXrecord
280
     1
102
RTVSPost2010Prop28
280
     0
102
RTVSPost2010PropOp28
 70
     1
102
RTVSPost2010Prop29
280
     1
102
RTVSPost2010PropOp29
 70
     1
102
RTVSPost2010Prop30
280
     1
102
RTVSPost2010PropOp30
 70
     1
102
RTVSPost2010Prop31
280
     0
102
RTVSPost2010PropOp31
 70
     1
102
RTVSPost2010Prop32
280
     0
102
RTVSPost2010PropOp32
 70
     1
102
RTVSPost2010Prop33
280
     0
102
RTVSPost2010PropOp33
 70
     1
102
RTVSPost2010Prop34
280
     0
102
RTVSPost2010PropOp34
 70
     1
102
RTVSPost2010Prop35
280
     0
102
RTVSPost2010PropOp35
 70
     1
102
RTVSPost2010Prop36
280
     0
102
RTVSPost2010PropOp36
 70
     1
102
RTVSPost2010Prop37
 90
       50
102
RTVSPost2010PropOp37
 70
     1
102
RTVSPost2010Prop38
140
0.0
102
RTVSPost2010PropOp38
 70
     1
102
RTVSPost2010Prop39
140
1.0
102
RTVSPost2010PropOp39
 70
     1
102
RTVSPost2010Prop40
 90
        0
102
RTVSPost2010PropOp40
 70
     1
102
RTVSPost2010Prop41ColorIndex
 90
       18
102
RTVSPost2010Prop41ColorRGB
 90
        0
102
RTVSPost2010PropOp41
 70
     1
102
RTVSPost2010Prop42
 90
       50
102
RTVSPost2010PropOp42
 70
     1
102
RTVSPost2010Prop43
 90
        3
102
RTVSPost2010PropOp43
 70
     1
102
RTVSPost2010Prop44ColorIndex
 90
        5
102
RTVSPost2010Prop44ColorRGB
 90
      255
102
RTVSPost2010PropOp44
 70
     1
102
RTVSPost2010Prop45
280
     0
102
RTVSPost2010PropOp45
 70
     1
102
RTVSPost2010Prop46
 90
       50
102
RTVSPost2010PropOp46
 70
     1
102
RTVSPost2010Prop47
 90
       50
102
RTVSPost2010PropOp47
 70
     1
102
RTVSPost2010Prop48
 90
       50
102
RTVSPost2010PropOp48
 70
     1
102
RTVSPost2010Prop49
280
     0
102
RTVSPost2010PropOp49
 70
     1
102
RTVSPost2010Prop50
 90
       50
102
RTVSPost2010PropOp50
 70
     1
102
RTVSPost2010Prop51ColorIndex
 90
      256
102
RTVSPost2010Prop51ColorRGB
 90
-16777216
102
RTVSPost2010PropOp51
 70
     0
102
RTVSPost2010Prop52
140
1.0
102
RTVSPost2010PropOp52
 70
     0
102
RTVSPost2010Prop53
 90
        2
102
RTVSPost2010PropOp53
 70
     1
102
RTVSPost2010Prop54
  1
strokes_ogs.tif
102
RTVSPost2010PropOp54
 70
     1
102
RTVSPost2010Prop55
280
     0
102
RTVSPost2010PropOp55
 70
     1
102
RTVSPost2010Prop56
140
1.0
102
RTVSPost2010PropOp56
 70
     1
102
RTVSPost2010Prop57
140
1.0
102
RTVSPost2010PropOp57
 70
     1
102
RTVSPropertyOp0
 70
     1
102
RTVSPropertyOp1
 70
     1
102
RTVSPropertyOp2
 70
     1
102
RTVSPropertyOp3
 70
     1
102
RTVSPropertyOp4
 70
     1
102
RTVSPropertyOp5
 70
     1
102
RTVSPropertyOp6
 70
     1
102
RTVSPropertyOp7
 70
     1
102
RTVSPropertyOp8
 70
     1
102
RTVSPropertyOp9
 70
     1
102
RTVSPropertyOp10
 70
     1
102
RTVSPropertyOp11
 70
     1
102
RTVSPropertyOp12
 70
     1
102
RTVSPropertyOp13
 70
     1
102
RTVSPropertyOp14
 70
     1
102
RTVSPropertyOp15
 70
     1
102
RTVSPropertyOp16
 70
     1
102
RTVSPropertyOp17
 70
     1
102
RTVSPropertyOp18
 70
     1
102
RTVSPropertyOp19
 70
     1
102
RTVSPropertyOp20
 70
     1
102
RTVSPropertyOp21
 70
     1
102
RTVSPropertyOp22
 70
     1
102
RTVSPropertyOp23
 70
     1
102
RTVSPropertyOp24
 70
     1
102
RTVSPropertyOp25
 70
     1
102
RTVSPropertyOp26
 70
     1
102
RTVSPropertyOp27
 70
     1
102
RTVSPropertyOp28
 70
     1
102
RTVSPropertyOp29
 70
     1
102
RTVSPropertyOp30
 70
     1
102
RTVSPropertyOp31
 70
     1
102
RTVSPropertyOp32
 70
     1
102
RTVSPropertyOp33
 70
     1
102
RTVSPropertyOp34
 70
     1
102
RTVSPropertyOp35
 70
     1
102
RTVSPropertyOp36
 70
     1
102
RTVSPropertyOp37
 70
     1
102
RTVSPropertyOp38
 70
     1
102
RTVSPropertyOp39
 70
     1
102
RTVSPropertyOp40
 70
     1
102
RTVSPropertyOp41
 70
     1
102
RTVSPropertyOp42
 70
     1
102
RTVSPropertyOp43
 70
     1
102
RTVSPropertyOp44
 70
     1
102
RTVSPropertyOp45
 70
     1
102
RTVSPropertyOp46
 70
     1
102
RTVSPropertyOp47
 70
     1
102
RTVSPropertyOp48
 70
     1
102
RTVSPropertyOp49
 70
     1
102
RTVSPropertyOp50
 70
     1
102
RTVSPropertyOp51
 70
     0
102
RTVSPropertyOp52
 70
     0
102
RTVSPropertyOp53
 70
     1
102
RTVSPropertyOp54
 70
     1
102
RTVSPropertyOp55
 70
     1
102
RTVSPropertyOp56
 70
     1
102
RTVSPropertyOp57
 70
     1
102
RTVSPropertyOp58
 70
     1
102
RTVSPropertyOp59
 70
     1
102
RTVSPropertyOp60
 70
     1
102
RTVSPropertyOp61
 70
     1
102
RTVSPropertyOp62
 70
     1
  0
XRECORD
  5
1F19
102
{ACAD_REACTORS
330
1F18
102
}
330
1F18
100
AcDbXrecord
280
     1
102
RTVSPost2010Prop28
280
     0
102
RTVSPost2010PropOp28
 70
     1
102
RTVSPost2010Prop29
280
     1
102
RTVSPost2010PropOp29
 70
     1
102
RTVSPost2010Prop30
280
     1
102
RTVSPost2010PropOp30
 70
     1
102
RTVSPost2010Prop31
280
     0
102
RTVSPost2010PropOp31
 70
     1
102
RTVSPost2010Prop32
280
     0
102
RTVSPost2010PropOp32
 70
     1
102
RTVSPost2010Prop33
280
     0
102
RTVSPost2010PropOp33
 70
     1
102
RTVSPost2010Prop34
280
     0
102
RTVSPost2010PropOp34
 70
     1
102
RTVSPost2010Prop35
280
     0
102
RTVSPost2010PropOp35
 70
     1
102
RTVSPost2010Prop36
280
     0
102
RTVSPost2010PropOp36
 70
     1
102
RTVSPost2010Prop37
 90
       50
102
RTVSPost2010PropOp37
 70
     1
102
RTVSPost2010Prop38
140
0.0
102
RTVSPost2010PropOp38
 70
     1
102
RTVSPost2010Prop39
140
1.0
102
RTVSPost2010PropOp39
 70
     1
102
RTVSPost2010Prop40
 90
        0
102
RTVSPost2010PropOp40
 70
     1
102
RTVSPost2010Prop41ColorIndex
 90
       18
102
RTVSPost2010Prop41ColorRGB
 90
        0
102
RTVSPost2010PropOp41
 70
     1
102
RTVSPost2010Prop42
 90
       50
102
RTVSPost2010PropOp42
 70
     1
102
RTVSPost2010Prop43
 90
        3
102
RTVSPost2010PropOp43
 70
     1
102
RTVSPost2010Prop44ColorIndex
 90
        5
102
RTVSPost2010Prop44ColorRGB
 90
      255
102
RTVSPost2010PropOp44
 70
     1
102
RTVSPost2010Prop45
280
     0
102
RTVSPost2010PropOp45
 70
     1
102
RTVSPost2010Prop46
 90
       50
102
RTVSPost2010PropOp46
 70
     1
102
RTVSPost2010Prop47
 90
       50
102
RTVSPost2010PropOp47
 70
     1
102
RTVSPost2010Prop48
 90
       50
102
RTVSPost2010PropOp48
 70
     1
102
RTVSPost2010Prop49
280
     0
102
RTVSPost2010PropOp49
 70
     1
102
RTVSPost2010Prop50
 90
       50
102
RTVSPost2010PropOp50
 70
     1
102
RTVSPost2010Prop51ColorIndex
 90
      256
102
RTVSPost2010Prop51ColorRGB
 90
-16777216
102
RTVSPost2010PropOp51
 70
     0
102
RTVSPost2010Prop52
140
1.0
102
RTVSPost2010PropOp52
 70
     0
102
RTVSPost2010Prop53
 90
        2
102
RTVSPost2010PropOp53
 70
     1
102
RTVSPost2010Prop54
  1
strokes_ogs.tif
102
RTVSPost2010PropOp54
 70
     1
102
RTVSPost2010Prop55
280
     0
102
RTVSPost2010PropOp55
 70
     1
102
RTVSPost2010Prop56
140
1.0
102
RTVSPost2010PropOp56
 70
     1
102
RTVSPost2010Prop57
140
1.0
102
RTVSPost2010PropOp57
 70
     1
102
RTVSPropertyOp0
 70
     1
102
RTVSPropertyOp1
 70
     1
102
RTVSPropertyOp2
 70
     1
102
RTVSPropertyOp3
 70
     1
102
RTVSPropertyOp4
 70
     1
102
RTVSPropertyOp5
 70
     1
102
RTVSPropertyOp6
 70
     1
102
RTVSPropertyOp7
 70
     1
102
RTVSPropertyOp8
 70
     1
102
RTVSPropertyOp9
 70
     1
102
RTVSPropertyOp10
 70
     1
102
RTVSPropertyOp11
 70
     1
102
RTVSPropertyOp12
 70
     1
102
RTVSPropertyOp13
 70
     1
102
RTVSPropertyOp14
 70
     1
102
RTVSPropertyOp15
 70
     1
102
RTVSPropertyOp16
 70
     1
102
RTVSPropertyOp17
 70
     1
102
RTVSPropertyOp18
 70
     1
102
RTVSPropertyOp19
 70
     1
102
RTVSPropertyOp20
 70
     1
102
RTVSPropertyOp21
 70
     1
102
RTVSPropertyOp22
 70
     1
102
RTVSPropertyOp23
 70
     1
102
RTVSPropertyOp24
 70
     1
102
RTVSPropertyOp25
 70
     1
102
RTVSPropertyOp26
 70
     1
102
RTVSPropertyOp27
 70
     1
102
RTVSPropertyOp28
 70
     1
102
RTVSPropertyOp29
 70
     1
102
RTVSPropertyOp30
 70
     1
102
RTVSPropertyOp31
 70
     1
102
RTVSPropertyOp32
 70
     1
102
RTVSPropertyOp33
 70
     1
102
RTVSPropertyOp34
 70
     1
102
RTVSPropertyOp35
 70
     1
102
RTVSPropertyOp36
 70
     1
102
RTVSPropertyOp37
 70
     1
102
RTVSPropertyOp38
 70
     1
102
RTVSPropertyOp39
 70
     1
102
RTVSPropertyOp40
 70
     1
102
RTVSPropertyOp41
 70
     1
102
RTVSPropertyOp42
 70
     1
102
RTVSPropertyOp43
 70
     1
102
RTVSPropertyOp44
 70
     1
102
RTVSPropertyOp45
 70
     1
102
RTVSPropertyOp46
 70
     1
102
RTVSPropertyOp47
 70
     1
102
RTVSPropertyOp48
 70
     1
102
RTVSPropertyOp49
 70
     1
102
RTVSPropertyOp50
 70
     1
102
RTVSPropertyOp51
 70
     0
102
RTVSPropertyOp52
 70
     0
102
RTVSPropertyOp53
 70
     1
102
RTVSPropertyOp54
 70
     1
102
RTVSPropertyOp55
 70
     1
102
RTVSPropertyOp56
 70
     1
102
RTVSPropertyOp57
 70
     1
102
RTVSPropertyOp58
 70
     1
102
RTVSPropertyOp59
 70
     1
102
RTVSPropertyOp60
 70
     1
102
RTVSPropertyOp61
 70
     1
102
RTVSPropertyOp62
 70
     1
  0
XRECORD
  5
1F1B
102
{ACAD_REACTORS
330
1F1A
102
}
330
1F1A
100
AcDbXrecord
280
     1
102
RTVSPost2010Prop28
280
     0
102
RTVSPost2010PropOp28
 70
     1
102
RTVSPost2010Prop29
280
     1
102
RTVSPost2010PropOp29
 70
     1
102
RTVSPost2010Prop30
280
     1
102
RTVSPost2010PropOp30
 70
     1
102
RTVSPost2010Prop31
280
     0
102
RTVSPost2010PropOp31
 70
     1
102
RTVSPost2010Prop32
280
     0
102
RTVSPost2010PropOp32
 70
     1
102
RTVSPost2010Prop33
280
     0
102
RTVSPost2010PropOp33
 70
     1
102
RTVSPost2010Prop34
280
     0
102
RTVSPost2010PropOp34
 70
     1
102
RTVSPost2010Prop35
280
     0
102
RTVSPost2010PropOp35
 70
     1
102
RTVSPost2010Prop36
280
     0
102
RTVSPost2010PropOp36
 70
     1
102
RTVSPost2010Prop37
 90
       50
102
RTVSPost2010PropOp37
 70
     1
102
RTVSPost2010Prop38
140
0.0
102
RTVSPost2010PropOp38
 70
     1
102
RTVSPost2010Prop39
140
1.0
102
RTVSPost2010PropOp39
 70
     1
102
RTVSPost2010Prop40
 90
        0
102
RTVSPost2010PropOp40
 70
     1
102
RTVSPost2010Prop41ColorIndex
 90
       18
102
RTVSPost2010Prop41ColorRGB
 90
        0
102
RTVSPost2010PropOp41
 70
     1
102
RTVSPost2010Prop42
 90
       50
102
RTVSPost2010PropOp42
 70
     1
102
RTVSPost2010Prop43
 90
        3
102
RTVSPost2010PropOp43
 70
     1
102
RTVSPost2010Prop44ColorIndex
 90
        5
102
RTVSPost2010Prop44ColorRGB
 90
      255
102
RTVSPost2010PropOp44
 70
     1
102
RTVSPost2010Prop45
280
     0
102
RTVSPost2010PropOp45
 70
     1
102
RTVSPost2010Prop46
 90
       50
102
RTVSPost2010PropOp46
 70
     1
102
RTVSPost2010Prop47
 90
       50
102
RTVSPost2010PropOp47
 70
     1
102
RTVSPost2010Prop48
 90
       50
102
RTVSPost2010PropOp48
 70
     1
102
RTVSPost2010Prop49
280
     0
102
RTVSPost2010PropOp49
 70
     1
102
RTVSPost2010Prop50
 90
       50
102
RTVSPost2010PropOp50
 70
     1
102
RTVSPost2010Prop51ColorIndex
 90
      256
102
RTVSPost2010Prop51ColorRGB
 90
-16777216
102
RTVSPost2010PropOp51
 70
     0
102
RTVSPost2010Prop52
140
1.0
102
RTVSPost2010PropOp52
 70
     0
102
RTVSPost2010Prop53
 90
        2
102
RTVSPost2010PropOp53
 70
     1
102
RTVSPost2010Prop54
  1
strokes_ogs.tif
102
RTVSPost2010PropOp54
 70
     1
102
RTVSPost2010Prop55
280
     0
102
RTVSPost2010PropOp55
 70
     1
102
RTVSPost2010Prop56
140
1.0
102
RTVSPost2010PropOp56
 70
     1
102
RTVSPost2010Prop57
140
1.0
102
RTVSPost2010PropOp57
 70
     1
102
RTVSPropertyOp0
 70
     1
102
RTVSPropertyOp1
 70
     1
102
RTVSPropertyOp2
 70
     1
102
RTVSPropertyOp3
 70
     1
102
RTVSPropertyOp4
 70
     1
102
RTVSPropertyOp5
 70
     1
102
RTVSPropertyOp6
 70
     1
102
RTVSPropertyOp7
 70
     1
102
RTVSPropertyOp8
 70
     1
102
RTVSPropertyOp9
 70
     1
102
RTVSPropertyOp10
 70
     1
102
RTVSPropertyOp11
 70
     1
102
RTVSPropertyOp12
 70
     1
102
RTVSPropertyOp13
 70
     1
102
RTVSPropertyOp14
 70
     1
102
RTVSPropertyOp15
 70
     1
102
RTVSPropertyOp16
 70
     1
102
RTVSPropertyOp17
 70
     1
102
RTVSPropertyOp18
 70
     1
102
RTVSPropertyOp19
 70
     1
102
RTVSPropertyOp20
 70
     1
102
RTVSPropertyOp21
 70
     1
102
RTVSPropertyOp22
 70
     1
102
RTVSPropertyOp23
 70
     1
102
RTVSPropertyOp24
 70
     1
102
RTVSPropertyOp25
 70
     1
102
RTVSPropertyOp26
 70
     1
102
RTVSPropertyOp27
 70
     1
102
RTVSPropertyOp28
 70
     1
102
RTVSPropertyOp29
 70
     1
102
RTVSPropertyOp30
 70
     1
102
RTVSPropertyOp31
 70
     1
102
RTVSPropertyOp32
 70
     1
102
RTVSPropertyOp33
 70
     1
102
RTVSPropertyOp34
 70
     1
102
RTVSPropertyOp35
 70
     1
102
RTVSPropertyOp36
 70
     1
102
RTVSPropertyOp37
 70
     1
102
RTVSPropertyOp38
 70
     1
102
RTVSPropertyOp39
 70
     1
102
RTVSPropertyOp40
 70
     1
102
RTVSPropertyOp41
 70
     1
102
RTVSPropertyOp42
 70
     1
102
RTVSPropertyOp43
 70
     1
102
RTVSPropertyOp44
 70
     1
102
RTVSPropertyOp45
 70
     1
102
RTVSPropertyOp46
 70
     1
102
RTVSPropertyOp47
 70
     1
102
RTVSPropertyOp48
 70
     1
102
RTVSPropertyOp49
 70
     1
102
RTVSPropertyOp50
 70
     1
102
RTVSPropertyOp51
 70
     0
102
RTVSPropertyOp52
 70
     0
102
RTVSPropertyOp53
 70
     1
102
RTVSPropertyOp54
 70
     1
102
RTVSPropertyOp55
 70
     1
102
RTVSPropertyOp56
 70
     1
102
RTVSPropertyOp57
 70
     1
102
RTVSPropertyOp58
 70
     1
102
RTVSPropertyOp59
 70
     1
102
RTVSPropertyOp60
 70
     1
102
RTVSPropertyOp61
 70
     1
102
RTVSPropertyOp62
 70
     1
  0
XRECORD
  5
1F1D
102
{ACAD_REACTORS
330
1F1C
102
}
330
1F1C
100
AcDbXrecord
280
     1
102
RTVSPost2010Prop28
280
     0
102
RTVSPost2010PropOp28
 70
     1
102
RTVSPost2010Prop29
280
     1
102
RTVSPost2010PropOp29
 70
     1
102
RTVSPost2010Prop30
280
     1
102
RTVSPost2010PropOp30
 70
     1
102
RTVSPost2010Prop31
280
     0
102
RTVSPost2010PropOp31
 70
     1
102
RTVSPost2010Prop32
280
     0
102
RTVSPost2010PropOp32
 70
     1
102
RTVSPost2010Prop33
280
     0
102
RTVSPost2010PropOp33
 70
     1
102
RTVSPost2010Prop34
280
     0
102
RTVSPost2010PropOp34
 70
     1
102
RTVSPost2010Prop35
280
     0
102
RTVSPost2010PropOp35
 70
     1
102
RTVSPost2010Prop36
280
     0
102
RTVSPost2010PropOp36
 70
     1
102
RTVSPost2010Prop37
 90
       50
102
RTVSPost2010PropOp37
 70
     1
102
RTVSPost2010Prop38
140
0.0
102
RTVSPost2010PropOp38
 70
     1
102
RTVSPost2010Prop39
140
1.0
102
RTVSPost2010PropOp39
 70
     1
102
RTVSPost2010Prop40
 90
        0
102
RTVSPost2010PropOp40
 70
     1
102
RTVSPost2010Prop41ColorIndex
 90
       18
102
RTVSPost2010Prop41ColorRGB
 90
        0
102
RTVSPost2010PropOp41
 70
     1
102
RTVSPost2010Prop42
 90
       50
102
RTVSPost2010PropOp42
 70
     1
102
RTVSPost2010Prop43
 90
        3
102
RTVSPost2010PropOp43
 70
     1
102
RTVSPost2010Prop44ColorIndex
 90
        5
102
RTVSPost2010Prop44ColorRGB
 90
      255
102
RTVSPost2010PropOp44
 70
     1
102
RTVSPost2010Prop45
280
     0
102
RTVSPost2010PropOp45
 70
     1
102
RTVSPost2010Prop46
 90
       50
102
RTVSPost2010PropOp46
 70
     1
102
RTVSPost2010Prop47
 90
       50
102
RTVSPost2010PropOp47
 70
     1
102
RTVSPost2010Prop48
 90
       50
102
RTVSPost2010PropOp48
 70
     1
102
RTVSPost2010Prop49
280
     0
102
RTVSPost2010PropOp49
 70
     1
102
RTVSPost2010Prop50
 90
       50
102
RTVSPost2010PropOp50
 70
     1
102
RTVSPost2010Prop51ColorIndex
 90
      256
102
RTVSPost2010Prop51ColorRGB
 90
-16777216
102
RTVSPost2010PropOp51
 70
     0
102
RTVSPost2010Prop52
140
1.0
102
RTVSPost2010PropOp52
 70
     0
102
RTVSPost2010Prop53
 90
        2
102
RTVSPost2010PropOp53
 70
     1
102
RTVSPost2010Prop54
  1
strokes_ogs.tif
102
RTVSPost2010PropOp54
 70
     1
102
RTVSPost2010Prop55
280
     0
102
RTVSPost2010PropOp55
 70
     1
102
RTVSPost2010Prop56
140
1.0
102
RTVSPost2010PropOp56
 70
     1
102
RTVSPost2010Prop57
140
1.0
102
RTVSPost2010PropOp57
 70
     1
102
RTVSPropertyOp0
 70
     1
102
RTVSPropertyOp1
 70
     1
102
RTVSPropertyOp2
 70
     1
102
RTVSPropertyOp3
 70
     1
102
RTVSPropertyOp4
 70
     1
102
RTVSPropertyOp5
 70
     1
102
RTVSPropertyOp6
 70
     1
102
RTVSPropertyOp7
 70
     1
102
RTVSPropertyOp8
 70
     1
102
RTVSPropertyOp9
 70
     1
102
RTVSPropertyOp10
 70
     1
102
RTVSPropertyOp11
 70
     1
102
RTVSPropertyOp12
 70
     1
102
RTVSPropertyOp13
 70
     1
102
RTVSPropertyOp14
 70
     1
102
RTVSPropertyOp15
 70
     1
102
RTVSPropertyOp16
 70
     1
102
RTVSPropertyOp17
 70
     1
102
RTVSPropertyOp18
 70
     1
102
RTVSPropertyOp19
 70
     1
102
RTVSPropertyOp20
 70
     1
102
RTVSPropertyOp21
 70
     1
102
RTVSPropertyOp22
 70
     1
102
RTVSPropertyOp23
 70
     1
102
RTVSPropertyOp24
 70
     1
102
RTVSPropertyOp25
 70
     1
102
RTVSPropertyOp26
 70
     1
102
RTVSPropertyOp27
 70
     1
102
RTVSPropertyOp28
 70
     1
102
RTVSPropertyOp29
 70
     1
102
RTVSPropertyOp30
 70
     1
102
RTVSPropertyOp31
 70
     1
102
RTVSPropertyOp32
 70
     1
102
RTVSPropertyOp33
 70
     1
102
RTVSPropertyOp34
 70
     1
102
RTVSPropertyOp35
 70
     1
102
RTVSPropertyOp36
 70
     1
102
RTVSPropertyOp37
 70
     1
102
RTVSPropertyOp38
 70
     1
102
RTVSPropertyOp39
 70
     1
102
RTVSPropertyOp40
 70
     1
102
RTVSPropertyOp41
 70
     1
102
RTVSPropertyOp42
 70
     1
102
RTVSPropertyOp43
 70
     1
102
RTVSPropertyOp44
 70
     1
102
RTVSPropertyOp45
 70
     1
102
RTVSPropertyOp46
 70
     1
102
RTVSPropertyOp47
 70
     1
102
RTVSPropertyOp48
 70
     1
102
RTVSPropertyOp49
 70
     1
102
RTVSPropertyOp50
 70
     1
102
RTVSPropertyOp51
 70
     0
102
RTVSPropertyOp52
 70
     0
102
RTVSPropertyOp53
 70
     1
102
RTVSPropertyOp54
 70
     1
102
RTVSPropertyOp55
 70
     1
102
RTVSPropertyOp56
 70
     1
102
RTVSPropertyOp57
 70
     1
102
RTVSPropertyOp58
 70
     1
102
RTVSPropertyOp59
 70
     1
102
RTVSPropertyOp60
 70
     1
102
RTVSPropertyOp61
 70
     1
102
RTVSPropertyOp62
 70
     1
  0
XRECORD
  5
1F1F
102
{ACAD_REACTORS
330
1F1E
102
}
330
1F1E
100
AcDbXrecord
280
     1
102
RTVSPost2010Prop28
280
     0
102
RTVSPost2010PropOp28
 70
     1
102
RTVSPost2010Prop29
280
     1
102
RTVSPost2010PropOp29
 70
     1
102
RTVSPost2010Prop30
280
     1
102
RTVSPost2010PropOp30
 70
     1
102
RTVSPost2010Prop31
280
     0
102
RTVSPost2010PropOp31
 70
     1
102
RTVSPost2010Prop32
280
     0
102
RTVSPost2010PropOp32
 70
     1
102
RTVSPost2010Prop33
280
     0
102
RTVSPost2010PropOp33
 70
     1
102
RTVSPost2010Prop34
280
     0
102
RTVSPost2010PropOp34
 70
     1
102
RTVSPost2010Prop35
280
     0
102
RTVSPost2010PropOp35
 70
     1
102
RTVSPost2010Prop36
280
     0
102
RTVSPost2010PropOp36
 70
     1
102
RTVSPost2010Prop37
 90
       50
102
RTVSPost2010PropOp37
 70
     1
102
RTVSPost2010Prop38
140
0.0
102
RTVSPost2010PropOp38
 70
     1
102
RTVSPost2010Prop39
140
1.0
102
RTVSPost2010PropOp39
 70
     1
102
RTVSPost2010Prop40
 90
        0
102
RTVSPost2010PropOp40
 70
     1
102
RTVSPost2010Prop41ColorIndex
 90
       18
102
RTVSPost2010Prop41ColorRGB
 90
        0
102
RTVSPost2010PropOp41
 70
     1
102
RTVSPost2010Prop42
 90
       50
102
RTVSPost2010PropOp42
 70
     1
102
RTVSPost2010Prop43
 90
        3
102
RTVSPost2010PropOp43
 70
     1
102
RTVSPost2010Prop44ColorIndex
 90
        5
102
RTVSPost2010Prop44ColorRGB
 90
      255
102
RTVSPost2010PropOp44
 70
     1
102
RTVSPost2010Prop45
280
     0
102
RTVSPost2010PropOp45
 70
     1
102
RTVSPost2010Prop46
 90
       50
102
RTVSPost2010PropOp46
 70
     1
102
RTVSPost2010Prop47
 90
       50
102
RTVSPost2010PropOp47
 70
     1
102
RTVSPost2010Prop48
 90
       50
102
RTVSPost2010PropOp48
 70
     1
102
RTVSPost2010Prop49
280
     0
102
RTVSPost2010PropOp49
 70
     1
102
RTVSPost2010Prop50
 90
       50
102
RTVSPost2010PropOp50
 70
     1
102
RTVSPost2010Prop51ColorIndex
 90
      256
102
RTVSPost2010Prop51ColorRGB
 90
-16777216
102
RTVSPost2010PropOp51
 70
     0
102
RTVSPost2010Prop52
140
1.0
102
RTVSPost2010PropOp52
 70
     0
102
RTVSPost2010Prop53
 90
        2
102
RTVSPost2010PropOp53
 70
     1
102
RTVSPost2010Prop54
  1
strokes_ogs.tif
102
RTVSPost2010PropOp54
 70
     1
102
RTVSPost2010Prop55
280
     0
102
RTVSPost2010PropOp55
 70
     1
102
RTVSPost2010Prop56
140
1.0
102
RTVSPost2010PropOp56
 70
     1
102
RTVSPost2010Prop57
140
1.0
102
RTVSPost2010PropOp57
 70
     1
102
RTVSPropertyOp0
 70
     1
102
RTVSPropertyOp1
 70
     1
102
RTVSPropertyOp2
 70
     1
102
RTVSPropertyOp3
 70
     1
102
RTVSPropertyOp4
 70
     1
102
RTVSPropertyOp5
 70
     1
102
RTVSPropertyOp6
 70
     1
102
RTVSPropertyOp7
 70
     1
102
RTVSPropertyOp8
 70
     1
102
RTVSPropertyOp9
 70
     1
102
RTVSPropertyOp10
 70
     1
102
RTVSPropertyOp11
 70
     1
102
RTVSPropertyOp12
 70
     1
102
RTVSPropertyOp13
 70
     1
102
RTVSPropertyOp14
 70
     1
102
RTVSPropertyOp15
 70
     1
102
RTVSPropertyOp16
 70
     1
102
RTVSPropertyOp17
 70
     1
102
RTVSPropertyOp18
 70
     1
102
RTVSPropertyOp19
 70
     1
102
RTVSPropertyOp20
 70
     1
102
RTVSPropertyOp21
 70
     1
102
RTVSPropertyOp22
 70
     1
102
RTVSPropertyOp23
 70
     1
102
RTVSPropertyOp24
 70
     1
102
RTVSPropertyOp25
 70
     1
102
RTVSPropertyOp26
 70
     1
102
RTVSPropertyOp27
 70
     1
102
RTVSPropertyOp28
 70
     1
102
RTVSPropertyOp29
 70
     1
102
RTVSPropertyOp30
 70
     1
102
RTVSPropertyOp31
 70
     1
102
RTVSPropertyOp32
 70
     1
102
RTVSPropertyOp33
 70
     1
102
RTVSPropertyOp34
 70
     1
102
RTVSPropertyOp35
 70
     1
102
RTVSPropertyOp36
 70
     1
102
RTVSPropertyOp37
 70
     1
102
RTVSPropertyOp38
 70
     1
102
RTVSPropertyOp39
 70
     1
102
RTVSPropertyOp40
 70
     1
102
RTVSPropertyOp41
 70
     1
102
RTVSPropertyOp42
 70
     1
102
RTVSPropertyOp43
 70
     1
102
RTVSPropertyOp44
 70
     1
102
RTVSPropertyOp45
 70
     1
102
RTVSPropertyOp46
 70
     1
102
RTVSPropertyOp47
 70
     1
102
RTVSPropertyOp48
 70
     1
102
RTVSPropertyOp49
 70
     1
102
RTVSPropertyOp50
 70
     1
102
RTVSPropertyOp51
 70
     0
102
RTVSPropertyOp52
 70
     0
102
RTVSPropertyOp53
 70
     1
102
RTVSPropertyOp54
 70
     1
102
RTVSPropertyOp55
 70
     1
102
RTVSPropertyOp56
 70
     1
102
RTVSPropertyOp57
 70
     1
102
RTVSPropertyOp58
 70
     1
102
RTVSPropertyOp59
 70
     1
102
RTVSPropertyOp60
 70
     1
102
RTVSPropertyOp61
 70
     1
102
RTVSPropertyOp62
 70
     1
  0
XRECORD
  5
1F3B
102
{ACAD_REACTORS
330
1F3A
102
}
330
1F3A
100
AcDbXrecord
280
     1
102
RTVSPost2010Prop28
280
     0
102
RTVSPost2010PropOp28
 70
     1
102
RTVSPost2010Prop29
280
     1
102
RTVSPost2010PropOp29
 70
     1
102
RTVSPost2010Prop30
280
     1
102
RTVSPost2010PropOp30
 70
     1
102
RTVSPost2010Prop31
280
     0
102
RTVSPost2010PropOp31
 70
     1
102
RTVSPost2010Prop32
280
     0
102
RTVSPost2010PropOp32
 70
     1
102
RTVSPost2010Prop33
280
     0
102
RTVSPost2010PropOp33
 70
     1
102
RTVSPost2010Prop34
280
     0
102
RTVSPost2010PropOp34
 70
     1
102
RTVSPost2010Prop35
280
     0
102
RTVSPost2010PropOp35
 70
     1
102
RTVSPost2010Prop36
280
     0
102
RTVSPost2010PropOp36
 70
     1
102
RTVSPost2010Prop37
 90
       50
102
RTVSPost2010PropOp37
 70
     1
102
RTVSPost2010Prop38
140
0.0
102
RTVSPost2010PropOp38
 70
     1
102
RTVSPost2010Prop39
140
1.0
102
RTVSPost2010PropOp39
 70
     1
102
RTVSPost2010Prop40
 90
        0
102
RTVSPost2010PropOp40
 70
     1
102
RTVSPost2010Prop41ColorIndex
 90
       18
102
RTVSPost2010Prop41ColorRGB
 90
        0
102
RTVSPost2010PropOp41
 70
     1
102
RTVSPost2010Prop42
 90
       50
102
RTVSPost2010PropOp42
 70
     1
102
RTVSPost2010Prop43
 90
        3
102
RTVSPost2010PropOp43
 70
     1
102
RTVSPost2010Prop44ColorIndex
 90
        5
102
RTVSPost2010Prop44ColorRGB
 90
      255
102
RTVSPost2010PropOp44
 70
     1
102
RTVSPost2010Prop45
280
     0
102
RTVSPost2010PropOp45
 70
     1
102
RTVSPost2010Prop46
 90
       50
102
RTVSPost2010PropOp46
 70
     1
102
RTVSPost2010Prop47
 90
       50
102
RTVSPost2010PropOp47
 70
     1
102
RTVSPost2010Prop48
 90
       50
102
RTVSPost2010PropOp48
 70
     1
102
RTVSPost2010Prop49
280
     0
102
RTVSPost2010PropOp49
 70
     1
102
RTVSPost2010Prop50
 90
       50
102
RTVSPost2010PropOp50
 70
     1
102
RTVSPost2010Prop51ColorIndex
 90
      256
102
RTVSPost2010Prop51ColorRGB
 90
-16777216
102
RTVSPost2010PropOp51
 70
     0
102
RTVSPost2010Prop52
140
1.0
102
RTVSPost2010PropOp52
 70
     0
102
RTVSPost2010Prop53
 90
        2
102
RTVSPost2010PropOp53
 70
     1
102
RTVSPost2010Prop54
  1
strokes_ogs.tif
102
RTVSPost2010PropOp54
 70
     1
102
RTVSPost2010Prop55
280
     0
102
RTVSPost2010PropOp55
 70
     1
102
RTVSPost2010Prop56
140
1.0
102
RTVSPost2010PropOp56
 70
     1
102
RTVSPost2010Prop57
140
1.0
102
RTVSPost2010PropOp57
 70
     1
102
RTVSPropertyOp0
 70
     1
102
RTVSPropertyOp1
 70
     1
102
RTVSPropertyOp2
 70
     1
102
RTVSPropertyOp3
 70
     1
102
RTVSPropertyOp4
 70
     1
102
RTVSPropertyOp5
 70
     1
102
RTVSPropertyOp6
 70
     1
102
RTVSPropertyOp7
 70
     1
102
RTVSPropertyOp8
 70
     1
102
RTVSPropertyOp9
 70
     1
102
RTVSPropertyOp10
 70
     1
102
RTVSPropertyOp11
 70
     1
102
RTVSPropertyOp12
 70
     1
102
RTVSPropertyOp13
 70
     1
102
RTVSPropertyOp14
 70
     1
102
RTVSPropertyOp15
 70
     1
102
RTVSPropertyOp16
 70
     1
102
RTVSPropertyOp17
 70
     1
102
RTVSPropertyOp18
 70
     1
102
RTVSPropertyOp19
 70
     1
102
RTVSPropertyOp20
 70
     1
102
RTVSPropertyOp21
 70
     1
102
RTVSPropertyOp22
 70
     1
102
RTVSPropertyOp23
 70
     1
102
RTVSPropertyOp24
 70
     1
102
RTVSPropertyOp25
 70
     1
102
RTVSPropertyOp26
 70
     1
102
RTVSPropertyOp27
 70
     1
102
RTVSPropertyOp28
 70
     1
102
RTVSPropertyOp29
 70
     1
102
RTVSPropertyOp30
 70
     1
102
RTVSPropertyOp31
 70
     1
102
RTVSPropertyOp32
 70
     1
102
RTVSPropertyOp33
 70
     1
102
RTVSPropertyOp34
 70
     1
102
RTVSPropertyOp35
 70
     1
102
RTVSPropertyOp36
 70
     1
102
RTVSPropertyOp37
 70
     1
102
RTVSPropertyOp38
 70
     1
102
RTVSPropertyOp39
 70
     1
102
RTVSPropertyOp40
 70
     1
102
RTVSPropertyOp41
 70
     1
102
RTVSPropertyOp42
 70
     1
102
RTVSPropertyOp43
 70
     1
102
RTVSPropertyOp44
 70
     1
102
RTVSPropertyOp45
 70
     1
102
RTVSPropertyOp46
 70
     1
102
RTVSPropertyOp47
 70
     1
102
RTVSPropertyOp48
 70
     1
102
RTVSPropertyOp49
 70
     1
102
RTVSPropertyOp50
 70
     1
102
RTVSPropertyOp51
 70
     0
102
RTVSPropertyOp52
 70
     0
102
RTVSPropertyOp53
 70
     1
102
RTVSPropertyOp54
 70
     1
102
RTVSPropertyOp55
 70
     1
102
RTVSPropertyOp56
 70
     1
102
RTVSPropertyOp57
 70
     1
102
RTVSPropertyOp58
 70
     1
102
RTVSPropertyOp59
 70
     1
102
RTVSPropertyOp60
 70
     1
102
RTVSPropertyOp61
 70
     1
102
RTVSPropertyOp62
 70
     1
  0
XRECORD
  5
1F47
102
{ACAD_REACTORS
330
1F46
102
}
330
1F46
100
AcDbXrecord
280
     1
102
RTVSPost2010Prop28
280
     0
102
RTVSPost2010PropOp28
 70
     1
102
RTVSPost2010Prop29
280
     1
102
RTVSPost2010PropOp29
 70
     1
102
RTVSPost2010Prop30
280
     1
102
RTVSPost2010PropOp30
 70
     1
102
RTVSPost2010Prop31
280
     0
102
RTVSPost2010PropOp31
 70
     1
102
RTVSPost2010Prop32
280
     0
102
RTVSPost2010PropOp32
 70
     1
102
RTVSPost2010Prop33
280
     0
102
RTVSPost2010PropOp33
 70
     1
102
RTVSPost2010Prop34
280
     0
102
RTVSPost2010PropOp34
 70
     1
102
RTVSPost2010Prop35
280
     0
102
RTVSPost2010PropOp35
 70
     1
102
RTVSPost2010Prop36
280
     0
102
RTVSPost2010PropOp36
 70
     1
102
RTVSPost2010Prop37
 90
       50
102
RTVSPost2010PropOp37
 70
     0
102
RTVSPost2010Prop38
140
0.0
102
RTVSPost2010PropOp38
 70
     0
102
RTVSPost2010Prop39
140
1.0
102
RTVSPost2010PropOp39
 70
     0
102
RTVSPost2010Prop40
 90
        0
102
RTVSPost2010PropOp40
 70
     0
102
RTVSPost2010Prop41ColorIndex
 90
       18
102
RTVSPost2010Prop41ColorRGB
 90
        0
102
RTVSPost2010PropOp41
 70
     0
102
RTVSPost2010Prop42
 90
       50
102
RTVSPost2010PropOp42
 70
     0
102
RTVSPost2010Prop43
 90
        3
102
RTVSPost2010PropOp43
 70
     0
102
RTVSPost2010Prop44ColorIndex
 90
        5
102
RTVSPost2010Prop44ColorRGB
 90
      255
102
RTVSPost2010PropOp44
 70
     0
102
RTVSPost2010Prop45
280
     0
102
RTVSPost2010PropOp45
 70
     1
102
RTVSPost2010Prop46
 90
       50
102
RTVSPost2010PropOp46
 70
     0
102
RTVSPost2010Prop47
 90
       50
102
RTVSPost2010PropOp47
 70
     0
102
RTVSPost2010Prop48
 90
       50
102
RTVSPost2010PropOp48
 70
     0
102
RTVSPost2010Prop49
280
     0
102
RTVSPost2010PropOp49
 70
     1
102
RTVSPost2010Prop50
 90
       50
102
RTVSPost2010PropOp50
 70
     0
102
RTVSPost2010Prop51ColorIndex
 90
      256
102
RTVSPost2010Prop51ColorRGB
 90
-16777216
102
RTVSPost2010PropOp51
 70
     0
102
RTVSPost2010Prop52
140
1.0
102
RTVSPost2010PropOp52
 70
     0
102
RTVSPost2010Prop53
 90
        2
102
RTVSPost2010PropOp53
 70
     0
102
RTVSPost2010Prop54
  1
strokes_ogs.tif
102
RTVSPost2010PropOp54
 70
     0
102
RTVSPost2010Prop55
280
     0
102
RTVSPost2010PropOp55
 70
     1
102
RTVSPost2010Prop56
140
1.0
102
RTVSPost2010PropOp56
 70
     0
102
RTVSPost2010Prop57
140
1.0
102
RTVSPost2010PropOp57
 70
     0
102
RTVSPropertyOp0
 70
     0
102
RTVSPropertyOp1
 70
     0
102
RTVSPropertyOp2
 70
     0
102
RTVSPropertyOp3
 70
     0
102
RTVSPropertyOp4
 70
     0
102
RTVSPropertyOp5
 70
     0
102
RTVSPropertyOp6
 70
     0
102
RTVSPropertyOp7
 70
     0
102
RTVSPropertyOp8
 70
     0
102
RTVSPropertyOp9
 70
     0
102
RTVSPropertyOp10
 70
     0
102
RTVSPropertyOp11
 70
     0
102
RTVSPropertyOp12
 70
     0
102
RTVSPropertyOp13
 70
     0
102
RTVSPropertyOp14
 70
     2
102
RTVSPropertyOp15
 70
     0
102
RTVSPropertyOp16
 70
     0
102
RTVSPropertyOp17
 70
     0
102
RTVSPropertyOp18
 70
     0
102
RTVSPropertyOp19
 70
     0
102
RTVSPropertyOp20
 70
     0
102
RTVSPropertyOp21
 70
     0
102
RTVSPropertyOp22
 70
     0
102
RTVSPropertyOp23
 70
     0
102
RTVSPropertyOp24
 70
     0
102
RTVSPropertyOp25
 70
     0
102
RTVSPropertyOp26
 70
     0
102
RTVSPropertyOp27
 70
     0
102
RTVSPropertyOp28
 70
     1
102
RTVSPropertyOp29
 70
     1
102
RTVSPropertyOp30
 70
     1
102
RTVSPropertyOp31
 70
     1
102
RTVSPropertyOp32
 70
     1
102
RTVSPropertyOp33
 70
     1
102
RTVSPropertyOp34
 70
     1
102
RTVSPropertyOp35
 70
     1
102
RTVSPropertyOp36
 70
     1
102
RTVSPropertyOp37
 70
     0
102
RTVSPropertyOp38
 70
     0
102
RTVSPropertyOp39
 70
     0
102
RTVSPropertyOp40
 70
     0
102
RTVSPropertyOp41
 70
     0
102
RTVSPropertyOp42
 70
     0
102
RTVSPropertyOp43
 70
     0
102
RTVSPropertyOp44
 70
     0
102
RTVSPropertyOp45
 70
     1
102
RTVSPropertyOp46
 70
     0
102
RTVSPropertyOp47
 70
     0
102
RTVSPropertyOp48
 70
     0
102
RTVSPropertyOp49
 70
     1
102
RTVSPropertyOp50
 70
     0
102
RTVSPropertyOp51
 70
     0
102
RTVSPropertyOp52
 70
     0
102
RTVSPropertyOp53
 70
     0
102
RTVSPropertyOp54
 70
     0
102
RTVSPropertyOp55
 70
     1
102
RTVSPropertyOp56
 70
     0
102
RTVSPropertyOp57
 70
     0
102
RTVSPropertyOp58
 70
     0
102
RTVSPropertyOp59
 70
     0
102
RTVSPropertyOp60
 70
     0
102
RTVSPropertyOp61
 70
     0
102
RTVSPropertyOp62
 70
     0
  0
XRECORD
  5
1F33
102
{ACAD_REACTORS
330
1F32
102
}
330
1F32
100
AcDbXrecord
280
     1
102
RTVSPost2010Prop28
280
     0
102
RTVSPost2010PropOp28
 70
     1
102
RTVSPost2010Prop29
280
     1
102
RTVSPost2010PropOp29
 70
     1
102
RTVSPost2010Prop30
280
     1
102
RTVSPost2010PropOp30
 70
     1
102
RTVSPost2010Prop31
280
     0
102
RTVSPost2010PropOp31
 70
     1
102
RTVSPost2010Prop32
280
     0
102
RTVSPost2010PropOp32
 70
     1
102
RTVSPost2010Prop33
280
     0
102
RTVSPost2010PropOp33
 70
     1
102
RTVSPost2010Prop34
280
     0
102
RTVSPost2010PropOp34
 70
     1
102
RTVSPost2010Prop35
280
     0
102
RTVSPost2010PropOp35
 70
     1
102
RTVSPost2010Prop36
280
     0
102
RTVSPost2010PropOp36
 70
     1
102
RTVSPost2010Prop37
 90
       50
102
RTVSPost2010PropOp37
 70
     1
102
RTVSPost2010Prop38
140
0.0
102
RTVSPost2010PropOp38
 70
     1
102
RTVSPost2010Prop39
140
1.0
102
RTVSPost2010PropOp39
 70
     1
102
RTVSPost2010Prop40
 90
        0
102
RTVSPost2010PropOp40
 70
     1
102
RTVSPost2010Prop41ColorIndex
 90
       18
102
RTVSPost2010Prop41ColorRGB
 90
        0
102
RTVSPost2010PropOp41
 70
     1
102
RTVSPost2010Prop42
 90
       50
102
RTVSPost2010PropOp42
 70
     1
102
RTVSPost2010Prop43
 90
        3
102
RTVSPost2010PropOp43
 70
     1
102
RTVSPost2010Prop44ColorIndex
 90
        5
102
RTVSPost2010Prop44ColorRGB
 90
      255
102
RTVSPost2010PropOp44
 70
     1
102
RTVSPost2010Prop45
280
     0
102
RTVSPost2010PropOp45
 70
     1
102
RTVSPost2010Prop46
 90
       50
102
RTVSPost2010PropOp46
 70
     1
102
RTVSPost2010Prop47
 90
       50
102
RTVSPost2010PropOp47
 70
     1
102
RTVSPost2010Prop48
 90
       50
102
RTVSPost2010PropOp48
 70
     1
102
RTVSPost2010Prop49
280
     0
102
RTVSPost2010PropOp49
 70
     1
102
RTVSPost2010Prop50
 90
       50
102
RTVSPost2010PropOp50
 70
     1
102
RTVSPost2010Prop51ColorIndex
 90
      256
102
RTVSPost2010Prop51ColorRGB
 90
-16777216
102
RTVSPost2010PropOp51
 70
     0
102
RTVSPost2010Prop52
140
1.0
102
RTVSPost2010PropOp52
 70
     0
102
RTVSPost2010Prop53
 90
        2
102
RTVSPost2010PropOp53
 70
     1
102
RTVSPost2010Prop54
  1
strokes_ogs.tif
102
RTVSPost2010PropOp54
 70
     1
102
RTVSPost2010Prop55
280
     0
102
RTVSPost2010PropOp55
 70
     1
102
RTVSPost2010Prop56
140
1.0
102
RTVSPost2010PropOp56
 70
     1
102
RTVSPost2010Prop57
140
1.0
102
RTVSPost2010PropOp57
 70
     1
102
RTVSPropertyOp0
 70
     1
102
RTVSPropertyOp1
 70
     1
102
RTVSPropertyOp2
 70
     1
102
RTVSPropertyOp3
 70
     1
102
RTVSPropertyOp4
 70
     1
102
RTVSPropertyOp5
 70
     1
102
RTVSPropertyOp6
 70
     1
102
RTVSPropertyOp7
 70
     1
102
RTVSPropertyOp8
 70
     1
102
RTVSPropertyOp9
 70
     1
102
RTVSPropertyOp10
 70
     1
102
RTVSPropertyOp11
 70
     1
102
RTVSPropertyOp12
 70
     1
102
RTVSPropertyOp13
 70
     1
102
RTVSPropertyOp14
 70
     1
102
RTVSPropertyOp15
 70
     1
102
RTVSPropertyOp16
 70
     1
102
RTVSPropertyOp17
 70
     1
102
RTVSPropertyOp18
 70
     1
102
RTVSPropertyOp19
 70
     1
102
RTVSPropertyOp20
 70
     1
102
RTVSPropertyOp21
 70
     1
102
RTVSPropertyOp22
 70
     1
102
RTVSPropertyOp23
 70
     1
102
RTVSPropertyOp24
 70
     1
102
RTVSPropertyOp25
 70
     1
102
RTVSPropertyOp26
 70
     1
102
RTVSPropertyOp27
 70
     1
102
RTVSPropertyOp28
 70
     1
102
RTVSPropertyOp29
 70
     1
102
RTVSPropertyOp30
 70
     1
102
RTVSPropertyOp31
 70
     1
102
RTVSPropertyOp32
 70
     1
102
RTVSPropertyOp33
 70
     1
102
RTVSPropertyOp34
 70
     1
102
RTVSPropertyOp35
 70
     1
102
RTVSPropertyOp36
 70
     1
102
RTVSPropertyOp37
 70
     1
102
RTVSPropertyOp38
 70
     1
102
RTVSPropertyOp39
 70
     1
102
RTVSPropertyOp40
 70
     1
102
RTVSPropertyOp41
 70
     1
102
RTVSPropertyOp42
 70
     1
102
RTVSPropertyOp43
 70
     1
102
RTVSPropertyOp44
 70
     1
102
RTVSPropertyOp45
 70
     1
102
RTVSPropertyOp46
 70
     1
102
RTVSPropertyOp47
 70
     1
102
RTVSPropertyOp48
 70
     1
102
RTVSPropertyOp49
 70
     1
102
RTVSPropertyOp50
 70
     1
102
RTVSPropertyOp51
 70
     0
102
RTVSPropertyOp52
 70
     0
102
RTVSPropertyOp53
 70
     1
102
RTVSPropertyOp54
 70
     1
102
RTVSPropertyOp55
 70
     1
102
RTVSPropertyOp56
 70
     1
102
RTVSPropertyOp57
 70
     1
102
RTVSPropertyOp58
 70
     1
102
RTVSPropertyOp59
 70
     1
102
RTVSPropertyOp60
 70
     1
102
RTVSPropertyOp61
 70
     1
102
RTVSPropertyOp62
 70
     1
  0
XRECORD
  5
1F49
102
{ACAD_REACTORS
330
1F48
102
}
330
1F48
100
AcDbXrecord
280
     1
102
RTVSPost2010Prop28
280
     0
102
RTVSPost2010PropOp28
 70
     1
102
RTVSPost2010Prop29
280
     1
102
RTVSPost2010PropOp29
 70
     1
102
RTVSPost2010Prop30
280
     1
102
RTVSPost2010PropOp30
 70
     1
102
RTVSPost2010Prop31
280
     0
102
RTVSPost2010PropOp31
 70
     1
102
RTVSPost2010Prop32
280
     0
102
RTVSPost2010PropOp32
 70
     1
102
RTVSPost2010Prop33
280
     0
102
RTVSPost2010PropOp33
 70
     1
102
RTVSPost2010Prop34
280
     0
102
RTVSPost2010PropOp34
 70
     1
102
RTVSPost2010Prop35
280
     0
102
RTVSPost2010PropOp35
 70
     1
102
RTVSPost2010Prop36
280
     0
102
RTVSPost2010PropOp36
 70
     1
102
RTVSPost2010Prop37
 90
       50
102
RTVSPost2010PropOp37
 70
     0
102
RTVSPost2010Prop38
140
0.0
102
RTVSPost2010PropOp38
 70
     0
102
RTVSPost2010Prop39
140
1.0
102
RTVSPost2010PropOp39
 70
     0
102
RTVSPost2010Prop40
 90
        0
102
RTVSPost2010PropOp40
 70
     0
102
RTVSPost2010Prop41ColorIndex
 90
       18
102
RTVSPost2010Prop41ColorRGB
 90
        0
102
RTVSPost2010PropOp41
 70
     0
102
RTVSPost2010Prop42
 90
       50
102
RTVSPost2010PropOp42
 70
     0
102
RTVSPost2010Prop43
 90
        3
102
RTVSPost2010PropOp43
 70
     0
102
RTVSPost2010Prop44ColorIndex
 90
        5
102
RTVSPost2010Prop44ColorRGB
 90
      255
102
RTVSPost2010PropOp44
 70
     0
102
RTVSPost2010Prop45
280
     0
102
RTVSPost2010PropOp45
 70
     1
102
RTVSPost2010Prop46
 90
       50
102
RTVSPost2010PropOp46
 70
     0
102
RTVSPost2010Prop47
 90
       50
102
RTVSPost2010PropOp47
 70
     0
102
RTVSPost2010Prop48
 90
       50
102
RTVSPost2010PropOp48
 70
     0
102
RTVSPost2010Prop49
280
     0
102
RTVSPost2010PropOp49
 70
     1
102
RTVSPost2010Prop50
 90
       50
102
RTVSPost2010PropOp50
 70
     0
102
RTVSPost2010Prop51ColorIndex
 90
      256
102
RTVSPost2010Prop51ColorRGB
 90
-16777216
102
RTVSPost2010PropOp51
 70
     0
102
RTVSPost2010Prop52
140
1.0
102
RTVSPost2010PropOp52
 70
     0
102
RTVSPost2010Prop53
 90
        2
102
RTVSPost2010PropOp53
 70
     0
102
RTVSPost2010Prop54
  1
strokes_ogs.tif
102
RTVSPost2010PropOp54
 70
     0
102
RTVSPost2010Prop55
280
     0
102
RTVSPost2010PropOp55
 70
     1
102
RTVSPost2010Prop56
140
1.0
102
RTVSPost2010PropOp56
 70
     0
102
RTVSPost2010Prop57
140
1.0
102
RTVSPost2010PropOp57
 70
     0
102
RTVSPropertyOp0
 70
     0
102
RTVSPropertyOp1
 70
     0
102
RTVSPropertyOp2
 70
     0
102
RTVSPropertyOp3
 70
     0
102
RTVSPropertyOp4
 70
     0
102
RTVSPropertyOp5
 70
     0
102
RTVSPropertyOp6
 70
     0
102
RTVSPropertyOp7
 70
     0
102
RTVSPropertyOp8
 70
     0
102
RTVSPropertyOp9
 70
     0
102
RTVSPropertyOp10
 70
     0
102
RTVSPropertyOp11
 70
     0
102
RTVSPropertyOp12
 70
     0
102
RTVSPropertyOp13
 70
     0
102
RTVSPropertyOp14
 70
     2
102
RTVSPropertyOp15
 70
     0
102
RTVSPropertyOp16
 70
     0
102
RTVSPropertyOp17
 70
     0
102
RTVSPropertyOp18
 70
     0
102
RTVSPropertyOp19
 70
     0
102
RTVSPropertyOp20
 70
     0
102
RTVSPropertyOp21
 70
     0
102
RTVSPropertyOp22
 70
     0
102
RTVSPropertyOp23
 70
     0
102
RTVSPropertyOp24
 70
     0
102
RTVSPropertyOp25
 70
     0
102
RTVSPropertyOp26
 70
     0
102
RTVSPropertyOp27
 70
     0
102
RTVSPropertyOp28
 70
     1
102
RTVSPropertyOp29
 70
     1
102
RTVSPropertyOp30
 70
     1
102
RTVSPropertyOp31
 70
     1
102
RTVSPropertyOp32
 70
     1
102
RTVSPropertyOp33
 70
     1
102
RTVSPropertyOp34
 70
     1
102
RTVSPropertyOp35
 70
     1
102
RTVSPropertyOp36
 70
     1
102
RTVSPropertyOp37
 70
     0
102
RTVSPropertyOp38
 70
     0
102
RTVSPropertyOp39
 70
     0
102
RTVSPropertyOp40
 70
     0
102
RTVSPropertyOp41
 70
     0
102
RTVSPropertyOp42
 70
     0
102
RTVSPropertyOp43
 70
     0
102
RTVSPropertyOp44
 70
     0
102
RTVSPropertyOp45
 70
     1
102
RTVSPropertyOp46
 70
     0
102
RTVSPropertyOp47
 70
     0
102
RTVSPropertyOp48
 70
     0
102
RTVSPropertyOp49
 70
     1
102
RTVSPropertyOp50
 70
     0
102
RTVSPropertyOp51
 70
     0
102
RTVSPropertyOp52
 70
     0
102
RTVSPropertyOp53
 70
     0
102
RTVSPropertyOp54
 70
     0
102
RTVSPropertyOp55
 70
     1
102
RTVSPropertyOp56
 70
     0
102
RTVSPropertyOp57
 70
     0
102
RTVSPropertyOp58
 70
     0
102
RTVSPropertyOp59
 70
     0
102
RTVSPropertyOp60
 70
     0
102
RTVSPropertyOp61
 70
     0
102
RTVSPropertyOp62
 70
     0
  0
XRECORD
  5
1F2B
102
{ACAD_REACTORS
330
1F2A
102
}
330
1F2A
100
AcDbXrecord
280
     1
102
RTVSPost2010Prop28
280
     0
102
RTVSPost2010PropOp28
 70
     1
102
RTVSPost2010Prop29
280
     1
102
RTVSPost2010PropOp29
 70
     1
102
RTVSPost2010Prop30
280
     1
102
RTVSPost2010PropOp30
 70
     1
102
RTVSPost2010Prop31
280
     0
102
RTVSPost2010PropOp31
 70
     1
102
RTVSPost2010Prop32
280
     0
102
RTVSPost2010PropOp32
 70
     1
102
RTVSPost2010Prop33
280
     0
102
RTVSPost2010PropOp33
 70
     1
102
RTVSPost2010Prop34
280
     0
102
RTVSPost2010PropOp34
 70
     1
102
RTVSPost2010Prop35
280
     0
102
RTVSPost2010PropOp35
 70
     1
102
RTVSPost2010Prop36
280
     0
102
RTVSPost2010PropOp36
 70
     1
102
RTVSPost2010Prop37
 90
       50
102
RTVSPost2010PropOp37
 70
     1
102
RTVSPost2010Prop38
140
0.0
102
RTVSPost2010PropOp38
 70
     1
102
RTVSPost2010Prop39
140
1.0
102
RTVSPost2010PropOp39
 70
     1
102
RTVSPost2010Prop40
 90
        0
102
RTVSPost2010PropOp40
 70
     1
102
RTVSPost2010Prop41ColorIndex
 90
       18
102
RTVSPost2010Prop41ColorRGB
 90
        0
102
RTVSPost2010PropOp41
 70
     1
102
RTVSPost2010Prop42
 90
       50
102
RTVSPost2010PropOp42
 70
     1
102
RTVSPost2010Prop43
 90
        3
102
RTVSPost2010PropOp43
 70
     1
102
RTVSPost2010Prop44ColorIndex
 90
        5
102
RTVSPost2010Prop44ColorRGB
 90
      255
102
RTVSPost2010PropOp44
 70
     1
102
RTVSPost2010Prop45
280
     0
102
RTVSPost2010PropOp45
 70
     1
102
RTVSPost2010Prop46
 90
       50
102
RTVSPost2010PropOp46
 70
     1
102
RTVSPost2010Prop47
 90
       50
102
RTVSPost2010PropOp47
 70
     1
102
RTVSPost2010Prop48
 90
       50
102
RTVSPost2010PropOp48
 70
     1
102
RTVSPost2010Prop49
280
     0
102
RTVSPost2010PropOp49
 70
     1
102
RTVSPost2010Prop50
 90
       50
102
RTVSPost2010PropOp50
 70
     1
102
RTVSPost2010Prop51ColorIndex
 90
      256
102
RTVSPost2010Prop51ColorRGB
 90
-16777216
102
RTVSPost2010PropOp51
 70
     0
102
RTVSPost2010Prop52
140
1.0
102
RTVSPost2010PropOp52
 70
     0
102
RTVSPost2010Prop53
 90
        2
102
RTVSPost2010PropOp53
 70
     1
102
RTVSPost2010Prop54
  1
strokes_ogs.tif
102
RTVSPost2010PropOp54
 70
     1
102
RTVSPost2010Prop55
280
     0
102
RTVSPost2010PropOp55
 70
     1
102
RTVSPost2010Prop56
140
1.0
102
RTVSPost2010PropOp56
 70
     1
102
RTVSPost2010Prop57
140
1.0
102
RTVSPost2010PropOp57
 70
     1
102
RTVSPropertyOp0
 70
     1
102
RTVSPropertyOp1
 70
     1
102
RTVSPropertyOp2
 70
     1
102
RTVSPropertyOp3
 70
     1
102
RTVSPropertyOp4
 70
     1
102
RTVSPropertyOp5
 70
     1
102
RTVSPropertyOp6
 70
     1
102
RTVSPropertyOp7
 70
     1
102
RTVSPropertyOp8
 70
     1
102
RTVSPropertyOp9
 70
     1
102
RTVSPropertyOp10
 70
     1
102
RTVSPropertyOp11
 70
     1
102
RTVSPropertyOp12
 70
     1
102
RTVSPropertyOp13
 70
     1
102
RTVSPropertyOp14
 70
     1
102
RTVSPropertyOp15
 70
     1
102
RTVSPropertyOp16
 70
     1
102
RTVSPropertyOp17
 70
     1
102
RTVSPropertyOp18
 70
     1
102
RTVSPropertyOp19
 70
     1
102
RTVSPropertyOp20
 70
     1
102
RTVSPropertyOp21
 70
     1
102
RTVSPropertyOp22
 70
     1
102
RTVSPropertyOp23
 70
     1
102
RTVSPropertyOp24
 70
     1
102
RTVSPropertyOp25
 70
     1
102
RTVSPropertyOp26
 70
     1
102
RTVSPropertyOp27
 70
     1
102
RTVSPropertyOp28
 70
     1
102
RTVSPropertyOp29
 70
     1
102
RTVSPropertyOp30
 70
     1
102
RTVSPropertyOp31
 70
     1
102
RTVSPropertyOp32
 70
     1
102
RTVSPropertyOp33
 70
     1
102
RTVSPropertyOp34
 70
     1
102
RTVSPropertyOp35
 70
     1
102
RTVSPropertyOp36
 70
     1
102
RTVSPropertyOp37
 70
     1
102
RTVSPropertyOp38
 70
     1
102
RTVSPropertyOp39
 70
     1
102
RTVSPropertyOp40
 70
     1
102
RTVSPropertyOp41
 70
     1
102
RTVSPropertyOp42
 70
     1
102
RTVSPropertyOp43
 70
     1
102
RTVSPropertyOp44
 70
     1
102
RTVSPropertyOp45
 70
     1
102
RTVSPropertyOp46
 70
     1
102
RTVSPropertyOp47
 70
     1
102
RTVSPropertyOp48
 70
     1
102
RTVSPropertyOp49
 70
     1
102
RTVSPropertyOp50
 70
     1
102
RTVSPropertyOp51
 70
     0
102
RTVSPropertyOp52
 70
     0
102
RTVSPropertyOp53
 70
     1
102
RTVSPropertyOp54
 70
     1
102
RTVSPropertyOp55
 70
     1
102
RTVSPropertyOp56
 70
     1
102
RTVSPropertyOp57
 70
     1
102
RTVSPropertyOp58
 70
     1
102
RTVSPropertyOp59
 70
     1
102
RTVSPropertyOp60
 70
     1
102
RTVSPropertyOp61
 70
     1
102
RTVSPropertyOp62
 70
     1
  0
XRECORD
  5
1F45
102
{ACAD_REACTORS
330
1F44
102
}
330
1F44
100
AcDbXrecord
280
     1
102
RTVSPost2010Prop28
280
     0
102
RTVSPost2010PropOp28
 70
     1
102
RTVSPost2010Prop29
280
     1
102
RTVSPost2010PropOp29
 70
     1
102
RTVSPost2010Prop30
280
     1
102
RTVSPost2010PropOp30
 70
     1
102
RTVSPost2010Prop31
280
     0
102
RTVSPost2010PropOp31
 70
     1
102
RTVSPost2010Prop32
280
     0
102
RTVSPost2010PropOp32
 70
     1
102
RTVSPost2010Prop33
280
     0
102
RTVSPost2010PropOp33
 70
     1
102
RTVSPost2010Prop34
280
     0
102
RTVSPost2010PropOp34
 70
     1
102
RTVSPost2010Prop35
280
     0
102
RTVSPost2010PropOp35
 70
     1
102
RTVSPost2010Prop36
280
     0
102
RTVSPost2010PropOp36
 70
     1
102
RTVSPost2010Prop37
 90
       50
102
RTVSPost2010PropOp37
 70
     1
102
RTVSPost2010Prop38
140
0.0
102
RTVSPost2010PropOp38
 70
     1
102
RTVSPost2010Prop39
140
1.0
102
RTVSPost2010PropOp39
 70
     1
102
RTVSPost2010Prop40
 90
        0
102
RTVSPost2010PropOp40
 70
     1
102
RTVSPost2010Prop41ColorIndex
 90
       18
102
RTVSPost2010Prop41ColorRGB
 90
        0
102
RTVSPost2010PropOp41
 70
     1
102
RTVSPost2010Prop42
 90
       50
102
RTVSPost2010PropOp42
 70
     1
102
RTVSPost2010Prop43
 90
        3
102
RTVSPost2010PropOp43
 70
     1
102
RTVSPost2010Prop44ColorIndex
 90
        5
102
RTVSPost2010Prop44ColorRGB
 90
      255
102
RTVSPost2010PropOp44
 70
     1
102
RTVSPost2010Prop45
280
     0
102
RTVSPost2010PropOp45
 70
     1
102
RTVSPost2010Prop46
 90
       50
102
RTVSPost2010PropOp46
 70
     1
102
RTVSPost2010Prop47
 90
       50
102
RTVSPost2010PropOp47
 70
     1
102
RTVSPost2010Prop48
 90
       50
102
RTVSPost2010PropOp48
 70
     1
102
RTVSPost2010Prop49
280
     0
102
RTVSPost2010PropOp49
 70
     1
102
RTVSPost2010Prop50
 90
       50
102
RTVSPost2010PropOp50
 70
     1
102
RTVSPost2010Prop51ColorIndex
 90
      256
102
RTVSPost2010Prop51ColorRGB
 90
-16777216
102
RTVSPost2010PropOp51
 70
     0
102
RTVSPost2010Prop52
140
1.0
102
RTVSPost2010PropOp52
 70
     0
102
RTVSPost2010Prop53
 90
        2
102
RTVSPost2010PropOp53
 70
     1
102
RTVSPost2010Prop54
  1
strokes_ogs.tif
102
RTVSPost2010PropOp54
 70
     1
102
RTVSPost2010Prop55
280
     0
102
RTVSPost2010PropOp55
 70
     1
102
RTVSPost2010Prop56
140
1.0
102
RTVSPost2010PropOp56
 70
     1
102
RTVSPost2010Prop57
140
1.0
102
RTVSPost2010PropOp57
 70
     1
102
RTVSPropertyOp0
 70
     1
102
RTVSPropertyOp1
 70
     1
102
RTVSPropertyOp2
 70
     1
102
RTVSPropertyOp3
 70
     1
102
RTVSPropertyOp4
 70
     1
102
RTVSPropertyOp5
 70
     1
102
RTVSPropertyOp6
 70
     1
102
RTVSPropertyOp7
 70
     1
102
RTVSPropertyOp8
 70
     1
102
RTVSPropertyOp9
 70
     1
102
RTVSPropertyOp10
 70
     1
102
RTVSPropertyOp11
 70
     1
102
RTVSPropertyOp12
 70
     1
102
RTVSPropertyOp13
 70
     1
102
RTVSPropertyOp14
 70
     1
102
RTVSPropertyOp15
 70
     1
102
RTVSPropertyOp16
 70
     1
102
RTVSPropertyOp17
 70
     1
102
RTVSPropertyOp18
 70
     1
102
RTVSPropertyOp19
 70
     1
102
RTVSPropertyOp20
 70
     1
102
RTVSPropertyOp21
 70
     1
102
RTVSPropertyOp22
 70
     1
102
RTVSPropertyOp23
 70
     1
102
RTVSPropertyOp24
 70
     1
102
RTVSPropertyOp25
 70
     1
102
RTVSPropertyOp26
 70
     1
102
RTVSPropertyOp27
 70
     1
102
RTVSPropertyOp28
 70
     1
102
RTVSPropertyOp29
 70
     1
102
RTVSPropertyOp30
 70
     1
102
RTVSPropertyOp31
 70
     1
102
RTVSPropertyOp32
 70
     1
102
RTVSPropertyOp33
 70
     1
102
RTVSPropertyOp34
 70
     1
102
RTVSPropertyOp35
 70
     1
102
RTVSPropertyOp36
 70
     1
102
RTVSPropertyOp37
 70
     1
102
RTVSPropertyOp38
 70
     1
102
RTVSPropertyOp39
 70
     1
102
RTVSPropertyOp40
 70
     1
102
RTVSPropertyOp41
 70
     1
102
RTVSPropertyOp42
 70
     1
102
RTVSPropertyOp43
 70
     1
102
RTVSPropertyOp44
 70
     1
102
RTVSPropertyOp45
 70
     1
102
RTVSPropertyOp46
 70
     1
102
RTVSPropertyOp47
 70
     1
102
RTVSPropertyOp48
 70
     1
102
RTVSPropertyOp49
 70
     1
102
RTVSPropertyOp50
 70
     1
102
RTVSPropertyOp51
 70
     0
102
RTVSPropertyOp52
 70
     0
102
RTVSPropertyOp53
 70
     1
102
RTVSPropertyOp54
 70
     1
102
RTVSPropertyOp55
 70
     1
102
RTVSPropertyOp56
 70
     1
102
RTVSPropertyOp57
 70
     1
102
RTVSPropertyOp58
 70
     1
102
RTVSPropertyOp59
 70
     1
102
RTVSPropertyOp60
 70
     1
102
RTVSPropertyOp61
 70
     1
102
RTVSPropertyOp62
 70
     1
  0
XRECORD
  5
1F43
102
{ACAD_REACTORS
330
1F42
102
}
330
1F42
100
AcDbXrecord
280
     1
102
RTVSPost2010Prop28
280
     0
102
RTVSPost2010PropOp28
 70
     1
102
RTVSPost2010Prop29
280
     1
102
RTVSPost2010PropOp29
 70
     1
102
RTVSPost2010Prop30
280
     1
102
RTVSPost2010PropOp30
 70
     1
102
RTVSPost2010Prop31
280
     0
102
RTVSPost2010PropOp31
 70
     1
102
RTVSPost2010Prop32
280
     0
102
RTVSPost2010PropOp32
 70
     1
102
RTVSPost2010Prop33
280
     0
102
RTVSPost2010PropOp33
 70
     1
102
RTVSPost2010Prop34
280
     0
102
RTVSPost2010PropOp34
 70
     1
102
RTVSPost2010Prop35
280
     0
102
RTVSPost2010PropOp35
 70
     1
102
RTVSPost2010Prop36
280
     0
102
RTVSPost2010PropOp36
 70
     1
102
RTVSPost2010Prop37
 90
       50
102
RTVSPost2010PropOp37
 70
     1
102
RTVSPost2010Prop38
140
0.0
102
RTVSPost2010PropOp38
 70
     1
102
RTVSPost2010Prop39
140
1.0
102
RTVSPost2010PropOp39
 70
     1
102
RTVSPost2010Prop40
 90
        0
102
RTVSPost2010PropOp40
 70
     1
102
RTVSPost2010Prop41ColorIndex
 90
       18
102
RTVSPost2010Prop41ColorRGB
 90
        0
102
RTVSPost2010PropOp41
 70
     1
102
RTVSPost2010Prop42
 90
       50
102
RTVSPost2010PropOp42
 70
     1
102
RTVSPost2010Prop43
 90
        3
102
RTVSPost2010PropOp43
 70
     1
102
RTVSPost2010Prop44ColorIndex
 90
        5
102
RTVSPost2010Prop44ColorRGB
 90
      255
102
RTVSPost2010PropOp44
 70
     1
102
RTVSPost2010Prop45
280
     0
102
RTVSPost2010PropOp45
 70
     1
102
RTVSPost2010Prop46
 90
       50
102
RTVSPost2010PropOp46
 70
     1
102
RTVSPost2010Prop47
 90
       50
102
RTVSPost2010PropOp47
 70
     1
102
RTVSPost2010Prop48
 90
       50
102
RTVSPost2010PropOp48
 70
     1
102
RTVSPost2010Prop49
280
     0
102
RTVSPost2010PropOp49
 70
     1
102
RTVSPost2010Prop50
 90
       50
102
RTVSPost2010PropOp50
 70
     1
102
RTVSPost2010Prop51ColorIndex
 90
      256
102
RTVSPost2010Prop51ColorRGB
 90
-16777216
102
RTVSPost2010PropOp51
 70
     0
102
RTVSPost2010Prop52
140
1.0
102
RTVSPost2010PropOp52
 70
     0
102
RTVSPost2010Prop53
 90
        2
102
RTVSPost2010PropOp53
 70
     1
102
RTVSPost2010Prop54
  1
strokes_ogs.tif
102
RTVSPost2010PropOp54
 70
     1
102
RTVSPost2010Prop55
280
     0
102
RTVSPost2010PropOp55
 70
     1
102
RTVSPost2010Prop56
140
1.0
102
RTVSPost2010PropOp56
 70
     1
102
RTVSPost2010Prop57
140
1.0
102
RTVSPost2010PropOp57
 70
     1
102
RTVSPropertyOp0
 70
     1
102
RTVSPropertyOp1
 70
     1
102
RTVSPropertyOp2
 70
     1
102
RTVSPropertyOp3
 70
     1
102
RTVSPropertyOp4
 70
     1
102
RTVSPropertyOp5
 70
     1
102
RTVSPropertyOp6
 70
     1
102
RTVSPropertyOp7
 70
     1
102
RTVSPropertyOp8
 70
     1
102
RTVSPropertyOp9
 70
     1
102
RTVSPropertyOp10
 70
     1
102
RTVSPropertyOp11
 70
     1
102
RTVSPropertyOp12
 70
     1
102
RTVSPropertyOp13
 70
     1
102
RTVSPropertyOp14
 70
     1
102
RTVSPropertyOp15
 70
     1
102
RTVSPropertyOp16
 70
     1
102
RTVSPropertyOp17
 70
     1
102
RTVSPropertyOp18
 70
     1
102
RTVSPropertyOp19
 70
     1
102
RTVSPropertyOp20
 70
     1
102
RTVSPropertyOp21
 70
     1
102
RTVSPropertyOp22
 70
     1
102
RTVSPropertyOp23
 70
     1
102
RTVSPropertyOp24
 70
     1
102
RTVSPropertyOp25
 70
     1
102
RTVSPropertyOp26
 70
     1
102
RTVSPropertyOp27
 70
     1
102
RTVSPropertyOp28
 70
     1
102
RTVSPropertyOp29
 70
     1
102
RTVSPropertyOp30
 70
     1
102
RTVSPropertyOp31
 70
     1
102
RTVSPropertyOp32
 70
     1
102
RTVSPropertyOp33
 70
     1
102
RTVSPropertyOp34
 70
     1
102
RTVSPropertyOp35
 70
     1
102
RTVSPropertyOp36
 70
     1
102
RTVSPropertyOp37
 70
     1
102
RTVSPropertyOp38
 70
     1
102
RTVSPropertyOp39
 70
     1
102
RTVSPropertyOp40
 70
     1
102
RTVSPropertyOp41
 70
     1
102
RTVSPropertyOp42
 70
     1
102
RTVSPropertyOp43
 70
     1
102
RTVSPropertyOp44
 70
     1
102
RTVSPropertyOp45
 70
     1
102
RTVSPropertyOp46
 70
     1
102
RTVSPropertyOp47
 70
     1
102
RTVSPropertyOp48
 70
     1
102
RTVSPropertyOp49
 70
     1
102
RTVSPropertyOp50
 70
     1
102
RTVSPropertyOp51
 70
     0
102
RTVSPropertyOp52
 70
     0
102
RTVSPropertyOp53
 70
     1
102
RTVSPropertyOp54
 70
     1
102
RTVSPropertyOp55
 70
     1
102
RTVSPropertyOp56
 70
     1
102
RTVSPropertyOp57
 70
     1
102
RTVSPropertyOp58
 70
     1
102
RTVSPropertyOp59
 70
     1
102
RTVSPropertyOp60
 70
     1
102
RTVSPropertyOp61
 70
     1
102
RTVSPropertyOp62
 70
     1
  0
XRECORD
  5
1F3D
102
{ACAD_REACTORS
330
1F3C
102
}
330
1F3C
100
AcDbXrecord
280
     1
102
RTVSPost2010Prop28
280
     0
102
RTVSPost2010PropOp28
 70
     1
102
RTVSPost2010Prop29
280
     1
102
RTVSPost2010PropOp29
 70
     1
102
RTVSPost2010Prop30
280
     1
102
RTVSPost2010PropOp30
 70
     1
102
RTVSPost2010Prop31
280
     0
102
RTVSPost2010PropOp31
 70
     1
102
RTVSPost2010Prop32
280
     0
102
RTVSPost2010PropOp32
 70
     1
102
RTVSPost2010Prop33
280
     0
102
RTVSPost2010PropOp33
 70
     1
102
RTVSPost2010Prop34
280
     0
102
RTVSPost2010PropOp34
 70
     1
102
RTVSPost2010Prop35
280
     0
102
RTVSPost2010PropOp35
 70
     1
102
RTVSPost2010Prop36
280
     0
102
RTVSPost2010PropOp36
 70
     1
102
RTVSPost2010Prop37
 90
       50
102
RTVSPost2010PropOp37
 70
     1
102
RTVSPost2010Prop38
140
0.0
102
RTVSPost2010PropOp38
 70
     1
102
RTVSPost2010Prop39
140
1.0
102
RTVSPost2010PropOp39
 70
     1
102
RTVSPost2010Prop40
 90
        0
102
RTVSPost2010PropOp40
 70
     1
102
RTVSPost2010Prop41ColorIndex
 90
       18
102
RTVSPost2010Prop41ColorRGB
 90
        0
102
RTVSPost2010PropOp41
 70
     1
102
RTVSPost2010Prop42
 90
       50
102
RTVSPost2010PropOp42
 70
     1
102
RTVSPost2010Prop43
 90
        3
102
RTVSPost2010PropOp43
 70
     1
102
RTVSPost2010Prop44ColorIndex
 90
        5
102
RTVSPost2010Prop44ColorRGB
 90
      255
102
RTVSPost2010PropOp44
 70
     1
102
RTVSPost2010Prop45
280
     0
102
RTVSPost2010PropOp45
 70
     1
102
RTVSPost2010Prop46
 90
       50
102
RTVSPost2010PropOp46
 70
     1
102
RTVSPost2010Prop47
 90
       50
102
RTVSPost2010PropOp47
 70
     1
102
RTVSPost2010Prop48
 90
       50
102
RTVSPost2010PropOp48
 70
     1
102
RTVSPost2010Prop49
280
     0
102
RTVSPost2010PropOp49
 70
     1
102
RTVSPost2010Prop50
 90
       50
102
RTVSPost2010PropOp50
 70
     1
102
RTVSPost2010Prop51ColorIndex
 90
      256
102
RTVSPost2010Prop51ColorRGB
 90
-16777216
102
RTVSPost2010PropOp51
 70
     0
102
RTVSPost2010Prop52
140
1.0
102
RTVSPost2010PropOp52
 70
     0
102
RTVSPost2010Prop53
 90
        2
102
RTVSPost2010PropOp53
 70
     1
102
RTVSPost2010Prop54
  1
strokes_ogs.tif
102
RTVSPost2010PropOp54
 70
     1
102
RTVSPost2010Prop55
280
     0
102
RTVSPost2010PropOp55
 70
     1
102
RTVSPost2010Prop56
140
1.0
102
RTVSPost2010PropOp56
 70
     1
102
RTVSPost2010Prop57
140
1.0
102
RTVSPost2010PropOp57
 70
     1
102
RTVSPropertyOp0
 70
     1
102
RTVSPropertyOp1
 70
     1
102
RTVSPropertyOp2
 70
     1
102
RTVSPropertyOp3
 70
     1
102
RTVSPropertyOp4
 70
     1
102
RTVSPropertyOp5
 70
     1
102
RTVSPropertyOp6
 70
     1
102
RTVSPropertyOp7
 70
     1
102
RTVSPropertyOp8
 70
     1
102
RTVSPropertyOp9
 70
     1
102
RTVSPropertyOp10
 70
     1
102
RTVSPropertyOp11
 70
     1
102
RTVSPropertyOp12
 70
     1
102
RTVSPropertyOp13
 70
     1
102
RTVSPropertyOp14
 70
     1
102
RTVSPropertyOp15
 70
     1
102
RTVSPropertyOp16
 70
     1
102
RTVSPropertyOp17
 70
     1
102
RTVSPropertyOp18
 70
     1
102
RTVSPropertyOp19
 70
     1
102
RTVSPropertyOp20
 70
     1
102
RTVSPropertyOp21
 70
     1
102
RTVSPropertyOp22
 70
     1
102
RTVSPropertyOp23
 70
     1
102
RTVSPropertyOp24
 70
     1
102
RTVSPropertyOp25
 70
     1
102
RTVSPropertyOp26
 70
     1
102
RTVSPropertyOp27
 70
     1
102
RTVSPropertyOp28
 70
     1
102
RTVSPropertyOp29
 70
     1
102
RTVSPropertyOp30
 70
     1
102
RTVSPropertyOp31
 70
     1
102
RTVSPropertyOp32
 70
     1
102
RTVSPropertyOp33
 70
     1
102
RTVSPropertyOp34
 70
     1
102
RTVSPropertyOp35
 70
     1
102
RTVSPropertyOp36
 70
     1
102
RTVSPropertyOp37
 70
     1
102
RTVSPropertyOp38
 70
     1
102
RTVSPropertyOp39
 70
     1
102
RTVSPropertyOp40
 70
     1
102
RTVSPropertyOp41
 70
     1
102
RTVSPropertyOp42
 70
     1
102
RTVSPropertyOp43
 70
     1
102
RTVSPropertyOp44
 70
     1
102
RTVSPropertyOp45
 70
     1
102
RTVSPropertyOp46
 70
     1
102
RTVSPropertyOp47
 70
     1
102
RTVSPropertyOp48
 70
     1
102
RTVSPropertyOp49
 70
     1
102
RTVSPropertyOp50
 70
     1
102
RTVSPropertyOp51
 70
     0
102
RTVSPropertyOp52
 70
     0
102
RTVSPropertyOp53
 70
     1
102
RTVSPropertyOp54
 70
     1
102
RTVSPropertyOp55
 70
     1
102
RTVSPropertyOp56
 70
     1
102
RTVSPropertyOp57
 70
     1
102
RTVSPropertyOp58
 70
     1
102
RTVSPropertyOp59
 70
     1
102
RTVSPropertyOp60
 70
     1
102
RTVSPropertyOp61
 70
     1
102
RTVSPropertyOp62
 70
     1
  0
XRECORD
  5
1F3F
102
{ACAD_REACTORS
330
1F3E
102
}
330
1F3E
100
AcDbXrecord
280
     1
102
RTVSPost2010Prop28
280
     0
102
RTVSPost2010PropOp28
 70
     1
102
RTVSPost2010Prop29
280
     1
102
RTVSPost2010PropOp29
 70
     1
102
RTVSPost2010Prop30
280
     1
102
RTVSPost2010PropOp30
 70
     1
102
RTVSPost2010Prop31
280
     0
102
RTVSPost2010PropOp31
 70
     1
102
RTVSPost2010Prop32
280
     0
102
RTVSPost2010PropOp32
 70
     1
102
RTVSPost2010Prop33
280
     0
102
RTVSPost2010PropOp33
 70
     1
102
RTVSPost2010Prop34
280
     0
102
RTVSPost2010PropOp34
 70
     1
102
RTVSPost2010Prop35
280
     0
102
RTVSPost2010PropOp35
 70
     1
102
RTVSPost2010Prop36
280
     0
102
RTVSPost2010PropOp36
 70
     1
102
RTVSPost2010Prop37
 90
       50
102
RTVSPost2010PropOp37
 70
     1
102
RTVSPost2010Prop38
140
0.0
102
RTVSPost2010PropOp38
 70
     1
102
RTVSPost2010Prop39
140
1.0
102
RTVSPost2010PropOp39
 70
     1
102
RTVSPost2010Prop40
 90
        0
102
RTVSPost2010PropOp40
 70
     1
102
RTVSPost2010Prop41ColorIndex
 90
       18
102
RTVSPost2010Prop41ColorRGB
 90
        0
102
RTVSPost2010PropOp41
 70
     1
102
RTVSPost2010Prop42
 90
       50
102
RTVSPost2010PropOp42
 70
     1
102
RTVSPost2010Prop43
 90
        3
102
RTVSPost2010PropOp43
 70
     1
102
RTVSPost2010Prop44ColorIndex
 90
        5
102
RTVSPost2010Prop44ColorRGB
 90
      255
102
RTVSPost2010PropOp44
 70
     1
102
RTVSPost2010Prop45
280
     0
102
RTVSPost2010PropOp45
 70
     1
102
RTVSPost2010Prop46
 90
       50
102
RTVSPost2010PropOp46
 70
     1
102
RTVSPost2010Prop47
 90
       50
102
RTVSPost2010PropOp47
 70
     1
102
RTVSPost2010Prop48
 90
       50
102
RTVSPost2010PropOp48
 70
     1
102
RTVSPost2010Prop49
280
     0
102
RTVSPost2010PropOp49
 70
     1
102
RTVSPost2010Prop50
 90
       50
102
RTVSPost2010PropOp50
 70
     1
102
RTVSPost2010Prop51ColorIndex
 90
      256
102
RTVSPost2010Prop51ColorRGB
 90
-16777216
102
RTVSPost2010PropOp51
 70
     0
102
RTVSPost2010Prop52
140
1.0
102
RTVSPost2010PropOp52
 70
     0
102
RTVSPost2010Prop53
 90
        2
102
RTVSPost2010PropOp53
 70
     1
102
RTVSPost2010Prop54
  1
strokes_ogs.tif
102
RTVSPost2010PropOp54
 70
     1
102
RTVSPost2010Prop55
280
     0
102
RTVSPost2010PropOp55
 70
     1
102
RTVSPost2010Prop56
140
1.0
102
RTVSPost2010PropOp56
 70
     1
102
RTVSPost2010Prop57
140
1.0
102
RTVSPost2010PropOp57
 70
     1
102
RTVSPropertyOp0
 70
     1
102
RTVSPropertyOp1
 70
     1
102
RTVSPropertyOp2
 70
     1
102
RTVSPropertyOp3
 70
     1
102
RTVSPropertyOp4
 70
     1
102
RTVSPropertyOp5
 70
     1
102
RTVSPropertyOp6
 70
     1
102
RTVSPropertyOp7
 70
     1
102
RTVSPropertyOp8
 70
     1
102
RTVSPropertyOp9
 70
     1
102
RTVSPropertyOp10
 70
     1
102
RTVSPropertyOp11
 70
     1
102
RTVSPropertyOp12
 70
     1
102
RTVSPropertyOp13
 70
     1
102
RTVSPropertyOp14
 70
     1
102
RTVSPropertyOp15
 70
     1
102
RTVSPropertyOp16
 70
     1
102
RTVSPropertyOp17
 70
     1
102
RTVSPropertyOp18
 70
     1
102
RTVSPropertyOp19
 70
     1
102
RTVSPropertyOp20
 70
     1
102
RTVSPropertyOp21
 70
     1
102
RTVSPropertyOp22
 70
     1
102
RTVSPropertyOp23
 70
     1
102
RTVSPropertyOp24
 70
     1
102
RTVSPropertyOp25
 70
     1
102
RTVSPropertyOp26
 70
     1
102
RTVSPropertyOp27
 70
     1
102
RTVSPropertyOp28
 70
     1
102
RTVSPropertyOp29
 70
     1
102
RTVSPropertyOp30
 70
     1
102
RTVSPropertyOp31
 70
     1
102
RTVSPropertyOp32
 70
     1
102
RTVSPropertyOp33
 70
     1
102
RTVSPropertyOp34
 70
     1
102
RTVSPropertyOp35
 70
     1
102
RTVSPropertyOp36
 70
     1
102
RTVSPropertyOp37
 70
     1
102
RTVSPropertyOp38
 70
     1
102
RTVSPropertyOp39
 70
     1
102
RTVSPropertyOp40
 70
     1
102
RTVSPropertyOp41
 70
     1
102
RTVSPropertyOp42
 70
     1
102
RTVSPropertyOp43
 70
     1
102
RTVSPropertyOp44
 70
     1
102
RTVSPropertyOp45
 70
     1
102
RTVSPropertyOp46
 70
     1
102
RTVSPropertyOp47
 70
     1
102
RTVSPropertyOp48
 70
     1
102
RTVSPropertyOp49
 70
     1
102
RTVSPropertyOp50
 70
     1
102
RTVSPropertyOp51
 70
     0
102
RTVSPropertyOp52
 70
     0
102
RTVSPropertyOp53
 70
     1
102
RTVSPropertyOp54
 70
     1
102
RTVSPropertyOp55
 70
     1
102
RTVSPropertyOp56
 70
     1
102
RTVSPropertyOp57
 70
     1
102
RTVSPropertyOp58
 70
     1
102
RTVSPropertyOp59
 70
     1
102
RTVSPropertyOp60
 70
     1
102
RTVSPropertyOp61
 70
     1
102
RTVSPropertyOp62
 70
     1
  0
XRECORD
  5
1F31
102
{ACAD_REACTORS
330
1F30
102
}
330
1F30
100
AcDbXrecord
280
     1
102
RTVSPost2010Prop28
280
     0
102
RTVSPost2010PropOp28
 70
     1
102
RTVSPost2010Prop29
280
     1
102
RTVSPost2010PropOp29
 70
     1
102
RTVSPost2010Prop30
280
     1
102
RTVSPost2010PropOp30
 70
     1
102
RTVSPost2010Prop31
280
     0
102
RTVSPost2010PropOp31
 70
     1
102
RTVSPost2010Prop32
280
     0
102
RTVSPost2010PropOp32
 70
     1
102
RTVSPost2010Prop33
280
     0
102
RTVSPost2010PropOp33
 70
     1
102
RTVSPost2010Prop34
280
     0
102
RTVSPost2010PropOp34
 70
     1
102
RTVSPost2010Prop35
280
     0
102
RTVSPost2010PropOp35
 70
     1
102
RTVSPost2010Prop36
280
     0
102
RTVSPost2010PropOp36
 70
     1
102
RTVSPost2010Prop37
 90
       50
102
RTVSPost2010PropOp37
 70
     1
102
RTVSPost2010Prop38
140
0.0
102
RTVSPost2010PropOp38
 70
     1
102
RTVSPost2010Prop39
140
1.0
102
RTVSPost2010PropOp39
 70
     1
102
RTVSPost2010Prop40
 90
        0
102
RTVSPost2010PropOp40
 70
     1
102
RTVSPost2010Prop41ColorIndex
 90
       18
102
RTVSPost2010Prop41ColorRGB
 90
        0
102
RTVSPost2010PropOp41
 70
     1
102
RTVSPost2010Prop42
 90
       50
102
RTVSPost2010PropOp42
 70
     1
102
RTVSPost2010Prop43
 90
        3
102
RTVSPost2010PropOp43
 70
     1
102
RTVSPost2010Prop44ColorIndex
 90
        5
102
RTVSPost2010Prop44ColorRGB
 90
      255
102
RTVSPost2010PropOp44
 70
     1
102
RTVSPost2010Prop45
280
     0
102
RTVSPost2010PropOp45
 70
     1
102
RTVSPost2010Prop46
 90
       50
102
RTVSPost2010PropOp46
 70
     1
102
RTVSPost2010Prop47
 90
       50
102
RTVSPost2010PropOp47
 70
     1
102
RTVSPost2010Prop48
 90
       50
102
RTVSPost2010PropOp48
 70
     1
102
RTVSPost2010Prop49
280
     0
102
RTVSPost2010PropOp49
 70
     1
102
RTVSPost2010Prop50
 90
       50
102
RTVSPost2010PropOp50
 70
     1
102
RTVSPost2010Prop51ColorIndex
 90
      256
102
RTVSPost2010Prop51ColorRGB
 90
-16777216
102
RTVSPost2010PropOp51
 70
     0
102
RTVSPost2010Prop52
140
1.0
102
RTVSPost2010PropOp52
 70
     0
102
RTVSPost2010Prop53
 90
        2
102
RTVSPost2010PropOp53
 70
     1
102
RTVSPost2010Prop54
  1
strokes_ogs.tif
102
RTVSPost2010PropOp54
 70
     1
102
RTVSPost2010Prop55
280
     0
102
RTVSPost2010PropOp55
 70
     1
102
RTVSPost2010Prop56
140
1.0
102
RTVSPost2010PropOp56
 70
     1
102
RTVSPost2010Prop57
140
1.0
102
RTVSPost2010PropOp57
 70
     1
102
RTVSPropertyOp0
 70
     1
102
RTVSPropertyOp1
 70
     1
102
RTVSPropertyOp2
 70
     1
102
RTVSPropertyOp3
 70
     1
102
RTVSPropertyOp4
 70
     1
102
RTVSPropertyOp5
 70
     1
102
RTVSPropertyOp6
 70
     1
102
RTVSPropertyOp7
 70
     1
102
RTVSPropertyOp8
 70
     1
102
RTVSPropertyOp9
 70
     1
102
RTVSPropertyOp10
 70
     1
102
RTVSPropertyOp11
 70
     1
102
RTVSPropertyOp12
 70
     1
102
RTVSPropertyOp13
 70
     1
102
RTVSPropertyOp14
 70
     1
102
RTVSPropertyOp15
 70
     1
102
RTVSPropertyOp16
 70
     1
102
RTVSPropertyOp17
 70
     1
102
RTVSPropertyOp18
 70
     1
102
RTVSPropertyOp19
 70
     1
102
RTVSPropertyOp20
 70
     1
102
RTVSPropertyOp21
 70
     1
102
RTVSPropertyOp22
 70
     1
102
RTVSPropertyOp23
 70
     1
102
RTVSPropertyOp24
 70
     1
102
RTVSPropertyOp25
 70
     1
102
RTVSPropertyOp26
 70
     1
102
RTVSPropertyOp27
 70
     1
102
RTVSPropertyOp28
 70
     1
102
RTVSPropertyOp29
 70
     1
102
RTVSPropertyOp30
 70
     1
102
RTVSPropertyOp31
 70
     1
102
RTVSPropertyOp32
 70
     1
102
RTVSPropertyOp33
 70
     1
102
RTVSPropertyOp34
 70
     1
102
RTVSPropertyOp35
 70
     1
102
RTVSPropertyOp36
 70
     1
102
RTVSPropertyOp37
 70
     1
102
RTVSPropertyOp38
 70
     1
102
RTVSPropertyOp39
 70
     1
102
RTVSPropertyOp40
 70
     1
102
RTVSPropertyOp41
 70
     1
102
RTVSPropertyOp42
 70
     1
102
RTVSPropertyOp43
 70
     1
102
RTVSPropertyOp44
 70
     1
102
RTVSPropertyOp45
 70
     1
102
RTVSPropertyOp46
 70
     1
102
RTVSPropertyOp47
 70
     1
102
RTVSPropertyOp48
 70
     1
102
RTVSPropertyOp49
 70
     1
102
RTVSPropertyOp50
 70
     1
102
RTVSPropertyOp51
 70
     0
102
RTVSPropertyOp52
 70
     0
102
RTVSPropertyOp53
 70
     1
102
RTVSPropertyOp54
 70
     1
102
RTVSPropertyOp55
 70
     1
102
RTVSPropertyOp56
 70
     1
102
RTVSPropertyOp57
 70
     1
102
RTVSPropertyOp58
 70
     1
102
RTVSPropertyOp59
 70
     1
102
RTVSPropertyOp60
 70
     1
102
RTVSPropertyOp61
 70
     1
102
RTVSPropertyOp62
 70
     1
  0
XRECORD
  5
1F39
102
{ACAD_REACTORS
330
1F38
102
}
330
1F38
100
AcDbXrecord
280
     1
102
RTVSPost2010Prop28
280
     0
102
RTVSPost2010PropOp28
 70
     1
102
RTVSPost2010Prop29
280
     1
102
RTVSPost2010PropOp29
 70
     1
102
RTVSPost2010Prop30
280
     1
102
RTVSPost2010PropOp30
 70
     1
102
RTVSPost2010Prop31
280
     0
102
RTVSPost2010PropOp31
 70
     1
102
RTVSPost2010Prop32
280
     0
102
RTVSPost2010PropOp32
 70
     1
102
RTVSPost2010Prop33
280
     0
102
RTVSPost2010PropOp33
 70
     1
102
RTVSPost2010Prop34
280
     0
102
RTVSPost2010PropOp34
 70
     1
102
RTVSPost2010Prop35
280
     0
102
RTVSPost2010PropOp35
 70
     1
102
RTVSPost2010Prop36
280
     0
102
RTVSPost2010PropOp36
 70
     1
102
RTVSPost2010Prop37
 90
       50
102
RTVSPost2010PropOp37
 70
     1
102
RTVSPost2010Prop38
140
0.0
102
RTVSPost2010PropOp38
 70
     1
102
RTVSPost2010Prop39
140
1.0
102
RTVSPost2010PropOp39
 70
     1
102
RTVSPost2010Prop40
 90
        0
102
RTVSPost2010PropOp40
 70
     1
102
RTVSPost2010Prop41ColorIndex
 90
       18
102
RTVSPost2010Prop41ColorRGB
 90
        0
102
RTVSPost2010PropOp41
 70
     1
102
RTVSPost2010Prop42
 90
       50
102
RTVSPost2010PropOp42
 70
     1
102
RTVSPost2010Prop43
 90
        3
102
RTVSPost2010PropOp43
 70
     1
102
RTVSPost2010Prop44ColorIndex
 90
        5
102
RTVSPost2010Prop44ColorRGB
 90
      255
102
RTVSPost2010PropOp44
 70
     1
102
RTVSPost2010Prop45
280
     0
102
RTVSPost2010PropOp45
 70
     1
102
RTVSPost2010Prop46
 90
       50
102
RTVSPost2010PropOp46
 70
     1
102
RTVSPost2010Prop47
 90
       50
102
RTVSPost2010PropOp47
 70
     1
102
RTVSPost2010Prop48
 90
       50
102
RTVSPost2010PropOp48
 70
     1
102
RTVSPost2010Prop49
280
     0
102
RTVSPost2010PropOp49
 70
     1
102
RTVSPost2010Prop50
 90
       50
102
RTVSPost2010PropOp50
 70
     1
102
RTVSPost2010Prop51ColorIndex
 90
      256
102
RTVSPost2010Prop51ColorRGB
 90
-16777216
102
RTVSPost2010PropOp51
 70
     0
102
RTVSPost2010Prop52
140
1.0
102
RTVSPost2010PropOp52
 70
     0
102
RTVSPost2010Prop53
 90
        2
102
RTVSPost2010PropOp53
 70
     1
102
RTVSPost2010Prop54
  1
strokes_ogs.tif
102
RTVSPost2010PropOp54
 70
     1
102
RTVSPost2010Prop55
280
     0
102
RTVSPost2010PropOp55
 70
     1
102
RTVSPost2010Prop56
140
1.0
102
RTVSPost2010PropOp56
 70
     1
102
RTVSPost2010Prop57
140
1.0
102
RTVSPost2010PropOp57
 70
     1
102
RTVSPropertyOp0
 70
     1
102
RTVSPropertyOp1
 70
     1
102
RTVSPropertyOp2
 70
     1
102
RTVSPropertyOp3
 70
     1
102
RTVSPropertyOp4
 70
     1
102
RTVSPropertyOp5
 70
     1
102
RTVSPropertyOp6
 70
     1
102
RTVSPropertyOp7
 70
     1
102
RTVSPropertyOp8
 70
     1
102
RTVSPropertyOp9
 70
     1
102
RTVSPropertyOp10
 70
     1
102
RTVSPropertyOp11
 70
     1
102
RTVSPropertyOp12
 70
     1
102
RTVSPropertyOp13
 70
     1
102
RTVSPropertyOp14
 70
     1
102
RTVSPropertyOp15
 70
     1
102
RTVSPropertyOp16
 70
     1
102
RTVSPropertyOp17
 70
     1
102
RTVSPropertyOp18
 70
     1
102
RTVSPropertyOp19
 70
     1
102
RTVSPropertyOp20
 70
     1
102
RTVSPropertyOp21
 70
     1
102
RTVSPropertyOp22
 70
     1
102
RTVSPropertyOp23
 70
     1
102
RTVSPropertyOp24
 70
     1
102
RTVSPropertyOp25
 70
     1
102
RTVSPropertyOp26
 70
     1
102
RTVSPropertyOp27
 70
     1
102
RTVSPropertyOp28
 70
     1
102
RTVSPropertyOp29
 70
     1
102
RTVSPropertyOp30
 70
     1
102
RTVSPropertyOp31
 70
     1
102
RTVSPropertyOp32
 70
     1
102
RTVSPropertyOp33
 70
     1
102
RTVSPropertyOp34
 70
     1
102
RTVSPropertyOp35
 70
     1
102
RTVSPropertyOp36
 70
     1
102
RTVSPropertyOp37
 70
     1
102
RTVSPropertyOp38
 70
     1
102
RTVSPropertyOp39
 70
     1
102
RTVSPropertyOp40
 70
     1
102
RTVSPropertyOp41
 70
     1
102
RTVSPropertyOp42
 70
     1
102
RTVSPropertyOp43
 70
     1
102
RTVSPropertyOp44
 70
     1
102
RTVSPropertyOp45
 70
     1
102
RTVSPropertyOp46
 70
     1
102
RTVSPropertyOp47
 70
     1
102
RTVSPropertyOp48
 70
     1
102
RTVSPropertyOp49
 70
     1
102
RTVSPropertyOp50
 70
     1
102
RTVSPropertyOp51
 70
     0
102
RTVSPropertyOp52
 70
     0
102
RTVSPropertyOp53
 70
     1
102
RTVSPropertyOp54
 70
     1
102
RTVSPropertyOp55
 70
     1
102
RTVSPropertyOp56
 70
     1
102
RTVSPropertyOp57
 70
     1
102
RTVSPropertyOp58
 70
     1
102
RTVSPropertyOp59
 70
     1
102
RTVSPropertyOp60
 70
     1
102
RTVSPropertyOp61
 70
     1
102
RTVSPropertyOp62
 70
     1
  0
XRECORD
  5
1F41
102
{ACAD_REACTORS
330
1F40
102
}
330
1F40
100
AcDbXrecord
280
     1
102
RTVSPost2010Prop28
280
     0
102
RTVSPost2010PropOp28
 70
     1
102
RTVSPost2010Prop29
280
     1
102
RTVSPost2010PropOp29
 70
     1
102
RTVSPost2010Prop30
280
     1
102
RTVSPost2010PropOp30
 70
     1
102
RTVSPost2010Prop31
280
     0
102
RTVSPost2010PropOp31
 70
     1
102
RTVSPost2010Prop32
280
     0
102
RTVSPost2010PropOp32
 70
     1
102
RTVSPost2010Prop33
280
     0
102
RTVSPost2010PropOp33
 70
     1
102
RTVSPost2010Prop34
280
     0
102
RTVSPost2010PropOp34
 70
     1
102
RTVSPost2010Prop35
280
     0
102
RTVSPost2010PropOp35
 70
     1
102
RTVSPost2010Prop36
280
     0
102
RTVSPost2010PropOp36
 70
     1
102
RTVSPost2010Prop37
 90
       50
102
RTVSPost2010PropOp37
 70
     1
102
RTVSPost2010Prop38
140
0.0
102
RTVSPost2010PropOp38
 70
     1
102
RTVSPost2010Prop39
140
1.0
102
RTVSPost2010PropOp39
 70
     1
102
RTVSPost2010Prop40
 90
        0
102
RTVSPost2010PropOp40
 70
     1
102
RTVSPost2010Prop41ColorIndex
 90
       18
102
RTVSPost2010Prop41ColorRGB
 90
        0
102
RTVSPost2010PropOp41
 70
     1
102
RTVSPost2010Prop42
 90
       50
102
RTVSPost2010PropOp42
 70
     1
102
RTVSPost2010Prop43
 90
        3
102
RTVSPost2010PropOp43
 70
     1
102
RTVSPost2010Prop44ColorIndex
 90
        5
102
RTVSPost2010Prop44ColorRGB
 90
      255
102
RTVSPost2010PropOp44
 70
     1
102
RTVSPost2010Prop45
280
     0
102
RTVSPost2010PropOp45
 70
     1
102
RTVSPost2010Prop46
 90
       50
102
RTVSPost2010PropOp46
 70
     1
102
RTVSPost2010Prop47
 90
       50
102
RTVSPost2010PropOp47
 70
     1
102
RTVSPost2010Prop48
 90
       50
102
RTVSPost2010PropOp48
 70
     1
102
RTVSPost2010Prop49
280
     0
102
RTVSPost2010PropOp49
 70
     1
102
RTVSPost2010Prop50
 90
       50
102
RTVSPost2010PropOp50
 70
     1
102
RTVSPost2010Prop51ColorIndex
 90
      256
102
RTVSPost2010Prop51ColorRGB
 90
-16777216
102
RTVSPost2010PropOp51
 70
     0
102
RTVSPost2010Prop52
140
1.0
102
RTVSPost2010PropOp52
 70
     0
102
RTVSPost2010Prop53
 90
        2
102
RTVSPost2010PropOp53
 70
     1
102
RTVSPost2010Prop54
  1
strokes_ogs.tif
102
RTVSPost2010PropOp54
 70
     1
102
RTVSPost2010Prop55
280
     0
102
RTVSPost2010PropOp55
 70
     1
102
RTVSPost2010Prop56
140
1.0
102
RTVSPost2010PropOp56
 70
     1
102
RTVSPost2010Prop57
140
1.0
102
RTVSPost2010PropOp57
 70
     1
102
RTVSPropertyOp0
 70
     1
102
RTVSPropertyOp1
 70
     1
102
RTVSPropertyOp2
 70
     1
102
RTVSPropertyOp3
 70
     1
102
RTVSPropertyOp4
 70
     1
102
RTVSPropertyOp5
 70
     1
102
RTVSPropertyOp6
 70
     1
102
RTVSPropertyOp7
 70
     1
102
RTVSPropertyOp8
 70
     1
102
RTVSPropertyOp9
 70
     1
102
RTVSPropertyOp10
 70
     1
102
RTVSPropertyOp11
 70
     1
102
RTVSPropertyOp12
 70
     1
102
RTVSPropertyOp13
 70
     1
102
RTVSPropertyOp14
 70
     1
102
RTVSPropertyOp15
 70
     1
102
RTVSPropertyOp16
 70
     1
102
RTVSPropertyOp17
 70
     1
102
RTVSPropertyOp18
 70
     1
102
RTVSPropertyOp19
 70
     1
102
RTVSPropertyOp20
 70
     1
102
RTVSPropertyOp21
 70
     1
102
RTVSPropertyOp22
 70
     1
102
RTVSPropertyOp23
 70
     1
102
RTVSPropertyOp24
 70
     1
102
RTVSPropertyOp25
 70
     1
102
RTVSPropertyOp26
 70
     1
102
RTVSPropertyOp27
 70
     1
102
RTVSPropertyOp28
 70
     1
102
RTVSPropertyOp29
 70
     1
102
RTVSPropertyOp30
 70
     1
102
RTVSPropertyOp31
 70
     1
102
RTVSPropertyOp32
 70
     1
102
RTVSPropertyOp33
 70
     1
102
RTVSPropertyOp34
 70
     1
102
RTVSPropertyOp35
 70
     1
102
RTVSPropertyOp36
 70
     1
102
RTVSPropertyOp37
 70
     1
102
RTVSPropertyOp38
 70
     1
102
RTVSPropertyOp39
 70
     1
102
RTVSPropertyOp40
 70
     1
102
RTVSPropertyOp41
 70
     1
102
RTVSPropertyOp42
 70
     1
102
RTVSPropertyOp43
 70
     1
102
RTVSPropertyOp44
 70
     1
102
RTVSPropertyOp45
 70
     1
102
RTVSPropertyOp46
 70
     1
102
RTVSPropertyOp47
 70
     1
102
RTVSPropertyOp48
 70
     1
102
RTVSPropertyOp49
 70
     1
102
RTVSPropertyOp50
 70
     1
102
RTVSPropertyOp51
 70
     0
102
RTVSPropertyOp52
 70
     0
102
RTVSPropertyOp53
 70
     1
102
RTVSPropertyOp54
 70
     1
102
RTVSPropertyOp55
 70
     1
102
RTVSPropertyOp56
 70
     1
102
RTVSPropertyOp57
 70
     1
102
RTVSPropertyOp58
 70
     1
102
RTVSPropertyOp59
 70
     1
102
RTVSPropertyOp60
 70
     1
102
RTVSPropertyOp61
 70
     1
102
RTVSPropertyOp62
 70
     1
  0
ENDSEC
  0
EOF
