  0
SECTION
  2
HEADER
  9
$ACADVER
  1
AC1027
  9
$ACADMAINTVER
 70
   125
  9
$DWGCODEPAGE
  3
ANSI_1252
  9
$LASTSAVEDBY
  1
kaschu
  9
$REQUIREDVERSIONS
160
                 0
  9
$INSBASE
 10
0.0
 20
0.0
 30
0.0
  9
$EXTMIN
 10
-69.40875025587593
 20
-46.65685726082827
 30
0.0
  9
$EXTMAX
 10
1995.440561955127
 20
1543.324848678649
 30
0.0
  9
$LIMMIN
 10
0.0
 20
0.0
  9
$LIMMAX
 10
420.0
 20
297.0
  9
$ORTHOMODE
 70
     0
  9
$REGENMODE
 70
     1
  9
$FILLMODE
 70
     1
  9
$QTEXTMODE
 70
     0
  9
$MIRRTEXT
 70
     1
  9
$LTSCALE
 40
1.0
  9
$ATTMODE
 70
     1
  9
$TEXTSIZE
 40
2.5
  9
$TRACEWID
 40
1.0
  9
$TEXTSTYLE
  7
Standard
  9
$CLAYER
  8
0
  9
$CELTYPE
  6
ByLayer
  9
$CECOLOR
 62
   256
  9
$CELTSCALE
 40
1.0
  9
$DISPSILH
 70
     0
  9
$DIMSCALE
 40
1.0
  9
$DIMASZ
 40
2.5
  9
$DIMEXO
 40
0.625
  9
$DIMDLI
 40
3.75
  9
$DIMRND
 40
0.0
  9
$DIMDLE
 40
0.0
  9
$DIMEXE
 40
1.25
  9
$DIMTP
 40
0.0
  9
$DIMTM
 40
0.0
  9
$DIMTXT
 40
2.5
  9
$DIMCEN
 40
2.5
  9
$DIMTSZ
 40
0.0
  9
$DIMTOL
 70
     0
  9
$DIMLIM
 70
     0
  9
$DIMTIH
 70
     0
  9
$DIMTOH
 70
     0
  9
$DIMSE1
 70
     0
  9
$DIMSE2
 70
     0
  9
$DIMTAD
 70
     1
  9
$DIMZIN
 70
     8
  9
$DIMBLK
  1

  9
$DIMASO
 70
     1
  9
$DIMSHO
 70
     1
  9
$DIMPOST
  1

  9
$DIMAPOST
  1

  9
$DIMALT
 70
     0
  9
$DIMALTD
 70
     3
  9
$DIMALTF
 40
0.03937007874016
  9
$DIMLFAC
 40
1.0
  9
$DIMTOFL
 70
     1
  9
$DIMTVP
 40
0.0
  9
$DIMTIX
 70
     0
  9
$DIMSOXD
 70
     0
  9
$DIMSAH
 70
     0
  9
$DIMBLK1
  1

  9
$DIMBLK2
  1

  9
$DIMSTYLE
  2
ISO-25
  9
$DIMCLRD
 70
     0
  9
$DIMCLRE
 70
     0
  9
$DIMCLRT
 70
     0
  9
$DIMTFAC
 40
1.0
  9
$DIMGAP
 40
0.625
  9
$DIMJUST
 70
     0
  9
$DIMSD1
 70
     0
  9
$DIMSD2
 70
     0
  9
$DIMTOLJ
 70
     0
  9
$DIMTZIN
 70
     8
  9
$DIMALTZ
 70
     0
  9
$DIMALTTZ
 70
     0
  9
$DIMUPT
 70
     0
  9
$DIMDEC
 70
     2
  9
$DIMTDEC
 70
     2
  9
$DIMALTU
 70
     2
  9
$DIMALTTD
 70
     3
  9
$DIMTXSTY
  7
Standard
  9
$DIMAUNIT
 70
     0
  9
$DIMADEC
 70
     0
  9
$DIMALTRND
 40
0.0
  9
$DIMAZIN
 70
     0
  9
$DIMDSEP
 70
    44
  9
$DIMATFIT
 70
     3
  9
$DIMFRAC
 70
     0
  9
$DIMLDRBLK
  1

  9
$DIMLUNIT
 70
     2
  9
$DIMLWD
 70
    -2
  9
$DIMLWE
 70
    -2
  9
$DIMTMOVE
 70
     0
  9
$DIMFXL
 40
1.0
  9
$DIMFXLON
 70
     0
  9
$DIMJOGANG
 40
0.7853981633974483
  9
$DIMTFILL
 70
     0
  9
$DIMTFILLCLR
 70
     0
  9
$DIMARCSYM
 70
     0
  9
$DIMLTYPE
  6

  9
$DIMLTEX1
  6

  9
$DIMLTEX2
  6

  9
$DIMTXTDIRECTION
 70
     0
  9
$LUNITS
 70
     2
  9
$LUPREC
 70
     4
  9
$SKETCHINC
 40
1.0
  9
$FILLETRAD
 40
10.0
  9
$AUNITS
 70
     0
  9
$AUPREC
 70
     0
  9
$MENU
  1
.
  9
$ELEVATION
 40
0.0
  9
$PELEVATION
 40
0.0
  9
$THICKNESS
 40
0.0
  9
$LIMCHECK
 70
     0
  9
$CHAMFERA
 40
0.0
  9
$CHAMFERB
 40
0.0
  9
$CHAMFERC
 40
0.0
  9
$CHAMFERD
 40
0.0
  9
$SKPOLY
 70
     0
  9
$TDCREATE
 40
2459082.501111111
  9
$TDUCREATE
 40
2459082.417789201
  9
$TDUPDATE
 40
2459300.645787037
  9
$TDUUPDATE
 40
2459300.604120370
  9
$TDINDWG
 40
0.0932639005
  9
$TDUSRTIMER
 40
0.0932639005
  9
$USRTIMER
 70
     1
  9
$ANGBASE
 50
0.0
  9
$ANGDIR
 70
     0
  9
$PDMODE
 70
     0
  9
$PDSIZE
 40
0.0
  9
$PLINEWID
 40
0.0
  9
$SPLFRAME
 70
     0
  9
$SPLINETYPE
 70
     6
  9
$SPLINESEGS
 70
     8
  9
$HANDSEED
  5
267B
  9
$SURFTAB1
 70
     6
  9
$SURFTAB2
 70
     6
  9
$SURFTYPE
 70
     6
  9
$SURFU
 70
     6
  9
$SURFV
 70
     6
  9
$UCSBASE
  2

  9
$UCSNAME
  2

  9
$UCSORG
 10
0.0
 20
0.0
 30
0.0
  9
$UCSXDIR
 10
1.0
 20
0.0
 30
0.0
  9
$UCSYDIR
 10
0.0
 20
1.0
 30
0.0
  9
$UCSORTHOREF
  2

  9
$UCSORTHOVIEW
 70
     0
  9
$UCSORGTOP
 10
0.0
 20
0.0
 30
0.0
  9
$UCSORGBOTTOM
 10
0.0
 20
0.0
 30
0.0
  9
$UCSORGLEFT
 10
0.0
 20
0.0
 30
0.0
  9
$UCSORGRIGHT
 10
0.0
 20
0.0
 30
0.0
  9
$UCSORGFRONT
 10
0.0
 20
0.0
 30
0.0
  9
$UCSORGBACK
 10
0.0
 20
0.0
 30
0.0
  9
$PUCSBASE
  2

  9
$PUCSNAME
  2

  9
$PUCSORG
 10
0.0
 20
0.0
 30
0.0
  9
$PUCSXDIR
 10
1.0
 20
0.0
 30
0.0
  9
$PUCSYDIR
 10
0.0
 20
1.0
 30
0.0
  9
$PUCSORTHOREF
  2

  9
$PUCSORTHOVIEW
 70
     0
  9
$PUCSORGTOP
 10
0.0
 20
0.0
 30
0.0
  9
$PUCSORGBOTTOM
 10
0.0
 20
0.0
 30
0.0
  9
$PUCSORGLEFT
 10
0.0
 20
0.0
 30
0.0
  9
$PUCSORGRIGHT
 10
0.0
 20
0.0
 30
0.0
  9
$PUCSORGFRONT
 10
0.0
 20
0.0
 30
0.0
  9
$PUCSORGBACK
 10
0.0
 20
0.0
 30
0.0
  9
$USERI1
 70
     0
  9
$USERI2
 70
     0
  9
$USERI3
 70
     0
  9
$USERI4
 70
     0
  9
$USERI5
 70
     0
  9
$USERR1
 40
0.0
  9
$USERR2
 40
0.0
  9
$USERR3
 40
0.0
  9
$USERR4
 40
0.0
  9
$USERR5
 40
0.0
  9
$WORLDVIEW
 70
     1
  9
$SHADEDGE
 70
     3
  9
$SHADEDIF
 70
    70
  9
$TILEMODE
 70
     1
  9
$MAXACTVP
 70
    64
  9
$PINSBASE
 10
0.0
 20
0.0
 30
0.0
  9
$PLIMCHECK
 70
     0
  9
$PEXTMIN
 10
1.000000000000000E+20
 20
1.000000000000000E+20
 30
1.000000000000000E+20
  9
$PEXTMAX
 10
-1.000000000000000E+20
 20
-1.000000000000000E+20
 30
-1.000000000000000E+20
  9
$PLIMMIN
 10
0.0
 20
0.0
  9
$PLIMMAX
 10
420.0
 20
297.0
  9
$UNITMODE
 70
     0
  9
$VISRETAIN
 70
     1
  9
$PLINEGEN
 70
     0
  9
$PSLTSCALE
 70
     1
  9
$TREEDEPTH
 70
  3020
  9
$CMLSTYLE
  2
Standard
  9
$CMLJUST
 70
     0
  9
$CMLSCALE
 40
20.0
  9
$PROXYGRAPHICS
 70
     1
  9
$MEASUREMENT
 70
     1
  9
$CELWEIGHT
370
    -1
  9
$ENDCAPS
280
     0
  9
$JOINSTYLE
280
     0
  9
$LWDISPLAY
290
     0
  9
$INSUNITS
 70
     5
  9
$HYPERLINKBASE
  1

  9
$STYLESHEET
  1

  9
$XEDIT
290
     1
  9
$CEPSNTYPE
380
     0
  9
$PSTYLEMODE
290
     1
  9
$FINGERPRINTGUID
  2
{921A62D8-B26A-40CB-89FE-00D0C55F98C6}
  9
$VERSIONGUID
  2
{5DF3E699-370B-214D-AD07-2A108B363DEF}
  9
$EXTNAMES
290
     1
  9
$PSVPSCALE
 40
0.0
  9
$OLESTARTUP
290
     0
  9
$SORTENTS
280
   127
  9
$INDEXCTL
280
     0
  9
$HIDETEXT
280
     1
  9
$XCLIPFRAME
280
     2
  9
$HALOGAP
280
     0
  9
$OBSCOLOR
 70
   257
  9
$OBSLTYPE
280
     0
  9
$INTERSECTIONDISPLAY
280
     0
  9
$INTERSECTIONCOLOR
 70
   257
  9
$DIMASSOC
280
     2
  9
$PROJECTNAME
  1

  9
$CAMERADISPLAY
290
     0
  9
$LENSLENGTH
 40
50.0
  9
$CAMERAHEIGHT
 40
0.0
  9
$STEPSPERSEC
 40
2.0
  9
$STEPSIZE
 40
6.0
  9
$3DDWFPREC
 40
2.0
  9
$PSOLWIDTH
 40
5.0
  9
$PSOLHEIGHT
 40
80.0
  9
$LOFTANG1
 40
1.570796326794897
  9
$LOFTANG2
 40
1.570796326794897
  9
$LOFTMAG1
 40
0.0
  9
$LOFTMAG2
 40
0.0
  9
$LOFTPARAM
 70
     7
  9
$LOFTNORMALS
280
     1
  9
$LATITUDE
 40
37.795
  9
$LONGITUDE
 40
-122.394
  9
$NORTHDIRECTION
 40
0.0
  9
$TIMEZONE
 70
 -8000
  9
$LIGHTGLYPHDISPLAY
280
     1
  9
$TILEMODELIGHTSYNCH
280
     1
  9
$CMATERIAL
347
44
  9
$SOLIDHIST
280
     0
  9
$SHOWHIST
280
     1
  9
$DWFFRAME
280
     2
  9
$DGNFRAME
280
     2
  9
$REALWORLDSCALE
290
     1
  9
$INTERFERECOLOR
 62
   256
  9
$INTERFEREOBJVS
345
33
  9
$INTERFEREVPVS
346
30
  9
$CSHADOW
280
     0
  9
$SHADOWPLANELOCATION
 40
0.0
  0
ENDSEC
  0
SECTION
  2
CLASSES
  0
CLASS
  1
ACDBDICTIONARYWDFLT
  2
AcDbDictionaryWithDefault
  3
ObjectDBX Classes
 90
        0
 91
        1
280
     0
281
     0
  0
CLASS
  1
VISUALSTYLE
  2
AcDbVisualStyle
  3
ObjectDBX Classes
 90
     4095
 91
       25
280
     0
281
     0
  0
CLASS
  1
MATERIAL
  2
AcDbMaterial
  3
ObjectDBX Classes
 90
     1153
 91
        3
280
     0
281
     0
  0
CLASS
  1
SCALE
  2
AcDbScale
  3
ObjectDBX Classes
 90
     1153
 91
       33
280
     0
281
     0
  0
CLASS
  1
TABLESTYLE
  2
AcDbTableStyle
  3
ObjectDBX Classes
 90
     4095
 91
        1
280
     0
281
     0
  0
CLASS
  1
MLEADERSTYLE
  2
AcDbMLeaderStyle
  3
ACDB_MLEADERSTYLE_CLASS
 90
     4095
 91
        1
280
     0
281
     0
  0
CLASS
  1
SUN
  2
AcDbSun
  3
SCENEOE
 90
     1153
 91
        1
280
     0
281
     0
  0
CLASS
  1
DICTIONARYVAR
  2
AcDbDictionaryVar
  3
ObjectDBX Classes
 90
        0
 91
        7
280
     0
281
     0
  0
CLASS
  1
CELLSTYLEMAP
  2
AcDbCellStyleMap
  3
ObjectDBX Classes
 90
     1152
 91
        6
280
     0
281
     0
  0
CLASS
  1
ACDBSECTIONVIEWSTYLE
  2
AcDbSectionViewStyle
  3
ObjectDBX Classes
 90
     1025
 91
        2
280
     0
281
     0
  0
CLASS
  1
ACDBDETAILVIEWSTYLE
  2
AcDbDetailViewStyle
  3
ObjectDBX Classes
 90
     1025
 91
        2
280
     0
281
     0
  0
CLASS
  1
DIMASSOC
  2
AcDbDimAssoc
  3
"AcDbDimAssoc|Product Desc:     AcDim ARX App For Dimension|Company:          Autodesk, Inc.|WEB Address:      www.autodesk.com"
 90
        0
 91
        7
280
     0
281
     0
  0
CLASS
  1
SORTENTSTABLE
  2
AcDbSortentsTable
  3
ObjectDBX Classes
 90
        0
 91
        2
280
     0
281
     0
  0
ENDSEC
  0
SECTION
  2
TABLES
  0
TABLE
  2
VPORT
  5
8
330
0
100
AcDbSymbolTable
 70
     1
1001
ACAD
1000
DbSaveVer
1071
      224
  0
VPORT
  5
29
330
8
100
AcDbSymbolTableRecord
100
AcDbViewportTableRecord
  2
*Active
 70
     0
 10
0.0
 20
0.0
 11
1.0
 21
1.0
 12
559.5550236605195
 22
982.7573407776096
 13
0.0
 23
0.0
 14
10.0
 24
10.0
 15
10.0
 25
10.0
 16
0.0
 26
0.0
 36
1.0
 17
0.0
 27
0.0
 37
0.0
 40
2434.309955314243
 41
2.078193832599119
 42
50.0
 43
0.0
 44
0.0
 50
0.0
 51
0.0
 71
     0
 72
   100
 73
     1
 74
     3
 75
     0
 76
     0
 77
     0
 78
     0
281
     0
 65
     1
110
0.0
120
0.0
130
0.0
111
1.0
121
0.0
131
0.0
112
0.0
122
1.0
132
0.0
 79
     0
146
0.0
348
2F
 60
     3
 61
     5
292
     1
282
     1
141
0.0
142
0.0
 63
   250
421
  3355443
361
6D
1001
ACAD_NAV_VCDISPLAY
1070
     3
  0
ENDTAB
  0
TABLE
  2
LTYPE
  5
5
330
0
100
AcDbSymbolTable
 70
    11
  0
LTYPE
  5
14
330
5
100
AcDbSymbolTableRecord
100
AcDbLinetypeTableRecord
  2
ByBlock
 70
     0
  3

 72
    65
 73
     0
 40
0.0
  0
LTYPE
  5
15
330
5
100
AcDbSymbolTableRecord
100
AcDbLinetypeTableRecord
  2
ByLayer
 70
     0
  3

 72
    65
 73
     0
 40
0.0
  0
LTYPE
  5
16
330
5
100
AcDbSymbolTableRecord
100
AcDbLinetypeTableRecord
  2
Continuous
 70
     0
  3
Solid line
 72
    65
 73
     0
 40
0.0
  0
LTYPE
  5
6F
330
5
100
AcDbSymbolTableRecord
100
AcDbLinetypeTableRecord
  2
CUSTOM
 70
     0
  3

 72
    65
 73
     0
 40
0.0
  0
LTYPE
  5
70
330
5
100
AcDbSymbolTableRecord
100
AcDbLinetypeTableRecord
  2
SOLID
 70
     0
  3

 72
    65
 73
     0
 40
0.0
  0
LTYPE
  5
71
330
5
100
AcDbSymbolTableRecord
100
AcDbLinetypeTableRecord
  2
DASHED
 70
     0
  3

 72
    65
 73
     2
 40
2.27109725292296
 49
1.13554862646148
 74
     0
 49
-1.13554862646148
 74
     0
  0
LTYPE
  5
72
330
5
100
AcDbSymbolTableRecord
100
AcDbLinetypeTableRecord
  2
LONG_DASH
 70
     0
  3

 72
    65
 73
     2
 40
2.27109725292296
 49
1.703322939692224
 74
     0
 49
-0.5677743132307414
 74
     0
  0
LTYPE
  5
73
330
5
100
AcDbSymbolTableRecord
100
AcDbLinetypeTableRecord
  2
SHORT_DASH
 70
     0
  3

 72
    65
 73
     4
 40
2.27109725292296
 49
0.4542194505845931
 74
     0
 49
-0.6813291758768897
 74
     0
 49
0.4542194505845931
 74
     0
 49
-0.6813291758768897
 74
     0
  0
LTYPE
  5
74
330
5
100
AcDbSymbolTableRecord
100
AcDbLinetypeTableRecord
  2
DOTTED
 70
     0
  3

 72
    65
 73
     8
 40
2.27109725292296
 49
0.1135548626461483
 74
     0
 49
-0.4542194505845931
 74
     0
 49
0.1135548626461483
 74
     0
 49
-0.4542194505845931
 74
     0
 49
0.1135548626461483
 74
     0
 49
-0.4542194505845931
 74
     0
 49
0.1135548626461483
 74
     0
 49
-0.4542194505845931
 74
     0
  0
LTYPE
  5
75
330
5
100
AcDbSymbolTableRecord
100
AcDbLinetypeTableRecord
  2
DOTDASH
 70
     0
  3

 72
    65
 73
     4
 40
2.27109725292296
 49
0.1135548626461483
 74
     0
 49
-0.5677743132307414
 74
     0
 49
1.021993763815334
 74
     0
 49
-0.5677743132307414
 74
     0
  0
LTYPE
  5
76
330
5
100
AcDbSymbolTableRecord
100
AcDbLinetypeTableRecord
  2
DOTDOTDASH
 70
     0
  3

 72
    65
 73
     6
 40
2.27109725292296
 49
0.1135548626461483
 74
     0
 49
-0.3406645879384448
 74
     0
 49
0.1135548626461483
 74
     0
 49
-0.3406645879384448
 74
     0
 49
1.021993763815334
 74
     0
 49
-0.3406645879384448
 74
     0
  0
LTYPE
  5
77
330
5
100
AcDbSymbolTableRecord
100
AcDbLinetypeTableRecord
  2
DASHDASHDOT
 70
     0
  3

 72
    65
 73
     6
 40
2.27109725292296
 49
0.1135548626461483
 74
     0
 49
-0.3406645879384448
 74
     0
 49
0.1135548626461483
 74
     0
 49
-0.3406645879384448
 74
     0
 49
1.021993763815334
 74
     0
 49
-0.3406645879384448
 74
     0
  0
ENDTAB
  0
TABLE
  2
LAYER
  5
2
102
{ACAD_XDICTIONARY
360
490
102
}
330
0
100
AcDbSymbolTable
 70
     3
  0
LAYER
  5
10
330
2
100
AcDbSymbolTableRecord
100
AcDbLayerTableRecord
  2
0
 70
     0
 62
     7
  6
Continuous
370
    -3
390
F
347
46
348
0
  0
LAYER
  5
46D
330
2
100
AcDbSymbolTableRecord
100
AcDbLayerTableRecord
  2
Defpoints
 70
     0
 62
     7
  6
Continuous
290
     0
370
    -3
390
F
347
46
348
0
  0
LAYER
  5
48D
102
{ACAD_XDICTIONARY
360
48E
102
}
330
2
100
AcDbSymbolTableRecord
100
AcDbLayerTableRecord
  2
Hewi
 70
     0
 62
     7
  6
Continuous
370
    -3
390
F
347
46
348
0
1001
AcAecLayerStandard
1000

1000

  0
ENDTAB
  0
TABLE
  2
STYLE
  5
3
330
0
100
AcDbSymbolTable
 70
     2
  0
STYLE
  5
11
330
3
100
AcDbSymbolTableRecord
100
AcDbTextStyleTableRecord
  2
Standard
 70
     0
 40
0.0
 41
1.0
 50
0.0
 71
     0
 42
2.5
  3
txt
  4

  0
STYLE
  5
1EA8
330
3
100
AcDbSymbolTableRecord
100
AcDbTextStyleTableRecord
  2
ROMANS
 70
     0
 40
0.0
 41
0.8
 50
0.0
 71
     0
 42
45.0
  3
romans.shx
  4

  0
ENDTAB
  0
TABLE
  2
VIEW
  5
6
330
0
100
AcDbSymbolTable
 70
     0
  0
ENDTAB
  0
TABLE
  2
UCS
  5
7
330
0
100
AcDbSymbolTable
 70
     0
  0
ENDTAB
  0
TABLE
  2
APPID
  5
9
330
0
100
AcDbSymbolTable
 70
     5
  0
APPID
  5
12
330
9
100
AcDbSymbolTableRecord
100
AcDbRegAppTableRecord
  2
ACAD
 70
     0
  0
APPID
  5
11A
330
9
100
AcDbSymbolTableRecord
100
AcDbRegAppTableRecord
  2
ACAD_NAV_VCDISPLAY
 70
     0
  0
APPID
  5
463
330
9
100
AcDbSymbolTableRecord
100
AcDbRegAppTableRecord
  2
ACAD_EXEMPT_FROM_CAD_STANDARDS
 70
     0
  0
APPID
  5
48F
330
9
100
AcDbSymbolTableRecord
100
AcDbRegAppTableRecord
  2
AcAecLayerStandard
 70
     0
  0
APPID
  5
1EAA
330
9
100
AcDbSymbolTableRecord
100
AcDbRegAppTableRecord
  2
ACAD_PSEXT
 70
     0
  0
ENDTAB
  0
TABLE
  2
DIMSTYLE
  5
A
330
0
100
AcDbSymbolTable
 70
     3
100
AcDbDimStyleTable
 71
     1
340
27
  0
DIMSTYLE
105
27
330
A
100
AcDbSymbolTableRecord
100
AcDbDimStyleTableRecord
  2
ISO-25
 70
     0
 41
2.5
 42
0.625
 43
3.75
 44
1.25
 73
     0
 74
     0
 77
     1
 78
     8
140
2.5
141
2.5
143
0.03937007874016
147
0.625
171
     3
172
     1
271
     2
272
     2
274
     3
278
    44
283
     0
284
     8
340
11
  0
DIMSTYLE
105
1EA9
330
A
100
AcDbSymbolTableRecord
100
AcDbDimStyleTableRecord
  2
STANDARD
 70
     0
340
11
  0
ENDTAB
  0
TABLE
  2
BLOCK_RECORD
  5
1
330
0
100
AcDbSymbolTable
 70
    15
  0
BLOCK_RECORD
  5
1F
102
{ACAD_XDICTIONARY
360
6E5
102
}
330
1
100
AcDbSymbolTableRecord
100
AcDbBlockTableRecord
  2
*Model_Space
340
22
 70
     0
280
     1
281
     0
  0
BLOCK_RECORD
  5
1B
330
1
100
AcDbSymbolTableRecord
100
AcDbBlockTableRecord
  2
*Paper_Space
340
1E
 70
     0
280
     1
281
     0
  0
BLOCK_RECORD
  5
23
330
1
100
AcDbSymbolTableRecord
100
AcDbBlockTableRecord
  2
*Paper_Space0
340
26
 70
     0
280
     1
281
     0
  0
BLOCK_RECORD
  5
46E
330
1
100
AcDbSymbolTableRecord
100
AcDbBlockTableRecord
  2
*D1
340
0
 70
     0
280
     1
281
     0
  0
BLOCK_RECORD
  5
66A
330
1
100
AcDbSymbolTableRecord
100
AcDbBlockTableRecord
  2
*D2
340
0
 70
     0
280
     1
281
     0
  0
BLOCK_RECORD
  5
1B6F
330
1
100
AcDbSymbolTableRecord
100
AcDbBlockTableRecord
  2
*D3
340
0
 70
     0
280
     1
281
     0
  0
BLOCK_RECORD
  5
1BC4
330
1
100
AcDbSymbolTableRecord
100
AcDbBlockTableRecord
  2
*D4
340
0
 70
     0
280
     1
281
     0
  0
BLOCK_RECORD
  5
2300
330
1
100
AcDbSymbolTableRecord
100
AcDbBlockTableRecord
  2
*D8
340
0
 70
     0
280
     1
281
     0
  0
BLOCK_RECORD
  5
2318
330
1
100
AcDbSymbolTableRecord
100
AcDbBlockTableRecord
  2
*D9
340
0
 70
     0
280
     1
281
     0
  0
BLOCK_RECORD
  5
25A1
330
1
100
AcDbSymbolTableRecord
100
AcDbBlockTableRecord
  2
*D10
340
0
 70
     0
280
     1
281
     0
  0
BLOCK_RECORD
  5
25B9
330
1
100
AcDbSymbolTableRecord
100
AcDbBlockTableRecord
  2
*D11
340
0
 70
     0
280
     1
281
     0
  0
BLOCK_RECORD
  5
25EB
330
1
100
AcDbSymbolTableRecord
100
AcDbBlockTableRecord
  2
*D12
340
0
 70
     0
280
     1
281
     0
  0
BLOCK_RECORD
  5
2628
330
1
100
AcDbSymbolTableRecord
100
AcDbBlockTableRecord
  2
*D13
340
0
 70
     0
280
     1
281
     0
  0
BLOCK_RECORD
  5
2640
330
1
100
AcDbSymbolTableRecord
100
AcDbBlockTableRecord
  2
*D14
340
0
 70
     0
280
     1
281
     0
  0
ENDTAB
  0
ENDSEC
  0
SECTION
  2
BLOCKS
  0
BLOCK
  5
20
330
1F
100
AcDbEntity
  8
0
100
AcDbBlockBegin
  2
*Model_Space
 70
     0
 10
0.0
 20
0.0
 30
0.0
  3
*Model_Space
  1

  0
ENDBLK
  5
21
330
1F
100
AcDbEntity
  8
0
100
AcDbBlockEnd
  0
BLOCK
  5
1C
330
1B
100
AcDbEntity
 67
     1
  8
0
100
AcDbBlockBegin
  2
*Paper_Space
 70
     0
 10
0.0
 20
0.0
 30
0.0
  3
*Paper_Space
  1

  0
ENDBLK
  5
1D
330
1B
100
AcDbEntity
 67
     1
  8
0
100
AcDbBlockEnd
  0
BLOCK
  5
24
330
23
100
AcDbEntity
 67
     1
  8
0
100
AcDbBlockBegin
  2
*Paper_Space0
 70
     0
 10
0.0
 20
0.0
 30
0.0
  3
*Paper_Space0
  1

  0
ENDBLK
  5
25
330
23
100
AcDbEntity
 67
     1
  8
0
100
AcDbBlockEnd
  0
BLOCK
  5
46F
330
46E
100
AcDbEntity
  8
0
100
AcDbBlockBegin
  2
*D1
 70
     1
 10
0.0
 20
0.0
 30
0.0
  3
*D1
  1

  0
LINE
  5
47B
330
46E
100
AcDbEntity
  8
0
 62
     0
440
 16777216
370
    -2
100
AcDbLine
 10
169.1949724005773
 20
163.8184210226795
 30
0.0
 11
169.1949724005773
 21
189.5873868086067
 31
0.0
  0
LINE
  5
47C
330
46E
100
AcDbEntity
  8
0
 62
     0
440
 16777216
370
    -2
100
AcDbLine
 10
209.1949715756394
 20
163.8184210226795
 30
0.0
 11
209.1949715756394
 21
189.5873868086067
 31
0.0
  0
LINE
  5
47D
330
46E
100
AcDbEntity
  8
0
 62
     0
440
 16777216
370
    -2
100
AcDbLine
 10
171.6949724005774
 20
188.3373868086066
 30
0.0
 11
206.6949715756394
 21
188.3373868086066
 31
0.0
  0
SOLID
  5
47E
330
46E
100
AcDbEntity
  8
0
 62
     0
440
 16777216
100
AcDbTrace
 10
171.6949724005774
 20
188.7540534752734
 30
0.0
 11
171.6949724005774
 21
187.9207201419401
 31
0.0
 12
169.1949724005773
 22
188.3373868086066
 32
0.0
 13
169.1949724005773
 23
188.3373868086066
 33
0.0
  0
SOLID
  5
47F
330
46E
100
AcDbEntity
  8
0
 62
     0
440
 16777216
100
AcDbTrace
 10
206.6949715756394
 20
188.7540534752734
 30
0.0
 11
206.6949715756394
 21
187.9207201419401
 31
0.0
 12
209.1949715756394
 22
188.3373868086066
 32
0.0
 13
209.1949715756394
 23
188.3373868086066
 33
0.0
  0
MTEXT
  5
480
330
46E
100
AcDbEntity
  8
0
 62
     0
440
 16777216
100
AcDbMText
 10
189.1949719881084
 20
190.2123868086068
 30
0.0
 40
2.5
 41
0.0
 46
0.0
 71
     5
 72
     1
  1
40
 73
     1
 44
1.0
  0
POINT
  5
481
330
46E
100
AcDbEntity
  8
Defpoints
 62
     0
440
 16777216
100
AcDbPoint
 10
169.1949724005773
 20
163.1934210226795
 30
0.0
  0
POINT
  5
482
330
46E
100
AcDbEntity
  8
Defpoints
 62
     0
440
 16777216
100
AcDbPoint
 10
209.1949715756394
 20
163.1934210226795
 30
0.0
  0
POINT
  5
483
330
46E
100
AcDbEntity
  8
Defpoints
 62
     0
440
 16777216
100
AcDbPoint
 10
209.1949715756394
 20
188.3373868086066
 30
0.0
  0
ENDBLK
  5
470
330
46E
100
AcDbEntity
  8
0
100
AcDbBlockEnd
  0
BLOCK
  5
66B
330
66A
100
AcDbEntity
  8
0
100
AcDbBlockBegin
  2
*D2
 70
     1
 10
0.0
 20
0.0
 30
0.0
  3
*D2
  1

  0
LINE
  5
677
330
66A
100
AcDbEntity
  8
0
 62
     0
440
 16777216
370
    -2
100
AcDbLine
 10
827.7595291992735
 20
1013.325643810532
 30
0.0
 11
827.7595291992735
 21
145.1276556228231
 31
0.0
  0
LINE
  5
678
330
66A
100
AcDbEntity
  8
0
 62
     0
440
 16777216
370
    -2
100
AcDbLine
 10
927.7595321341673
 20
1013.325643810532
 30
0.0
 11
927.7595321341673
 21
145.1276556228231
 31
0.0
  0
LINE
  5
679
330
66A
100
AcDbEntity
  8
0
 62
     0
440
 16777216
370
    -2
100
AcDbLine
 10
830.2595291992735
 20
146.377655622823
 30
0.0
 11
925.2595321341672
 21
146.377655622823
 31
0.0
  0
SOLID
  5
67A
330
66A
100
AcDbEntity
  8
0
 62
     0
440
 16777216
100
AcDbTrace
 10
830.2595291992735
 20
146.7943222894897
 30
0.0
 11
830.2595291992735
 21
145.9609889561564
 31
0.0
 12
827.7595291992735
 22
146.377655622823
 32
0.0
 13
827.7595291992735
 23
146.377655622823
 33
0.0
  0
SOLID
  5
67B
330
66A
100
AcDbEntity
  8
0
 62
     0
440
 16777216
100
AcDbTrace
 10
925.2595321341672
 20
146.7943222894897
 30
0.0
 11
925.2595321341672
 21
145.9609889561564
 31
0.0
 12
927.7595321341673
 22
146.377655622823
 32
0.0
 13
927.7595321341673
 23
146.377655622823
 33
0.0
  0
MTEXT
  5
67C
330
66A
100
AcDbEntity
  8
0
 62
     0
440
 16777216
100
AcDbMText
 10
877.7595306667203
 20
148.2526556228231
 30
0.0
 40
2.5
 41
0.0
 46
0.0
 71
     5
 72
     1
  1
100
 73
     1
 44
1.0
  0
POINT
  5
67D
330
66A
100
AcDbEntity
  8
Defpoints
 62
     0
440
 16777216
100
AcDbPoint
 10
827.7595291992735
 20
1013.950643810532
 30
0.0
  0
POINT
  5
67E
330
66A
100
AcDbEntity
  8
Defpoints
 62
     0
440
 16777216
100
AcDbPoint
 10
927.7595321341673
 20
1013.950643810532
 30
0.0
  0
POINT
  5
67F
330
66A
100
AcDbEntity
  8
Defpoints
 62
     0
440
 16777216
100
AcDbPoint
 10
927.7595321341673
 20
146.377655622823
 30
0.0
  0
ENDBLK
  5
66C
330
66A
100
AcDbEntity
  8
0
100
AcDbBlockEnd
  0
BLOCK
  5
1B70
330
1B6F
100
AcDbEntity
  8
0
100
AcDbBlockBegin
  2
*D3
 70
     1
 10
0.0
 20
0.0
 30
0.0
  3
*D3
  1

  0
LINE
  5
1B7C
330
1B6F
100
AcDbEntity
  8
0
 62
     0
440
 16777216
370
    -2
100
AcDbLine
 10
1557.910298436553
 20
3441.413424574797
 30
0.0
 11
1557.910298436553
 21
3617.746938927363
 31
0.0
  0
LINE
  5
1B7D
330
1B6F
100
AcDbEntity
  8
0
 62
     0
440
 16777216
370
    -2
100
AcDbLine
 10
807.9103005523556
 20
3441.413424574797
 30
0.0
 11
807.9103005523556
 21
3617.746938927363
 31
0.0
  0
LINE
  5
1B7E
330
1B6F
100
AcDbEntity
  8
0
 62
     0
440
 16777216
370
    -2
100
AcDbLine
 10
1555.410298436554
 20
3616.496938927364
 30
0.0
 11
810.4103005523558
 21
3616.496938927364
 31
0.0
  0
SOLID
  5
1B7F
330
1B6F
100
AcDbEntity
  8
0
 62
     0
440
 16777216
100
AcDbTrace
 10
1555.410298436554
 20
3616.913605594029
 30
0.0
 11
1555.410298436554
 21
3616.080272260697
 31
0.0
 12
1557.910298436553
 22
3616.496938927364
 32
0.0
 13
1557.910298436553
 23
3616.496938927364
 33
0.0
  0
SOLID
  5
1B80
330
1B6F
100
AcDbEntity
  8
0
 62
     0
440
 16777216
100
AcDbTrace
 10
810.4103005523558
 20
3616.913605594029
 30
0.0
 11
810.4103005523558
 21
3616.080272260697
 31
0.0
 12
807.9103005523556
 22
3616.496938927364
 32
0.0
 13
807.9103005523556
 23
3616.496938927364
 33
0.0
  0
MTEXT
  5
1B81
330
1B6F
100
AcDbEntity
  8
0
 62
     0
440
 16777216
100
AcDbMText
 10
1182.910299494454
 20
3618.371938927364
 30
0.0
 40
2.5
 41
0.0
 46
0.0
 71
     5
 72
     1
  1
750
 73
     1
 44
1.0
  0
POINT
  5
1B82
330
1B6F
100
AcDbEntity
  8
Defpoints
 62
     0
440
 16777216
100
AcDbPoint
 10
1557.910298436553
 20
3440.788424574797
 30
0.0
  0
POINT
  5
1B83
330
1B6F
100
AcDbEntity
  8
Defpoints
 62
     0
440
 16777216
100
AcDbPoint
 10
807.9103005523556
 20
3440.788424574797
 30
0.0
  0
POINT
  5
1B84
330
1B6F
100
AcDbEntity
  8
Defpoints
 62
     0
440
 16777216
100
AcDbPoint
 10
807.9103005523556
 20
3616.496938927364
 30
0.0
  0
ENDBLK
  5
1B71
330
1B6F
100
AcDbEntity
  8
0
100
AcDbBlockEnd
  0
BLOCK
  5
1BC5
330
1BC4
100
AcDbEntity
  8
0
100
AcDbBlockBegin
  2
*D4
 70
     1
 10
0.0
 20
0.0
 30
0.0
  3
*D4
  1

  0
LINE
  5
1BD1
330
1BC4
100
AcDbEntity
  8
0
 62
     0
440
 16777216
370
    -2
100
AcDbLine
 10
904.2007286765752
 20
1891.346400598426
 30
0.0
 11
696.0945449665707
 21
1891.346400598426
 31
0.0
  0
LINE
  5
1BD2
330
1BC4
100
AcDbEntity
  8
0
 62
     0
440
 16777216
370
    -2
100
AcDbLine
 10
910.6763327113172
 20
1141.346406827947
 30
0.0
 11
696.0945449665708
 21
1141.346406827947
 31
0.0
  0
LINE
  5
1BD3
330
1BC4
100
AcDbEntity
  8
0
 62
     0
440
 16777216
370
    -2
100
AcDbLine
 10
697.3445449665708
 20
1888.846400598426
 30
0.0
 11
697.3445449665709
 21
1143.846406827947
 31
0.0
  0
SOLID
  5
1BD4
330
1BC4
100
AcDbEntity
  8
0
 62
     0
440
 16777216
100
AcDbTrace
 10
696.9278782999041
 20
1888.846400598426
 30
0.0
 11
697.7612116332372
 21
1888.846400598426
 31
0.0
 12
697.3445449665708
 22
1891.346400598426
 32
0.0
 13
697.3445449665708
 23
1891.346400598426
 33
0.0
  0
SOLID
  5
1BD5
330
1BC4
100
AcDbEntity
  8
0
 62
     0
440
 16777216
100
AcDbTrace
 10
696.9278782999041
 20
1143.846406827947
 30
0.0
 11
697.7612116332376
 21
1143.846406827947
 31
0.0
 12
697.3445449665709
 22
1141.346406827947
 32
0.0
 13
697.3445449665709
 23
1141.346406827947
 33
0.0
  0
MTEXT
  5
1BD6
330
1BC4
100
AcDbEntity
  8
0
 62
     0
440
 16777216
100
AcDbMText
 10
695.4695449665712
 20
1516.346403713186
 30
0.0
 40
2.5
 41
0.0
 46
0.0
 71
     5
 72
     1
  1
750
 11
0.0000000000000001
 21
1.0
 31
0.0
 73
     1
 44
1.0
  0
POINT
  5
1BD7
330
1BC4
100
AcDbEntity
  8
Defpoints
 62
     0
440
 16777216
100
AcDbPoint
 10
904.8257286765753
 20
1891.346400598426
 30
0.0
  0
POINT
  5
1BD8
330
1BC4
100
AcDbEntity
  8
Defpoints
 62
     0
440
 16777216
100
AcDbPoint
 10
911.3013327113172
 20
1141.346406827947
 30
0.0
  0
POINT
  5
1BD9
330
1BC4
100
AcDbEntity
  8
Defpoints
 62
     0
440
 16777216
100
AcDbPoint
 10
697.3445449665709
 20
1141.346406827947
 30
0.0
  0
ENDBLK
  5
1BC6
330
1BC4
100
AcDbEntity
  8
0
100
AcDbBlockEnd
  0
BLOCK
  5
2301
330
2300
100
AcDbEntity
  8
0
100
AcDbBlockBegin
  2
*D8
 70
     1
 10
0.0
 20
0.0
 30
0.0
  3
*D8
  1

  0
LINE
  5
230D
330
2300
100
AcDbEntity
  8
0
 62
     0
440
 16777216
370
    -2
100
AcDbLine
 10
219.5208668368542
 20
803.3442749612317
 30
0.0
 11
513.6003302658357
 21
803.3442749612319
 31
0.0
  0
LINE
  5
230E
330
2300
100
AcDbEntity
  8
0
 62
     0
440
 16777216
370
    -2
100
AcDbLine
 10
215.3740360937139
 20
53.75801040244301
 30
0.0
 11
513.6003302658359
 21
53.75801040244304
 31
0.0
  0
LINE
  5
230F
330
2300
100
AcDbEntity
  8
0
 62
     0
440
 16777216
370
    -2
100
AcDbLine
 10
512.3503302658357
 20
800.8442749612319
 30
0.0
 11
512.350330265836
 21
56.25801040244304
 31
0.0
  0
SOLID
  5
2310
330
2300
100
AcDbEntity
  8
0
 62
     0
440
 16777216
100
AcDbTrace
 10
511.933663599169
 20
800.8442749612319
 30
0.0
 11
512.7669969325023
 21
800.8442749612319
 31
0.0
 12
512.3503302658357
 22
803.3442749612319
 32
0.0
 13
512.3503302658357
 23
803.3442749612319
 33
0.0
  0
SOLID
  5
2311
330
2300
100
AcDbEntity
  8
0
 62
     0
440
 16777216
100
AcDbTrace
 10
511.9336635991692
 20
56.25801040244304
 30
0.0
 11
512.7669969325025
 21
56.25801040244304
 31
0.0
 12
512.350330265836
 22
53.75801040244304
 32
0.0
 13
512.350330265836
 23
53.75801040244304
 33
0.0
  0
MTEXT
  5
2312
330
2300
100
AcDbEntity
  8
0
 62
     0
440
 16777216
100
AcDbMText
 10
510.2669969325025
 20
428.5511426818372
 30
0.0
 40
2.5
 41
0.0
 46
0.0
 71
     5
 72
     1
  1
749,59
 11
0.0000000000000001
 21
1.0
 31
0.0
 73
     1
 44
1.0
  0
POINT
  5
2313
330
2300
100
AcDbEntity
  8
Defpoints
 62
     0
440
 16777216
100
AcDbPoint
 10
218.8958668368542
 20
803.3442749612317
 30
0.0
  0
POINT
  5
2314
330
2300
100
AcDbEntity
  8
Defpoints
 62
     0
440
 16777216
100
AcDbPoint
 10
214.7490360937139
 20
53.75801040244301
 30
0.0
  0
POINT
  5
2315
330
2300
100
AcDbEntity
  8
Defpoints
 62
     0
440
 16777216
100
AcDbPoint
 10
512.350330265836
 20
53.75801040244304
 30
0.0
  0
ENDBLK
  5
2302
330
2300
100
AcDbEntity
  8
0
100
AcDbBlockEnd
  0
BLOCK
  5
2319
330
2318
100
AcDbEntity
  8
0
100
AcDbBlockBegin
  2
*D9
 70
     1
 10
0.0
 20
0.0
 30
0.0
  3
*D9
  1

  0
LINE
  5
2325
330
2318
100
AcDbEntity
  8
0
 62
     0
440
 16777216
370
    -2
100
AcDbLine
 10
1241.835380118088
 20
1136.261127969596
 30
0.0
 11
1241.835380118088
 21
678.1495383823093
 31
0.0
  0
LINE
  5
2326
330
2318
100
AcDbEntity
  8
0
 62
     0
440
 16777216
370
    -2
100
AcDbLine
 10
486.6114506317784
 20
1072.190338875505
 30
0.0
 11
486.6114506317784
 21
678.1495383823093
 31
0.0
  0
LINE
  5
2327
330
2318
100
AcDbEntity
  8
0
 62
     0
440
 16777216
370
    -2
100
AcDbLine
 10
1239.335380118088
 20
679.3995383823093
 30
0.0
 11
489.1114506317784
 21
679.3995383823093
 31
0.0
  0
SOLID
  5
2328
330
2318
100
AcDbEntity
  8
0
 62
     0
440
 16777216
100
AcDbTrace
 10
1239.335380118088
 20
679.816205048976
 30
0.0
 11
1239.335380118088
 21
678.9828717156427
 31
0.0
 12
1241.835380118088
 22
679.3995383823093
 32
0.0
 13
1241.835380118088
 23
679.3995383823093
 33
0.0
  0
SOLID
  5
2329
330
2318
100
AcDbEntity
  8
0
 62
     0
440
 16777216
100
AcDbTrace
 10
489.1114506317784
 20
679.816205048976
 30
0.0
 11
489.1114506317784
 21
678.9828717156427
 31
0.0
 12
486.6114506317784
 22
679.3995383823093
 32
0.0
 13
486.6114506317784
 23
679.3995383823093
 33
0.0
  0
MTEXT
  5
232A
330
2318
100
AcDbEntity
  8
0
 62
     0
440
 16777216
100
AcDbMText
 10
864.2234153749333
 20
681.4828717156427
 30
0.0
 40
2.5
 41
0.0
 46
0.0
 71
     5
 72
     1
  1
755,22
 73
     1
 44
1.0
  0
POINT
  5
232B
330
2318
100
AcDbEntity
  8
Defpoints
 62
     0
440
 16777216
100
AcDbPoint
 10
1241.835380118088
 20
1136.886127969596
 30
0.0
  0
POINT
  5
232C
330
2318
100
AcDbEntity
  8
Defpoints
 62
     0
440
 16777216
100
AcDbPoint
 10
486.6114506317784
 20
1072.815338875505
 30
0.0
  0
POINT
  5
232D
330
2318
100
AcDbEntity
  8
Defpoints
 62
     0
440
 16777216
100
AcDbPoint
 10
486.6114506317784
 20
679.3995383823093
 30
0.0
  0
ENDBLK
  5
231A
330
2318
100
AcDbEntity
  8
0
100
AcDbBlockEnd
  0
BLOCK
  5
25A2
330
25A1
100
AcDbEntity
  8
0
100
AcDbBlockBegin
  2
*D10
 70
     1
 10
0.0
 20
0.0
 30
0.0
  3
*D10
  1

  0
LINE
  5
25AE
330
25A1
100
AcDbEntity
  8
0
 62
     0
440
 16777216
370
    -2
100
AcDbLine
 10
1223.988396052861
 20
1134.460923352937
 30
0.0
 11
1223.988396052861
 21
1304.23186155306
 31
0.0
  0
LINE
  5
25AF
330
25A1
100
AcDbEntity
  8
0
 62
     0
440
 16777216
370
    -2
100
AcDbLine
 10
486.6114506317784
 20
1070.860008466294
 30
0.0
 11
486.6114506317784
 21
1304.23186155306
 31
0.0
  0
LINE
  5
25B0
330
25A1
100
AcDbEntity
  8
0
 62
     0
440
 16777216
370
    -2
100
AcDbLine
 10
1221.488396052861
 20
1302.98186155306
 30
0.0
 11
489.1114506317784
 21
1302.98186155306
 31
0.0
  0
SOLID
  5
25B1
330
25A1
100
AcDbEntity
  8
0
 62
     0
440
 16777216
100
AcDbTrace
 10
1221.488396052861
 20
1303.398528219727
 30
0.0
 11
1221.488396052861
 21
1302.565194886393
 31
0.0
 12
1223.988396052861
 22
1302.98186155306
 32
0.0
 13
1223.988396052861
 23
1302.98186155306
 33
0.0
  0
SOLID
  5
25B2
330
25A1
100
AcDbEntity
  8
0
 62
     0
440
 16777216
100
AcDbTrace
 10
489.1114506317784
 20
1303.398528219727
 30
0.0
 11
489.1114506317784
 21
1302.565194886393
 31
0.0
 12
486.6114506317784
 22
1302.98186155306
 32
0.0
 13
486.6114506317784
 23
1302.98186155306
 33
0.0
  0
MTEXT
  5
25B3
330
25A1
100
AcDbEntity
  8
0
 62
     0
440
 16777216
100
AcDbMText
 10
855.29992334232
 20
1305.065194886393
 30
0.0
 40
2.5
 41
0.0
 46
0.0
 71
     5
 72
     1
  1
737,38
 73
     1
 44
1.0
  0
POINT
  5
25B4
330
25A1
100
AcDbEntity
  8
Defpoints
 62
     0
440
 16777216
100
AcDbPoint
 10
1223.988396052861
 20
1133.835923352937
 30
0.0
  0
POINT
  5
25B5
330
25A1
100
AcDbEntity
  8
Defpoints
 62
     0
440
 16777216
100
AcDbPoint
 10
486.6114506317784
 20
1070.235008466294
 30
0.0
  0
POINT
  5
25B6
330
25A1
100
AcDbEntity
  8
Defpoints
 62
     0
440
 16777216
100
AcDbPoint
 10
486.6114506317784
 20
1302.98186155306
 30
0.0
  0
ENDBLK
  5
25A3
330
25A1
100
AcDbEntity
  8
0
100
AcDbBlockEnd
  0
BLOCK
  5
25BA
330
25B9
100
AcDbEntity
  8
0
100
AcDbBlockBegin
  2
*D11
 70
     1
 10
0.0
 20
0.0
 30
0.0
  3
*D11
  1

  0
LINE
  5
25C6
330
25B9
100
AcDbEntity
  8
0
 62
     0
440
 16777216
370
    -2
100
AcDbLine
 10
213.0452598566627
 20
803.3442780016388
 30
0.0
 11
652.840081377319
 21
803.344278001639
 31
0.0
  0
LINE
  5
25C7
330
25B9
100
AcDbEntity
  8
0
 62
     0
440
 16777216
370
    -2
100
AcDbLine
 10
217.4670360957053
 20
53.54860923319662
 30
0.0
 11
652.8400813773193
 21
53.54860923319668
 31
0.0
  0
LINE
  5
25C8
330
25B9
100
AcDbEntity
  8
0
 62
     0
440
 16777216
370
    -2
100
AcDbLine
 10
651.590081377319
 20
800.8442780016389
 30
0.0
 11
651.5900813773193
 21
56.04860923319668
 31
0.0
  0
SOLID
  5
25C9
330
25B9
100
AcDbEntity
  8
0
 62
     0
440
 16777216
100
AcDbTrace
 10
651.1734147106523
 20
800.8442780016389
 30
0.0
 11
652.0067480439856
 21
800.8442780016389
 31
0.0
 12
651.590081377319
 22
803.344278001639
 32
0.0
 13
651.590081377319
 23
803.344278001639
 33
0.0
  0
SOLID
  5
25CA
330
25B9
100
AcDbEntity
  8
0
 62
     0
440
 16777216
100
AcDbTrace
 10
651.1734147106526
 20
56.04860923319668
 30
0.0
 11
652.0067480439859
 21
56.04860923319668
 31
0.0
 12
651.5900813773193
 22
53.54860923319668
 32
0.0
 13
651.5900813773193
 23
53.54860923319668
 33
0.0
  0
MTEXT
  5
25CB
330
25B9
100
AcDbEntity
  8
0
 62
     0
440
 16777216
100
AcDbMText
 10
649.5067480439858
 20
428.4464436174174
 30
0.0
 40
2.5
 41
0.0
 46
0.0
 71
     5
 72
     1
  1
749,8
 11
0.0000000000000001
 21
1.0
 31
0.0
 73
     1
 44
1.0
  0
POINT
  5
25CC
330
25B9
100
AcDbEntity
  8
Defpoints
 62
     0
440
 16777216
100
AcDbPoint
 10
212.4202598566627
 20
803.3442780016388
 30
0.0
  0
POINT
  5
25CD
330
25B9
100
AcDbEntity
  8
Defpoints
 62
     0
440
 16777216
100
AcDbPoint
 10
216.8420360957052
 20
53.54860923319662
 30
0.0
  0
POINT
  5
25CE
330
25B9
100
AcDbEntity
  8
Defpoints
 62
     0
440
 16777216
100
AcDbPoint
 10
651.5900813773193
 20
53.54860923319668
 30
0.0
  0
ENDBLK
  5
25BB
330
25B9
100
AcDbEntity
  8
0
100
AcDbBlockEnd
  0
BLOCK
  5
25EC
330
25EB
100
AcDbEntity
  8
0
100
AcDbBlockBegin
  2
*D12
 70
     1
 10
0.0
 20
0.0
 30
0.0
  3
*D12
  1

  0
LINE
  5
25F8
330
25EB
100
AcDbEntity
  8
0
 62
     0
440
 16777216
370
    -2
100
AcDbLine
 10
208.9719322736675
 20
929.5515543316856
 30
0.0
 11
530.7627532152403
 21
929.5515543316856
 31
0.0
  0
LINE
  5
25F9
330
25EB
100
AcDbEntity
  8
0
 62
     0
440
 16777216
370
    -2
100
AcDbLine
 10
217.291213676663
 20
79.75842284622649
 30
0.0
 11
530.7627532152405
 21
79.75842284622655
 31
0.0
  0
LINE
  5
25FA
330
25EB
100
AcDbEntity
  8
0
 62
     0
440
 16777216
370
    -2
100
AcDbLine
 10
529.5127532152402
 20
927.0515543316857
 30
0.0
 11
529.5127532152405
 21
82.25842284622656
 31
0.0
  0
SOLID
  5
25FB
330
25EB
100
AcDbEntity
  8
0
 62
     0
440
 16777216
100
AcDbTrace
 10
529.0960865485736
 20
927.0515543316857
 30
0.0
 11
529.9294198819069
 21
927.0515543316857
 31
0.0
 12
529.5127532152402
 22
929.5515543316856
 32
0.0
 13
529.5127532152402
 23
929.5515543316856
 33
0.0
  0
SOLID
  5
25FC
330
25EB
100
AcDbEntity
  8
0
 62
     0
440
 16777216
100
AcDbTrace
 10
529.0960865485739
 20
82.25842284622656
 30
0.0
 11
529.9294198819072
 21
82.25842284622656
 31
0.0
 12
529.5127532152405
 22
79.75842284622655
 32
0.0
 13
529.5127532152405
 23
79.75842284622655
 33
0.0
  0
MTEXT
  5
25FD
330
25EB
100
AcDbEntity
  8
0
 62
     0
440
 16777216
100
AcDbMText
 10
527.429419881907
 20
504.6549885889557
 30
0.0
 40
2.5
 41
0.0
 46
0.0
 71
     5
 72
     1
  1
849,79
 11
0.0000000000000001
 21
1.0
 31
0.0
 73
     1
 44
1.0
  0
POINT
  5
25FE
330
25EB
100
AcDbEntity
  8
Defpoints
 62
     0
440
 16777216
100
AcDbPoint
 10
208.3469322736675
 20
929.5515543316856
 30
0.0
  0
POINT
  5
25FF
330
25EB
100
AcDbEntity
  8
Defpoints
 62
     0
440
 16777216
100
AcDbPoint
 10
216.666213676663
 20
79.75842284622649
 30
0.0
  0
POINT
  5
2600
330
25EB
100
AcDbEntity
  8
Defpoints
 62
     0
440
 16777216
100
AcDbPoint
 10
529.5127532152405
 20
79.75842284622655
 30
0.0
  0
ENDBLK
  5
25ED
330
25EB
100
AcDbEntity
  8
0
100
AcDbBlockEnd
  0
BLOCK
  5
2629
330
2628
100
AcDbEntity
  8
0
100
AcDbBlockBegin
  2
*D13
 70
     1
 10
0.0
 20
0.0
 30
0.0
  3
*D13
  1

  0
LINE
  5
2635
330
2628
100
AcDbEntity
  8
0
 62
     0
440
 16777216
370
    -2
100
AcDbLine
 10
219.5208668368542
 20
929.551550490653
 30
0.0
 11
549.0315693101045
 21
929.551550490653
 31
0.0
  0
LINE
  5
2636
330
2628
100
AcDbEntity
  8
0
 62
     0
440
 16777216
370
    -2
100
AcDbLine
 10
223.6632500444379
 20
329.9648726730276
 30
0.0
 11
549.0315693101047
 21
329.9648726730276
 31
0.0
  0
LINE
  5
2637
330
2628
100
AcDbEntity
  8
0
 62
     0
440
 16777216
370
    -2
100
AcDbLine
 10
547.7815693101046
 20
927.051550490653
 30
0.0
 11
547.7815693101047
 21
332.4648726730276
 31
0.0
  0
SOLID
  5
2638
330
2628
100
AcDbEntity
  8
0
 62
     0
440
 16777216
100
AcDbTrace
 10
547.364902643438
 20
927.051550490653
 30
0.0
 11
548.1982359767711
 21
927.051550490653
 31
0.0
 12
547.7815693101046
 22
929.551550490653
 32
0.0
 13
547.7815693101046
 23
929.551550490653
 33
0.0
  0
SOLID
  5
2639
330
2628
100
AcDbEntity
  8
0
 62
     0
440
 16777216
100
AcDbTrace
 10
547.364902643438
 20
332.4648726730276
 30
0.0
 11
548.1982359767713
 21
332.4648726730276
 31
0.0
 12
547.7815693101047
 22
329.9648726730276
 32
0.0
 13
547.7815693101047
 23
329.9648726730276
 33
0.0
  0
MTEXT
  5
263A
330
2628
100
AcDbEntity
  8
0
 62
     0
440
 16777216
100
AcDbMText
 10
545.6982359767713
 20
629.7582115818401
 30
0.0
 40
2.5
 41
0.0
 46
0.0
 71
     5
 72
     1
  1
599,59
 11
0.0000000000000001
 21
1.0
 31
0.0
 73
     1
 44
1.0
  0
POINT
  5
263B
330
2628
100
AcDbEntity
  8
Defpoints
 62
     0
440
 16777216
100
AcDbPoint
 10
218.8958668368542
 20
929.551550490653
 30
0.0
  0
POINT
  5
263C
330
2628
100
AcDbEntity
  8
Defpoints
 62
     0
440
 16777216
100
AcDbPoint
 10
223.0382500444378
 20
329.9648726730276
 30
0.0
  0
POINT
  5
263D
330
2628
100
AcDbEntity
  8
Defpoints
 62
     0
440
 16777216
100
AcDbPoint
 10
547.7815693101047
 20
329.9648726730276
 30
0.0
  0
ENDBLK
  5
262A
330
2628
100
AcDbEntity
  8
0
100
AcDbBlockEnd
  0
BLOCK
  5
2641
330
2640
100
AcDbEntity
  8
0
100
AcDbBlockBegin
  2
*D14
 70
     1
 10
0.0
 20
0.0
 30
0.0
  3
*D14
  1

  0
LINE
  5
264D
330
2640
100
AcDbEntity
  8
0
 62
     0
440
 16777216
370
    -2
100
AcDbLine
 10
1086.475219633554
 20
1259.17515476172
 30
0.0
 11
1086.475219633554
 21
1541.033182011983
 31
0.0
  0
LINE
  5
264E
330
2640
100
AcDbEntity
  8
0
 62
     0
440
 16777216
370
    -2
100
AcDbLine
 10
486.6114506317784
 20
1192.26702452018
 30
0.0
 11
486.6114506317784
 21
1541.033182011983
 31
0.0
  0
LINE
  5
264F
330
2640
100
AcDbEntity
  8
0
 62
     0
440
 16777216
370
    -2
100
AcDbLine
 10
1083.975219633555
 20
1539.783182011983
 30
0.0
 11
489.1114506317784
 21
1539.783182011983
 31
0.0
  0
SOLID
  5
2650
330
2640
100
AcDbEntity
  8
0
 62
     0
440
 16777216
100
AcDbTrace
 10
1083.975219633555
 20
1540.199848678649
 30
0.0
 11
1083.975219633555
 21
1539.366515345316
 31
0.0
 12
1086.475219633554
 22
1539.783182011983
 32
0.0
 13
1086.475219633554
 23
1539.783182011983
 33
0.0
  0
SOLID
  5
2651
330
2640
100
AcDbEntity
  8
0
 62
     0
440
 16777216
100
AcDbTrace
 10
489.1114506317784
 20
1540.199848678649
 30
0.0
 11
489.1114506317784
 21
1539.366515345316
 31
0.0
 12
486.6114506317784
 22
1539.783182011983
 32
0.0
 13
486.6114506317784
 23
1539.783182011983
 33
0.0
  0
MTEXT
  5
2652
330
2640
100
AcDbEntity
  8
0
 62
     0
440
 16777216
100
AcDbMText
 10
786.5433351326666
 20
1541.866515345316
 30
0.0
 40
2.5
 41
0.0
 46
0.0
 71
     5
 72
     1
  1
599,86
 73
     1
 44
1.0
  0
POINT
  5
2653
330
2640
100
AcDbEntity
  8
Defpoints
 62
     0
440
 16777216
100
AcDbPoint
 10
1086.475219633554
 20
1258.550154761721
 30
0.0
  0
POINT
  5
2654
330
2640
100
AcDbEntity
  8
Defpoints
 62
     0
440
 16777216
100
AcDbPoint
 10
486.6114506317784
 20
1191.642024520181
 30
0.0
  0
POINT
  5
2655
330
2640
100
AcDbEntity
  8
Defpoints
 62
     0
440
 16777216
100
AcDbPoint
 10
486.6114506317784
 20
1539.783182011983
 30
0.0
  0
ENDBLK
  5
2642
330
2640
100
AcDbEntity
  8
0
100
AcDbBlockEnd
  0
ENDSEC
  0
SECTION
  2
ENTITIES
  0
LWPOLYLINE
  5
13FC
330
1F
100
AcDbEntity
  8
Hewi
370
    13
100
AcDbPolyline
 90
        6
 70
     0
 43
0.0
 10
186.9777316014087
 20
1159.650758412114
 10
187.0279575743598
 20
1156.773314391445
 10
187.1552618792657
 20
1149.480055755874
 10
187.2550785018111
 20
1143.7615653648
 10
187.3239108489515
 20
1139.818162896467
 10
187.3501477396849
 20
1138.315052455391
  0
LWPOLYLINE
  5
13FD
330
1F
100
AcDbEntity
  8
Hewi
370
    13
100
AcDbPolyline
 90
        6
 70
     0
 43
0.0
 10
248.6051476481707
 20
1138.305531025292
 10
248.6087882827496
 20
1138.514102837529
 10
248.6604243546781
 20
1141.472331373255
 10
248.7444434752333
 20
1146.285783494894
 10
248.8579025487279
 20
1152.78584936588
 10
248.9777299861116
 20
1159.650758554334
  0
LINE
  5
13FF
330
1F
100
AcDbEntity
  8
Hewi
370
    13
100
AcDbLine
 10
186.9777316429127
 20
1149.394561226162
 30
0.0
 11
187.1566996468982
 21
1149.397686104558
 31
0.0
  0
LWPOLYLINE
  5
1404
330
1F
100
AcDbEntity
  8
Hewi
370
    13
100
AcDbPolyline
 90
        4
 70
     0
 43
0.0
 10
191.8157690477847
 20
1135.634087280552
 10
192.1292254763601
 20
1135.483308935181
 10
198.166878834726
 20
1134.034232742083
 10
199.2001768725158
 20
1133.917687117528
  0
LINE
  5
140D
330
1F
100
AcDbEntity
  8
Hewi
370
    13
100
AcDbLine
 10
187.0248032427744
 20
1156.954012139963
 30
0.0
 11
186.9777319617778
 21
1156.953487174896
 31
0.0
  0
LINE
  5
140E
330
1F
100
AcDbEntity
  8
Hewi
370
    13
100
AcDbLine
 10
248.7987619381392
 20
1149.397686104558
 30
0.0
 11
248.9777299868229
 21
1149.394561225383
 31
0.0
  0
LINE
  5
1414
330
1F
100
AcDbEntity
  8
Hewi
370
    13
100
AcDbLine
 10
248.9274260631382
 20
1156.768829611512
 30
0.0
 11
248.9777303092223
 21
1156.766726418112
 31
0.0
  0
LWPOLYLINE
  5
1567
330
1F
100
AcDbEntity
  8
Hewi
370
    13
100
AcDbPolyline
 90
       41
 70
     0
 43
0.0
 10
167.6987669079817
 20
1204.298789529145
 10
167.7143763227095
 20
1205.495995478296
 10
167.7525860858304
 20
1208.051159828616
 10
167.9088919373343
 20
1214.774212475137
 10
168.1277017274469
 20
1221.680813534995
 10
168.7527542684283
 20
1235.305301479237
 10
169.6275334657102
 20
1248.852963539435
 10
171.093272784773
 20
1250.50656455892
 10
171.1347294435209
 20
1250.548815467751
 10
171.1837249997597
 20
1250.582117641057
 10
171.2482611539262
 20
1250.608058244804
 10
171.3170635727774
 20
1250.618493772352
 10
171.6275334137181
 20
1250.62928936854
 10
171.6275334137181
 20
1248.71496880568
 10
171.6275334137181
 20
1244.951517570751
 10
171.6275334137181
 20
1239.467095481801
 10
171.6275334137181
 20
1232.448467955226
 10
171.6275334137181
 20
1224.13464593353
 10
171.6275334137181
 20
1214.80874665433
 10
171.6275334137181
 20
1204.788352432396
 10
171.6275334137181
 20
1194.414695774818
 10
171.6275334137181
 20
1184.041039117241
 10
171.6275334137181
 20
1174.020644895307
 10
171.6275334137181
 20
1164.694745616107
 10
171.6275334137181
 20
1156.380923594411
 10
171.6275334137181
 20
1149.362296067837
 10
171.6275334137181
 20
1143.877873978885
 10
171.6275334137181
 20
1140.114422743958
 10
171.6275334137181
 20
1138.200102181099
 10
171.3170635727774
 20
1138.210897777285
 10
171.2482611539262
 20
1138.221333304833
 10
171.1837249997597
 20
1138.247273908581
 10
171.1347294435209
 20
1138.280576081887
 10
171.093272784773
 20
1138.322826990716
 10
169.6275334657102
 20
1139.976428010203
 10
168.7527542684283
 20
1153.524090070399
 10
168.1277017274469
 20
1167.148578014643
 10
167.9088919373343
 20
1174.055179074499
 10
167.8229250745471
 20
1177.56119271878
 10
167.7525860858304
 20
1180.77823172102
 10
167.6642250152863
 20
1187.16991871093
  0
LWPOLYLINE
  5
1568
330
1F
100
AcDbEntity
  8
Hewi
370
    13
100
AcDbPolyline
 90
        4
 70
     0
 43
0.0
 10
167.6587973169944
 20
1201.233214492891
 10
167.635349508605
 20
1197.56447382669
 10
167.631007294819
 20
1196.610117567902
 10
167.6280220179369
 20
1195.166380726447
  0
LWPOLYLINE
  5
1577
330
1F
100
AcDbEntity
  8
Hewi
370
    13
100
AcDbPolyline
 90
        4
 70
     0
 43
0.0
 10
167.6280220179369
 20
1195.166380726447
 10
167.6294875179965
 20
1195.361749726808
 10
167.6587973169944
 20
1199.236116598016
 10
167.6978764499226
 20
1202.798892645706
  0
LWPOLYLINE
  5
157D
330
1F
100
AcDbEntity
  8
Hewi
370
    13
100
AcDbPolyline
 90
        3
 70
     0
 43
0.0
 10
167.6587973169944
 20
1201.233214492891
 10
167.6451194587198
 20
1199.430353624228
 10
167.6373455662569
 20
1197.876785229043
  0
LWPOLYLINE
  5
157E
330
1F
100
AcDbEntity
  8
Hewi
370
    13
100
AcDbPolyline
 90
        3
 70
     0
 43
0.0
 10
167.6294875179965
 20
1192.997329372715
 10
167.6414285937053
 20
1189.868981234935
 10
167.6642250152863
 20
1187.16991871093
  0
LINE
  5
1580
330
1F
100
AcDbEntity
  8
Hewi
370
    13
100
AcDbLine
 10
167.6642250152863
 20
1187.16991871093
 30
0.0
 11
167.7525860858304
 21
1180.78267944358
 31
0.0
  0
LWPOLYLINE
  5
1584
330
1F
100
AcDbEntity
  8
Hewi
370
    13
100
AcDbPolyline
 90
        3
 70
     1
 43
0.0
 10
199.2001768725158
 20
1133.917687117528
 10
192.1150220287827
 20
1135.543541682059
 10
198.1595013579781
 20
1134.069954825878
  0
LWPOLYLINE
  5
1587
330
1F
100
AcDbEntity
  8
Hewi
370
    13
100
AcDbPolyline
 90
        4
 70
     0
 43
0.0
 10
167.6284019624899
 20
1193.287982864639
 10
167.6280220179369
 20
1193.66301082319
 10
167.6275335177042
 20
1194.414695774818
 10
167.6280220179369
 20
1195.166380726447
  0
LINE
  5
1589
330
1F
100
AcDbEntity
  8
Hewi
370
    13
100
AcDbLine
 10
167.6294875179965
 20
1192.997329372715
 30
0.0
 11
167.6284019624899
 21
1193.287982864639
 31
0.0
  0
LWPOLYLINE
  5
158F
330
1F
100
AcDbEntity
  8
Hewi
370
    13
100
AcDbPolyline
 90
        3
 70
     0
 43
0.0
 10
167.6369861968878
 20
1191.032809695394
 10
167.635349508605
 20
1191.264917722946
 10
167.6284019624899
 20
1193.287982864639
  0
LWPOLYLINE
  5
1590
330
1F
100
AcDbEntity
  8
Hewi
370
    13
100
AcDbPolyline
 90
        3
 70
     0
 43
0.0
 10
167.7525860858304
 20
1208.046712106057
 10
167.6700869146088
 20
1202.301538760918
 10
167.6587973169944
 20
1201.233214492891
  0
LWPOLYLINE
  5
1593
330
1F
100
AcDbEntity
  8
Hewi
370
    13
100
AcDbPolyline
 90
        3
 70
     0
 43
0.0
 10
167.6492445359208
 20
1189.165098388689
 10
167.6381719430346
 20
1191.107520378685
 10
167.6294875179965
 20
1192.997329372715
  0
LINE
  5
1594
330
1F
100
AcDbEntity
  8
Hewi
370
    13
100
AcDbLine
 10
171.6275334137181
 20
1140.475861659418
 30
0.0
 11
171.9777320013299
 21
1140.494194001561
 31
0.0
  0
LINE
  5
1598
330
1F
100
AcDbEntity
  8
Hewi
370
    13
100
AcDbLine
 10
171.6275334137181
 20
1248.353529890218
 30
0.0
 11
171.9777320013299
 21
1248.335197548076
 31
0.0
  0
LWPOLYLINE
  5
159A
330
1F
100
AcDbEntity
  8
Hewi
370
    13
100
AcDbPolyline
 90
       25
 70
     0
 43
0.0
 10
247.404776162758
 20
1136.868022816835
 10
247.6598794812808
 20
1136.992647000996
 10
247.7602523857922
 20
1137.047357453671
 10
247.8496645743335
 20
1137.136141582885
 10
247.9070676282981
 20
1137.222207842668
 10
247.9190894367921
 20
1137.243441369079
 10
247.9349794405816
 20
1137.274413078417
 10
247.9561321918727
 20
1137.324515781732
 10
247.9627343622224
 20
1137.344259250415
 10
247.9777299673433
 20
1137.434737879561
 10
247.9777299673433
 20
1143.71224484743
 10
247.9777299673433
 20
1151.464726867035
 10
247.9777299673433
 20
1155.896245900773
 10
247.9777299673433
 20
1160.648764161654
 10
247.9777299673433
 20
1166.724717486315
 10
247.9777336749712
 20
1173.123609060752
 10
247.977734230576
 20
1183.936651991764
 10
247.9777348029374
 20
1194.704479874116
 10
247.9777354213993
 20
1205.971359019974
 10
247.9777359833997
 20
1215.893712730893
 10
247.9777365355758
 20
1225.339673956666
 10
247.9777368773966
 20
1231.022058716929
 10
247.9777372108902
 20
1236.427067741945
 10
247.9777374021533
 20
1242.100837016944
 10
248.0084925454367
 20
1246.549886603763
  0
LWPOLYLINE
  5
159B
330
1F
100
AcDbEntity
  8
Hewi
370
    13
100
AcDbPolyline
 90
        8
 70
     0
 43
0.0
 10
244.3401910548446
 20
1135.730927530715
 10
243.8216012055482
 20
1135.481554220974
 10
237.782717414616
 20
1134.086353606877
 10
236.7161569673726
 20
1133.87337873741
 10
229.4880683056626
 20
1133.029609171104
 10
217.9777303779674
 20
1132.670777455726
 10
206.4662176435149
 20
1133.030212723484
 10
199.2001768725158
 20
1133.917687117528
  0
LWPOLYLINE
  5
159D
330
1F
100
AcDbEntity
  8
Hewi
370
    13
100
AcDbPolyline
 90
        3
 70
     0
 43
0.0
 10
247.404776162758
 20
1136.868022816835
 10
247.4215038839584
 20
1136.88629057201
 10
243.8404395562529
 20
1135.543541682059
  0
LINE
  5
15CF
330
1F
100
AcDbEntity
  8
Hewi
370
    13
100
AcDbLine
 10
247.3831253585276
 20
1136.871900234812
 30
0.0
 11
247.404776162758
 21
1136.868022816835
 31
0.0
  0
LINE
  5
15D9
330
1F
100
AcDbEntity
  8
Hewi
370
    13
100
AcDbLine
 10
247.3871929152019
 20
1136.873425396752
 30
0.0
 11
247.404776162758
 21
1136.868022816835
 31
0.0
  0
LWPOLYLINE
  5
161E
330
1F
100
AcDbEntity
  8
Hewi
370
    13
100
AcDbPolyline
 90
       41
 70
     0
 43
0.0
 10
268.2912365697512
 20
1201.659472838706
 10
268.2028754992089
 20
1208.051159828616
 10
268.1325365104903
 20
1211.268198830857
 10
268.0465696477031
 20
1214.774212475137
 10
267.8277598575905
 20
1221.680813534995
 10
267.2027073166091
 20
1235.305301479237
 10
266.3279281193254
 20
1248.852963539435
 10
264.8621888002626
 20
1250.50656455892
 10
264.8207321415166
 20
1250.548815467751
 10
264.7717365852795
 20
1250.582117641057
 10
264.7072004311112
 20
1250.608058244804
 10
264.6383980122582
 20
1250.618493772352
 10
264.3279281713194
 20
1250.62928936854
 10
264.3279281713194
 20
1248.71496880568
 10
264.3279281713194
 20
1244.951517570751
 10
264.3279281713194
 20
1239.4670954818
 10
264.3279281713194
 20
1232.448467955226
 10
264.3279281713194
 20
1224.13464593353
 10
264.3279281713194
 20
1214.80874665433
 10
264.3279281713194
 20
1204.788352432396
 10
264.3279281713194
 20
1194.414695774818
 10
264.3279281713194
 20
1184.041039117241
 10
264.3279281713194
 20
1174.020644895307
 10
264.3279281713194
 20
1164.694745616107
 10
264.3279281713194
 20
1156.380923594411
 10
264.3279281713194
 20
1149.362296067837
 10
264.3279281713194
 20
1143.877873978885
 10
264.3279281713194
 20
1140.114422743958
 10
264.3279281713194
 20
1138.200102181099
 10
264.6383980122582
 20
1138.210897777285
 10
264.7072004311112
 20
1138.221333304833
 10
264.7717365852795
 20
1138.247273908581
 10
264.8207321415166
 20
1138.280576081887
 10
264.8621888002626
 20
1138.322826990716
 10
266.3279281193254
 20
1139.976428010203
 10
267.2027073166091
 20
1153.524090070399
 10
267.8277598575905
 20
1167.148578014643
 10
268.0465696477031
 20
1174.055179074499
 10
268.2028754992089
 20
1180.77823172102
 10
268.2410852623279
 20
1183.333396071341
 10
268.2566946770557
 20
1184.530602020492
  0
LWPOLYLINE
  5
161F
330
1F
100
AcDbEntity
  8
Hewi
370
    13
100
AcDbPolyline
 90
        3
 70
     0
 43
0.0
 10
268.3270596225475
 20
1195.541408684999
 10
268.3201120764325
 20
1197.56447382669
 10
268.3184753881497
 20
1197.796581854244
  0
LWPOLYLINE
  5
1620
330
1F
100
AcDbEntity
  8
Hewi
370
    13
100
AcDbPolyline
 90
        7
 70
     0
 43
0.0
 10
187.0793001090396
 20
1138.604012077947
 10
187.0227024796777
 20
1138.740525102479
 10
186.9934380365766
 20
1138.934953513317
 10
186.9823634878656
 20
1139.569413974714
 10
186.9803744585288
 20
1139.68336538748
 10
186.9783131706763
 20
1139.801456487662
 10
186.9777315984256
 20
1139.834774739057
  0
LWPOLYLINE
  5
1621
330
1F
100
AcDbEntity
  8
Hewi
370
    13
100
AcDbPolyline
 90
        4
 70
     0
 43
0.0
 10
268.2966642680449
 20
1187.596177056745
 10
268.3201120764325
 20
1191.264917722946
 10
268.3244542902185
 20
1192.219273981736
 10
268.3274395671006
 20
1193.66301082319
  0
LWPOLYLINE
  5
1622
330
1F
100
AcDbEntity
  8
Hewi
370
    13
100
AcDbPolyline
 90
        3
 70
     0
 43
0.0
 10
268.325974067041
 20
1195.832062176922
 10
268.3140329913322
 20
1198.960410314702
 10
268.2912365697512
 20
1201.659472838706
  0
LWPOLYLINE
  5
1623
330
1F
100
AcDbEntity
  8
Hewi
370
    13
100
AcDbPolyline
 90
        4
 70
     0
 43
0.0
 10
268.3270596225475
 20
1195.541408684999
 10
268.3274395671006
 20
1195.166380726447
 10
268.3279280673332
 20
1194.414695774818
 10
268.3274395671006
 20
1193.66301082319
  0
LWPOLYLINE
  5
1624
330
1F
100
AcDbEntity
  8
Hewi
370
    13
100
AcDbPolyline
 90
        4
 70
     0
 43
0.0
 10
268.3274395671006
 20
1193.66301082319
 10
268.325974067041
 20
1193.467641822828
 10
268.2966642680449
 20
1189.593274951622
 10
268.2575851351148
 20
1186.030498903931
  0
LINE
  5
1625
330
1F
100
AcDbEntity
  8
Hewi
370
    13
100
AcDbLine
 10
268.325974067041
 20
1195.832062176922
 30
0.0
 11
268.3270596225475
 21
1195.541408684999
 31
0.0
  0
LINE
  5
1626
330
1F
100
AcDbEntity
  8
Hewi
370
    13
100
AcDbLine
 10
268.2912365697512
 20
1201.659472838706
 30
0.0
 11
268.2028754992089
 21
1208.046712106057
 31
0.0
  0
LINE
  5
1627
330
1F
100
AcDbEntity
  8
Hewi
370
    13
100
AcDbLine
 10
264.3279281713194
 20
1248.353529890218
 30
0.0
 11
263.9777295837075
 21
1248.335197548076
 31
0.0
  0
LINE
  5
1628
330
1F
100
AcDbEntity
  8
Hewi
370
    13
100
AcDbLine
 10
264.3279281713194
 20
1140.475861659418
 30
0.0
 11
263.9777295837075
 21
1140.494194001561
 31
0.0
  0
LWPOLYLINE
  5
1629
330
1F
100
AcDbEntity
  8
Hewi
370
    13
100
AcDbPolyline
 90
        3
 70
     0
 43
0.0
 10
268.2966642680449
 20
1187.596177056745
 10
268.3103421263177
 20
1189.39903792541
 10
268.3181160187805
 20
1190.952606320594
  0
LWPOLYLINE
  5
162A
330
1F
100
AcDbEntity
  8
Hewi
370
    13
100
AcDbPolyline
 90
        3
 70
     0
 43
0.0
 10
268.2966642680449
 20
1187.596177056745
 10
268.2853746704286
 20
1186.527852788719
 10
268.2028754992089
 20
1180.78267944358
  0
LWPOLYLINE
  5
162B
330
1F
100
AcDbEntity
  8
Hewi
370
    13
100
AcDbPolyline
 90
        3
 70
     0
 43
0.0
 10
268.3062170491167
 20
1199.664293160948
 10
268.3172896420028
 20
1197.721871170951
 10
268.325974067041
 20
1195.832062176922
  0
LWPOLYLINE
  5
162C
330
1F
100
AcDbEntity
  8
Hewi
370
    13
100
AcDbPolyline
 90
       84
 70
     1
 43
0.0
 10
216.2484429284659
 20
1063.978689305261
 10
216.5340594569943
 20
1063.857587375393
 10
216.5449007142261
 20
1063.853669072942
 10
216.719147720326
 20
1063.796478715172
 10
216.9042206004551
 20
1063.746280726451
 10
216.973224541468
 20
1063.730042658419
 10
217.2178448712029
 20
1063.682416826088
 10
217.4233873189887
 20
1063.653662024722
 10
217.4615365869822
 20
1063.649376326935
 10
217.6347125067905
 20
1063.633842304328
 10
217.9777307925206
 20
1063.621536021474
 10
218.1649008499817
 20
1063.625148408783
 10
218.3366132645597
 20
1063.634945453817
 10
218.3985814032758
 20
1063.640024450735
 10
218.6286019214358
 20
1063.666101886773
 10
218.6853489322702
 20
1063.674329418899
 10
218.9802115645716
 20
1063.729495798996
 10
218.9835675223958
 20
1063.730252926824
 10
219.2133056352714
 20
1063.789745725373
 10
219.4216292540668
 20
1063.857917787708
 10
219.4316690928817
 20
1063.861584735758
 10
219.7428486598119
 20
1063.996550962297
 10
219.7936749940755
 20
1064.023341512275
 10
219.9242520731868
 20
1064.100159162759
 10
220.0816754829311
 20
1064.212252693717
 10
220.0893987336176
 20
1064.218455062761
 10
220.2798830418205
 20
1064.404236785897
 10
220.3036409657734
 20
1064.433991767264
 10
220.3692402439656
 20
1064.530404003645
 10
220.4321875011892
 20
1064.660221075456
 10
220.4333593468064
 20
1064.663337124515
 10
220.4770033816976
 20
1064.871136983941
 10
220.4777131334313
 20
1064.898675507273
 10
220.4709249947164
 20
1064.994948307678
 10
220.441125353299
 20
1065.118335181898
 10
220.4354979907139
 20
1065.134329278403
 10
220.3446056499333
 20
1065.311326925338
 10
220.3076182495761
 20
1065.362821399598
 10
220.1840993877841
 20
1065.499245981706
 10
220.0938898306822
 20
1065.578176686634
 10
219.9628274751439
 20
1065.673787779229
 10
219.7981062878162
 20
1065.771826826727
 10
219.7109400935269
 20
1065.816385497797
 10
219.4248596905663
 20
1065.936264385388
 10
219.4143603908224
 20
1065.940010053873
 10
219.239665646367
 20
1065.996575721798
 10
219.0540860460887
 20
1066.046171670401
 10
218.9846392682293
 20
1066.062259278556
 10
218.7395854605866
 20
1066.109189700497
 10
218.5334985616291
 20
1066.137529569972
 10
218.4951322078368
 20
1066.141764183061
 10
218.3216255460656
 20
1066.157050602712
 10
217.9777307925206
 20
1066.169163165014
 10
217.785924494884
 20
1066.165447817871
 10
217.6098651965049
 20
1066.155362903357
 10
217.552601825565
 20
1066.150686539824
 10
217.3229483868845
 20
1066.124970985729
 10
217.2527708387196
 20
1066.114829122395
 10
216.9718644500417
 20
1066.062580223752
 10
216.9567162029862
 20
1066.059188773829
 10
216.7397260602802
 20
1066.003480092788
 10
216.5221871120402
 20
1065.932990594771
 10
216.5209534125233
 20
1065.932544162473
 10
216.2120333618123
 20
1065.800398472895
 10
216.1515061606051
 20
1065.768740944686
 10
216.030795210484
 20
1065.698217910465
 10
215.8735066084636
 20
1065.587483420923
 10
215.8583278301385
 20
1065.575346768288
 10
215.6754811082401
 20
1065.397417419529
 10
215.646780425207
 20
1065.361450799842
 10
215.5859214676811
 20
1065.271724162421
 10
215.522947862778
 20
1065.142166811582
 10
215.5196714705862
 20
1065.133346642169
 10
215.4783952828084
 20
1064.931228177091
 10
215.4777510192153
 20
1064.898845704549
 10
215.484797966722
 20
1064.806913456763
 10
215.5150757167057
 20
1064.682845781006
 10
215.5219946147909
 20
1064.663451809084
 10
215.6126075542807
 20
1064.48844451298
 10
215.651304488164
 20
1064.434692159698
 10
215.7741363505384
 20
1064.298969606528
 10
215.8657358920891
 20
1064.218511077912
 10
215.9964657805422
 20
1064.122609352571
 10
216.1614772986713
 20
1064.023583833238
  0
LWPOLYLINE
  5
162E
330
1F
100
AcDbEntity
  8
Hewi
370
    13
100
AcDbPolyline
 90
        3
 70
     0
 43
0.0
 10
179.4777317933849
 20
1134.104007149041
 10
179.69397081023
 20
1135.671912735332
 10
180.0975948346322
 20
1137.67303378992
  0
LINE
  5
162F
330
1F
100
AcDbEntity
  8
Hewi
370
    13
100
AcDbLine
 10
179.4777317933849
 20
1091.266567531557
 30
0.0
 11
179.4777317933849
 21
1134.104007149041
 31
0.0
  0
LWPOLYLINE
  5
1632
330
1F
100
AcDbEntity
  8
Hewi
370
    13
100
AcDbPolyline
 90
        6
 70
     0
 43
0.0
 10
187.9777316133758
 20
1138.11241079799
 10
187.7122140646288
 20
1138.14550901057
 10
187.5200769948087
 20
1138.213603558367
 10
187.3205055651824
 20
1138.33274908277
 10
187.1558377507326
 20
1138.488076207209
 10
187.0337541403269
 20
1138.673003118382
  0
LWPOLYLINE
  5
1633
330
1F
100
AcDbEntity
  8
Hewi
370
    13
100
AcDbPolyline
 90
        4
 70
     0
 43
0.0
 10
178.9777318199076
 20
1136.27412882883
 10
178.9953817936375
 20
1136.245584523837
 10
179.3556539945121
 20
1135.201594035366
 10
179.4777317933849
 20
1134.104007149041
  0
LWPOLYLINE
  5
1634
330
1F
100
AcDbEntity
  8
Hewi
370
    13
100
AcDbPolyline
 90
        4
 70
     1
 43
0.0
 10
255.8385212325984
 20
1087.009446398819
 10
254.7013705758627
 20
1084.415475031374
 10
253.1923008890763
 20
1082.431481776596
 10
254.6940116044706
 20
1084.420271277501
  0
LWPOLYLINE
  5
1635
330
1F
100
AcDbEntity
  8
Hewi
370
    13
100
AcDbPolyline
 90
       10
 70
     0
 43
0.0
 10
248.9777299866555
 20
1139.834774741568
 10
248.9776302714227
 20
1139.829062059807
 10
248.9730980971716
 20
1139.569413974714
 10
248.9620235484608
 20
1138.934953513317
 10
248.9515929278814
 20
1138.824594767249
 10
248.9241077585821
 20
1138.711517501666
 10
248.8592434575248
 20
1138.58372736452
 10
248.7566908438157
 20
1138.443136479193
 10
248.6118491419666
 20
1138.309532892474
 10
248.4210115712059
 20
1138.195572014396
  0
LWPOLYLINE
  5
1637
330
1F
100
AcDbEntity
  8
Hewi
370
    13
100
AcDbPolyline
 90
        5
 70
     0
 43
0.0
 10
256.9777297865994
 20
1135.847538911699
 10
256.4777297916525
 20
1134.104007149041
 10
256.4777297916525
 20
1091.266567531555
 10
256.3084659906699
 20
1089.032240556213
 10
255.8385212325984
 20
1087.009446398819
  0
LINE
  5
1639
330
1F
100
AcDbEntity
  8
Hewi
370
    13
100
AcDbLine
 10
180.0972856790167
 20
1137.673148889767
 30
0.0
 11
180.0591078283751
 21
1137.482219681062
 31
0.0
  0
LINE
  5
163A
330
1F
100
AcDbEntity
  8
Hewi
370
    13
100
AcDbLine
 10
180.0972856790167
 20
1137.673148889767
 30
0.0
 11
179.0719719417529
 21
1139.372281674843
 31
0.0
  0
LWPOLYLINE
  5
163B
330
1F
100
AcDbEntity
  8
Hewi
370
    13
100
AcDbPolyline
 90
        3
 70
     0
 43
0.0
 10
247.9777299671141
 20
1138.11157320143
 10
248.2229404232267
 20
1138.12893579799
 10
248.4629704409645
 20
1138.209688056528
  0
LINE
  5
163C
330
1F
100
AcDbEntity
  8
Hewi
370
    13
100
AcDbLine
 10
179.1896376890226
 20
1137.072831234693
 30
0.0
 11
178.9777318053557
 21
1137.353401890527
 31
0.0
  0
LINE
  5
163D
330
1F
100
AcDbEntity
  8
Hewi
370
    13
100
AcDbLine
 10
248.9777299873249
 20
1155.153348159582
 30
0.0
 11
248.8977289343247
 21
1155.067501507788
 31
0.0
  0
LINE
  5
163E
330
1F
100
AcDbEntity
  8
Hewi
370
    13
100
AcDbLine
 10
248.9013796462268
 20
1155.276650671299
 30
0.0
 11
248.9777299903117
 21
1155.445782428398
 31
0.0
  0
LINE
  5
163F
330
1F
100
AcDbEntity
  8
Hewi
370
    13
100
AcDbLine
 10
248.8688298005627
 20
1153.411871671254
 30
0.0
 11
248.9777300036158
 21
1154.150678850668
 31
0.0
  0
LINE
  5
1640
330
1F
100
AcDbEntity
  8
Hewi
370
    13
100
AcDbLine
 10
256.0184263955934
 20
1136.820827649904
 30
0.0
 11
256.9777297851915
 21
1138.700273111202
 31
0.0
  0
LINE
  5
1641
330
1F
100
AcDbEntity
  8
Hewi
370
    13
100
AcDbLine
 10
256.977729771069
 20
1137.605176999717
 30
0.0
 11
256.0184263955934
 21
1136.820827649904
 31
0.0
  0
LINE
  5
1652
330
1F
100
AcDbEntity
  8
Hewi
370
    13
100
AcDbLine
 10
256.9777297654591
 20
1138.702337897287
 30
0.0
 11
256.0184263955934
 21
1136.820827649904
 31
0.0
  0
LWPOLYLINE
  5
1757
330
1F
100
AcDbEntity
  8
Hewi
  6
CUSTOM
 62
    18
420
        0
370
     9
100
AcDbPolyline
 90
       23
 70
     0
 43
0.0
 10
623.3643735407691
 20
1134.171994298456
 10
623.8727178162421
 20
1133.174312523862
 10
624.0548378243852
 20
1132.816881897259
 10
624.1165109057178
 20
1132.723448699567
 10
624.1974266714037
 20
1132.646079645801
 10
624.2935285448671
 20
1132.58865350407
 10
624.3999986194189
 20
1132.554049237942
 10
624.5114991959484
 20
1132.544001674419
 10
624.6224403795435
 20
1132.559014531295
 10
624.727260319521
 20
1132.5983351641
 10
664.3737175866622
 20
1152.211950944213
 10
674.5211447792676
 20
1156.947739799045
 10
708.7920353091043
 20
1171.660436458585
 10
743.7160535179769
 20
1184.748281597518
 10
782.494905740948
 20
1197.23718328007
 10
818.7184041582034
 20
1207.116156900727
 10
854.8284965873586
 20
1215.26049239094
 10
889.4896089988955
 20
1221.368043977793
 10
922.0512771278713
 20
1225.405900808648
 10
952.9245353761211
 20
1227.577651392156
 10
974.7280713964167
 20
1228.185785703911
 10
996.6114550689011
 20
1228.287936145141
 10
1096.61145655202
 20
1228.287936145141
  0
LWPOLYLINE
  5
1758
330
1F
100
AcDbEntity
  8
Hewi
  6
CUSTOM
 62
    18
420
        0
370
     9
100
AcDbPolyline
 90
       15
 70
     0
 43
0.0
 10
606.6114522555176
 20
1264.287918419055
 10
591.6114516699613
 20
1264.287918419052
 10
580.8376764663676
 20
1263.45383129723
 10
570.077388080455
 20
1260.893327892702
 10
560.2005259887913
 20
1256.844692793001
 10
550.1525035497084
 20
1250.68962813237
 10
542.8821590668499
 20
1244.541823171402
 10
541.3371467690117
 20
1242.996168811153
 10
536.6390820232968
 20
1237.624275357841
 10
533.9352032338552
 20
1233.954693250236
 10
531.6379639564252
 20
1230.387570433947
 10
528.4098851044396
 20
1224.380586619978
 10
527.5091762664191
 20
1222.410967196458
 10
526.7205557863811
 20
1220.240210676605
 10
526.6629322868243
 20
1220.244279467887
  0
LWPOLYLINE
  5
1759
330
1F
100
AcDbEntity
  8
Hewi
  6
CUSTOM
 62
    18
420
        0
370
     9
100
AcDbPolyline
 90
        6
 70
     0
 43
0.0
 10
623.254924532464
 20
1135.394524646415
 10
622.4518182104178
 20
1136.70357270337
 10
622.3091639227146
 20
1136.698290026679
 10
622.2029896089166
 20
1136.721211053627
 10
622.1089604012553
 20
1136.765668493214
 10
621.9884174329413
 20
1136.872460100187
  0
LWPOLYLINE
  5
175A
330
1F
100
AcDbEntity
  8
Hewi
  6
CUSTOM
 62
    18
420
        0
370
     9
100
AcDbPolyline
 90
        3
 70
     0
 43
0.0
 10
623.3643735407691
 20
1134.171994298456
 10
622.63531302018
 20
1135.602856076708
 10
621.9884174329413
 20
1136.872460100187
  0
LWPOLYLINE
  5
175B
330
1F
100
AcDbEntity
  8
Hewi
  6
CUSTOM
 62
    18
420
        0
370
     9
100
AcDbPolyline
 90
        4
 70
     0
 43
0.0
 10
656.8184949286018
 20
1264.189067780664
 10
656.6114523122499
 20
1264.287918419061
 10
656.4971943234645
 20
1264.287918419061
 10
606.6176673145869
 20
1264.287918419061
  0
LWPOLYLINE
  5
175C
330
1F
100
AcDbEntity
  8
Hewi
  6
CUSTOM
 62
    18
420
        0
370
     9
100
AcDbPolyline
 90
        3
 70
     0
 43
0.0
 10
486.6114506317821
 20
1234.928007286532
 10
486.6114429497152
 20
1234.925754719693
 10
486.6114506317784
 20
1234.903143021204
  0
LWPOLYLINE
  5
175D
330
1F
100
AcDbEntity
  8
Hewi
  6
CUSTOM
 62
    18
420
        0
370
     9
100
AcDbPolyline
 90
       11
 70
     0
 43
0.0
 10
661.4971943729027
 20
1254.287912248725
 10
661.4971932415206
 20
1254.300074349243
 10
661.4214044878804
 20
1256.389484271392
 10
661.3205796619253
 20
1257.391683168382
 10
661.1739807423722
 20
1258.338137217818
 10
660.961294713335
 20
1259.303153069937
 10
660.7379338827045
 20
1260.050471362589
 10
660.4462308622291
 20
1260.77849323984
 10
659.8285748657323
 20
1261.791654959337
 10
659.2199789757174
 20
1262.422663094397
 10
657.4307498394569
 20
1263.823172236898
  0
LWPOLYLINE
  5
175E
330
1F
100
AcDbEntity
  8
Hewi
  6
CUSTOM
 62
    18
420
        0
370
     9
100
AcDbPolyline
 90
        3
 70
     0
 43
0.0
 10
486.6114506317821
 20
1087.647722955074
 10
486.6114429497152
 20
1087.650088518947
 10
486.6114506317784
 20
1087.672695698587
  0
LWPOLYLINE
  5
175F
330
1F
100
AcDbEntity
  8
Hewi
  6
CUSTOM
 62
    18
420
        0
370
     9
100
AcDbPolyline
 90
        4
 70
     0
 43
0.0
 10
620.3038925125342
 20
1139.144046391002
 10
620.1904153718309
 20
1139.154259518101
 10
619.9685130277952
 20
1139.124200804469
 10
619.7588629321193
 20
1139.045517810725
  0
LWPOLYLINE
  5
1760
330
1F
100
AcDbEntity
  8
Hewi
  6
CUSTOM
 62
    18
420
        0
370
     9
100
AcDbPolyline
 90
       12
 70
     0
 43
0.0
 10
630.9034965898586
 20
1142.617841448952
 10
628.7610901479561
 20
1140.949714132769
 10
622.8888442976563
 20
1137.307962144586
 10
622.7708935046917
 20
1137.237130017818
 10
622.7421590509052
 20
1137.217956152556
 10
622.7007733042515
 20
1137.188903815287
 10
622.6345257214211
 20
1137.138497075104
 10
622.6085164485753
 20
1137.117234911325
 10
622.4914707007642
 20
1137.009365845006
 10
622.4199276880711
 20
1136.944989387259
 10
622.3433837867246
 20
1136.891787919876
 10
622.2243078250151
 20
1136.835877789734
  0
LWPOLYLINE
  5
1761
330
1F
100
AcDbEntity
  8
Hewi
  6
CUSTOM
 62
    18
420
        0
370
     9
100
AcDbPolyline
 90
        3
 70
     1
 43
0.0
 10
624.1151708137398
 20
1133.790911348348
 10
623.3021644008345
 20
1135.416765928692
 10
623.9920445474157
 20
1133.943179058178
  0
LWPOLYLINE
  5
1762
330
1F
100
AcDbEntity
  8
Hewi
  6
CUSTOM
 62
    18
420
        0
370
     9
100
AcDbPolyline
 90
        3
 70
     0
 43
0.0
 10
616.3869534911775
 20
1254.287911374677
 10
996.6114556739842
 20
1254.287918741842
 10
1008.301670887759
 20
1254.287918560369
  0
LWPOLYLINE
  5
1763
330
1F
100
AcDbEntity
  8
Hewi
  6
CUSTOM
 62
    18
420
        0
370
     9
100
AcDbPolyline
 90
        4
 70
     0
 43
0.0
 10
652.3244124930056
 20
1171.431006597058
 10
653.0255351485461
 20
1172.996833672863
 10
654.8969430613192
 20
1179.457321355843
 10
655.0123513711674
 20
1180.093003359455
  0
LWPOLYLINE
  5
1764
330
1F
100
AcDbEntity
  8
Hewi
  6
CUSTOM
 62
    18
420
        0
370
     9
100
AcDbPolyline
 90
        4
 70
     0
 43
0.0
 10
632.5643674409234
 20
1143.91103399222
 10
634.2043758225859
 20
1145.187982533222
 10
638.3556440042389
 20
1149.123151541789
 10
639.511677535525
 20
1150.429150860605
  0
LINE
  5
1766
330
1F
100
AcDbEntity
  8
Hewi
  6
CUSTOM
 62
    18
420
        0
370
     9
100
AcDbLine
 10
641.2094390127472
 20
1236.300292969701
 30
0.0
 11
636.5129012988067
 21
1241.209931373558
 31
0.0
  0
LINE
  5
1767
330
1F
100
AcDbEntity
  8
Hewi
  6
CUSTOM
 62
    18
420
        0
370
     9
100
AcDbLine
 10
635.9348421028276
 20
1241.814219425981
 30
0.0
 11
635.7819371383861
 21
1241.97406229988
 31
0.0
  0
LWPOLYLINE
  5
1768
330
1F
100
AcDbEntity
  8
Hewi
  6
CUSTOM
 62
    18
420
        0
370
     9
100
AcDbPolyline
 90
        6
 70
     0
 43
0.0
 10
1096.611458119883
 20
1232.616339010917
 10
1096.611458346495
 20
1235.255924688342
 10
1096.611458183195
 20
1238.454352168358
 10
1096.61145767086
 20
1242.112687936023
 10
1096.611457157541
 20
1244.944934789073
 10
1096.611456949283
 20
1246.094005582917
  0
LWPOLYLINE
  5
1769
330
1F
100
AcDbEntity
  8
Hewi
  6
CUSTOM
 62
    18
420
        0
370
     9
100
AcDbPolyline
 90
        5
 70
     0
 43
0.0
 10
623.3643735407691
 20
1134.171994298456
 10
623.4326925635191
 20
1134.071759614541
 10
623.5208128259341
 20
1133.993650074347
 10
623.618071714312
 20
1133.941610938171
 10
624.1151708137398
 20
1133.790911348348
  0
LWPOLYLINE
  5
176A
330
1F
100
AcDbEntity
  8
Hewi
  6
CUSTOM
 62
    18
420
        0
370
     9
100
AcDbPolyline
 90
        5
 70
     0
 43
0.0
 10
537.8099141519754
 20
1230.689789242357
 10
536.7299433503643
 20
1229.116401828299
 10
533.570092291096
 20
1223.54891928692
 10
533.4115500819892
 20
1223.232298958946
 10
533.0332409840771
 20
1222.276945697816
  0
LWPOLYLINE
  5
176B
330
1F
100
AcDbEntity
  8
Hewi
  6
CUSTOM
 62
    18
420
        0
370
     9
100
AcDbPolyline
 90
        3
 70
     0
 43
0.0
 10
598.1457844240154
 20
1259.138006418577
 10
593.7265693230542
 20
1259.373010994588
 10
591.6114469718062
 20
1259.446443876786
  0
LWPOLYLINE
  5
176C
330
1F
100
AcDbEntity
  8
Hewi
  6
CUSTOM
 62
    18
420
        0
370
     9
100
AcDbPolyline
 90
        4
 70
     0
 43
0.0
 10
552.7765283818312
 20
1246.302951984755
 10
547.649899758427
 20
1242.166729101789
 10
546.149413182929
 20
1240.744371630018
 10
545.5991221639101
 20
1240.131813246953
  0
LWPOLYLINE
  5
176D
330
1F
100
AcDbEntity
  8
Hewi
  6
CUSTOM
 62
    18
420
        0
370
     9
100
AcDbPolyline
 90
        3
 70
     0
 43
0.0
 10
640.4614293464215
 20
1151.502108681039
 10
642.1263416004326
 20
1153.383000723336
 10
644.3053507977978
 20
1156.609896246952
  0
LINE
  5
176E
330
1F
100
AcDbEntity
  8
Hewi
  6
CUSTOM
 62
    18
420
        0
370
     9
100
AcDbLine
 10
621.9884174329413
 20
1136.872460100187
 30
0.0
 11
621.9786651552781
 21
1136.891600021997
 31
0.0
  0
LINE
  5
176F
330
1F
100
AcDbEntity
  8
Hewi
  6
CUSTOM
 62
    18
420
        0
370
     9
100
AcDbLine
 10
655.2255354860185
 20
1181.267245538756
 30
0.0
 11
656.0713927145711
 21
1185.926322675584
 31
0.0
  0
LWPOLYLINE
  5
1770
330
1F
100
AcDbEntity
  8
Hewi
  6
CUSTOM
 62
    18
420
        0
370
     9
100
AcDbPolyline
 90
        3
 70
     0
 43
0.0
 10
647.4895390438663
 20
1161.325361794321
 10
648.4094399035234
 20
1162.687643316482
 10
649.9677596119339
 20
1166.167860612131
  0
LWPOLYLINE
  5
1771
330
1F
100
AcDbEntity
  8
Hewi
  6
CUSTOM
 62
    18
420
        0
370
     9
100
AcDbPolyline
 90
        5
 70
     0
 43
0.0
 10
563.1833437416221
 20
1252.737251831024
 10
562.9630839382968
 20
1252.634019420696
 10
556.072952115351
 20
1248.712288090795
 10
554.1095636681851
 20
1247.378460171567
 10
553.842613057051
 20
1247.163081351
  0
LWPOLYLINE
  5
1772
330
1F
100
AcDbEntity
  8
Hewi
  6
CUSTOM
 62
    18
420
        0
370
     9
100
AcDbPolyline
 90
        5
 70
     0
 43
0.0
 10
584.2673614328464
 20
1258.841369728782
 10
583.7362962366727
 20
1258.809078940374
 10
582.5954316652782
 20
1258.659569062672
 10
575.819179930689
 20
1257.340287187316
 10
573.6830151049739
 20
1256.764188977179
  0
LWPOLYLINE
  5
1773
330
1F
100
AcDbEntity
  8
Hewi
  6
CUSTOM
 62
    18
420
        0
370
     9
100
AcDbPolyline
 90
        4
 70
     0
 43
0.0
 10
1096.61145655202
 20
1228.287936145141
 10
1096.611456220441
 20
1228.510971642633
 10
1096.611456828051
 20
1229.219462656206
 10
1096.611458119883
 20
1232.616339010917
  0
LWPOLYLINE
  5
1774
330
1F
100
AcDbEntity
  8
Hewi
  6
CUSTOM
 62
    18
420
        0
370
     9
100
AcDbPolyline
 90
        4
 70
     0
 43
0.0
 10
573.6414321650422
 20
1256.752974553564
 10
573.5592465154799
 20
1256.730810062771
 10
565.0988062224563
 20
1253.634999880403
 10
563.2832148740431
 20
1252.784059907517
  0
LWPOLYLINE
  5
1775
330
1F
100
AcDbEntity
  8
Hewi
  6
CUSTOM
 62
    18
420
        0
370
     9
100
AcDbPolyline
 90
        4
 70
     0
 43
0.0
 10
544.0530857392891
 20
1238.410837363843
 10
540.5656646543643
 20
1234.52880231873
 10
539.3818679287447
 20
1232.979936609446
 10
538.3635744841297
 20
1231.496405677704
  0
LINE
  5
1778
330
1F
100
AcDbEntity
  8
Hewi
  6
CUSTOM
 62
    18
420
        0
370
     9
100
AcDbLine
 10
591.6114466115736
 20
1259.287918104118
 30
0.0
 11
585.8529406093288
 21
1258.937778987116
 31
0.0
  0
LINE
  5
177D
330
1F
100
AcDbEntity
  8
Hewi
  6
CUSTOM
 62
    18
420
        0
370
     9
100
AcDbLine
 10
606.6176673145869
 20
1264.287918419055
 30
0.0
 11
606.6114522555176
 21
1264.287918419055
 31
0.0
  0
LINE
  5
177F
330
1F
100
AcDbEntity
  8
Hewi
  6
CUSTOM
 62
    18
420
        0
370
     9
100
AcDbLine
 10
532.3500425741472
 20
1220.55164796502
 30
0.0
 11
532.1985335128533
 21
1220.16903840951
 31
0.0
  0
LWPOLYLINE
  5
1784
330
1F
100
AcDbEntity
  8
Hewi
  6
CUSTOM
 62
    18
420
        0
370
     9
100
AcDbPolyline
 90
        3
 70
     0
 43
0.0
 10
1096.611457157541
 20
1254.287912459402
 10
769.8890102533527
 20
1254.287914348906
 10
661.497183332101
 20
1254.287914975759
  0
LINE
  5
1785
330
1F
100
AcDbEntity
  8
Hewi
  6
CUSTOM
 62
    18
420
        0
370
     9
100
AcDbLine
 10
661.497183332101
 20
1254.287914975759
 30
0.0
 11
616.386927647663
 21
1254.287915236642
 31
0.0
  0
LWPOLYLINE
  5
1792
330
1F
100
AcDbEntity
  8
Hewi
  6
CUSTOM
 62
    18
420
        0
370
     9
100
AcDbPolyline
 90
       26
 70
     0
 43
0.0
 10
489.322310244593
 20
1063.603266206643
 10
489.2297341849183
 20
1063.555640373848
 10
489.1738578871077
 20
1063.526885572202
 10
489.1655311200516
 20
1063.522599874374
 10
489.1353530238078
 20
1063.507065851616
 10
489.1114506564986
 20
1063.494759568642
 10
486.6114506317784
 20
1062.220945984484
 10
486.6114506317784
 20
1063.003512482108
 10
486.6114506317784
 20
1064.86075863905
 10
486.6114506317784
 20
1065.171227309331
 10
486.6114506317784
 20
1065.79106917198
 10
486.6114506317784
 20
1066.690271068127
 10
486.6114506317784
 20
1067.825293038657
 10
486.6114506317784
 20
1069.141176558225
 10
486.6114506317784
 20
1070.330129966836
 10
486.6114506317784
 20
1071.560506647645
 10
486.6114506317784
 20
1255.966308935123
 10
486.6114506317784
 20
1257.421603901774
 10
486.6114506317784
 20
1258.78998607465
 10
486.6114506317784
 20
1259.989733246004
 10
486.6114506317784
 20
1260.949194389152
 10
486.6114506317784
 20
1261.611068784737
 10
486.6114506317784
 20
1261.9358281212
 10
486.6114506317784
 20
1263.631685054855
 10
486.6114506317784
 20
1264.287918419053
 10
500.6112825598989
 20
1264.287918419053
  0
LWPOLYLINE
  5
1793
330
1F
100
AcDbEntity
  8
Hewi
  6
CUSTOM
 62
    18
420
        0
370
     9
100
AcDbPolyline
 90
        5
 70
     0
 43
0.0
 10
490.273920263367
 20
1064.091734630885
 10
490.0867904586788
 20
1063.995832904613
 10
489.8937194851854
 20
1063.896807384315
 10
489.8062387900348
 20
1063.851912855901
 10
489.5704191747312
 20
1063.730810924857
  0
LWPOLYLINE
  5
1795
330
1F
100
AcDbEntity
  8
Hewi
  6
CUSTOM
 62
    18
420
        0
370
     9
100
AcDbPolyline
 90
       13
 70
     0
 43
0.0
 10
501.4395723874399
 20
1069.780217112678
 10
501.3434067072698
 20
1069.729896243551
 10
501.151075137433
 20
1069.629254392778
 10
494.1114507059351
 20
1066.042386736959
 10
494.1040819144996
 20
1066.038671389778
 10
494.0840810087498
 20
1066.028586475166
 10
494.0748073557256
 20
1066.023910111588
 10
494.0238201906136
 20
1065.998194557241
 10
494.0037154211616
 20
1065.98805269381
 10
493.9001693078838
 20
1065.93580379466
 10
493.89344977891
 20
1065.932412344702
 10
493.783102803261
 20
1065.876703663121
 10
493.643554281181
 20
1065.806214164418
  0
LWPOLYLINE
  5
1796
330
1F
100
AcDbEntity
  8
Hewi
  6
CUSTOM
 62
    18
420
        0
370
     9
100
AcDbPolyline
 90
       13
 70
     0
 43
0.0
 10
493.6426707403057
 20
1065.805767732115
 10
493.3812847081894
 20
1065.673622041252
 10
493.3187095269726
 20
1065.641964512736
 10
493.1793723788773
 20
1065.571441477829
 10
492.9607474930358
 20
1065.460706987211
 10
492.9367975955768
 20
1065.448570334458
 10
492.5859485695869
 20
1065.270640983968
 10
492.5150908733008
 20
1065.234674363931
 10
492.3384121808298
 20
1065.144947725636
 10
492.0835250407758
 20
1065.015390373537
 10
492.0661818528146
 20
1065.006570204039
 10
491.6690847438743
 20
1064.804451736997
 10
491.6055242543437
 20
1064.772069264138
  0
LWPOLYLINE
  5
1797
330
1F
100
AcDbEntity
  8
Hewi
  6
CUSTOM
 62
    18
420
        0
370
     9
100
AcDbPolyline
 90
        5
 70
     0
 43
0.0
 10
489.5704191747312
 20
1063.730810924857
 10
489.5627930858641
 20
1063.726892622366
 10
489.4515132721656
 20
1063.66970226404
 10
489.3538828674222
 20
1063.619504274832
 10
489.322310244593
 20
1063.603266206643
  0
LINE
  5
1798
330
1F
100
AcDbEntity
  8
Hewi
  6
CUSTOM
 62
    18
420
        0
370
     9
100
AcDbLine
 10
493.643554281181
 20
1065.806214164418
 30
0.0
 11
493.6426707403057
 21
1065.805767732115
 31
0.0
  0
LWPOLYLINE
  5
179A
330
1F
100
AcDbEntity
  8
Hewi
  6
CUSTOM
 62
    18
420
        0
370
     9
100
AcDbPolyline
 90
        4
 70
     0
 43
0.0
 10
491.6055242543437
 20
1064.772069264138
 10
491.4251698124894
 20
1064.68013701546
 10
491.1819776511978
 20
1064.556069338495
 10
491.1439835248016
 20
1064.536675366384
  0
LWPOLYLINE
  5
179B
330
1F
100
AcDbEntity
  8
Hewi
  6
CUSTOM
 62
    18
420
        0
370
     9
100
AcDbPolyline
 90
        3
 70
     0
 43
0.0
 10
490.6962672557015
 20
1064.307915714774
 10
490.4310264624668
 20
1064.172193160284
 10
490.273920263367
 20
1064.091734630885
  0
LWPOLYLINE
  5
179C
330
1F
100
AcDbEntity
  8
Hewi
  6
CUSTOM
 62
    18
420
        0
370
     9
100
AcDbPolyline
 90
        3
 70
     0
 43
0.0
 10
491.1439835248016
 20
1064.536675366384
 10
490.8013940226532
 20
1064.361668068579
 10
490.6962672557015
 20
1064.307915714774
  0
LWPOLYLINE
  5
179F
330
1F
100
AcDbEntity
  8
Hewi
  6
CUSTOM
 62
    18
420
        0
370
     9
100
AcDbPolyline
 90
        5
 70
     0
 43
0.0
 10
526.6629863212797
 20
1220.244273772914
 10
527.2520555049553
 20
1220.202684951203
 10
527.8933146650318
 20
1220.176324304629
 10
528.5707448803691
 20
1220.169038488508
 10
533.520286793751
 20
1220.169038488508
  0
LINE
  5
17A0
330
1F
100
AcDbEntity
  8
Hewi
  6
CUSTOM
 62
    18
420
        0
370
     9
100
AcDbLine
 10
525.7054935676801
 20
1220.365459467857
 30
0.0
 11
526.1421260351429
 21
1220.299171651291
 31
0.0
  0
LWPOLYLINE
  5
17A1
330
1F
100
AcDbEntity
  8
Hewi
  6
CUSTOM
 62
    18
420
        0
370
     9
100
AcDbPolyline
 90
       11
 70
     0
 43
0.0
 10
501.4395723874399
 20
1069.780217112678
 10
622.9452852554473
 20
1131.690467542056
 10
623.0387278134943
 20
1131.752148432055
 10
623.1161022817082
 20
1131.8330757778
 10
623.1735287811638
 20
1131.92919154425
 10
623.2081277073897
 20
1132.035676085533
 10
623.2181641257497
 20
1132.147189822108
 10
623.2031347683163
 20
1132.258140989582
 10
623.1637932698336
 20
1132.362966033127
 10
623.064601096999
 20
1132.55764162562
 10
622.7067715496426
 20
1133.259921625678
  0
LINE
  5
17A4
330
1F
100
AcDbEntity
  8
Hewi
  6
CUSTOM
 62
    18
420
        0
370
     9
100
AcDbLine
 10
522.2664268999665
 20
1221.3940073667
 30
0.0
 11
525.3691078400347
 21
1220.441218104144
 31
0.0
  0
LINE
  5
17A5
330
1F
100
AcDbEntity
  8
Hewi
  6
CUSTOM
 62
    18
420
        0
370
     9
100
AcDbLine
 10
526.1421260351429
 20
1220.299171651291
 30
0.0
 11
526.6629863212797
 21
1220.244273772914
 31
0.0
  0
LINE
  5
17A6
330
1F
100
AcDbEntity
  8
Hewi
  6
CUSTOM
 62
    18
420
        0
370
     9
100
AcDbLine
 10
622.7067715496426
 20
1133.259921625678
 30
0.0
 11
621.7962276711963
 21
1135.046964534047
 31
0.0
  0
LINE
  5
17A7
330
1F
100
AcDbEntity
  8
Hewi
  6
CUSTOM
 62
    18
420
        0
370
     9
100
AcDbLine
 10
621.7962276711963
 20
1135.046964534047
 30
0.0
 11
620.2072384524231
 21
1138.165531340215
 31
0.0
  0
LWPOLYLINE
  5
17A8
330
1F
100
AcDbEntity
  8
Hewi
  6
CUSTOM
 62
    18
420
        0
370
     9
100
AcDbPolyline
 90
        3
 70
     0
 43
0.0
 10
620.2072384524231
 20
1138.165531340215
 10
619.6717637981577
 20
1139.216459479064
 10
619.6131849387816
 20
1139.331426959166
  0
LWPOLYLINE
  5
17A9
330
1F
100
AcDbEntity
  8
Hewi
  6
CUSTOM
 62
    18
420
        0
370
     9
100
AcDbPolyline
 90
       23
 70
     0
 43
0.0
 10
500.6112825598989
 20
1264.287918419053
 10
501.9299291722139
 20
1264.129646836312
 10
503.2616797859057
 20
1263.65517304287
 10
504.4886183607391
 20
1262.864381032559
 10
505.4006538090375
 20
1261.8945048432
 10
506.0227900867279
 20
1260.87893962639
 10
506.4174479632561
 20
1259.799971599583
 10
506.5645989283707
 20
1259.033577269235
 10
506.6114508295282
 20
1258.287918605477
 10
506.6114508295282
 20
1227.287916515613
 10
506.7432927849818
 20
1226.188928565108
 10
507.1387326543639
 20
1225.079138923712
 10
507.7977679511255
 20
1224.056699723766
 10
508.6060318041413
 20
1223.296689997112
 10
509.4498930518978
 20
1222.79243261303
 10
510.3482683572415
 20
1222.461125570192
 10
510.9886143831186
 20
1222.331153667159
 10
511.6115908417428
 20
1222.287919724016
 10
520.1114475356274
 20
1222.287919724016
 10
520.2227080037041
 20
1222.275383680496
 10
520.3283894073297
 20
1222.238404159506
 10
520.7782046636724
 20
1222.003665000154
 10
520.8400482631018
 20
1221.943774006028
  0
LINE
  5
17AA
330
1F
100
AcDbEntity
  8
Hewi
  6
CUSTOM
 62
    18
420
        0
370
     9
100
AcDbLine
 10
520.5684823179104
 20
1222.048443208546
 30
0.0
 11
522.2664268999665
 21
1221.3940073667
 31
0.0
  0
LWPOLYLINE
  5
17B4
330
1F
100
AcDbEntity
  8
Hewi
  6
CUSTOM
 62
    18
420
        0
370
     9
100
AcDbPolyline
 90
        5
 70
     0
 43
0.0
 10
621.7962276711963
 20
1135.046964534047
 10
621.8305944905055
 20
1134.955302647767
 10
621.833958378194
 20
1134.736745914295
 10
621.8113528664847
 20
1133.915935070015
 10
622.7501531013981
 20
1132.938612599044
  0
LINE
  5
17B5
330
1F
100
AcDbEntity
  8
Hewi
  6
CUSTOM
 62
    18
420
        0
370
     9
100
AcDbLine
 10
491.1437603468816
 20
1064.536560681815
 30
0.0
 11
491.5290499827073
 21
1064.733087957745
 31
0.0
  0
LWPOLYLINE
  5
17B6
330
1F
100
AcDbEntity
  8
Hewi
  6
CUSTOM
 62
    18
420
        0
370
     9
100
AcDbPolyline
 90
        3
 70
     0
 43
0.0
 10
620.2072384524231
 20
1138.165531340215
 10
620.2407005983054
 20
1138.072245175377
 10
621.0236452268486
 20
1135.461898295518
  0
LWPOLYLINE
  5
17B8
330
1F
100
AcDbEntity
  8
Hewi
  6
CUSTOM
 62
    18
420
        0
370
     9
100
AcDbPolyline
 90
        3
 70
     0
 43
0.0
 10
622.7501531013981
 20
1132.938612599044
 10
622.709760772877
 20
1132.152710346917
 10
623.1092939517361
 20
1132.233759022096
  0
LWPOLYLINE
  5
17B9
330
1F
100
AcDbEntity
  8
Hewi
  6
CUSTOM
 62
    18
420
        0
370
     9
100
AcDbPolyline
 90
        3
 70
     0
 43
0.0
 10
622.7067715496426
 20
1133.259921625678
 10
622.7437939683272
 20
1133.163047832377
 10
622.7501531013981
 20
1132.938612599044
  0
LWPOLYLINE
  5
17BA
330
1F
100
AcDbEntity
  8
Hewi
  6
CUSTOM
 62
    18
420
        0
370
     9
100
AcDbPolyline
 90
        3
 70
     0
 43
0.0
 10
522.5063209609174
 20
1221.320339313051
 10
522.4740290139483
 20
1221.351380725816
 10
522.266840388925
 20
1221.394827761477
  0
LINE
  5
17BB
330
1F
100
AcDbEntity
  8
Hewi
  6
CUSTOM
 62
    18
420
        0
370
     9
100
AcDbLine
 10
525.7054935676801
 20
1220.365459467857
 30
0.0
 11
525.4742458175928
 21
1220.433667523922
 31
0.0
  0
LINE
  5
17BC
330
1F
100
AcDbEntity
  8
Hewi
  6
CUSTOM
 62
    18
420
        0
370
     9
100
AcDbLine
 10
525.4742458175928
 20
1220.433667523922
 30
0.0
 11
525.3173753376609
 21
1220.457104422393
 31
0.0
  0
LINE
  5
17BD
330
1F
100
AcDbEntity
  8
Hewi
  6
CUSTOM
 62
    18
420
        0
370
     9
100
AcDbLine
 10
522.266840388925
 20
1221.394827761477
 30
0.0
 11
522.2689182557947
 21
1221.393242306737
 31
0.0
  0
LINE
  5
17BE
330
1F
100
AcDbEntity
  8
Hewi
  6
CUSTOM
 62
    18
420
        0
370
     9
100
AcDbLine
 10
522.2642309780781
 20
1221.394853744225
 30
0.0
 11
522.266840388925
 21
1221.394827761477
 31
0.0
  0
LINE
  5
17BF
330
1F
100
AcDbEntity
  8
Hewi
  6
CUSTOM
 62
    18
420
        0
370
     9
100
AcDbLine
 10
491.6054673632147
 20
1064.772040264966
 30
0.0
 11
491.6946081141973
 21
1064.817442877872
 31
0.0
  0
LWPOLYLINE
  5
17C0
330
1F
100
AcDbEntity
  8
Hewi
  6
CUSTOM
 62
    18
420
        0
370
     9
100
AcDbPolyline
 90
        3
 70
     0
 43
0.0
 10
493.1620949742367
 20
1065.562690394462
 10
493.3254005949487
 20
1065.645349603616
 10
493.3896069963951
 20
1065.67782943717
  0
LINE
  5
17C1
330
1F
100
AcDbEntity
  8
Hewi
  6
CUSTOM
 62
    18
420
        0
370
     9
100
AcDbLine
 10
492.9521366068652
 20
1065.456343405465
 30
0.0
 11
492.9821782926315
 21
1065.471561783852
 31
0.0
  0
LINE
  5
17C2
330
1F
100
AcDbEntity
  8
Hewi
  6
CUSTOM
 62
    18
420
        0
370
     9
100
AcDbLine
 10
492.5183036666943
 20
1065.236305144006
 30
0.0
 11
492.6504419203316
 21
1065.303348100587
 31
0.0
  0
LINE
  5
17C3
330
1F
100
AcDbEntity
  8
Hewi
  6
CUSTOM
 62
    18
420
        0
370
     9
100
AcDbLine
 10
492.0704705501861
 20
1065.008751293111
 30
0.0
 11
492.3920836678676
 21
1065.172204901004
 31
0.0
  0
LINE
  5
17C4
330
1F
100
AcDbEntity
  8
Hewi
  6
CUSTOM
 62
    18
420
        0
370
     9
100
AcDbLine
 10
493.9961724963226
 20
1065.984246568145
 30
0.0
 11
494.0415794384839
 21
1066.007151495774
 31
0.0
  0
LINE
  5
17C5
330
1F
100
AcDbEntity
  8
Hewi
  6
CUSTOM
 62
    18
420
        0
370
     9
100
AcDbLine
 10
490.0583903237579
 20
1063.981266561022
 30
0.0
 11
490.253135680124
 21
1064.081082787283
 31
0.0
  0
LINE
  5
17C7
330
1F
100
AcDbEntity
  8
Hewi
  6
CUSTOM
 62
    18
420
        0
370
     9
100
AcDbLine
 10
490.2738141143595
 20
1064.091678615735
 30
0.0
 11
490.578374566126
 21
1064.247590540846
 31
0.0
  0
LINE
  5
17C8
330
1F
100
AcDbEntity
  8
Hewi
  6
CUSTOM
 62
    18
420
        0
370
     9
100
AcDbLine
 10
525.9098425910247
 20
1220.334436006286
 30
0.0
 11
525.7054765994703
 21
1220.365464471214
 31
0.0
  0
LINE
  5
17CB
330
1F
100
AcDbEntity
  8
Hewi
  6
CUSTOM
 62
    18
420
        0
370
     9
100
AcDbLine
 10
489.4420435402003
 20
1063.664833273645
 30
0.0
 11
489.5710636428006
 21
1063.731141337175
 31
0.0
  0
LINE
  5
17CC
330
1F
100
AcDbEntity
  8
Hewi
  6
CUSTOM
 62
    18
420
        0
370
     9
100
AcDbLine
 10
490.6960399569046
 20
1064.307799406975
 30
0.0
 11
490.8285510519103
 21
1064.37554087635
 31
0.0
  0
LINE
  5
17CD
330
1F
100
AcDbEntity
  8
Hewi
  6
CUSTOM
 62
    18
420
        0
370
     9
100
AcDbLine
 10
489.6089109855433
 20
1063.750577866689
 30
0.0
 11
489.8324407806626
 21
1063.865359548465
 31
0.0
  0
LINE
  5
17CE
330
1F
100
AcDbEntity
  8
Hewi
  6
CUSTOM
 62
    18
420
        0
370
     9
100
AcDbLine
 10
489.3227191429827
 20
1063.603476475048
 30
0.0
 11
489.4206530083206
 21
1063.653835043214
 31
0.0
  0
LINE
  5
17CF
330
1F
100
AcDbEntity
  8
Hewi
  6
CUSTOM
 62
    18
420
        0
370
     9
100
AcDbLine
 10
522.3123955796395
 20
1221.385274930359
 30
0.0
 11
521.8461820298266
 21
1221.555981619467
 31
0.0
  0
LINE
  5
17D0
330
1F
100
AcDbEntity
  8
Hewi
  6
CUSTOM
 62
    18
420
        0
370
     9
100
AcDbLine
 10
526.3700143561139
 20
1220.275152570433
 30
0.0
 11
526.1420680764745
 21
1220.299180450156
 31
0.0
  0
LINE
  5
17D1
330
1F
100
AcDbEntity
  8
Hewi
  6
CUSTOM
 62
    18
420
        0
370
     9
100
AcDbLine
 10
525.4742458175928
 20
1220.433667523922
 30
0.0
 11
523.2806657356189
 21
1221.08254902183
 31
0.0
  0
LWPOLYLINE
  5
17D2
330
1F
100
AcDbEntity
  8
Hewi
  6
CUSTOM
 62
    18
420
        0
370
     9
100
AcDbPolyline
 90
        4
 70
     0
 43
0.0
 10
1096.611457157541
 20
1254.287911800438
 10
1096.611457157605
 20
1251.752594225808
 10
1096.611457157541
 20
1249.121470085012
 10
1096.611457157541
 20
1244.302321826273
  0
LINE
  5
17D3
330
1F
100
AcDbEntity
  8
Hewi
  6
CUSTOM
 62
    18
420
        0
370
     9
100
AcDbLine
 10
1108.30162215601
 20
1254.28791180044
 30
0.0
 11
1096.611457157541
 21
1254.287911800438
 31
0.0
  0
LWPOLYLINE
  5
17D6
330
1F
100
AcDbEntity
  8
Hewi
  6
CUSTOM
 62
    18
420
        0
370
     9
100
AcDbPolyline
 90
      107
 70
     1
 43
0.0
 10
631.8467045344108
 20
1143.237707107664
 10
639.9957559165064
 20
1150.883323696886
 10
646.7148937156739
 20
1159.811687318042
 10
651.8055455528259
 20
1169.758935782482
 10
655.1172661064679
 20
1180.431095540028
 10
656.5521832613263
 20
1191.512769553685
 10
656.0678905477375
 20
1202.676458308051
 10
653.6787003907789
 20
1213.592238485349
 10
649.4552211315379
 20
1223.937513272688
 10
643.5222703209561
 20
1233.406546147288
 10
636.0551859551682
 20
1241.719496385272
 10
627.2746446673441
 20
1248.630689265372
 10
617.4401400153324
 20
1253.935876556115
 10
606.8423136028991
 20
1257.478272715469
 10
595.794365674888
 20
1259.153188413638
 10
584.6227990311575
 20
1258.911124443296
 10
573.6577698067479
 20
1256.759234582194
 10
563.22333028409
 20
1252.761114175748
 10
553.6278520939482
 20
1247.034920687718
 10
545.1549128305954
 20
1239.749881762778
 10
538.0549154114337
 20
1231.121293999134
 10
532.5376878562451
 20
1221.404160233699
 10
532.4785500572848
 20
1221.266392824684
 10
532.4455649109909
 20
1221.179723314546
 10
532.4420555997435
 20
1221.169947303039
 10
532.4162890520688
 20
1221.093873518753
 10
532.3790108770822
 20
1220.963433106035
 10
532.3778404585294
 20
1220.958729189416
 10
532.3597407064021
 20
1220.877498546902
 10
532.3467525853043
 20
1220.800457498073
 10
532.3455135708987
 20
1220.791211017736
 10
532.3375505830131
 20
1220.697830666339
 10
532.337489559593
 20
1220.642337204723
 10
532.3375863829945
 20
1220.639873383891
 10
532.3421076301579
 20
1220.587750503757
 10
532.3556425340989
 20
1220.526168917218
 10
532.3572218143448
 20
1220.521322966205
 10
532.3714463740266
 20
1220.487091693403
 10
532.3890619926218
 20
1220.458832228645
 10
532.3982985459783
 20
1220.447828744008
 10
532.4237223634386
 20
1220.426149852524
 10
532.4298088184217
 20
1220.422383075995
 10
532.4665130131555
 20
1220.407965566562
 10
533.4875770085195
 20
1220.187237409657
 10
533.9351010787681
 20
1219.938247005987
 10
534.2261212011085
 20
1219.472080910478
 10
534.3771195652383
 20
1218.865817712727
 10
534.4055165461027
 20
1218.096270749725
 10
534.3095815823285
 20
1217.207993533748
 10
534.1026080651039
 20
1216.249033521979
 10
533.952350562658
 20
1215.727422272784
 10
533.7767619526544
 20
1215.20626407396
 10
531.0765437862804
 20
1205.148555121481
 10
530.1119650040504
 20
1194.779453194573
 10
530.9106817300447
 20
1184.396258186995
 10
533.4497933891266
 20
1174.296674065242
 10
537.6564993056104
 20
1164.770273186456
 10
543.410186023209
 20
1156.090193763486
 10
550.5458854991789
 20
1148.505308524988
 10
558.8590050203743
 20
1142.233089108476
 10
568.1111932263933
 20
1137.453370776378
 10
578.0371740508885
 20
1134.303196231363
 10
588.3523526402872
 20
1132.872886367582
 10
598.7609751751802
 20
1133.203450616085
 10
608.9646086383541
 20
1135.285411134275
 10
618.6706974000258
 20
1139.059074551862
 10
618.8618155091529
 20
1139.144733913538
 10
618.9782495333907
 20
1139.18951830139
 10
618.9826872516255
 20
1139.191117095697
 10
619.1026738375271
 20
1139.231295810031
 10
619.2828853084916
 20
1139.280353604429
 10
619.2908531624939
 20
1139.28220708053
 10
619.4051108474646
 20
1139.305744240243
 10
619.5152376832916
 20
1139.322735562154
 10
619.5688400256508
 20
1139.328795586805
 10
619.7101403257597
 20
1139.337180169532
 10
619.8233698302568
 20
1139.334899309191
 10
619.8853177492251
 20
1139.329600960525
 10
620.0367491934007
 20
1139.301125011333
 10
620.0511282037036
 20
1139.297024776011
 10
620.1866430129917
 20
1139.241059084827
 10
620.203840823307
 20
1139.230955706792
 10
620.2848340475225
 20
1139.167990378016
 10
620.2912058126526
 20
1139.161541731038
 10
620.3522555064242
 20
1139.077352370679
 10
620.7409170003369
 20
1138.330740618009
 10
621.1071539057825
 20
1137.627206097225
 10
621.450706322033
 20
1136.967248072962
 10
621.4897363419345
 20
1136.919406631122
 10
621.5234057007251
 20
1136.896742873766
 10
621.5249537504364
 20
1136.895911575327
 10
621.5680707157603
 20
1136.877778954746
 10
621.6486001079497
 20
1136.860948780076
 10
621.6535004872162
 20
1136.860408156662
 10
621.7164358723907
 20
1136.857054676455
 10
621.7858258246174
 20
1136.859686364601
 10
621.8016223416521
 20
1136.861061097863
 10
621.9045154562277
 20
1136.87576398988
 10
621.9670297425778
 20
1136.888835746818
 10
621.9851034987764
 20
1136.893129606977
 10
622.0692861989714
 20
1136.915967703068
 10
622.1509727978132
 20
1136.942341135906
 10
622.2004403477199
 20
1136.960162198047
 10
622.284720243458
 20
1136.993561967095
 10
622.3289368432773
 20
1137.012595450387
 10
622.3693122881646
 20
1137.030894849721
 10
622.5085705463039
 20
1137.100790391519
  0
LWPOLYLINE
  5
17D7
330
1F
100
AcDbEntity
  8
Hewi
  6
CUSTOM
 62
    18
420
        0
370
     9
100
AcDbPolyline
 90
        9
 70
     0
 43
0.0
 10
621.9492246455406
 20
1134.746691076868
 10
622.0251598256449
 20
1134.636658806659
 10
622.1178877121251
 20
1134.561385603447
 10
622.2253640026951
 20
1134.509400738861
 10
622.3420562170953
 20
1134.484512562391
 10
622.461259167148
 20
1134.489270494074
 10
622.576114704681
 20
1134.522007838732
 10
622.680411570001
 20
1134.580182647414
 10
622.763767507909
 20
1134.669420601103
  0
LWPOLYLINE
  5
17D8
330
1F
100
AcDbEntity
  8
Hewi
  6
CUSTOM
 62
    18
420
        0
370
     9
100
AcDbPolyline
 90
        6
 70
     0
 43
0.0
 10
622.763767507909
 20
1134.669420601103
 10
622.5958350586075
 20
1134.997604947387
 10
622.5093847494441
 20
1134.914502984204
 10
622.4050879925321
 20
1134.856502442726
 10
622.2903205988599
 20
1134.823824347219
 10
621.9341756451662
 20
1134.776226401361
  0
LINE
  5
17D9
330
1F
100
AcDbEntity
  8
Hewi
  6
CUSTOM
 62
    18
420
        0
370
     9
100
AcDbLine
 10
622.9753650578453
 20
1134.935466375766
 30
0.0
 11
622.763767507909
 21
1134.669420601103
 31
0.0
  0
LINE
  5
17DA
330
1F
100
AcDbEntity
  8
Hewi
  6
CUSTOM
 62
    18
420
        0
370
     9
100
AcDbLine
 10
622.763767507909
 20
1134.669420601103
 30
0.0
 11
621.9348697045566
 21
1134.774864233293
 31
0.0
  0
LWPOLYLINE
  5
17DB
330
1F
100
AcDbEntity
  8
Hewi
  6
CUSTOM
 62
    18
420
        0
370
     9
100
AcDbPolyline
 90
       35
 70
     1
 43
0.0
 10
537.584645218028
 20
1213.828983233239
 10
535.0084349937328
 20
1204.129031860658
 10
534.1594396751928
 20
1194.164253713563
 10
535.0513257952183
 20
1184.20322285693
 10
537.6570678774563
 20
1174.547773345397
 10
541.8977080600812
 20
1165.490479664206
 10
547.6447486364827
 20
1157.305791287031
 10
554.7240457269431
 20
1150.241716448596
 10
562.9210860972903
 20
1144.512307126189
 10
571.987487229027
 20
1140.291172946302
 10
581.6485236791844
 20
1137.70622055464
 10
591.6114516699613
 20
1136.835777854478
 10
602.0052949489994
 20
1137.783790336976
 10
612.0561225388096
 20
1140.596541652251
 10
621.4322388903615
 20
1145.181205902788
 10
629.8242151498339
 20
1151.386480848829
 10
636.9551008723059
 20
1159.007581156859
 10
642.5895638889882
 20
1167.792996687203
 10
646.541656695846
 20
1177.452792785055
 10
648.6809530586501
 20
1187.668178650189
 10
648.9368523153894
 20
1198.102028011877
 10
647.3009093262294
 20
1208.410004907564
 10
643.8271131784472
 20
1218.251927394496
 10
638.6301054485898
 20
1227.302994171117
 10
631.8813968224072
 20
1235.26450360943
 10
623.8037069309953
 20
1241.873711450747
 10
614.6636141988197
 20
1246.912501843015
 10
604.7627582719609
 20
1250.214585559727
 10
594.4278853624341
 20
1251.670987846162
 10
584.0000650302604
 20
1251.233644784031
 10
573.8234342690734
 20
1248.916989488003
 10
564.2338403608532
 20
1244.797475786723
 10
555.5477573061647
 20
1239.011055107746
 10
548.0518416078771
 20
1231.748689833709
 10
541.9934720863742
 20
1223.25005119719
  0
LWPOLYLINE
  5
17DC
330
1F
100
AcDbEntity
  8
Hewi
  6
CUSTOM
 62
    18
420
        0
370
     9
100
AcDbPolyline
 90
       34
 70
     1
 43
0.0
 10
625.6334463880733
 20
1149.235520448861
 10
633.3325144176646
 20
1156.254148043693
 10
639.6108216942825
 20
1164.567970146244
 10
644.2545679936223
 20
1173.893869516141
 10
647.1056161050178
 20
1183.914263835527
 10
648.0668770044917
 20
1194.287920593991
 10
647.1056161050178
 20
1204.661577352457
 10
644.2545679936223
 20
1214.681971671841
 10
639.6108216942825
 20
1224.007871041739
 10
633.3325144176646
 20
1232.321693144291
 10
625.6334463880733
 20
1239.340320739123
 10
616.77580013324
 20
1244.824742881413
 10
607.0612121728004
 20
1248.58819415294
 10
596.8205011483819
 20
1250.502514734418
 10
586.4024021915423
 20
1250.502514734418
 10
576.1616911671239
 20
1248.58819415294
 10
566.4471032066843
 20
1244.824742881413
 10
557.5894569518509
 20
1239.340320739123
 10
549.8903889222597
 20
1232.321693144291
 10
543.61208164564
 20
1224.007871041739
 10
538.9683353463001
 20
1214.681971671841
 10
536.1172872349064
 20
1204.661577352457
 10
535.1560263354326
 20
1194.287920593991
 10
536.1172872349064
 20
1183.914263835527
 10
538.9683353463001
 20
1173.893869516141
 10
543.61208164564
 20
1164.567970146244
 10
549.8903889222597
 20
1156.254148043693
 10
557.5894569518509
 20
1149.235520448861
 10
566.4471032066843
 20
1143.751098306572
 10
576.1616911671239
 20
1139.987647035044
 10
586.4024021915423
 20
1138.073326453566
 10
596.8205011483819
 20
1138.073326453566
 10
607.0612121728004
 20
1139.987647035044
 10
616.77580013324
 20
1143.751098306572
  0
LWPOLYLINE
  5
19B6
330
1F
100
AcDbEntity
  8
Hewi
370
    13
100
AcDbPolyline
 90
       42
 70
     0
 43
0.0
 10
168.5522141383699
 20
821.7277020591236
 10
168.5534827319243
 20
821.1805662363094
 10
168.5769305416288
 20
817.7565097695833
 10
168.6707193157181
 20
810.9250925352444
 10
169.045834978584
 20
797.2832079939244
 10
169.6708875543609
 20
783.6905087713721
 10
170.5456668006645
 20
770.0515504349469
 10
172.0114062018638
 20
768.2193762378483
 10
172.0528627414351
 20
768.1769440842789
 10
172.1018585231776
 20
768.1434996709003
 10
172.166394490152
 20
768.1174475624819
 10
172.2351970024065
 20
768.1069675039688
 10
172.5456668607439
 20
768.0961256579356
 10
172.5456668607439
 20
769.05738654824
 10
172.5456668607439
 20
771.9084346324424
 10
172.5456668607439
 20
776.5521808874882
 10
172.5456668607439
 20
782.8304881042231
 10
172.5456668607439
 20
790.5295560603789
 10
172.5456668607439
 20
799.387202230727
 10
172.5456668607439
 20
809.101790098505
 10
172.5456668607439
 20
819.3425010252475
 10
172.5456668607439
 20
829.7605998827165
 10
172.5456668607439
 20
840.0013108094572
 10
172.5456668607439
 20
849.7158986772381
 10
172.5456668607439
 20
858.5735448475825
 10
172.5456668607439
 20
866.2726128037412
 10
172.5456668607439
 20
872.550920020476
 10
172.5456668607439
 20
877.1946662755208
 10
172.5456668607439
 20
880.045714359724
 10
172.5456668607439
 20
881.0069752500295
 10
172.2351970024065
 20
880.9961334039934
 10
172.166394579699
 20
880.9856531691821
 10
172.1018584219164
 20
880.9596014322513
 10
172.0528628629326
 20
880.9261565877621
 10
172.0114062018638
 20
880.8837246701159
 10
170.5456668006645
 20
878.8047702531612
 10
169.6708875543609
 20
865.3962830745067
 10
169.0458349783548
 20
851.819892914048
 10
168.8270251759804
 20
844.9448000269839
 10
168.6707193157181
 20
838.1880150688537
 10
168.5945162371554
 20
832.910863386156
 10
168.5769305416288
 20
831.3700694526039
  0
LWPOLYLINE
  5
19B7
330
1F
100
AcDbEntity
  8
Hewi
370
    13
100
AcDbPolyline
 90
        3
 70
     0
 43
0.0
 10
168.5461552408469
 20
824.1497664600784
 10
168.5476207409865
 20
823.1341839935613
 10
168.5534827319243
 20
821.3392631997175
  0
LWPOLYLINE
  5
19B8
330
1F
100
AcDbEntity
  8
Hewi
370
    13
100
AcDbPolyline
 90
        3
 70
     0
 43
0.0
 10
168.5461552408469
 20
825.3032354365378
 10
168.5476207409865
 20
825.4986044449385
 10
168.5769305416288
 20
829.3729714755553
  0
LWPOLYLINE
  5
19B9
330
1F
100
AcDbEntity
  8
Hewi
370
    13
100
AcDbPolyline
 90
        3
 70
     0
 43
0.0
 10
168.5461552408469
 20
824.1497664600784
 10
168.5534827319243
 20
823.2468696127497
 10
168.6160096767453
 20
819.1299025625358
  0
LWPOLYLINE
  5
19BA
330
1F
100
AcDbEntity
  8
Hewi
370
    13
100
AcDbPolyline
 90
        3
 70
     0
 43
0.0
 10
168.5467658660218
 20
825.8285000580588
 10
168.5534827319243
 20
827.7013286354504
 10
168.5769305416288
 20
831.3700694526039
  0
LWPOLYLINE
  5
19BB
330
1F
100
AcDbEntity
  8
Hewi
370
    13
100
AcDbPolyline
 90
        4
 70
     0
 43
0.0
 10
168.5769305416288
 20
831.3700694526039
 10
168.5632526825866
 20
829.5672085097603
 10
168.5500632390831
 20
827.0962133403198
 10
168.5467658660218
 20
825.8285000580588
  0
LWPOLYLINE
  5
19BC
330
1F
100
AcDbEntity
  8
Hewi
370
    13
100
AcDbPolyline
 90
        3
 70
     0
 43
0.0
 10
168.5461552408469
 20
825.3032354365378
 10
168.5456667405851
 20
824.5515504539817
 10
168.5461552408469
 20
824.1497664600784
  0
LINE
  5
19BD
330
1F
100
AcDbEntity
  8
Hewi
370
    13
100
AcDbLine
 10
168.5461552408469
 20
825.3032354365378
 30
0.0
 11
168.5467658660218
 21
825.8285000580588
 31
0.0
  0
LWPOLYLINE
  5
19BE
330
1F
100
AcDbEntity
  8
Hewi
370
    13
100
AcDbPolyline
 90
        6
 70
     0
 43
0.0
 10
244.884131552506
 20
755.7167052008654
 10
245.8356045840519
 20
755.4249930883143
 10
246.5376278638869
 20
755.2016304793424
 10
247.1881960686023
 20
754.9889502286104
 10
247.6269876489714
 20
754.8423632205914
 10
247.9248923557352
 20
754.7415558856347
  0
LINE
  5
19BF
330
1F
100
AcDbEntity
  8
Hewi
370
    13
100
AcDbLine
 10
254.3391853561388
 20
929.5515581727176
 30
0.0
 11
266.5156292675074
 21
929.5515504906534
 31
0.0
  0
LWPOLYLINE
  5
19C0
330
1F
100
AcDbEntity
  8
Hewi
370
    13
100
AcDbPolyline
 90
        6
 70
     0
 43
0.0
 10
212.8292013948339
 20
759.344507817298
 10
218.8958668368541
 20
759.5515504316754
 10
228.5850776508796
 20
759.0251014689839
 10
234.5572563431488
 20
758.1761628594768
 10
240.407042771305
 20
756.9430221984267
 10
242.7364618576321
 20
756.3343922453667
  0
LWPOLYLINE
  5
19C1
330
1F
100
AcDbEntity
  8
Hewi
370
    13
100
AcDbPolyline
 90
        3
 70
     0
 43
0.0
 10
212.4202598566626
 20
929.5515535310595
 10
249.0972877095865
 20
929.5515581727176
 10
249.3958677530736
 20
929.5515504906534
  0
LINE
  5
19C2
330
1F
100
AcDbEntity
  8
Hewi
370
    13
100
AcDbLine
 10
254.3391853561388
 20
929.5515581727176
 30
0.0
 11
254.0406053126499
 21
929.5515504906534
 31
0.0
  0
LINE
  5
19C3
330
1F
100
AcDbEntity
  8
Hewi
370
    13
100
AcDbLine
 10
172.8958654530797
 20
770.5699035651104
 30
0.0
 11
172.5456668607439
 21
770.5515504351214
 31
0.0
  0
LINE
  5
19C4
330
1F
100
AcDbEntity
  8
Hewi
370
    13
100
AcDbLine
 10
172.5456668607439
 20
878.3070342917024
 30
0.0
 11
172.8958654679809
 21
878.2887642653314
 31
0.0
  0
LINE
  5
19C5
330
1F
100
AcDbEntity
  8
Hewi
370
    13
100
AcDbLine
 10
188.8049968143514
 20
929.5515581727176
 30
0.0
 11
188.5064167708641
 21
929.5515504906534
 31
0.0
  0
LWPOLYLINE
  5
19C6
330
1F
100
AcDbEntity
  8
Hewi
370
    13
100
AcDbPolyline
 90
        3
 70
     0
 43
0.0
 10
183.8958657854491
 20
929.5515504906534
 10
183.5972857419638
 20
929.5515581727176
 10
169.6081894126018
 20
929.5515504906534
  0
LINE
  5
19C7
330
1F
100
AcDbEntity
  8
Hewi
370
    13
100
AcDbLine
 10
254.3505037821251
 20
929.5515504906514
 30
0.0
 11
254.3391853561388
 21
929.5515581727176
 31
0.0
  0
LINE
  5
19C8
330
1F
100
AcDbEntity
  8
Hewi
370
    13
100
AcDbLine
 10
227.8888677329833
 20
929.5515504906525
 30
0.0
 11
188.8049968143514
 21
929.5515581727176
 31
0.0
  0
LINE
  5
19C9
330
1F
100
AcDbEntity
  8
Hewi
370
    13
100
AcDbLine
 10
188.8163152403394
 20
929.5515504906514
 30
0.0
 11
188.8049968143514
 21
929.5515581727176
 31
0.0
  0
LWPOLYLINE
  5
19CA
330
1F
100
AcDbEntity
  8
Hewi
370
    13
100
AcDbPolyline
 90
        9
 70
     0
 43
0.0
 10
189.8669658293711
 20
754.7415983019227
 10
190.1649238624577
 20
754.8424231269164
 10
190.6037545934632
 20
754.9890220450715
 10
191.2543463387756
 20
755.2017080720807
 10
191.9563707408779
 20
755.425068900582
 10
192.9078225401572
 20
755.7167719182715
 10
195.0553997881725
 20
756.3344279088796
 10
197.3846973808868
 20
756.9430237930892
 10
206.8060669038096
 20
758.7322529122839
  0
LWPOLYLINE
  5
19CB
330
1F
100
AcDbEntity
  8
Hewi
370
    13
100
AcDbPolyline
 90
        2
 70
     0
 43
0.0
 10
189.6458538937877
 20
759.6658084193696
 10
189.6458538937877
 20
754.6658084176241
  0
LWPOLYLINE
  5
19CC
330
1F
100
AcDbEntity
  8
Hewi
370
    13
100
AcDbPolyline
 90
       34
 70
     0
 43
0.0
 10
248.8958731468301
 20
760.5871579777604
 10
248.8958737088287
 20
763.202940993785
 10
248.8958742610066
 20
767.3794794170608
 10
248.8958746028256
 20
770.8402766333411
 10
248.8958749363192
 20
774.9535635842702
 10
248.8958751275841
 20
780.3810654068637
 10
248.895874445705
 20
788.4493728232208
 10
248.8958737397425
 20
797.4203995211636
 10
248.8958729506412
 20
808.1445273256329
 10
248.8958723855503
 20
816.2809402657869
 10
248.8958718383165
 20
824.5515555123709
 10
248.8958718383165
 20
834.9355523792738
 10
248.8958718383165
 20
845.2905405233694
 10
248.8958718383165
 20
854.7442638057654
 10
248.8958718383165
 20
864.2909808635733
 10
248.8958718383165
 20
870.3458638729578
 10
248.8958718383165
 20
872.5695674810312
 10
248.8958718383165
 20
875.5973369826934
 10
248.8958718383165
 20
879.4440011036394
 10
248.8958718383165
 20
881.4916383342032
 10
248.8958718383165
 20
883.6380004611063
 10
248.8958718383165
 20
884.4600165605934
 10
248.8958685218822
 20
886.7894409324152
 10
248.8871429785559
 20
886.8320425251113
 10
248.8809161654863
 20
886.8471540951185
 10
248.8731070452814
 20
886.8629559374694
 10
248.8527668212773
 20
886.8966208516821
 10
248.8374611939526
 20
886.9182259276804
 10
248.7676567045928
 20
886.999668661695
 10
248.721562633229
 20
887.0393141397308
 10
248.7164246255288
 20
887.0428732838488
 10
248.6681673118837
 20
887.0702474818509
 10
248.6025230271425
 20
887.1041603374488
 10
248.5938247727645
 20
887.1046912923574
  0
LWPOLYLINE
  5
19CD
330
1F
100
AcDbEntity
  8
Hewi
370
    13
100
AcDbPolyline
 90
        9
 70
     0
 43
0.0
 10
218.2397730952598
 20
891.7349309312212
 10
218.8958668368541
 20
891.7788277215723
 10
228.1226765320353
 20
891.5324048932289
 10
233.7049912483308
 20
890.9873878299721
 10
235.6109369154365
 20
890.790103226026
 10
241.9176023429791
 20
889.6257016283753
 10
242.0001638121084
 20
889.5759961245465
 10
248.0529354248229
 20
887.2947676269912
 10
248.6107719206375
 20
887.0987358196517
  0
LWPOLYLINE
  5
19CE
330
1F
100
AcDbEntity
  8
Hewi
370
    13
100
AcDbPolyline
 90
       45
 70
     0
 43
0.0
 10
189.6458538771203
 20
758.8317675995668
 10
189.2519082440067
 20
759.2805667567017
 10
188.8958610540156
 20
759.5816135077812
 10
188.8958604911167
 20
760.7061479238809
 10
188.895859871156
 20
763.7962721878839
 10
188.8958592949366
 20
768.4914333074902
 10
188.8958587373818
 20
774.9535635842702
 10
188.8958585461205
 20
780.3810654068637
 10
188.8958590906895
 20
786.7754275885099
 10
188.8958596530319
 20
793.7788247388461
 10
188.8958604421059
 20
804.2424701022381
 10
188.8958611508441
 20
814.2675641507883
 10
188.8958618353863
 20
824.5515555123709
 10
188.8958618353863
 20
832.4267058121559
 10
188.8958618353863
 20
833.5675703726693
 10
188.8958618353863
 20
840.343822042625
 10
188.8958618353863
 20
842.6037554362764
 10
188.8958618353863
 20
851.0641956486049
 10
188.8958618353863
 20
853.1999179123941
 10
188.8958618353863
 20
860.0900496696205
 10
188.8958618353863
 20
862.0534380980579
 10
188.8958618353863
 20
868.5131019462025
 10
188.8958618353863
 20
870.0135885073896
 10
188.8958618353863
 20
875.5973369826934
 10
188.8958618353863
 20
876.7811336970234
 10
188.8958618353863
 20
879.4330582501087
 10
188.8958618353863
 20
882.5929092792366
 10
188.8958618353863
 20
882.7514514868315
 10
188.8958651518223
 20
886.7894409324152
 10
188.9109160290627
 20
886.8475030678665
 10
188.9141929676516
 20
886.8544024825324
 10
188.9353021658753
 20
886.8910078904107
 10
188.9546378626091
 20
886.9186383422448
 10
188.963978650354
 20
886.9308696183024
 10
189.0240769691099
 20
886.9996686616978
 10
189.0661074329255
 20
887.0363898818878
 10
189.0858240768375
 20
887.0497269630604
 10
189.1143536057116
 20
887.0657632782604
 10
189.1892106465602
 20
887.1041603374488
 10
189.674036476439
 20
887.350466278178
 10
191.6689694771066
 20
888.2052493372583
 10
196.6230534600872
 20
889.8087254691162
 10
197.2287878714942
 20
889.9188823682344
 10
206.3649360754098
 20
891.2972267838167
 10
206.4165263687028
 20
891.2805290315237
  0
LWPOLYLINE
  5
19CF
330
1F
100
AcDbEntity
  8
Hewi
370
    13
100
AcDbPolyline
 90
        5
 70
     0
 43
0.0
 10
248.1458776615326
 20
304.8251946347574
 10
248.1458773248414
 20
419.5515503129281
 10
248.1458777533171
 20
754.6658084176241
 10
248.1458797799169
 20
759.6658084193696
 10
248.145879763616
 20
759.7399805237426
  0
LWPOLYLINE
  5
19D0
330
1F
100
AcDbEntity
  8
Hewi
370
    13
100
AcDbPolyline
 90
        4
 70
     0
 43
0.0
 10
248.8958731468301
 20
760.5871579777604
 10
248.8958725283683
 20
759.5521964873251
 10
248.4498093927759
 20
759.1925596630325
 10
248.1458794353985
 20
758.7980404063081
  0
LWPOLYLINE
  5
19D1
330
1F
100
AcDbEntity
  8
Hewi
370
    13
100
AcDbPolyline
 90
        3
 70
     0
 43
0.0
 10
189.6458538632675
 20
758.8317676153484
 10
189.6458563488631
 20
419.5515503129281
 10
189.6458562616835
 20
404.6985848108492
  0
LINE
  5
19D2
330
1F
100
AcDbEntity
  8
Hewi
370
    13
100
AcDbLine
 10
218.8958668368541
 20
891.7601465306434
 30
0.0
 11
206.3637923967035
 21
891.2785023051965
 31
0.0
  0
LINE
  5
19D4
330
1F
100
AcDbEntity
  8
Hewi
370
    13
100
AcDbLine
 10
189.6458554771598
 20
754.6658089480179
 30
0.0
 11
189.6458538937877
 21
754.6658084176241
 31
0.0
  0
LINE
  5
19D5
330
1F
100
AcDbEntity
  8
Hewi
370
    13
100
AcDbLine
 10
248.8958731468301
 20
760.5871579777604
 30
0.0
 11
248.145879753054
 21
759.7399805118119
 31
0.0
  0
LWPOLYLINE
  5
19D6
330
1F
100
AcDbEntity
  8
Hewi
370
    13
100
AcDbPolyline
 90
       75
 70
     1
 43
0.0
 10
249.895867768093
 20
862.5351496676975
 10
249.895867768093
 20
852.9396715690801
 10
249.895867768093
 20
842.5052321459506
 10
249.895867768093
 20
831.5402030261257
 10
249.895867768093
 20
820.3686364889525
 10
249.895867768093
 20
809.3206886663184
 10
249.895867768093
 20
798.7228623549699
 10
249.895867768093
 20
788.8883577967598
 10
249.895867768093
 20
780.1078165926863
 10
249.895867768093
 20
772.6407322981194
 10
249.895867768093
 20
766.7077815441289
 10
249.895867768093
 20
762.4843023251733
 10
249.895867768093
 20
760.095112191002
 10
249.895867768093
 20
759.6108194820335
 10
253.3316465850421
 20
760.9213499003999
 10
254.5825777610371
 20
761.4686315141433
 10
255.5348011964197
 20
761.9036039561732
 10
256.3958679633543
 20
762.3108943451178
 10
256.767158876919
 20
762.4906702521575
 10
256.9387715360353
 20
762.5746177212204
 10
257.1634770969394
 20
762.6853574700734
 10
257.4281591123963
 20
762.8169983203916
 10
257.6714822755057
 20
762.9391674580284
 10
264.8958682186931
 20
767.1021466122785
 10
264.8958682186931
 20
768.1402330041536
 10
264.8958682186931
 20
771.0187322828651
 10
264.8958682186931
 20
775.6437337332063
 10
264.8958682186931
 20
781.8643472030689
 10
264.8958682186931
 20
789.4776258776709
 10
264.8958682186931
 20
798.2351873965725
 10
264.8958682186931
 20
807.8513173002402
 10
264.8958682186931
 20
818.0122904321606
 10
264.8958682186931
 20
828.3866061867765
 10
264.8958682186931
 20
838.6358036794653
 10
264.8958682186931
 20
848.4255039948248
 10
264.8958682186931
 20
857.4363192611798
 10
264.8958682186931
 20
865.3742726439759
 10
264.8958682186931
 20
871.9803893069329
 10
264.8958682186931
 20
877.0391454369555
 10
264.8958682186931
 20
880.3854996842984
 10
264.8958682186931
 20
881.9102776180251
 10
257.8958680084142
 20
886.0510365332967
 10
257.8958680084142
 20
885.0864577602678
 10
257.8958680084142
 20
882.3862396196481
 10
257.7707101640335
 20
882.0480669796534
 10
257.4044880805159
 20
881.8305480213867
 10
256.88024776557
 20
881.7534051208903
 10
256.2615523545464
 20
881.7911342572214
 10
255.5347298555989
 20
881.9280934571315
 10
254.7331826203572
 20
882.1516203879399
 10
254.0381007154283
 20
882.3920777516333
 10
253.3316465850421
 20
882.6754245610262
 10
250.8087120527616
 20
883.6964885466523
 10
250.678309304134
 20
883.7422064122218
 10
250.5971182742014
 20
883.7665002081049
 10
250.594867406
 20
883.7671258748205
 10
250.5173774198011
 20
883.7869853215361
 10
250.4097755919338
 20
883.8086232251743
 10
250.3935013516293
 20
883.811243597448
 10
250.3199011100532
 20
883.8207013971503
 10
250.2572574944861
 20
883.8252218036187
 10
250.2506642486369
 20
883.8254775096011
 10
250.1565537766946
 20
883.8236288144434
 10
250.1261428245871
 20
883.8204515792606
 10
250.1040132817744
 20
883.8171474846959
 10
250.0571234189829
 20
883.8066979419998
 10
250.0223092081833
 20
883.7949046043922
 10
249.9887344673261
 20
883.7788858028444
 10
249.948984378414
 20
883.7502786683963
 10
249.9390947749889
 20
883.7403928861395
 10
249.9089497528803
 20
883.6935793942267
 10
249.9065339596964
 20
883.6874469597924
 10
249.895867768093
 20
883.6253137042413
 10
249.895867768093
 20
878.1080862016761
 10
249.895867768093
 20
871.0080888502361
  0
LWPOLYLINE
  5
19D7
330
1F
100
AcDbEntity
  8
Hewi
370
    13
100
AcDbPolyline
 90
        3
 70
     0
 43
0.0
 10
248.5702541298961
 20
759.2896678063116
 10
248.4386133693279
 20
759.1739273588664
 10
248.312106700605
 20
759.0138133363145
  0
LINE
  5
19D8
330
1F
100
AcDbEntity
  8
Hewi
370
    13
100
AcDbLine
 10
248.1631630314732
 20
777.7253162422065
 30
0.0
 11
248.1972426697041
 21
778.0526729958745
 31
0.0
  0
LWPOLYLINE
  5
1A83
330
1F
100
AcDbEntity
  8
Hewi
370
    13
100
AcDbPolyline
 90
        3
 70
     0
 43
0.0
 10
268.7458986951187
 20
797.2832079939244
 10
268.1208461193419
 20
783.6905087713721
 10
267.24606687304
 20
770.0515504349469
  0
LWPOLYLINE
  5
1A84
330
1F
100
AcDbEntity
  8
Hewi
370
    13
100
AcDbPolyline
 90
       35
 70
     0
 43
0.0
 10
269.1972174365492
 20
832.910863386156
 10
269.1210143579847
 20
838.1880150688537
 10
268.9647084977223
 20
844.9448000269839
 10
268.7458986953497
 20
851.819892914048
 10
268.1208461193419
 20
865.3962830745067
 10
267.24606687304
 20
878.8047702531612
 10
265.7803274718408
 20
880.8837246701159
 10
265.7388708107719
 20
880.9261565877621
 10
265.6898752517864
 20
880.9596014322513
 10
265.6253390940037
 20
880.9856531691821
 10
265.5565366712963
 20
880.9961334039934
 10
265.246066812957
 20
881.0069752500295
 10
265.246066812957
 20
880.045714359724
 10
265.246066812957
 20
877.1946662755208
 10
265.246066812957
 20
872.550920020476
 10
265.246066812957
 20
866.2726128037412
 10
265.246066812957
 20
858.5735448475825
 10
265.246066812957
 20
849.7158986772381
 10
265.246066812957
 20
840.0013108094572
 10
265.246066812957
 20
829.7605998827165
 10
265.246066812957
 20
819.3425010252475
 10
265.246066812957
 20
809.101790098505
 10
265.246066812957
 20
799.387202230727
 10
265.246066812957
 20
790.5295560603789
 10
265.246066812957
 20
782.8304881042231
 10
265.246066812957
 20
776.5521808874882
 10
265.246066812957
 20
771.9084346324424
 10
265.246066812957
 20
769.05738654824
 10
265.246066812957
 20
768.0961256579356
 10
265.5565366712963
 20
768.1069675039688
 10
265.6253391835526
 20
768.1174475624819
 10
265.689875150525
 20
768.1434996709003
 10
265.7388709322677
 20
768.1769440842789
 10
265.7803274718408
 20
768.2193762378483
 10
267.24606687304
 20
770.0515504349469
  0
LWPOLYLINE
  5
1A85
330
1F
100
AcDbEntity
  8
Hewi
370
    13
100
AcDbPolyline
 90
        4
 70
     0
 43
0.0
 10
269.2382509417803
 20
821.401772272511
 10
269.2425931558082
 20
822.9443900912755
 10
269.2441129327162
 20
823.6044964630245
 10
269.2460669331194
 20
824.5515504539817
  0
LWPOLYLINE
  5
1A86
330
1F
100
AcDbEntity
  8
Hewi
370
    13
100
AcDbPolyline
 90
        3
 70
     0
 43
0.0
 10
269.1972174365492
 20
832.910863386156
 10
269.1757239969593
 20
834.000620127489
 10
269.0506753653262
 20
840.2991170290897
  0
LWPOLYLINE
  5
1A89
330
1F
100
AcDbEntity
  8
Hewi
370
    13
100
AcDbPolyline
 90
        7
 70
     0
 43
0.0
 10
269.2460669331194
 20
824.5515504539817
 10
269.2455784328577
 20
825.3032354365378
 10
269.2449678076828
 20
825.8285000580588
 10
269.2416704346215
 20
827.0962133403198
 10
269.2284809911162
 20
829.5672085097603
 10
269.2148031320757
 20
831.3700694526039
 10
269.1972174365492
 20
832.910863386156
  0
LWPOLYLINE
  5
1A8B
330
1F
100
AcDbEntity
  8
Hewi
370
    13
100
AcDbPolyline
 90
        5
 70
     0
 43
0.0
 10
269.2411603002947
 20
822.4353528932995
 10
269.2382509417803
 20
821.1805662363094
 10
269.2148031320757
 20
817.7565097695833
 10
269.1210143579847
 20
810.9250925352444
 10
268.7458986951187
 20
797.2832079939244
  0
LWPOLYLINE
  5
1A8D
330
1F
100
AcDbEntity
  8
Hewi
370
    13
100
AcDbPolyline
 90
        3
 70
     0
 43
0.0
 10
269.1503229262671
 20
834.4726985173755
 10
269.2148031320757
 20
829.3729714755553
 10
269.2338544586855
 20
827.8458201281528
  0
LWPOLYLINE
  5
1A8E
330
1F
100
AcDbEntity
  8
Hewi
370
    13
100
AcDbPolyline
 90
        3
 70
     0
 43
0.0
 10
268.7458986951187
 20
797.2832079939244
 10
268.1208461193419
 20
784.0244112077589
 10
267.24606687304
 20
770.0515504349469
  0
LWPOLYLINE
  5
1A90
330
1F
100
AcDbEntity
  8
Hewi
370
    13
100
AcDbPolyline
 90
        4
 70
     0
 43
0.0
 10
269.2460669331194
 20
824.5515504539817
 10
269.2455784328577
 20
824.1497664600784
 10
269.2441129327162
 20
823.1341839935613
 10
269.2395195351273
 20
821.7277019750598
  0
LWPOLYLINE
  5
1A96
330
1F
100
AcDbEntity
  8
Hewi
370
    13
100
AcDbPolyline
 90
       33
 70
     0
 43
0.0
 10
170.8770971991689
 20
912.5081093028857
 10
163.8782528666488
 20
913.6918356980068
 10
162.5382563057901
 20
914.0875134886265
 10
161.326104466545
 20
914.7823800918949
 10
160.3075280194425
 20
915.7387553704838
 10
159.5377607319842
 20
916.9047785043957
 10
159.0585443384298
 20
918.2172202182483
 10
158.8958650344484
 20
919.6049114793376
 10
158.8958650344484
 20
929.5515504906525
 10
159.0750303549739
 20
929.5515504906525
 10
159.6018262461766
 20
929.5515504906525
 10
160.4447915241071
 20
929.5515504906525
 10
161.5535828088668
 20
929.5515504906525
 10
162.8619811204735
 20
929.5515504906525
 10
164.2918465936509
 20
929.5515504906525
 10
189.9879172600267
 20
929.5515504906525
 10
218.8958668368541
 20
929.5515504906525
 10
247.8154084146045
 20
929.5515504906525
 10
273.4998870800537
 20
929.5515504906525
 10
274.9297525532293
 20
929.5515504906525
 10
276.2381508648359
 20
929.5515504906525
 10
277.3469421495974
 20
929.5515504906525
 10
278.1899074275243
 20
929.5515504906525
 10
278.7167033187288
 20
929.5515504906525
 10
278.8958686392543
 20
929.5515504906525
 10
278.8958686392543
 20
919.6049114793376
 10
278.7331893352748
 20
918.2172202182483
 10
278.2539729417203
 20
916.9047785043957
 10
277.4842056542584
 20
915.7387553704838
 10
276.4656292071595
 20
914.7823800918949
 10
275.2534773679108
 20
914.0875134886265
 10
273.9134808070539
 20
913.6918356980068
 10
266.9624341816889
 20
912.5159587436401
  0
LINE
  5
1A97
330
1F
100
AcDbEntity
  8
Hewi
370
    13
100
AcDbLine
 10
197.3885043182326
 20
893.8965745625509
 30
0.0
 11
188.0235115731211
 21
890.7938936520741
 31
0.0
  0
LWPOLYLINE
  5
1A98
330
1F
100
AcDbEntity
  8
Hewi
370
    13
100
AcDbPolyline
 90
        3
 70
     0
 43
0.0
 10
201.4602592560986
 20
909.7713323835394
 10
201.611405317255
 20
909.7668535712736
 10
209.4013047571061
 20
909.6402541907046
  0
LWPOLYLINE
  5
1A99
330
1F
100
AcDbEntity
  8
Hewi
370
    13
100
AcDbPolyline
 90
        3
 70
     0
 43
0.0
 10
170.8770971991689
 20
912.5081093028857
 10
176.8119763184913
 20
911.585050798055
 10
185.48506194945
 20
910.5548249831835
  0
LINE
  5
1A9A
330
1F
100
AcDbEntity
  8
Hewi
370
    13
100
AcDbLine
 10
264.895868220623
 20
770.5699035651104
 30
0.0
 11
265.246066812957
 21
770.5515504351214
 31
0.0
  0
LWPOLYLINE
  5
1A9B
330
1F
100
AcDbEntity
  8
Hewi
370
    13
100
AcDbPolyline
 90
        9
 70
     0
 43
0.0
 10
180.3958656803115
 20
881.839038785093
 10
180.3958656803115
 20
906.7388547862964
 10
180.2556097794404
 20
907.9148170522721
 10
179.842710763678
 20
909.0248050614309
 10
179.1803332417057
 20
910.0065458683648
 10
178.3056381548249
 20
910.8049614982128
 10
177.2676979605239
 20
911.3752589509449
 10
176.1247435518562
 20
911.6854431943247
 10
170.8770971991689
 20
912.5081093028857
  0
LWPOLYLINE
  5
1A9C
330
1F
100
AcDbEntity
  8
Hewi
370
    13
100
AcDbPolyline
 90
        3
 70
     0
 43
0.0
 10
197.3885043182326
 20
893.8965745625509
 10
196.3477067613803
 20
893.110713002151
 10
205.0574707218238
 20
894.7650436577278
  0
LWPOLYLINE
  5
1A9D
330
1F
100
AcDbEntity
  8
Hewi
370
    13
100
AcDbPolyline
 90
        4
 70
     0
 43
0.0
 10
205.0574707218238
 20
894.7650436577278
 10
218.8958668368541
 20
895.5515539061606
 10
229.3462811782629
 20
895.1301664056181
 10
232.9713668129007
 20
895.2423422307411
  0
LWPOLYLINE
  5
1A9E
330
1F
100
AcDbEntity
  8
Hewi
370
    13
100
AcDbPolyline
 90
        7
 70
     0
 43
0.0
 10
176.8208958184477
 20
911.5839913021055
 10
178.2288647021232
 20
911.3858983548107
 10
179.7723249729641
 20
911.1810939811238
 10
181.6169377096594
 20
910.955229829792
 10
182.9844601572531
 20
910.8024209005689
 10
184.433759797459
 20
910.6537198297164
 10
185.48506194945
 20
910.5548249831835
  0
LWPOLYLINE
  5
1A9F
330
1F
100
AcDbEntity
  8
Hewi
370
    13
100
AcDbPolyline
 90
        6
 70
     0
 43
0.0
 10
185.48506194945
 20
910.5548249831835
 10
194.5528495355356
 20
909.9808556855796
 10
194.5561717566415
 20
909.9807194095438
 10
195.0092977032909
 20
909.9624895034056
 10
201.2599569440427
 20
909.7746386582938
 10
209.4013047571061
 20
909.6402541907046
  0
LINE
  5
1AA0
330
1F
100
AcDbEntity
  8
Hewi
370
    13
100
AcDbLine
 10
265.246066812957
 20
878.3070342917024
 30
0.0
 11
264.8958682057237
 21
878.2887642653314
 31
0.0
  0
LINE
  5
1AA1
330
1F
100
AcDbEntity
  8
Hewi
370
    13
100
AcDbLine
 10
208.0099655248159
 20
895.5945191284108
 30
0.0
 11
197.3885043182326
 21
893.8965745625509
 31
0.0
  0
LINE
  5
1AA2
330
1F
100
AcDbEntity
  8
Hewi
370
    13
100
AcDbLine
 10
209.4013047571061
 20
909.6402541907046
 30
0.0
 11
218.8958668368541
 21
909.5515504836685
 31
0.0
  0
LWPOLYLINE
  5
1AA3
330
1F
100
AcDbEntity
  8
Hewi
370
    13
100
AcDbPolyline
 90
        3
 70
     0
 43
0.0
 10
229.3571218517682
 20
895.1305018629046
 10
240.1157030032027
 20
893.4427900703994
 10
249.504822198327
 20
890.3362839867666
  0
LWPOLYLINE
  5
1AA4
330
1F
100
AcDbEntity
  8
Hewi
370
    13
100
AcDbPolyline
 90
        3
 70
     0
 43
0.0
 10
218.8958668368541
 20
909.5515504836685
 10
228.3904289165985
 20
909.6402541907046
 10
232.90864823433
 20
909.7136830932614
  0
LWPOLYLINE
  5
1AA5
330
1F
100
AcDbEntity
  8
Hewi
370
    13
100
AcDbPolyline
 90
        3
 70
     0
 43
0.0
 10
256.8669981888179
 20
911.0374518280542
 10
257.2632253655465
 20
911.0864778277681
 10
258.439679159259
 20
911.2354983246994
  0
LWPOLYLINE
  5
1AA6
330
1F
100
AcDbEntity
  8
Hewi
370
    13
100
AcDbPolyline
 90
        9
 70
     0
 43
0.0
 10
266.9624341816889
 20
912.5159587436401
 10
261.6669901218484
 20
911.6854431943247
 10
260.5240357131788
 20
911.3752589509449
 10
259.4860955188797
 20
910.8049614982128
 10
258.611400431997
 20
910.0065458683648
 10
257.9490229100265
 20
909.0248050614309
 10
257.5361238942642
 20
907.9148170522721
 10
257.395867993393
 20
906.7388547862964
 10
257.395867993393
 20
881.8292795401246
  0
LWPOLYLINE
  5
1AA9
330
1F
100
AcDbEntity
  8
Hewi
370
    13
100
AcDbPolyline
 90
        4
 70
     0
 43
0.0
 10
257.395867993393
 20
884.8912341377781
 10
257.5179457991071
 20
883.7931195739201
 10
257.8782180201706
 20
882.7486271750021
 10
257.8958680089545
 20
882.720069124246
  0
LINE
  5
1AAB
330
1F
100
AcDbEntity
  8
Hewi
370
    13
100
AcDbLine
 10
250.9750449460371
 20
888.9354547978209
 30
0.0
 11
249.8726976669732
 21
889.9710084473207
 31
0.0
  0
LWPOLYLINE
  5
1AAC
330
1F
100
AcDbEntity
  8
Hewi
370
    13
100
AcDbPolyline
 90
        4
 70
     0
 43
0.0
 10
179.8958656788163
 20
882.7200691470043
 10
179.9135156535339
 20
882.7486271750013
 10
180.2737878745956
 20
883.7931195739201
 10
180.3958656803115
 20
884.8912341377781
  0
LINE
  5
1AAF
330
1F
100
AcDbEntity
  8
Hewi
370
    13
100
AcDbLine
 10
250.6488002362057
 20
889.4454781961357
 30
0.0
 11
249.169333603133
 21
890.4472845488362
 31
0.0
  0
LINE
  5
1AB1
330
1F
100
AcDbEntity
  8
Hewi
370
    13
100
AcDbLine
 10
253.7989495612637
 20
910.6973322537951
 30
0.0
 11
256.8669981888179
 21
911.0374518280542
 31
0.0
  0
LWPOLYLINE
  5
1AB2
330
1F
100
AcDbEntity
  8
Hewi
370
    13
100
AcDbPolyline
 90
        3
 70
     0
 43
0.0
 10
253.7984189360104
 20
910.6973042302934
 10
245.8808446630101
 20
910.1037632018352
 10
236.1803283564495
 20
909.7668535712736
  0
LINE
  5
1AB3
330
1F
100
AcDbEntity
  8
Hewi
370
    13
100
AcDbLine
 10
188.6036421520548
 20
890.4396771185163
 30
0.0
 11
187.2363912955916
 21
889.5571778295023
 31
0.0
  0
LINE
  5
1AB4
330
1F
100
AcDbEntity
  8
Hewi
370
    13
100
AcDbLine
 10
259.724208211941
 20
911.4080757661003
 30
0.0
 11
260.151733868508
 21
911.4671772674647
 31
0.0
  0
LINE
  5
1AB5
330
1F
100
AcDbEntity
  8
Hewi
370
    13
100
AcDbLine
 10
259.724208211941
 20
911.4080757661003
 30
0.0
 11
258.439679159259
 21
911.2354983246994
 31
0.0
  0
LWPOLYLINE
  5
1AB6
330
1F
100
AcDbEntity
  8
Hewi
370
    13
100
AcDbPolyline
 90
        3
 70
     0
 43
0.0
 10
259.724208211941
 20
911.4080757661003
 10
258.8697617204289
 20
911.292303782271
 10
258.439679159259
 20
911.2354983246994
  0
LINE
  5
1AB7
330
1F
100
AcDbEntity
  8
Hewi
370
    13
100
AcDbLine
 10
258.439679159259
 20
911.2354983246994
 30
0.0
 11
256.8669981888179
 21
911.0374518280542
 31
0.0
  0
LWPOLYLINE
  5
1AB9
330
1F
100
AcDbEntity
  8
Hewi
370
    13
100
AcDbPolyline
 90
        3
 70
     0
 43
0.0
 10
236.1803283564495
 20
909.7668535712736
 10
234.5345257800109
 20
909.7324950448237
 10
218.8958668368541
 20
909.5515504836685
  0
LINE
  5
1ABA
330
1F
100
AcDbEntity
  8
Hewi
370
    13
100
AcDbLine
 10
253.7985698118518
 20
910.6973121983829
 30
0.0
 11
253.3579738762419
 21
910.6537198297164
 31
0.0
  0
LWPOLYLINE
  5
1ABB
330
1F
100
AcDbEntity
  8
Hewi
370
    13
100
AcDbPolyline
 90
        3
 70
     0
 43
0.0
 10
253.8031582926742
 20
910.6977988278659
 10
255.4018004809041
 20
910.86769859574
 10
256.8669981888179
 20
911.0374518280542
  0
LWPOLYLINE
  5
1ABC
330
1F
100
AcDbEntity
  8
Hewi
370
    13
100
AcDbPolyline
 90
        3
 70
     0
 43
0.0
 10
266.9624341816889
 20
912.5159587436401
 10
261.0633063883652
 20
911.5973111981192
 10
259.724208211941
 20
911.4080757661003
  0
LINE
  5
1ABD
330
1F
100
AcDbEntity
  8
Hewi
370
    13
100
AcDbLine
 10
188.2869114753775
 20
890.3362839867666
 30
0.0
 11
197.3958764036215
 21
893.3098021397535
 31
0.0
  0
LINE
  5
1ABE
330
1F
100
AcDbEntity
  8
Hewi
370
    13
100
AcDbLine
 10
236.1803283564495
 20
909.7668535712736
 30
0.0
 11
253.7989495612637
 21
910.6973322537951
 31
0.0
  0
LINE
  5
1AC2
330
1F
100
AcDbEntity
  8
Hewi
370
    13
100
AcDbLine
 10
241.932704940071
 20
236.6044900278464
 30
0.0
 11
241.9326746207191
 21
236.6044563863531
 31
0.0
  0
LWPOLYLINE
  5
1B27
330
1F
100
AcDbEntity
  8
Hewi
370
    13
100
AcDbPolyline
 90
       76
 70
     1
 43
0.0
 10
187.8958659056116
 20
788.8883577967598
 10
187.8958659056116
 20
798.7228623549699
 10
187.8958659056116
 20
809.3206886663184
 10
187.8958659056116
 20
820.3686364889525
 10
187.8958659056116
 20
831.5402030261257
 10
187.8958659056116
 20
842.5052321459506
 10
187.8958659056116
 20
852.9396715690801
 10
187.8958659056116
 20
862.5351496676975
 10
187.8958659056116
 20
871.0080888502361
 10
187.8958659056116
 20
878.1080862016761
 10
187.8958659056116
 20
883.6253137042413
 10
187.8862558552355
 20
883.6844515026358
 10
187.8703052129312
 20
883.717436648615
 10
187.8680089842746
 20
883.7209459598298
 10
187.8465089225865
 20
883.7467125072588
 10
187.7933567429463
 20
883.783990681889
 10
187.7910290384461
 20
883.7851611004309
 10
187.745835136995
 20
883.8032608523855
 10
187.693075397925
 20
883.8162489733585
 10
187.6859848716721
 20
883.8174879877533
 10
187.6035816090625
 20
883.8254509755634
 10
187.5435239504404
 20
883.8255119989817
 10
187.5406211627269
 20
883.825415175581
 10
187.4733389324901
 20
883.8208939284605
 10
187.374388316719
 20
883.8073590246494
 10
187.3653807699411
 20
883.805779744418
 10
187.2944675429808
 20
883.7915551848727
 10
187.2219868864194
 20
883.7739395664476
 10
187.1881230939125
 20
883.7647030131764
 10
187.1042636082911
 20
883.7392791959599
 10
187.0857344368669
 20
883.7331927410367
 10
186.9830216209393
 20
883.6964885466523
 10
184.4600870886606
 20
882.6754245610262
 10
183.2926191779206
 20
882.227900495045
 10
182.295102101325
 20
881.9368803754812
 10
181.4895983376937
 20
881.7858820127939
 10
180.8183366312751
 20
881.7574850321969
 10
180.3213630100817
 20
881.8534199950581
 10
180.0106151958989
 20
882.060393510307
 10
179.9248065513311
 20
882.2106510113199
 10
179.8958656652903
 20
882.3862396196481
 10
179.8958656652903
 20
885.0864577602678
 10
179.8958656652903
 20
886.0510365332967
 10
172.8958654550115
 20
882.0035619007613
 10
172.8958654550115
 20
881.1545665903185
 10
172.8958654550115
 20
878.578356390598
 10
172.8958654550115
 20
874.1695295643047
 10
172.8958654550115
 20
868.1111601005842
 10
172.8958654550115
 20
860.6152444737936
 10
172.8958654550115
 20
851.9291615019582
 10
172.8958654550115
 20
842.339567685204
 10
172.8958654550115
 20
832.1629370210839
 10
172.8958654550115
 20
821.7351167883705
 10
172.8958654550115
 20
811.4002439774202
 10
172.8958654550115
 20
801.499388144999
 10
172.8958654550115
 20
792.3592955000031
 10
172.8958654550115
 20
784.281605685638
 10
172.8958654550115
 20
777.532897123824
 10
172.8958654550115
 20
772.3358894435378
 10
172.8958654550115
 20
768.8620933288894
 10
172.8958654550115
 20
767.2261503553317
 10
179.9690211124252
 20
763.1440941134004
 10
180.2120956244798
 20
763.0216175556205
 10
180.4326114639261
 20
762.9114611554895
 10
180.6900755476345
 20
762.7839894787356
 10
180.9389062727823
 20
762.6619548829475
 10
181.1649340036492
 20
762.5520888665896
 10
181.3958657103503
 20
762.4408029214436
 10
182.2950497386682
 20
762.0166782087972
 10
183.2925583590404
 20
761.5630403350469
 10
187.8958659056116
 20
759.6108194820335
 10
187.8958659056116
 20
760.095112191002
 10
187.8958659056116
 20
762.4843023251733
 10
187.8958659056116
 20
766.7077815441289
 10
187.8958659056116
 20
772.6407322981194
 10
187.8958659056116
 20
780.1078165926863
  0
LINE
  5
1B28
330
1F
100
AcDbEntity
  8
Hewi
370
    13
100
AcDbLine
 10
188.8958617956305
 20
881.3674793839936
 30
0.0
 11
187.8958658847786
 21
881.3294835512524
 31
0.0
  0
LINE
  5
1B29
330
1F
100
AcDbEntity
  8
Hewi
370
    13
100
AcDbLine
 10
248.8958743285384
 20
767.7356216170764
 30
0.0
 11
249.8958677889241
 21
767.773617356709
 31
0.0
  0
LINE
  5
1B2A
330
1F
100
AcDbEntity
  8
Hewi
370
    13
100
AcDbLine
 10
248.8958718309768
 20
881.4419398738937
 30
0.0
 11
249.89586773251
 21
881.4350752080462
 31
0.0
  0
LINE
  5
1B2B
330
1F
100
AcDbEntity
  8
Hewi
370
    13
100
AcDbLine
 10
188.8958594016403
 20
767.661161050827
 30
0.0
 11
187.8958659411928
 21
767.6680256999151
 31
0.0
  0
LWPOLYLINE
  5
1B33
330
1F
100
AcDbEntity
  8
Hewi
370
    13
100
AcDbPolyline
 90
        2
 70
     0
 43
0.0
 10
189.6458554684923
 20
754.665819458426
 10
189.6458554684928
 20
758.8317657866094
  0
LWPOLYLINE
  5
1B34
330
1F
100
AcDbEntity
  8
Hewi
370
    13
100
AcDbPolyline
 90
        3
 70
     0
 43
0.0
 10
248.1458782052632
 20
759.7399787634586
 10
248.1458782052632
 20
755.7808416564293
 10
248.1458782052632
 20
304.8251807600591
  0
LWPOLYLINE
  5
1B3E
330
1F
100
AcDbEntity
  8
Hewi
370
    13
100
AcDbPolyline
 90
        3
 70
     0
 43
0.0
 10
189.6458554684488
 20
307.428414257717
 10
189.6458554684723
 20
539.7235534484798
 10
189.6458554684723
 20
754.665819458426
  0
ARC
  5
1BA6
330
1F
100
AcDbEntity
  8
Hewi
100
AcDbCircle
 10
218.8958663849066
 20
669.5515453562915
 30
0.0
 40
90.00000523069919
100
AcDbArc
 50
71.03441850271595
 51
108.9655814972427
  0
LINE
  5
1BBD
330
1F
100
AcDbEntity
  8
Hewi
100
AcDbLine
 10
158.2285357308164
 20
1069.862429654669
 30
0.0
 11
277.9777292327281
 21
1069.862429654669
 31
0.0
  0
LWPOLYLINE
  5
1BC0
330
1F
100
AcDbEntity
  8
Hewi
370
    13
100
AcDbPolyline
 90
        4
 70
     1
 43
0.0
 10
180.3677437309461
 20
1087.009446398819
 10
181.5048943876818
 20
1084.415475031374
 10
183.0139640744683
 20
1082.431481776596
 10
181.5122533590738
 20
1084.420271277501
  0
LWPOLYLINE
  5
1BC1
330
1F
100
AcDbEntity
  8
Hewi
370
    13
100
AcDbPolyline
 90
        5
 70
     0
 43
0.0
 10
178.9777317984382
 20
1135.847538911699
 10
179.477731793385
 20
1134.104007149041
 10
179.477731793385
 20
1091.266567531555
 10
179.6469955943677
 20
1089.032240556213
 10
180.1169403524392
 20
1087.009446398819
  0
ARC
  5
1BC2
330
1F
100
AcDbEntity
  8
Hewi
100
AcDbCircle
 10
218.1031324817723
 20
1125.126374671507
 30
0.0
 40
55.263945016838
100
AcDbArc
 50
230.5846276461881
 51
309.415372353812
  0
LWPOLYLINE
  5
2235
330
1F
100
AcDbEntity
  8
Hewi
  6
CUSTOM
 62
    18
420
        0
370
     9
100
AcDbPolyline
 90
        9
 70
     0
 43
0.0
 10
1114.580214672381
 20
1257.399935295067
 10
1115.54929180316
 20
1258.248920269445
 10
1116.543394689573
 20
1258.940803324968
 10
1117.529362317299
 20
1259.464306446334
 10
1118.285435272505
 20
1259.746793893766
 10
1119.071445395829
 20
1259.933061335924
 10
1120.387440718835
 20
1260.04306470657
 10
1127.592471472578
 20
1260.042923437537
 10
1135.481966867236
 20
1260.042833333417
  0
LWPOLYLINE
  5
2236
330
1F
100
AcDbEntity
  8
Hewi
  6
CUSTOM
 62
    18
420
        0
370
     9
100
AcDbPolyline
 90
        5
 70
     0
 43
0.0
 10
1173.988396052861
 20
1260.043198882359
 10
1179.343158338343
 20
1260.043414716773
 10
1183.32728098811
 20
1260.043662206608
 10
1185.782547987191
 20
1260.043931523589
 10
1186.611456850202
 20
1260.044211979362
  0
LWPOLYLINE
  5
2237
330
1F
100
AcDbEntity
  8
Hewi
  6
CUSTOM
 62
    18
420
        0
370
     9
100
AcDbPolyline
 90
        2
 70
     0
 43
0.0
 10
1114.050337783185
 20
1256.882804428857
 10
1115.733885073693
 20
1258.526574284875
  0
LINE
  5
2238
330
1F
100
AcDbEntity
  8
Hewi
  6
CUSTOM
 62
    18
420
        0
370
     9
100
AcDbLine
 10
1093.928169696716
 20
1228.200730158558
 30
0.0
 11
1094.00708097651
 21
1228.190629257111
 31
0.0
  0
LINE
  5
2239
330
1F
100
AcDbEntity
  8
Hewi
  6
CUSTOM
 62
    18
420
        0
370
     9
100
AcDbLine
 10
1096.611457821106
 20
1254.176384609298
 30
0.0
 11
1106.718679554885
 21
1254.176383342903
 31
0.0
  0
LINE
  5
223A
330
1F
100
AcDbEntity
  8
Hewi
  6
CUSTOM
 62
    18
420
        0
370
     9
100
AcDbLine
 10
1096.611457820932
 20
1254.287918741842
 30
0.0
 11
1096.611457821106
 21
1254.176384609298
 31
0.0
  0
LWPOLYLINE
  5
223B
330
1F
100
AcDbEntity
  8
Hewi
  6
CUSTOM
 62
    18
420
        0
370
     9
100
AcDbPolyline
 90
        3
 70
     0
 43
0.0
 10
1151.857969562182
 20
1277.879758089333
 10
1157.985263110263
 20
1277.304720981007
 10
1161.988405110439
 20
1276.884403367662
  0
LWPOLYLINE
  5
223C
330
1F
100
AcDbEntity
  8
Hewi
  6
CUSTOM
 62
    18
420
        0
370
     9
100
AcDbPolyline
 90
        3
 70
     0
 43
0.0
 10
1118.535603724544
 20
1275.029909664754
 10
1114.44049225015
 20
1273.605136153423
 10
1110.656790992835
 20
1271.924985388952
  0
LINE
  5
223D
330
1F
100
AcDbEntity
  8
Hewi
  6
CUSTOM
 62
    18
420
        0
370
     9
100
AcDbLine
 10
1111.978626911653
 20
1255.387203486189
 30
0.0
 11
1110.788980447812
 21
1254.867364361668
 31
0.0
  0
LWPOLYLINE
  5
223E
330
1F
100
AcDbEntity
  8
Hewi
  6
CUSTOM
 62
    18
420
        0
370
     9
100
AcDbPolyline
 90
       10
 70
     0
 43
0.0
 10
1186.611456850202
 20
1260.044211979362
 10
1186.341346473557
 20
1263.042114474713
 10
1185.595556013411
 20
1265.450849908306
 10
1184.299510719845
 20
1267.629500049388
 10
1182.288528277197
 20
1269.710880257906
 10
1179.504656898448
 20
1271.640542983969
 10
1174.642907856157
 20
1273.884575652763
 10
1167.912499477746
 20
1275.744480991521
 10
1165.446769498879
 20
1276.356431403274
 10
1161.988405110439
 20
1276.884403367662
  0
LINE
  5
223F
330
1F
100
AcDbEntity
  8
Hewi
  6
CUSTOM
 62
    18
420
        0
370
     9
100
AcDbLine
 10
1108.556949311526
 20
1254.310189715052
 30
0.0
 11
1106.718679554885
 21
1254.176383342903
 31
0.0
  0
LWPOLYLINE
  5
2240
330
1F
100
AcDbEntity
  8
Hewi
  6
CUSTOM
 62
    18
420
        0
370
     9
100
AcDbPolyline
 90
        4
 70
     0
 43
0.0
 10
1110.788980447812
 20
1254.867364361668
 10
1109.684360488908
 20
1254.533258068452
 10
1108.779133073644
 20
1254.354150753341
 10
1108.556949311526
 20
1254.310189715052
  0
LWPOLYLINE
  5
2241
330
1F
100
AcDbEntity
  8
Hewi
  6
CUSTOM
 62
    18
420
        0
370
     9
100
AcDbPolyline
 90
        4
 70
     0
 43
0.0
 10
1141.945722945159
 20
1278.021051008331
 10
1141.284215442029
 20
1278.012994425943
 10
1137.702042612837
 20
1277.879780095205
 10
1130.549065435895
 20
1277.304908819922
  0
LWPOLYLINE
  5
2242
330
1F
100
AcDbEntity
  8
Hewi
  6
CUSTOM
 62
    18
420
        0
370
     9
100
AcDbPolyline
 90
        3
 70
     0
 43
0.0
 10
1161.988405110439
 20
1276.884403367662
 10
1155.27149832168
 20
1277.670443353814
 10
1151.857969562182
 20
1277.879758089333
  0
LWPOLYLINE
  5
2243
330
1F
100
AcDbEntity
  8
Hewi
  6
CUSTOM
 62
    18
420
        0
370
     9
100
AcDbPolyline
 90
        3
 70
     0
 43
0.0
 10
1151.857969562182
 20
1277.879758089333
 10
1148.34913854034
 20
1278.012989718951
 10
1146.56143001526
 20
1278.034909132363
  0
LWPOLYLINE
  5
2244
330
1F
100
AcDbEntity
  8
Hewi
  6
CUSTOM
 62
    18
420
        0
370
     9
100
AcDbPolyline
 90
        3
 70
     0
 43
0.0
 10
1143.547526432791
 20
1278.050522983384
 10
1144.513572385193
 20
1278.055820330821
 10
1144.828343993177
 20
1278.056158809534
  0
LWPOLYLINE
  5
2245
330
1F
100
AcDbEntity
  8
Hewi
  6
CUSTOM
 62
    18
420
        0
370
     9
100
AcDbPolyline
 90
        3
 70
     0
 43
0.0
 10
1144.828343993177
 20
1278.056158809534
 10
1145.049036989578
 20
1278.05478577239
 10
1145.343023380389
 20
1278.051581465367
  0
LWPOLYLINE
  5
2246
330
1F
100
AcDbEntity
  8
Hewi
  6
CUSTOM
 62
    18
420
        0
370
     9
100
AcDbPolyline
 90
        3
 70
     0
 43
0.0
 10
1134.343320325607
 20
1277.60984592418
 10
1135.647567346816
 20
1277.720933540539
 10
1135.957427068738
 20
1277.739568636451
  0
LINE
  5
2247
330
1F
100
AcDbEntity
  8
Hewi
  6
CUSTOM
 62
    18
420
        0
370
     9
100
AcDbLine
 10
1139.391859163189
 20
1277.942621228769
 30
0.0
 11
1139.683739747511
 21
1277.963670670422
 31
0.0
  0
LINE
  5
2248
330
1F
100
AcDbEntity
  8
Hewi
  6
CUSTOM
 62
    18
420
        0
370
     9
100
AcDbLine
 10
1106.718679554885
 20
1254.176383342903
 30
0.0
 11
1106.718713879244
 21
1254.176383343485
 31
0.0
  0
LINE
  5
2249
330
1F
100
AcDbEntity
  8
Hewi
  6
CUSTOM
 62
    18
420
        0
370
     9
100
AcDbLine
 10
1140.376821886873
 20
1277.979250150256
 30
0.0
 11
1139.683739747511
 21
1277.963670670422
 31
0.0
  0
LWPOLYLINE
  5
224A
330
1F
100
AcDbEntity
  8
Hewi
  6
CUSTOM
 62
    18
420
        0
370
     9
100
AcDbPolyline
 90
        3
 70
     0
 43
0.0
 10
1126.048055078493
 20
1276.379160913249
 10
1133.249545004809
 20
1277.304625957117
 10
1138.305002245245
 20
1277.879704537907
  0
LINE
  5
224B
330
1F
100
AcDbEntity
  8
Hewi
  6
CUSTOM
 62
    18
420
        0
370
     9
100
AcDbLine
 10
1139.239559604911
 20
1277.936957487215
 30
0.0
 11
1139.683739747511
 21
1277.963670670422
 31
0.0
  0
LWPOLYLINE
  5
224C
330
1F
100
AcDbEntity
  8
Hewi
  6
CUSTOM
 62
    18
420
        0
370
     9
100
AcDbPolyline
 90
        4
 70
     0
 43
0.0
 10
1141.487856974484
 20
1278.012968318322
 10
1143.325371737716
 20
1278.045405895206
 10
1144.415505816819
 20
1278.05345627126
 10
1144.828343993177
 20
1278.056158809534
  0
LWPOLYLINE
  5
224D
330
1F
100
AcDbEntity
  8
Hewi
  6
CUSTOM
 62
    18
420
        0
370
     9
100
AcDbPolyline
 90
        3
 70
     0
 43
0.0
 10
1147.368297335816
 20
1277.879577997537
 10
1146.12286080805
 20
1278.012899062411
 10
1145.802940745497
 20
1278.045388009737
  0
LWPOLYLINE
  5
224E
330
1F
100
AcDbEntity
  8
Hewi
  6
CUSTOM
 62
    18
420
        0
370
     9
100
AcDbPolyline
 90
        3
 70
     0
 43
0.0
 10
1118.535603724544
 20
1275.029909664754
 10
1114.394164993552
 20
1273.605330150244
 10
1110.656790992835
 20
1271.924985388952
  0
LWPOLYLINE
  5
224F
330
1F
100
AcDbEntity
  8
Hewi
  6
CUSTOM
 62
    18
420
        0
370
     9
100
AcDbPolyline
 90
        3
 70
     0
 43
0.0
 10
1144.828343993177
 20
1278.056158809534
 10
1147.387807171916
 20
1278.033396009665
 10
1147.689801875626
 20
1278.021073963337
  0
LWPOLYLINE
  5
2250
330
1F
100
AcDbEntity
  8
Hewi
  6
CUSTOM
 62
    18
420
        0
370
     9
100
AcDbPolyline
 90
        3
 70
     0
 43
0.0
 10
1130.549065435895
 20
1277.304908819922
 10
1124.438044963995
 20
1276.379368346523
 10
1118.535603724544
 20
1275.029909664754
  0
LWPOLYLINE
  5
2251
330
1F
100
AcDbEntity
  8
Hewi
  6
CUSTOM
 62
    18
420
        0
370
     9
100
AcDbPolyline
 90
        3
 70
     0
 43
0.0
 10
1118.535603724544
 20
1275.029909664754
 10
1124.406959341963
 20
1276.37949845738
 10
1130.549065435895
 20
1277.304908819922
  0
LINE
  5
2252
330
1F
100
AcDbEntity
  8
Hewi
  6
CUSTOM
 62
    18
420
        0
370
     9
100
AcDbLine
 10
1144.828343993177
 20
1278.056158809534
 30
0.0
 11
1143.547526432791
 21
1278.050522983384
 31
0.0
  0
LINE
  5
2253
330
1F
100
AcDbEntity
  8
Hewi
  6
CUSTOM
 62
    18
420
        0
370
     9
100
AcDbLine
 10
1143.547526432791
 20
1278.050522983384
 30
0.0
 11
1143.299805265976
 21
1278.044954571338
 31
0.0
  0
LINE
  5
2254
330
1F
100
AcDbEntity
  8
Hewi
  6
CUSTOM
 62
    18
420
        0
370
     9
100
AcDbLine
 10
1139.683739747511
 20
1277.963670670422
 30
0.0
 11
1140.214438308155
 21
1277.97321140864
 31
0.0
  0
LINE
  5
2255
330
1F
100
AcDbEntity
  8
Hewi
  6
CUSTOM
 62
    18
420
        0
370
     9
100
AcDbLine
 10
1145.802940745497
 20
1278.045388009737
 30
0.0
 11
1144.828343993177
 21
1278.056158809534
 31
0.0
  0
LINE
  5
2256
330
1F
100
AcDbEntity
  8
Hewi
  6
CUSTOM
 62
    18
420
        0
370
     9
100
AcDbLine
 10
1148.149683520322
 20
1278.012966681115
 30
0.0
 11
1145.802940745497
 21
1278.045388009737
 31
0.0
  0
LWPOLYLINE
  5
2257
330
1F
100
AcDbEntity
  8
Hewi
  6
CUSTOM
 62
    18
420
        0
370
     9
100
AcDbPolyline
 90
        4
 70
     0
 43
0.0
 10
1106.718678538812
 20
1254.176381752321
 10
1107.871936856893
 20
1254.228307079542
 10
1108.357635344037
 20
1254.295681790351
 10
1109.010342754548
 20
1254.386223503261
  0
LWPOLYLINE
  5
2258
330
1F
100
AcDbEntity
  8
Hewi
  6
CUSTOM
 62
    18
420
        0
370
     9
100
AcDbPolyline
 90
        3
 70
     0
 43
0.0
 10
1146.150607226541
 20
1260.04322027673
 10
1150.70283090615
 20
1260.04322027673
 10
1155.184802647339
 20
1260.04322027673
  0
LWPOLYLINE
  5
2259
330
1F
100
AcDbEntity
  8
Hewi
  6
CUSTOM
 62
    18
420
        0
370
     9
100
AcDbPolyline
 90
       16
 70
     0
 43
0.0
 10
1154.039797516198
 20
1235.16275144638
 10
1158.12143677113
 20
1237.135996304121
 10
1160.350977286355
 20
1238.569834850776
 10
1162.244408833453
 20
1240.070836375311
 10
1162.886172147127
 20
1240.679349073402
 10
1163.255111482584
 20
1241.063410555758
 10
1164.992107643405
 20
1242.607112870774
 10
1166.993035129862
 20
1243.78957655725
 10
1169.183104572011
 20
1244.566604122945
 10
1174.869538898239
 20
1246.311573397328
 10
1179.538088038688
 20
1248.490176911397
 10
1182.304435390172
 20
1250.413844824496
 10
1184.303989445915
 20
1252.487677193556
 10
1185.594407179052
 20
1254.657874060289
 10
1186.338982401075
 20
1257.057089888363
 10
1186.611456866035
 20
1260.043219635078
  0
LWPOLYLINE
  5
225A
330
1F
100
AcDbEntity
  8
Hewi
  6
CUSTOM
 62
    18
420
        0
370
     9
100
AcDbPolyline
 90
        6
 70
     0
 43
0.0
 10
1135.481966867236
 20
1260.042833333417
 10
1177.73761232396
 20
1260.04322027673
 10
1182.541587503286
 20
1260.04322027673
 10
1185.546932428734
 20
1260.04322027673
 10
1186.610315374223
 20
1260.04322027673
 10
1186.611456866035
 20
1260.043219635078
  0
LWPOLYLINE
  5
225B
330
1F
100
AcDbEntity
  8
Hewi
  6
CUSTOM
 62
    18
420
        0
370
     9
100
AcDbPolyline
 90
       10
 70
     0
 43
0.0
 10
1096.611457928674
 20
1228.176411318786
 10
1121.454568738708
 20
1228.176385178365
 10
1124.227948564695
 20
1228.277974555928
 10
1125.964760677548
 20
1228.41615045573
 10
1127.700059904841
 20
1228.576103800984
 10
1132.635940290181
 20
1229.182883555903
 10
1138.048004790334
 20
1230.112068097678
 10
1143.549152521541
 20
1231.3798279699
 10
1149.854429194363
 20
1233.343401200942
 10
1154.039797516198
 20
1235.16275144638
  0
LWPOLYLINE
  5
225C
330
1F
100
AcDbEntity
  8
Hewi
  6
CUSTOM
 62
    18
420
        0
370
     9
100
AcDbPolyline
 90
        3
 70
     0
 43
0.0
 10
1159.483391150956
 20
1238.713517467626
 10
1157.312613435214
 20
1237.292689870828
 10
1154.039797516198
 20
1235.16275144638
  0
LINE
  5
225D
330
1F
100
AcDbEntity
  8
Hewi
  6
CUSTOM
 62
    18
420
        0
370
     9
100
AcDbLine
 10
1186.611456866035
 20
1260.043219635078
 30
0.0
 11
1185.573368313847
 21
1260.04390857877
 31
0.0
  0
LWPOLYLINE
  5
225E
330
1F
100
AcDbEntity
  8
Hewi
  6
CUSTOM
 62
    18
420
        0
370
     9
100
AcDbPolyline
 90
        3
 70
     0
 43
0.0
 10
1111.978707497598
 20
1255.387353098941
 10
1113.071995369283
 20
1256.061252649979
 10
1114.050285464277
 20
1256.882764850325
  0
LWPOLYLINE
  5
225F
330
1F
100
AcDbEntity
  8
Hewi
  6
CUSTOM
 62
    18
420
        0
370
     9
100
AcDbPolyline
 90
        3
 70
     0
 43
0.0
 10
1110.788981198923
 20
1254.867361146015
 10
1110.82472838567
 20
1254.88298511731
 10
1111.978707497598
 20
1255.387353098941
  0
LINE
  5
2260
330
1F
100
AcDbEntity
  8
Hewi
  6
CUSTOM
 62
    18
420
        0
370
     9
100
AcDbLine
 10
1108.795667632607
 20
1254.357422262361
 30
0.0
 11
1109.010342754548
 21
1254.386223503261
 31
0.0
  0
LWPOLYLINE
  5
2261
330
1F
100
AcDbEntity
  8
Hewi
  6
CUSTOM
 62
    18
420
        0
370
     9
100
AcDbPolyline
 90
        3
 70
     0
 43
0.0
 10
1109.010342754548
 20
1254.386223503261
 10
1109.198562131388
 20
1254.437138531899
 10
1110.788873487277
 20
1254.867332009151
  0
LINE
  5
2262
330
1F
100
AcDbEntity
  8
Hewi
  6
CUSTOM
 62
    18
420
        0
370
     9
100
AcDbLine
 10
1110.788873487277
 20
1254.867332009151
 30
0.0
 11
1110.788981198923
 21
1254.867361146015
 31
0.0
  0
LINE
  5
2263
330
1F
100
AcDbEntity
  8
Hewi
  6
CUSTOM
 62
    18
420
        0
370
     9
100
AcDbLine
 10
1114.050285464277
 20
1256.882764850325
 30
0.0
 11
1114.075896724252
 21
1256.907759484882
 31
0.0
  0
LWPOLYLINE
  5
2264
330
1F
100
AcDbEntity
  8
Hewi
  6
CUSTOM
 62
    18
420
        0
370
     9
100
AcDbPolyline
 90
        7
 70
     0
 43
0.0
 10
1093.662476064296
 20
1228.190861277475
 10
1093.721096809612
 20
1228.196334426572
 10
1093.732075785411
 20
1228.198606754584
 10
1093.759326896755
 20
1228.206083929999
 10
1093.777418653139
 20
1228.212558689546
 10
1093.785879392301
 20
1228.216024110607
 10
1093.789655169596
 20
1228.217971852679
  0
LWPOLYLINE
  5
2265
330
1F
100
AcDbEntity
  8
Hewi
  6
CUSTOM
 62
    18
420
        0
370
     9
100
AcDbPolyline
 90
        3
 70
     0
 43
0.0
 10
1093.717607903884
 20
1228.196008683491
 10
1093.709253458896
 20
1228.194361437218
 10
1093.662476064296
 20
1228.190861277417
  0
LWPOLYLINE
  5
2266
330
1F
100
AcDbEntity
  8
Hewi
  6
CUSTOM
 62
    18
420
        0
370
     9
100
AcDbPolyline
 90
        4
 70
     0
 43
0.0
 10
1093.750175984235
 20
1228.203573097318
 10
1093.739943076981
 20
1228.200508149534
 10
1093.738096971655
 20
1228.200048513816
 10
1093.735372767908
 20
1228.199511382427
  0
LINE
  5
2267
330
1F
100
AcDbEntity
  8
Hewi
  6
CUSTOM
 62
    18
420
        0
370
     9
100
AcDbLine
 10
1093.281988974319
 20
1228.190861277475
 30
0.0
 11
1093.662476064296
 21
1228.190861277475
 31
0.0
  0
LINE
  5
2268
330
1F
100
AcDbEntity
  8
Hewi
  6
CUSTOM
 62
    18
420
        0
370
     9
100
AcDbLine
 10
1092.287438452834
 20
1228.372542401096
 30
0.0
 11
1092.284321942025
 21
1228.369428100519
 31
0.0
  0
LINE
  5
2269
330
1F
100
AcDbEntity
  8
Hewi
  6
CUSTOM
 62
    18
420
        0
370
     9
100
AcDbLine
 10
1092.196624630255
 20
1228.340178373114
 30
0.0
 11
1092.261258934283
 21
1228.37495424481
 31
0.0
  0
LWPOLYLINE
  5
226A
330
1F
100
AcDbEntity
  8
Hewi
  6
CUSTOM
 62
    18
420
        0
370
     9
100
AcDbPolyline
 90
        3
 70
     0
 43
0.0
 10
1093.768577665215
 20
1228.209394636873
 10
1093.766186402769
 20
1228.208368518408
 10
1093.763268208256
 20
1228.207494464314
  0
LWPOLYLINE
  5
226B
330
1F
100
AcDbEntity
  8
Hewi
  6
CUSTOM
 62
    18
420
        0
370
     9
100
AcDbPolyline
 90
        3
 70
     0
 43
0.0
 10
1093.542966949878
 20
1228.247638871679
 10
1093.538027559997
 20
1228.244428844297
 10
1093.47959331482
 20
1228.212596271904
  0
LWPOLYLINE
  5
226C
330
1F
100
AcDbEntity
  8
Hewi
  6
CUSTOM
 62
    18
420
        0
370
     9
100
AcDbPolyline
 90
       11
 70
     0
 43
0.0
 10
1096.611457323314
 20
1228.176401785768
 10
1096.611456991763
 20
1228.399437290052
 10
1096.611457599451
 20
1229.10792832512
 10
1096.611458332868
 20
1230.485001468293
 10
1096.611458891196
 20
1232.504804782995
 10
1096.611459117507
 20
1235.144390540623
 10
1096.611458954526
 20
1238.342818117777
 10
1096.611458442298
 20
1242.001153996553
 10
1096.611457720523
 20
1245.982471764397
 10
1096.611457028551
 20
1250.111852114049
 10
1096.611457928208
 20
1254.176382843685
  0
LWPOLYLINE
  5
22B0
330
1F
100
AcDbEntity
  8
Hewi
  6
CUSTOM
 62
    18
420
        0
370
     9
100
AcDbPolyline
 90
       12
 70
     0
 43
0.0
 10
218.8957082047584
 20
229.5504182845659
 10
227.1807918841171
 20
230.379327061489
 10
235.1370074005083
 20
232.83459392798
 10
242.4484004444332
 20
236.8187164051262
 10
248.8246236596626
 20
242.1734784838566
 10
254.0124668108567
 20
248.6862338184662
 10
257.8059121754834
 20
256.0983502602241
 10
260.0543158439598
 20
264.1154805623044
 10
260.6683900352893
 20
272.4192513895907
 10
259.6237488606405
 20
280.6799064436611
 10
256.9618767268059
 20
288.569401623856
 10
252.7884809226764
 20
295.7744321941548
  0
LWPOLYLINE
  5
22B1
330
1F
100
AcDbEntity
  8
Hewi
  6
CUSTOM
 62
    18
420
        0
370
     9
100
AcDbPolyline
 90
       24
 70
     0
 43
0.0
 10
185.0029359795064
 20
295.7744324462981
 10
180.8295401217749
 20
288.5694019070463
 10
180.6938407981999
 20
288.1672041006961
 10
179.7742475996949
 20
285.4416314344064
 10
178.1676679292488
 20
280.6799067466538
 10
178.0607725087122
 20
279.834615402094
 10
177.6301080865216
 20
276.4290728009876
 10
177.1230266931436
 20
272.4192517003551
 10
177.2178095734655
 20
271.1375573916437
 10
177.7052947763934
 20
264.5455757167722
 10
177.7371008226966
 20
264.1154808685016
 10
177.9197087281666
 20
263.4643560572633
 10
179.2152517719135
 20
258.8448396258962
 10
179.985504431532
 20
256.0983505496931
 10
180.9793686541
 20
254.156412081624
 10
182.7021476766115
 20
250.7902270637485
 10
183.7789497410142
 20
248.6862340797141
 10
185.4348517918245
 20
246.607434708699
 10
187.7820868027213
 20
243.6607443160558
 10
188.9667928437613
 20
242.1734787065091
 10
195.3430160191512
 20
236.818716580344
 10
202.6544090334375
 20
232.8345940488073
 10
210.6106245315625
 20
230.379327123125
 10
218.8957082047584
 20
229.5504182845659
  0
LWPOLYLINE
  5
22B2
330
1F
100
AcDbEntity
  8
Hewi
  6
CUSTOM
 62
    18
420
        0
370
     9
100
AcDbPolyline
 90
        6
 70
     0
 43
0.0
 10
189.4774544610429
 20
303.0901904095738
 10
189.239198495123
 20
302.1115351935398
 10
188.548616622482
 20
300.4279879532344
 10
187.4708276676194
 20
298.8750906757712
 10
186.5009159722233
 20
297.7336339111591
 10
186.3236500861333
 20
297.5017886359321
  0
LWPOLYLINE
  5
22B3
330
1F
100
AcDbEntity
  8
Hewi
  6
CUSTOM
 62
    18
420
        0
370
     9
100
AcDbPolyline
 90
        6
 70
     0
 43
0.0
 10
251.4520027328128
 20
297.5224272270637
 10
251.2905189760261
 20
297.7336336701621
 10
250.3205892576282
 20
298.8750904419887
 10
249.3380926894372
 20
300.256088882041
 10
248.8978741106969
 20
301.1521164595135
 10
248.5524324128403
 20
302.1115349729127
  0
LWPOLYLINE
  5
22B5
330
1F
100
AcDbEntity
  8
Hewi
  6
CUSTOM
 62
    18
420
        0
370
     9
100
AcDbPolyline
 90
        4
 70
     0
 43
0.0
 10
189.6673849046622
 20
305.3728924319241
 10
189.6503412317781
 20
306.4775123579896
 10
189.6458554687472
 20
307.4284141944747
 10
189.6450228076958
 20
307.6049235017488
  0
LWPOLYLINE
  5
22B6
330
1F
100
AcDbEntity
  8
Hewi
  6
CUSTOM
 62
    18
420
        0
370
     9
100
AcDbPolyline
 90
        4
 70
     0
 43
0.0
 10
248.1244141576628
 20
305.3728916826133
 10
248.1623446602664
 20
304.1832457857183
 10
248.3142320974896
 20
303.0901901907175
 10
248.5524324128403
 20
302.1115349729127
  0
LWPOLYLINE
  5
22B9
330
1F
100
AcDbEntity
  8
Hewi
  6
CUSTOM
 62
    18
420
        0
370
     9
100
AcDbPolyline
 90
        3
 70
     0
 43
0.0
 10
189.629387515861
 20
304.1832460034432
 10
189.6375349467619
 20
304.4383309546581
 10
189.6673849046622
 20
305.3728924319241
  0
LINE
  5
22BA
330
1F
100
AcDbEntity
  8
Hewi
  6
CUSTOM
 62
    18
420
        0
370
     9
100
AcDbLine
 10
189.4774544610429
 20
303.0901904095738
 30
0.0
 11
189.6293762231346
 21
304.1831647599081
 31
0.0
  0
LINE
  5
22BB
330
1F
100
AcDbEntity
  8
Hewi
  6
CUSTOM
 62
    18
420
        0
370
     9
100
AcDbLine
 10
189.6456736636848
 20
307.6054811628694
 30
0.0
 11
189.6450228076958
 21
307.6049235017488
 31
0.0
  0
LINE
  5
22BC
330
1F
100
AcDbEntity
  8
Hewi
  6
CUSTOM
 62
    18
420
        0
370
     9
100
AcDbLine
 10
185.0029359795064
 20
295.7744324462981
 30
0.0
 11
185.0148574184697
 21
295.7900244440564
 31
0.0
  0
LWPOLYLINE
  5
22BD
330
1F
100
AcDbEntity
  8
Hewi
  6
CUSTOM
 62
    18
420
        0
370
     9
100
AcDbPolyline
 90
        3
 70
     0
 43
0.0
 10
186.6258208552228
 20
297.8764378299395
 10
185.9918697386913
 20
297.0904277301918
 10
185.0031424478204
 20
295.7744318194603
  0
LINE
  5
22BE
330
1F
100
AcDbEntity
  8
Hewi
  6
CUSTOM
 62
    18
420
        0
370
     9
100
AcDbLine
 10
228.2710959391136
 20
230.6149426743848
 30
0.0
 11
230.7782738094595
 21
231.4895003762624
 31
0.0
  0
LWPOLYLINE
  5
22BF
330
1F
100
AcDbEntity
  8
Hewi
  6
CUSTOM
 62
    18
420
        0
370
     9
100
AcDbPolyline
 90
        3
 70
     0
 43
0.0
 10
202.4743434457725
 20
232.9327153910601
 10
202.2894725786812
 20
232.9935250507626
 10
200.9050263421289
 20
233.6202875106689
  0
LWPOLYLINE
  5
22C0
330
1F
100
AcDbEntity
  8
Hewi
  6
CUSTOM
 62
    18
420
        0
370
     9
100
AcDbPolyline
 90
        3
 70
     0
 43
0.0
 10
259.9529479941905
 20
279.1085235919047
 10
259.8871175257902
 20
279.4435144380234
 10
259.7043078347253
 20
280.0428741300218
  0
LWPOLYLINE
  5
22C1
330
1F
100
AcDbEntity
  8
Hewi
  6
CUSTOM
 62
    18
420
        0
370
     9
100
AcDbPolyline
 90
        3
 70
     0
 43
0.0
 10
252.7886881510369
 20
295.774431819462
 10
252.1743117410608
 20
296.6051000895593
 10
251.5479137025561
 20
297.4083244979163
  0
LWPOLYLINE
  5
22C2
330
1F
100
AcDbEntity
  8
Hewi
  6
CUSTOM
 62
    18
420
        0
370
     9
100
AcDbPolyline
 90
        3
 70
     0
 43
0.0
 10
260.0858757971275
 20
264.542247461816
 10
260.2676832396594
 20
265.4590431604604
 10
260.6617781223997
 20
270.0112667047717
  0
LWPOLYLINE
  5
22C3
330
1F
100
AcDbEntity
  8
Hewi
  6
CUSTOM
 62
    18
420
        0
370
     9
100
AcDbPolyline
 90
        3
 70
     0
 43
0.0
 10
210.448726244593
 20
230.4292885221819
 10
210.3075624599244
 20
230.444520066894
 10
209.5207346597438
 20
230.6149426743848
  0
LINE
  5
22C4
330
1F
100
AcDbEntity
  8
Hewi
  6
CUSTOM
 62
    18
420
        0
370
     9
100
AcDbLine
 10
189.6674164410562
 20
305.3728916809962
 30
0.0
 11
189.6293763249325
 21
304.1831654175906
 31
0.0
  0
LINE
  5
22C5
330
1F
100
AcDbEntity
  8
Hewi
  6
CUSTOM
 62
    18
420
        0
370
     9
100
AcDbLine
 10
221.46278424662
 20
229.8072499530292
 30
0.0
 11
219.208439339249
 21
229.5515597605888
 31
0.0
  0
LINE
  5
22C6
330
1F
100
AcDbEntity
  8
Hewi
  6
CUSTOM
 62
    18
420
        0
370
     9
100
AcDbLine
 10
236.0310834243267
 20
233.3217936329567
 30
0.0
 11
236.8868042567285
 21
233.6202875106689
 31
0.0
  0
LWPOLYLINE
  5
22C7
330
1F
100
AcDbEntity
  8
Hewi
  6
CUSTOM
 62
    18
420
        0
370
     9
100
AcDbPolyline
 90
        3
 70
     0
 43
0.0
 10
232.6789729473806
 20
232.076051064603
 10
232.4112418884054
 20
231.9777961611583
 10
228.2710959391136
 20
230.6149426743848
  0
LINE
  5
22C8
330
1F
100
AcDbEntity
  8
Hewi
  6
CUSTOM
 62
    18
420
        0
370
     9
100
AcDbLine
 10
218.8959152994305
 20
229.5504182685929
 30
0.0
 11
219.208439339249
 21
229.5515597605888
 31
0.0
  0
LINE
  5
22C9
330
1F
100
AcDbEntity
  8
Hewi
  6
CUSTOM
 62
    18
420
        0
370
     9
100
AcDbLine
 10
236.8868042567285
 20
233.6202875106689
 30
0.0
 11
239.144673969817
 21
235.0184505949294
 31
0.0
  0
LWPOLYLINE
  5
22CA
330
1F
100
AcDbEntity
  8
Hewi
  6
CUSTOM
 62
    18
420
        0
370
     9
100
AcDbPolyline
 90
        3
 70
     0
 43
0.0
 10
243.5616200171519
 20
237.7535999584022
 10
244.6446615906846
 20
238.4242625471504
 10
246.3981656351082
 20
240.1357352980879
  0
LWPOLYLINE
  5
22CB
330
1F
100
AcDbEntity
  8
Hewi
  6
CUSTOM
 62
    18
420
        0
370
     9
100
AcDbPolyline
 90
        3
 70
     0
 43
0.0
 10
255.087772301935
 20
250.7873025636288
 10
256.1654224685538
 20
252.4367994258976
 10
256.8136110438083
 20
254.1594659939781
  0
LINE
  5
22CC
330
1F
100
AcDbEntity
  8
Hewi
  6
CUSTOM
 62
    18
420
        0
370
     9
100
AcDbLine
 10
219.208439339249
 20
229.5515597605888
 30
0.0
 11
220.9521905619133
 21
229.7561659084292
 31
0.0
  0
LINE
  5
22CD
330
1F
100
AcDbEntity
  8
Hewi
  6
CUSTOM
 62
    18
420
        0
370
     9
100
AcDbLine
 10
227.7438086614913
 20
230.5530724848324
 30
0.0
 11
228.2710959391136
 21
230.6149426743848
 31
0.0
  0
LWPOLYLINE
  5
22CE
330
1F
100
AcDbEntity
  8
Hewi
  6
CUSTOM
 62
    18
420
        0
370
     9
100
AcDbPolyline
 90
        3
 70
     0
 43
0.0
 10
258.5749535456728
 20
258.8405201790281
 10
259.3788747552337
 20
260.9770715530428
 10
259.8731209788041
 20
263.4693942299052
  0
LWPOLYLINE
  5
22CF
330
1F
100
AcDbEntity
  8
Hewi
  6
CUSTOM
 62
    18
420
        0
370
     9
100
AcDbPolyline
 90
        3
 70
     0
 43
0.0
 10
177.5241473592016
 20
265.4590431604604
 10
177.1390845411827
 20
269.8228825304534
 10
177.1300524764576
 20
270.0112667047717
  0
LWPOLYLINE
  5
22D0
330
1F
100
AcDbEntity
  8
Hewi
  6
CUSTOM
 62
    18
420
        0
370
     9
100
AcDbPolyline
 90
        3
 70
     0
 43
0.0
 10
252.7886881510369
 20
295.774431819462
 10
254.5239642652652
 20
292.8356845124347
 10
255.2078063121464
 20
291.5976624380498
  0
LWPOLYLINE
  5
22D1
330
1F
100
AcDbEntity
  8
Hewi
  6
CUSTOM
 62
    18
420
        0
370
     9
100
AcDbPolyline
 90
        3
 70
     0
 43
0.0
 10
257.2861900896116
 20
287.8349733678422
 10
257.4362069170477
 20
287.479067799479
 10
258.438809283298
 20
284.1919365652391
  0
LWPOLYLINE
  5
22D2
330
1F
100
AcDbEntity
  8
Hewi
  6
CUSTOM
 62
    18
420
        0
370
     9
100
AcDbPolyline
 90
        3
 70
     0
 43
0.0
 10
177.2956003236124
 20
273.7839030956786
 10
177.4048535181121
 20
276.2736520381679
 10
177.8388826046741
 20
279.1085235919047
  0
LINE
  5
22D3
330
1F
100
AcDbEntity
  8
Hewi
  6
CUSTOM
 62
    18
420
        0
370
     9
100
AcDbLine
 10
236.8868042567285
 20
233.6202875106689
 30
0.0
 11
235.9437001376302
 21
233.2741767362388
 31
0.0
  0
LINE
  5
22D4
330
1F
100
AcDbEntity
  8
Hewi
  6
CUSTOM
 62
    18
420
        0
370
     9
100
AcDbLine
 10
177.5241473592016
 20
265.4590431604604
 30
0.0
 11
178.4129558436273
 21
260.9770715530424
 31
0.0
  0
LWPOLYLINE
  5
22D5
330
1F
100
AcDbEntity
  8
Hewi
  6
CUSTOM
 62
    18
420
        0
370
     9
100
AcDbPolyline
 90
        3
 70
     0
 43
0.0
 10
250.0078838358115
 20
243.6589289620663
 10
251.1746781017011
 20
244.7977553014609
 10
252.3588664379588
 20
246.6103239860888
  0
LINE
  5
22D6
330
1F
100
AcDbEntity
  8
Hewi
  6
CUSTOM
 62
    18
420
        0
370
     9
100
AcDbLine
 10
228.2710959391136
 20
230.6149426743848
 30
0.0
 11
227.7133287278978
 21
230.5436665120822
 31
0.0
  0
LWPOLYLINE
  5
22D7
330
1F
100
AcDbEntity
  8
Hewi
  6
CUSTOM
 62
    18
420
        0
370
     9
100
AcDbPolyline
 90
        3
 70
     0
 43
0.0
 10
248.1244141576628
 20
305.3728916826133
 10
248.1738246298903
 20
304.1120551511519
 10
248.418913164691
 20
302.6604404727653
  0
LINE
  5
22D8
330
1F
100
AcDbEntity
  8
Hewi
  6
CUSTOM
 62
    18
420
        0
370
     9
100
AcDbLine
 10
177.1300524764576
 20
270.0112667047717
 30
0.0
 11
177.5241473592016
 21
265.4590431604604
 31
0.0
  0
LWPOLYLINE
  5
22D9
330
1F
100
AcDbEntity
  8
Hewi
  6
CUSTOM
 62
    18
420
        0
370
     9
100
AcDbPolyline
 90
        3
 70
     0
 43
0.0
 10
260.5753540316312
 20
271.1611795069141
 10
260.6621314936622
 20
270.0531402076465
 10
260.6617781223997
 20
270.0112667047717
  0
LINE
  5
22DA
330
1F
100
AcDbEntity
  8
Hewi
  6
CUSTOM
 62
    18
420
        0
370
     9
100
AcDbLine
 10
257.2861900896116
 20
287.8349733678422
 30
0.0
 11
257.0895700783387
 21
288.1909326355228
 31
0.0
  0
LINE
  5
22DB
330
1F
100
AcDbEntity
  8
Hewi
  6
CUSTOM
 62
    18
420
        0
370
     9
100
AcDbLine
 10
218.8957005199247
 20
229.5504190530739
 30
0.0
 11
218.8957153477188
 21
229.5504189989149
 31
0.0
  0
LINE
  5
22DC
330
1F
100
AcDbEntity
  8
Hewi
  6
CUSTOM
 62
    18
420
        0
370
     9
100
AcDbLine
 10
209.5207346597438
 20
230.6149426743848
 30
0.0
 11
210.0473542793063
 21
230.5531508256783
 31
0.0
  0
LINE
  5
22DD
330
1F
100
AcDbEntity
  8
Hewi
  6
CUSTOM
 62
    18
420
        0
370
     9
100
AcDbLine
 10
249.0810817587355
 20
300.7792128310346
 30
0.0
 11
248.8130726626534
 21
301.38764124246
 31
0.0
  0
LWPOLYLINE
  5
22DE
330
1F
100
AcDbEntity
  8
Hewi
  6
CUSTOM
 62
    18
420
        0
370
     9
100
AcDbPolyline
 90
        4
 70
     0
 43
0.0
 10
181.9013240379447
 20
290.4197501816327
 10
184.024928662677
 20
294.3526216978591
 10
185.0018341758861
 20
295.7725302777792
 10
185.0031424478204
 20
295.7744318194603
  0
LINE
  5
22DF
330
1F
100
AcDbEntity
  8
Hewi
  6
CUSTOM
 62
    18
420
        0
370
     9
100
AcDbLine
 10
257.2861900896116
 20
287.8349733678422
 30
0.0
 11
257.0969664214738
 21
288.1690106782723
 31
0.0
  0
LINE
  5
22E0
330
1F
100
AcDbEntity
  8
Hewi
  6
CUSTOM
 62
    18
420
        0
370
     9
100
AcDbLine
 10
248.5524435175341
 20
302.1115041311166
 30
0.0
 11
248.5525118533026
 21
302.111587512751
 31
0.0
  0
LINE
  5
22E1
330
1F
100
AcDbEntity
  8
Hewi
  6
CUSTOM
 62
    18
420
        0
370
     9
100
AcDbLine
 10
259.9529479941905
 20
279.1085235919047
 30
0.0
 11
259.7303520777989
 21
279.8369257019587
 31
0.0
  0
LINE
  5
22E2
330
1F
100
AcDbEntity
  8
Hewi
  6
CUSTOM
 62
    18
420
        0
370
     9
100
AcDbLine
 10
252.7978789997417
 20
295.7582071768864
 30
0.0
 11
252.7886881510369
 21
295.774431819462
 31
0.0
  0
LINE
  5
22E3
330
1F
100
AcDbEntity
  8
Hewi
  6
CUSTOM
 62
    18
420
        0
370
     9
100
AcDbLine
 10
216.8420358544484
 20
229.7558847909261
 30
0.0
 11
218.583391259612
 21
229.5515597605888
 31
0.0
  0
LWPOLYLINE
  5
22E4
330
1F
100
AcDbEntity
  8
Hewi
  6
CUSTOM
 62
    18
420
        0
370
     9
100
AcDbPolyline
 90
        3
 70
     0
 43
0.0
 10
191.3962164909701
 20
240.1332449306904
 10
193.1471690081764
 20
238.4242625471504
 10
194.2286343609469
 20
237.7545760172368
  0
LINE
  5
22E5
330
1F
100
AcDbEntity
  8
Hewi
  6
CUSTOM
 62
    18
420
        0
370
     9
100
AcDbLine
 10
187.5412790934772
 20
298.9765983286227
 30
0.0
 11
187.3647802758225
 21
298.7502870341334
 31
0.0
  0
LINE
  5
22E6
330
1F
100
AcDbEntity
  8
Hewi
  6
CUSTOM
 62
    18
420
        0
370
     9
100
AcDbLine
 10
189.1729058184448
 20
301.9499224174035
 30
0.0
 11
189.2048578663837
 21
302.065066446912
 31
0.0
  0
LINE
  5
22E7
330
1F
100
AcDbEntity
  8
Hewi
  6
CUSTOM
 62
    18
420
        0
370
     9
100
AcDbLine
 10
248.5536084393955
 20
302.1082687149895
 30
0.0
 11
248.5525118533026
 21
302.111587512751
 31
0.0
  0
LINE
  5
22E8
330
1F
100
AcDbEntity
  8
Hewi
  6
CUSTOM
 62
    18
420
        0
370
     9
100
AcDbLine
 10
188.5959766418875
 20
300.5434454157669
 30
0.0
 11
188.3893224808218
 21
300.1984741530289
 31
0.0
  0
LINE
  5
22E9
330
1F
100
AcDbEntity
  8
Hewi
  6
CUSTOM
 62
    18
420
        0
370
     9
100
AcDbLine
 10
218.583391259612
 20
229.5515597605888
 30
0.0
 11
214.7490360937138
 21
229.9652859318642
 31
0.0
  0
LINE
  5
22EA
330
1F
100
AcDbEntity
  8
Hewi
  6
CUSTOM
 62
    18
420
        0
370
     9
100
AcDbLine
 10
250.4317841318937
 20
298.7442313293479
 30
0.0
 11
250.2253418158709
 21
299.0089703687725
 31
0.0
  0
LINE
  5
22EB
330
1F
100
AcDbEntity
  8
Hewi
  6
CUSTOM
 62
    18
420
        0
370
     9
100
AcDbLine
 10
260.6617781223997
 20
270.0112667047717
 30
0.0
 11
260.5738086966687
 21
271.140282575064
 31
0.0
  0
LINE
  5
22EC
330
1F
100
AcDbEntity
  8
Hewi
  6
CUSTOM
 62
    18
420
        0
370
     9
100
AcDbLine
 10
249.5278868825901
 20
299.9893139205185
 30
0.0
 11
249.2012605166003
 21
300.5345991649995
 31
0.0
  0
LINE
  5
22ED
330
1F
100
AcDbEntity
  8
Hewi
  6
CUSTOM
 62
    18
420
        0
370
     9
100
AcDbLine
 10
218.583391259612
 20
229.5515597605888
 30
0.0
 11
218.8957005199247
 21
229.5504190530739
 31
0.0
  0
LINE
  5
22EE
330
1F
100
AcDbEntity
  8
Hewi
  6
CUSTOM
 62
    18
420
        0
370
     9
100
AcDbLine
 10
200.9050263421289
 20
233.6202875106689
 30
0.0
 11
201.7595968533699
 21
233.3221948897833
 31
0.0
  0
LINE
  5
22EF
330
1F
100
AcDbEntity
  8
Hewi
  6
CUSTOM
 62
    18
420
        0
370
     9
100
AcDbLine
 10
207.0167319839331
 20
231.4883927999442
 30
0.0
 11
209.5207346597438
 21
230.6149426743848
 31
0.0
  0
LINE
  5
22F0
330
1F
100
AcDbEntity
  8
Hewi
  6
CUSTOM
 62
    18
420
        0
370
     9
100
AcDbLine
 10
177.1300524764576
 20
270.0112667047717
 30
0.0
 11
177.1937512241113
 21
271.4628845759078
 31
0.0
  0
LINE
  5
22F1
330
1F
100
AcDbEntity
  8
Hewi
  6
CUSTOM
 62
    18
420
        0
370
     9
100
AcDbLine
 10
188.7662888376346
 20
300.9586440159226
 30
0.0
 11
188.6001929257456
 21
300.5663672196667
 31
0.0
  0
LINE
  5
22F2
330
1F
100
AcDbEntity
  8
Hewi
  6
CUSTOM
 62
    18
420
        0
370
     9
100
AcDbLine
 10
248.8704823346436
 20
301.2756250265886
 30
0.0
 11
248.4227470313001
 21
302.6446900965159
 31
0.0
  0
LINE
  5
22F3
330
1F
100
AcDbEntity
  8
Hewi
  6
CUSTOM
 62
    18
420
        0
370
     9
100
AcDbLine
 10
260.162386834427
 20
276.4205468031725
 30
0.0
 11
259.9529479941905
 21
279.1085235919047
 31
0.0
  0
LINE
  5
22F4
330
1F
100
AcDbEntity
  8
Hewi
  6
CUSTOM
 62
    18
420
        0
370
     9
100
AcDbLine
 10
259.9529479941905
 20
279.1085235919047
 30
0.0
 11
260.1652062880333
 21
276.3982515273558
 31
0.0
  0
LINE
  5
22F5
330
1F
100
AcDbEntity
  8
Hewi
  6
CUSTOM
 62
    18
420
        0
370
     9
100
AcDbLine
 10
258.0215602945884
 20
285.428616514276
 30
0.0
 11
257.2861900896116
 21
287.8349733678422
 31
0.0
  0
LINE
  5
22F6
330
1F
100
AcDbEntity
  8
Hewi
  6
CUSTOM
 62
    18
420
        0
370
     9
100
AcDbLine
 10
249.2700381527777
 20
300.4197785808031
 30
0.0
 11
248.7958308022046
 21
301.4355282128765
 31
0.0
  0
LINE
  5
22F7
330
1F
100
AcDbEntity
  8
Hewi
  6
CUSTOM
 62
    18
420
        0
370
     9
100
AcDbLine
 10
188.3175151028829
 20
300.0950128175075
 30
0.0
 11
188.6166038131216
 21
300.5937317308164
 31
0.0
  0
LWPOLYLINE
  5
22F8
330
1F
100
AcDbEntity
  8
Hewi
  6
CUSTOM
 62
    18
420
        0
370
     9
100
AcDbPolyline
 90
        3
 70
     0
 43
0.0
 10
189.1766845223558
 20
301.9591343994791
 10
189.4769995309346
 20
303.0883217497487
 10
189.4774133140947
 20
303.0898775784588
  0
LINE
  5
22F9
330
1F
100
AcDbEntity
  8
Hewi
  6
CUSTOM
 62
    18
420
        0
370
     9
100
AcDbLine
 10
180.5056405092493
 20
287.8349733678422
 30
0.0
 11
180.7085112925981
 21
288.2106858314521
 31
0.0
  0
LINE
  5
22FA
330
1F
100
AcDbEntity
  8
Hewi
  6
CUSTOM
 62
    18
420
        0
370
     9
100
AcDbLine
 10
198.6501911574653
 20
235.0165714937623
 30
0.0
 11
200.9050263421289
 21
233.6202875106689
 31
0.0
  0
LINE
  5
22FB
330
1F
100
AcDbEntity
  8
Hewi
  6
CUSTOM
 62
    18
420
        0
370
     9
100
AcDbLine
 10
209.5207346597438
 20
230.6149426743848
 30
0.0
 11
204.5671640888925
 21
232.2443229302642
 31
0.0
  0
LINE
  5
22FC
330
1F
100
AcDbEntity
  8
Hewi
  6
CUSTOM
 62
    18
420
        0
370
     9
100
AcDbLine
 10
189.4381864590452
 20
302.942384222891
 30
0.0
 11
189.6293763249325
 21
304.1831654175906
 31
0.0
  0
LWPOLYLINE
  5
22FD
330
1F
100
AcDbEntity
  8
Hewi
370
    13
100
AcDbPolyline
 90
        2
 70
     0
 43
0.0
 10
189.645855468822
 20
304.6985600136521
 10
189.645855468445
 20
319.5515502601081
  0
LWPOLYLINE
  5
22FE
330
1F
100
AcDbEntity
  8
Hewi
370
    13
100
AcDbPolyline
 90
        2
 70
     0
 43
0.0
 10
241.9327050305118
 20
236.6044901281969
 10
241.9326742677206
 20
236.6044567930546
  0
LINE
  5
24B2
330
1F
100
AcDbEntity
  8
Hewi
  6
CUSTOM
 62
    18
420
        0
370
     9
100
AcDbLine
 10
210.4844360349026
 20
1229.307508087757
 30
0.0
 11
210.4847175807018
 21
1229.307446969713
 31
0.0
  0
LWPOLYLINE
  5
24B3
330
1F
100
AcDbEntity
  8
Hewi
  6
CUSTOM
 62
    18
420
        0
370
     9
100
AcDbPolyline
 90
        3
 70
     0
 43
0.0
 10
229.6826160151768
 20
1230.723316203959
 10
225.9247859536927
 20
1229.425221033725
 10
225.6237892496657
 20
1229.34624241279
  0
LWPOLYLINE
  5
24B4
330
1F
100
AcDbEntity
  8
Hewi
  6
CUSTOM
 62
    18
420
        0
370
     9
100
AcDbPolyline
 90
        6
 70
     0
 43
0.0
 10
214.5564468970779
 20
1228.590407052845
 10
215.05509163833
 20
1228.542205931717
 10
215.3294767418202
 20
1228.51878502352
 10
215.9318366905
 20
1228.477911861362
 10
216.2504957497377
 20
1228.458373316691
 10
216.922525275245
 20
1228.432148697215
  0
LWPOLYLINE
  5
24B5
330
1F
100
AcDbEntity
  8
Hewi
  6
CUSTOM
 62
    18
420
        0
370
     9
100
AcDbPolyline
 90
        3
 70
     0
 43
0.0
 10
214.1861092715781
 20
1228.631988556368
 10
214.341202345423
 20
1228.613432145776
 10
214.5564468970779
 20
1228.590407052845
  0
LWPOLYLINE
  5
24B6
330
1F
100
AcDbEntity
  8
Hewi
  6
CUSTOM
 62
    18
420
        0
370
     9
100
AcDbPolyline
 90
        3
 70
     0
 43
0.0
 10
222.3734542906541
 20
1228.708209968212
 10
222.3882173069078
 20
1228.710214522154
 10
222.4777307810519
 20
1228.723453920578
  0
LINE
  5
24B7
330
1F
100
AcDbEntity
  8
Hewi
  6
CUSTOM
 62
    18
420
        0
370
     9
100
AcDbLine
 10
225.6237892496657
 20
1229.34624241279
 30
0.0
 11
225.471025777727
 21
1229.307508087757
 31
0.0
  0
LWPOLYLINE
  5
24B8
330
1F
100
AcDbEntity
  8
Hewi
  6
CUSTOM
 62
    18
420
        0
370
     9
100
AcDbPolyline
 90
        3
 70
     0
 43
0.0
 10
214.0570591196675
 20
1228.64742901122
 10
213.8263483762067
 20
1228.675032844108
 10
213.5672445061874
 20
1228.710214522154
  0
LINE
  5
24B9
330
1F
100
AcDbEntity
  8
Hewi
  6
CUSTOM
 62
    18
420
        0
370
     9
100
AcDbLine
 10
233.5610544590537
 20
1232.743120084644
 30
0.0
 11
231.9388009633195
 21
1231.80607615066
 31
0.0
  0
LINE
  5
24BA
330
1F
100
AcDbEntity
  8
Hewi
  6
CUSTOM
 62
    18
420
        0
370
     9
100
AcDbLine
 10
229.6826160151768
 20
1230.723316203959
 30
0.0
 11
225.471025777727
 21
1229.307508087757
 31
0.0
  0
LINE
  5
24BB
330
1F
100
AcDbEntity
  8
Hewi
  6
CUSTOM
 62
    18
420
        0
370
     9
100
AcDbLine
 10
222.4777307810519
 20
1228.723453920578
 30
0.0
 11
222.3498556923378
 21
1228.704760140576
 31
0.0
  0
LWPOLYLINE
  5
24BC
330
1F
100
AcDbEntity
  8
Hewi
  6
CUSTOM
 62
    18
420
        0
370
     9
100
AcDbPolyline
 90
        3
 70
     0
 43
0.0
 10
224.3476149507124
 20
1229.095276680088
 10
222.1289702250879
 20
1228.676136965671
 10
221.3990149160173
 20
1228.590407052845
  0
LWPOLYLINE
  5
24BD
330
1F
100
AcDbEntity
  8
Hewi
  6
CUSTOM
 62
    18
420
        0
370
     9
100
AcDbPolyline
 90
        3
 70
     0
 43
0.0
 10
213.5672445061874
 20
1228.710214522154
 10
213.4777310320433
 20
1228.723453920578
 10
212.4032549077902
 20
1228.933106580382
  0
LWPOLYLINE
  5
24BE
330
1F
100
AcDbEntity
  8
Hewi
  6
CUSTOM
 62
    18
420
        0
370
     9
100
AcDbPolyline
 90
        3
 70
     0
 43
0.0
 10
219.7049660633575
 20
1228.458373316691
 10
220.625985071275
 20
1228.51878502352
 10
221.3990149160173
 20
1228.590407052845
  0
LWPOLYLINE
  5
24BF
330
1F
100
AcDbEntity
  8
Hewi
  6
CUSTOM
 62
    18
420
        0
370
     9
100
AcDbPolyline
 90
        3
 70
     0
 43
0.0
 10
214.1347948184494
 20
1228.63775014241
 10
213.8264915880073
 20
1228.676136965671
 10
213.0522305823188
 20
1228.822408035147
  0
LINE
  5
24C0
330
1F
100
AcDbEntity
  8
Hewi
  6
CUSTOM
 62
    18
420
        0
370
     9
100
AcDbLine
 10
225.6237892496657
 20
1229.34624241279
 30
0.0
 11
229.6826160151768
 21
1230.723316203959
 31
0.0
  0
LWPOLYLINE
  5
24C1
330
1F
100
AcDbEntity
  8
Hewi
  6
CUSTOM
 62
    18
420
        0
370
     9
100
AcDbPolyline
 90
        3
 70
     0
 43
0.0
 10
222.3498556923378
 20
1228.704760140576
 10
221.9822686302733
 20
1228.656473391467
 10
221.3990268998105
 20
1228.590285559516
  0
LWPOLYLINE
  5
24C2
330
1F
100
AcDbEntity
  8
Hewi
  6
CUSTOM
 62
    18
420
        0
370
     9
100
AcDbPolyline
 90
        3
 70
     0
 43
0.0
 10
217.9779101779942
 20
1228.414717180229
 10
218.860618298154
 20
1228.42704279003
 10
219.7049660633575
 20
1228.458373316691
  0
LINE
  5
24C3
330
1F
100
AcDbEntity
  8
Hewi
  6
CUSTOM
 62
    18
420
        0
370
     9
100
AcDbLine
 10
241.7925317634154
 20
1240.271632050786
 30
0.0
 11
241.7925080915239
 21
1240.271606916078
 31
0.0
  0
LWPOLYLINE
  5
24C4
330
1F
100
AcDbEntity
  8
Hewi
  6
CUSTOM
 62
    18
420
        0
370
     9
100
AcDbPolyline
 90
        3
 70
     0
 43
0.0
 10
194.1708060598258
 20
1240.261984319117
 10
194.1629300496798
 20
1240.271632050786
 10
194.1435676209885
 20
1240.299265588121
  0
LWPOLYLINE
  5
24C5
330
1F
100
AcDbEntity
  8
Hewi
  6
CUSTOM
 62
    18
420
        0
370
     9
100
AcDbPolyline
 90
        3
 70
     0
 43
0.0
 10
207.6249056604948
 20
1230.2645830027
 10
208.582893718246
 20
1229.855316973273
 10
210.2285345147621
 20
1229.381229889968
  0
LINE
  5
24C6
330
1F
100
AcDbEntity
  8
Hewi
  6
CUSTOM
 62
    18
420
        0
370
     9
100
AcDbLine
 10
243.3936962734234
 20
1242.639979653974
 30
0.0
 11
243.171367959797
 21
1242.239470199635
 31
0.0
  0
LINE
  5
24C7
330
1F
100
AcDbEntity
  8
Hewi
  6
CUSTOM
 62
    18
420
        0
370
     9
100
AcDbLine
 10
213.5672445061874
 20
1228.710214522154
 30
0.0
 11
212.5167671104219
 21
1228.913744321395
 31
0.0
  0
LWPOLYLINE
  5
24C8
330
1F
100
AcDbEntity
  8
Hewi
  6
CUSTOM
 62
    18
420
        0
370
     9
100
AcDbPolyline
 90
        3
 70
     0
 43
0.0
 10
204.3441011460755
 20
1231.64893514894
 10
204.0166608493101
 20
1231.80607615066
 10
202.3949700568128
 20
1232.742794890113
  0
LWPOLYLINE
  5
24C9
330
1F
100
AcDbEntity
  8
Hewi
  6
CUSTOM
 62
    18
420
        0
370
     9
100
AcDbPolyline
 90
        3
 70
     0
 43
0.0
 10
213.5820075140592
 20
1228.708209969347
 10
213.6056061207574
 20
1228.704760140576
 10
213.6611531853933
 20
1228.697463400702
  0
LWPOLYLINE
  5
24CA
330
1F
100
AcDbEntity
  8
Hewi
  6
CUSTOM
 62
    18
420
        0
370
     9
100
AcDbPolyline
 90
        3
 70
     0
 43
0.0
 10
217.1403792204592
 20
1228.425394060625
 10
217.0948160982017
 20
1228.425975164148
 10
217.0632377376106
 20
1228.427186884986
  0
LINE
  5
24CB
330
1F
100
AcDbEntity
  8
Hewi
  6
CUSTOM
 62
    18
420
        0
370
     9
100
AcDbLine
 10
233.5610544590537
 20
1232.743120084644
 30
0.0
 11
234.4009095362645
 21
1233.359614363213
 31
0.0
  0
LINE
  5
24CC
330
1F
100
AcDbEntity
  8
Hewi
  6
CUSTOM
 62
    18
420
        0
370
     9
100
AcDbLine
 10
210.4844360349026
 20
1229.307508087757
 30
0.0
 11
210.530281715307
 21
1229.298562641121
 31
0.0
  0
LWPOLYLINE
  5
24CD
330
1F
100
AcDbEntity
  8
Hewi
  6
CUSTOM
 62
    18
420
        0
370
     9
100
AcDbPolyline
 90
        3
 70
     0
 43
0.0
 10
201.7215292539705
 20
1233.235088457335
 10
200.7855992160994
 20
1233.817824342445
 10
198.8968485656451
 20
1235.300359842961
  0
LINE
  5
24CE
330
1F
100
AcDbEntity
  8
Hewi
  6
CUSTOM
 62
    18
420
        0
370
     9
100
AcDbLine
 10
210.5289238595661
 20
1229.298888580041
 30
0.0
 11
210.4844360349026
 21
1229.307508087757
 31
0.0
  0
LINE
  5
24CF
330
1F
100
AcDbEntity
  8
Hewi
  6
CUSTOM
 62
    18
420
        0
370
     9
100
AcDbLine
 10
214.1347948184494
 20
1228.63775014241
 30
0.0
 11
214.1347999146465
 21
1228.6377495702
 31
0.0
  0
LWPOLYLINE
  5
24D0
330
1F
100
AcDbEntity
  8
Hewi
  6
CUSTOM
 62
    18
420
        0
370
     9
100
AcDbPolyline
 90
        3
 70
     0
 43
0.0
 10
198.5929774727929
 20
1235.551301707932
 10
197.5204129519198
 20
1236.520556952233
 10
196.9660239054147
 20
1237.139936114527
  0
LWPOLYLINE
  5
24D1
330
1F
100
AcDbEntity
  8
Hewi
  6
CUSTOM
 62
    18
420
        0
370
     9
100
AcDbPolyline
 90
        3
 70
     0
 43
0.0
 10
213.8886889258657
 20
1228.667573988507
 10
213.9731931828219
 20
1228.656473391467
 10
214.0917230143469
 20
1228.643022309039
  0
LINE
  5
24D2
330
1F
100
AcDbEntity
  8
Hewi
  6
CUSTOM
 62
    18
420
        0
370
     9
100
AcDbLine
 10
214.5375780265104
 20
1228.592425489489
 30
0.0
 11
214.5564349128191
 21
1228.590285559516
 31
0.0
  0
LINE
  5
24D3
330
1F
100
AcDbEntity
  8
Hewi
  6
CUSTOM
 62
    18
420
        0
370
     9
100
AcDbLine
 10
214.5564349128191
 20
1228.590285559516
 30
0.0
 11
214.5778467242863
 21
1228.588325152592
 31
0.0
  0
LINE
  5
24D4
330
1F
100
AcDbEntity
  8
Hewi
  6
CUSTOM
 62
    18
420
        0
370
     9
100
AcDbLine
 10
214.1348004664552
 20
1228.637749508238
 30
0.0
 11
214.5564468970779
 21
1228.590407052845
 31
0.0
  0
LWPOLYLINE
  5
24D5
330
1F
100
AcDbEntity
  8
Hewi
  6
CUSTOM
 62
    18
420
        0
370
     9
100
AcDbPolyline
 90
        3
 70
     0
 43
0.0
 10
224.6851223630156
 20
1229.131337044219
 10
224.173325379591
 20
1229.01416244161
 10
223.0306698691357
 20
1228.831343846669
  0
LINE
  5
24D6
330
1F
100
AcDbEntity
  8
Hewi
  6
CUSTOM
 62
    18
420
        0
370
     9
100
AcDbLine
 10
210.3316773243506
 20
1229.346241191535
 30
0.0
 11
210.3317675452936
 21
1229.346218315401
 31
0.0
  0
LINE
  5
24D7
330
1F
100
AcDbEntity
  8
Hewi
  6
CUSTOM
 62
    18
420
        0
370
     9
100
AcDbLine
 10
233.5610544590537
 20
1232.743120084644
 30
0.0
 11
234.4206765002828
 21
1233.371634567604
 31
0.0
  0
LINE
  5
24D8
330
1F
100
AcDbEntity
  8
Hewi
  6
CUSTOM
 62
    18
420
        0
370
     9
100
AcDbLine
 10
210.3321076354269
 20
1229.346132082963
 30
0.0
 11
210.4844360349026
 21
1229.307508087757
 31
0.0
  0
LWPOLYLINE
  5
24D9
330
1F
100
AcDbEntity
  8
Hewi
  6
CUSTOM
 62
    18
420
        0
370
     9
100
AcDbPolyline
 90
        3
 70
     0
 43
0.0
 10
235.3794366342273
 20
1234.072634077816
 10
237.1712282008748
 20
1235.382706290733
 10
237.2577159318399
 20
1235.456631489779
  0
LINE
  5
24DA
330
1F
100
AcDbEntity
  8
Hewi
  6
CUSTOM
 62
    18
420
        0
370
     9
100
AcDbLine
 10
243.171367959797
 20
1242.239470199635
 30
0.0
 11
243.3702612963762
 21
1242.60265023859
 31
0.0
  0
LINE
  5
24DB
330
1F
100
AcDbEntity
  8
Hewi
  6
CUSTOM
 62
    18
420
        0
370
     9
100
AcDbLine
 10
189.1306603674102
 20
1245.622257962456
 30
0.0
 11
189.1155984976586
 21
1245.881598624383
 31
0.0
  0
LINE
  5
24DC
330
1F
100
AcDbEntity
  8
Hewi
  6
CUSTOM
 62
    18
420
        0
370
     9
100
AcDbLine
 10
192.7841205044906
 20
1242.239434409723
 30
0.0
 11
192.7840958379466
 21
1242.239467117801
 31
0.0
  0
LWPOLYLINE
  5
24DD
330
1F
100
AcDbEntity
  8
Hewi
  6
CUSTOM
 62
    18
420
        0
370
     9
100
AcDbPolyline
 90
        3
 70
     0
 43
0.0
 10
198.7753259704705
 20
1235.390320087125
 10
198.6976046513092
 20
1235.456752205715
 10
198.6963905209932
 20
1235.457849390845
  0
LINE
  5
24DF
330
1F
100
AcDbEntity
  8
Hewi
  6
CUSTOM
 62
    18
420
        0
370
     9
100
AcDbLine
 10
210.524718072943
 20
1229.299898125854
 30
0.0
 11
210.4844360349026
 21
1229.307508087757
 31
0.0
  0
LWPOLYLINE
  5
24E0
330
1F
100
AcDbEntity
  8
Hewi
  6
CUSTOM
 62
    18
420
        0
370
     9
100
AcDbPolyline
 90
        3
 70
     0
 43
0.0
 10
222.0667729025964
 20
1228.667573990399
 10
222.1291134368885
 20
1228.675032844108
 10
222.2943086295646
 20
1228.697463400935
  0
LINE
  5
24E1
330
1F
100
AcDbEntity
  8
Hewi
  6
CUSTOM
 62
    18
420
        0
370
     9
100
AcDbLine
 10
242.8915921614763
 20
1241.840181661693
 30
0.0
 11
243.171367959797
 21
1242.239470199635
 31
0.0
  0
LINE
  5
24E2
330
1F
100
AcDbEntity
  8
Hewi
  6
CUSTOM
 62
    18
420
        0
370
     9
100
AcDbLine
 10
221.6142594676722
 20
1228.613432145776
 30
0.0
 11
221.5098320382904
 21
1228.60226135769
 31
0.0
  0
LINE
  5
24E3
330
1F
100
AcDbEntity
  8
Hewi
  6
CUSTOM
 62
    18
420
        0
370
     9
100
AcDbLine
 10
219.6728551860224
 20
1228.457120253366
 30
0.0
 11
219.7049660633575
 21
1228.458373316691
 31
0.0
  0
LINE
  5
24E4
330
1F
100
AcDbEntity
  8
Hewi
  6
CUSTOM
 62
    18
420
        0
370
     9
100
AcDbLine
 10
219.7239034783352
 20
1228.459534462174
 30
0.0
 11
219.7049660633575
 21
1228.458373316691
 31
0.0
  0
LINE
  5
24E5
330
1F
100
AcDbEntity
  8
Hewi
  6
CUSTOM
 62
    18
420
        0
370
     9
100
AcDbLine
 10
236.6641719972041
 20
1235.020958558493
 30
0.0
 11
237.2573587375019
 21
1235.456386338377
 31
0.0
  0
LINE
  5
24E6
330
1F
100
AcDbEntity
  8
Hewi
  6
CUSTOM
 62
    18
420
        0
370
     9
100
AcDbLine
 10
231.9388009633195
 20
1231.80607615066
 30
0.0
 11
231.9387870484289
 21
1231.806069472612
 31
0.0
  0
LINE
  5
24E7
330
1F
100
AcDbEntity
  8
Hewi
  6
CUSTOM
 62
    18
420
        0
370
     9
100
AcDbLine
 10
224.4265639323067
 20
1229.103711838467
 30
0.0
 11
222.4777307810519
 21
1228.723453920578
 31
0.0
  0
LINE
  5
24E8
330
1F
100
AcDbEntity
  8
Hewi
  6
CUSTOM
 62
    18
420
        0
370
     9
100
AcDbLine
 10
231.0744252365339
 20
1231.391255806851
 30
0.0
 11
229.6826160151768
 21
1230.723316203959
 31
0.0
  0
LWPOLYLINE
  5
24E9
330
1F
100
AcDbEntity
  8
Hewi
  6
CUSTOM
 62
    18
420
        0
370
     9
100
AcDbPolyline
 90
        3
 70
     0
 43
0.0
 10
221.8137774516154
 20
1228.636976601334
 10
221.8206694146875
 20
1228.63775043115
 10
221.83784298294
 20
1228.639888712187
  0
LINE
  5
24EA
330
1F
100
AcDbEntity
  8
Hewi
  6
CUSTOM
 62
    18
420
        0
370
     9
100
AcDbLine
 10
221.4950921779756
 20
1228.600684608606
 30
0.0
 11
221.4178837954324
 21
1228.592425490478
 31
0.0
  0
LINE
  5
24EB
330
1F
100
AcDbEntity
  8
Hewi
  6
CUSTOM
 62
    18
420
        0
370
     9
100
AcDbLine
 10
220.8922680301849
 20
1228.541611779667
 30
0.0
 11
220.9003701742996
 21
1228.542205931717
 31
0.0
  0
LINE
  5
24EC
330
1F
100
AcDbEntity
  8
Hewi
  6
CUSTOM
 62
    18
420
        0
370
     9
100
AcDbLine
 10
220.8557877240028
 20
1228.538400471891
 30
0.0
 11
220.9003701742996
 21
1228.542205931717
 31
0.0
  0
LWPOLYLINE
  5
24ED
330
1F
100
AcDbEntity
  8
Hewi
  6
CUSTOM
 62
    18
420
        0
370
     9
100
AcDbPolyline
 90
        3
 70
     0
 43
0.0
 10
240.4054187100638
 20
1238.574141324247
 10
240.4124792411249
 20
1238.581134173535
 10
240.4258238060657
 20
1238.597480622917
  0
LINE
  5
24EE
330
1F
100
AcDbEntity
  8
Hewi
  6
CUSTOM
 62
    18
420
        0
370
     9
100
AcDbLine
 10
221.6142594676722
 20
1228.613432145776
 30
0.0
 11
221.6854775587354
 21
1228.621953171951
 31
0.0
  0
LINE
  5
24EF
330
1F
100
AcDbEntity
  8
Hewi
  6
CUSTOM
 62
    18
420
        0
370
     9
100
AcDbLine
 10
222.3498556923378
 20
1228.704760140576
 30
0.0
 11
224.4022928189743
 21
1229.101118631439
 31
0.0
  0
LINE
  5
24F0
330
1F
100
AcDbEntity
  8
Hewi
  6
CUSTOM
 62
    18
420
        0
370
     9
100
AcDbLine
 10
220.9003701742996
 20
1228.542205931717
 30
0.0
 11
220.91050913858
 21
1228.543217517156
 31
0.0
  0
LINE
  5
24F1
330
1F
100
AcDbEntity
  8
Hewi
  6
CUSTOM
 62
    18
420
        0
370
     9
100
AcDbLine
 10
221.5707644384611
 20
1228.609092556562
 30
0.0
 11
221.6142594676722
 21
1228.613432145776
 31
0.0
  0
LINE
  5
24F2
330
1F
100
AcDbEntity
  8
Hewi
  6
CUSTOM
 62
    18
420
        0
370
     9
100
AcDbLine
 10
220.9141579388898
 20
1228.543538715614
 30
0.0
 11
220.9003701742996
 21
1228.542205931717
 31
0.0
  0
LWPOLYLINE
  5
24F3
330
1F
100
AcDbEntity
  8
Hewi
  6
CUSTOM
 62
    18
420
        0
370
     9
100
AcDbPolyline
 90
        5
 70
     0
 43
0.0
 10
241.6931166888472
 20
1240.141527147684
 10
240.9222118046392
 20
1239.19980509263
 10
238.8804009912793
 20
1237.069469411665
 10
237.8506442385051
 20
1236.055536563374
 10
237.1098873244855
 20
1235.375519572855
  0
LWPOLYLINE
  5
24F4
330
1F
100
AcDbEntity
  8
Hewi
  6
CUSTOM
 62
    18
420
        0
370
     9
100
AcDbPolyline
 90
        3
 70
     0
 43
0.0
 10
199.1084893785674
 20
1235.164221651194
 10
198.3520872958261
 20
1235.849982231459
 10
196.1700862545777
 20
1237.904314668278
  0
LINE
  5
24F6
330
1F
100
AcDbEntity
  8
Hewi
  6
CUSTOM
 62
    18
420
        0
370
     9
100
AcDbLine
 10
234.472248878542
 20
1233.402995503257
 30
0.0
 11
237.1098873244855
 21
1235.375519572855
 31
0.0
  0
LINE
  5
24F7
330
1F
100
AcDbEntity
  8
Hewi
  6
CUSTOM
 62
    18
420
        0
370
     9
100
AcDbLine
 10
195.6657863261435
 20
1238.441754551615
 30
0.0
 11
195.3420591202821
 21
1238.812796026392
 31
0.0
  0
LINE
  5
24F8
330
1F
100
AcDbEntity
  8
Hewi
  6
CUSTOM
 62
    18
420
        0
370
     9
100
AcDbLine
 10
237.1098873244855
 20
1235.375519572855
 30
0.0
 11
237.5360193915922
 21
1235.710009339247
 31
0.0
  0
LWPOLYLINE
  5
24F9
330
1F
100
AcDbEntity
  8
Hewi
  6
CUSTOM
 62
    18
420
        0
370
     9
100
AcDbPolyline
 90
        3
 70
     0
 43
0.0
 10
195.3420591202821
 20
1238.812796026392
 10
194.8361445602286
 20
1239.417024240985
 10
194.1837793818932
 20
1240.244227733561
  0
LINE
  5
24FA
330
1F
100
AcDbEntity
  8
Hewi
  6
CUSTOM
 62
    18
420
        0
370
     9
100
AcDbLine
 10
196.1700862545777
 20
1237.904314668278
 30
0.0
 11
195.3420591202821
 21
1238.812796026392
 31
0.0
  0
LWPOLYLINE
  5
24FB
330
1F
100
AcDbEntity
  8
Hewi
  6
CUSTOM
 62
    18
420
        0
370
     9
100
AcDbPolyline
 90
        3
 70
     0
 43
0.0
 10
196.1700862545777
 20
1237.904314668278
 10
195.2296017079871
 20
1238.970317329029
 10
194.1837793818932
 20
1240.244227733561
  0
LWPOLYLINE
  5
24FC
330
1F
100
AcDbEntity
  8
Hewi
  6
CUSTOM
 62
    18
420
        0
370
     9
100
AcDbPolyline
 90
        3
 70
     0
 43
0.0
 10
194.1837793818932
 20
1240.244227733561
 10
193.4480854321528
 20
1241.2511723608
 10
192.7841036838736
 20
1242.239459433808
  0
LINE
  5
24FD
330
1F
100
AcDbEntity
  8
Hewi
  6
CUSTOM
 62
    18
420
        0
370
     9
100
AcDbLine
 10
237.2781037695032
 20
1235.47413089727
 30
0.0
 11
234.472248878542
 21
1233.402995503257
 31
0.0
  0
LINE
  5
24FE
330
1F
100
AcDbEntity
  8
Hewi
  6
CUSTOM
 62
    18
420
        0
370
     9
100
AcDbLine
 10
237.5360193915922
 20
1235.710009339247
 30
0.0
 11
237.2781037695032
 21
1235.47413089727
 31
0.0
  0
LWPOLYLINE
  5
24FF
330
1F
100
AcDbEntity
  8
Hewi
  6
CUSTOM
 62
    18
420
        0
370
     9
100
AcDbPolyline
 90
        5
 70
     0
 43
0.0
 10
241.0015034924518
 20
1239.273548154055
 10
240.5714979928244
 20
1238.764102355617
 10
240.2896754869517
 20
1238.441754551615
 10
240.1227596692998
 20
1238.254939885442
 10
237.5360193915922
 20
1235.710009339247
  0
LINE
  5
2500
330
1F
100
AcDbEntity
  8
Hewi
  6
CUSTOM
 62
    18
420
        0
370
     9
100
AcDbLine
 10
234.472248878542
 20
1233.402995503257
 30
0.0
 11
231.3049774507318
 21
1231.476991733081
 31
0.0
  0
LWPOLYLINE
  5
2501
330
1F
100
AcDbEntity
  8
Hewi
  6
CUSTOM
 62
    18
420
        0
370
     9
100
AcDbPolyline
 90
        3
 70
     0
 43
0.0
 10
225.4709792288277
 20
1229.307490853342
 10
224.7633297780786
 20
1229.139692973298
 10
217.9777309067804
 20
1228.414698026329
  0
LINE
  5
2502
330
1F
100
AcDbEntity
  8
Hewi
  6
CUSTOM
 62
    18
420
        0
370
     9
100
AcDbLine
 10
231.3049774507318
 20
1231.476991733081
 30
0.0
 11
231.9387217953127
 21
1231.806024687288
 31
0.0
  0
LINE
  5
2503
330
1F
100
AcDbEntity
  8
Hewi
  6
CUSTOM
 62
    18
420
        0
370
     9
100
AcDbLine
 10
199.1084893785674
 20
1235.164221651194
 30
0.0
 11
198.419442421503
 21
1235.710009339247
 31
0.0
  0
LWPOLYLINE
  5
2504
330
1F
100
AcDbEntity
  8
Hewi
  6
CUSTOM
 62
    18
420
        0
370
     9
100
AcDbPolyline
 90
        3
 70
     0
 43
0.0
 10
199.1084893785674
 20
1235.164221651194
 10
203.5985094250437
 20
1232.166336960025
 10
204.6504843618978
 20
1231.476991733081
  0
LINE
  5
2505
330
1F
100
AcDbEntity
  8
Hewi
  6
CUSTOM
 62
    18
420
        0
370
     9
100
AcDbLine
 10
241.6931166888472
 20
1240.141527147684
 30
0.0
 11
241.0015034924518
 21
1239.273548154055
 31
0.0
  0
LINE
  5
2506
330
1F
100
AcDbEntity
  8
Hewi
  6
CUSTOM
 62
    18
420
        0
370
     9
100
AcDbLine
 10
225.4709792288277
 20
1229.307490853342
 30
0.0
 11
231.3049774507318
 21
1231.476991733081
 31
0.0
  0
LINE
  5
2508
330
1F
100
AcDbEntity
  8
Hewi
  6
CUSTOM
 62
    18
420
        0
370
     9
100
AcDbLine
 10
206.2728549486283
 20
1230.723303605435
 30
0.0
 11
204.6504843618978
 21
1231.476991733081
 31
0.0
  0
LWPOLYLINE
  5
2509
330
1F
100
AcDbEntity
  8
Hewi
  6
CUSTOM
 62
    18
420
        0
370
     9
100
AcDbPolyline
 90
       10
 70
     0
 43
0.0
 10
188.1184689586308
 20
1246.487552523071
 10
187.2428910995159
 20
1246.825921381253
 10
184.1126006126661
 20
1248.269075709086
 10
182.0504049800593
 20
1249.502323538251
 10
179.7606447592634
 20
1251.340916930214
 10
178.3509676351469
 20
1252.958856203168
 10
177.1847628836777
 20
1255.010915601899
 10
176.490560171872
 20
1257.295403252512
 10
176.2209025679413
 20
1259.985115543834
 10
176.2118705033581
 20
1260.281533754616
  0
LWPOLYLINE
  5
250A
330
1F
100
AcDbEntity
  8
Hewi
  6
CUSTOM
 62
    18
420
        0
370
     9
100
AcDbPolyline
 90
       13
 70
     0
 43
0.0
 10
259.743591309737
 20
1260.281533754616
 10
259.7439446805302
 20
1260.10810690252
 10
259.5724213898439
 20
1257.874467490077
 10
259.1616007082421
 20
1256.0548778372
 10
258.6379988554191
 20
1254.697491531359
 10
257.4385116400454
 20
1252.725990522053
 10
255.439896794248
 20
1250.652158111985
 10
252.6748488240201
 20
1248.728490160877
 10
250.4382274632599
 20
1247.567544404457
 10
248.0084925454367
 20
1246.549886603763
 10
247.8675694206986
 20
1246.49692379306
 10
244.582415797494
 20
1244.269459098588
 10
243.0781405095268
 20
1242.421641825971
  0
LINE
  5
250B
330
1F
100
AcDbEntity
  8
Hewi
  6
CUSTOM
 62
    18
420
        0
370
     9
100
AcDbLine
 10
241.0015034924518
 20
1239.273548154055
 30
0.0
 11
240.5938399147499
 21
1238.857196291541
 31
0.0
  0
LWPOLYLINE
  5
250D
330
1F
100
AcDbEntity
  8
Hewi
  6
CUSTOM
 62
    18
420
        0
370
     9
100
AcDbPolyline
 90
        3
 70
     0
 43
0.0
 10
243.8581033700403
 20
1243.379730318742
 10
242.6589785821061
 20
1241.469653191783
 10
241.7924255972985
 20
1240.271492853743
  0
LINE
  5
250E
330
1F
100
AcDbEntity
  8
Hewi
  6
CUSTOM
 62
    18
420
        0
370
     9
100
AcDbLine
 10
202.3944162104536
 20
1232.743105710699
 30
0.0
 11
198.677358043592
 21
1235.47413089727
 31
0.0
  0
LWPOLYLINE
  5
250F
330
1F
100
AcDbEntity
  8
Hewi
  6
CUSTOM
 62
    18
420
        0
370
     9
100
AcDbPolyline
 90
        3
 70
     0
 43
0.0
 10
192.7841036838736
 20
1242.239459433808
 10
192.6883840632882
 20
1242.389050018781
 10
191.9856355984021
 20
1243.555071783554
  0
LINE
  5
2511
330
1F
100
AcDbEntity
  8
Hewi
  6
CUSTOM
 62
    18
420
        0
370
     9
100
AcDbLine
 10
217.9777309067804
 20
1228.414698026329
 30
0.0
 11
211.1921320350166
 21
1229.139692973298
 31
0.0
  0
LINE
  5
2512
330
1F
100
AcDbEntity
  8
Hewi
  6
CUSTOM
 62
    18
420
        0
370
     9
100
AcDbLine
 10
198.677358043592
 20
1235.47413089727
 30
0.0
 11
198.419442421503
 21
1235.710009339247
 31
0.0
  0
LINE
  5
2513
330
1F
100
AcDbEntity
  8
Hewi
  6
CUSTOM
 62
    18
420
        0
370
     9
100
AcDbLine
 10
211.1921320350166
 20
1229.139692973298
 30
0.0
 11
214.1348001805391
 21
1228.637749524827
 31
0.0
  0
LINE
  5
2514
330
1F
100
AcDbEntity
  8
Hewi
  6
CUSTOM
 62
    18
420
        0
370
     9
100
AcDbLine
 10
211.1921320350166
 20
1229.139692973298
 30
0.0
 11
206.2728549486283
 21
1230.723303605435
 31
0.0
  0
LINE
  5
2516
330
1F
100
AcDbEntity
  8
Hewi
  6
CUSTOM
 62
    18
420
        0
370
     9
100
AcDbLine
 10
210.3316820056435
 20
1229.346234250592
 30
0.0
 11
211.1921320350166
 21
1229.139692973298
 31
0.0
  0
LWPOLYLINE
  5
2517
330
1F
100
AcDbEntity
  8
Hewi
  6
CUSTOM
 62
    18
420
        0
370
     9
100
AcDbPolyline
 90
        3
 70
     0
 43
0.0
 10
198.6773645391013
 20
1235.474126124853
 10
198.7842423415068
 20
1235.382692129042
 10
202.3944162104536
 20
1232.743105710699
  0
LINE
  5
2518
330
1F
100
AcDbEntity
  8
Hewi
  6
CUSTOM
 62
    18
420
        0
370
     9
100
AcDbLine
 10
206.2728549486283
 20
1230.723303605435
 30
0.0
 11
210.3316820056435
 21
1229.346234250592
 31
0.0
  0
LWPOLYLINE
  5
2519
330
1F
100
AcDbEntity
  8
Hewi
  6
CUSTOM
 62
    18
420
        0
370
     9
100
AcDbPolyline
 90
        3
 70
     0
 43
0.0
 10
195.6657863261435
 20
1238.441754551615
 10
195.8327021437954
 20
1238.254939885442
 10
196.0051272979263
 20
1238.085301655501
  0
LWPOLYLINE
  5
251A
330
1F
100
AcDbEntity
  8
Hewi
  6
CUSTOM
 62
    18
420
        0
370
     9
100
AcDbPolyline
 90
        3
 70
     0
 43
0.0
 10
188.7047734546732
 20
1246.17453962746
 10
191.4233912245627
 20
1244.236014669394
 10
192.9486583878543
 20
1242.388739916681
  0
LINE
  5
251B
330
1F
100
AcDbEntity
  8
Hewi
  6
CUSTOM
 62
    18
420
        0
370
     9
100
AcDbLine
 10
241.7924255972985
 20
1240.271492853743
 30
0.0
 11
241.6931166888472
 21
1240.141527147684
 31
0.0
  0
LINE
  5
251C
330
1F
100
AcDbEntity
  8
Hewi
  6
CUSTOM
 62
    18
420
        0
370
     9
100
AcDbLine
 10
204.6504843618978
 20
1231.476991733081
 30
0.0
 11
202.3944162104536
 21
1232.743105710699
 31
0.0
  0
LINE
  5
251E
330
1F
100
AcDbEntity
  8
Hewi
  6
CUSTOM
 62
    18
420
        0
370
     9
100
AcDbLine
 10
214.1348001805391
 20
1228.637749524827
 30
0.0
 11
217.9771944659088
 21
1228.414755339629
 31
0.0
  0
LWPOLYLINE
  5
251F
330
1F
100
AcDbEntity
  8
Hewi
  6
CUSTOM
 62
    18
420
        0
370
     9
100
AcDbPolyline
 90
        4
 70
     0
 43
0.0
 10
216.2854717823003
 20
1228.456984752917
 10
216.2834964438598
 20
1228.457085530081
 10
216.4045606239024
 20
1228.450909120624
 10
216.9777309347201
 20
1228.4291741257
  0
LINE
  5
2520
330
1F
100
AcDbEntity
  8
Hewi
  6
CUSTOM
 62
    18
420
        0
370
     9
100
AcDbLine
 10
215.322285103358
 20
1228.519345757592
 30
0.0
 11
215.317233428571
 21
1228.519804281397
 31
0.0
  0
LWPOLYLINE
  5
2521
330
1F
100
AcDbEntity
  8
Hewi
  6
CUSTOM
 62
    18
420
        0
370
     9
100
AcDbPolyline
 90
        3
 70
     0
 43
0.0
 10
215.9948169549253
 20
1228.472775518119
 10
215.853835911702
 20
1228.481188501213
 10
215.8188271566551
 20
1228.483693333965
  0
LWPOLYLINE
  5
2522
330
1F
100
AcDbEntity
  8
Hewi
  6
CUSTOM
 62
    18
420
        0
370
     9
100
AcDbPolyline
 90
        4
 70
     0
 43
0.0
 10
221.4343453368429
 20
1228.59429359021
 10
221.5060650047172
 20
1228.601839031395
 10
221.7057343490679
 20
1228.62422418319
 10
221.7813008867461
 20
1228.633046692015
  0
LWPOLYLINE
  5
2523
330
1F
100
AcDbEntity
  8
Hewi
  6
CUSTOM
 62
    18
420
        0
370
     9
100
AcDbPolyline
 90
        4
 70
     0
 43
0.0
 10
221.2768027505163
 20
1228.577765554055
 10
221.0166111949157
 20
1228.552557524392
 10
220.7290759708058
 20
1228.527246223512
 10
220.6382283812646
 20
1228.519804278953
  0
LINE
  5
2524
330
1F
100
AcDbEntity
  8
Hewi
  6
CUSTOM
 62
    18
420
        0
370
     9
100
AcDbLine
 10
214.6714243937541
 20
1228.578499547042
 30
0.0
 11
214.6662393726666
 21
1228.579025589726
 31
0.0
  0
LWPOLYLINE
  5
2525
330
1F
100
AcDbEntity
  8
Hewi
  6
CUSTOM
 62
    18
420
        0
370
     9
100
AcDbPolyline
 90
        3
 70
     0
 43
0.0
 10
216.9777309347201
 20
1228.4291741257
 10
217.3776674635965
 20
1228.419879307894
 10
217.9776674213145
 20
1228.414698026474
  0
LWPOLYLINE
  5
2526
330
1F
100
AcDbEntity
  8
Hewi
  6
CUSTOM
 62
    18
420
        0
370
     9
100
AcDbPolyline
 90
        5
 70
     0
 43
0.0
 10
215.3375570487488
 20
1228.518236733897
 10
215.7336702251133
 20
1228.488976183911
 10
216.0610108135525
 20
1228.468669073551
 10
216.1058203486983
 20
1228.466150146192
 10
216.2120552572679
 20
1228.460730291245
  0
LINE
  5
2527
330
1F
100
AcDbEntity
  8
Hewi
  6
CUSTOM
 62
    18
420
        0
370
     9
100
AcDbLine
 10
215.3368860587735
 20
1228.518175618181
 30
0.0
 11
215.322285103358
 21
1228.519345757592
 31
0.0
  0
LINE
  5
2528
330
1F
100
AcDbEntity
  8
Hewi
  6
CUSTOM
 62
    18
420
        0
370
     9
100
AcDbLine
 10
221.2768027505163
 20
1228.577765554055
 30
0.0
 11
221.2892224390317
 21
1228.579025584692
 31
0.0
  0
LINE
  5
2529
330
1F
100
AcDbEntity
  8
Hewi
  6
CUSTOM
 62
    18
420
        0
370
     9
100
AcDbLine
 10
220.6331767088059
 20
1228.519345755409
 30
0.0
 11
221.2768027505163
 21
1228.577765554055
 31
0.0
  0
LWPOLYLINE
  5
252A
330
1F
100
AcDbEntity
  8
Hewi
  6
CUSTOM
 62
    18
420
        0
370
     9
100
AcDbPolyline
 90
        6
 70
     0
 43
0.0
 10
219.7194770320576
 20
1228.459325123735
 10
219.7535076101567
 20
1228.460934519721
 10
219.8517042191025
 20
1228.466274531889
 10
220.1016259027902
 20
1228.481188500456
 10
220.6185757547874
 20
1228.518175616202
 10
220.6331767088059
 20
1228.519345755409
  0
LWPOLYLINE
  5
252B
330
1F
100
AcDbEntity
  8
Hewi
  6
CUSTOM
 62
    18
420
        0
370
     9
100
AcDbPolyline
 90
        3
 70
     0
 43
0.0
 10
216.4518938229676
 20
1228.449114214523
 10
216.5640673429962
 20
1228.443809232162
 10
216.9777309347201
 20
1228.4291741257
  0
LINE
  5
252C
330
1F
100
AcDbEntity
  8
Hewi
  6
CUSTOM
 62
    18
420
        0
370
     9
100
AcDbLine
 10
214.1758201822896
 20
1228.632860645401
 30
0.0
 11
214.1919844525192
 21
1228.630959003651
 31
0.0
  0
LWPOLYLINE
  5
252D
330
1F
100
AcDbEntity
  8
Hewi
  6
CUSTOM
 62
    18
420
        0
370
     9
100
AcDbPolyline
 90
        3
 70
     0
 43
0.0
 10
218.9777308788408
 20
1228.429174125671
 10
219.391394471496
 20
1228.443809232074
 10
219.6788976371546
 20
1228.457406016864
  0
LWPOLYLINE
  5
252E
330
1F
100
AcDbEntity
  8
Hewi
  6
CUSTOM
 62
    18
420
        0
370
     9
100
AcDbPolyline
 90
        4
 70
     0
 43
0.0
 10
214.6715004576627
 20
1228.578491224307
 10
214.6786590597849
 20
1228.577765559177
 10
214.9388506153855
 20
1228.552557528234
 10
215.0413035026077
 20
1228.543538751586
  0
LWPOLYLINE
  5
252F
330
1F
100
AcDbEntity
  8
Hewi
  6
CUSTOM
 62
    18
420
        0
370
     9
100
AcDbPolyline
 90
        3
 70
     0
 43
0.0
 10
217.9777343913238
 20
1228.414698026212
 10
218.3778309791606
 20
1228.416994790121
 10
218.9777308788408
 20
1228.429174125671
  0
LINE
  5
2530
330
1F
100
AcDbEntity
  8
Hewi
  6
CUSTOM
 62
    18
420
        0
370
     9
100
AcDbLine
 10
221.2839613540355
 20
1228.578491219301
 30
0.0
 11
221.2768027505163
 21
1228.577765554055
 31
0.0
  0
LINE
  5
2531
330
1F
100
AcDbEntity
  8
Hewi
  6
CUSTOM
 62
    18
420
        0
370
     9
100
AcDbLine
 10
218.9777308788408
 20
1228.431388391397
 30
0.0
 11
218.9777308788408
 21
1228.429174125671
 31
0.0
  0
LINE
  5
2532
330
1F
100
AcDbEntity
  8
Hewi
  6
CUSTOM
 62
    18
420
        0
370
     9
100
AcDbLine
 10
216.9777309347201
 20
1228.4291741257
 30
0.0
 11
216.9777309347201
 21
1228.431236596876
 31
0.0
  0
LWPOLYLINE
  5
2533
330
1F
100
AcDbEntity
  8
Hewi
  6
CUSTOM
 62
    18
420
        0
370
     9
100
AcDbPolyline
 90
        3
 70
     0
 43
0.0
 10
216.2315583259124
 20
1228.459534462814
 10
216.2019542043355
 20
1228.460934520041
 10
216.1094514138322
 20
1228.465964897809
  0
LWPOLYLINE
  5
2534
330
1F
100
AcDbEntity
  8
Hewi
  6
CUSTOM
 62
    18
420
        0
370
     9
100
AcDbPolyline
 90
        4
 70
     0
 43
0.0
 10
219.9606448241766
 20
1228.472775515471
 10
219.8944509981457
 20
1228.468669073056
 10
219.8496414639313
 20
1228.466150145843
 10
219.8460104411725
 20
1228.465964899584
  0
LWPOLYLINE
  5
2535
330
1F
100
AcDbEntity
  8
Hewi
  6
CUSTOM
 62
    18
420
        0
370
     9
100
AcDbPolyline
 90
        3
 70
     0
 43
0.0
 10
218.9777308788408
 20
1228.429174125671
 10
218.5777943494987
 20
1228.419879307836
 10
218.4770646227781
 20
1228.419009459362
  0
LINE
  5
2536
330
1F
100
AcDbEntity
  8
Hewi
  6
CUSTOM
 62
    18
420
        0
370
     9
100
AcDbLine
 10
215.3845849379223
 20
1228.514762822928
 30
0.0
 11
215.3368860587735
 21
1228.518175618181
 31
0.0
  0
LINE
  5
2537
330
1F
100
AcDbEntity
  8
Hewi
  6
CUSTOM
 62
    18
420
        0
370
     9
100
AcDbLine
 10
221.7891725071031
 20
1228.634560326736
 30
0.0
 11
221.7813008867461
 21
1228.633046692015
 31
0.0
  0
LWPOLYLINE
  5
2538
330
1F
100
AcDbEntity
  8
Hewi
  6
CUSTOM
 62
    18
420
        0
370
     9
100
AcDbPolyline
 90
        3
 70
     0
 43
0.0
 10
214.4603662465025
 20
1228.600684971094
 10
214.4493968055841
 20
1228.60183903771
 10
214.4456309487369
 20
1228.602261232136
  0
LWPOLYLINE
  5
2539
330
1F
100
AcDbEntity
  8
Hewi
  6
CUSTOM
 62
    18
420
        0
370
     9
100
AcDbPolyline
 90
        3
 70
     0
 43
0.0
 10
220.5708768775012
 20
1228.514762821153
 10
220.2217915861193
 20
1228.488976182718
 10
220.1366346587684
 20
1228.483693333208
  0
LWPOLYLINE
  5
253A
330
1F
100
AcDbEntity
  8
Hewi
  6
CUSTOM
 62
    18
420
        0
370
     9
100
AcDbPolyline
 90
        3
 70
     0
 43
0.0
 10
219.5035680152733
 20
1228.4491142156
 10
219.5509011882614
 20
1228.450909120624
 10
219.6699899721216
 20
1228.45698474986
  0
LINE
  5
253B
330
1F
100
AcDbEntity
  8
Hewi
  6
CUSTOM
 62
    18
420
        0
370
     9
100
AcDbLine
 10
217.9779132671911
 20
1228.414699052995
 30
0.0
 11
217.9777943917807
 21
1228.414698026416
 31
0.0
  0
LINE
  5
253C
330
1F
100
AcDbEntity
  8
Hewi
  6
CUSTOM
 62
    18
420
        0
370
     9
100
AcDbLine
 10
214.6092246861454
 20
1228.58530532724
 30
0.0
 11
214.6715004576627
 21
1228.578491224307
 31
0.0
  0
LINE
  5
253D
330
1F
100
AcDbEntity
  8
Hewi
  6
CUSTOM
 62
    18
420
        0
370
     9
100
AcDbLine
 10
221.2892224390317
 20
1228.579025584692
 30
0.0
 11
221.3855145952921
 21
1228.589156233949
 31
0.0
  0
LINE
  5
253E
330
1F
100
AcDbEntity
  8
Hewi
  6
CUSTOM
 62
    18
420
        0
370
     9
100
AcDbLine
 10
214.6659890145321
 20
1228.579094276512
 30
0.0
 11
214.6662393726666
 21
1228.579025589726
 31
0.0
  0
LINE
  5
253F
330
1F
100
AcDbEntity
  8
Hewi
  6
CUSTOM
 62
    18
420
        0
370
     9
100
AcDbLine
 10
214.1758201822896
 20
1228.632860645401
 30
0.0
 11
214.1738276209008
 21
1228.633367539889
 31
0.0
  0
LINE
  5
2540
330
1F
100
AcDbEntity
  8
Hewi
  6
CUSTOM
 62
    18
420
        0
370
     9
100
AcDbLine
 10
214.1739445125941
 20
1228.633088313549
 30
0.0
 11
214.1741609249521
 21
1228.633046699612
 31
0.0
  0
LINE
  5
2541
330
1F
100
AcDbEntity
  8
Hewi
  6
CUSTOM
 62
    18
420
        0
370
     9
100
AcDbLine
 10
215.3222008149397
 20
1228.519397369219
 30
0.0
 11
215.322285103358
 21
1228.519345757592
 31
0.0
  0
LWPOLYLINE
  5
2542
330
1F
100
AcDbEntity
  8
Hewi
  6
CUSTOM
 62
    18
420
        0
370
     9
100
AcDbPolyline
 90
        3
 70
     0
 43
0.0
 10
215.0996752038855
 20
1228.53840037675
 10
215.2263858399611
 20
1228.52724622616
 10
215.3247325585481
 20
1228.519189976574
  0
LWPOLYLINE
  5
2543
330
1F
100
AcDbEntity
  8
Hewi
  6
CUSTOM
 62
    18
420
        0
370
     9
100
AcDbPolyline
 90
        3
 70
     0
 43
0.0
 10
214.1176200194542
 20
1228.639888575923
 10
213.9982901599515
 20
1228.654328389657
 10
213.9786440392282
 20
1228.656793817539
  0
LWPOLYLINE
  5
2544
330
1F
100
AcDbEntity
  8
Hewi
  6
CUSTOM
 62
    18
420
        0
370
     9
100
AcDbPolyline
 90
        3
 70
     0
 43
0.0
 10
221.2840374095622
 20
1228.578499541105
 10
221.2839613540355
 20
1228.578491219301
 10
221.2768027505163
 20
1228.577765554055
  0
LINE
  5
2545
330
1F
100
AcDbEntity
  8
Hewi
  6
CUSTOM
 62
    18
420
        0
370
     9
100
AcDbLine
 10
221.295876593541
 20
1228.580851178656
 30
0.0
 11
221.2892224390317
 21
1228.579025584692
 31
0.0
  0
LINE
  5
2546
330
1F
100
AcDbEntity
  8
Hewi
  6
CUSTOM
 62
    18
420
        0
370
     9
100
AcDbLine
 10
221.7710586164404
 20
1228.631850891292
 30
0.0
 11
221.7634773573164
 21
1228.63095899588
 31
0.0
  0
LWPOLYLINE
  5
2547
330
1F
100
AcDbEntity
  8
Hewi
  6
CUSTOM
 62
    18
420
        0
370
     9
100
AcDbPolyline
 90
        3
 70
     0
 43
0.0
 10
217.9775347218174
 20
1228.414699172408
 10
217.5776308339346
 20
1228.416994790121
 10
217.4783971828666
 20
1228.419009459478
  0
LINE
  5
2548
330
1F
100
AcDbEntity
  8
Hewi
  6
CUSTOM
 62
    18
420
        0
370
     9
100
AcDbLine
 10
213.9686496017758
 20
1228.658006938942
 30
0.0
 11
214.1059965195391
 21
1228.641335817501
 31
0.0
  0
LWPOLYLINE
  5
2549
330
1F
100
AcDbEntity
  8
Hewi
  6
CUSTOM
 62
    18
420
        0
370
     9
100
AcDbPolyline
 90
        3
 70
     0
 43
0.0
 10
214.2699833267625
 20
1228.621953282865
 10
214.249727461699
 20
1228.624224190466
 10
214.192907877944
 20
1228.630857964086
  0
LINE
  5
254A
330
1F
100
AcDbEntity
  8
Hewi
  6
CUSTOM
 62
    18
420
        0
370
     9
100
AcDbLine
 10
214.1919844525192
 20
1228.630959003651
 30
0.0
 11
214.2239146462899
 21
1228.627465259237
 31
0.0
  0
LINE
  5
254B
330
1F
100
AcDbEntity
  8
Hewi
  6
CUSTOM
 62
    18
420
        0
370
     9
100
AcDbLine
 10
214.1447015029635
 20
1228.636637819971
 30
0.0
 11
214.1758201822896
 21
1228.632860645401
 31
0.0
  0
LINE
  5
254C
330
1F
100
AcDbEntity
  8
Hewi
  6
CUSTOM
 62
    18
420
        0
370
     9
100
AcDbLine
 10
214.1741609249521
 20
1228.633046699612
 30
0.0
 11
214.1416871503253
 21
1228.636976271501
 31
0.0
  0
LINE
  5
254D
330
1F
100
AcDbEntity
  8
Hewi
  6
CUSTOM
 62
    18
420
        0
370
     9
100
AcDbLine
 10
221.7813008867461
 20
1228.633046692015
 30
0.0
 11
221.863739841364
 21
1228.643022427346
 31
0.0
  0
LWPOLYLINE
  5
254E
330
1F
100
AcDbEntity
  8
Hewi
  6
CUSTOM
 62
    18
420
        0
370
     9
100
AcDbPolyline
 90
        3
 70
     0
 43
0.0
 10
221.7634773573164
 20
1228.63095899588
 10
221.7634773573164
 20
1228.63095899588
 10
221.7710586164404
 20
1228.631850891292
  0
LINE
  5
254F
330
1F
100
AcDbEntity
  8
Hewi
  6
CUSTOM
 62
    18
420
        0
370
     9
100
AcDbLine
 10
220.6333798772913
 20
1228.519470159674
 30
0.0
 11
220.6331767088059
 21
1228.519345755409
 31
0.0
  0
LINE
  5
2550
330
1F
100
AcDbEntity
  8
Hewi
  6
CUSTOM
 62
    18
420
        0
370
     9
100
AcDbLine
 10
214.1844032320451
 20
1228.631850894581
 30
0.0
 11
214.1741609249521
 21
1228.633046699612
 31
0.0
  0
LINE
  5
2551
330
1F
100
AcDbEntity
  8
Hewi
  6
CUSTOM
 62
    18
420
        0
370
     9
100
AcDbLine
 10
214.6662393726666
 20
1228.579025589726
 30
0.0
 11
214.5762896986935
 21
1228.58848896324
 31
0.0
  0
LWPOLYLINE
  5
2552
330
1F
100
AcDbEntity
  8
Hewi
  6
CUSTOM
 62
    18
420
        0
370
     9
100
AcDbPolyline
 90
        3
 70
     0
 43
0.0
 10
212.679671860512
 20
1278.19628748875
 10
211.2753273921344
 20
1278.117891827929
 10
207.9087761773053
 20
1277.885415784618
  0
LWPOLYLINE
  5
2553
330
1F
100
AcDbEntity
  8
Hewi
  6
CUSTOM
 62
    18
420
        0
370
     9
100
AcDbPolyline
 90
       12
 70
     0
 43
0.0
 10
238.1902865788225
 20
1276.618437096575
 10
244.2645540053282
 20
1275.269113603379
 10
248.0993535651151
 20
1273.844575098639
 10
252.1408105024394
 20
1272.164456357317
 10
254.8693836454559
 20
1270.400336030183
 10
256.9258207443427
 20
1268.493754745443
 10
257.2886860014197
 20
1268.061053584486
 10
257.8383270937275
 20
1267.312872635299
 10
258.7344617063437
 20
1265.690544979658
 10
259.3370499193925
 20
1263.925861769134
 10
259.6350281329151
 20
1262.289526161545
 10
259.7502032217827
 20
1260.283939451543
  0
LWPOLYLINE
  5
2554
330
1F
100
AcDbEntity
  8
Hewi
  6
CUSTOM
 62
    18
420
        0
370
     9
100
AcDbPolyline
 90
        6
 70
     0
 43
0.0
 10
212.679671860512
 20
1278.19628748875
 10
214.6327515889216
 20
1278.251212895451
 10
216.2129765508954
 20
1278.283693134214
 10
217.1784053074453
 20
1278.291770105116
 10
217.9769142649393
 20
1278.294472643447
 10
218.5882827013057
 20
1278.293099606275
  0
LWPOLYLINE
  5
2555
330
1F
100
AcDbEntity
  8
Hewi
  6
CUSTOM
 62
    18
420
        0
370
     9
100
AcDbPolyline
 90
       13
 70
     0
 43
0.0
 10
176.2118833644573
 20
1260.28111168851
 10
176.2048447204079
 20
1260.281111450237
 10
176.2499218850653
 20
1261.556462893797
 10
176.4747623812664
 20
1263.279023275984
 10
177.0940161382105
 20
1265.389697946706
 10
177.6789170021448
 20
1266.602015494787
 10
178.5157532898966
 20
1267.866478033899
 10
179.028669853441
 20
1268.491116188623
 10
181.0849779208448
 20
1270.397837291395
 10
183.8134318475868
 20
1272.16214278877
 10
187.8547751789238
 20
1273.842535397573
 10
191.6894786690619
 20
1275.2673337329
 10
197.7636546797376
 20
1276.617068515054
  0
LWPOLYLINE
  5
2556
330
1F
100
AcDbEntity
  8
Hewi
  6
CUSTOM
 62
    18
420
        0
370
     9
100
AcDbPolyline
 90
        3
 70
     0
 43
0.0
 10
218.5882827013057
 20
1278.293099606275
 10
219.4119952071715
 20
1278.271741317392
 10
221.7215241931636
 20
1278.202080561965
  0
LWPOLYLINE
  5
2557
330
1F
100
AcDbEntity
  8
Hewi
  6
CUSTOM
 62
    18
420
        0
370
     9
100
AcDbPolyline
 90
        4
 70
     0
 43
0.0
 10
218.5882827013057
 20
1278.293099606275
 10
221.1694442799572
 20
1278.258859217527
 10
223.2021034860309
 20
1278.202130679459
 10
227.6126736008819
 20
1277.959460430033
  0
LWPOLYLINE
  5
2558
330
1F
100
AcDbEntity
  8
Hewi
  6
CUSTOM
 62
    18
420
        0
370
     9
100
AcDbPolyline
 90
        3
 70
     0
 43
0.0
 10
208.0956239241432
 20
1277.898318492789
 10
210.8105048194785
 20
1278.117876093787
 10
212.679671860512
 20
1278.19628748875
  0
LWPOLYLINE
  5
2559
330
1F
100
AcDbEntity
  8
Hewi
  6
CUSTOM
 62
    18
420
        0
370
     9
100
AcDbPolyline
 90
        3
 70
     0
 43
0.0
 10
231.2768278165977
 20
1277.543673049932
 10
226.2011762393896
 20
1277.959412651002
 10
222.8442675831985
 20
1278.202118566736
  0
LWPOLYLINE
  5
255A
330
1F
100
AcDbEntity
  8
Hewi
  6
CUSTOM
 62
    18
420
        0
370
     9
100
AcDbPolyline
 90
        3
 70
     0
 43
0.0
 10
238.1902865788225
 20
1276.618437096575
 10
232.2550724220719
 20
1277.543706163426
 10
227.6126736008819
 20
1277.959460430033
  0
LINE
  5
255B
330
1F
100
AcDbEntity
  8
Hewi
  6
CUSTOM
 62
    18
420
        0
370
     9
100
AcDbLine
 10
218.5882827013057
 20
1278.293099606275
 30
0.0
 11
222.8442675831985
 21
1278.202118566736
 31
0.0
  0
LINE
  5
255C
330
1F
100
AcDbEntity
  8
Hewi
  6
CUSTOM
 62
    18
420
        0
370
     9
100
AcDbLine
 10
227.6126736008819
 20
1277.959460430033
 30
0.0
 11
231.2768278165977
 21
1277.543673049932
 31
0.0
  0
LWPOLYLINE
  5
255D
330
1F
100
AcDbEntity
  8
Hewi
  6
CUSTOM
 62
    18
420
        0
370
     9
100
AcDbPolyline
 90
        3
 70
     0
 43
0.0
 10
207.9087761773053
 20
1277.885415784618
 10
204.6770508240234
 20
1277.542772563535
 10
197.7636546797376
 20
1276.617068515054
  0
LINE
  5
255E
330
1F
100
AcDbEntity
  8
Hewi
  6
CUSTOM
 62
    18
420
        0
370
     9
100
AcDbLine
 10
231.2768278165977
 20
1277.543673049932
 30
0.0
 11
238.1902865788225
 21
1276.618437096575
 31
0.0
  0
LWPOLYLINE
  5
255F
330
1F
100
AcDbEntity
  8
Hewi
  6
CUSTOM
 62
    18
420
        0
370
     9
100
AcDbPolyline
 90
        3
 70
     0
 43
0.0
 10
197.7636546797376
 20
1276.617068515054
 10
203.698806207839
 20
1277.542739450069
 10
207.9087761773053
 20
1277.885415784618
  0
LINE
  5
2560
330
1F
100
AcDbEntity
  8
Hewi
  6
CUSTOM
 62
    18
420
        0
370
     9
100
AcDbLine
 10
227.6126736008819
 20
1277.959460430033
 30
0.0
 11
222.8442675831985
 21
1278.202118566736
 31
0.0
  0
LWPOLYLINE
  5
2561
330
1F
100
AcDbEntity
  8
Hewi
  6
CUSTOM
 62
    18
420
        0
370
     9
100
AcDbPolyline
 90
        4
 70
     0
 43
0.0
 10
216.4702651465569
 20
1278.283701843389
 10
214.797705671962
 20
1278.22665259054
 10
212.8318810874853
 20
1278.117944517096
 10
208.9334950085986
 20
1277.885450471233
  0
LINE
  5
2562
330
1F
100
AcDbEntity
  8
Hewi
  6
CUSTOM
 62
    18
420
        0
370
     9
100
AcDbLine
 10
232.6528868444521
 20
1232.296649494743
 30
0.0
 11
231.9387217953127
 21
1231.806024687288
 31
0.0
  0
LINE
  5
2563
330
1F
100
AcDbEntity
  8
Hewi
  6
CUSTOM
 62
    18
420
        0
370
     9
100
AcDbLine
 10
198.9407226366248
 20
1235.297108136448
 30
0.0
 11
198.677358043592
 21
1235.47413089727
 31
0.0
  0
LINE
  5
2564
330
1F
100
AcDbEntity
  8
Hewi
  6
CUSTOM
 62
    18
420
        0
370
     9
100
AcDbLine
 10
237.2577573025856
 20
1235.456659883795
 30
0.0
 11
237.2780972525735
 21
1235.47412608728
 31
0.0
  0
LINE
  5
2565
330
1F
100
AcDbEntity
  8
Hewi
  6
CUSTOM
 62
    18
420
        0
370
     9
100
AcDbLine
 10
231.9387217953127
 20
1231.806024687288
 30
0.0
 11
232.6588813813661
 21
1232.300294734607
 31
0.0
  0
LINE
  5
2566
330
1F
100
AcDbEntity
  8
Hewi
  6
CUSTOM
 62
    18
420
        0
370
     9
100
AcDbLine
 10
237.2104277850386
 20
1235.4241760244
 30
0.0
 11
237.2577573025856
 21
1235.456659883795
 31
0.0
  0
LWPOLYLINE
  5
2567
330
1F
100
AcDbEntity
  8
Hewi
  6
CUSTOM
 62
    18
420
        0
370
     9
100
AcDbPolyline
 90
        3
 70
     0
 43
0.0
 10
195.3420888737101
 20
1238.812761924561
 10
195.5429916775111
 20
1238.581121369101
 10
195.6656739341352
 20
1238.441883370408
  0
LINE
  5
2568
330
1F
100
AcDbEntity
  8
Hewi
  6
CUSTOM
 62
    18
420
        0
370
     9
100
AcDbLine
 10
187.9944013703871
 20
1246.535498695604
 30
0.0
 11
189.5534742513928
 21
1245.743291993607
 31
0.0
  0
LINE
  5
2569
330
1F
100
AcDbEntity
  8
Hewi
  6
CUSTOM
 62
    18
420
        0
370
     9
100
AcDbLine
 10
196.6115431624722
 20
1237.488687348825
 30
0.0
 11
198.419442421503
 21
1235.710009339247
 31
0.0
  0
LWPOLYLINE
  5
256F
330
1F
100
AcDbEntity
  8
Hewi
370
    13
100
AcDbPolyline
 90
       49
 70
     0
 43
0.0
 10
176.4413997152837
 20
1263.023423383451
 10
163.3737136091376
 20
1262.06260264413
 10
161.9438482160867
 20
1261.737843310824
 10
160.6354499777999
 20
1261.075968921677
 10
160.2012926232064
 20
1260.725051886802
 10
159.5266587551714
 20
1260.116507787858
 10
158.6836935244801
 20
1258.916760628172
 10
158.1568976627959
 20
1257.548378468605
 10
157.9777323523094
 20
1256.093083516107
 10
157.9777323523094
 20
1079.182184434727
 10
157.9777323523094
 20
1078.434808990764
 10
157.9777323523094
 20
1077.715280217886
 10
157.9777323523094
 20
1076.878162601823
 10
157.9777323523094
 20
1076.175676225259
 10
157.9777323523094
 20
1075.643166634053
 10
157.9777323523094
 20
1071.687283022035
 10
158.0787337897554
 20
1070.456906353193
 10
158.3783376718775
 20
1069.267952956145
 10
158.985362975508
 20
1067.952069449372
 10
159.8341221463751
 20
1066.817047489882
 10
160.883517695961
 20
1065.91784560248
 10
162.0827371876794
 20
1065.298003745859
 10
163.3737136091376
 20
1064.987535078596
 10
188.131626239533
 20
1063.130288939719
 10
217.9777307925206
 20
1062.347722449706
 10
247.8238353455026
 20
1063.130288939719
 10
272.5817479758998
 20
1064.987535078596
 10
273.3782094677817
 20
1065.139333894831
 10
274.1492816362525
 20
1065.409840574562
 10
275.3200116072394
 20
1066.094859992241
 10
276.4288028298661
 20
1067.171688396714
 10
277.2717680605574
 20
1068.518196112558
 10
277.7985639222416
 20
1070.05396731335
 10
277.9777292327281
 20
1071.687283022035
 10
277.9777292327281
 20
1075.643166634053
 10
277.9777292327281
 20
1076.046177818035
 10
277.9777292327281
 20
1076.55973624032
 10
277.9777292327281
 20
1077.34420872179
 10
277.9777292327281
 20
1078.23484419215
 10
277.9777292327281
 20
1079.182184434727
 10
277.9777292327281
 20
1256.093083516107
 10
277.7985639222416
 20
1257.548378468605
 10
277.2717680605574
 20
1258.916760628172
 10
276.4288028298661
 20
1260.116507787858
 10
275.7541689618311
 20
1260.725051886802
 10
275.3200116072394
 20
1261.075968921677
 10
274.0116133689507
 20
1261.737843310824
 10
272.5817479758998
 20
1262.06260264413
 10
259.4937381574218
 20
1263.065414489628
  0
LWPOLYLINE
  5
2570
330
1F
100
AcDbEntity
  8
Hewi
370
    13
100
AcDbPolyline
 90
       27
 70
     0
 43
0.0
 10
187.9777247274534
 20
1247.310485704967
 10
187.9777247274533
 20
1247.310485142447
 10
187.9777241828842
 20
1242.100837016944
 10
187.9777243741473
 20
1236.427067741945
 10
187.9777249317003
 20
1227.312465743564
 10
187.9777255079197
 20
1217.518722399138
 10
187.9777261278805
 20
1206.611606429113
 10
187.9777266907795
 20
1196.391373959601
 10
187.9777272434175
 20
1186.053097937731
 10
187.9777275805163
 20
1179.584096680903
 10
187.9777279100644
 20
1173.123609060752
 10
187.9777316176942
 20
1162.814418804631
 10
187.9777316176942
 20
1153.509776301976
 10
187.9777316176942
 20
1149.249927161857
 10
187.9777316176942
 20
1145.314758191561
 10
187.9777316176942
 20
1141.076489832327
 10
187.9777316176942
 20
1137.434737879561
 10
187.9873001808326
 20
1137.363905753481
 10
187.992663126387
 20
1137.344731888407
 10
188.0026696994455
 20
1137.31567955142
 10
188.0249113406289
 20
1137.265272811727
 10
188.0360042358379
 20
1137.244010648156
 10
188.105797010704
 20
1137.136141582885
 10
188.1650223661372
 20
1137.071765125764
 10
188.2399107551364
 20
1137.018563658899
 10
188.63594161944
 20
1136.830348444222
 10
192.1155721518435
 20
1135.521300399998
  0
LWPOLYLINE
  5
2573
330
1F
100
AcDbEntity
  8
Hewi
370
    13
100
AcDbPolyline
 90
       76
 70
     0
 43
0.0
 10
177.2911918768355
 20
1254.823642641956
 10
171.9777319883587
 20
1251.79776246892
 10
171.9777319883587
 20
1250.341360196649
 10
171.9777319883587
 20
1247.039276512049
 10
171.9777319883587
 20
1242.000486168786
 10
171.9777319883587
 20
1235.391278391747
 10
171.9777319883587
 20
1227.429769030861
 10
171.9777319883587
 20
1218.378702342264
 10
171.9777319883587
 20
1208.536779951049
 10
171.9777319883587
 20
1198.228803155609
 10
171.9777319883587
 20
1187.794953895396
 10
171.9777319883587
 20
1177.579568129609
 10
171.9777319883587
 20
1167.919772125702
 10
171.9777319883587
 20
1159.134356680798
 10
171.9777319883587
 20
1151.513256446886
 10
171.9777319883587
 20
1145.307981561193
 10
171.9777319883587
 20
1140.723317355244
 10
171.9777319883587
 20
1137.910566067323
 10
171.9777319883587
 20
1136.962553594045
 10
178.9777318063816
 20
1132.999662145689
 10
178.9777318063816
 20
1133.330226390978
 10
178.9777318063816
 20
1135.412186888919
 10
178.9777318063816
 20
1139.185850269807
 10
178.9925303230619
 20
1139.27150963065
 10
179.0152789954527
 20
1139.316294018066
 10
179.0163466752992
 20
1139.317892812358
 10
179.0508760615985
 20
1139.358071526302
 10
179.1237055641149
 20
1139.407129320221
 10
179.1275122221877
 20
1139.408982796305
 10
179.1877562675918
 20
1139.43251995579
 10
179.2564209139809
 20
1139.449511277535
 10
179.2939584230253
 20
1139.455571302127
 10
179.4070569518581
 20
1139.463955884773
 10
179.5144735499189
 20
1139.461675024453
 10
179.5808020849062
 20
1139.456376675839
 10
179.7719434542296
 20
1139.427900726924
 10
179.7927026961506
 20
1139.423800491642
 10
180.0207402726037
 20
1139.367834801002
 10
180.055292978609
 20
1139.357731423065
 10
180.2467995614779
 20
1139.294766094903
 10
180.2646627617805
 20
1139.288317447986
 10
180.4777317673879
 20
1139.204128088446
 10
182.2897210261953
 20
1138.457516343037
 10
184.1234880906513
 20
1137.753981829095
 10
185.9777316244062
 20
1137.094023811252
 10
186.1349431739554
 20
1137.046182369876
 10
186.2281537537083
 20
1137.023518612739
 10
186.2319590512243
 20
1137.02268731431
 10
186.3265005212315
 20
1137.004554693906
 10
186.4642377247264
 20
1136.987724519399
 10
186.4715168059856
 20
1136.987183895992
 10
186.5568149966357
 20
1136.983830415817
 10
186.6364245672985
 20
1136.986462103936
 10
186.6527779853722
 20
1136.987836837187
 10
186.7461802252574
 20
1137.002539729059
 10
186.7934808323198
 20
1137.015611485869
 10
186.8059810968724
 20
1137.019905345988
 10
186.8577219343233
 20
1137.042743441856
 10
186.8983066005994
 20
1137.069116874436
 10
186.9186574981022
 20
1137.086937936404
 10
186.9463902954876
 20
1137.120337705126
 10
186.957488033634
 20
1137.139371188237
 10
186.965520574272
 20
1137.15767058739
 10
186.9777315984092
 20
1137.22756612851
 10
186.9777315984092
 20
1143.364482784971
 10
186.9777315984092
 20
1151.010099299835
 10
186.9777315984092
 20
1159.938462834163
 10
186.9777315984092
 20
1169.885711201862
 10
186.9777315984092
 20
1180.557870855619
 10
186.9777315984092
 20
1191.639544761502
 10
186.9777315984092
 20
1202.803233407297
 10
186.9777315984092
 20
1213.719013478435
 10
186.9777315984092
 20
1224.064288165163
 10
186.9777315984092
 20
1233.533320947673
 10
186.9777315984092
 20
1241.846271104811
 10
186.9777315984092
 20
1246.948167569968
  0
LWPOLYLINE
  5
2575
330
1F
100
AcDbEntity
  8
Hewi
  6
CUSTOM
 62
    18
420
        0
370
     9
100
AcDbPolyline
 90
        6
 70
     0
 43
0.0
 10
248.6053440042097
 20
1138.316775315074
 10
248.6087883382361
 20
1138.514101094053
 10
248.6604244101118
 20
1141.472329806868
 10
248.7444435308944
 20
1146.285782216652
 10
248.8579026039015
 20
1152.785848476789
 10
248.9777300411161
 20
1159.650758076208
  0
LINE
  5
2576
330
1F
100
AcDbEntity
  8
Hewi
  6
CUSTOM
 62
    18
420
        0
370
     9
100
AcDbLine
 10
248.7987619933929
 20
1149.397685012646
 30
0.0
 11
248.9777300415818
 21
1149.394560133264
 31
0.0
  0
LINE
  5
2577
330
1F
100
AcDbEntity
  8
Hewi
  6
CUSTOM
 62
    18
420
        0
370
     9
100
AcDbLine
 10
248.92742611815
 20
1156.768828960845
 30
0.0
 11
248.977730364285
 21
1156.766725767298
 31
0.0
  0
LWPOLYLINE
  5
2578
330
1F
100
AcDbEntity
  8
Hewi
  6
CUSTOM
 62
    18
420
        0
370
     9
100
AcDbPolyline
 90
       53
 70
     0
 43
0.0
 10
268.2966642861511
 20
1201.233216504083
 10
268.2410852808762
 20
1205.495997744711
 10
268.2028755175207
 20
1208.051162247994
 10
268.0465696661059
 20
1214.77421529697
 10
267.8277598765936
 20
1221.680816770309
 10
267.2027073369619
 20
1235.273340535157
 10
266.3279281409714
 20
1248.682211020769
 10
264.8621888251301
 20
1250.506569519912
 10
264.7677677168768
 20
1250.584242838184
 10
264.7106452823873
 20
1250.607101402926
 10
264.6500395636331
 20
1250.617868228564
 10
264.5885027169507
 20
1250.616089915256
 10
264.528626108754
 20
1250.601841349282
 10
264.4729311924685
 20
1250.575722549296
 10
264.4237633256499
 20
1250.538833399285
 10
264.3831930074167
 20
1250.492727331392
 10
264.3529286866333
 20
1250.439345909672
 10
264.3342448191043
 20
1250.380937069171
 10
264.3279281973164
 20
1250.319960453762
 10
264.3279281973164
 20
1248.416173770685
 10
264.3279281973164
 20
1244.673431576677
 10
264.3279281973164
 20
1239.219188468221
 10
264.3279281973164
 20
1232.239182152767
 10
264.3279281973164
 20
1223.97110837376
 10
264.3279281973164
 20
1214.696526467316
 10
264.3279281973164
 20
1204.731271196575
 10
264.3279281973164
 20
1194.414697377837
 10
264.3279281973164
 20
1184.098123559099
 10
264.3279281973164
 20
1174.132868288329
 10
264.3279281973164
 20
1164.858286381914
 10
264.3279281973164
 20
1156.590212602907
 10
264.3279281973164
 20
1149.610206287452
 10
264.3279281973164
 20
1144.155963178997
 10
264.3279281973164
 20
1140.413220984989
 10
264.3279281973164
 20
1138.509434301912
 10
264.3342448191043
 20
1138.448457686503
 10
264.3529286866333
 20
1138.390048846002
 10
264.3831930074167
 20
1138.336667424282
 10
264.4237633256499
 20
1138.290561356331
 10
264.4729311924685
 20
1138.253672206349
 10
264.528626108754
 20
1138.227553406392
 10
264.5885027169507
 20
1138.213304840418
 10
264.6500395636331
 20
1138.211526527109
 10
264.7106452823873
 20
1138.222293352748
 10
264.7677677168768
 20
1138.24515191749
 10
264.8621888251301
 20
1138.322825235762
 10
266.3279281409714
 20
1140.147183734876
 10
267.2027073369619
 20
1153.556054220517
 10
267.8277598765936
 20
1167.148577985365
 10
268.0465696661059
 20
1174.055179458675
 10
268.132536528844
 20
1177.561193312878
 10
268.2028755175207
 20
1180.77823250768
 10
268.291236588012
 20
1187.169919880205
  0
LWPOLYLINE
  5
2579
330
1F
100
AcDbEntity
  8
Hewi
  6
CUSTOM
 62
    18
420
        0
370
     9
100
AcDbPolyline
 90
        3
 70
     0
 43
0.0
 10
268.3274395849813
 20
1193.663012381188
 10
268.3157156116586
 20
1191.711160074377
 10
268.2966642861511
 20
1189.59327626599
  0
LINE
  5
257A
330
1F
100
AcDbEntity
  8
Hewi
  6
CUSTOM
 62
    18
420
        0
370
     9
100
AcDbLine
 10
268.3279280855578
 20
1194.414697377837
 30
0.0
 11
268.3274395849813
 21
1194.81648137925
 31
0.0
  0
LWPOLYLINE
  5
257B
330
1F
100
AcDbEntity
  8
Hewi
  6
CUSTOM
 62
    18
420
        0
370
     9
100
AcDbPolyline
 90
        3
 70
     0
 43
0.0
 10
268.2966642861511
 20
1201.233216504083
 10
268.2853746886622
 20
1202.301540836092
 10
268.2566946956586
 20
1204.298791692021
  0
LINE
  5
257C
330
1F
100
AcDbEntity
  8
Hewi
  6
CUSTOM
 62
    18
420
        0
370
     9
100
AcDbLine
 10
268.3244543082338
 20
1196.610119302361
 30
0.0
 11
268.3103421444331
 21
1199.430355527507
 31
0.0
  0
LWPOLYLINE
  5
257D
330
1F
100
AcDbEntity
  8
Hewi
  6
CUSTOM
 62
    18
420
        0
370
     9
100
AcDbPolyline
 90
        4
 70
     0
 43
0.0
 10
268.3274395849813
 20
1193.663012381188
 10
268.3270596407611
 20
1193.287984400213
 10
268.3201120944951
 20
1191.264919137389
 10
268.291236588012
 20
1187.169919880205
  0
LWPOLYLINE
  5
257E
330
1F
100
AcDbEntity
  8
Hewi
  6
CUSTOM
 62
    18
420
        0
370
     9
100
AcDbPolyline
 90
        3
 70
     0
 43
0.0
 10
268.291236588012
 20
1187.169919880205
 10
268.3140330093238
 20
1189.868982565833
 10
268.3184754058976
 20
1191.032811053632
  0
LWPOLYLINE
  5
257F
330
1F
100
AcDbEntity
  8
Hewi
  6
CUSTOM
 62
    18
420
        0
370
     9
100
AcDbPolyline
 90
        3
 70
     0
 43
0.0
 10
268.291236588012
 20
1187.169919880205
 10
268.2575851531956
 20
1184.965627527428
 10
268.132536528844
 20
1177.805701450659
  0
LWPOLYLINE
  5
2580
330
1F
100
AcDbEntity
  8
Hewi
  6
CUSTOM
 62
    18
420
        0
370
     9
100
AcDbPolyline
 90
        3
 70
     0
 43
0.0
 10
268.3181160364557
 20
1197.876787133206
 10
268.3201120944951
 20
1197.564475618285
 10
268.3244543082338
 20
1196.610119302361
  0
LWPOLYLINE
  5
2581
330
1F
100
AcDbEntity
  8
Hewi
  6
CUSTOM
 62
    18
420
        0
370
     9
100
AcDbPolyline
 90
        3
 70
     0
 43
0.0
 10
268.3279280855578
 20
1194.414697377837
 10
268.3274395849813
 20
1195.166382374456
 10
268.3244543082338
 20
1196.610119302361
  0
LWPOLYLINE
  5
2582
330
1F
100
AcDbEntity
  8
Hewi
  6
CUSTOM
 62
    18
420
        0
370
     9
100
AcDbPolyline
 90
        3
 70
     0
 43
0.0
 10
268.3103421444331
 20
1199.430355527507
 10
268.2966642861511
 20
1200.714187640621
 10
268.2410852808762
 20
1205.391396741307
  0
LINE
  5
2583
330
1F
100
AcDbEntity
  8
Hewi
  6
CUSTOM
 62
    18
420
        0
370
     9
100
AcDbLine
 10
268.3274395849813
 20
1193.663012381188
 30
0.0
 11
268.3279280855578
 21
1194.414697377837
 31
0.0
  0
LINE
  5
2584
330
1F
100
AcDbEntity
  8
Hewi
  6
CUSTOM
 62
    18
420
        0
370
     9
100
AcDbLine
 10
268.2966642861511
 20
1201.233216504083
 30
0.0
 11
268.3103421444331
 21
1199.430355527507
 31
0.0
  0
LWPOLYLINE
  5
2585
330
1F
100
AcDbEntity
  8
Hewi
  6
CUSTOM
 62
    18
420
        0
370
     9
100
AcDbPolyline
 90
       11
 70
     0
 43
0.0
 10
246.3513731162321
 20
1136.4057836104
 10
247.3491551114503
 20
1136.84214444282
 10
247.6514811299067
 20
1136.987965910299
 10
247.7001710796986
 20
1137.0099590633
 10
247.7471584134992
 20
1137.038018085626
 10
247.761432858396
 20
1137.048186147393
 10
247.7902182752524
 20
1137.071525140473
 10
247.8496646315116
 20
1137.136139756865
 10
247.9194574060175
 20
1137.244008828635
 10
247.9305503016595
 20
1137.265270993444
 10
247.9627985155467
 20
1137.344730074907
  0
LINE
  5
2586
330
1F
100
AcDbEntity
  8
Hewi
  6
CUSTOM
 62
    18
420
        0
370
     9
100
AcDbLine
 10
264.3279281973164
 20
1140.47586003337
 30
0.0
 11
263.9777296099138
 21
1140.47586003337
 31
0.0
  0
LWPOLYLINE
  5
2587
330
1F
100
AcDbEntity
  8
Hewi
  6
CUSTOM
 62
    18
420
        0
370
     9
100
AcDbPolyline
 90
        3
 70
     1
 43
0.0
 10
246.3513731162321
 20
1136.4057836104
 10
246.3632539862093
 20
1136.476173362153
 10
246.3654469253752
 20
1136.435170309629
  0
LWPOLYLINE
  5
2588
330
1F
100
AcDbEntity
  8
Hewi
  6
CUSTOM
 62
    18
420
        0
370
     9
100
AcDbPolyline
 90
       17
 70
     0
 43
0.0
 10
247.9777369836603
 20
1246.538327818486
 10
247.9777374591004
 20
1242.100841474701
 10
247.9777372677136
 20
1236.427071860042
 10
247.9777369343001
 20
1231.022062511456
 10
247.9777365925047
 20
1225.339677411026
 10
247.9777360402305
 20
1215.893715619761
 10
247.9777354781773
 20
1205.97136131486
 10
247.9777348597791
 20
1194.704481494478
 10
247.9777342874814
 20
1183.936652967513
 10
247.9777337314818
 20
1173.12360938916
 10
247.9777300243523
 20
1166.666915941529
 10
247.9777300243523
 20
1160.55164460868
 10
247.9777300243523
 20
1151.438118041009
 10
247.9777300243523
 20
1143.699546022439
 10
247.9777300243523
 20
1137.434736071456
 10
247.973963111851
 20
1137.39149395948
 10
247.9628569918942
 20
1137.344921130843
  0
LINE
  5
2589
330
1F
100
AcDbEntity
  8
Hewi
  6
CUSTOM
 62
    18
420
        0
370
     9
100
AcDbLine
 10
264.3279281973164
 20
1248.353534722304
 30
0.0
 11
263.9777296099138
 21
1248.353534722304
 31
0.0
  0
LINE
  5
258B
330
1F
100
AcDbEntity
  8
Hewi
  6
CUSTOM
 62
    18
420
        0
370
     9
100
AcDbLine
 10
247.9627985155467
 20
1137.344730074907
 30
0.0
 11
247.9628569918942
 21
1137.344921130843
 31
0.0
  0
LINE
  5
258C
330
1F
100
AcDbEntity
  8
Hewi
  6
CUSTOM
 62
    18
420
        0
370
     9
100
AcDbLine
 10
241.7925317634154
 20
1240.271632050786
 30
0.0
 11
241.7925080915239
 21
1240.271606916078
 31
0.0
  0
LINE
  5
258D
330
1F
100
AcDbEntity
  8
Hewi
  6
CUSTOM
 62
    18
420
        0
370
     9
100
AcDbLine
 10
243.3936962734234
 20
1242.639979653974
 30
0.0
 11
243.171367959797
 21
1242.239470199635
 31
0.0
  0
LINE
  5
258F
330
1F
100
AcDbEntity
  8
Hewi
  6
CUSTOM
 62
    18
420
        0
370
     9
100
AcDbLine
 10
243.171367959797
 20
1242.239470199635
 30
0.0
 11
243.3702612963762
 21
1242.60265023859
 31
0.0
  0
LINE
  5
2591
330
1F
100
AcDbEntity
  8
Hewi
  6
CUSTOM
 62
    18
420
        0
370
     9
100
AcDbLine
 10
242.8915921614763
 20
1241.840181661693
 30
0.0
 11
243.171367959797
 21
1242.239470199635
 31
0.0
  0
LWPOLYLINE
  5
2592
330
1F
100
AcDbEntity
  8
Hewi
  6
CUSTOM
 62
    18
420
        0
370
     9
100
AcDbPolyline
 90
        3
 70
     0
 43
0.0
 10
240.4054187100638
 20
1238.574141324247
 10
240.4124792411249
 20
1238.581134173535
 10
240.4258238060657
 20
1238.597480622917
  0
LINE
  5
2593
330
1F
100
AcDbEntity
  8
Hewi
  6
CUSTOM
 62
    18
420
        0
370
     9
100
AcDbLine
 10
241.6931166888472
 20
1240.141527147684
 30
0.0
 11
241.0015034924518
 21
1239.273548154055
 31
0.0
  0
LINE
  5
2594
330
1F
100
AcDbEntity
  8
Hewi
  6
CUSTOM
 62
    18
420
        0
370
     9
100
AcDbLine
 10
241.0015034924518
 20
1239.273548154055
 30
0.0
 11
240.5938399147499
 21
1238.857196291541
 31
0.0
  0
LWPOLYLINE
  5
2595
330
1F
100
AcDbEntity
  8
Hewi
  6
CUSTOM
 62
    18
420
        0
370
     9
100
AcDbPolyline
 90
        3
 70
     0
 43
0.0
 10
243.8581033700403
 20
1243.379730318742
 10
242.6589785821061
 20
1241.469653191783
 10
241.7924255972985
 20
1240.271492853743
  0
LINE
  5
2596
330
1F
100
AcDbEntity
  8
Hewi
  6
CUSTOM
 62
    18
420
        0
370
     9
100
AcDbLine
 10
241.7924255972985
 20
1240.271492853743
 30
0.0
 11
241.6931166888472
 21
1240.141527147684
 31
0.0
  0
LWPOLYLINE
  5
2597
330
1F
100
AcDbEntity
  8
Hewi
  6
CUSTOM
 62
    18
420
        0
370
     9
100
AcDbPolyline
 90
       20
 70
     0
 43
0.0
 10
248.9777300415818
 20
1246.955837159632
 10
248.9777300415818
 20
1241.846275547327
 10
248.9777300415818
 20
1233.533324892527
 10
248.9777300415818
 20
1224.064291543135
 10
248.9777300415818
 20
1213.719016237108
 10
248.9777300415818
 20
1202.803235512471
 10
248.9777300415818
 20
1191.639546198403
 10
248.9777300415818
 20
1180.557871629116
 10
248.9777300415818
 20
1169.885711336432
 10
248.9777300415818
 20
1159.938462373259
 10
248.9777300415818
 20
1151.010098304436
 10
248.9777300415818
 20
1143.36448133185
 10
248.9777300415818
 20
1137.227564307988
 10
248.9899410658773
 20
1137.157668762706
 10
249.0019466092136
 20
1137.131948454491
 10
249.024712826803
 20
1137.099796753388
 10
249.0573513374921
 20
1137.068961516208
 10
249.0724133259874
 20
1137.05802612389
 10
249.0977397055622
 20
1137.042741610272
 10
249.1840043908242
 20
1137.008946579223
  0
LWPOLYLINE
  5
2598
330
1F
100
AcDbEntity
  8
Hewi
  6
CUSTOM
 62
    18
420
        0
370
     9
100
AcDbPolyline
 90
       57
 70
     0
 43
0.0
 10
258.7182289028797
 20
1254.905479903286
 10
263.9777296234179
 20
1251.866842997999
 10
263.9777296234179
 20
1250.888611041603
 10
263.9777296234179
 20
1249.673644290608
 10
263.9777296234179
 20
1247.987227688322
 10
263.9777296234179
 20
1243.261496068513
 10
263.9777296234179
 20
1236.872345304593
 10
263.9777296234179
 20
1229.037350262846
 10
263.9777296234179
 20
1220.023322302423
 10
263.9777296234179
 20
1210.137223334325
 10
263.9777296234179
 20
1199.715712601883
 10
263.9777296234179
 20
1189.113682153791
 10
263.9777296234179
 20
1178.692171421349
 10
263.9777296234179
 20
1168.806072453252
 10
263.9777296234179
 20
1159.792044492828
 10
263.9777296234179
 20
1151.957049451052
 10
263.9777296234179
 20
1145.567898687132
 10
263.9777296234179
 20
1140.842167067323
 10
263.9777296234179
 20
1137.940783714072
 10
263.9777296234179
 20
1136.962551757675
 10
256.97772981853
 20
1132.913245899439
 10
256.97772981853
 20
1133.618537582497
 10
256.97772981853
 20
1135.725597610184
 10
256.97772981853
 20
1139.185848566511
 10
256.971908100627
 20
1139.240943047607
 10
256.9547165951017
 20
1139.290768331626
 10
256.9537727890793
 20
1139.292694824904
 10
256.904585563324
 20
1139.358069833321
 10
256.8841514836322
 20
1139.375153955083
 10
256.8596806979995
 20
1139.391777395514
 10
256.8049196789298
 20
1139.419172150094
 10
256.7374486734416
 20
1139.441070784331
 10
256.6990407116037
 20
1139.44950959006
 10
256.5494200216863
 20
1139.463933399977
 10
256.5107567964379
 20
1139.46413220897
 10
256.3746595408093
 20
1139.456374988757
 10
256.2003115357157
 20
1139.431083366519
 10
256.1627589298669
 20
1139.423798802611
 10
255.9347213541415
 20
1139.367833108623
 10
255.8493736071769
 20
1139.342157933901
 10
255.708916218232
 20
1139.294855458004
 10
255.4777298604395
 20
1139.204126386245
 10
253.6657406047244
 20
1138.457514596153
 10
251.8319735436026
 20
1137.753980040125
 10
249.9777300136421
 20
1137.094021982728
 10
249.8793889360759
 20
1137.062700789607
 10
249.8342833786529
 20
1137.049892788968
 10
249.7814962260682
 20
1137.036162216111
 10
249.6930307743397
 20
1137.016304655623
 10
249.6289611172188
 20
1137.004552860057
 10
249.5373054265302
 20
1136.991993043524
 10
249.5025049948391
 20
1136.988634151825
 10
249.4492273621518
 20
1136.985133831255
 10
249.3299085849222
 20
1136.985717540676
 10
249.3190370721068
 20
1136.986460269003
 10
249.2485823186371
 20
1136.994799415301
 10
249.184462851591
 20
1137.0088191215
  0
LINE
  5
2599
330
1F
100
AcDbEntity
  8
Hewi
  6
CUSTOM
 62
    18
420
        0
370
     9
100
AcDbLine
 10
249.184462851591
 20
1137.0088191215
 30
0.0
 11
249.1840043908242
 21
1137.008946579223
 31
0.0
  0
LWPOLYLINE
  5
259A
330
1F
100
AcDbEntity
  8
Hewi
  6
CUSTOM
 62
    18
420
        0
370
     9
100
AcDbPolyline
 90
        6
 70
     0
 43
0.0
 10
248.9777300415818
 20
1139.834773078543
 10
248.977634191725
 20
1139.829281846363
 10
248.9768258493651
 20
1139.782971922843
 10
248.9730981520634
 20
1139.569412294408
 10
248.9620236034762
 20
1138.934951795014
 10
248.9433772729035
 20
1138.78911962044
  0
LINE
  5
259B
330
1F
100
AcDbEntity
  8
Hewi
  6
CUSTOM
 62
    18
420
        0
370
     9
100
AcDbLine
 10
248.9052758591506
 20
1155.49986091266
 30
0.0
 11
248.97773001923
 21
1155.616678236383
 31
0.0
  0
LWPOLYLINE
  5
259C
330
1F
100
AcDbEntity
  8
Hewi
  6
CUSTOM
 62
    18
420
        0
370
     9
100
AcDbPolyline
 90
        3
 70
     0
 43
0.0
 10
256.6262315532449
 20
1135.278162878454
 10
256.9600798312832
 20
1136.245582644519
 10
256.9777298189957
 20
1136.274126973974
  0
LINE
  5
259D
330
1F
100
AcDbEntity
  8
Hewi
  6
CUSTOM
 62
    18
420
        0
370
     9
100
AcDbLine
 10
247.9777300243523
 20
1138.11167279827
 30
0.0
 11
248.2343235688541
 21
1138.131513529613
 31
0.0
  0
LINE
  5
259E
330
1F
100
AcDbEntity
  8
Hewi
  6
CUSTOM
 62
    18
420
        0
370
     9
100
AcDbLine
 10
256.977729757994
 20
1137.440412016917
 30
0.0
 11
256.0781339558098
 21
1136.591942978161
 31
0.0
  0
LWPOLYLINE
  5
259F
330
1F
100
AcDbEntity
  8
Hewi
  6
CUSTOM
 62
    18
420
        0
370
     9
100
AcDbPolyline
 90
        6
 70
     0
 43
0.0
 10
248.9777300406505
 20
1138.90943521402
 10
248.9217894251715
 20
1138.713511309277
 10
248.8161781823519
 20
1138.51768182874
 10
248.7020419959236
 20
1138.386276581452
 10
248.4703442847613
 20
1138.21974479545
 10
248.2331207326871
 20
1138.13142052291
  0
LINE
  5
25E2
330
1F
100
AcDbEntity
  8
Hewi
  6
CUSTOM
 62
    18
420
        0
370
     9
100
AcDbLine
 10
656.611443185372
 20
1264.177375349089
 30
0.0
 11
1096.857924264187
 21
1264.177375349089
 31
0.0
  0
LINE
  5
25E3
330
1F
100
AcDbEntity
  8
Hewi
  6
CUSTOM
 62
    18
420
        0
370
     9
100
AcDbLine
 10
1096.611457928208
 20
1264.177375349089
 30
0.0
 11
1096.857924140183
 21
1264.177375334363
 31
0.0
  0
LINE
  5
25E4
330
1F
100
AcDbEntity
  8
Hewi
  6
CUSTOM
 62
    18
420
        0
370
     9
100
AcDbLine
 10
1096.857924140183
 20
1264.177375334363
 30
0.0
 11
1099.582879743663
 21
1264.50099080669
 31
0.0
  0
LINE
  5
25E5
330
1F
100
AcDbEntity
  8
Hewi
  6
CUSTOM
 62
    18
420
        0
370
     9
100
AcDbLine
 10
1099.582879743663
 20
1264.50099080669
 30
0.0
 11
1102.165710578331
 21
1265.432748871204
 31
0.0
  0
LINE
  5
25E6
330
1F
100
AcDbEntity
  8
Hewi
  6
CUSTOM
 62
    18
420
        0
370
     9
100
AcDbLine
 10
1102.165710578331
 20
1265.432748871204
 30
0.0
 11
1104.156641491347
 21
1266.662179952942
 31
0.0
  0
LINE
  5
25E7
330
1F
100
AcDbEntity
  8
Hewi
  6
CUSTOM
 62
    18
420
        0
370
     9
100
AcDbLine
 10
1104.156641491347
 20
1266.662179952942
 30
0.0
 11
1105.870288434097
 21
1268.254120958143
 31
0.0
  0
LINE
  5
25E8
330
1F
100
AcDbEntity
  8
Hewi
  6
CUSTOM
 62
    18
420
        0
370
     9
100
AcDbLine
 10
1105.870288434097
 20
1268.254120958143
 30
0.0
 11
1107.92735557224
 21
1270.160772286315
 31
0.0
  0
LINE
  5
25E9
330
1F
100
AcDbEntity
  8
Hewi
  6
CUSTOM
 62
    18
420
        0
370
     9
100
AcDbLine
 10
1107.92735557224
 20
1270.160772286315
 30
0.0
 11
1110.656790992835
 21
1271.924985388952
 31
0.0
  0
LWPOLYLINE
  5
2626
330
1F
100
AcDbEntity
  8
Hewi
  6
CUSTOM
 62
    18
420
        0
370
     9
100
AcDbPolyline
 90
        2
 70
     0
 43
0.0
 10
1117.286782397082
 20
1260.043148244458
 10
1115.972791987596
 20
1258.543671074225
  0
ENDSEC
  0
SECTION
  2
OBJECTS
  0
DICTIONARY
  5
C
330
0
100
AcDbDictionary
281
     1
  3
ACAD_CIP_PREVIOUS_PRODUCT_INFO
350
119
  3
ACAD_COLOR
350
114
  3
ACAD_DETAILVIEWSTYLE
350
10E
  3
ACAD_GROUP
350
D
  3
ACAD_IMAGE_DICT
350
6E
  3
ACAD_LAYOUT
350
1A
  3
ACAD_MATERIAL
350
43
  3
ACAD_MLEADERSTYLE
350
6B
  3
ACAD_MLINESTYLE
350
17
  3
ACAD_PLOTSETTINGS
350
19
  3
ACAD_PLOTSTYLENAME
350
E
  3
ACAD_SCALELIST
350
47
  3
ACAD_SECTIONVIEWSTYLE
350
10F
  3
ACAD_TABLESTYLE
350
69
  3
ACAD_VISUALSTYLE
350
2A
  3
ACDB_RECOMPOSE_DATA
350
266A
  3
AcDbVariableDictionary
350
107
  3
AcDsDecomposeData
350
2670
  0
SUN
  5
6D
330
29
100
AcDbSun
 90
        1
290
     1
 63
     7
421
 16777215
 40
1.0
291
     1
 91
  2455826
 92
 54000000
292
     0
 70
     0
 71
   256
280
     1
1001
ACAD
1000
AcDbSavedByObjectVersion
1070
     0
1000
AcDbSavedByObjectVersion
1070
     0
1000
AcDbSavedByObjectVersion
1070
     0
1000
AcDbSavedByObjectVersion
1070
     0
1000
AcDbSavedByObjectVersion
1070
     0
1000
AcDbSavedByObjectVersion
1070
     0
1000
AcDbSavedByObjectVersion
1070
     0
1000
AcDbSavedByObjectVersion
1070
     0
  0
DICTIONARY
  5
490
330
2
100
AcDbDictionary
280
     1
281
     1
  3
ACAD_LAYERSTATES
360
491
  0
DICTIONARY
  5
48E
330
48D
100
AcDbDictionary
280
     1
281
     1
  0
DICTIONARY
  5
6E5
330
1F
100
AcDbDictionary
280
     1
281
     1
  3
ACAD_SORTENTS
360
6E6
  0
XRECORD
  5
119
102
{ACAD_REACTORS
330
C
102
}
330
C
100
AcDbXrecord
280
     1
300
ACDLT
300
2021
300
ACDLT_F_S
  0
DICTIONARY
  5
114
102
{ACAD_REACTORS
330
C
102
}
330
C
100
AcDbDictionary
281
     1
  0
DICTIONARY
  5
10E
102
{ACAD_REACTORS
330
C
102
}
330
C
100
AcDbDictionary
281
     1
  3
Imperial24
350
1EAD
  3
Metric50
350
116
  0
DICTIONARY
  5
D
102
{ACAD_REACTORS
330
C
102
}
330
C
100
AcDbDictionary
281
     1
  0
DICTIONARY
  5
6E
102
{ACAD_REACTORS
330
C
102
}
330
C
100
AcDbDictionary
281
     1
  0
DICTIONARY
  5
1A
102
{ACAD_REACTORS
330
C
102
}
330
C
100
AcDbDictionary
281
     1
  3
Layout1
350
1E
  3
Layout2
350
26
  3
Model
350
22
  0
DICTIONARY
  5
43
102
{ACAD_REACTORS
330
C
102
}
330
C
100
AcDbDictionary
281
     1
  3
ByBlock
350
45
  3
ByLayer
350
44
  3
Global
350
46
  0
DICTIONARY
  5
6B
102
{ACAD_REACTORS
330
C
102
}
330
C
100
AcDbDictionary
281
     1
  3
Standard
350
6C
  0
DICTIONARY
  5
17
102
{ACAD_REACTORS
330
C
102
}
330
C
100
AcDbDictionary
281
     1
  3
Standard
350
18
  0
DICTIONARY
  5
19
102
{ACAD_REACTORS
330
C
102
}
330
C
100
AcDbDictionary
281
     1
  0
ACDBDICTIONARYWDFLT
  5
E
102
{ACAD_REACTORS
330
C
102
}
330
C
100
AcDbDictionary
281
     1
  3
Normal
350
F
100
AcDbDictionaryWithDefault
340
F
  0
DICTIONARY
  5
47
102
{ACAD_REACTORS
330
C
102
}
330
C
100
AcDbDictionary
281
     1
  3
A0
350
48
  3
A1
350
49
  3
A2
350
4A
  3
A3
350
4B
  3
A4
350
4C
  3
A5
350
4D
  3
A6
350
4E
  3
A7
350
4F
  3
A8
350
50
  3
A9
350
51
  3
B0
350
52
  3
B1
350
53
  3
B2
350
54
  3
B3
350
55
  3
B4
350
56
  3
B5
350
57
  3
B6
350
58
  3
B7
350
59
  3
B8
350
5A
  3
B9
350
5B
  3
C0
350
5C
  3
C1
350
5D
  3
C2
350
5E
  3
C3
350
5F
  3
C4
350
60
  3
C5
350
61
  3
C6
350
62
  3
C7
350
63
  3
C8
350
64
  3
C9
350
65
  3
D0
350
66
  3
D1
350
67
  3
D2
350
68
  0
DICTIONARY
  5
10F
102
{ACAD_REACTORS
330
C
102
}
330
C
100
AcDbDictionary
281
     1
  3
Imperial24
350
1EAC
  3
Metric50
350
115
  0
DICTIONARY
  5
69
102
{ACAD_REACTORS
330
C
102
}
330
C
100
AcDbDictionary
281
     1
  3
Standard
350
6A
  0
DICTIONARY
  5
2A
102
{ACAD_REACTORS
330
C
102
}
330
C
100
AcDbDictionary
281
     1
  3
2dWireframe
350
2F
  3
3dWireframe
350
1EAB
  3
Basic
350
32
  3
Brighten
350
36
  3
ColorChange
350
3A
  3
Conceptual
350
34
  3
Dim
350
35
  3
EdgeColorOff
350
3D
  3
Facepattern
350
39
  3
Flat
350
2B
  3
FlatWithEdges
350
2C
  3
Gouraud
350
2D
  3
GouraudWithEdges
350
2E
  3
Hidden
350
31
  3
JitterOff
350
3B
  3
Linepattern
350
38
  3
OverhangOff
350
3C
  3
Realistic
350
33
  3
Shaded
350
42
  3
Shaded with edges
350
41
  3
Shades of Gray
350
3E
  3
Sketchy
350
3F
  3
Thicken
350
37
  3
Wireframe
350
30
  3
X-Ray
350
40
  0
XRECORD
  5
266A
102
{ACAD_REACTORS
330
C
102
}
330
C
100
AcDbXrecord
280
     1
 90
        1
330
6A
  0
DICTIONARY
  5
107
102
{ACAD_REACTORS
330
C
102
}
330
C
100
AcDbDictionary
281
     1
  3
CANNOSCALE
350
108
  3
CENTEREXE
350
110
  3
CENTERLTYPEFILE
350
111
  3
CMLEADERSTYLE
350
10D
  3
CTABLESTYLE
350
10C
  3
CVIEWDETAILSTYLE
350
485
  3
CVIEWSECTIONSTYLE
350
486
  0
DICTIONARY
  5
2670
102
{ACAD_REACTORS
330
C
102
}
330
C
100
AcDbDictionary
281
     1
  3
AcDsRecords
350
2672
  3
AcDsSchemas
350
2671
1001
ACAD
1070
     2
  0
DICTIONARY
  5
491
102
{ACAD_REACTORS
330
490
102
}
330
490
100
AcDbDictionary
281
     1
  0
SORTENTSTABLE
  5
6E6
102
{ACAD_REACTORS
330
6E5
102
}
330
6E5
100
AcDbSortentsTable
330
1F
331
13FC
  5
13FF
331
13FD
  5
1404
331
13FF
  5
140D
331
1404
  5
140E
331
140D
  5
1567
331
140E
  5
1568
331
1414
  5
1577
331
1567
  5
1580
331
1568
  5
1584
331
1577
  5
1587
331
157D
  5
1589
331
157E
  5
158F
331
1580
  5
1590
331
1584
  5
1593
331
1587
  5
1594
331
1589
  5
1598
331
158F
  5
159A
331
1590
  5
159B
331
1593
  5
159D
331
1594
  5
15CF
331
1598
  5
15D9
331
159A
  5
161E
331
159B
  5
1621
331
159D
  5
1622
331
15CF
  5
1623
331
15D9
  5
1624
331
161E
  5
1625
331
161F
  5
1626
331
1620
  5
1627
331
1621
  5
1628
331
1622
  5
1629
331
1623
  5
162A
331
1624
  5
162B
331
1625
  5
162C
331
1626
  5
162D
331
1627
  5
162E
331
1628
  5
162F
331
1629
  5
1632
331
162A
  5
1633
331
162B
  5
1635
331
162C
  5
1637
331
162E
  5
163C
331
162F
  5
163D
331
1632
  5
163E
331
1633
  5
163F
331
1634
  5
1640
331
1635
  5
1641
331
1637
  5
1652
331
1639
  5
1757
331
163A
  5
1758
331
163B
  5
1759
331
163C
  5
175A
331
163D
  5
175B
331
163E
  5
175C
331
163F
  5
175D
331
1640
  5
175E
331
1641
  5
175F
331
1652
  5
1760
331
1757
  5
1761
331
1758
  5
1762
331
1759
  5
1763
331
175A
  5
1764
331
175B
  5
1766
331
175C
  5
1767
331
175D
  5
1768
331
175E
  5
1769
331
175F
  5
176A
331
1760
  5
176B
331
1761
  5
176C
331
1762
  5
176D
331
1763
  5
176E
331
1764
  5
176F
331
1766
  5
1770
331
1767
  5
1771
331
1768
  5
1772
331
1769
  5
1773
331
176A
  5
1774
331
176B
  5
1775
331
176C
  5
1778
331
176D
  5
177D
331
176E
  5
177F
331
176F
  5
1784
331
1770
  5
1785
331
1771
  5
1792
331
1772
  5
1793
331
1773
  5
1795
331
1774
  5
1796
331
1775
  5
1797
331
1778
  5
1798
331
177D
  5
179A
331
177F
  5
179B
331
1784
  5
179C
331
1785
  5
179F
331
1792
  5
17A0
331
1793
  5
17A1
331
1795
  5
17A4
331
1796
  5
17A5
331
1797
  5
17A6
331
1798
  5
17A7
331
179A
  5
17A8
331
179B
  5
17A9
331
179C
  5
17AA
331
179F
  5
17B4
331
17A0
  5
17B5
331
17A1
  5
17B6
331
17A4
  5
17B8
331
17A5
  5
17B9
331
17A6
  5
17BA
331
17A7
  5
17BB
331
17A8
  5
17BC
331
17A9
  5
17BD
331
17AA
  5
17BE
331
17B4
  5
17BF
331
17B5
  5
17C0
331
17B6
  5
17C1
331
17B8
  5
17C2
331
17B9
  5
17C3
331
17BA
  5
17C4
331
17BB
  5
17C5
331
17BC
  5
17C7
331
17BD
  5
17C8
331
17BE
  5
17CB
331
17BF
  5
17CC
331
17C0
  5
17CD
331
17C1
  5
17CE
331
17C2
  5
17CF
331
17C3
  5
17D0
331
17C4
  5
17D1
331
17C5
  5
17D2
331
17C7
  5
17D3
331
17C8
  5
17D6
331
17CB
  5
17D7
331
17CC
  5
17D8
331
17CD
  5
17D9
331
17CE
  5
17DA
331
17CF
  5
17DB
331
17D0
  5
17DC
331
17D1
  5
19B6
331
17D2
  5
19B7
331
17D3
  5
19B8
331
17D6
  5
19B9
331
17D7
  5
19BA
331
17D8
  5
19BB
331
17D9
  5
19BC
331
17DA
  5
19BD
331
17DB
  5
19BE
331
17DC
  5
19BF
331
19B6
  5
19C0
331
19B7
  5
19C1
331
19B8
  5
19C2
331
19B9
  5
19C3
331
19BA
  5
19C4
331
19BB
  5
19C5
331
19BC
  5
19C6
331
19BD
  5
19C7
331
19BE
  5
19C8
331
19BF
  5
19C9
331
19C0
  5
19CA
331
19C1
  5
19CB
331
19C2
  5
19CC
331
19C3
  5
19CD
331
19C4
  5
19CE
331
19C5
  5
19CF
331
19C6
  5
19D0
331
19C7
  5
19D1
331
19C8
  5
19D2
331
19C9
  5
19D4
331
19CA
  5
19D5
331
19CB
  5
19D6
331
19CC
  5
19D7
331
19CD
  5
19D8
331
19CE
  5
1A83
331
19CF
  5
1A84
331
19D0
  5
1A85
331
19D1
  5
1A86
331
19D2
  5
1A89
331
19D4
  5
1A8B
331
19D5
  5
1A8D
331
19D6
  5
1A8E
331
19D7
  5
1A90
331
19D8
  5
1A96
331
1A83
  5
1A97
331
1A84
  5
1A98
331
1A85
  5
1A99
331
1A86
  5
1A9A
331
1A89
  5
1A9B
331
1A8B
  5
1A9C
331
1A8D
  5
1A9D
331
1A8E
  5
1A9E
331
1A90
  5
1A9F
331
1A96
  5
1AA0
331
1A97
  5
1AA1
331
1A98
  5
1AA2
331
1A99
  5
1AA3
331
1A9A
  5
1AA4
331
1A9B
  5
1AA5
331
1A9C
  5
1AA6
331
1A9D
  5
1AA9
331
1A9E
  5
1AAB
331
1A9F
  5
1AAC
331
1AA0
  5
1AAD
331
1AA1
  5
1AB0
331
1AA2
  5
1AB2
331
1AA3
  5
1AB3
331
1AA4
  5
1AB4
331
1AA5
  5
1AB5
331
1AA6
  5
1AB6
331
1AA9
  5
1AB7
331
1AAB
  5
1ABA
331
1AAC
  5
1ABB
331
1AAF
  5
1ABC
331
1AB1
  5
1ABD
331
1AB2
  5
1ABE
331
1AB3
  5
1ABF
331
1AB4
  5
1B27
331
1AB5
  5
1B28
331
1AB6
  5
1B29
331
1AB7
  5
1B2A
331
1AB9
  5
1B2B
331
1ABA
  5
1B33
331
1ABB
  5
1B35
331
1ABC
  5
1B38
331
1ABD
  5
1B41
331
1ABE
  5
1B43
331
1AC2
  5
1BC0
331
1B27
  5
1BC1
331
1B28
  5
1BC2
331
1B29
  5
1D57
331
1B2A
  5
1D58
331
1B2B
  5
2077
331
1B33
  5
2078
331
1B34
  5
2079
331
1B3E
  5
207B
331
1BA6
  5
207C
331
1BBD
  5
207D
331
1BC0
  5
207E
331
1BC1
  5
207F
331
1BC2
  5
2080
331
2235
  5
2241
331
2236
  5
2242
331
2237
  5
2243
331
2238
  5
2245
331
2239
  5
2246
331
223A
  5
2247
331
223B
  5
2248
331
223C
  5
2249
331
223D
  5
224A
331
223E
  5
224B
331
223F
  5
224C
331
2240
  5
224D
331
2241
  5
224E
331
2242
  5
224F
331
2243
  5
2250
331
2244
  5
2251
331
2245
  5
2252
331
2246
  5
2253
331
2247
  5
2254
331
2248
  5
2255
331
2249
  5
2256
331
224A
  5
2257
331
224B
  5
2258
331
224C
  5
2259
331
224D
  5
225A
331
224E
  5
225B
331
224F
  5
225C
331
2250
  5
225D
331
2251
  5
225E
331
2252
  5
225F
331
2253
  5
2260
331
2254
  5
2261
331
2255
  5
2262
331
2256
  5
2263
331
2257
  5
2264
331
2258
  5
2265
331
2259
  5
2266
331
225A
  5
2267
331
225B
  5
2268
331
225C
  5
2269
331
225D
  5
226A
331
225E
  5
226B
331
225F
  5
226C
331
2260
  5
22AF
331
2261
  5
22B0
331
2262
  5
22B1
331
2263
  5
22B2
331
2264
  5
22B3
331
2265
  5
22B5
331
2266
  5
22B6
331
2267
  5
22B9
331
2268
  5
22BA
331
2269
  5
22BB
331
226A
  5
22BC
331
226B
  5
22BD
331
226C
  5
22BF
331
22B0
  5
22C8
331
22B1
  5
22C9
331
22B2
  5
22CA
331
22B3
  5
22CB
331
22B5
  5
22CC
331
22B6
  5
22CD
331
22B9
  5
22CE
331
22BA
  5
22CF
331
22BB
  5
22D0
331
22BC
  5
22D1
331
22BD
  5
22D2
331
22BE
  5
22D3
331
22BF
  5
22D4
331
22C0
  5
22D5
331
22C1
  5
22D6
331
22C2
  5
22D7
331
22C3
  5
22D8
331
22C4
  5
22D9
331
22C5
  5
22DA
331
22C6
  5
22DB
331
22C7
  5
22DC
331
22C8
  5
22DD
331
22C9
  5
22DE
331
22CA
  5
22DF
331
22CB
  5
22E0
331
22CC
  5
22E1
331
22CD
  5
22E2
331
22CE
  5
22E3
331
22CF
  5
22E4
331
22D0
  5
22E5
331
22D1
  5
22E6
331
22D2
  5
22E7
331
22D3
  5
22E8
331
22D4
  5
22E9
331
22D5
  5
22EA
331
22D6
  5
22EB
331
22D7
  5
22EC
331
22D8
  5
22ED
331
22D9
  5
22EE
331
22DA
  5
22EF
331
22DB
  5
22F0
331
22DC
  5
22F1
331
22DD
  5
22F2
331
22DE
  5
22F3
331
22DF
  5
22F4
331
22E0
  5
22F5
331
22E1
  5
22F6
331
22E2
  5
22F7
331
22E3
  5
22F8
331
22E4
  5
22F9
331
22E5
  5
22FA
331
22E6
  5
22FB
331
22E7
  5
22FC
331
22E8
  5
22FD
331
22E9
  5
22FE
331
22EA
  5
23F0
331
22EB
  5
23F3
331
22EC
  5
23F5
331
22ED
  5
23F7
331
22EE
  5
23F8
331
22EF
  5
23F9
331
22F0
  5
23FA
331
22F1
  5
23FB
331
22F2
  5
23FC
331
22F3
  5
23FD
331
22F4
  5
24BC
331
22F5
  5
24BD
331
22F6
  5
24BE
331
22F7
  5
24BF
331
22F8
  5
24C0
331
22F9
  5
24C1
331
22FA
  5
24C2
331
22FB
  5
24C3
331
22FC
  5
24C4
331
22FD
  5
1AB9
331
22FE
  5
207A
331
24B2
  5
24C5
331
24B3
  5
24C6
331
24B4
  5
24C7
331
24B5
  5
24C8
331
24B6
  5
24C9
331
24B7
  5
24CA
331
24B8
  5
24CB
331
24B9
  5
24CC
331
24BA
  5
24CD
331
24BB
  5
24CE
331
24BC
  5
24CF
331
24BD
  5
24D0
331
24BE
  5
24D1
331
24BF
  5
24D2
331
24C0
  5
24D3
331
24C1
  5
24D4
331
24C2
  5
24D5
331
24C3
  5
24D6
331
24C4
  5
24D7
331
24C5
  5
24D8
331
24C6
  5
24D9
331
24C7
  5
24DA
331
24C8
  5
24DB
331
24C9
  5
24DC
331
24CA
  5
24DD
331
24CB
  5
24DE
331
24CC
  5
24DF
331
24CD
  5
24E0
331
24CE
  5
24E1
331
24CF
  5
24E2
331
24D0
  5
24E3
331
24D1
  5
24E4
331
24D2
  5
24E5
331
24D3
  5
24E6
331
24D4
  5
24E7
331
24D5
  5
24E9
331
24D6
  5
24EA
331
24D7
  5
24EB
331
24D8
  5
24EC
331
24D9
  5
24ED
331
24DA
  5
24EE
331
24DB
  5
24EF
331
24DC
  5
24F0
331
24DD
  5
24F1
331
24DF
  5
24F2
331
24E0
  5
24F3
331
24E1
  5
24F4
331
24E2
  5
24F5
331
24E3
  5
24F6
331
24E4
  5
24F8
331
24E5
  5
24F9
331
24E6
  5
24FA
331
24E7
  5
24FB
331
24E8
  5
24FC
331
24E9
  5
24FD
331
24EA
  5
24FE
331
24EB
  5
24FF
331
24EC
  5
2500
331
24ED
  5
2501
331
24EE
  5
2502
331
24EF
  5
2503
331
24F0
  5
2504
331
24F1
  5
2505
331
24F2
  5
2506
331
24F3
  5
2507
331
24F4
  5
2508
331
24F6
  5
2509
331
24F7
  5
250A
331
24F8
  5
250B
331
24F9
  5
250C
331
24FA
  5
250D
331
24FB
  5
250E
331
24FC
  5
250F
331
24FD
  5
2510
331
24FE
  5
2512
331
24FF
  5
2513
331
2500
  5
2514
331
2501
  5
2515
331
2502
  5
2517
331
2503
  5
2518
331
2504
  5
2519
331
2505
  5
251B
331
2506
  5
251C
331
2508
  5
251D
331
2509
  5
251E
331
250A
  5
2520
331
250B
  5
2521
331
250D
  5
2522
331
250E
  5
2523
331
250F
  5
2524
331
2511
  5
2525
331
2512
  5
2526
331
2513
  5
2528
331
2514
  5
2529
331
2516
  5
252A
331
2517
  5
252B
331
2518
  5
252C
331
2519
  5
252D
331
251A
  5
252E
331
251B
  5
252F
331
251C
  5
2530
331
251E
  5
2531
331
251F
  5
2532
331
2520
  5
2533
331
2521
  5
2534
331
2522
  5
2535
331
2523
  5
2536
331
2524
  5
2537
331
2525
  5
2538
331
2526
  5
2539
331
2527
  5
253A
331
2528
  5
253B
331
2529
  5
253C
331
252A
  5
253D
331
252B
  5
253E
331
252C
  5
253F
331
252D
  5
2540
331
252E
  5
2541
331
252F
  5
2542
331
2530
  5
2543
331
2531
  5
2544
331
2532
  5
2545
331
2533
  5
2546
331
2534
  5
2547
331
2535
  5
2548
331
2536
  5
2549
331
2537
  5
254A
331
2538
  5
254B
331
2539
  5
254C
331
253A
  5
254D
331
253B
  5
254E
331
253C
  5
254F
331
253D
  5
2550
331
253E
  5
2551
331
253F
  5
2552
331
2540
  5
2553
331
2541
  5
2554
331
2542
  5
2555
331
2543
  5
2556
331
2544
  5
2557
331
2545
  5
2558
331
2546
  5
2559
331
2547
  5
255A
331
2548
  5
255B
331
2549
  5
255C
331
254A
  5
255D
331
254B
  5
255E
331
254C
  5
255F
331
254D
  5
2560
331
254E
  5
2561
331
254F
  5
2562
331
2550
  5
2563
331
2551
  5
2564
331
2552
  5
2565
331
2553
  5
2566
331
2554
  5
2567
331
2555
  5
2568
331
2556
  5
2569
331
2557
  5
256A
331
2558
  5
256B
331
2559
  5
256C
331
255A
  5
256D
331
255B
  5
256E
331
255C
  5
256F
331
255D
  5
2570
331
255E
  5
2571
331
255F
  5
2572
331
2560
  5
2573
331
2561
  5
2575
331
2562
  5
2576
331
2563
  5
2577
331
2564
  5
2578
331
2565
  5
2579
331
2566
  5
257A
331
2567
  5
257B
331
2568
  5
257C
331
2569
  5
257D
331
256F
  5
163A
331
2570
  5
1482
331
2573
  5
13FE
331
2575
  5
257E
331
2576
  5
257F
331
2577
  5
2580
331
2578
  5
2581
331
2579
  5
2582
331
257A
  5
2583
331
257B
  5
2584
331
257C
  5
2585
331
257D
  5
2586
331
257E
  5
2587
331
257F
  5
2588
331
2580
  5
2589
331
2581
  5
258B
331
2582
  5
258C
331
2583
  5
258D
331
2584
  5
258F
331
2585
  5
2591
331
2586
  5
2592
331
2587
  5
2593
331
2588
  5
2594
331
2589
  5
2595
331
258B
  5
2596
331
258C
  5
2597
331
258D
  5
2598
331
258F
  5
2599
331
2591
  5
259A
331
2592
  5
259B
331
2593
  5
259C
331
2594
  5
259D
331
2595
  5
259E
331
2596
  5
259F
331
2597
  5
25E2
331
2598
  5
25E3
331
2599
  5
25E4
331
259A
  5
25E5
331
259B
  5
25E6
331
259C
  5
25E7
331
259D
  5
25E8
331
259E
  5
25E9
331
259F
  5
2626
331
25E2
  5
22C0
331
25E3
  5
22C1
331
25E4
  5
22C2
331
25E5
  5
22C3
331
25E6
  5
22C4
331
25E7
  5
22C5
331
25E8
  5
22C6
331
25E9
  5
22C7
331
2626
  5
2244
  0
ACDBDETAILVIEWSTYLE
  5
1EAD
102
{ACAD_XDICTIONARY
360
2679
102
}
102
{ACAD_REACTORS
330
10E
102
}
330
10E
100
AcDbModelDocViewStyle
 70
     0
  3
Imperial24
290
     0
100
AcDbDetailViewStyle
 70
     0
 71
     0
 90
        3
 71
     1
340
11
 62
   256
 40
0.24
340
0
 62
   256
 40
0.24
300

 40
0.36
280
     3
 71
     2
340
16
 90
       25
 62
   256
 71
     3
340
11
 62
   256
 40
0.24
 90
        1
 40
0.75
 90
        1
300
%<\AcVar ViewType \f "%tc1">% %<\AcVar ViewDetailId>%\PVARIA %<\AcVar ViewScale \f "%sn">%
 71
     4
340
16
 90
       25
 62
   256
340
16
 90
       25
 62
   256
280
     0
  0
ACDBDETAILVIEWSTYLE
  5
116
102
{ACAD_XDICTIONARY
360
2675
102
}
102
{ACAD_REACTORS
330
10E
102
}
330
10E
100
AcDbModelDocViewStyle
 70
     0
  3
Metric50
290
     0
100
AcDbDetailViewStyle
 70
     0
 71
     0
 90
        3
 71
     1
340
11
 62
   256
 40
5.0
340
0
 62
   256
 40
5.0
300

 40
0.0
280
     1
 71
     2
340
16
 90
       25
 62
   256
 71
     3
340
11
 62
   256
 40
5.0
 90
        0
 40
15.0
 90
        1
300
%<\AcVar ViewDetailId>% (%<\AcVar ViewScale \f "%sn">%)
 71
     4
340
16
 90
       25
 62
   256
340
16
 90
       25
 62
   256
280
     0
  0
LAYOUT
  5
1E
102
{ACAD_REACTORS
330
1A
102
}
330
1A
100
AcDbPlotSettings
  1

  2
none_device
  4

  6

 40
0.0
 41
0.0
 42
0.0
 43
0.0
 44
0.0
 45
0.0
 46
0.0
 47
0.0
 48
0.0
 49
0.0
140
0.0
141
0.0
142
1.0
143
1.0
 70
   688
 72
     1
 73
     0
 74
     5
  7

 75
    16
147
1.0
 76
     0
 77
     2
 78
   300
148
0.0
149
0.0
100
AcDbLayout
  1
Layout1
 70
     1
 71
     1
 10
0.0
 20
0.0
 11
420.0
 21
297.0
 12
0.0
 22
0.0
 32
0.0
 14
1.000000000000000E+20
 24
1.000000000000000E+20
 34
1.000000000000000E+20
 15
-1.000000000000000E+20
 25
-1.000000000000000E+20
 35
-1.000000000000000E+20
146
0.0
 13
0.0
 23
0.0
 33
0.0
 16
1.0
 26
0.0
 36
0.0
 17
0.0
 27
1.0
 37
0.0
 76
     0
330
1B
  0
LAYOUT
  5
26
102
{ACAD_REACTORS
330
1A
102
}
330
1A
100
AcDbPlotSettings
  1

  2
none_device
  4

  6

 40
0.0
 41
0.0
 42
0.0
 43
0.0
 44
0.0
 45
0.0
 46
0.0
 47
0.0
 48
0.0
 49
0.0
140
0.0
141
0.0
142
1.0
143
1.0
 70
   688
 72
     1
 73
     0
 74
     5
  7

 75
    16
147
1.0
 76
     0
 77
     2
 78
   300
148
0.0
149
0.0
100
AcDbLayout
  1
Layout2
 70
     1
 71
     2
 10
0.0
 20
0.0
 11
0.0
 21
0.0
 12
0.0
 22
0.0
 32
0.0
 14
0.0
 24
0.0
 34
0.0
 15
0.0
 25
0.0
 35
0.0
146
0.0
 13
0.0
 23
0.0
 33
0.0
 16
1.0
 26
0.0
 36
0.0
 17
0.0
 27
1.0
 37
0.0
 76
     0
330
23
  0
LAYOUT
  5
22
102
{ACAD_REACTORS
330
1A
102
}
330
1A
100
AcDbPlotSettings
  1

  2
none_device
  4
Letter_(8.50_x_11.00_Inches)
  6

 40
6.349999999999997
 41
6.349999999999997
 42
6.350005079999997
 43
6.350005079999997
 44
215.9
 45
279.4
 46
0.0
 47
0.0
 48
0.0
 49
0.0
140
0.0
141
0.0
142
1.0
143
1.0
 70
  1712
 72
     1
 73
     0
 74
     0
  7

 75
     0
147
1.0
 76
     0
 77
     2
 78
   300
148
0.0
149
0.0
100
AcDbLayout
  1
Model
 70
     1
 71
     0
 10
0.0
 20
0.0
 11
420.0
 21
297.0
 12
0.0
 22
0.0
 32
0.0
 14
-45.25316535320677
 24
93.29113539721936
 34
0.0
 15
0.1687797052525326
 25
133.2911345722814
 35
0.0
146
0.0
 13
0.0
 23
0.0
 33
0.0
 16
1.0
 26
0.0
 36
0.0
 17
0.0
 27
1.0
 37
0.0
 76
     0
330
1F
331
29
  0
MATERIAL
  5
45
102
{ACAD_REACTORS
330
43
102
}
330
43
100
AcDbMaterial
  1
ByBlock
  0
MATERIAL
  5
44
102
{ACAD_REACTORS
330
43
102
}
330
43
100
AcDbMaterial
  1
ByLayer
  0
MATERIAL
  5
46
102
{ACAD_REACTORS
330
43
102
}
330
43
100
AcDbMaterial
  1
Global
  0
MLEADERSTYLE
  5
6C
102
{ACAD_REACTORS
330
6B
102
}
330
6B
100
AcDbMLeaderStyle
179
     2
170
     2
171
     1
172
     0
 90
        2
 40
0.0
 41
0.0
173
     1
 91
-1056964608
340
14
 92
       -2
290
     1
 42
2.0
291
     1
 43
8.0
  3
Standard
 44
4.0
300

342
11
174
     1
178
     6
175
     1
176
     0
 93
-1056964608
 45
4.0
292
     0
297
     0
 46
4.0
 94
-1056964608
 47
1.0
 49
1.0
140
1.0
293
     1
141
0.0
294
     1
177
     0
142
1.0
295
     0
296
     0
143
3.75
271
     0
272
     9
273
     9
298
     0
  0
MLINESTYLE
  5
18
102
{ACAD_REACTORS
330
17
102
}
330
17
100
AcDbMlineStyle
  2
STANDARD
 70
     0
  3

 62
   256
 51
90.0
 52
90.0
 71
     2
 49
0.5
 62
   256
  6
BYLAYER
 49
-0.5
 62
   256
  6
BYLAYER
  0
ACDBPLACEHOLDER
  5
F
102
{ACAD_REACTORS
330
E
102
}
330
E
  0
SCALE
  5
48
102
{ACAD_REACTORS
330
47
102
}
330
47
100
AcDbScale
 70
     0
300
1:1
140
1.0
141
1.0
290
     1
  0
SCALE
  5
49
102
{ACAD_REACTORS
330
47
102
}
330
47
100
AcDbScale
 70
     0
300
1:2
140
1.0
141
2.0
290
     0
  0
SCALE
  5
4A
102
{ACAD_REACTORS
330
47
102
}
330
47
100
AcDbScale
 70
     0
300
1:4
140
1.0
141
4.0
290
     0
  0
SCALE
  5
4B
102
{ACAD_REACTORS
330
47
102
}
330
47
100
AcDbScale
 70
     0
300
1:5
140
1.0
141
5.0
290
     0
  0
SCALE
  5
4C
102
{ACAD_REACTORS
330
47
102
}
330
47
100
AcDbScale
 70
     0
300
1:8
140
1.0
141
8.0
290
     0
  0
SCALE
  5
4D
102
{ACAD_REACTORS
330
47
102
}
330
47
100
AcDbScale
 70
     0
300
1:10
140
1.0
141
10.0
290
     0
  0
SCALE
  5
4E
102
{ACAD_REACTORS
330
47
102
}
330
47
100
AcDbScale
 70
     0
300
1:16
140
1.0
141
16.0
290
     0
  0
SCALE
  5
4F
102
{ACAD_REACTORS
330
47
102
}
330
47
100
AcDbScale
 70
     0
300
1:20
140
1.0
141
20.0
290
     0
  0
SCALE
  5
50
102
{ACAD_REACTORS
330
47
102
}
330
47
100
AcDbScale
 70
     0
300
1:30
140
1.0
141
30.0
290
     0
  0
SCALE
  5
51
102
{ACAD_REACTORS
330
47
102
}
330
47
100
AcDbScale
 70
     0
300
1:40
140
1.0
141
40.0
290
     0
  0
SCALE
  5
52
102
{ACAD_REACTORS
330
47
102
}
330
47
100
AcDbScale
 70
     0
300
1:50
140
1.0
141
50.0
290
     0
  0
SCALE
  5
53
102
{ACAD_REACTORS
330
47
102
}
330
47
100
AcDbScale
 70
     0
300
1:100
140
1.0
141
100.0
290
     0
  0
SCALE
  5
54
102
{ACAD_REACTORS
330
47
102
}
330
47
100
AcDbScale
 70
     0
300
2:1
140
2.0
141
1.0
290
     0
  0
SCALE
  5
55
102
{ACAD_REACTORS
330
47
102
}
330
47
100
AcDbScale
 70
     0
300
4:1
140
4.0
141
1.0
290
     0
  0
SCALE
  5
56
102
{ACAD_REACTORS
330
47
102
}
330
47
100
AcDbScale
 70
     0
300
8:1
140
8.0
141
1.0
290
     0
  0
SCALE
  5
57
102
{ACAD_REACTORS
330
47
102
}
330
47
100
AcDbScale
 70
     0
300
10:1
140
10.0
141
1.0
290
     0
  0
SCALE
  5
58
102
{ACAD_REACTORS
330
47
102
}
330
47
100
AcDbScale
 70
     0
300
100:1
140
100.0
141
1.0
290
     0
  0
SCALE
  5
59
102
{ACAD_REACTORS
330
47
102
}
330
47
100
AcDbScale
 70
     0
300
1/128" = 1'-0"
140
0.0078125
141
12.0
290
     0
  0
SCALE
  5
5A
102
{ACAD_REACTORS
330
47
102
}
330
47
100
AcDbScale
 70
     0
300
1/64" = 1'-0"
140
0.015625
141
12.0
290
     0
  0
SCALE
  5
5B
102
{ACAD_REACTORS
330
47
102
}
330
47
100
AcDbScale
 70
     0
300
1/32" = 1'-0"
140
0.03125
141
12.0
290
     0
  0
SCALE
  5
5C
102
{ACAD_REACTORS
330
47
102
}
330
47
100
AcDbScale
 70
     0
300
1/16" = 1'-0"
140
0.0625
141
12.0
290
     0
  0
SCALE
  5
5D
102
{ACAD_REACTORS
330
47
102
}
330
47
100
AcDbScale
 70
     0
300
3/32" = 1'-0"
140
0.09375
141
12.0
290
     0
  0
SCALE
  5
5E
102
{ACAD_REACTORS
330
47
102
}
330
47
100
AcDbScale
 70
     0
300
1/8" = 1'-0"
140
0.125
141
12.0
290
     0
  0
SCALE
  5
5F
102
{ACAD_REACTORS
330
47
102
}
330
47
100
AcDbScale
 70
     0
300
3/16" = 1'-0"
140
0.1875
141
12.0
290
     0
  0
SCALE
  5
60
102
{ACAD_REACTORS
330
47
102
}
330
47
100
AcDbScale
 70
     0
300
1/4" = 1'-0"
140
0.25
141
12.0
290
     0
  0
SCALE
  5
61
102
{ACAD_REACTORS
330
47
102
}
330
47
100
AcDbScale
 70
     0
300
3/8" = 1'-0"
140
0.375
141
12.0
290
     0
  0
SCALE
  5
62
102
{ACAD_REACTORS
330
47
102
}
330
47
100
AcDbScale
 70
     0
300
1/2" = 1'-0"
140
0.5
141
12.0
290
     0
  0
SCALE
  5
63
102
{ACAD_REACTORS
330
47
102
}
330
47
100
AcDbScale
 70
     0
300
3/4" = 1'-0"
140
0.75
141
12.0
290
     0
  0
SCALE
  5
64
102
{ACAD_REACTORS
330
47
102
}
330
47
100
AcDbScale
 70
     0
300
1" = 1'-0"
140
1.0
141
12.0
290
     0
  0
SCALE
  5
65
102
{ACAD_REACTORS
330
47
102
}
330
47
100
AcDbScale
 70
     0
300
1-1/2" = 1'-0"
140
1.5
141
12.0
290
     0
  0
SCALE
  5
66
102
{ACAD_REACTORS
330
47
102
}
330
47
100
AcDbScale
 70
     0
300
3" = 1'-0"
140
3.0
141
12.0
290
     0
  0
SCALE
  5
67
102
{ACAD_REACTORS
330
47
102
}
330
47
100
AcDbScale
 70
     0
300
6" = 1'-0"
140
6.0
141
12.0
290
     0
  0
SCALE
  5
68
102
{ACAD_REACTORS
330
47
102
}
330
47
100
AcDbScale
 70
     0
300
1'-0" = 1'-0"
140
12.0
141
12.0
290
     0
  0
ACDBSECTIONVIEWSTYLE
  5
1EAC
102
{ACAD_XDICTIONARY
360
2677
102
}
102
{ACAD_REACTORS
330
10F
102
}
330
10F
100
AcDbModelDocViewStyle
 70
     0
  3
Imperial24
290
     0
100
AcDbSectionViewStyle
 70
     0
 71
     0
 90
       78
 71
     1
340
11
 62
   256
 40
0.24
340
0
340
0
 62
   256
 40
0.24
300
I, O, Q, S, X, Z
 40
0.48
 90
        3
 40
0.18
 90
        1
 71
     2
340
16
 90
       25
 62
   256
340
16
 90
       50
 62
   256
 40
0.24
 40
0.0
 40
0.24
 71
     3
340
11
 62
   256
 40
0.24
 90
        1
 40
0.75
 90
        1
300
%<\AcVar ViewType \f "%tc1">% %<\AcVar ViewSectionStartId>%-%<\AcVar ViewSectionEndId>%\PVARIA %<\AcVar ViewScale \f "%sn">%
 71
     4
 62
   256
 62
   257
300
ANSI31
 40
1.0
 90
        0
290
     0
290
     0
 90
        6
 40
0.0
 40
1.570796326794896
 40
0.2617993877991494
 40
1.308996938995747
 40
-0.2617993877991494
 40
1.832595714594046
  0
ACDBSECTIONVIEWSTYLE
  5
115
102
{ACAD_XDICTIONARY
360
2673
102
}
102
{ACAD_REACTORS
330
10F
102
}
330
10F
100
AcDbModelDocViewStyle
 70
     0
  3
Metric50
290
     0
100
AcDbSectionViewStyle
 70
     0
 71
     0
 90
      102
 71
     1
340
11
 62
   256
 40
5.0
340
0
340
0
 62
   256
 40
5.0
300
I, O, Q, S, X, Z
 40
10.0
 90
        0
 40
2.5
 90
        0
 71
     2
340
16
 90
       25
 62
   256
340
16
 90
       50
 62
   256
 40
5.0
 40
2.5
 40
5.0
 71
     3
340
11
 62
   256
 40
5.0
 90
        0
 40
15.0
 90
        1
300
%<\AcVar ViewSectionStartId>%-%<\AcVar ViewSectionEndId>% (%<\AcVar ViewScale \f "%sn">%)
 71
     4
 62
   256
 62
   257
300
ANSI31
 40
1.0
 90
        0
290
     0
290
     0
 90
        6
 40
0.0
 40
1.570796326794896
 40
0.2617993877991494
 40
1.308996938995747
 40
-0.2617993877991494
 40
1.832595714594044
  0
TABLESTYLE
  5
6A
102
{ACAD_XDICTIONARY
360
109
102
}
102
{ACAD_REACTORS
330
69
102
}
330
69
100
AcDbTableStyle
280
     0
  3
Standard
 70
     0
 71
     0
 40
1.5
 41
1.5
280
     0
281
     0
  7
Standard
140
4.5
170
     2
 62
     0
 63
     7
283
     0
 90
        4
 91
        0
  1

274
    -2
284
     1
 64
     0
275
    -2
285
     1
 65
     0
276
    -2
286
     1
 66
     0
277
    -2
287
     1
 67
     0
278
    -2
288
     1
 68
     0
279
    -2
289
     1
 69
     0
  7
Standard
140
6.0
170
     5
 62
     0
 63
     7
283
     0
 90
        4
 91
        0
  1

274
    -2
284
     1
 64
     0
275
    -2
285
     1
 65
     0
276
    -2
286
     1
 66
     0
277
    -2
287
     1
 67
     0
278
    -2
288
     1
 68
     0
279
    -2
289
     1
 69
     0
  7
Standard
140
4.5
170
     5
 62
     0
 63
     7
283
     0
 90
        4
 91
        0
  1

274
    -2
284
     1
 64
     0
275
    -2
285
     1
 65
     0
276
    -2
286
     1
 66
     0
277
    -2
287
     1
 67
     0
278
    -2
288
     1
 68
     0
279
    -2
289
     1
 69
     0
  0
VISUALSTYLE
  5
2F
102
{ACAD_REACTORS
330
2A
102
}
330
2A
100
AcDbVisualStyle
  2
2dWireframe
 70
     4
177
     3
291
     0
 70
    58
 90
        0
176
     1
 90
        2
176
     1
 90
        0
176
     1
 90
        0
176
     1
 40
0.6
176
     1
 40
30.0
176
     1
 62
     7
420
 16777215
176
     1
 90
        1
176
     1
 90
        4
176
     1
 62
     7
176
     1
 62
   257
176
     1
 90
        1
176
     1
 90
        1
176
     1
 40
1.0
176
     1
 90
        0
176
     1
 62
   257
176
     1
 40
1.0
176
     1
 90
        1
176
     1
 90
        6
176
     1
 90
        2
176
     1
 62
     7
176
     1
 90
        5
176
     1
 90
        0
176
     1
 90
        0
176
     1
290
     0
176
     1
 90
        1
176
     1
 40
0.0
176
     1
 90
        0
176
     1
290
     1
176
     1
290
     1
176
     1
290
     0
176
     1
290
     0
176
     1
290
     0
176
     1
290
     0
176
     1
290
     0
176
     1
290
     0
176
     1
290
     0
176
     1
 90
       50
176
     1
 40
0.0
176
     1
 40
1.0
176
     1
 90
        0
176
     1
 62
    18
176
     1
 90
       50
176
     1
 90
        3
176
     1
 62
     5
420
      255
176
     1
290
     0
176
     1
 90
       50
176
     1
 90
       50
176
     1
 90
       50
176
     1
290
     0
176
     1
 90
       50
176
     1
 62
   256
176
     0
 40
1.0
176
     0
 90
        2
176
     1
  1
strokes_ogs.tif
176
     1
290
     0
176
     1
 40
1.0
176
     1
 40
1.0
176
     1
1001
ACAD
1000
AcDbSavedByObjectVersion
1070
     0
  0
VISUALSTYLE
  5
1EAB
102
{ACAD_REACTORS
330
2A
102
}
330
2A
100
AcDbVisualStyle
  2
3dWireframe
 70
     5
177
     3
291
     0
 70
    58
 90
        0
176
     1
 90
        2
176
     1
 90
        0
176
     1
 90
        0
176
     1
 40
0.6
176
     1
 40
30.0
176
     1
 62
     7
420
 16777215
176
     1
 90
        1
176
     1
 90
        4
176
     1
 62
     7
176
     1
 62
   257
176
     1
 90
        1
176
     1
 90
        1
176
     1
 40
1.0
176
     1
 90
        0
176
     1
 62
   257
176
     1
 40
1.0
176
     1
 90
        1
176
     1
 90
        6
176
     1
 90
        2
176
     1
 62
     7
176
     1
 90
        5
176
     1
 90
        0
176
     1
 90
        0
176
     1
290
     0
176
     1
 90
        1
176
     1
 40
0.0
176
     1
 90
        0
176
     1
290
     0
176
     1
290
     1
176
     1
290
     1
176
     1
290
     0
176
     1
290
     0
176
     1
290
     0
176
     1
290
     0
176
     1
290
     0
176
     1
290
     0
176
     1
 90
       50
176
     1
 40
0.0
176
     1
 40
1.0
176
     1
 90
        0
176
     1
 62
    18
420
        0
176
     1
 90
       50
176
     1
 90
        3
176
     1
 62
     5
420
      255
176
     1
290
     0
176
     1
 90
       50
176
     1
 90
       50
176
     1
 90
       50
176
     1
290
     0
176
     1
 90
       50
176
     1
 62
   256
176
     0
 40
1.0
176
     0
 90
        2
176
     1
  1
strokes_ogs.tif
176
     1
290
     0
176
     1
 40
1.0
176
     1
 40
1.0
176
     1
1001
ACAD
1000
AcDbSavedByObjectVersion
1070
     0
  0
VISUALSTYLE
  5
32
102
{ACAD_REACTORS
330
2A
102
}
330
2A
100
AcDbVisualStyle
  2
Basic
 70
     7
177
     3
291
     1
 70
    58
 90
        1
176
     1
 90
        0
176
     1
 90
        1
176
     1
 90
        0
176
     1
 40
0.6
176
     1
 40
30.0
176
     1
 62
     7
420
 16777215
176
     1
 90
        0
176
     1
 90
        4
176
     1
 62
     7
176
     1
 62
   257
176
     1
 90
        1
176
     1
 90
        1
176
     1
 40
1.0
176
     1
 90
        8
176
     1
 62
     7
176
     1
 40
1.0
176
     1
 90
        1
176
     1
 90
        6
176
     1
 90
        2
176
     1
 62
     7
176
     1
 90
        5
176
     1
 90
        0
176
     1
 90
        0
176
     1
290
     0
176
     1
 90
        1
176
     1
 40
0.0
176
     1
 90
        0
176
     1
290
     0
176
     1
290
     1
176
     1
290
     1
176
     1
290
     0
176
     1
290
     0
176
     1
290
     0
176
     1
290
     0
176
     1
290
     0
176
     1
290
     0
176
     1
 90
       50
176
     1
 40
0.0
176
     1
 40
1.0
176
     1
 90
        0
176
     1
 62
    18
176
     1
 90
       50
176
     1
 90
        3
176
     1
 62
     5
420
      255
176
     1
290
     0
176
     1
 90
       50
176
     1
 90
       50
176
     1
 90
       50
176
     1
290
     0
176
     1
 90
       50
176
     1
 62
   256
176
     0
 40
1.0
176
     0
 90
        2
176
     1
  1
strokes_ogs.tif
176
     1
290
     0
176
     1
 40
1.0
176
     1
 40
1.0
176
     1
1001
ACAD
1000
AcDbSavedByObjectVersion
1070
     0
  0
VISUALSTYLE
  5
36
102
{ACAD_REACTORS
330
2A
102
}
330
2A
100
AcDbVisualStyle
  2
Brighten
 70
    12
177
     3
291
     1
 70
    58
 90
        2
176
     1
 90
        2
176
     1
 90
        0
176
     1
 90
        0
176
     1
 40
0.6
176
     1
 40
30.0
176
     1
 62
     7
420
 16777215
176
     1
 90
        1
176
     1
 90
        4
176
     1
 62
     7
176
     1
 62
   257
176
     1
 90
        1
176
     1
 90
        1
176
     1
 40
1.0
176
     1
 90
        8
176
     1
 62
     7
176
     1
 40
1.0
176
     1
 90
        1
176
     1
 90
        6
176
     1
 90
        2
176
     1
 62
     7
176
     1
 90
        5
176
     1
 90
        0
176
     1
 90
        0
176
     1
290
     0
176
     1
 90
        1
176
     1
 40
50.0
176
     1
 90
        0
176
     1
290
     0
176
     1
290
     1
176
     1
290
     1
176
     1
290
     0
176
     1
290
     0
176
     1
290
     0
176
     1
290
     0
176
     1
290
     0
176
     1
290
     0
176
     1
 90
       50
176
     1
 40
0.0
176
     1
 40
1.0
176
     1
 90
        0
176
     1
 62
    18
176
     1
 90
       50
176
     1
 90
        3
176
     1
 62
     5
420
      255
176
     1
290
     0
176
     1
 90
       50
176
     1
 90
       50
176
     1
 90
       50
176
     1
290
     0
176
     1
 90
       50
176
     1
 62
   256
176
     0
 40
1.0
176
     0
 90
        2
176
     1
  1
strokes_ogs.tif
176
     1
290
     0
176
     1
 40
1.0
176
     1
 40
1.0
176
     1
1001
ACAD
1000
AcDbSavedByObjectVersion
1070
     0
  0
VISUALSTYLE
  5
3A
102
{ACAD_REACTORS
330
2A
102
}
330
2A
100
AcDbVisualStyle
  2
ColorChange
 70
    16
177
     3
291
     1
 70
    58
 90
        2
176
     1
 90
        2
176
     1
 90
        3
176
     1
 90
        0
176
     1
 40
0.6
176
     1
 40
30.0
176
     1
 62
     8
420
  8421504
176
     1
 90
        1
176
     1
 90
        4
176
     1
 62
     7
176
     1
 62
   257
176
     1
 90
        1
176
     1
 90
        1
176
     1
 40
1.0
176
     1
 90
        8
176
     1
 62
     8
420
  8421504
176
     1
 40
1.0
176
     1
 90
        1
176
     1
 90
        6
176
     1
 90
        2
176
     1
 62
     7
176
     1
 90
        5
176
     1
 90
        0
176
     1
 90
        0
176
     1
290
     0
176
     1
 90
        1
176
     1
 40
0.0
176
     1
 90
        0
176
     1
290
     0
176
     1
290
     1
176
     1
290
     1
176
     1
290
     0
176
     1
290
     0
176
     1
290
     0
176
     1
290
     0
176
     1
290
     0
176
     1
290
     0
176
     1
 90
       50
176
     1
 40
0.0
176
     1
 40
1.0
176
     1
 90
        0
176
     1
 62
    18
176
     1
 90
       50
176
     1
 90
        3
176
     1
 62
     5
420
      255
176
     1
290
     0
176
     1
 90
       50
176
     1
 90
       50
176
     1
 90
       50
176
     1
290
     0
176
     1
 90
       50
176
     1
 62
   256
176
     0
 40
1.0
176
     0
 90
        2
176
     1
  1
strokes_ogs.tif
176
     1
290
     0
176
     1
 40
1.0
176
     1
 40
1.0
176
     1
1001
ACAD
1000
AcDbSavedByObjectVersion
1070
     0
  0
VISUALSTYLE
  5
34
102
{ACAD_REACTORS
330
2A
102
}
330
2A
100
AcDbVisualStyle
  2
Conceptual
 70
     9
177
     3
291
     0
 70
    58
 90
        3
176
     1
 90
        2
176
     1
 90
        0
176
     1
 90
        0
176
     1
 40
0.6
176
     1
 40
30.0
176
     1
 62
     7
420
 16777215
176
     1
 90
        2
176
     1
 90
        2
176
     1
 62
     7
176
     1
 62
   257
176
     1
 90
        1
176
     1
 90
        1
176
     1
 40
179.0
176
     1
 90
        8
176
     1
 62
     7
176
     1
 40
1.0
176
     1
 90
        1
176
     1
 90
        6
176
     1
 90
        2
176
     1
 62
     7
176
     1
 90
        3
176
     1
 90
        0
176
     1
 90
        0
176
     1
290
     0
176
     1
 90
        1
176
     1
 40
0.0
176
     1
 90
        0
176
     1
290
     0
176
     1
290
     1
176
     1
290
     1
176
     1
290
     0
176
     1
290
     0
176
     1
290
     0
176
     1
290
     0
176
     1
290
     0
176
     1
290
     0
176
     1
 90
       50
176
     1
 40
0.0
176
     1
 40
1.0
176
     1
 90
        0
176
     1
 62
    18
176
     1
 90
       50
176
     1
 90
        3
176
     1
 62
     5
420
      255
176
     1
290
     0
176
     1
 90
       50
176
     1
 90
       50
176
     1
 90
       50
176
     1
290
     0
176
     1
 90
       50
176
     1
 62
   256
176
     0
 40
1.0
176
     0
 90
        2
176
     1
  1
strokes_ogs.tif
176
     1
290
     0
176
     1
 40
1.0
176
     1
 40
1.0
176
     1
1001
ACAD
1000
AcDbSavedByObjectVersion
1070
     0
  0
VISUALSTYLE
  5
35
102
{ACAD_REACTORS
330
2A
102
}
330
2A
100
AcDbVisualStyle
  2
Dim
 70
    11
177
     3
291
     1
 70
    58
 90
        2
176
     1
 90
        2
176
     1
 90
        0
176
     1
 90
        0
176
     1
 40
0.6
176
     1
 40
30.0
176
     1
 62
     7
420
 16777215
176
     1
 90
        1
176
     1
 90
        4
176
     1
 62
     7
176
     1
 62
   257
176
     1
 90
        1
176
     1
 90
        1
176
     1
 40
1.0
176
     1
 90
        8
176
     1
 62
     7
176
     1
 40
1.0
176
     1
 90
        1
176
     1
 90
        6
176
     1
 90
        2
176
     1
 62
     7
176
     1
 90
        5
176
     1
 90
        0
176
     1
 90
        0
176
     1
290
     0
176
     1
 90
        1
176
     1
 40
-50.0
176
     1
 90
        0
176
     1
290
     0
176
     1
290
     1
176
     1
290
     1
176
     1
290
     0
176
     1
290
     0
176
     1
290
     0
176
     1
290
     0
176
     1
290
     0
176
     1
290
     0
176
     1
 90
       50
176
     1
 40
0.0
176
     1
 40
1.0
176
     1
 90
        0
176
     1
 62
    18
176
     1
 90
       50
176
     1
 90
        3
176
     1
 62
     5
420
      255
176
     1
290
     0
176
     1
 90
       50
176
     1
 90
       50
176
     1
 90
       50
176
     1
290
     0
176
     1
 90
       50
176
     1
 62
   256
176
     0
 40
1.0
176
     0
 90
        2
176
     1
  1
strokes_ogs.tif
176
     1
290
     0
176
     1
 40
1.0
176
     1
 40
1.0
176
     1
1001
ACAD
1000
AcDbSavedByObjectVersion
1070
     0
  0
VISUALSTYLE
  5
3D
102
{ACAD_REACTORS
330
2A
102
}
330
2A
100
AcDbVisualStyle
  2
EdgeColorOff
 70
    22
177
     3
291
     1
 70
    58
 90
        2
176
     0
 90
        2
176
     0
 90
        0
176
     0
 90
        0
176
     0
 40
0.6
176
     0
 40
30.0
176
     0
 62
     7
420
 16777215
176
     0
 90
        1
176
     0
 90
        4
176
     0
 62
     7
176
     0
 62
   257
176
     0
 90
        1
176
     0
 90
        1
176
     0
 40
1.0
176
     0
 90
        8
176
     2
 62
     7
176
     0
 40
1.0
176
     0
 90
        1
176
     0
 90
        6
176
     0
 90
        2
176
     0
 62
     7
176
     0
 90
        5
176
     0
 90
        0
176
     0
 90
        0
176
     0
290
     0
176
     0
 90
        1
176
     0
 40
0.0
176
     0
 90
        0
176
     0
290
     0
176
     0
290
     1
176
     0
290
     1
176
     0
290
     0
176
     0
290
     0
176
     0
290
     0
176
     0
290
     0
176
     0
290
     0
176
     0
290
     0
176
     0
 90
       50
176
     0
 40
0.0
176
     0
 40
1.0
176
     0
 90
        0
176
     0
 62
    18
176
     0
 90
       50
176
     0
 90
        3
176
     0
 62
     5
420
      255
176
     0
290
     0
176
     0
 90
       50
176
     0
 90
       50
176
     0
 90
       50
176
     0
290
     0
176
     0
 90
       50
176
     0
 62
   256
176
     0
 40
1.0
176
     0
 90
        2
176
     0
  1
strokes_ogs.tif
176
     0
290
     0
176
     0
 40
1.0
176
     0
 40
1.0
176
     0
1001
ACAD
1000
AcDbSavedByObjectVersion
1070
     0
  0
VISUALSTYLE
  5
39
102
{ACAD_REACTORS
330
2A
102
}
330
2A
100
AcDbVisualStyle
  2
Facepattern
 70
    15
177
     3
291
     1
 70
    58
 90
        2
176
     1
 90
        2
176
     1
 90
        0
176
     1
 90
        0
176
     1
 40
0.6
176
     1
 40
30.0
176
     1
 62
     7
420
 16777215
176
     1
 90
        1
176
     1
 90
        4
176
     1
 62
     7
176
     1
 62
   257
176
     1
 90
        1
176
     1
 90
        1
176
     1
 40
1.0
176
     1
 90
        8
176
     1
 62
     7
176
     1
 40
1.0
176
     1
 90
        1
176
     1
 90
        6
176
     1
 90
        2
176
     1
 62
     7
176
     1
 90
        5
176
     1
 90
        0
176
     1
 90
        0
176
     1
290
     0
176
     1
 90
        1
176
     1
 40
0.0
176
     1
 90
        0
176
     1
290
     0
176
     1
290
     1
176
     1
290
     1
176
     1
290
     0
176
     1
290
     0
176
     1
290
     0
176
     1
290
     0
176
     1
290
     0
176
     1
290
     0
176
     1
 90
       50
176
     1
 40
0.0
176
     1
 40
1.0
176
     1
 90
        0
176
     1
 62
    18
176
     1
 90
       50
176
     1
 90
        3
176
     1
 62
     5
420
      255
176
     1
290
     0
176
     1
 90
       50
176
     1
 90
       50
176
     1
 90
       50
176
     1
290
     0
176
     1
 90
       50
176
     1
 62
   256
176
     0
 40
1.0
176
     0
 90
        2
176
     1
  1
strokes_ogs.tif
176
     1
290
     0
176
     1
 40
1.0
176
     1
 40
1.0
176
     1
1001
ACAD
1000
AcDbSavedByObjectVersion
1070
     0
  0
VISUALSTYLE
  5
2B
102
{ACAD_REACTORS
330
2A
102
}
330
2A
100
AcDbVisualStyle
  2
Flat
 70
     0
177
     3
291
     1
 70
    58
 90
        2
176
     1
 90
        1
176
     1
 90
        1
176
     1
 90
        2
176
     1
 40
0.6
176
     1
 40
30.0
176
     1
 62
     7
420
 16777215
176
     1
 90
        0
176
     1
 90
        0
176
     1
 62
     7
176
     1
 62
   257
176
     1
 90
        1
176
     1
 90
        1
176
     1
 40
1.0
176
     1
 90
        8
176
     1
 62
     7
176
     1
 40
1.0
176
     1
 90
        1
176
     1
 90
        6
176
     1
 90
        2
176
     1
 62
     7
176
     1
 90
        5
176
     1
 90
        0
176
     1
 90
        0
176
     1
290
     0
176
     1
 90
       13
176
     1
 40
0.0
176
     1
 90
        0
176
     1
290
     0
176
     1
290
     1
176
     1
290
     1
176
     1
290
     0
176
     1
290
     0
176
     1
290
     0
176
     1
290
     0
176
     1
290
     0
176
     1
290
     0
176
     1
 90
       50
176
     1
 40
0.0
176
     1
 40
1.0
176
     1
 90
        0
176
     1
 62
    18
176
     1
 90
       50
176
     1
 90
        3
176
     1
 62
     5
420
      255
176
     1
290
     0
176
     1
 90
       50
176
     1
 90
       50
176
     1
 90
       50
176
     1
290
     0
176
     1
 90
       50
176
     1
 62
   256
176
     0
 40
1.0
176
     0
 90
        2
176
     1
  1
strokes_ogs.tif
176
     1
290
     0
176
     1
 40
1.0
176
     1
 40
1.0
176
     1
1001
ACAD
1000
AcDbSavedByObjectVersion
1070
     0
  0
VISUALSTYLE
  5
2C
102
{ACAD_REACTORS
330
2A
102
}
330
2A
100
AcDbVisualStyle
  2
FlatWithEdges
 70
     1
177
     3
291
     1
 70
    58
 90
        2
176
     1
 90
        1
176
     1
 90
        1
176
     1
 90
        2
176
     1
 40
0.6
176
     1
 40
30.0
176
     1
 62
     7
420
 16777215
176
     1
 90
        1
176
     1
 90
        0
176
     1
 62
     7
176
     1
 62
   257
176
     1
 90
        1
176
     1
 90
        1
176
     1
 40
1.0
176
     1
 90
        0
176
     1
 62
   257
176
     1
 40
1.0
176
     1
 90
        1
176
     1
 90
        6
176
     1
 90
        2
176
     1
 62
     7
176
     1
 90
        5
176
     1
 90
        0
176
     1
 90
        0
176
     1
290
     0
176
     1
 90
       13
176
     1
 40
0.0
176
     1
 90
        0
176
     1
290
     0
176
     1
290
     1
176
     1
290
     1
176
     1
290
     0
176
     1
290
     0
176
     1
290
     0
176
     1
290
     0
176
     1
290
     0
176
     1
290
     0
176
     1
 90
       50
176
     1
 40
0.0
176
     1
 40
1.0
176
     1
 90
        0
176
     1
 62
    18
176
     1
 90
       50
176
     1
 90
        3
176
     1
 62
     5
420
      255
176
     1
290
     0
176
     1
 90
       50
176
     1
 90
       50
176
     1
 90
       50
176
     1
290
     0
176
     1
 90
       50
176
     1
 62
   256
176
     0
 40
1.0
176
     0
 90
        2
176
     1
  1
strokes_ogs.tif
176
     1
290
     0
176
     1
 40
1.0
176
     1
 40
1.0
176
     1
1001
ACAD
1000
AcDbSavedByObjectVersion
1070
     0
  0
VISUALSTYLE
  5
2D
102
{ACAD_REACTORS
330
2A
102
}
330
2A
100
AcDbVisualStyle
  2
Gouraud
 70
     2
177
     3
291
     1
 70
    58
 90
        2
176
     1
 90
        2
176
     1
 90
        1
176
     1
 90
        2
176
     1
 40
0.6
176
     1
 40
30.0
176
     1
 62
     7
420
 16777215
176
     1
 90
        0
176
     1
 90
        0
176
     1
 62
     7
176
     1
 62
   257
176
     1
 90
        1
176
     1
 90
        1
176
     1
 40
1.0
176
     1
 90
        0
176
     1
 62
     7
176
     1
 40
1.0
176
     1
 90
        1
176
     1
 90
        6
176
     1
 90
        2
176
     1
 62
     7
176
     1
 90
        5
176
     1
 90
        0
176
     1
 90
        0
176
     1
290
     0
176
     1
 90
       13
176
     1
 40
0.0
176
     1
 90
        0
176
     1
290
     0
176
     1
290
     1
176
     1
290
     1
176
     1
290
     0
176
     1
290
     0
176
     1
290
     0
176
     1
290
     0
176
     1
290
     0
176
     1
290
     0
176
     1
 90
       50
176
     1
 40
0.0
176
     1
 40
1.0
176
     1
 90
        0
176
     1
 62
    18
176
     1
 90
       50
176
     1
 90
        3
176
     1
 62
     5
420
      255
176
     1
290
     0
176
     1
 90
       50
176
     1
 90
       50
176
     1
 90
       50
176
     1
290
     0
176
     1
 90
       50
176
     1
 62
   256
176
     0
 40
1.0
176
     0
 90
        2
176
     1
  1
strokes_ogs.tif
176
     1
290
     0
176
     1
 40
1.0
176
     1
 40
1.0
176
     1
1001
ACAD
1000
AcDbSavedByObjectVersion
1070
     0
  0
VISUALSTYLE
  5
2E
102
{ACAD_REACTORS
330
2A
102
}
330
2A
100
AcDbVisualStyle
  2
GouraudWithEdges
 70
     3
177
     3
291
     1
 70
    58
 90
        2
176
     1
 90
        2
176
     1
 90
        1
176
     1
 90
        2
176
     1
 40
0.6
176
     1
 40
30.0
176
     1
 62
     7
420
 16777215
176
     1
 90
        1
176
     1
 90
        0
176
     1
 62
     7
176
     1
 62
   257
176
     1
 90
        1
176
     1
 90
        1
176
     1
 40
1.0
176
     1
 90
        0
176
     1
 62
   257
176
     1
 40
1.0
176
     1
 90
        1
176
     1
 90
        6
176
     1
 90
        2
176
     1
 62
     7
176
     1
 90
        5
176
     1
 90
        0
176
     1
 90
        0
176
     1
290
     0
176
     1
 90
       13
176
     1
 40
0.0
176
     1
 90
        0
176
     1
290
     0
176
     1
290
     1
176
     1
290
     1
176
     1
290
     0
176
     1
290
     0
176
     1
290
     0
176
     1
290
     0
176
     1
290
     0
176
     1
290
     0
176
     1
 90
       50
176
     1
 40
0.0
176
     1
 40
1.0
176
     1
 90
        0
176
     1
 62
    18
176
     1
 90
       50
176
     1
 90
        3
176
     1
 62
     5
420
      255
176
     1
290
     0
176
     1
 90
       50
176
     1
 90
       50
176
     1
 90
       50
176
     1
290
     0
176
     1
 90
       50
176
     1
 62
   256
176
     0
 40
1.0
176
     0
 90
        2
176
     1
  1
strokes_ogs.tif
176
     1
290
     0
176
     1
 40
1.0
176
     1
 40
1.0
176
     1
1001
ACAD
1000
AcDbSavedByObjectVersion
1070
     0
  0
VISUALSTYLE
  5
31
102
{ACAD_REACTORS
330
2A
102
}
330
2A
100
AcDbVisualStyle
  2
Hidden
 70
     6
177
     3
291
     0
 70
    58
 90
        1
176
     1
 90
        2
176
     1
 90
        2
176
     1
 90
        0
176
     1
 40
0.6
176
     1
 40
30.0
176
     1
 62
     7
420
 16777215
176
     1
 90
        2
176
     1
 90
        2
176
     1
 62
     7
176
     1
 62
   257
176
     1
 90
        2
176
     1
 90
        1
176
     1
 40
40.0
176
     1
 90
        0
176
     1
 62
   257
176
     1
 40
1.0
176
     1
 90
        1
176
     1
 90
        6
176
     1
 90
        2
176
     1
 62
     7
176
     1
 90
        3
176
     1
 90
        0
176
     1
 90
        0
176
     1
290
     0
176
     1
 90
        1
176
     1
 40
0.0
176
     1
 90
        0
176
     1
290
     0
176
     1
290
     1
176
     1
290
     1
176
     1
290
     0
176
     1
290
     0
176
     1
290
     0
176
     1
290
     0
176
     1
290
     0
176
     1
290
     0
176
     1
 90
       50
176
     1
 40
0.0
176
     1
 40
1.0
176
     1
 90
        0
176
     1
 62
    18
176
     1
 90
       50
176
     1
 90
        3
176
     1
 62
     5
420
      255
176
     1
290
     0
176
     1
 90
       50
176
     1
 90
       50
176
     1
 90
       50
176
     1
290
     0
176
     1
 90
       50
176
     1
 62
   256
176
     0
 40
1.0
176
     0
 90
        2
176
     1
  1
strokes_ogs.tif
176
     1
290
     0
176
     1
 40
1.0
176
     1
 40
1.0
176
     1
1001
ACAD
1000
AcDbSavedByObjectVersion
1070
     0
  0
VISUALSTYLE
  5
3B
102
{ACAD_REACTORS
330
2A
102
}
330
2A
100
AcDbVisualStyle
  2
JitterOff
 70
    20
177
     3
291
     1
 70
    58
 90
        2
176
     0
 90
        2
176
     0
 90
        0
176
     0
 90
        0
176
     0
 40
0.6
176
     0
 40
30.0
176
     0
 62
     7
420
 16777215
176
     0
 90
        1
176
     0
 90
        4
176
     0
 62
     7
176
     0
 62
   257
176
     0
 90
        1
176
     0
 90
        1
176
     0
 40
1.0
176
     0
 90
       10
176
     2
 62
     7
176
     0
 40
1.0
176
     0
 90
        1
176
     0
 90
        6
176
     0
 90
        2
176
     0
 62
     7
176
     0
 90
        5
176
     0
 90
        0
176
     0
 90
        0
176
     0
290
     0
176
     0
 90
        1
176
     0
 40
0.0
176
     0
 90
        0
176
     0
290
     0
176
     0
290
     1
176
     0
290
     1
176
     0
290
     0
176
     0
290
     0
176
     0
290
     0
176
     0
290
     0
176
     0
290
     0
176
     0
290
     0
176
     0
 90
       50
176
     0
 40
0.0
176
     0
 40
1.0
176
     0
 90
        0
176
     0
 62
    18
176
     0
 90
       50
176
     0
 90
        3
176
     0
 62
     5
420
      255
176
     0
290
     0
176
     0
 90
       50
176
     0
 90
       50
176
     0
 90
       50
176
     0
290
     0
176
     0
 90
       50
176
     0
 62
   256
176
     0
 40
1.0
176
     0
 90
        2
176
     0
  1
strokes_ogs.tif
176
     0
290
     0
176
     0
 40
1.0
176
     0
 40
1.0
176
     0
1001
ACAD
1000
AcDbSavedByObjectVersion
1070
     0
  0
VISUALSTYLE
  5
38
102
{ACAD_REACTORS
330
2A
102
}
330
2A
100
AcDbVisualStyle
  2
Linepattern
 70
    14
177
     3
291
     1
 70
    58
 90
        2
176
     1
 90
        2
176
     1
 90
        0
176
     1
 90
        0
176
     1
 40
0.6
176
     1
 40
30.0
176
     1
 62
     7
420
 16777215
176
     1
 90
        1
176
     1
 90
        4
176
     1
 62
     7
176
     1
 62
   257
176
     1
 90
        7
176
     1
 90
        7
176
     1
 40
1.0
176
     1
 90
        8
176
     1
 62
     7
176
     1
 40
1.0
176
     1
 90
        1
176
     1
 90
        6
176
     1
 90
        2
176
     1
 62
     7
176
     1
 90
        5
176
     1
 90
        0
176
     1
 90
        0
176
     1
290
     0
176
     1
 90
        1
176
     1
 40
0.0
176
     1
 90
        0
176
     1
290
     0
176
     1
290
     1
176
     1
290
     1
176
     1
290
     0
176
     1
290
     0
176
     1
290
     0
176
     1
290
     0
176
     1
290
     0
176
     1
290
     0
176
     1
 90
       50
176
     1
 40
0.0
176
     1
 40
1.0
176
     1
 90
        0
176
     1
 62
    18
176
     1
 90
       50
176
     1
 90
        3
176
     1
 62
     5
420
      255
176
     1
290
     0
176
     1
 90
       50
176
     1
 90
       50
176
     1
 90
       50
176
     1
290
     0
176
     1
 90
       50
176
     1
 62
   256
176
     0
 40
1.0
176
     0
 90
        2
176
     1
  1
strokes_ogs.tif
176
     1
290
     0
176
     1
 40
1.0
176
     1
 40
1.0
176
     1
1001
ACAD
1000
AcDbSavedByObjectVersion
1070
     0
  0
VISUALSTYLE
  5
3C
102
{ACAD_REACTORS
330
2A
102
}
330
2A
100
AcDbVisualStyle
  2
OverhangOff
 70
    21
177
     3
291
     1
 70
    58
 90
        2
176
     0
 90
        2
176
     0
 90
        0
176
     0
 90
        0
176
     0
 40
0.6
176
     0
 40
30.0
176
     0
 62
     7
420
 16777215
176
     0
 90
        1
176
     0
 90
        4
176
     0
 62
     7
176
     0
 62
   257
176
     0
 90
        1
176
     0
 90
        1
176
     0
 40
1.0
176
     0
 90
        9
176
     2
 62
     7
176
     0
 40
1.0
176
     0
 90
        1
176
     0
 90
        6
176
     0
 90
        2
176
     0
 62
     7
176
     0
 90
        5
176
     0
 90
        0
176
     0
 90
        0
176
     0
290
     0
176
     0
 90
        1
176
     0
 40
0.0
176
     0
 90
        0
176
     0
290
     0
176
     0
290
     1
176
     0
290
     1
176
     0
290
     0
176
     0
290
     0
176
     0
290
     0
176
     0
290
     0
176
     0
290
     0
176
     0
290
     0
176
     0
 90
       50
176
     0
 40
0.0
176
     0
 40
1.0
176
     0
 90
        0
176
     0
 62
    18
176
     0
 90
       50
176
     0
 90
        3
176
     0
 62
     5
420
      255
176
     0
290
     0
176
     0
 90
       50
176
     0
 90
       50
176
     0
 90
       50
176
     0
290
     0
176
     0
 90
       50
176
     0
 62
   256
176
     0
 40
1.0
176
     0
 90
        2
176
     0
  1
strokes_ogs.tif
176
     0
290
     0
176
     0
 40
1.0
176
     0
 40
1.0
176
     0
1001
ACAD
1000
AcDbSavedByObjectVersion
1070
     0
  0
VISUALSTYLE
  5
33
102
{ACAD_REACTORS
330
2A
102
}
330
2A
100
AcDbVisualStyle
  2
Realistic
 70
     8
177
     3
291
     0
 70
    58
 90
        2
176
     1
 90
        3
176
     1
 90
        0
176
     1
 90
        2
176
     1
 40
0.6
176
     1
 40
30.0
176
     1
 62
     7
420
 16777215
176
     1
 90
        0
176
     1
 90
        0
176
     1
 62
     7
176
     1
 62
   257
176
     1
 90
        1
176
     1
 90
        1
176
     1
 40
1.0
176
     1
 90
        8
176
     1
 62
   257
176
     1
 40
1.0
176
     1
 90
        1
176
     1
 90
        6
176
     1
 90
        2
176
     1
 62
     7
176
     1
 90
        3
176
     1
 90
        0
176
     1
 90
        0
176
     1
290
     0
176
     1
 90
       13
176
     1
 40
0.0
176
     1
 90
        0
176
     1
290
     0
176
     1
290
     1
176
     1
290
     1
176
     1
290
     0
176
     1
290
     0
176
     1
290
     0
176
     1
290
     0
176
     1
290
     0
176
     1
290
     0
176
     1
 90
       50
176
     1
 40
0.0
176
     1
 40
1.0
176
     1
 90
        0
176
     1
 62
    18
176
     1
 90
       50
176
     1
 90
        3
176
     1
 62
     5
420
      255
176
     1
290
     0
176
     1
 90
       50
176
     1
 90
       50
176
     1
 90
       50
176
     1
290
     0
176
     1
 90
       50
176
     1
 62
   256
176
     0
 40
1.0
176
     0
 90
        2
176
     1
  1
strokes_ogs.tif
176
     1
290
     0
176
     1
 40
1.0
176
     1
 40
1.0
176
     1
1001
ACAD
1000
AcDbSavedByObjectVersion
1070
     0
  0
VISUALSTYLE
  5
42
102
{ACAD_REACTORS
330
2A
102
}
330
2A
100
AcDbVisualStyle
  2
Shaded
 70
    27
177
     3
291
     0
 70
    58
 90
        2
176
     1
 90
        2
176
     1
 90
        1
176
     1
 90
        2
176
     1
 40
0.6
176
     1
 40
30.0
176
     1
 62
     7
420
 16777215
176
     1
 90
        0
176
     1
 90
        4
176
     1
 62
     7
176
     1
 62
   257
176
     1
 90
        1
176
     1
 90
        1
176
     1
 40
1.0
176
     1
 90
        8
176
     1
 62
   257
176
     1
 40
1.0
176
     1
 90
        1
176
     1
 90
        6
176
     1
 90
        2
176
     1
 62
     8
420
  7895160
176
     1
 90
        3
176
     1
 90
        0
176
     1
 90
        0
176
     1
290
     0
176
     1
 90
        5
176
     1
 40
0.0
176
     1
 90
        0
176
     1
290
     0
176
     1
290
     1
176
     1
290
     1
176
     1
290
     0
176
     1
290
     0
176
     1
290
     0
176
     1
290
     0
176
     1
290
     0
176
     1
290
     0
176
     1
 90
       50
176
     1
 40
0.0
176
     1
 40
1.0
176
     1
 90
        0
176
     1
 62
    18
176
     1
 90
       50
176
     1
 90
        3
176
     1
 62
     5
420
      255
176
     1
290
     0
176
     1
 90
       50
176
     1
 90
       50
176
     1
 90
       50
176
     1
290
     0
176
     1
 90
       50
176
     1
 62
   256
176
     0
 40
1.0
176
     0
 90
        2
176
     1
  1
strokes_ogs.tif
176
     1
290
     0
176
     1
 40
1.0
176
     1
 40
1.0
176
     1
1001
ACAD
1000
AcDbSavedByObjectVersion
1070
     0
  0
VISUALSTYLE
  5
41
102
{ACAD_REACTORS
330
2A
102
}
330
2A
100
AcDbVisualStyle
  2
Shaded with edges
 70
    26
177
     3
291
     0
 70
    58
 90
        2
176
     1
 90
        2
176
     1
 90
        1
176
     1
 90
        2
176
     1
 40
0.6
176
     1
 40
30.0
176
     1
 62
     7
420
 16777215
176
     1
 90
        1
176
     1
 90
       10
176
     1
 62
     7
176
     1
 62
   257
176
     1
 90
        2
176
     1
 90
        1
176
     1
 40
1.0
176
     1
 90
        8
176
     1
 62
   257
176
     1
 40
1.0
176
     1
 90
        1
176
     1
 90
        6
176
     1
 90
        2
176
     1
 62
     7
176
     1
 90
        3
176
     1
 90
        0
176
     1
 90
        0
176
     1
290
     0
176
     1
 90
        5
176
     1
 40
0.0
176
     1
 90
        0
176
     1
290
     0
176
     1
290
     1
176
     1
290
     1
176
     1
290
     0
176
     1
290
     0
176
     1
290
     0
176
     1
290
     0
176
     1
290
     0
176
     1
290
     0
176
     1
 90
       50
176
     1
 40
0.0
176
     1
 40
1.0
176
     1
 90
        0
176
     1
 62
    18
176
     1
 90
       50
176
     1
 90
        3
176
     1
 62
     5
420
      255
176
     1
290
     0
176
     1
 90
       50
176
     1
 90
       50
176
     1
 90
       50
176
     1
290
     0
176
     1
 90
       50
176
     1
 62
   256
176
     0
 40
1.0
176
     0
 90
        2
176
     1
  1
strokes_ogs.tif
176
     1
290
     0
176
     1
 40
1.0
176
     1
 40
1.0
176
     1
1001
ACAD
1000
AcDbSavedByObjectVersion
1070
     0
  0
VISUALSTYLE
  5
3E
102
{ACAD_REACTORS
330
2A
102
}
330
2A
100
AcDbVisualStyle
  2
Shades of Gray
 70
    23
177
     3
291
     0
 70
    58
 90
        2
176
     1
 90
        2
176
     1
 90
        3
176
     1
 90
        0
176
     1
 40
0.6
176
     1
 40
30.0
176
     1
 62
     7
420
 16777215
176
     1
 90
        2
176
     1
 90
        2
176
     1
 62
     7
176
     1
 62
     7
176
     1
 90
        1
176
     1
 90
        1
176
     1
 40
40.0
176
     1
 90
        8
176
     1
 62
     7
176
     1
 40
1.0
176
     1
 90
        1
176
     1
 90
        6
176
     1
 90
        2
176
     1
 62
     7
176
     1
 90
        3
176
     1
 90
        0
176
     1
 90
        0
176
     1
290
     0
176
     1
 90
        1
176
     1
 40
0.0
176
     1
 90
        0
176
     1
290
     0
176
     1
290
     1
176
     1
290
     1
176
     1
290
     0
176
     1
290
     0
176
     1
290
     0
176
     1
290
     0
176
     1
290
     0
176
     1
290
     0
176
     1
 90
       50
176
     1
 40
0.0
176
     1
 40
1.0
176
     1
 90
        0
176
     1
 62
    18
176
     1
 90
       50
176
     1
 90
        3
176
     1
 62
     5
420
      255
176
     1
290
     0
176
     1
 90
       50
176
     1
 90
       50
176
     1
 90
       50
176
     1
290
     0
176
     1
 90
       50
176
     1
 62
   256
176
     0
 40
1.0
176
     0
 90
        2
176
     1
  1
strokes_ogs.tif
176
     1
290
     0
176
     1
 40
1.0
176
     1
 40
1.0
176
     1
1001
ACAD
1000
AcDbSavedByObjectVersion
1070
     0
  0
VISUALSTYLE
  5
3F
102
{ACAD_REACTORS
330
2A
102
}
330
2A
100
AcDbVisualStyle
  2
Sketchy
 70
    24
177
     3
291
     0
 70
    58
 90
        1
176
     1
 90
        2
176
     1
 90
        2
176
     1
 90
        0
176
     1
 40
0.6
176
     1
 40
30.0
176
     1
 62
     7
420
 16777215
176
     1
 90
        2
176
     1
 90
        2
176
     1
 62
     7
176
     1
 62
     7
176
     1
 90
        1
176
     1
 90
        1
176
     1
 40
40.0
176
     1
 90
       11
176
     1
 62
     7
176
     1
 40
1.0
176
     1
 90
        1
176
     1
 90
        6
176
     1
 90
        2
176
     1
 62
     7
176
     1
 90
        6
176
     1
 90
        0
176
     1
 90
        0
176
     1
290
     0
176
     1
 90
        1
176
     1
 40
0.0
176
     1
 90
        0
176
     1
290
     0
176
     1
290
     1
176
     1
290
     1
176
     1
290
     0
176
     1
290
     0
176
     1
290
     0
176
     1
290
     0
176
     1
290
     0
176
     1
290
     0
176
     1
 90
       50
176
     1
 40
0.0
176
     1
 40
1.0
176
     1
 90
        0
176
     1
 62
    18
176
     1
 90
       50
176
     1
 90
        3
176
     1
 62
     5
420
      255
176
     1
290
     0
176
     1
 90
       50
176
     1
 90
       50
176
     1
 90
       50
176
     1
290
     0
176
     1
 90
       50
176
     1
 62
   256
176
     0
 40
1.0
176
     0
 90
        2
176
     1
  1
strokes_ogs.tif
176
     1
290
     0
176
     1
 40
1.0
176
     1
 40
1.0
176
     1
1001
ACAD
1000
AcDbSavedByObjectVersion
1070
     0
  0
VISUALSTYLE
  5
37
102
{ACAD_REACTORS
330
2A
102
}
330
2A
100
AcDbVisualStyle
  2
Thicken
 70
    13
177
     3
291
     1
 70
    58
 90
        2
176
     1
 90
        2
176
     1
 90
        0
176
     1
 90
        0
176
     1
 40
0.6
176
     1
 40
30.0
176
     1
 62
     7
420
 16777215
176
     1
 90
        1
176
     1
 90
        4
176
     1
 62
     7
176
     1
 62
   257
176
     1
 90
        1
176
     1
 90
        1
176
     1
 40
1.0
176
     1
 90
       12
176
     1
 62
     7
176
     1
 40
1.0
176
     1
 90
        1
176
     1
 90
        6
176
     1
 90
        2
176
     1
 62
     7
176
     1
 90
        5
176
     1
 90
        0
176
     1
 90
        0
176
     1
290
     0
176
     1
 90
        1
176
     1
 40
0.0
176
     1
 90
        0
176
     1
290
     0
176
     1
290
     1
176
     1
290
     1
176
     1
290
     0
176
     1
290
     0
176
     1
290
     0
176
     1
290
     0
176
     1
290
     0
176
     1
290
     0
176
     1
 90
       50
176
     1
 40
0.0
176
     1
 40
1.0
176
     1
 90
        0
176
     1
 62
    18
176
     1
 90
       50
176
     1
 90
        3
176
     1
 62
     5
420
      255
176
     1
290
     0
176
     1
 90
       50
176
     1
 90
       50
176
     1
 90
       50
176
     1
290
     0
176
     1
 90
       50
176
     1
 62
   256
176
     0
 40
1.0
176
     0
 90
        2
176
     1
  1
strokes_ogs.tif
176
     1
290
     0
176
     1
 40
1.0
176
     1
 40
1.0
176
     1
1001
ACAD
1000
AcDbSavedByObjectVersion
1070
     0
  0
VISUALSTYLE
  5
30
102
{ACAD_REACTORS
330
2A
102
}
330
2A
100
AcDbVisualStyle
  2
Wireframe
 70
     5
177
     3
291
     0
 70
    58
 90
        0
176
     1
 90
        2
176
     1
 90
        0
176
     1
 90
        0
176
     1
 40
0.6
176
     1
 40
30.0
176
     1
 62
     7
420
 16777215
176
     1
 90
        1
176
     1
 90
        4
176
     1
 62
     7
176
     1
 62
   257
176
     1
 90
        1
176
     1
 90
        1
176
     1
 40
1.0
176
     1
 90
        0
176
     1
 62
   257
176
     1
 40
1.0
176
     1
 90
        1
176
     1
 90
        6
176
     1
 90
        2
176
     1
 62
     7
176
     1
 90
        3
176
     1
 90
        0
176
     1
 90
        0
176
     1
290
     0
176
     1
 90
        1
176
     1
 40
0.0
176
     1
 90
        0
176
     1
290
     0
176
     1
290
     1
176
     1
290
     1
176
     1
290
     0
176
     1
290
     0
176
     1
290
     0
176
     1
290
     0
176
     1
290
     0
176
     1
290
     0
176
     1
 90
       50
176
     1
 40
0.0
176
     1
 40
1.0
176
     1
 90
        0
176
     1
 62
    18
176
     1
 90
       50
176
     1
 90
        3
176
     1
 62
     5
420
      255
176
     1
290
     0
176
     1
 90
       50
176
     1
 90
       50
176
     1
 90
       50
176
     1
290
     0
176
     1
 90
       50
176
     1
 62
   256
176
     0
 40
1.0
176
     0
 90
        2
176
     1
  1
strokes_ogs.tif
176
     1
290
     0
176
     1
 40
1.0
176
     1
 40
1.0
176
     1
1001
ACAD
1000
AcDbSavedByObjectVersion
1070
     0
  0
VISUALSTYLE
  5
40
102
{ACAD_REACTORS
330
2A
102
}
330
2A
100
AcDbVisualStyle
  2
X-Ray
 70
    25
177
     3
291
     0
 70
    58
 90
        2
176
     1
 90
        2
176
     1
 90
        1
176
     1
 90
        1
176
     1
 40
0.5
176
     1
 40
30.0
176
     1
 62
     7
420
 16777215
176
     1
 90
        1
176
     1
 90
        0
176
     1
 62
     7
176
     1
 62
   257
176
     1
 90
        1
176
     1
 90
        1
176
     1
 40
1.0
176
     1
 90
        8
176
     1
 62
     7
176
     1
 40
1.0
176
     1
 90
        1
176
     1
 90
        6
176
     1
 90
        2
176
     1
 62
     7
176
     1
 90
        3
176
     1
 90
        0
176
     1
 90
        0
176
     1
290
     0
176
     1
 90
       13
176
     1
 40
0.0
176
     1
 90
        0
176
     1
290
     0
176
     1
290
     1
176
     1
290
     1
176
     1
290
     0
176
     1
290
     0
176
     1
290
     0
176
     1
290
     0
176
     1
290
     0
176
     1
290
     0
176
     1
 90
       50
176
     1
 40
0.0
176
     1
 40
1.0
176
     1
 90
        0
176
     1
 62
    18
176
     1
 90
       50
176
     1
 90
        3
176
     1
 62
     5
420
      255
176
     1
290
     0
176
     1
 90
       50
176
     1
 90
       50
176
     1
 90
       50
176
     1
290
     0
176
     1
 90
       50
176
     1
 62
   256
176
     0
 40
1.0
176
     0
 90
        2
176
     1
  1
strokes_ogs.tif
176
     1
290
     0
176
     1
 40
1.0
176
     1
 40
1.0
176
     1
1001
ACAD
1000
AcDbSavedByObjectVersion
1070
     0
  0
DICTIONARYVAR
  5
108
102
{ACAD_REACTORS
330
107
102
}
330
107
100
DictionaryVariables
280
     0
  1
1:1
  0
DICTIONARYVAR
  5
110
102
{ACAD_REACTORS
330
107
102
}
330
107
100
DictionaryVariables
280
     0
  1
3.500000
  0
DICTIONARYVAR
  5
111
102
{ACAD_REACTORS
330
107
102
}
330
107
100
DictionaryVariables
280
     0
  1
acadiso.lin
  0
DICTIONARYVAR
  5
10D
102
{ACAD_REACTORS
330
107
102
}
330
107
100
DictionaryVariables
280
     0
  1
STANDARD
  0
DICTIONARYVAR
  5
10C
102
{ACAD_REACTORS
330
107
102
}
330
107
100
DictionaryVariables
280
     0
  1
STANDARD
  0
DICTIONARYVAR
  5
485
102
{ACAD_REACTORS
330
107
102
}
330
107
100
DictionaryVariables
280
     0
  1
Metric50
  0
DICTIONARYVAR
  5
486
102
{ACAD_REACTORS
330
107
102
}
330
107
100
DictionaryVariables
280
     0
  1
Metric50
  0
DICTIONARY
  5
2672
102
{ACAD_REACTORS
330
2670
102
}
330
2670
100
AcDbDictionary
281
     1
  0
DICTIONARY
  5
2671
102
{ACAD_REACTORS
330
2670
102
}
330
2670
100
AcDbDictionary
281
     1
  3
2724942592304
350
266B
  3
2724942592320
350
266C
  3
2724942592336
350
266D
  3
2724942592352
350
266E
  3
2724942592368
350
266F
  0
DICTIONARY
  5
2679
330
1EAD
100
AcDbDictionary
280
     1
281
     1
  3
ACAD_XREC_ROUNDTRIP
360
267A
  0
DICTIONARY
  5
2675
330
116
100
AcDbDictionary
280
     1
281
     1
  3
ACAD_XREC_ROUNDTRIP
360
2676
  0
DICTIONARY
  5
2677
330
1EAC
100
AcDbDictionary
280
     1
281
     1
  3
ACAD_XREC_ROUNDTRIP
360
2678
  0
DICTIONARY
  5
2673
330
115
100
AcDbDictionary
280
     1
281
     1
  3
ACAD_XREC_ROUNDTRIP
360
2674
  0
DICTIONARY
  5
109
330
6A
100
AcDbDictionary
280
     1
281
     1
  3
ACAD_ROUNDTRIP_2008_TABLESTYLE_CELLSTYLEMAP
360
2669
  0
XRECORD
  5
266B
102
{ACAD_REACTORS
330
2671
102
}
330
2671
100
AcDbXrecord
280
     1
  1
AcDb_Thumbnail_Schema
102
{ATTRRECORD
341
266C
  2
AcDbDs::TreatedAsObjectData
280
     1
291
     1
102
ATTRRECORD}
102
{ATTRRECORD
341
266D
  2
AcDbDs::Legacy
280
     1
291
     1
102
ATTRRECORD}
  2
AcDbDs::ID
280
    10
 91
        8
102
{ATTRRECORD
341
266E
  2
AcDs:Indexable
280
     1
291
     1
102
ATTRRECORD}
102
{ATTRRECORD
341
266F
  2
AcDbDs::HandleAttribute
280
     7
282
     1
102
ATTRRECORD}
  2
Thumbnail_Data
280
    15
 91
        0
  0
XRECORD
  5
266C
102
{ACAD_REACTORS
330
2671
102
}
330
2671
100
AcDbXrecord
280
     1
  1
AcDbDs::TreatedAsObjectDataSchema
  2
AcDbDs::TreatedAsObjectData
280
     1
 91
        0
  0
XRECORD
  5
266D
102
{ACAD_REACTORS
330
2671
102
}
330
2671
100
AcDbXrecord
280
     1
  1
AcDbDs::LegacySchema
  2
AcDbDs::Legacy
280
     1
 91
        0
  0
XRECORD
  5
266E
102
{ACAD_REACTORS
330
2671
102
}
330
2671
100
AcDbXrecord
280
     1
  1
AcDbDs::IndexedPropertySchema
  2
AcDs:Indexable
280
     1
 91
        0
  0
XRECORD
  5
266F
102
{ACAD_REACTORS
330
2671
102
}
330
2671
100
AcDbXrecord
280
     1
  1
AcDbDs::HandleAttributeSchema
  2
AcDbDs::HandleAttribute
280
     7
 91
        1
284
     1
  0
XRECORD
  5
267A
102
{ACAD_REACTORS
330
2679
102
}
330
2679
100
AcDbXrecord
280
     1
102
DISPLAYNAME
  1
Imperial24
102
FLAGS
 90
        0
  0
XRECORD
  5
2676
102
{ACAD_REACTORS
330
2675
102
}
330
2675
100
AcDbXrecord
280
     1
102
DISPLAYNAME
  1
Metric50
102
FLAGS
 90
        0
  0
XRECORD
  5
2678
102
{ACAD_REACTORS
330
2677
102
}
330
2677
100
AcDbXrecord
280
     1
102
DISPLAYNAME
  1
Imperial24
102
FLAGS
 90
        0
  0
XRECORD
  5
2674
102
{ACAD_REACTORS
330
2673
102
}
330
2673
100
AcDbXrecord
280
     1
102
DISPLAYNAME
  1
Metric50
102
FLAGS
 90
        0
  0
CELLSTYLEMAP
  5
2669
102
{ACAD_REACTORS
330
109
102
}
330
109
100
AcDbCellStyleMap
 90
        3
300
CELLSTYLE
  1
TABLEFORMAT_BEGIN
 90
        5
170
     1
 91
        0
 92
    32768
 62
   257
 93
        1
300
CONTENTFORMAT
  1
CONTENTFORMAT_BEGIN
 90
        0
 91
        0
 92
        4
 93
        0
300

 40
0.0
140
1.0
 94
        5
 62
     0
340
11
144
6.0
309
CONTENTFORMAT_END
171
     1
301
MARGIN
  1
CELLMARGIN_BEGIN
 40
1.5
 40
1.5
 40
1.5
 40
1.5
 40
0.18
 40
0.18
309
CELLMARGIN_END
 94
        6
 95
        1
302
GRIDFORMAT
  1
GRIDFORMAT_BEGIN
 90
        0
 91
        1
 62
     0
 92
       -2
340
14
 93
        0
 40
0.045
309
GRIDFORMAT_END
 95
        2
302
GRIDFORMAT
  1
GRIDFORMAT_BEGIN
 90
        0
 91
        1
 62
     0
 92
       -2
340
14
 93
        0
 40
0.045
309
GRIDFORMAT_END
 95
        4
302
GRIDFORMAT
  1
GRIDFORMAT_BEGIN
 90
        0
 91
        1
 62
     0
 92
       -2
340
14
 93
        0
 40
0.045
309
GRIDFORMAT_END
 95
        8
302
GRIDFORMAT
  1
GRIDFORMAT_BEGIN
 90
        0
 91
        1
 62
     0
 92
       -2
340
14
 93
        0
 40
0.045
309
GRIDFORMAT_END
 95
       16
302
GRIDFORMAT
  1
GRIDFORMAT_BEGIN
 90
        0
 91
        1
 62
     0
 92
       -2
340
14
 93
        0
 40
0.045
309
GRIDFORMAT_END
 95
       32
302
GRIDFORMAT
  1
GRIDFORMAT_BEGIN
 90
        0
 91
        1
 62
     0
 92
       -2
340
14
 93
        0
 40
0.045
309
GRIDFORMAT_END
309
TABLEFORMAT_END
  1
CELLSTYLE_BEGIN
 90
        1
 91
        1
300
_TITLE
309
CELLSTYLE_END
300
CELLSTYLE
  1
TABLEFORMAT_BEGIN
 90
        5
170
     1
 91
        0
 92
        0
 62
   257
 93
        1
300
CONTENTFORMAT
  1
CONTENTFORMAT_BEGIN
 90
        0
 91
        0
 92
        4
 93
        0
300

 40
0.0
140
1.0
 94
        5
 62
     0
340
11
144
4.5
309
CONTENTFORMAT_END
171
     1
301
MARGIN
  1
CELLMARGIN_BEGIN
 40
1.5
 40
1.5
 40
1.5
 40
1.5
 40
0.18
 40
0.18
309
CELLMARGIN_END
 94
        6
 95
        1
302
GRIDFORMAT
  1
GRIDFORMAT_BEGIN
 90
        0
 91
        1
 62
     0
 92
       -2
340
14
 93
        0
 40
0.045
309
GRIDFORMAT_END
 95
        2
302
GRIDFORMAT
  1
GRIDFORMAT_BEGIN
 90
        0
 91
        1
 62
     0
 92
       -2
340
14
 93
        0
 40
0.045
309
GRIDFORMAT_END
 95
        4
302
GRIDFORMAT
  1
GRIDFORMAT_BEGIN
 90
        0
 91
        1
 62
     0
 92
       -2
340
14
 93
        0
 40
0.045
309
GRIDFORMAT_END
 95
        8
302
GRIDFORMAT
  1
GRIDFORMAT_BEGIN
 90
        0
 91
        1
 62
     0
 92
       -2
340
14
 93
        0
 40
0.045
309
GRIDFORMAT_END
 95
       16
302
GRIDFORMAT
  1
GRIDFORMAT_BEGIN
 90
        0
 91
        1
 62
     0
 92
       -2
340
14
 93
        0
 40
0.045
309
GRIDFORMAT_END
 95
       32
302
GRIDFORMAT
  1
GRIDFORMAT_BEGIN
 90
        0
 91
        1
 62
     0
 92
       -2
340
14
 93
        0
 40
0.045
309
GRIDFORMAT_END
309
TABLEFORMAT_END
  1
CELLSTYLE_BEGIN
 90
        2
 91
        1
300
_HEADER
309
CELLSTYLE_END
300
CELLSTYLE
  1
TABLEFORMAT_BEGIN
 90
        5
170
     1
 91
        0
 92
        0
 62
   257
 93
        1
300
CONTENTFORMAT
  1
CONTENTFORMAT_BEGIN
 90
        0
 91
        0
 92
        4
 93
        0
300

 40
0.0
140
1.0
 94
        2
 62
     0
340
11
144
4.5
309
CONTENTFORMAT_END
171
     1
301
MARGIN
  1
CELLMARGIN_BEGIN
 40
1.5
 40
1.5
 40
1.5
 40
1.5
 40
0.18
 40
0.18
309
CELLMARGIN_END
 94
        6
 95
        1
302
GRIDFORMAT
  1
GRIDFORMAT_BEGIN
 90
        0
 91
        1
 62
     0
 92
       -2
340
14
 93
        0
 40
0.045
309
GRIDFORMAT_END
 95
        2
302
GRIDFORMAT
  1
GRIDFORMAT_BEGIN
 90
        0
 91
        1
 62
     0
 92
       -2
340
14
 93
        0
 40
0.045
309
GRIDFORMAT_END
 95
        4
302
GRIDFORMAT
  1
GRIDFORMAT_BEGIN
 90
        0
 91
        1
 62
     0
 92
       -2
340
14
 93
        0
 40
0.045
309
GRIDFORMAT_END
 95
        8
302
GRIDFORMAT
  1
GRIDFORMAT_BEGIN
 90
        0
 91
        1
 62
     0
 92
       -2
340
14
 93
        0
 40
0.045
309
GRIDFORMAT_END
 95
       16
302
GRIDFORMAT
  1
GRIDFORMAT_BEGIN
 90
        0
 91
        1
 62
     0
 92
       -2
340
14
 93
        0
 40
0.045
309
GRIDFORMAT_END
 95
       32
302
GRIDFORMAT
  1
GRIDFORMAT_BEGIN
 90
        0
 91
        1
 62
     0
 92
       -2
340
14
 93
        0
 40
0.045
309
GRIDFORMAT_END
309
TABLEFORMAT_END
  1
CELLSTYLE_BEGIN
 90
        3
 91
        2
300
_DATA
309
CELLSTYLE_END
  0
ENDSEC
  0
SECTION
  2
ACDSDATA
 70
     2
 71
     8
  0
ACDSSCHEMA
 90
        0
  1
AcDb_Thumbnail_Schema
  2
AcDbDs::ID
280
    10
 91
        8
  2
Thumbnail_Data
280
    15
 91
        0
101
ACDSRECORD
 95
        0
 90
        1
  2
AcDbDs::TreatedAsObjectData
280
     1
291
     1
101
ACDSRECORD
 95
        0
 90
        2
  2
AcDbDs::Legacy
280
     1
291
     1
101
ACDSRECORD
  1
AcDbDs::ID
 90
        3
  2
AcDs:Indexable
280
     1
291
     1
101
ACDSRECORD
  1
AcDbDs::ID
 90
        4
  2
AcDbDs::HandleAttribute
280
     7
282
     1
  0
ACDSSCHEMA
 90
        1
  1
AcDbDs::TreatedAsObjectDataSchema
  2
AcDbDs::TreatedAsObjectData
280
     1
 91
        0
  0
ACDSSCHEMA
 90
        2
  1
AcDbDs::LegacySchema
  2
AcDbDs::Legacy
280
     1
 91
        0
  0
ACDSSCHEMA
 90
        3
  1
AcDbDs::IndexedPropertySchema
  2
AcDs:Indexable
280
     1
 91
        0
  0
ACDSSCHEMA
 90
        4
  1
AcDbDs::HandleAttributeSchema
  2
AcDbDs::HandleAttribute
280
     7
 91
        1
284
     1
  0
ACDSRECORD
 90
        0
  2
AcDbDs::ID
280
    10
320
22
  2
Thumbnail_Data
280
    15
 94
     1030
310
89504E470D0A1A0A0000000D4948445200000100000000790803000000E1F60FE900000300504C5445FFFFFFFFFFFFFFFFFF0000000000000000000000000000000000000000000000000000330000660000990000CC0000FF0033000033330033660033990033CC0033FF0066000066330066660066990066CC0066FF0099
310
000099330099660099990099CC0099FF00CC0000CC3300CC6600CC9900CCCC00CCFF00FF0000FF3300FF6600FF9900FFCC00FFFF3300003300333300663300993300CC3300FF3333003333333333663333993333CC3333FF3366003366333366663366993366CC3366FF3399003399333399663399993399CC3399FF33CC00
310
33CC3333CC6633CC9933CCCC33CCFF33FF0033FF3333FF6633FF9933FFCC33FFFF6600006600336600666600996600CC6600FF6633006633336633666633996633CC6633FF6666006666336666666666996666CC6666FF6699006699336699666699996699CC6699FF66CC0066CC3366CC6666CC9966CCCC66CCFF66FF0066
310
FF3366FF6666FF9966FFCC66FFFF9900009900339900669900999900CC9900FF9933009933339933669933999933CC9933FF9966009966339966669966999966CC9966FF9999009999339999669999999999CC9999FF99CC0099CC3399CC6699CC9999CCCC99CCFF99FF0099FF3399FF6699FF9999FFCC99FFFFCC0000CC00
310
33CC0066CC0099CC00CCCC00FFCC3300CC3333CC3366CC3399CC33CCCC33FFCC6600CC6633CC6666CC6699CC66CCCC66FFCC9900CC9933CC9966CC9999CC99CCCC99FFCCCC00CCCC33CCCC66CCCC99CCCCCCCCCCFFCCFF00CCFF33CCFF66CCFF99CCFFCCCCFFFFFF0000FF0033FF0066FF0099FF00CCFF00FFFF3300FF3333
310
FF3366FF3399FF33CCFF33FFFF6600FF6633FF6666FF6699FF66CCFF66FFFF9900FF9933FF9966FF9999FF99CCFF99FFFFCC00FFCC33FFCC66FFCC99FFCCCCFFCCFFFFFF00FFFF33FFFF66FFFF99FFFFCCFFFFFF0000000D0D0D1A1A1A2828283535354343435050505D5D5D6B6B6B787878868686939393A1A1A1AEAEAEBB
310
BBBBC9C9C9D6D6D6E4E4E4F1F1F1FFFFFF000000000000000000000000000000000000000000000000000000000000AD4AB4E4000000564944415478DAEDD4C10900200C04C1F45FE65522A205F8F17533900696243300000000000000000000000000000000F02CD9735507A85D809C08BD27E00708208000020820800002
310
0800000000000000000000C06F0B526F26D98CE67C4A0000000049454E44AE42608200000000E02ADC0F605F000000000000000000000000000000000000000000000000000000000000000000000000000000000000000000000000500A60340708007FFC91244992244992244992244992247DA805D3D31C54AE7115B500
310
00000049454E44AE426082426082
  0
ENDSEC
  0
EOF
