  0
SECTION
  2
HEADER
  9
$ACADVER
  1
AC1027
  9
$ACADMAINTVER
 70
   125
  9
$DWGCODEPAGE
  3
ANSI_1252
  9
$LASTSAVEDBY
  1
kaschu
  9
$REQUIREDVERSIONS
160
                 0
  9
$INSBASE
 10
0.0
 20
0.0
 30
0.0
  9
$EXTMIN
 10
442.6319293678623
 20
260.6788022667806
 30
0.0
  9
$EXTMAX
 10
1894.038666393247
 20
1815.228588803993
 30
0.0
  9
$LIMMIN
 10
0.0
 20
0.0
  9
$LIMMAX
 10
420.0
 20
297.0
  9
$ORTHOMODE
 70
     1
  9
$REGENMODE
 70
     1
  9
$FILLMODE
 70
     1
  9
$QTEXTMODE
 70
     0
  9
$MIRRTEXT
 70
     1
  9
$LTSCALE
 40
1.0
  9
$ATTMODE
 70
     1
  9
$TEXTSIZE
 40
2.5
  9
$TRACEWID
 40
1.0
  9
$TEXTSTYLE
  7
Standard
  9
$CLAYER
  8
0
  9
$CELTYPE
  6
ByLayer
  9
$CECOLOR
 62
   256
  9
$CELTSCALE
 40
1.0
  9
$DISPSILH
 70
     0
  9
$DIMSCALE
 40
1.0
  9
$DIMASZ
 40
2.5
  9
$DIMEXO
 40
0.625
  9
$DIMDLI
 40
3.75
  9
$DIMRND
 40
0.0
  9
$DIMDLE
 40
0.0
  9
$DIMEXE
 40
1.25
  9
$DIMTP
 40
0.0
  9
$DIMTM
 40
0.0
  9
$DIMTXT
 40
2.5
  9
$DIMCEN
 40
2.5
  9
$DIMTSZ
 40
0.0
  9
$DIMTOL
 70
     0
  9
$DIMLIM
 70
     0
  9
$DIMTIH
 70
     0
  9
$DIMTOH
 70
     0
  9
$DIMSE1
 70
     0
  9
$DIMSE2
 70
     0
  9
$DIMTAD
 70
     1
  9
$DIMZIN
 70
     8
  9
$DIMBLK
  1

  9
$DIMASO
 70
     1
  9
$DIMSHO
 70
     1
  9
$DIMPOST
  1

  9
$DIMAPOST
  1

  9
$DIMALT
 70
     0
  9
$DIMALTD
 70
     3
  9
$DIMALTF
 40
0.03937007874016
  9
$DIMLFAC
 40
1.0
  9
$DIMTOFL
 70
     1
  9
$DIMTVP
 40
0.0
  9
$DIMTIX
 70
     0
  9
$DIMSOXD
 70
     0
  9
$DIMSAH
 70
     0
  9
$DIMBLK1
  1

  9
$DIMBLK2
  1

  9
$DIMSTYLE
  2
ISO-25
  9
$DIMCLRD
 70
     0
  9
$DIMCLRE
 70
     0
  9
$DIMCLRT
 70
     0
  9
$DIMTFAC
 40
1.0
  9
$DIMGAP
 40
0.625
  9
$DIMJUST
 70
     0
  9
$DIMSD1
 70
     0
  9
$DIMSD2
 70
     0
  9
$DIMTOLJ
 70
     0
  9
$DIMTZIN
 70
     8
  9
$DIMALTZ
 70
     0
  9
$DIMALTTZ
 70
     0
  9
$DIMUPT
 70
     0
  9
$DIMDEC
 70
     2
  9
$DIMTDEC
 70
     2
  9
$DIMALTU
 70
     2
  9
$DIMALTTD
 70
     3
  9
$DIMTXSTY
  7
Standard
  9
$DIMAUNIT
 70
     0
  9
$DIMADEC
 70
     0
  9
$DIMALTRND
 40
0.0
  9
$DIMAZIN
 70
     0
  9
$DIMDSEP
 70
    44
  9
$DIMATFIT
 70
     3
  9
$DIMFRAC
 70
     0
  9
$DIMLDRBLK
  1

  9
$DIMLUNIT
 70
     2
  9
$DIMLWD
 70
    -2
  9
$DIMLWE
 70
    -2
  9
$DIMTMOVE
 70
     0
  9
$DIMFXL
 40
1.0
  9
$DIMFXLON
 70
     0
  9
$DIMJOGANG
 40
0.7853981633974483
  9
$DIMTFILL
 70
     0
  9
$DIMTFILLCLR
 70
     0
  9
$DIMARCSYM
 70
     0
  9
$DIMLTYPE
  6

  9
$DIMLTEX1
  6

  9
$DIMLTEX2
  6

  9
$DIMTXTDIRECTION
 70
     0
  9
$LUNITS
 70
     2
  9
$LUPREC
 70
     4
  9
$SKETCHINC
 40
1.0
  9
$FILLETRAD
 40
10.0
  9
$AUNITS
 70
     0
  9
$AUPREC
 70
     0
  9
$MENU
  1
.
  9
$ELEVATION
 40
0.0
  9
$PELEVATION
 40
0.0
  9
$THICKNESS
 40
0.0
  9
$LIMCHECK
 70
     0
  9
$CHAMFERA
 40
0.0
  9
$CHAMFERB
 40
0.0
  9
$CHAMFERC
 40
0.0
  9
$CHAMFERD
 40
0.0
  9
$SKPOLY
 70
     0
  9
$TDCREATE
 40
2459082.501111111
  9
$TDUCREATE
 40
2459082.417789201
  9
$TDUPDATE
 40
2459312.686365741
  9
$TDUUPDATE
 40
2459312.603032408
  9
$TDINDWG
 40
0.0266782523
  9
$TDUSRTIMER
 40
0.0266782523
  9
$USRTIMER
 70
     1
  9
$ANGBASE
 50
0.0
  9
$ANGDIR
 70
     0
  9
$PDMODE
 70
     0
  9
$PDSIZE
 40
0.0
  9
$PLINEWID
 40
0.0
  9
$SPLFRAME
 70
     0
  9
$SPLINETYPE
 70
     6
  9
$SPLINESEGS
 70
     8
  9
$HANDSEED
  5
14C1
  9
$SURFTAB1
 70
     6
  9
$SURFTAB2
 70
     6
  9
$SURFTYPE
 70
     6
  9
$SURFU
 70
     6
  9
$SURFV
 70
     6
  9
$UCSBASE
  2

  9
$UCSNAME
  2

  9
$UCSORG
 10
0.0
 20
0.0
 30
0.0
  9
$UCSXDIR
 10
1.0
 20
0.0
 30
0.0
  9
$UCSYDIR
 10
0.0
 20
1.0
 30
0.0
  9
$UCSORTHOREF
  2

  9
$UCSORTHOVIEW
 70
     0
  9
$UCSORGTOP
 10
0.0
 20
0.0
 30
0.0
  9
$UCSORGBOTTOM
 10
0.0
 20
0.0
 30
0.0
  9
$UCSORGLEFT
 10
0.0
 20
0.0
 30
0.0
  9
$UCSORGRIGHT
 10
0.0
 20
0.0
 30
0.0
  9
$UCSORGFRONT
 10
0.0
 20
0.0
 30
0.0
  9
$UCSORGBACK
 10
0.0
 20
0.0
 30
0.0
  9
$PUCSBASE
  2

  9
$PUCSNAME
  2

  9
$PUCSORG
 10
0.0
 20
0.0
 30
0.0
  9
$PUCSXDIR
 10
1.0
 20
0.0
 30
0.0
  9
$PUCSYDIR
 10
0.0
 20
1.0
 30
0.0
  9
$PUCSORTHOREF
  2

  9
$PUCSORTHOVIEW
 70
     0
  9
$PUCSORGTOP
 10
0.0
 20
0.0
 30
0.0
  9
$PUCSORGBOTTOM
 10
0.0
 20
0.0
 30
0.0
  9
$PUCSORGLEFT
 10
0.0
 20
0.0
 30
0.0
  9
$PUCSORGRIGHT
 10
0.0
 20
0.0
 30
0.0
  9
$PUCSORGFRONT
 10
0.0
 20
0.0
 30
0.0
  9
$PUCSORGBACK
 10
0.0
 20
0.0
 30
0.0
  9
$USERI1
 70
     0
  9
$USERI2
 70
     0
  9
$USERI3
 70
     0
  9
$USERI4
 70
     0
  9
$USERI5
 70
     0
  9
$USERR1
 40
0.0
  9
$USERR2
 40
0.0
  9
$USERR3
 40
0.0
  9
$USERR4
 40
0.0
  9
$USERR5
 40
0.0
  9
$WORLDVIEW
 70
     1
  9
$SHADEDGE
 70
     3
  9
$SHADEDIF
 70
    70
  9
$TILEMODE
 70
     1
  9
$MAXACTVP
 70
    64
  9
$PINSBASE
 10
0.0
 20
0.0
 30
0.0
  9
$PLIMCHECK
 70
     0
  9
$PEXTMIN
 10
1.000000000000000E+20
 20
1.000000000000000E+20
 30
1.000000000000000E+20
  9
$PEXTMAX
 10
-1.000000000000000E+20
 20
-1.000000000000000E+20
 30
-1.000000000000000E+20
  9
$PLIMMIN
 10
0.0
 20
0.0
  9
$PLIMMAX
 10
420.0
 20
297.0
  9
$UNITMODE
 70
     0
  9
$VISRETAIN
 70
     1
  9
$PLINEGEN
 70
     0
  9
$PSLTSCALE
 70
     1
  9
$TREEDEPTH
 70
  3020
  9
$CMLSTYLE
  2
Standard
  9
$CMLJUST
 70
     0
  9
$CMLSCALE
 40
20.0
  9
$PROXYGRAPHICS
 70
     1
  9
$MEASUREMENT
 70
     1
  9
$CELWEIGHT
370
    -1
  9
$ENDCAPS
280
     0
  9
$JOINSTYLE
280
     0
  9
$LWDISPLAY
290
     0
  9
$INSUNITS
 70
     5
  9
$HYPERLINKBASE
  1

  9
$STYLESHEET
  1

  9
$XEDIT
290
     1
  9
$CEPSNTYPE
380
     0
  9
$PSTYLEMODE
290
     1
  9
$FINGERPRINTGUID
  2
{921A62D8-B26A-40CB-89FE-00D0C55F98C6}
  9
$VERSIONGUID
  2
{F08C5903-EFB8-CD4E-AA08-2B99AC625511}
  9
$EXTNAMES
290
     1
  9
$PSVPSCALE
 40
0.0
  9
$OLESTARTUP
290
     0
  9
$SORTENTS
280
   127
  9
$INDEXCTL
280
     0
  9
$HIDETEXT
280
     1
  9
$XCLIPFRAME
280
     2
  9
$HALOGAP
280
     0
  9
$OBSCOLOR
 70
   257
  9
$OBSLTYPE
280
     0
  9
$INTERSECTIONDISPLAY
280
     0
  9
$INTERSECTIONCOLOR
 70
   257
  9
$DIMASSOC
280
     2
  9
$PROJECTNAME
  1

  9
$CAMERADISPLAY
290
     0
  9
$LENSLENGTH
 40
50.0
  9
$CAMERAHEIGHT
 40
0.0
  9
$STEPSPERSEC
 40
2.0
  9
$STEPSIZE
 40
6.0
  9
$3DDWFPREC
 40
2.0
  9
$PSOLWIDTH
 40
5.0
  9
$PSOLHEIGHT
 40
80.0
  9
$LOFTANG1
 40
1.570796326794897
  9
$LOFTANG2
 40
1.570796326794897
  9
$LOFTMAG1
 40
0.0
  9
$LOFTMAG2
 40
0.0
  9
$LOFTPARAM
 70
     7
  9
$LOFTNORMALS
280
     1
  9
$LATITUDE
 40
37.795
  9
$LONGITUDE
 40
-122.394
  9
$NORTHDIRECTION
 40
0.0
  9
$TIMEZONE
 70
 -8000
  9
$LIGHTGLYPHDISPLAY
280
     1
  9
$TILEMODELIGHTSYNCH
280
     1
  9
$CMATERIAL
347
44
  9
$SOLIDHIST
280
     0
  9
$SHOWHIST
280
     1
  9
$DWFFRAME
280
     2
  9
$DGNFRAME
280
     2
  9
$REALWORLDSCALE
290
     1
  9
$INTERFERECOLOR
 62
   256
  9
$INTERFEREOBJVS
345
33
  9
$INTERFEREVPVS
346
30
  9
$CSHADOW
280
     0
  9
$SHADOWPLANELOCATION
 40
0.0
  0
ENDSEC
  0
SECTION
  2
CLASSES
  0
CLASS
  1
ACDBDICTIONARYWDFLT
  2
AcDbDictionaryWithDefault
  3
ObjectDBX Classes
 90
        0
 91
        1
280
     0
281
     0
  0
CLASS
  1
VISUALSTYLE
  2
AcDbVisualStyle
  3
ObjectDBX Classes
 90
     4095
 91
       24
280
     0
281
     0
  0
CLASS
  1
MATERIAL
  2
AcDbMaterial
  3
ObjectDBX Classes
 90
     1153
 91
        3
280
     0
281
     0
  0
CLASS
  1
SCALE
  2
AcDbScale
  3
ObjectDBX Classes
 90
     1153
 91
       33
280
     0
281
     0
  0
CLASS
  1
TABLESTYLE
  2
AcDbTableStyle
  3
ObjectDBX Classes
 90
     4095
 91
        1
280
     0
281
     0
  0
CLASS
  1
MLEADERSTYLE
  2
AcDbMLeaderStyle
  3
ACDB_MLEADERSTYLE_CLASS
 90
     4095
 91
        1
280
     0
281
     0
  0
CLASS
  1
SUN
  2
AcDbSun
  3
SCENEOE
 90
     1153
 91
        1
280
     0
281
     0
  0
CLASS
  1
DICTIONARYVAR
  2
AcDbDictionaryVar
  3
ObjectDBX Classes
 90
        0
 91
        7
280
     0
281
     0
  0
CLASS
  1
CELLSTYLEMAP
  2
AcDbCellStyleMap
  3
ObjectDBX Classes
 90
     1152
 91
        2
280
     0
281
     0
  0
CLASS
  1
ACDBSECTIONVIEWSTYLE
  2
AcDbSectionViewStyle
  3
ObjectDBX Classes
 90
     1025
 91
        1
280
     0
281
     0
  0
CLASS
  1
ACDBDETAILVIEWSTYLE
  2
AcDbDetailViewStyle
  3
ObjectDBX Classes
 90
     1025
 91
        1
280
     0
281
     0
  0
CLASS
  1
DIMASSOC
  2
AcDbDimAssoc
  3
"AcDbDimAssoc|Product Desc:     AcDim ARX App For Dimension|Company:          Autodesk, Inc.|WEB Address:      www.autodesk.com"
 90
        0
 91
        0
280
     0
281
     0
  0
CLASS
  1
SORTENTSTABLE
  2
AcDbSortentsTable
  3
ObjectDBX Classes
 90
        0
 91
        1
280
     0
281
     0
  0
ENDSEC
  0
SECTION
  2
TABLES
  0
TABLE
  2
VPORT
  5
8
330
0
100
AcDbSymbolTable
 70
     1
1001
ACAD
1000
DbSaveVer
1071
      224
  0
VPORT
  5
29
330
8
100
AcDbSymbolTableRecord
100
AcDbViewportTableRecord
  2
*Active
 70
     0
 10
0.0
 20
0.0
 11
1.0
 21
1.0
 12
1027.892083091189
 22
1126.118925477205
 13
0.0
 23
0.0
 14
10.0
 24
10.0
 15
10.0
 25
10.0
 16
0.0
 26
0.0
 36
1.0
 17
0.0
 27
0.0
 37
0.0
 40
4219.195408550673
 41
2.078193832599119
 42
50.0
 43
0.0
 44
0.0
 50
0.0
 51
0.0
 71
     0
 72
   100
 73
     1
 74
     3
 75
     0
 76
     0
 77
     0
 78
     0
281
     0
 65
     1
110
0.0
120
0.0
130
0.0
111
1.0
121
0.0
131
0.0
112
0.0
122
1.0
132
0.0
 79
     0
146
0.0
348
2F
 60
     3
 61
     5
292
     1
282
     1
141
0.0
142
0.0
 63
   250
421
  3355443
361
6D
1001
ACAD_NAV_VCDISPLAY
1070
     3
  0
ENDTAB
  0
TABLE
  2
LTYPE
  5
5
330
0
100
AcDbSymbolTable
 70
    10
  0
LTYPE
  5
14
330
5
100
AcDbSymbolTableRecord
100
AcDbLinetypeTableRecord
  2
ByBlock
 70
     0
  3

 72
    65
 73
     0
 40
0.0
  0
LTYPE
  5
15
330
5
100
AcDbSymbolTableRecord
100
AcDbLinetypeTableRecord
  2
ByLayer
 70
     0
  3

 72
    65
 73
     0
 40
0.0
  0
LTYPE
  5
16
330
5
100
AcDbSymbolTableRecord
100
AcDbLinetypeTableRecord
  2
Continuous
 70
     0
  3
Solid line
 72
    65
 73
     0
 40
0.0
  0
LTYPE
  5
6F
330
5
100
AcDbSymbolTableRecord
100
AcDbLinetypeTableRecord
  2
CUSTOM
 70
     0
  3

 72
    65
 73
     0
 40
0.0
  0
LTYPE
  5
70
330
5
100
AcDbSymbolTableRecord
100
AcDbLinetypeTableRecord
  2
SOLID
 70
     0
  3

 72
    65
 73
     0
 40
0.0
  0
LTYPE
  5
71
330
5
100
AcDbSymbolTableRecord
100
AcDbLinetypeTableRecord
  2
DASHED
 70
     0
  3

 72
    65
 73
     2
 40
2.27109725292296
 49
1.13554862646148
 74
     0
 49
-1.13554862646148
 74
     0
  0
LTYPE
  5
72
330
5
100
AcDbSymbolTableRecord
100
AcDbLinetypeTableRecord
  2
LONG_DASH
 70
     0
  3

 72
    65
 73
     2
 40
2.27109725292296
 49
1.703322939692224
 74
     0
 49
-0.5677743132307414
 74
     0
  0
LTYPE
  5
73
330
5
100
AcDbSymbolTableRecord
100
AcDbLinetypeTableRecord
  2
SHORT_DASH
 70
     0
  3

 72
    65
 73
     4
 40
2.27109725292296
 49
0.4542194505845931
 74
     0
 49
-0.6813291758768897
 74
     0
 49
0.4542194505845931
 74
     0
 49
-0.6813291758768897
 74
     0
  0
LTYPE
  5
74
330
5
100
AcDbSymbolTableRecord
100
AcDbLinetypeTableRecord
  2
DOTTED
 70
     0
  3

 72
    65
 73
     8
 40
2.27109725292296
 49
0.1135548626461483
 74
     0
 49
-0.4542194505845931
 74
     0
 49
0.1135548626461483
 74
     0
 49
-0.4542194505845931
 74
     0
 49
0.1135548626461483
 74
     0
 49
-0.4542194505845931
 74
     0
 49
0.1135548626461483
 74
     0
 49
-0.4542194505845931
 74
     0
  0
LTYPE
  5
75
330
5
100
AcDbSymbolTableRecord
100
AcDbLinetypeTableRecord
  2
DOTDASH
 70
     0
  3

 72
    65
 73
     4
 40
2.27109725292296
 49
0.1135548626461483
 74
     0
 49
-0.5677743132307414
 74
     0
 49
1.021993763815334
 74
     0
 49
-0.5677743132307414
 74
     0
  0
LTYPE
  5
76
330
5
100
AcDbSymbolTableRecord
100
AcDbLinetypeTableRecord
  2
DOTDOTDASH
 70
     0
  3

 72
    65
 73
     6
 40
2.27109725292296
 49
0.1135548626461483
 74
     0
 49
-0.3406645879384448
 74
     0
 49
0.1135548626461483
 74
     0
 49
-0.3406645879384448
 74
     0
 49
1.021993763815334
 74
     0
 49
-0.3406645879384448
 74
     0
  0
LTYPE
  5
77
330
5
100
AcDbSymbolTableRecord
100
AcDbLinetypeTableRecord
  2
DASHDASHDOT
 70
     0
  3

 72
    65
 73
     6
 40
2.27109725292296
 49
0.1135548626461483
 74
     0
 49
-0.3406645879384448
 74
     0
 49
0.1135548626461483
 74
     0
 49
-0.3406645879384448
 74
     0
 49
1.021993763815334
 74
     0
 49
-0.3406645879384448
 74
     0
  0
ENDTAB
  0
TABLE
  2
LAYER
  5
2
102
{ACAD_XDICTIONARY
360
490
102
}
330
0
100
AcDbSymbolTable
 70
     3
  0
LAYER
  5
10
330
2
100
AcDbSymbolTableRecord
100
AcDbLayerTableRecord
  2
0
 70
     0
 62
     7
  6
Continuous
370
    -3
390
F
347
46
348
0
  0
LAYER
  5
46D
330
2
100
AcDbSymbolTableRecord
100
AcDbLayerTableRecord
  2
Defpoints
 70
     0
 62
     7
  6
Continuous
290
     0
370
    -3
390
F
347
46
348
0
  0
LAYER
  5
48D
102
{ACAD_XDICTIONARY
360
48E
102
}
330
2
100
AcDbSymbolTableRecord
100
AcDbLayerTableRecord
  2
Hewi
 70
     0
 62
     7
  6
Continuous
370
    -3
390
F
347
46
348
0
1001
AcAecLayerStandard
1000

1000

  0
ENDTAB
  0
TABLE
  2
STYLE
  5
3
330
0
100
AcDbSymbolTable
 70
     1
  0
STYLE
  5
11
330
3
100
AcDbSymbolTableRecord
100
AcDbTextStyleTableRecord
  2
Standard
 70
     0
 40
0.0
 41
1.0
 50
0.0
 71
     0
 42
2.5
  3
txt
  4

  0
ENDTAB
  0
TABLE
  2
VIEW
  5
6
330
0
100
AcDbSymbolTable
 70
     0
  0
ENDTAB
  0
TABLE
  2
UCS
  5
7
330
0
100
AcDbSymbolTable
 70
     0
  0
ENDTAB
  0
TABLE
  2
APPID
  5
9
330
0
100
AcDbSymbolTable
 70
     4
  0
APPID
  5
12
330
9
100
AcDbSymbolTableRecord
100
AcDbRegAppTableRecord
  2
ACAD
 70
     0
  0
APPID
  5
11A
330
9
100
AcDbSymbolTableRecord
100
AcDbRegAppTableRecord
  2
ACAD_NAV_VCDISPLAY
 70
     0
  0
APPID
  5
463
330
9
100
AcDbSymbolTableRecord
100
AcDbRegAppTableRecord
  2
ACAD_EXEMPT_FROM_CAD_STANDARDS
 70
     0
  0
APPID
  5
48F
330
9
100
AcDbSymbolTableRecord
100
AcDbRegAppTableRecord
  2
AcAecLayerStandard
 70
     0
  0
ENDTAB
  0
TABLE
  2
DIMSTYLE
  5
A
330
0
100
AcDbSymbolTable
 70
     1
100
AcDbDimStyleTable
 71
     1
340
27
  0
DIMSTYLE
105
27
330
A
100
AcDbSymbolTableRecord
100
AcDbDimStyleTableRecord
  2
ISO-25
 70
     0
 41
2.5
 42
0.625
 43
3.75
 44
1.25
 73
     0
 74
     0
 77
     1
 78
     8
140
2.5
141
2.5
143
0.03937007874016
147
0.625
171
     3
172
     1
271
     2
272
     2
274
     3
278
    44
283
     0
284
     8
340
11
  0
ENDTAB
  0
TABLE
  2
BLOCK_RECORD
  5
1
330
0
100
AcDbSymbolTable
 70
     3
  0
BLOCK_RECORD
  5
1F
102
{ACAD_XDICTIONARY
360
6E5
102
}
330
1
100
AcDbSymbolTableRecord
100
AcDbBlockTableRecord
  2
*Model_Space
340
22
 70
     0
280
     1
281
     0
  0
BLOCK_RECORD
  5
1B
330
1
100
AcDbSymbolTableRecord
100
AcDbBlockTableRecord
  2
*Paper_Space
340
1E
 70
     0
280
     1
281
     0
  0
BLOCK_RECORD
  5
23
330
1
100
AcDbSymbolTableRecord
100
AcDbBlockTableRecord
  2
*Paper_Space0
340
26
 70
     0
280
     1
281
     0
  0
BLOCK_RECORD
  5
46E
330
1
100
AcDbSymbolTableRecord
100
AcDbBlockTableRecord
  2
*D1
340
0
 70
     0
280
     1
281
     0
  0
BLOCK_RECORD
  5
66A
330
1
100
AcDbSymbolTableRecord
100
AcDbBlockTableRecord
  2
*D2
340
0
 70
     0
280
     1
281
     0
  0
ENDTAB
  0
ENDSEC
  0
SECTION
  2
BLOCKS
  0
BLOCK
  5
20
330
1F
100
AcDbEntity
  8
0
100
AcDbBlockBegin
  2
*Model_Space
 70
     0
 10
0.0
 20
0.0
 30
0.0
  3
*Model_Space
  1

  0
ENDBLK
  5
21
330
1F
100
AcDbEntity
  8
0
100
AcDbBlockEnd
  0
BLOCK
  5
1C
330
1B
100
AcDbEntity
 67
     1
  8
0
100
AcDbBlockBegin
  2
*Paper_Space
 70
     0
 10
0.0
 20
0.0
 30
0.0
  3
*Paper_Space
  1

  0
ENDBLK
  5
1D
330
1B
100
AcDbEntity
 67
     1
  8
0
100
AcDbBlockEnd
  0
BLOCK
  5
24
330
23
100
AcDbEntity
 67
     1
  8
0
100
AcDbBlockBegin
  2
*Paper_Space0
 70
     0
 10
0.0
 20
0.0
 30
0.0
  3
*Paper_Space0
  1

  0
ENDBLK
  5
25
330
23
100
AcDbEntity
 67
     1
  8
0
100
AcDbBlockEnd
  0
BLOCK
  5
46F
330
46E
100
AcDbEntity
  8
0
100
AcDbBlockBegin
  2
*D1
 70
     1
 10
0.0
 20
0.0
 30
0.0
  3
*D1
  1

  0
LINE
  5
47B
330
46E
100
AcDbEntity
  8
0
 62
     0
440
 16777216
370
    -2
100
AcDbLine
 10
169.1949724005773
 20
163.8184210226795
 30
0.0
 11
169.1949724005773
 21
189.5873868086067
 31
0.0
  0
LINE
  5
47C
330
46E
100
AcDbEntity
  8
0
 62
     0
440
 16777216
370
    -2
100
AcDbLine
 10
209.1949715756394
 20
163.8184210226795
 30
0.0
 11
209.1949715756394
 21
189.5873868086067
 31
0.0
  0
LINE
  5
47D
330
46E
100
AcDbEntity
  8
0
 62
     0
440
 16777216
370
    -2
100
AcDbLine
 10
171.6949724005774
 20
188.3373868086066
 30
0.0
 11
206.6949715756394
 21
188.3373868086066
 31
0.0
  0
SOLID
  5
47E
330
46E
100
AcDbEntity
  8
0
 62
     0
440
 16777216
100
AcDbTrace
 10
171.6949724005774
 20
188.7540534752734
 30
0.0
 11
171.6949724005774
 21
187.9207201419401
 31
0.0
 12
169.1949724005773
 22
188.3373868086066
 32
0.0
 13
169.1949724005773
 23
188.3373868086066
 33
0.0
  0
SOLID
  5
47F
330
46E
100
AcDbEntity
  8
0
 62
     0
440
 16777216
100
AcDbTrace
 10
206.6949715756394
 20
188.7540534752734
 30
0.0
 11
206.6949715756394
 21
187.9207201419401
 31
0.0
 12
209.1949715756394
 22
188.3373868086066
 32
0.0
 13
209.1949715756394
 23
188.3373868086066
 33
0.0
  0
MTEXT
  5
480
330
46E
100
AcDbEntity
  8
0
 62
     0
440
 16777216
100
AcDbMText
 10
189.1949719881084
 20
190.2123868086068
 30
0.0
 40
2.5
 41
0.0
 46
0.0
 71
     5
 72
     1
  1
40
 73
     1
 44
1.0
  0
POINT
  5
481
330
46E
100
AcDbEntity
  8
Defpoints
 62
     0
440
 16777216
100
AcDbPoint
 10
169.1949724005773
 20
163.1934210226795
 30
0.0
  0
POINT
  5
482
330
46E
100
AcDbEntity
  8
Defpoints
 62
     0
440
 16777216
100
AcDbPoint
 10
209.1949715756394
 20
163.1934210226795
 30
0.0
  0
POINT
  5
483
330
46E
100
AcDbEntity
  8
Defpoints
 62
     0
440
 16777216
100
AcDbPoint
 10
209.1949715756394
 20
188.3373868086066
 30
0.0
  0
ENDBLK
  5
470
330
46E
100
AcDbEntity
  8
0
100
AcDbBlockEnd
  0
BLOCK
  5
66B
330
66A
100
AcDbEntity
  8
0
100
AcDbBlockBegin
  2
*D2
 70
     1
 10
0.0
 20
0.0
 30
0.0
  3
*D2
  1

  0
LINE
  5
677
330
66A
100
AcDbEntity
  8
0
 62
     0
440
 16777216
370
    -2
100
AcDbLine
 10
827.7595291992735
 20
1013.325643810532
 30
0.0
 11
827.7595291992735
 21
145.1276556228231
 31
0.0
  0
LINE
  5
678
330
66A
100
AcDbEntity
  8
0
 62
     0
440
 16777216
370
    -2
100
AcDbLine
 10
927.7595321341673
 20
1013.325643810532
 30
0.0
 11
927.7595321341673
 21
145.1276556228231
 31
0.0
  0
LINE
  5
679
330
66A
100
AcDbEntity
  8
0
 62
     0
440
 16777216
370
    -2
100
AcDbLine
 10
830.2595291992735
 20
146.377655622823
 30
0.0
 11
925.2595321341672
 21
146.377655622823
 31
0.0
  0
SOLID
  5
67A
330
66A
100
AcDbEntity
  8
0
 62
     0
440
 16777216
100
AcDbTrace
 10
830.2595291992735
 20
146.7943222894897
 30
0.0
 11
830.2595291992735
 21
145.9609889561564
 31
0.0
 12
827.7595291992735
 22
146.377655622823
 32
0.0
 13
827.7595291992735
 23
146.377655622823
 33
0.0
  0
SOLID
  5
67B
330
66A
100
AcDbEntity
  8
0
 62
     0
440
 16777216
100
AcDbTrace
 10
925.2595321341672
 20
146.7943222894897
 30
0.0
 11
925.2595321341672
 21
145.9609889561564
 31
0.0
 12
927.7595321341673
 22
146.377655622823
 32
0.0
 13
927.7595321341673
 23
146.377655622823
 33
0.0
  0
MTEXT
  5
67C
330
66A
100
AcDbEntity
  8
0
 62
     0
440
 16777216
100
AcDbMText
 10
877.7595306667203
 20
148.2526556228231
 30
0.0
 40
2.5
 41
0.0
 46
0.0
 71
     5
 72
     1
  1
100
 73
     1
 44
1.0
  0
POINT
  5
67D
330
66A
100
AcDbEntity
  8
Defpoints
 62
     0
440
 16777216
100
AcDbPoint
 10
827.7595291992735
 20
1013.950643810532
 30
0.0
  0
POINT
  5
67E
330
66A
100
AcDbEntity
  8
Defpoints
 62
     0
440
 16777216
100
AcDbPoint
 10
927.7595321341673
 20
1013.950643810532
 30
0.0
  0
POINT
  5
67F
330
66A
100
AcDbEntity
  8
Defpoints
 62
     0
440
 16777216
100
AcDbPoint
 10
927.7595321341673
 20
146.377655622823
 30
0.0
  0
ENDBLK
  5
66C
330
66A
100
AcDbEntity
  8
0
100
AcDbBlockEnd
  0
ENDSEC
  0
SECTION
  2
ENTITIES
  0
LWPOLYLINE
  5
E44
330
1F
100
AcDbEntity
  8
Hewi
  6
CUSTOM
 62
    18
420
        0
370
     9
100
AcDbPolyline
 90
        7
 70
     0
 43
0.0
 10
443.2226228549659
 20
723.6700487411976
 10
443.1698703912279
 20
720.8659898044023
 10
443.563810766116
 20
717.0286968913069
 10
443.5646050769356
 20
717.0206097618883
 10
443.8613543321388
 20
715.703092817077
 10
444.4494918268356
 20
714.477429143249
 10
444.7369059491738
 20
713.9451137592787
  0
LWPOLYLINE
  5
E45
330
1F
100
AcDbEntity
  8
Hewi
  6
CUSTOM
 62
    18
420
        0
370
     9
100
AcDbPolyline
 90
       12
 70
     0
 43
0.0
 10
443.2285584319815
 20
722.7222584909378
 10
443.2149573830847
 20
724.8940675586859
 10
443.616849068223
 20
726.7756201874504
 10
443.6709546594356
 20
727.0183551064709
 10
444.154551713691
 20
728.8780373706404
 10
444.718876012741
 20
730.2178882780262
 10
445.6778926632741
 20
732.1576949342065
 10
447.0439698177269
 20
733.8359555161653
 10
448.0846735142713
 20
735.067058605803
 10
449.7713863665793
 20
736.3982961231538
 10
451.033120537293
 20
737.3861012496885
 10
452.6255164787526
 20
738.3334293513297
  0
LWPOLYLINE
  5
E46
330
1F
100
AcDbEntity
  8
Hewi
  6
CUSTOM
 62
    18
420
        0
370
     9
100
AcDbPolyline
 90
        5
 70
     0
 43
0.0
 10
444.9181934547232
 20
713.4341809026002
 10
445.2279093854103
 20
712.9852936162277
 10
445.5019770994003
 20
712.6278818914243
 10
446.1248945140559
 20
711.9820863877447
 10
446.1933244726286
 20
711.9302631048872
  0
LWPOLYLINE
  5
E47
330
1F
100
AcDbEntity
  8
Hewi
  6
CUSTOM
 62
    18
420
        0
370
     9
100
AcDbPolyline
 90
       18
 70
     0
 43
0.0
 10
490.5322005696198
 20
709.6661058559389
 10
494.660774398797
 20
709.720222491459
 10
506.2814701547702
 20
709.8665250030685
 10
512.4513188574183
 20
709.9411943099267
 10
526.6732766857804
 20
710.1047015338852
 10
541.9249263911297
 20
710.2658005126802
 10
582.3484935622035
 20
710.6138373273869
 10
625.71937177817
 20
710.8475310708928
 10
669.1192110674727
 20
710.9265404592413
 10
725.0406357565132
 20
710.8066383411412
 10
780.901120764991
 20
710.4158209908487
 10
803.6780695793002
 20
710.188637508862
 10
815.4248817354782
 20
710.0575583030981
 10
825.8365486046859
 20
709.9340213086605
 10
837.127322680617
 20
709.7927230286732
 10
847.8614183561239
 20
709.6519035680913
 10
857.1361435259314
 20
709.5256109857869
 10
862.2348115828462
 20
709.4543211186755
  0
LWPOLYLINE
  5
E4C
330
1F
100
AcDbEntity
  8
Hewi
  6
CUSTOM
 62
    18
420
        0
370
     9
100
AcDbPolyline
 90
        7
 70
     0
 43
0.0
 10
448.2540371045015
 20
710.4642534235138
 10
448.0294778080313
 20
710.5911025561862
 10
447.4488485762774
 20
710.9289691869534
 10
447.3374607132243
 20
711.0002286235221
 10
446.9136082650146
 20
711.3285434049966
 10
446.6289335214987
 20
711.5491590448669
 10
446.1933244859284
 20
711.9302630932516
  0
LWPOLYLINE
  5
E4D
330
1F
100
AcDbEntity
  8
Hewi
  6
CUSTOM
 62
    18
420
        0
370
     9
100
AcDbPolyline
 90
        7
 70
     0
 43
0.0
 10
858.7386086449695
 20
709.5525350766282
 10
865.6463105193397
 20
709.3584866352816
 10
870.7740547255998
 20
709.2109945952188
 10
875.2491502184893
 20
709.0799612160267
 10
878.9758668295418
 20
708.9692441115642
 10
882.1755082314684
 20
708.9048817392372
 10
885.5298990156388
 20
709.3141174346619
  0
LWPOLYLINE
  5
E4F
330
1F
100
AcDbEntity
  8
Hewi
  6
CUSTOM
 62
    18
420
        0
370
     9
100
AcDbPolyline
 90
       17
 70
     0
 43
0.0
 10
893.6724422445585
 20
714.1844574304441
 10
893.7600417002123
 20
714.3320329626898
 10
894.5424833051092
 20
716.5869936328046
 10
894.8623989299449
 20
720.3189854512784
 10
895.0098651322496
 20
722.7222584909378
 10
895.0756248891137
 20
724.0455660314546
 10
894.9629753301943
 20
725.3655017648916
 10
894.2403005873968
 20
728.4270256890206
 10
893.3594794854796
 20
730.4097652469716
 10
892.4783705306126
 20
732.2167589315868
 10
891.2036301864262
 20
733.9597645471107
 10
889.2644440672375
 20
735.6780732577752
 10
887.6656449583151
 20
737.0798365702084
 10
884.5383512873379
 20
738.8560122759672
 10
882.7371382674265
 20
739.8422291202138
 10
878.4452747179328
 20
741.6912379652004
 10
873.2194388209245
 20
743.5439438702983
  0
LWPOLYLINE
  5
E52
330
1F
100
AcDbEntity
  8
Hewi
  6
CUSTOM
 62
    18
420
        0
370
     9
100
AcDbPolyline
 90
       13
 70
     0
 43
0.0
 10
448.2540371045015
 20
710.4642534235138
 10
448.6798128747141
 20
710.2560236964732
 10
449.0113004950378
 20
710.1119971225821
 10
449.7168285615408
 20
709.8481711977735
 10
451.1670846952165
 20
709.4223196919879
 10
454.3860498724662
 20
709.0080363380065
 10
458.4220532608433
 20
708.9385350264972
 10
462.0020391951711
 20
709.0239597334707
 10
466.5556584680161
 20
709.1311181647991
 10
471.8649615100567
 20
709.2539955141591
 10
477.9654309754731
 20
709.3923098344603
 10
484.5984160779899
 20
709.5390386127403
 10
493.5591277170224
 20
709.7309250740296
  0
LWPOLYLINE
  5
E5D
330
1F
100
AcDbEntity
  8
Hewi
  6
CUSTOM
 62
    18
420
        0
370
     9
100
AcDbPolyline
 90
       23
 70
     0
 43
0.0
 10
873.2194388209245
 20
743.5439438702983
 10
867.1114715938164
 20
745.4046218017329
 10
866.2123234456704
 20
745.6807397752554
 10
863.941880440494
 20
746.1523517443887
 10
859.3131461199574
 20
747.509944711509
 10
856.4306910534961
 20
748.0709948556372
 10
850.5830622907614
 20
749.5270422937566
 10
846.9452606380036
 20
750.1593673355032
 10
840.6260445382812
 20
751.5089998844891
 10
836.0577233598723
 20
752.1978200682588
 10
829.1196088724628
 20
753.4566436633902
 10
823.4863976712295
 20
754.1661903790977
 10
815.2006922874608
 20
755.4206240528372
 10
812.0333626218526
 20
755.6831759748246
 10
806.4260135513123
 20
756.3537628667181
 10
800.5878393689252
 20
757.1465134322901
 10
756.8641769429996
 20
761.1607914057231
 10
713.0681906605802
 20
763.5790143999278
 10
669.1192076505047
 20
764.3832815397288
 10
625.173260714344
 20
763.5931699106905
 10
581.3501128798868
 20
761.1690111754779
 10
537.6505841953058
 20
757.1465134322901
 10
535.5769132995318
 20
756.6047876271221
  0
LWPOLYLINE
  5
E5E
330
1F
100
AcDbEntity
  8
Hewi
  6
CUSTOM
 62
    18
420
        0
370
     9
100
AcDbPolyline
 90
        2
 70
     0
 43
0.0
 10
887.476584967726
 20
710.4495334579255
 10
887.4856479684131
 20
710.4480365636052
  0
LWPOLYLINE
  5
E5F
330
1F
100
AcDbEntity
  8
Hewi
  6
CUSTOM
 62
    18
420
        0
370
     9
100
AcDbPolyline
 90
        5
 70
     0
 43
0.0
 10
892.2471383928023
 20
712.1758156053693
 10
892.5733115994244
 20
712.4638805784897
 10
893.0959786653437
 20
713.0947097467785
 10
893.4798086935025
 20
713.6525180758722
 10
893.6724422416537
 20
714.1844574224243
  0
LWPOLYLINE
  5
E61
330
1F
100
AcDbEntity
  8
Hewi
  6
CUSTOM
 62
    18
420
        0
370
     9
100
AcDbPolyline
 90
       20
 70
     0
 43
0.0
 10
523.8961715115054
 20
755.366004421726
 10
524.1192122672564
 20
756.5504366269133
 10
524.1192122672564
 20
776.8722214884793
 10
524.2696447936631
 20
776.8722214884793
 10
524.7133990578548
 20
776.8722214884777
 10
525.4282233680696
 20
776.8722214884777
 10
526.3782734485448
 20
776.8722214884773
 10
527.5159098211861
 20
776.8722214884773
 10
528.7840866479108
 20
776.8722214884773
 10
530.1192122471818
 20
776.8722214884766
 10
808.1192113170509
 20
776.8722214884766
 10
809.454336916322
 20
776.8722214884773
 10
810.722513743045
 20
776.8722214884773
 10
811.8601501156861
 20
776.8722214884773
 10
812.8102001961631
 20
776.8722214884777
 10
813.525024506378
 20
776.8722214884777
 10
813.9687787705677
 20
776.8722214884793
 10
814.1192112969747
 20
776.8722214884793
 10
814.1192112969747
 20
756.5504366269133
 10
814.3279357531174
 20
755.4929701716728
  0
LWPOLYLINE
  5
E62
330
1F
100
AcDbEntity
  8
Hewi
  6
CUSTOM
 62
    18
420
        0
370
     9
100
AcDbPolyline
 90
        3
 70
     0
 43
0.0
 10
885.5298990156388
 20
709.3141174346619
 10
889.7198647052627
 20
710.3320732400852
 10
890.4080071015597
 20
710.7605683766818
  0
LWPOLYLINE
  5
E63
330
1F
100
AcDbEntity
  8
Hewi
  6
CUSTOM
 62
    18
420
        0
370
     9
100
AcDbPolyline
 90
        3
 70
     0
 43
0.0
 10
872.1010731556399
 20
743.8846330451371
 10
872.1965003788882
 20
743.864512878612
 10
873.2194388209245
 20
743.5439438702983
  0
LWPOLYLINE
  5
E65
330
1F
100
AcDbEntity
  8
Hewi
  6
CUSTOM
 62
    18
420
        0
370
     9
100
AcDbPolyline
 90
        3
 70
     0
 43
0.0
 10
536.6950060353937
 20
756.8968781785197
 10
526.0814614709179
 20
755.6472950569869
 10
517.3947907191432
 20
754.5291462309505
  0
LWPOLYLINE
  5
E66
330
1F
100
AcDbEntity
  8
Hewi
  6
CUSTOM
 62
    18
420
        0
370
     9
100
AcDbPolyline
 90
       76
 70
     0
 43
0.0
 10
814.1192112969747
 20
778.7140616867645
 10
814.1192112969747
 20
778.8818837426426
 10
814.1192112969747
 20
779.3773029840381
 10
814.1192112969747
 20
780.1765644755719
 10
814.1192112969747
 20
781.2413443018686
 10
814.1192112969747
 20
782.5205871670219
 10
814.1192112969747
 20
783.9529544530372
 10
814.1192112969747
 20
785.469765354898
 10
814.1192112969747
 20
828.835889129024
 10
814.1192112969747
 20
830.559459218136
 10
814.1192112969747
 20
832.1926319323088
 10
814.1192112969747
 20
833.6356052298572
 10
814.1192112969747
 20
834.8002000223468
 10
814.1192112969747
 20
835.6152487369811
 10
814.1192112969747
 20
850.7599218994627
 10
814.0941392092409
 20
850.8396662720087
 10
814.0201801652093
 20
850.91541192873
 10
813.9010427801732
 20
850.983360666115
 10
813.7427011000964
 20
851.0401052507413
 10
813.553095037987
 20
851.0828002721895
 10
813.3417322335352
 20
851.1093048238079
 10
813.1192113003198
 20
851.1182898567026
 10
780.1192114107342
 20
851.1182898567026
 10
779.8966904775205
 20
851.1093048238079
 10
779.6853276730671
 20
851.0828002721895
 10
779.4957216109597
 20
851.0401052507413
 10
779.3373799308811
 20
850.983360666115
 10
779.2182425458431
 20
850.91541192873
 10
779.1442835018115
 20
850.8396662720087
 10
779.1192114140795
 20
850.7599218994627
 10
779.1192114140795
 20
838.5754113533092
 10
779.0941393263437
 20
838.4956669807634
 10
779.0201802823121
 20
838.4199213240409
 10
778.901042897276
 20
838.3519725866571
 10
778.7427012171974
 20
838.2952280020306
 10
778.5530951550882
 20
838.2525329805826
 10
778.3417323506364
 20
838.2260284289641
 10
778.1192114174245
 20
838.2170433960691
 10
560.1192121468065
 20
838.2170433960691
 10
559.8966912135929
 20
838.2260284289641
 10
559.6853284091411
 20
838.2525329805826
 10
559.4957223470355
 20
838.2952280020306
 10
559.3373806669551
 20
838.3519725866571
 10
559.218243281919
 20
838.4199213240409
 10
559.1442842378873
 20
838.4956669807634
 10
559.1192121501535
 20
838.5754113533092
 10
559.1192121501535
 20
850.7599218994627
 10
559.0941400624179
 20
850.8396662720087
 10
559.0201810183862
 20
850.91541192873
 10
558.9010436333501
 20
850.983360666115
 10
558.7427019532696
 20
851.0401052507413
 10
558.5530958911658
 20
851.0828002721895
 10
558.3417330867105
 20
851.1093048238079
 10
558.1192121534987
 20
851.1182898567026
 10
525.1192122639094
 20
851.1182898567026
 10
524.8966913306976
 20
851.1093048238079
 10
524.6853285262423
 20
851.0828002721895
 10
524.4957224641366
 20
851.0401052507413
 10
524.3373807840562
 20
850.983360666115
 10
524.2182433990219
 20
850.91541192873
 10
524.1442843549902
 20
850.8396662720087
 10
524.1192122672564
 20
850.7599218994627
 10
524.1192122672564
 20
835.6152487369811
 10
524.1192122672564
 20
834.8002000223468
 10
524.1192122672564
 20
833.6356052298572
 10
524.1192122672564
 20
832.1926319323088
 10
524.1192122672564
 20
830.559459218136
 10
524.1192122672564
 20
828.835889129024
 10
524.1192122672564
 20
785.469765354898
 10
524.1192122672564
 20
783.9529544530372
 10
524.1192122672564
 20
782.5205871670219
 10
524.1192122672564
 20
781.2413443018686
 10
524.1192122672564
 20
780.1765644755719
 10
524.1192122672564
 20
779.3773029840381
 10
524.1192122672564
 20
778.8818837426426
 10
524.1192122672564
 20
778.7140616867645
  0
LWPOLYLINE
  5
E67
330
1F
100
AcDbEntity
  8
Hewi
  6
CUSTOM
 62
    18
420
        0
370
     9
100
AcDbPolyline
 90
        3
 70
     0
 43
0.0
 10
817.1192112869375
 20
701.2355682654379
 10
817.1192112869375
 20
704.3568902697383
 10
817.1192112869375
 20
710.0374546180327
  0
LWPOLYLINE
  5
E68
330
1F
100
AcDbEntity
  8
Hewi
  6
CUSTOM
 62
    18
420
        0
370
     9
100
AcDbPolyline
 90
       12
 70
     0
 43
0.0
 10
821.1192112735552
 20
798.7140621161853
 10
821.1192112735552
 20
798.7191804981082
 10
821.1192112735552
 20
798.734528158785
 10
821.1192112735552
 20
798.760082653876
 10
821.1192112735552
 20
842.9997505678066
 10
821.1192112735552
 20
843.3960835834332
 10
821.1192112735552
 20
844.1767206035001
 10
821.1192112735552
 20
845.2959132137875
 10
821.1192112735552
 20
846.6880723046196
 10
821.1192112735552
 20
848.2716118518764
 10
821.1192112735552
 20
849.9537301804137
 10
821.1192112735552
 20
878.7140638338669
  0
LWPOLYLINE
  5
E69
330
1F
100
AcDbEntity
  8
Hewi
  6
CUSTOM
 62
    18
420
        0
370
     9
100
AcDbPolyline
 90
        3
 70
     0
 43
0.0
 10
882.2184679467264
 20
708.9101228247336
 10
883.4847958323917
 20
709.0117045756837
 10
883.8597884984393
 20
709.1103639396001
  0
LWPOLYLINE
  5
E6A
330
1F
100
AcDbEntity
  8
Hewi
  6
CUSTOM
 62
    18
420
        0
370
     9
100
AcDbPolyline
 90
       10
 70
     0
 43
0.0
 10
820.9602674556354
 20
784.2308388547071
 10
821.1192112735552
 20
785.7140618370618
 10
821.1192112735552
 20
797.7140620947148
 10
821.1192112735552
 20
797.9365830334481
 10
821.1192112735552
 20
798.1479458431476
 10
821.1192112735552
 20
798.3375519099595
 10
821.1192112735552
 20
798.4958935939688
 10
821.1192112735552
 20
798.6150309819609
 10
821.1192112735552
 20
798.6889900278282
 10
821.1192112735552
 20
798.7140621161853
  0
LWPOLYLINE
  5
E6B
330
1F
100
AcDbEntity
  8
Hewi
  6
CUSTOM
 62
    18
420
        0
370
     9
100
AcDbPolyline
 90
       16
 70
     0
 43
0.0
 10
817.1192112869375
 20
878.7140638338669
 10
817.043995023736
 20
879.3816266500687
 10
816.8221178916409
 20
880.0157150791672
 10
816.4647057365327
 20
880.5845332796042
 10
815.9896806962931
 20
881.0595583316318
 10
815.4208625099727
 20
881.4169704956073
 10
814.7867740966102
 20
881.6388476332107
 10
814.1192112969747
 20
881.7140638982802
 10
788.6192113822926
 20
881.7140638982802
 10
787.6178671828403
 20
881.7140638982802
 10
786.6667345627956
 20
881.7140638982802
 10
785.8135072833156
 20
881.7140638982802
 10
785.1009697229581
 20
881.7140638982802
 10
784.5648514902967
 20
881.7140638982802
 10
784.2320357921544
 20
881.7140638982802
 10
784.1192113973481
 20
881.7140638982802
  0
LWPOLYLINE
  5
E6C
330
1F
100
AcDbEntity
  8
Hewi
  6
CUSTOM
 62
    18
420
        0
370
     9
100
AcDbPolyline
 90
       11
 70
     0
 43
0.0
 10
784.1192113973481
 20
881.7140638982802
 10
784.1192113973481
 20
885.7140639841636
 10
784.2320357921544
 20
885.7140639841636
 10
784.5648514902967
 20
885.7140639841636
 10
785.1009697229581
 20
885.7140639841636
 10
785.8135072833156
 20
885.7140639841636
 10
786.6667345627956
 20
885.7140639841636
 10
787.6178671828403
 20
885.7140639841636
 10
788.6192113822926
 20
885.7140639841636
 10
814.1192112969747
 20
885.7140639841636
 10
815.6768578294578
 20
885.5385593656682
  0
LINE
  5
E6D
330
1F
100
AcDbEntity
  8
Hewi
  6
CUSTOM
 62
    18
420
        0
370
     9
100
AcDbLine
 10
444.6997469412234
 20
714.0139354225412
 30
0.0
 11
444.9181934547232
 21
713.4341809026002
 31
0.0
  0
LINE
  5
E6E
330
1F
100
AcDbEntity
  8
Hewi
  6
CUSTOM
 62
    18
420
        0
370
     9
100
AcDbLine
 10
819.5920316559405
 20
883.0784925405859
 30
0.0
 11
820.4259933511911
 21
881.7512500729012
 31
0.0
  0
LINE
  5
E6F
330
1F
100
AcDbEntity
  8
Hewi
  6
CUSTOM
 62
    18
420
        0
370
     9
100
AcDbLine
 10
815.6768578294578
 20
885.5385593656682
 30
0.0
 11
817.1563974606378
 21
885.0208460445966
 31
0.0
  0
LINE
  5
E71
330
1F
100
AcDbEntity
  8
Hewi
  6
CUSTOM
 62
    18
420
        0
370
     9
100
AcDbLine
 10
453.6695748939036
 20
738.8481853671469
 30
0.0
 11
452.6255164787526
 21
738.3334293513297
 31
0.0
  0
LWPOLYLINE
  5
E72
330
1F
100
AcDbEntity
  8
Hewi
  6
CUSTOM
 62
    18
420
        0
370
     9
100
AcDbPolyline
 90
        8
 70
     0
 43
0.0
 10
464.9049333153723
 20
743.4570595958447
 10
463.763733916383
 20
743.13785410632
 10
461.4208477383072
 20
742.2592602075583
 10
460.939147284145
 20
742.1257689631747
 10
458.6954231043709
 20
741.2319804855601
 10
458.3718638088774
 20
741.1081254883056
 10
456.3150347860863
 20
740.2321873079821
 10
453.6695748939036
 20
738.8481853671469
  0
LWPOLYLINE
  5
E73
330
1F
100
AcDbEntity
  8
Hewi
  6
CUSTOM
 62
    18
420
        0
370
     9
100
AcDbPolyline
 90
        8
 70
     0
 43
0.0
 10
817.1192112869375
 20
823.3822824185834
 10
817.1192112869375
 20
843.3960835834332
 10
817.1192112869375
 20
844.1767206035001
 10
817.1192112869375
 20
845.2959132137875
 10
817.1192112869375
 20
846.6880723046196
 10
817.1192112869375
 20
848.2716118518764
 10
817.1192112869375
 20
849.9537301804137
 10
817.1192112869375
 20
878.7140638338669
  0
LINE
  5
E74
330
1F
100
AcDbEntity
  8
Hewi
  6
CUSTOM
 62
    18
420
        0
370
     9
100
AcDbLine
 10
818.4836398953846
 20
884.1868843286498
 30
0.0
 11
819.5920316559405
 21
883.0784925405859
 31
0.0
  0
LINE
  5
E75
330
1F
100
AcDbEntity
  8
Hewi
  6
CUSTOM
 62
    18
420
        0
370
     9
100
AcDbLine
 10
817.1563974606378
 20
885.0208460445966
 30
0.0
 11
818.4836398953846
 21
884.1868843286498
 31
0.0
  0
LINE
  5
E76
330
1F
100
AcDbEntity
  8
Hewi
  6
CUSTOM
 62
    18
420
        0
370
     9
100
AcDbLine
 10
820.9437066594126
 20
880.2717104050051
 30
0.0
 11
821.1192112735552
 21
878.7140638338669
 31
0.0
  0
LINE
  5
E77
330
1F
100
AcDbEntity
  8
Hewi
  6
CUSTOM
 62
    18
420
        0
370
     9
100
AcDbLine
 10
820.4259933511911
 20
881.7512500729012
 30
0.0
 11
820.9437066594126
 21
880.2717104050051
 31
0.0
  0
LWPOLYLINE
  5
E78
330
1F
100
AcDbEntity
  8
Hewi
  6
CUSTOM
 62
    18
420
        0
370
     9
100
AcDbPolyline
 90
       31
 70
     0
 43
0.0
 10
817.1192112869375
 20
798.6150309819609
 10
817.1192112869375
 20
798.4958935939688
 10
817.1192112869375
 20
798.3375519099595
 10
817.1192112869375
 20
798.1479458431476
 10
817.1192112869375
 20
797.9365830334481
 10
817.1192112869375
 20
797.7140620947148
 10
817.1192112869375
 20
785.7140618370618
 10
817.0531368453975
 20
785.0878982517681
 10
816.8578240753396
 20
784.4893169393738
 10
816.5418764315925
 20
783.9446851839221
 10
816.1192112902844
 20
783.477993811551
 10
815.8602018577566
 20
783.2711607845167
 10
815.8209679438277
 20
783.2436595119652
 10
815.5842006628809
 20
783.096084289843
 10
815.502721450097
 20
783.0521960978066
 10
815.4262163001421
 20
783.0139217711092
 10
815.2676471339871
 20
782.9428486808507
 10
815.1601523130464
 20
782.9005971372168
 10
815.0209377694118
 20
782.8527876951742
 10
814.888431153353
 20
782.8144057056198
 10
814.8381929164624
 20
782.801561446945
 10
814.7624209838959
 20
782.783899677348
 10
814.5791525970707
 20
782.7495290953891
 10
814.5585340295674
 20
782.7464028033972
 10
814.4771553776445
 20
782.7354800485573
 10
814.3863855051147
 20
782.7259613662054
 10
814.3396454529174
 20
782.7221558727678
 10
814.2671755237186
 20
782.7177128966012
 10
814.2065683782512
 20
782.7152706641877
 10
814.1814124222872
 20
782.7146123209448
 10
814.161478034013
 20
782.7142616721271
  0
LINE
  5
E79
330
1F
100
AcDbEntity
  8
Hewi
  6
CUSTOM
 62
    18
420
        0
370
     9
100
AcDbLine
 10
524.1192122672564
 20
778.7140616867645
 30
0.0
 11
814.1192112969747
 21
778.7140616867645
 31
0.0
  0
LWPOLYLINE
  5
E7A
330
1F
100
AcDbEntity
  8
Hewi
  6
CUSTOM
 62
    18
420
        0
370
     9
100
AcDbPolyline
 90
        3
 70
     0
 43
0.0
 10
815.6768578294578
 20
885.5385593656682
 10
815.6848931456462
 20
885.5367203788816
 10
817.1563974606378
 20
885.0208460445966
  0
LWPOLYLINE
  5
E7B
330
1F
100
AcDbEntity
  8
Hewi
  6
CUSTOM
 62
    18
420
        0
370
     9
100
AcDbPolyline
 90
        3
 70
     0
 43
0.0
 10
819.5920316559405
 20
883.0784925405859
 10
819.6125287446539
 20
883.0526654548311
 10
820.4259933511911
 20
881.7512500729012
  0
LWPOLYLINE
  5
E7C
330
1F
100
AcDbEntity
  8
Hewi
  6
CUSTOM
 62
    18
420
        0
370
     9
100
AcDbPolyline
 90
        4
 70
     0
 43
0.0
 10
820.4259933511911
 20
881.7512500729012
 10
820.4437665961521
 20
881.7140638982802
 10
820.8162683205227
 20
880.7510780953343
 10
820.9437066594126
 20
880.2717104050051
  0
LWPOLYLINE
  5
E7D
330
1F
100
AcDbEntity
  8
Hewi
  6
CUSTOM
 62
    18
420
        0
370
     9
100
AcDbPolyline
 90
       19
 70
     0
 43
0.0
 10
814.1192112969747
 20
778.7140616867645
 10
814.1280758688116
 20
778.7140334896284
 10
814.1543957496397
 20
778.7140997489322
 10
814.1584528860857
 20
778.7141232198417
 10
814.2317893646033
 20
778.714967018285
 10
814.2737464796246
 20
778.715761249089
 10
814.3019264370687
 20
778.7164347063256
 10
814.3882069166265
 20
778.7192160082759
 10
814.5070689802631
 20
778.7248126359846
 10
814.5568109383695
 20
778.7277531802301
 10
814.6797174373585
 20
778.7365625995349
 10
814.8153959929569
 20
778.7488066383697
 10
814.830147851093
 20
778.7502958469949
 10
815.0541557361666
 20
778.7767798796663
 10
815.2126863222036
 20
778.8000511707788
 10
815.2229712399021
 20
778.8016899288493
 10
815.3786517849967
 20
778.8283795117227
 10
815.6537931875298
 20
778.8843429256822
 10
815.6615149515765
 20
778.8860826565987
  0
LWPOLYLINE
  5
E7E
330
1F
100
AcDbEntity
  8
Hewi
  6
CUSTOM
 62
    18
420
        0
370
     9
100
AcDbPolyline
 90
        3
 70
     0
 43
0.0
 10
818.4836398953846
 20
884.1868843286498
 10
818.5029466930917
 20
884.1714318008607
 10
819.5920316559405
 20
883.0784925405859
  0
LINE
  5
E7F
330
1F
100
AcDbEntity
  8
Hewi
  6
CUSTOM
 62
    18
420
        0
370
     9
100
AcDbLine
 10
820.4906540411121
 20
782.8149727650481
 30
0.0
 11
820.9602674556354
 21
784.2308388547071
 31
0.0
  0
LWPOLYLINE
  5
E80
330
1F
100
AcDbEntity
  8
Hewi
  6
CUSTOM
 62
    18
420
        0
370
     9
100
AcDbPolyline
 90
        3
 70
     0
 43
0.0
 10
816.1192112902844
 20
779.0058577605305
 10
817.1563974606378
 20
779.4072796263318
 10
817.4951933417467
 20
779.5819539799008
  0
LWPOLYLINE
  5
E81
330
1F
100
AcDbEntity
  8
Hewi
  6
CUSTOM
 62
    18
420
        0
370
     9
100
AcDbPolyline
 90
        3
 70
     0
 43
0.0
 10
820.9602674556354
 20
784.2308388547071
 10
820.9437066594126
 20
784.1564152659233
 10
820.4906540411121
 20
782.8149727650481
  0
LWPOLYLINE
  5
E82
330
1F
100
AcDbEntity
  8
Hewi
  6
CUSTOM
 62
    18
420
        0
370
     9
100
AcDbPolyline
 90
        3
 70
     0
 43
0.0
 10
820.4906540411121
 20
782.8149727650481
 10
820.4259933511911
 20
782.6768755980272
 10
819.7316973583562
 20
781.5307616145717
  0
LWPOLYLINE
  5
E83
330
1F
100
AcDbEntity
  8
Hewi
  6
CUSTOM
 62
    18
420
        0
370
     9
100
AcDbPolyline
 90
        3
 70
     0
 43
0.0
 10
817.1563974606378
 20
885.0208460445966
 10
817.1712425206587
 20
885.0136754926516
 10
818.4836398953846
 20
884.1868843286498
  0
LINE
  5
E84
330
1F
100
AcDbEntity
  8
Hewi
  6
CUSTOM
 62
    18
420
        0
370
     9
100
AcDbLine
 10
818.7178635425752
 20
780.4365246672659
 30
0.0
 11
819.7316973583562
 21
781.5307616145717
 31
0.0
  0
LWPOLYLINE
  5
E85
330
1F
100
AcDbEntity
  8
Hewi
  6
CUSTOM
 62
    18
420
        0
370
     9
100
AcDbPolyline
 90
        3
 70
     0
 43
0.0
 10
818.7178635425752
 20
780.4365246672659
 10
818.4836398953846
 20
780.2412413422784
 10
817.4951933417467
 20
779.5819539799008
  0
LINE
  5
E86
330
1F
100
AcDbEntity
  8
Hewi
  6
CUSTOM
 62
    18
420
        0
370
     9
100
AcDbLine
 10
817.4951933417467
 20
779.5819539799008
 30
0.0
 11
818.7178635425752
 21
780.4365246672659
 31
0.0
  0
LWPOLYLINE
  5
E87
330
1F
100
AcDbEntity
  8
Hewi
  6
CUSTOM
 62
    18
420
        0
370
     9
100
AcDbPolyline
 90
        3
 70
     0
 43
0.0
 10
815.6615149515765
 20
778.8860826565987
 10
815.6768578294578
 20
778.8895663052599
 10
816.1192112902844
 20
779.0058577605305
  0
LINE
  5
E88
330
1F
100
AcDbEntity
  8
Hewi
  6
CUSTOM
 62
    18
420
        0
370
     9
100
AcDbLine
 10
819.7316973583562
 20
781.5307616145717
 30
0.0
 11
820.4906540411121
 21
782.8149727650481
 31
0.0
  0
LWPOLYLINE
  5
E89
330
1F
100
AcDbEntity
  8
Hewi
  6
CUSTOM
 62
    18
420
        0
370
     9
100
AcDbPolyline
 90
        3
 70
     0
 43
0.0
 10
820.9437066594126
 20
880.2717104050051
 10
821.0430613343486
 20
879.7437727173344
 10
821.1192112735552
 20
878.7140638338669
  0
LINE
  5
E8A
330
1F
100
AcDbEntity
  8
Hewi
  6
CUSTOM
 62
    18
420
        0
370
     9
100
AcDbLine
 10
816.1192112902844
 20
779.0058577605305
 30
0.0
 11
817.4951933417467
 21
779.5819539799008
 31
0.0
  0
LWPOLYLINE
  5
E8B
330
1F
100
AcDbEntity
  8
Hewi
  6
CUSTOM
 62
    18
420
        0
370
     9
100
AcDbPolyline
 90
        3
 70
     0
 43
0.0
 10
819.7316973583562
 20
781.5307616145717
 10
819.5920316559405
 20
781.3496331303412
 10
818.7178635425752
 20
780.4365246672659
  0
LINE
  5
E8C
330
1F
100
AcDbEntity
  8
Hewi
  6
CUSTOM
 62
    18
420
        0
370
     9
100
AcDbLine
 10
815.6615149515765
 20
778.8860826565987
 30
0.0
 11
816.1192112902844
 21
779.0058577605305
 31
0.0
  0
LINE
  5
E8D
330
1F
100
AcDbEntity
  8
Hewi
  6
CUSTOM
 62
    18
420
        0
370
     9
100
AcDbLine
 10
519.7547836688482
 20
884.1868843286498
 30
0.0
 11
521.0820261035951
 21
885.0208460445966
 31
0.0
  0
LWPOLYLINE
  5
E8E
330
1F
100
AcDbEntity
  8
Hewi
  6
CUSTOM
 62
    18
420
        0
370
     9
100
AcDbPolyline
 90
       16
 70
     0
 43
0.0
 10
524.1192122672564
 20
881.7140638982802
 10
523.451649467619
 20
881.6388476332107
 10
522.8175610542583
 20
881.4169704956073
 10
522.248742867936
 20
881.0595583316318
 10
521.7737178276983
 20
880.5845332796042
 10
521.416305672592
 20
880.0157150791672
 10
521.1944285404952
 20
879.3816266500687
 10
521.1192122772918
 20
878.7140638338669
 10
521.1192122772918
 20
849.9537301804137
 10
521.1192122772918
 20
848.2716118518764
 10
521.1192122772918
 20
846.6880723046196
 10
521.1192122772918
 20
845.2959132137875
 10
521.1192122772918
 20
844.1767206035001
 10
521.1192122772918
 20
843.3960835834332
 10
521.1192122772918
 20
842.9997505678066
 10
521.1192122772918
 20
823.5131383882723
  0
LWPOLYLINE
  5
E8F
330
1F
100
AcDbEntity
  8
Hewi
  6
CUSTOM
 62
    18
420
        0
370
     9
100
AcDbPolyline
 90
       12
 70
     0
 43
0.0
 10
517.1192122906777
 20
878.7140638338669
 10
517.1192122906777
 20
849.9537301804137
 10
517.1192122906777
 20
848.2716118518764
 10
517.1192122906777
 20
846.6880723046196
 10
517.1192122906777
 20
845.2959132137875
 10
517.1192122906777
 20
844.1767206035001
 10
517.1192122906777
 20
843.3960835834332
 10
517.1192122906777
 20
842.9997505678066
 10
517.1192122906777
 20
798.760082653876
 10
517.1192122906777
 20
798.734528158785
 10
517.1192122906777
 20
798.7191804981082
 10
517.1192122906777
 20
798.7140621161853
  0
LINE
  5
E90
330
1F
100
AcDbEntity
  8
Hewi
  6
CUSTOM
 62
    18
420
        0
370
     9
100
AcDbLine
 10
814.1192112969747
 20
782.7140617726491
 30
0.0
 11
814.161478034013
 21
782.7142616721271
 31
0.0
  0
LINE
  5
E91
330
1F
100
AcDbEntity
  8
Hewi
  6
CUSTOM
 62
    18
420
        0
370
     9
100
AcDbLine
 10
517.2947169048166
 20
880.2717104050051
 30
0.0
 11
517.81243021304
 21
881.7512500729012
 31
0.0
  0
LWPOLYLINE
  5
E92
330
1F
100
AcDbEntity
  8
Hewi
  6
CUSTOM
 62
    18
420
        0
370
     9
100
AcDbPolyline
 90
       11
 70
     0
 43
0.0
 10
522.5615657347716
 20
885.5385593656682
 10
524.1192122672564
 20
885.7140639841636
 10
549.6192121819384
 20
885.7140639841636
 10
550.6205563813908
 20
885.7140639841636
 10
551.5716890014354
 20
885.7140639841636
 10
552.4249162809155
 20
885.7140639841636
 10
553.1374538412729
 20
885.7140639841636
 10
553.6735720739325
 20
885.7140639841636
 10
554.0063877720784
 20
885.7140639841636
 10
554.1192121668807
 20
885.7140639841636
 10
554.1192121668807
 20
881.7140638982802
  0
LINE
  5
E93
330
1F
100
AcDbEntity
  8
Hewi
  6
CUSTOM
 62
    18
420
        0
370
     9
100
AcDbLine
 10
521.0820261035951
 20
885.0208460445966
 30
0.0
 11
522.5615657347716
 21
885.5385593656682
 31
0.0
  0
LWPOLYLINE
  5
E94
330
1F
100
AcDbEntity
  8
Hewi
  6
CUSTOM
 62
    18
420
        0
370
     9
100
AcDbPolyline
 90
        9
 70
     0
 43
0.0
 10
554.1192121668807
 20
881.7140638982802
 10
554.0063877720784
 20
881.7140638982802
 10
553.6735720739325
 20
881.7140638982802
 10
553.1374538412729
 20
881.7140638982802
 10
552.4249162809155
 20
881.7140638982802
 10
551.5716890014354
 20
881.7140638982802
 10
550.6205563813908
 20
881.7140638982802
 10
549.6192121819384
 20
881.7140638982802
 10
524.1192122672564
 20
881.7140638982802
  0
LINE
  5
E95
330
1F
100
AcDbEntity
  8
Hewi
  6
CUSTOM
 62
    18
420
        0
370
     9
100
AcDbLine
 10
517.81243021304
 20
881.7512500729012
 30
0.0
 11
518.6463919082889
 21
883.0784925405859
 31
0.0
  0
LINE
  5
E96
330
1F
100
AcDbEntity
  8
Hewi
  6
CUSTOM
 62
    18
420
        0
370
     9
100
AcDbLine
 10
821.1192112735552
 20
798.7140621161853
 30
0.0
 11
817.1192112869375
 21
798.7140621161853
 31
0.0
  0
LINE
  5
E97
330
1F
100
AcDbEntity
  8
Hewi
  6
CUSTOM
 62
    18
420
        0
370
     9
100
AcDbLine
 10
518.6463919082889
 20
883.0784925405859
 30
0.0
 11
519.7547836688482
 21
884.1868843286498
 31
0.0
  0
LWPOLYLINE
  5
E98
330
1F
100
AcDbEntity
  8
Hewi
  6
CUSTOM
 62
    18
420
        0
370
     9
100
AcDbPolyline
 90
        3
 70
     0
 43
0.0
 10
814.161478034013
 20
782.7142616721271
 10
814.1228541083528
 20
782.7140639843277
 10
814.1192112969747
 20
782.7140617726491
  0
LINE
  5
E99
330
1F
100
AcDbEntity
  8
Hewi
  6
CUSTOM
 62
    18
420
        0
370
     9
100
AcDbLine
 10
517.1192122906777
 20
878.7140638338669
 30
0.0
 11
517.2947169048166
 21
880.2717104050051
 31
0.0
  0
LWPOLYLINE
  5
E9A
330
1F
100
AcDbEntity
  8
Hewi
  6
CUSTOM
 62
    18
420
        0
370
     9
100
AcDbPolyline
 90
        7
 70
     0
 43
0.0
 10
521.1192122772918
 20
785.7140618370618
 10
521.1192122772918
 20
797.7140620947148
 10
521.1192122772918
 20
797.9365830334481
 10
521.1192122772918
 20
798.1479458431476
 10
521.1192122772918
 20
798.3375519099595
 10
521.1192122772918
 20
798.4958935939688
 10
521.1192122772918
 20
798.6150309819609
  0
LWPOLYLINE
  5
E9B
330
1F
100
AcDbEntity
  8
Hewi
  6
CUSTOM
 62
    18
420
        0
370
     9
100
AcDbPolyline
 90
       10
 70
     0
 43
0.0
 10
517.1192122906777
 20
798.7140621161853
 10
517.1192122906777
 20
798.6889900278282
 10
517.1192122906777
 20
798.6150309819609
 10
517.1192122906777
 20
798.4958935939688
 10
517.1192122906777
 20
798.3375519099595
 10
517.1192122906777
 20
798.1479458431476
 10
517.1192122906777
 20
797.9365830334481
 10
517.1192122906777
 20
797.7140620947148
 10
517.1192122906777
 20
785.7140618370618
 10
517.2781561085956
 20
784.2308388547071
  0
LWPOLYLINE
  5
E9C
330
1F
100
AcDbEntity
  8
Hewi
  6
CUSTOM
 62
    18
420
        0
370
     9
100
AcDbPolyline
 90
        4
 70
     0
 43
0.0
 10
517.2947169048166
 20
880.2717104050051
 10
517.4221552437066
 20
880.7510780953343
 10
517.7946569680788
 20
881.7140638982802
 10
517.81243021304
 20
881.7512500729012
  0
LWPOLYLINE
  5
E9D
330
1F
100
AcDbEntity
  8
Hewi
  6
CUSTOM
 62
    18
420
        0
370
     9
100
AcDbPolyline
 90
        3
 70
     0
 43
0.0
 10
517.81243021304
 20
881.7512500729012
 10
518.6258948195791
 20
883.0526654548311
 10
518.6463919082889
 20
883.0784925405859
  0
LWPOLYLINE
  5
E9E
330
1F
100
AcDbEntity
  8
Hewi
  6
CUSTOM
 62
    18
420
        0
370
     9
100
AcDbPolyline
 90
        3
 70
     0
 43
0.0
 10
519.7547836688482
 20
884.1868843286498
 10
521.0671810435724
 20
885.0136754926516
 10
521.0820261035951
 20
885.0208460445966
  0
LWPOLYLINE
  5
E9F
330
1F
100
AcDbEntity
  8
Hewi
  6
CUSTOM
 62
    18
420
        0
370
     9
100
AcDbPolyline
 90
        3
 70
     0
 43
0.0
 10
521.0820261035951
 20
885.0208460445966
 10
522.5535304185849
 20
885.5367203788816
 10
522.5615657347716
 20
885.5385593656682
  0
LWPOLYLINE
  5
EA0
330
1F
100
AcDbEntity
  8
Hewi
  6
CUSTOM
 62
    18
420
        0
370
     9
100
AcDbPolyline
 90
        3
 70
     0
 43
0.0
 10
518.6463919082889
 20
883.0784925405859
 10
519.7354768711375
 20
884.1714318008607
 10
519.7547836688482
 20
884.1868843286498
  0
LWPOLYLINE
  5
EA1
330
1F
100
AcDbEntity
  8
Hewi
  6
CUSTOM
 62
    18
420
        0
370
     9
100
AcDbPolyline
 90
       18
 70
     0
 43
0.0
 10
522.5846303767012
 20
778.8843429256822
 10
522.7576017409829
 20
778.8478238010083
 10
522.8726866287688
 20
778.8260310280037
 10
522.9268996910576
 20
778.8164382677041
 10
523.1842678280645
 20
778.7767798796663
 10
523.2837967149224
 20
778.7641067571757
 10
523.3363051546603
 20
778.7580081408012
 10
523.4787062089345
 20
778.7434651051447
 10
523.6331513521037
 20
778.7309632846871
 10
523.6816126258617
 20
778.7277531802301
 10
523.7912033631817
 20
778.7217411194396
 10
523.8865885346292
 20
778.7179111160849
 10
523.8977810297965
 20
778.7175483728321
 10
524.0066341996262
 20
778.714967018285
 10
524.0600282106225
 20
778.7142789744511
 10
524.0628904069181
 20
778.7142527739399
 10
524.0966241158712
 20
778.7140474287694
 10
524.1192122672564
 20
778.7140616867645
  0
LWPOLYLINE
  5
EA2
330
1F
100
AcDbEntity
  8
Hewi
  6
CUSTOM
 62
    18
420
        0
370
     9
100
AcDbPolyline
 90
        3
 70
     0
 43
0.0
 10
517.1192122906777
 20
878.7140638338669
 10
517.1953622298806
 20
879.7437727173344
 10
517.2947169048166
 20
880.2717104050051
  0
LWPOLYLINE
  5
EA3
330
1F
100
AcDbEntity
  8
Hewi
  6
CUSTOM
 62
    18
420
        0
370
     9
100
AcDbPolyline
 90
       25
 70
     0
 43
0.0
 10
524.0963440590785
 20
782.7140834921864
 10
524.082822094091
 20
782.7141898748187
 10
524.0608033491461
 20
782.714533393966
 10
523.9758791569946
 20
782.7174872564031
 10
523.9712480405123
 20
782.7177128966012
 10
523.9006660339383
 20
782.7220177757518
 10
523.817145825913
 20
782.7292878040226
 10
523.7889543628932
 20
782.7322788174265
 10
523.659270967162
 20
782.7495290953891
 10
523.547684508414
 20
782.7690526991013
 10
523.5359418901988
 20
782.7713617064333
 10
523.4265020675648
 20
782.7952067921787
 10
523.2303823387828
 20
782.8487561533587
 10
523.2174857948209
 20
782.8527876951742
 10
523.0648290201806
 20
782.9056260769492
 10
522.9074892974312
 20
782.9699320586783
 10
522.8943563456414
 20
782.9757623068202
 10
522.6542229013483
 20
783.096084289843
 10
522.5148293044549
 20
783.1792464304058
 10
522.3782217064742
 20
783.2711607845167
 10
522.1192122739465
 20
783.477993811551
 10
521.6965471326384
 20
783.9446851839221
 10
521.3805994888915
 20
784.4893169393738
 10
521.1852867188333
 20
785.0878982517681
 10
521.1192122772918
 20
785.7140618370618
  0
LINE
  5
EA4
330
1F
100
AcDbEntity
  8
Hewi
  6
CUSTOM
 62
    18
420
        0
370
     9
100
AcDbLine
 10
524.1192122672564
 20
782.7140617726491
 30
0.0
 11
524.0963440590785
 21
782.7140834921864
 31
0.0
  0
LINE
  5
EA5
330
1F
100
AcDbEntity
  8
Hewi
  6
CUSTOM
 62
    18
420
        0
370
     9
100
AcDbLine
 10
815.9307096768861
 20
881.0966122795694
 30
0.0
 11
816.2205815956166
 21
880.8286574274461
 31
0.0
  0
LINE
  5
EA6
330
1F
100
AcDbEntity
  8
Hewi
  6
CUSTOM
 62
    18
420
        0
370
     9
100
AcDbLine
 10
815.3385793772395
 20
881.4457626101393
 30
0.0
 11
815.6739360729515
 21
881.2579538319447
 31
0.0
  0
LWPOLYLINE
  5
EA7
330
1F
100
AcDbEntity
  8
Hewi
  6
CUSTOM
 62
    18
420
        0
370
     9
100
AcDbPolyline
 90
        3
 70
     0
 43
0.0
 10
524.1192122672564
 20
782.7140617726491
 10
524.1155694558782
 20
782.7140639843277
 10
524.0963440590785
 20
782.7140834921864
  0
LINE
  5
EA8
330
1F
100
AcDbEntity
  8
Hewi
  6
CUSTOM
 62
    18
420
        0
370
     9
100
AcDbLine
 10
814.7480123311943
 20
881.6432150355135
 30
0.0
 11
814.9454834936932
 21
881.5833128117752
 31
0.0
  0
LINE
  5
EA9
330
1F
100
AcDbEntity
  8
Hewi
  6
CUSTOM
 62
    18
420
        0
370
     9
100
AcDbLine
 10
816.8036284376704
 20
880.0451408770523
 30
0.0
 11
816.962672536361
 21
879.6140329727313
 31
0.0
  0
LWPOLYLINE
  5
EAA
330
1F
100
AcDbEntity
  8
Hewi
  6
CUSTOM
 62
    18
420
        0
370
     9
100
AcDbPolyline
 90
        3
 70
     0
 43
0.0
 10
519.5205600216559
 20
780.4365246672659
 10
518.6463919082889
 20
781.3496331303412
 10
518.5067262058746
 20
781.5307616145717
  0
LINE
  5
EAB
330
1F
100
AcDbEntity
  8
Hewi
  6
CUSTOM
 62
    18
420
        0
370
     9
100
AcDbLine
 10
817.0382602528789
 20
879.3980156842067
 30
0.0
 11
817.1192112869375
 21
878.7140638338669
 31
0.0
  0
LWPOLYLINE
  5
EAC
330
1F
100
AcDbEntity
  8
Hewi
  6
CUSTOM
 62
    18
420
        0
370
     9
100
AcDbPolyline
 90
        3
 70
     0
 43
0.0
 10
518.5067262058746
 20
781.5307616145717
 10
517.81243021304
 20
782.6768755980272
 10
517.7477695231191
 20
782.8149727650481
  0
LWPOLYLINE
  5
EAD
330
1F
100
AcDbEntity
  8
Hewi
  6
CUSTOM
 62
    18
420
        0
370
     9
100
AcDbPolyline
 90
        3
 70
     0
 43
0.0
 10
517.7477695231191
 20
782.8149727650481
 10
517.2947169048166
 20
784.1564152659233
 10
517.2781561085956
 20
784.2308388547071
  0
LINE
  5
EAE
330
1F
100
AcDbEntity
  8
Hewi
  6
CUSTOM
 62
    18
420
        0
370
     9
100
AcDbLine
 10
522.5011714699211
 20
778.9036429113735
 30
0.0
 11
522.5846303767012
 21
778.8843429256822
 31
0.0
  0
LINE
  5
EAF
330
1F
100
AcDbEntity
  8
Hewi
  6
CUSTOM
 62
    18
420
        0
370
     9
100
AcDbLine
 10
522.1192122739465
 20
779.0058577605305
 30
0.0
 11
522.5011714699211
 21
778.9036429113735
 31
0.0
  0
LWPOLYLINE
  5
EB0
330
1F
100
AcDbEntity
  8
Hewi
  6
CUSTOM
 62
    18
420
        0
370
     9
100
AcDbPolyline
 90
        3
 70
     0
 43
0.0
 10
522.5011714699211
 20
778.9036429113735
 10
522.5615657347716
 20
778.8895663052599
 10
522.5846303767012
 20
778.8843429256822
  0
LWPOLYLINE
  5
EB1
330
1F
100
AcDbEntity
  8
Hewi
  6
CUSTOM
 62
    18
420
        0
370
     9
100
AcDbPolyline
 90
        3
 70
     0
 43
0.0
 10
522.1192122739465
 20
779.0058577605305
 10
521.0820261035951
 20
779.4072796263318
 10
520.743230222486
 20
779.5819539799008
  0
LINE
  5
EB2
330
1F
100
AcDbEntity
  8
Hewi
  6
CUSTOM
 62
    18
420
        0
370
     9
100
AcDbLine
 10
815.4171295843097
 20
783.0098489681045
 30
0.0
 11
815.41465901413
 21
783.0089844781877
 31
0.0
  0
LINE
  5
EB3
330
1F
100
AcDbEntity
  8
Hewi
  6
CUSTOM
 62
    18
420
        0
370
     9
100
AcDbLine
 10
519.5205600216559
 20
780.4365246672659
 30
0.0
 11
520.743230222486
 21
779.5819539799008
 31
0.0
  0
LINE
  5
EB4
330
1F
100
AcDbEntity
  8
Hewi
  6
CUSTOM
 62
    18
420
        0
370
     9
100
AcDbLine
 10
518.5067262058746
 20
781.5307616145717
 30
0.0
 11
519.5205600216559
 21
780.4365246672659
 31
0.0
  0
LWPOLYLINE
  5
EB5
330
1F
100
AcDbEntity
  8
Hewi
  6
CUSTOM
 62
    18
420
        0
370
     9
100
AcDbPolyline
 90
        3
 70
     0
 43
0.0
 10
520.743230222486
 20
779.5819539799008
 10
519.7547836688482
 20
780.2412413422784
 10
519.5205600216559
 20
780.4365246672659
  0
LINE
  5
EB6
330
1F
100
AcDbEntity
  8
Hewi
  6
CUSTOM
 62
    18
420
        0
370
     9
100
AcDbLine
 10
520.743230222486
 20
779.5819539799008
 30
0.0
 11
522.1192122739465
 21
779.0058577605305
 31
0.0
  0
LINE
  5
EB7
330
1F
100
AcDbEntity
  8
Hewi
  6
CUSTOM
 62
    18
420
        0
370
     9
100
AcDbLine
 10
521.1192122772918
 20
798.7140621161853
 30
0.0
 11
517.1192122906777
 21
798.7140621161853
 31
0.0
  0
LINE
  5
EB8
330
1F
100
AcDbEntity
  8
Hewi
  6
CUSTOM
 62
    18
420
        0
370
     9
100
AcDbLine
 10
815.4239310440351
 20
783.0130832631092
 30
0.0
 11
815.4228996780927
 21
783.0124352129192
 31
0.0
  0
LINE
  5
EB9
330
1F
100
AcDbEntity
  8
Hewi
  6
CUSTOM
 62
    18
420
        0
370
     9
100
AcDbLine
 10
517.2781561085956
 20
784.2308388547071
 30
0.0
 11
517.7477695231191
 21
782.8149727650481
 31
0.0
  0
LINE
  5
EBA
330
1F
100
AcDbEntity
  8
Hewi
  6
CUSTOM
 62
    18
420
        0
370
     9
100
AcDbLine
 10
816.427811446163
 20
880.6214275715328
 30
0.0
 11
816.6578015297982
 21
880.2772230784666
 31
0.0
  0
LINE
  5
EBB
330
1F
100
AcDbEntity
  8
Hewi
  6
CUSTOM
 62
    18
420
        0
370
     9
100
AcDbLine
 10
517.7477695231191
 20
782.8149727650481
 30
0.0
 11
518.5067262058746
 21
781.5307616145717
 31
0.0
  0
LWPOLYLINE
  5
EBC
330
1F
100
AcDbEntity
  8
Hewi
  6
CUSTOM
 62
    18
420
        0
370
     9
100
AcDbPolyline
 90
       54
 70
     0
 43
0.0
 10
444.1225226736678
 20
354.3174129395799
 10
443.4605688389329
 20
361.0109004654696
 10
443.4548493058173
 20
370.6722798961227
 10
442.9144525038664
 20
378.2946906482439
 10
442.7995225610357
 20
384.8630939798127
 10
442.712790556443
 20
391.4279213272603
 10
442.6562330425913
 20
397.9825980863552
 10
442.6319293678623
 20
403.9274704954305
 10
442.6388960497695
 20
411.1239869697596
 10
442.6826939994916
 20
417.8670589971971
 10
442.8623848747628
 20
430.8378496858917
 10
443.0029911876208
 20
437.4199657780523
 10
443.3945146761305
 20
450.5664826160662
 10
443.5701006779436
 20
455.1970420905818
 10
443.6648768769972
 20
457.5055930315145
 10
443.8638670118325
 20
462.0903881156091
 10
444.0149741861004
 20
465.3916534517557
 10
444.1451829913694
 20
468.696429810117
 10
444.3083127197186
 20
473.6277358131636
 10
444.5686485073127
 20
480.2014223083387
 10
444.7030328513736
 20
483.481708645518
 10
444.8283952376566
 20
485.9454329389572
 10
444.8884818503137
 20
487.1885603930377
 10
444.9554201034134
 20
488.4427129735331
 10
445.0463002491723
 20
490.1131841525571
 10
445.2572288550817
 20
493.8715944605228
 10
445.3292182402129
 20
495.1281682918634
 10
445.4265901184481
 20
496.7972183552602
 10
445.6266748419128
 20
500.1374956662543
 10
445.6778912032696
 20
500.9729716491815
 10
445.7807119580083
 20
502.6461561385247
 10
445.8591174525444
 20
503.8965130601095
 10
445.9384385121047
 20
505.1508557866527
 10
446.0856357921803
 20
507.4489004174766
 10
446.1530024662224
 20
508.4930779083927
 10
446.2907964736968
 20
510.5724666932173
 10
446.375728446439
 20
511.8264779179148
 10
446.5222039881806
 20
513.9543829888556
 10
446.6071142712171
 20
515.1618329185976
 10
446.7860110977853
 20
517.65606080627
 10
446.8476558629409
 20
518.4886299607696
 10
447.2274851567761
 20
523.4910607612337
 10
447.5569548180536
 20
527.6566436296193
 10
447.6244046856298
 20
528.4944250187256
 10
447.8933409449291
 20
531.8326981323588
 10
448.0302034886608
 20
533.4971342813942
 10
448.232068597199
 20
535.9100400393513
 10
448.2711142000935
 20
536.327186484037
 10
448.3700916627276
 20
537.5123810087178
 10
448.5832968181711
 20
539.881940546199
 10
448.9291297929701
 20
543.4339831289544
 10
449.4147278633318
 20
548.166923348951
 10
449.6642144928316
 20
550.5318102296555
 10
450.4529958408657
 20
557.8144420776927
  0
LINE
  5
EBD
330
1F
100
AcDbEntity
  8
Hewi
  6
CUSTOM
 62
    18
420
        0
370
     9
100
AcDbLine
 10
521.7366638806815
 20
880.5255622587328
 30
0.0
 11
522.0046187261523
 21
880.815434184657
 31
0.0
  0
LWPOLYLINE
  5
EBF
330
1F
100
AcDbEntity
  8
Hewi
  6
CUSTOM
 62
    18
420
        0
370
     9
100
AcDbPolyline
 90
       28
 70
     0
 43
0.0
 10
450.4343123194285
 20
557.6419415379505
 10
450.4533313031333
 20
557.8207964742605
 10
450.9532763823044
 20
562.3518946047934
 10
451.2181448629708
 20
564.7115629832451
 10
452.1751643258831
 20
573.0585317317452
 10
452.8540481285562
 20
578.8475597397441
 10
453.9746171818933
 20
588.2433508151563
 10
455.6221979188867
 20
602.0232361548915
 10
457.1879338114722
 20
613.8722631163362
 10
459.1331170974553
 20
625.7337931759137
 10
461.8077982708581
 20
638.3851000685381
 10
465.8727832687492
 20
651.9378010630571
 10
471.0037698530995
 20
663.4998746439669
 10
471.4786193157324
 20
664.3187978078857
 10
477.7419206818558
 20
674.296161013699
 10
485.3796847926368
 20
682.7597098818132
 10
493.5822865313365
 20
689.1971021155502
 10
494.2641018425456
 20
689.7197629154228
 10
503.8499945661806
 20
695.1500857055182
 10
515.0187115113002
 20
699.5005596917381
 10
517.3323552363633
 20
700.2050121024557
 10
518.9925403619707
 20
700.6757334374423
 10
520.8865546300129
 20
701.1794807635042
 10
523.7822831428093
 20
701.8856754864
 10
525.6511609222161
 20
702.3050242867903
 10
527.5684547485907
 20
702.7510444513035
 10
530.2587886904603
 20
703.4870528580658
 10
531.1220523724423
 20
703.6778511580137
  0
LWPOLYLINE
  5
EC0
330
1F
100
AcDbEntity
  8
Hewi
  6
CUSTOM
 62
    18
420
        0
370
     9
100
AcDbPolyline
 90
        4
 70
     0
 43
0.0
 10
530.1192122419179
 20
706.0220760088768
 10
530.1192122419161
 20
704.6842571012835
 10
530.1192122419161
 20
703.6467361123018
 10
530.1192122419161
 20
703.4488682126739
  0
LINE
  5
EC2
330
1F
100
AcDbEntity
  8
Hewi
  6
CUSTOM
 62
    18
420
        0
370
     9
100
AcDbLine
 10
594.0991419181317
 20
776.8722216173532
 30
0.0
 11
594.0930361679782
 21
778.7140616867654
 31
0.0
  0
LINE
  5
EC3
330
1F
100
AcDbEntity
  8
Hewi
  6
CUSTOM
 62
    18
420
        0
370
     9
100
AcDbLine
 10
744.1361996869345
 20
776.8722216173516
 30
0.0
 11
744.1406605839183
 21
778.7140616867645
 31
0.0
  0
LINE
  5
EC4
330
1F
100
AcDbEntity
  8
Hewi
  6
CUSTOM
 62
    18
420
        0
370
     9
100
AcDbLine
 10
523.4352604338892
 20
881.6331128622126
 30
0.0
 11
524.1192122672564
 21
881.7140638982802
 31
0.0
  0
LINE
  5
EC5
330
1F
100
AcDbEntity
  8
Hewi
  6
CUSTOM
 62
    18
420
        0
370
     9
100
AcDbLine
 10
522.2118485769242
 20
881.0226640403456
 30
0.0
 11
522.5560530614475
 21
881.2526541296891
 31
0.0
  0
LINE
  5
EC6
330
1F
100
AcDbEntity
  8
Hewi
  6
CUSTOM
 62
    18
420
        0
370
     9
100
AcDbLine
 10
522.7881352571039
 20
881.3984810411776
 30
0.0
 11
523.2192431507246
 21
881.5575251438174
 31
0.0
  0
LINE
  5
EC7
330
1F
100
AcDbEntity
  8
Hewi
  6
CUSTOM
 62
    18
420
        0
370
     9
100
AcDbLine
 10
521.1900611383007
 20
879.3428648836909
 30
0.0
 11
521.249963360553
 21
879.5403360510896
 31
0.0
  0
LINE
  5
EC8
330
1F
100
AcDbEntity
  8
Hewi
  6
CUSTOM
 62
    18
420
        0
370
     9
100
AcDbLine
 10
521.3875135587731
 20
879.9334319443932
 30
0.0
 11
521.5753223323081
 21
880.2687886484264
 31
0.0
  0
LWPOLYLINE
  5
EC9
330
1F
100
AcDbEntity
  8
Hewi
  6
CUSTOM
 62
    18
420
        0
370
     9
100
AcDbPolyline
 90
       62
 70
     0
 43
0.0
 10
443.7783033756276
 20
357.7980598265958
 10
444.2596065476155
 20
348.4271924039731
 10
444.8143423475428
 20
343.8533212872671
 10
445.1214653947443
 20
341.9648978834184
 10
445.3144778166206
 20
340.7260986977676
 10
445.6300383626492
 20
338.8453168326869
 10
446.3330736929183
 20
335.1206988990343
 10
446.8616771028883
 20
332.6502743135025
 10
447.9852296841508
 20
328.0713532916256
 10
448.7588197995318
 20
325.3166321927315
 10
449.5010060672448
 20
322.9074255313804
 10
450.3012138278443
 20
320.5205630941108
 10
450.721427336246
 20
319.3415612600284
 10
451.1614426657378
 20
318.1588661774758
 10
452.084440290766
 20
315.8212930172999
 10
452.5691794712201
 20
314.6641192037086
 10
453.0697382322741
 20
313.5152858564138
 10
453.5965786662564
 20
312.3545852975431
 10
454.1207327986557
 20
311.2446642156811
 10
456.4193544615718
 20
306.8212001760444
 10
457.6678748827069
 20
304.6745980403866
 10
458.9832588177396
 20
302.5763135363982
 10
460.3657960057808
 20
300.5265906128952
 10
462.5603282794052
 20
297.5502370052654
 10
463.3265062308491
 20
296.5817015037464
 10
464.1051665837948
 20
295.6295382406397
 10
464.9004627756111
 20
294.6900928119612
 10
464.968954392958
 20
294.6087792289858
 10
465.7822884946162
 20
293.6729556574555
 10
467.228022497431
 20
292.0862321636128
 10
470.0814165334905
 20
289.2114725444709
 10
471.9069048046676
 20
287.5295760584759
 10
474.7496473407427
 20
285.1239940440778
 10
476.1022546915846
 20
284.0618147430951
 10
477.7144913837291
 20
282.8586282505075
 10
480.2756625470646
 20
281.0785786174997
 10
481.3256515226221
 20
280.3924214320236
 10
482.3773743500622
 20
279.7285162425969
 10
483.9856423112815
 20
278.7586701198343
 10
486.9313570204337
 20
277.1106525720115
 10
490.6518843607427
 20
275.2447035276141
 10
492.9485328465688
 20
274.2043316613608
 10
497.6403294166738
 20
272.3242820228388
 10
500.3201336175207
 20
271.3836237832256
 10
502.4467176520301
 20
270.6995437173082
 10
509.8260574924224
 20
268.7188161560066
 10
514.8315676053953
 20
267.6935719517082
 10
517.3535079024349
 20
267.2594829710492
 10
522.4262982734126
 20
266.5271970898225
 10
527.5249405038448
 20
265.9495864320525
 10
532.6396627879403
 20
265.4935613098091
 10
536.4831354989401
 20
265.2080184059714
 10
537.7643146384817
 20
265.1431176589667
 10
551.795773676773
 20
264.2398033392765
 10
558.8563995717613
 20
263.9019917842088
 10
562.3144986435963
 20
263.7315559968574
 10
568.2421185213697
 20
263.4596558229205
 10
572.9119882010252
 20
263.1981896069133
 10
579.9384796123995
 20
262.8746882870081
 10
587.3487169556337
 20
262.556025396424
 10
592.298213311411
 20
262.3737369704782
 10
602.1985110391414
 20
262.0518535354045
  0
LWPOLYLINE
  5
ECE
330
1F
100
AcDbEntity
  8
Hewi
  6
CUSTOM
 62
    18
420
        0
370
     9
100
AcDbPolyline
 90
       71
 70
     0
 43
0.0
 10
894.7835742531587
 20
370.6722798961227
 10
894.7489379841062
 20
360.9217994978189
 10
894.1479661543725
 20
352.0155584144841
 10
893.9117767693259
 20
348.2999103574039
 10
893.3431625703105
 20
343.7407805842904
 10
893.1049329919897
 20
341.9953795856295
 10
892.9126621573415
 20
340.7559264120332
 10
892.5981772510199
 20
338.8740595839264
 10
891.8972996742196
 20
335.1471993936502
 10
891.1838036489282
 20
331.8562249438918
 10
890.2745881912888
 20
328.1887499761974
 10
889.4771025842837
 20
325.3362474544137
 10
888.3440108781414
 20
321.7274109338523
 10
887.728025787881
 20
319.9422902389192
 10
887.3006591206104
 20
318.7652660492509
 10
886.6243645858467
 20
316.9973405942119
 10
885.6716713934748
 20
314.6732871041722
 10
885.1715050843559
 20
313.523104805311
 10
884.654191895248
 20
312.3809078796603
 10
884.1211728486323
 20
311.2496528962374
 10
882.9768105947824
 20
308.9597090928482
 10
880.5750354657774
 20
304.6705896405324
 10
879.8407112101722
 20
303.4783119690628
 10
877.8768556084157
 20
300.5164883431961
 10
876.4289487258775
 20
298.5155767499064
 10
875.3009972041873
 20
297.0498231852738
 10
874.5266616908336
 20
296.0865007133634
 10
873.7407297503358
 20
295.1407925690896
 10
872.9366292416214
 20
294.2065074583143
 10
871.701585065197
 20
292.8317557236974
 10
870.0012205319342
 20
291.0482026305786
 10
866.4201151072575
 20
287.6515390791001
 10
863.7075551175257
 20
285.3585836695311
 10
862.6141381085362
 20
284.4946649217663
 10
861.6280281521083
 20
283.7426223826073
 10
858.5895020216211
 20
281.5779076941098
 10
857.5451978241162
 20
280.8843785120103
 10
856.5063564152042
 20
280.2168376351292
 10
856.2269622914371
 20
280.042175579691
 10
855.1600147720547
 20
279.3800139720715
 10
852.7530505583872
 20
277.9697214137018
 10
851.9056187554724
 20
277.4993220861793
 10
847.4269025846767
 20
275.220909625008
 10
842.8053438903972
 20
273.2088508273591
 10
840.4466271870187
 20
272.3034100648356
 10
838.0595699513559
 20
271.4622578870003
 10
830.7552021964891
 20
269.3099233833204
 10
828.2804233007864
 20
268.7141082065391
 10
824.0485733426503
 20
267.8377368512129
 10
820.7694998886292
 20
267.2670594554393
 10
817.4627402102306
 20
266.7741361833732
 10
812.2867945561411
 20
266.143327377978
 10
808.0793493126162
 20
265.7336531565297
 10
802.9763411441761
 20
265.3274624596788
 10
801.060202235827
 20
265.1920055538171
 10
800.4677946245264
 20
265.1512595552613
 10
785.8907039985642
 20
264.2179471436593
 10
778.592754388761
 20
263.8284536415767
 10
768.8582803507705
 20
263.3710404744079
 10
764.0080568609662
 20
263.1274485620138
 10
756.7180902587279
 20
262.8057285915442
 10
749.4314261034287
 20
262.4961825521946
 10
744.5642919370857
 20
262.3197013240911
 10
734.8530326667915
 20
261.9351192460454
 10
727.5604526098503
 20
261.6830557671192
 10
712.9534419865176
 20
261.2779122677753
 10
669.1199650143516
 20
260.6788022667806
 10
624.4763204835817
 20
261.2989609984215
 10
609.6004126194511
 20
261.7182549066956
 10
602.1737256256765
 20
261.9782593731297
 10
600.0016545121089
 20
262.1232788363018
  0
LWPOLYLINE
  5
ED1
330
1F
100
AcDbEntity
  8
Hewi
  6
CUSTOM
 62
    18
420
        0
370
     9
100
AcDbPolyline
 90
       81
 70
     0
 43
0.0
 10
807.1163711865301
 20
703.6778511580137
 10
808.2874298171191
 20
703.3917975606846
 10
810.169960601379
 20
702.9106969564335
 10
812.8220906226779
 20
702.2493620106302
 10
814.5464997982033
 20
701.8724351804925
 10
815.9971302832255
 20
701.5250372653781
 10
818.6116725675073
 20
700.8505503632412
 10
819.7743120271571
 20
700.5294857391182
 10
819.8907121324081
 20
700.4962273074174
 10
821.0968116820604
 20
700.1491124324052
 10
821.9756172136749
 20
699.8865832610547
 10
833.6638289070888
 20
695.4879725909417
 10
843.4019346538132
 20
690.1019213445358
 10
852.3316150013434
 20
683.2419867019739
 10
860.0946362075847
 20
674.8241965832457
 10
865.3187017166164
 20
666.8696955053137
 10
867.0086896102167
 20
664.0377409388492
 10
870.9039020877026
 20
655.7007516239364
 10
872.4651422267633
 20
651.6217804919742
 10
873.9387254372543
 20
646.4557524901729
 10
875.5367027827578
 20
641.8632914665858
 10
876.8627741865129
 20
636.2414279808281
 10
877.9873958571098
 20
631.3087588844772
 10
879.5771253075598
 20
623.2924066723517
 10
881.050489747502
 20
613.8722631163362
 10
882.6162256421158
 20
602.0232360665777
 10
884.2638063770806
 20
588.2433508151563
 10
885.3843754304161
 20
578.8475597397441
 10
886.4830219305167
 20
569.4278680358702
 10
887.0202786960051
 20
564.7115629832451
 10
887.5471804841344
 20
559.9907753718788
 10
888.5463048083348
 20
550.7945121144173
 10
888.8236956956442
 20
548.166923348951
 10
889.3092937660021
 20
543.4339831289544
 10
889.655126740805
 20
539.881940546199
 10
889.8683318962449
 20
537.5123810087178
 10
889.9557082794126
 20
536.3266972900905
 10
890.0595886432038
 20
535.0903815727693
 10
890.2669957003597
 20
532.5961515959134
 10
890.4695339022692
 20
530.1023457733863
 10
890.6371640141097
 20
528.0154994686271
 10
890.7376173570865
 20
526.7658964939815
 10
891.2541991682154
 20
520.1109180793419
 10
891.40970067759
 20
518.0295278376602
 10
891.5006524163871
 20
516.7871850189449
 10
891.6778666779553
 20
514.2895297823687
 10
891.7360351788319
 20
513.4590872982338
 10
891.9068948680687
 20
510.9607631096158
 10
891.963137386876
 20
510.1288147250796
 10
892.0999088686221
 20
508.0517663201071
 10
892.1806987841518
 20
506.7992589279765
 10
892.3403293394859
 20
504.2973925538126
 10
892.393020217578
 20
503.4627265122676
 10
892.4965893772132
 20
501.7979497461815
 10
892.5735528144631
 20
500.5440615174393
 10
892.7074022209126
 20
498.337246681132
 10
892.8481289017854
 20
495.9600616521738
 10
892.9444490428977
 20
494.2920651177352
 10
892.9923397148487
 20
493.4571738614066
 10
893.2250261439367
 20
489.2882511596671
 10
893.3149728242822
 20
487.6206975530845
 10
893.3622725556778
 20
486.6825517481202
 10
893.4400942973189
 20
485.1389748044816
 10
893.5947860970102
 20
481.8643643418688
 10
893.7942818607169
 20
476.927462978618
 10
894.0361183596905
 20
470.3667905339971
 10
894.1500715762467
 20
467.0771965991207
 10
894.2962135854214
 20
463.7727317565077
 10
894.4420394807456
 20
460.4793289449649
 10
894.5817091222123
 20
457.1922937542208
 10
894.8032618622255
 20
451.4907190376998
 10
895.0486294904312
 20
444.0344517186303
 10
895.3644485683161
 20
430.8981117326054
 10
895.5336880594714
 20
419.0139928329718
 10
895.5580158684895
 20
416.237519550481
 10
895.5945690611788
 20
404.6385757593125
 10
895.5684422645372
 20
398.069063994365
 10
895.5112942719113
 20
391.5191893034326
 10
895.4243590034366
 20
384.9586493861425
 10
895.2232098959738
 20
378.0220918700402
 10
894.7772964037014
 20
368.9050020018021
  0
LWPOLYLINE
  5
ED3
330
1F
100
AcDbEntity
  8
Hewi
  6
CUSTOM
 62
    18
420
        0
370
     9
100
AcDbPolyline
 90
        3
 70
     0
 43
0.0
 10
808.1192113170564
 20
703.4328881763458
 10
808.1192113170564
 20
703.8261395351717
 10
808.1192113170564
 20
706.0220760088768
  0
LINE
  5
ED5
330
1F
100
AcDbEntity
  8
Hewi
  6
CUSTOM
 62
    18
420
        0
370
     9
100
AcDbLine
 10
669.1186228735023
 20
496.8722344950387
 30
0.0
 11
666.6846325857712
 21
497.0988509790553
 31
0.0
  0
LWPOLYLINE
  5
ED6
330
1F
100
AcDbEntity
  8
Hewi
  6
CUSTOM
 62
    18
420
        0
370
     9
100
AcDbPolyline
 90
        4
 70
     0
 43
0.0
 10
669.1173580673038
 20
495.4297189988192
 10
669.1174724915708
 20
496.1837056844101
 10
669.120166458797
 20
495.4299549333032
 10
669.1197989282661
 20
494.5337352385686
  0
LINE
  5
ED7
330
1F
100
AcDbEntity
  8
Hewi
  6
CUSTOM
 62
    18
420
        0
370
     9
100
AcDbLine
 10
665.9801234205406
 20
497.2311017538476
 30
0.0
 11
664.6823914651085
 21
497.6047846141169
 31
0.0
  0
LINE
  5
ED8
330
1F
100
AcDbEntity
  8
Hewi
  6
CUSTOM
 62
    18
420
        0
370
     9
100
AcDbLine
 10
654.6350677951231
 20
565.5980205115211
 30
0.0
 11
655.0632356573697
 21
567.0311575735022
 31
0.0
  0
LWPOLYLINE
  5
ED9
330
1F
100
AcDbEntity
  8
Hewi
  6
CUSTOM
 62
    18
420
        0
370
     9
100
AcDbPolyline
 90
       13
 70
     0
 43
0.0
 10
683.9734325412498
 20
509.7472329269947
 10
683.3987243840729
 20
507.2671450389707
 10
681.8148590614927
 20
503.8790839596756
 10
679.9854452841262
 20
501.5256629704463
 10
677.8989896233452
 20
499.7086445042951
 10
674.9408501968846
 20
498.0471939762365
 10
671.9550224209597
 20
497.1426878137422
 10
669.1189223817598
 20
496.8722162840747
 10
667.3041123371587
 20
496.9825619523916
 10
665.4047594791227
 20
497.3391093338748
 10
662.5314469220158
 20
498.3958672541701
 10
659.520457224784
 20
500.3438571060319
 10
657.6461290891911
 20
502.2068094646756
  0
LINE
  5
EDA
330
1F
100
AcDbEntity
  8
Hewi
  6
CUSTOM
 62
    18
420
        0
370
     9
100
AcDbLine
 10
669.1197989282661
 20
494.5337352385686
 30
0.0
 11
669.1173580673038
 21
495.4297189988192
 31
0.0
  0
LWPOLYLINE
  5
EDB
330
1F
100
AcDbEntity
  8
Hewi
  6
CUSTOM
 62
    18
420
        0
370
     9
100
AcDbPolyline
 90
       12
 70
     0
 43
0.0
 10
671.5781473903279
 20
576.6696389009862
 10
673.9261044499235
 20
576.0817443776533
 10
676.3623989803946
 20
575.0081609408826
 10
678.7515434637388
 20
573.372667942572
 10
681.086551121145
 20
570.9191503174414
 10
682.8749655167757
 20
567.8612311740471
 10
683.8851607402812
 20
564.5470542352102
 10
684.1227718155622
 20
561.8721379640695
 10
684.1232499319739
 20
547.9913487050144
 10
684.1232518309807
 20
534.094269241717
 10
684.1224104356115
 20
511.8721368935085
 10
684.0896521349967
 20
510.8689823076938
  0
LWPOLYLINE
  5
EDC
330
1F
100
AcDbEntity
  8
Hewi
  6
CUSTOM
 62
    18
420
        0
370
     9
100
AcDbPolyline
 90
        7
 70
     0
 43
0.0
 10
654.2722193652535
 20
564.0572786183557
 10
654.8465012553861
 20
566.4958179560917
 10
655.6550390277952
 20
568.4929273804607
 10
657.5916791900545
 20
571.4743403615889
 10
660.1373650144977
 20
573.8875014271711
 10
663.0389172540507
 20
575.5854579129817
 10
666.2175005542667
 20
576.5893023692552
  0
LWPOLYLINE
  5
EDD
330
1F
100
AcDbEntity
  8
Hewi
  6
CUSTOM
 62
    18
420
        0
370
     9
100
AcDbPolyline
 90
        6
 70
     0
 43
0.0
 10
654.5094069744664
 20
508.5055929382751
 10
654.1160131286597
 20
511.8721368935085
 10
654.1153748285051
 20
525.7560486686798
 10
654.1151190929212
 20
539.6538487126208
 10
654.1156517487125
 20
561.8721379640695
 10
654.1458310726429
 20
562.8577990653004
  0
LINE
  5
EDE
330
1F
100
AcDbEntity
  8
Hewi
  6
CUSTOM
 62
    18
420
        0
370
     9
100
AcDbLine
 10
669.1176025226141
 20
494.5336183687323
 30
0.0
 11
669.1173580673038
 21
495.4297189988192
 31
0.0
  0
LWPOLYLINE
  5
EE0
330
1F
100
AcDbEntity
  8
Hewi
  6
CUSTOM
 62
    18
420
        0
370
     9
100
AcDbPolyline
 90
        3
 70
     0
 43
0.0
 10
657.7198396539987
 20
502.1335462952706
 10
655.7689748188841
 20
505.0247499149953
 10
654.4810992464245
 20
508.5838220181147
  0
LWPOLYLINE
  5
EE2
330
1F
100
AcDbEntity
  8
Hewi
  6
CUSTOM
 62
    18
420
        0
370
     9
100
AcDbPolyline
 90
        3
 70
     0
 43
0.0
 10
665.9123145950143
 20
576.4929200481217
 10
669.1189153227788
 20
576.8722150156268
 10
670.3140127402677
 20
576.8246642256571
  0
LINE
  5
EE3
330
1F
100
AcDbEntity
  8
Hewi
  6
CUSTOM
 62
    18
420
        0
370
     9
100
AcDbLine
 10
530.1192122419179
 20
706.0220760088768
 30
0.0
 11
530.1192122419161
 21
710.1410998289764
 31
0.0
  0
LINE
  5
EE4
330
1F
100
AcDbEntity
  8
Hewi
  6
CUSTOM
 62
    18
420
        0
370
     9
100
AcDbLine
 10
808.1192113170564
 20
710.1390803902773
 30
0.0
 11
808.1192113170564
 21
706.0220760088768
 31
0.0
  0
LINE
  5
EE7
330
1F
100
AcDbEntity
  8
Hewi
  6
CUSTOM
 62
    18
420
        0
370
     9
100
AcDbLine
 10
659.9845275555217
 20
500.0436221668568
 30
0.0
 11
658.254395197182
 21
501.6022350736046
 31
0.0
  0
LINE
  5
EE8
330
1F
100
AcDbEntity
  8
Hewi
  6
CUSTOM
 62
    18
420
        0
370
     9
100
AcDbLine
 10
663.1278191729942
 20
498.1765311822746
 30
0.0
 11
661.5950537741719
 21
499.0016761425358
 31
0.0
  0
LINE
  5
EE9
330
1F
100
AcDbEntity
  8
Hewi
  6
CUSTOM
 62
    18
420
        0
370
     9
100
AcDbLine
 10
655.4114176147757
 20
567.8911761251965
 30
0.0
 11
656.2574264483425
 21
569.4202889562403
 31
0.0
  0
LWPOLYLINE
  5
EEA
330
1F
100
AcDbEntity
  8
Hewi
  6
CUSTOM
 62
    18
420
        0
370
     9
100
AcDbPolyline
 90
        3
 70
     0
 43
0.0
 10
584.1224099019764
 20
776.8722215565303
 10
584.1222334259672
 20
777.5130616609795
 10
584.1230125698075
 20
778.714061689851
  0
LWPOLYLINE
  5
EEB
330
1F
100
AcDbEntity
  8
Hewi
  6
CUSTOM
 62
    18
420
        0
370
     9
100
AcDbPolyline
 90
        3
 70
     0
 43
0.0
 10
671.6140012552203
 20
778.7140616898505
 10
671.6126446407305
 20
777.5130616609779
 10
671.6128172222761
 20
776.8722215080278
  0
LWPOLYLINE
  5
EEC
330
1F
100
AcDbEntity
  8
Hewi
  6
CUSTOM
 62
    18
420
        0
370
     9
100
AcDbPolyline
 90
        3
 70
     0
 43
0.0
 10
749.1230120177532
 20
778.7140616898491
 10
749.1222328739112
 20
777.5130616609767
 10
749.1224093499202
 20
776.8722215565278
  0
LWPOLYLINE
  5
EED
330
1F
100
AcDbEntity
  8
Hewi
  6
CUSTOM
 62
    18
420
        0
370
     9
100
AcDbPolyline
 90
        3
 70
     0
 43
0.0
 10
529.1192122505272
 20
710.1305372075797
 10
529.1192122505272
 20
706.0649753646758
 10
529.1192122505272
 20
703.17529308248
  0
LWPOLYLINE
  5
EEE
330
1F
100
AcDbEntity
  8
Hewi
  6
CUSTOM
 62
    18
420
        0
370
     9
100
AcDbPolyline
 90
       24
 70
     0
 43
0.0
 10
524.1186596786356
 20
799.4206527620795
 10
523.8865008122156
 20
799.415487753542
 10
523.6864350929606
 20
799.4141342433736
 10
523.6192122689263
 20
799.4140621312167
 10
523.1591180219838
 20
799.4140621312167
 10
522.6513604586235
 20
799.4140621312167
 10
522.1192122739465
 20
799.4140621312167
 10
521.6192122756183
 20
799.4140621312167
 10
521.5079518090115
 20
799.4015260870383
 10
521.4022704067863
 20
799.3645465641036
 10
521.307467375731
 20
799.3049778701077
 10
521.2282965356917
 20
799.2258070281041
 10
521.1687278431726
 20
799.1310039946974
 10
521.1317483211586
 20
799.0253225898477
 10
521.1192122772918
 20
798.9140621204811
 10
521.1192122772918
 20
799.0103345127883
 10
521.1192122772918
 20
799.2938554763838
 10
521.1192122772918
 20
799.7490277307823
 10
521.1192122772918
 20
800.3508109783261
 10
521.1192122772918
 20
822.4878134644921
 10
521.1192122772918
 20
822.9065906683777
 10
521.1192122772918
 20
823.2271668002004
 10
521.1192122772918
 20
823.4329075387776
 10
521.1192122772918
 20
823.5131372374008
  0
LWPOLYLINE
  5
EEF
330
1F
100
AcDbEntity
  8
Hewi
  6
CUSTOM
 62
    18
420
        0
370
     9
100
AcDbPolyline
 90
        3
 70
     0
 43
0.0
 10
814.1192112969747
 20
701.9658333644961
 10
814.1192112969747
 20
706.0649753646758
 10
814.1192112969747
 20
710.0721280679379
  0
LINE
  5
EF0
330
1F
100
AcDbEntity
  8
Hewi
  6
CUSTOM
 62
    18
420
        0
370
     9
100
AcDbLine
 10
678.4684719850229
 20
500.2045860100079
 30
0.0
 11
676.9252402330221
 21
499.1617343748812
 31
0.0
  0
LINE
  5
EF1
330
1F
100
AcDbEntity
  8
Hewi
  6
CUSTOM
 62
    18
420
        0
370
     9
100
AcDbLine
 10
669.1199257877888
 20
576.8721748110317
 30
0.0
 11
671.7582273913556
 21
576.6245494575513
 31
0.0
  0
LINE
  5
EF2
330
1F
100
AcDbEntity
  8
Hewi
  6
CUSTOM
 62
    18
420
        0
370
     9
100
AcDbLine
 10
657.3275428858233
 20
571.0677085974011
 30
0.0
 11
658.4209372015775
 21
572.2604283804129
 31
0.0
  0
LINE
  5
EF3
330
1F
100
AcDbEntity
  8
Hewi
  6
CUSTOM
 62
    18
420
        0
370
     9
100
AcDbLine
 10
682.2631841860583
 20
504.8381004061443
 30
0.0
 11
681.5551467237654
 21
503.5449810372163
 31
0.0
  0
LWPOLYLINE
  5
EF4
330
1F
100
AcDbEntity
  8
Hewi
  6
CUSTOM
 62
    18
420
        0
370
     9
100
AcDbPolyline
 90
        3
 70
     0
 43
0.0
 10
666.6224096259484
 20
776.872221556529
 10
666.6222331499375
 20
777.5130616609779
 10
666.6230122937795
 20
778.7140616898505
  0
LINE
  5
EF5
330
1F
100
AcDbEntity
  8
Hewi
  6
CUSTOM
 62
    18
420
        0
370
     9
100
AcDbLine
 10
680.7398042010007
 20
502.4960963068267
 30
0.0
 11
679.3601030415337
 21
500.9810751355606
 31
0.0
  0
LWPOLYLINE
  5
EF6
330
1F
100
AcDbEntity
  8
Hewi
  6
CUSTOM
 62
    18
420
        0
370
     9
100
AcDbPolyline
 90
        3
 70
     0
 43
0.0
 10
809.1192113137056
 20
703.179226860253
 10
809.1192113137056
 20
706.0649753646758
 10
809.1192113137056
 20
710.1279212387468
  0
LWPOLYLINE
  5
EF7
330
1F
100
AcDbEntity
  8
Hewi
  6
CUSTOM
 62
    18
420
        0
370
     9
100
AcDbPolyline
 90
        3
 70
     0
 43
0.0
 10
754.1140009791941
 20
778.7140616898491
 10
754.1126443647026
 20
777.5130616609767
 10
754.1128169462462
 20
776.8722215080258
  0
LINE
  5
EF8
330
1F
100
AcDbEntity
  8
Hewi
  6
CUSTOM
 62
    18
420
        0
370
     9
100
AcDbLine
 10
654.1212191841878
 20
562.0539711957693
 30
0.0
 11
654.3464277485072
 21
564.3723852821192
 31
0.0
  0
LINE
  5
EF9
330
1F
100
AcDbEntity
  8
Hewi
  6
CUSTOM
 62
    18
420
        0
370
     9
100
AcDbLine
 10
675.2328404296259
 20
575.5059149399876
 30
0.0
 11
677.1625394770563
 21
574.4604233786121
 31
0.0
  0
LINE
  5
EFA
330
1F
100
AcDbEntity
  8
Hewi
  6
CUSTOM
 62
    18
420
        0
370
     9
100
AcDbLine
 10
683.7674330096177
 20
564.9332870288239
 30
0.0
 11
684.0883367333008
 21
562.259792309609
 31
0.0
  0
LINE
  5
EFB
330
1F
100
AcDbEntity
  8
Hewi
  6
CUSTOM
 62
    18
420
        0
370
     9
100
AcDbLine
 10
682.6532494839266
 20
568.2403321770252
 30
0.0
 11
683.2251302048697
 21
566.712435679352
 31
0.0
  0
LWPOLYLINE
  5
EFC
330
1F
100
AcDbEntity
  8
Hewi
  6
CUSTOM
 62
    18
420
        0
370
     9
100
AcDbPolyline
 90
        3
 70
     0
 43
0.0
 10
524.1192122672564
 20
710.0753379158342
 10
524.1192122672564
 20
706.0649753646758
 10
524.1192122672564
 20
701.9612773147537
  0
LINE
  5
EFD
330
1F
100
AcDbEntity
  8
Hewi
  6
CUSTOM
 62
    18
420
        0
370
     9
100
AcDbLine
 10
659.7882618799831
 20
573.5565721016562
 30
0.0
 11
661.2382328707662
 21
574.5317171940887
 31
0.0
  0
LINE
  5
EFE
330
1F
100
AcDbEntity
  8
Hewi
  6
CUSTOM
 62
    18
420
        0
370
     9
100
AcDbLine
 10
678.2150111597056
 20
573.7399520651099
 30
0.0
 11
679.5596236456002
 21
572.5235748195663
 31
0.0
  0
LINE
  5
EFF
330
1F
100
AcDbEntity
  8
Hewi
  6
CUSTOM
 62
    18
420
        0
370
     9
100
AcDbLine
 10
683.6012686967968
 20
508.1412020524658
 30
0.0
 11
683.2496645214575
 21
506.9482897002472
 31
0.0
  0
LINE
  5
F00
330
1F
100
AcDbEntity
  8
Hewi
  6
CUSTOM
 62
    18
420
        0
370
     9
100
AcDbLine
 10
672.3138906560708
 20
497.2514008917269
 30
0.0
 11
669.1219636413642
 21
496.8725063214987
 31
0.0
  0
LWPOLYLINE
  5
F01
330
1F
100
AcDbEntity
  8
Hewi
  6
CUSTOM
 62
    18
420
        0
370
     9
100
AcDbPolyline
 90
        3
 70
     0
 43
0.0
 10
589.1140015312502
 20
778.714061689851
 10
589.1126449167586
 20
777.5130616609795
 10
589.1128174983041
 20
776.8722215080287
  0
LINE
  5
F02
330
1F
100
AcDbEntity
  8
Hewi
  6
CUSTOM
 62
    18
420
        0
370
     9
100
AcDbLine
 10
662.6808459016229
 20
575.3759184960443
 30
0.0
 11
664.4378005329237
 21
576.0272463157807
 31
0.0
  0
LINE
  5
F03
330
1F
100
AcDbEntity
  8
Hewi
  6
CUSTOM
 62
    18
420
        0
370
     9
100
AcDbLine
 10
680.7597515276592
 20
571.2625361525174
 30
0.0
 11
681.6651146007878
 21
569.9298939331811
 31
0.0
  0
LINE
  5
F04
330
1F
100
AcDbEntity
  8
Hewi
  6
CUSTOM
 62
    18
420
        0
370
     9
100
AcDbLine
 10
684.1161217270983
 20
511.6795583263472
 30
0.0
 11
683.9007505545103
 21
509.4335820097212
 31
0.0
  0
LINE
  5
F05
330
1F
100
AcDbEntity
  8
Hewi
  6
CUSTOM
 62
    18
420
        0
370
     9
100
AcDbLine
 10
672.6426158336343
 20
576.403111381836
 30
0.0
 11
674.2678452333327
 21
575.931152059281
 31
0.0
  0
LINE
  5
F06
330
1F
100
AcDbEntity
  8
Hewi
  6
CUSTOM
 62
    18
420
        0
370
     9
100
AcDbLine
 10
675.4394492248811
 20
498.3272340663632
 30
0.0
 11
673.5761244916957
 21
497.6337733397502
 31
0.0
  0
LWPOLYLINE
  5
F07
330
1F
100
AcDbEntity
  8
Hewi
  6
CUSTOM
 62
    18
420
        0
370
     9
100
AcDbPolyline
 90
        3
 70
     0
 43
0.0
 10
523.7382515031766
 20
799.0833611014116
 10
523.7282901083854
 20
799.0384927245793
 10
523.7361505743408
 20
799.0756174185934
  0
LINE
  5
F08
330
1F
100
AcDbEntity
  8
Hewi
  6
CUSTOM
 62
    18
420
        0
370
     9
100
AcDbLine
 10
523.7927081015421
 20
799.2172027479272
 30
0.0
 11
523.7794365452373
 21
799.1926780141511
 31
0.0
  0
LWPOLYLINE
  5
F09
330
1F
100
AcDbEntity
  8
Hewi
  6
CUSTOM
 62
    18
420
        0
370
     9
100
AcDbPolyline
 90
        3
 70
     1
 43
0.0
 10
523.7794365452373
 20
799.1926780141511
 10
523.7515785934265
 20
799.126961113262
 10
523.7769129640273
 20
799.1879566909156
  0
LINE
  5
F0A
330
1F
100
AcDbEntity
  8
Hewi
  6
CUSTOM
 62
    18
420
        0
370
     9
100
AcDbLine
 10
521.6192122756183
 20
798.9140621204811
 30
0.0
 11
521.5283944599213
 21
799.0390621231645
 31
0.0
  0
LWPOLYLINE
  5
F0B
330
1F
100
AcDbEntity
  8
Hewi
  6
CUSTOM
 62
    18
420
        0
370
     9
100
AcDbPolyline
 90
        9
 70
     0
 43
0.0
 10
521.1192122772918
 20
823.5131372374008
 10
521.1317483211586
 20
823.6243565220915
 10
521.1687278431726
 20
823.7299988074374
 10
521.2282965356917
 20
823.8247667481255
 10
521.307467375731
 20
823.9039082838948
 10
521.4022704067863
 20
823.9634549276756
 10
521.5079518090115
 20
824.0004207621021
 10
521.6192122756183
 20
824.0129521658824
 10
524.1192122672564
 20
824.0129521658824
  0
LINE
  5
F0C
330
1F
100
AcDbEntity
  8
Hewi
  6
CUSTOM
 62
    18
420
        0
370
     9
100
AcDbLine
 10
523.8007690183803
 20
799.2306644555354
 30
0.0
 11
523.8242334268598
 21
799.2654540901881
 31
0.0
  0
LINE
  5
F0D
330
1F
100
AcDbEntity
  8
Hewi
  6
CUSTOM
 62
    18
420
        0
370
     9
100
AcDbLine
 10
523.7472100689902
 20
799.113960724434
 30
0.0
 11
523.7382515031766
 21
799.0833611014116
 31
0.0
  0
LWPOLYLINE
  5
F0E
330
1F
100
AcDbEntity
  8
Hewi
  6
CUSTOM
 62
    18
420
        0
370
     9
100
AcDbPolyline
 90
        3
 70
     1
 43
0.0
 10
523.9353835149175
 20
799.3687636956856
 10
523.9922428023218
 20
799.3977066897804
 10
523.9862813991257
 20
799.3951728695932
  0
LWPOLYLINE
  5
F0F
330
1F
100
AcDbEntity
  8
Hewi
  6
CUSTOM
 62
    18
420
        0
370
     9
100
AcDbPolyline
 90
        3
 70
     0
 43
0.0
 10
524.0083363477697
 20
798.9506173852022
 10
524.0605970600809
 20
798.9664690520826
 10
524.0733492200506
 20
798.9712746995004
  0
LWPOLYLINE
  5
F10
330
1F
100
AcDbEntity
  8
Hewi
  6
CUSTOM
 62
    18
420
        0
370
     9
100
AcDbPolyline
 90
        3
 70
     1
 43
0.0
 10
523.89909015189
 20
799.3430357974366
 10
523.9025407329862
 20
799.3460031866352
 10
523.8687916694835
 20
799.3162139483181
  0
LWPOLYLINE
  5
F11
330
1F
100
AcDbEntity
  8
Hewi
  6
CUSTOM
 62
    18
420
        0
370
     9
100
AcDbPolyline
 90
        3
 70
     0
 43
0.0
 10
524.0592565466195
 20
799.416275526103
 10
524.058946417148
 20
799.4162155747426
 10
524.1186596786356
 20
799.4206527620795
  0
LINE
  5
F12
330
1F
100
AcDbEntity
  8
Hewi
  6
CUSTOM
 62
    18
420
        0
370
     9
100
AcDbLine
 10
523.7383269320726
 20
799.0833764964799
 30
0.0
 11
523.7382515031766
 21
799.0833611014116
 31
0.0
  0
LINE
  5
F13
330
1F
100
AcDbEntity
  8
Hewi
  6
CUSTOM
 62
    18
420
        0
370
     9
100
AcDbLine
 10
523.7633569712689
 20
782.7356837415152
 30
0.0
 11
523.8925420027135
 21
782.7227249331881
 31
0.0
  0
LINE
  5
F14
330
1F
100
AcDbEntity
  8
Hewi
  6
CUSTOM
 62
    18
420
        0
370
     9
100
AcDbLine
 10
523.4703112600344
 20
782.7856615103493
 30
0.0
 11
523.6334238964627
 21
782.7540514001843
 31
0.0
  0
LINE
  5
F15
330
1F
100
AcDbEntity
  8
Hewi
  6
CUSTOM
 62
    18
420
        0
370
     9
100
AcDbLine
 10
523.4354335077713
 20
782.7932607824691
 30
0.0
 11
523.417477648605
 21
782.7976708577571
 31
0.0
  0
LINE
  5
F16
330
1F
100
AcDbEntity
  8
Hewi
  6
CUSTOM
 62
    18
420
        0
370
     9
100
AcDbLine
 10
523.2024553257359
 20
782.8579901217772
 30
0.0
 11
523.2623076658747
 21
782.8400391268233
 31
0.0
  0
LINE
  5
F17
330
1F
100
AcDbEntity
  8
Hewi
  6
CUSTOM
 62
    18
420
        0
370
     9
100
AcDbLine
 10
523.7796047915235
 20
799.1926847698898
 30
0.0
 11
523.7794365452373
 21
799.1926780141511
 31
0.0
  0
LINE
  5
F18
330
1F
100
AcDbEntity
  8
Hewi
  6
CUSTOM
 62
    18
420
        0
370
     9
100
AcDbLine
 10
523.8249588448398
 20
799.2660676473229
 30
0.0
 11
523.8242334268598
 21
799.2654540901881
 31
0.0
  0
LINE
  5
F19
330
1F
100
AcDbEntity
  8
Hewi
  6
CUSTOM
 62
    18
420
        0
370
     9
100
AcDbLine
 10
523.0388375430866
 20
782.9162489979677
 30
0.0
 11
523.1508744756957
 21
782.8758435622203
 31
0.0
  0
LINE
  5
F1A
330
1F
100
AcDbEntity
  8
Hewi
  6
CUSTOM
 62
    18
420
        0
370
     9
100
AcDbLine
 10
522.8919998924355
 20
782.9769430383467
 30
0.0
 11
522.9309775972251
 21
782.9603322059109
 31
0.0
  0
LINE
  5
F1B
330
1F
100
AcDbEntity
  8
Hewi
  6
CUSTOM
 62
    18
420
        0
370
     9
100
AcDbLine
 10
523.8566991122443
 20
799.3038696849968
 30
0.0
 11
523.8249588448398
 21
799.2660676473229
 31
0.0
  0
LINE
  5
F1C
330
1F
100
AcDbEntity
  8
Hewi
  6
CUSTOM
 62
    18
420
        0
370
     9
100
AcDbLine
 10
523.653096990547
 20
782.7506093185101
 30
0.0
 11
523.6804012799457
 21
782.7467183749562
 31
0.0
  0
LINE
  5
F1D
330
1F
100
AcDbEntity
  8
Hewi
  6
CUSTOM
 62
    18
420
        0
370
     9
100
AcDbLine
 10
523.8938188643897
 20
782.7226137885901
 30
0.0
 11
524.1192122672564
 21
782.71406177265
 31
0.0
  0
LINE
  5
F1E
330
1F
100
AcDbEntity
  8
Hewi
  6
CUSTOM
 62
    18
420
        0
370
     9
100
AcDbLine
 10
522.5018083738905
 20
783.1880073663987
 30
0.0
 11
522.6742389597418
 21
783.0860549839584
 31
0.0
  0
LINE
  5
F1F
330
1F
100
AcDbEntity
  8
Hewi
  6
CUSTOM
 62
    18
420
        0
370
     9
100
AcDbLine
 10
522.3620235236539
 20
783.284095908863
 30
0.0
 11
522.4147719313569
 21
783.2465685190189
 31
0.0
  0
LINE
  5
F20
330
1F
100
AcDbEntity
  8
Hewi
  6
CUSTOM
 62
    18
420
        0
370
     9
100
AcDbLine
 10
522.1656442553212
 20
783.440915365441
 30
0.0
 11
522.1048822326501
 21
783.4938165182578
 31
0.0
  0
LINE
  5
F21
330
1F
100
AcDbEntity
  8
Hewi
  6
CUSTOM
 62
    18
420
        0
370
     9
100
AcDbLine
 10
523.7382515031766
 20
799.0833611014116
 30
0.0
 11
523.7361505743408
 21
799.0756174185934
 31
0.0
  0
LWPOLYLINE
  5
F22
330
1F
100
AcDbEntity
  8
Hewi
  6
CUSTOM
 62
    18
420
        0
370
     9
100
AcDbPolyline
 90
       34
 70
     0
 43
0.0
 10
814.1192111782492
 20
823.8908238441245
 10
816.6209566143097
 20
823.8820943020208
 10
816.7319297437806
 20
823.8692309953748
 10
816.8372756871757
 20
823.8320580027611
 10
816.9317353125862
 20
823.7724310925701
 10
817.0105929602069
 20
823.6933269886931
 10
817.0699118598275
 20
823.5986947650472
 10
817.1067306642163
 20
823.4932586979731
 10
817.1192112869375
 20
823.3822824185834
 10
817.1192112869375
 20
823.3062536519764
 10
817.1192112869375
 20
823.111285767724
 10
817.1192112869375
 20
822.8074954217014
 10
817.1192112869375
 20
822.4106459402655
 10
817.1192112869375
 20
800.2736434540988
 10
817.1192112869375
 20
799.6493529505587
 10
817.1192112869375
 20
799.1771568283575
 10
817.1192112869375
 20
798.8830319156917
 10
817.1192112869375
 20
798.7831588459185
 10
817.1067306642163
 20
798.8941762199997
 10
817.0699118598275
 20
798.9996513302157
 10
817.0105929602069
 20
799.0943185963222
 10
816.9317353125844
 20
799.1734519925731
 10
816.8372756871757
 20
799.2331009827026
 10
816.7319297437771
 20
799.2702877405336
 10
816.6209566143097
 20
799.2831558104826
 10
816.1209566159849
 20
799.2849011468607
 10
815.5888084313064
 20
799.2867587020378
 10
815.0810508679477
 20
799.2885311175371
 10
814.6209566210036
 20
799.2901371559959
 10
814.3832527773101
 20
799.2920511786937
 10
814.3779708744242
 20
799.2921248934139
 10
814.1719037822822
 20
799.2966611723113
 10
814.1627273495505
 20
799.2969589394593
 10
814.1192112960395
 20
799.2988365288115
  0
LWPOLYLINE
  5
F23
330
1F
100
AcDbEntity
  8
Hewi
  6
CUSTOM
 62
    18
420
        0
370
     9
100
AcDbPolyline
 90
        4
 70
     0
 43
0.0
 10
814.1192112969747
 20
782.7140617726481
 10
814.3445124039152
 20
782.7225966615115
 10
814.3713082962731
 20
782.7247342300307
 10
814.5864376610061
 20
782.7508953535159
  0
LINE
  5
F24
330
1F
100
AcDbEntity
  8
Hewi
  6
CUSTOM
 62
    18
420
        0
370
     9
100
AcDbLine
 10
814.9166244022127
 20
782.8225721882977
 30
0.0
 11
814.828090024026
 21
782.7992065518019
 31
0.0
  0
LINE
  5
F25
330
1F
100
AcDbEntity
  8
Hewi
  6
CUSTOM
 62
    18
420
        0
370
     9
100
AcDbLine
 10
815.6733580935815
 20
783.1516554295271
 30
0.0
 11
815.8953815182483
 21
783.2992536445426
 31
0.0
  0
LINE
  5
F26
330
1F
100
AcDbEntity
  8
Hewi
  6
CUSTOM
 62
    18
420
        0
370
     9
100
AcDbLine
 10
521.1192122772918
 20
871.7140636835697
 30
0.0
 11
531.1192122438351
 21
881.7140638982802
 31
0.0
  0
LWPOLYLINE
  5
F27
330
1F
100
AcDbEntity
  8
Hewi
  6
CUSTOM
 62
    18
420
        0
370
     9
100
AcDbPolyline
 90
        3
 70
     0
 43
0.0
 10
523.7361505743408
 20
799.0756174185934
 10
523.7378082471202
 20
799.0813645757916
 10
523.7381143369566
 20
799.0824257903096
  0
LINE
  5
F28
330
1F
100
AcDbEntity
  8
Hewi
  6
CUSTOM
 62
    18
420
        0
370
     9
100
AcDbLine
 10
554.1192121668807
 20
881.7140638982802
 30
0.0
 11
554.1192121668807
 21
851.1182892343445
 31
0.0
  0
LINE
  5
F29
330
1F
100
AcDbEntity
  8
Hewi
  6
CUSTOM
 62
    18
420
        0
370
     9
100
AcDbLine
 10
807.1192113203958
 20
881.7140638982802
 30
0.0
 11
817.1192112869375
 21
871.7140636835697
 31
0.0
  0
LINE
  5
F2A
330
1F
100
AcDbEntity
  8
Hewi
  6
CUSTOM
 62
    18
420
        0
370
     9
100
AcDbLine
 10
784.1192113973481
 20
851.1182892343445
 30
0.0
 11
784.1192113973481
 21
881.7140638982802
 31
0.0
  0
LINE
  5
F2B
330
1F
100
AcDbEntity
  8
Hewi
  6
CUSTOM
 62
    18
420
        0
370
     9
100
AcDbLine
 10
816.6192112886093
 20
798.7831588459185
 30
0.0
 11
816.7443379718951
 21
798.8738020424689
 31
0.0
  0
LWPOLYLINE
  5
F2C
330
1F
100
AcDbEntity
  8
Hewi
  6
CUSTOM
 62
    18
420
        0
370
     9
100
AcDbPolyline
 90
        3
 70
     0
 43
0.0
 10
814.7562201453093
 20
782.7827367576182
 10
814.7638302112751
 20
782.7842647989691
 10
814.7706364425904
 20
782.7858146283555
  0
LINE
  5
F2D
330
1F
100
AcDbEntity
  8
Hewi
  6
CUSTOM
 62
    18
420
        0
370
     9
100
AcDbLine
 10
521.1192122772918
 20
785.7140618370631
 30
0.0
 11
521.1872871898231
 21
785.0817673464931
 31
0.0
  0
LINE
  5
F2E
330
1F
100
AcDbEntity
  8
Hewi
  6
CUSTOM
 62
    18
420
        0
370
     9
100
AcDbLine
 10
814.9636330181692
 20
782.8361887476635
 30
0.0
 11
815.0785868096317
 21
782.8725856874897
 31
0.0
  0
LINE
  5
F2F
330
1F
100
AcDbEntity
  8
Hewi
  6
CUSTOM
 62
    18
420
        0
370
     9
100
AcDbLine
 10
815.1416401023087
 20
782.8942396227912
 30
0.0
 11
815.1885448128886
 21
782.9117569953385
 31
0.0
  0
LINE
  5
F30
330
1F
100
AcDbEntity
  8
Hewi
  6
CUSTOM
 62
    18
420
        0
370
     9
100
AcDbLine
 10
815.2442215085882
 20
782.9336410853329
 30
0.0
 11
815.4290779618403
 21
783.0153585003983
 31
0.0
  0
LWPOLYLINE
  5
F31
330
1F
100
AcDbEntity
  8
Hewi
  6
CUSTOM
 62
    18
420
        0
370
     9
100
AcDbPolyline
 90
        3
 70
     0
 43
0.0
 10
815.4290779618403
 20
783.0153585003983
 10
815.4290779618403
 20
783.0153585003983
 10
815.2442215085882
 20
782.9336410853329
  0
LWPOLYLINE
  5
F32
330
1F
100
AcDbEntity
  8
Hewi
  6
CUSTOM
 62
    18
420
        0
370
     9
100
AcDbPolyline
 90
        3
 70
     0
 43
0.0
 10
815.5920998173424
 20
783.1010077719557
 10
815.5787685906288
 20
783.0934219292981
 10
815.4915591165316
 20
783.0466117573966
  0
LINE
  5
F33
330
1F
100
AcDbEntity
  8
Hewi
  6
CUSTOM
 62
    18
420
        0
370
     9
100
AcDbLine
 10
521.7088670768879
 20
783.9310819527844
 30
0.0
 11
521.6117199832678
 21
784.0909105483078
 31
0.0
  0
LINE
  5
F34
330
1F
100
AcDbEntity
  8
Hewi
  6
CUSTOM
 62
    18
420
        0
370
     9
100
AcDbLine
 10
521.3869127913258
 20
784.4784340445246
 30
0.0
 11
521.3123277099166
 21
784.6985516506284
 31
0.0
  0
LINE
  5
F35
330
1F
100
AcDbEntity
  8
Hewi
  6
CUSTOM
 62
    18
420
        0
370
     9
100
AcDbLine
 10
816.0976736989706
 20
783.4607948811853
 30
0.0
 11
816.1350459936508
 21
783.4954779109839
 31
0.0
  0
LINE
  5
F36
330
1F
100
AcDbEntity
  8
Hewi
  6
CUSTOM
 62
    18
420
        0
370
     9
100
AcDbLine
 10
816.8562758380485
 20
784.4866480819522
 30
0.0
 11
816.8589746001508
 21
784.4928429895102
 31
0.0
  0
LINE
  5
F37
330
1F
100
AcDbEntity
  8
Hewi
  6
CUSTOM
 62
    18
420
        0
370
     9
100
AcDbLine
 10
524.1186596786356
 20
799.4206527620795
 30
0.0
 11
524.1192122672455
 21
799.4206796552638
 31
0.0
  0
LWPOLYLINE
  5
F39
330
1F
100
AcDbEntity
  8
Hewi
  6
CUSTOM
 62
    18
420
        0
370
     9
100
AcDbPolyline
 90
        3
 70
     0
 43
0.0
 10
521.1192122772918
 20
710.0408474945306
 10
521.1192122772918
 20
704.3568902697415
 10
521.1192122772918
 20
701.236219969669
  0
LINE
  5
F3A
330
1F
100
AcDbEntity
  8
Hewi
  6
CUSTOM
 62
    18
420
        0
370
     9
100
AcDbLine
 10
808.1192040452824
 20
704.8138909340938
 30
0.0
 11
809.1192100620062
 21
704.8138909340938
 31
0.0
  0
LINE
  5
F3C
330
1F
100
AcDbEntity
  8
Hewi
  6
CUSTOM
 62
    18
420
        0
370
     9
100
AcDbLine
 10
529.1192121564618
 20
704.8138909340938
 30
0.0
 11
530.1192119826846
 21
704.8138909340938
 31
0.0
  0
LWPOLYLINE
  5
F3E
330
1F
100
AcDbEntity
  8
Hewi
  6
CUSTOM
 62
    18
420
        0
370
     9
100
AcDbPolyline
 90
        8
 70
     0
 43
0.0
 10
518.8766627360019
 20
754.5540933236877
 10
516.3420140491325
 20
754.5114228680617
 10
504.2998823368706
 20
752.6669796884696
 10
492.5511920249245
 20
750.5255196192961
 10
482.8310066063368
 20
748.4391244871292
 10
474.6712835157086
 20
746.4118658637508
 10
467.0590237159504
 20
744.2158605662797
 10
464.5279559006412
 20
743.3242653293867
  0
LWPOLYLINE
  5
FF4
330
1F
100
AcDbEntity
  8
Hewi
  6
CUSTOM
 62
    18
420
        0
370
     9
100
AcDbPolyline
 90
       34
 70
     0
 43
0.0
 10
529.1192138304632
 20
1265.755084380008
 10
529.2320382239958
 20
1265.755084380008
 10
529.5648539183821
 20
1265.755084380008
 10
530.1009721449953
 20
1265.755084380008
 10
530.8135096973127
 20
1265.755084380008
 10
531.6667369671613
 20
1265.755084380008
 10
532.617869576472
 20
1265.755084380008
 10
533.619213764623
 20
1265.755084380008
 10
649.1192120747382
 20
1265.755084380008
 10
649.1192120747382
 20
1295.755084276877
 10
649.2445725119941
 20
1296.867688942833
 10
649.6143677279815
 20
1297.924502965007
 10
650.2100546464371
 20
1298.872533275453
 10
651.0017630379008
 20
1299.664241675778
 10
651.9497933377351
 20
1300.259928600902
 10
653.0066073480792
 20
1300.629723821028
 10
654.1192120015803
 20
1300.755084259688
 10
684.1192115626507
 20
1300.755084259688
 10
685.2318162161536
 20
1300.629723821028
 10
686.2886302264977
 20
1300.259928600902
 10
687.2366605263322
 20
1299.664241675778
 10
688.028368917794
 20
1298.872533275453
 10
688.6240558362515
 20
1297.924502965007
 10
688.9938510522406
 20
1296.867688942833
 10
689.1192114894947
 20
1295.755084276877
 10
689.1192114894947
 20
1265.755084380008
 10
804.6192097996081
 20
1265.755084380008
 10
805.6205539877609
 20
1265.755084380008
 10
806.5716865970697
 20
1265.755084380008
 10
807.424913866922
 20
1265.755084380008
 10
808.1374514192392
 20
1265.755084380008
 10
808.6735696458509
 20
1265.755084380008
 10
809.0063853402387
 20
1265.755084380008
 10
809.1192097337696
 20
1265.755084380008
  0
LWPOLYLINE
  5
FF5
330
1F
100
AcDbEntity
  8
Hewi
  6
CUSTOM
 62
    18
420
        0
370
     9
100
AcDbPolyline
 90
        8
 70
     0
 43
0.0
 10
529.1192138304632
 20
1265.755084380008
 10
529.1192138304632
 20
1266.011383731276
 10
529.1192138304632
 20
1266.767143913537
 10
529.1192138304632
 20
1267.983624757777
 10
529.1192138304632
 20
1269.598469613539
 10
529.1192138304632
 20
1271.528901742753
 10
529.1192138304632
 20
1356.529485456888
 10
529.1192138304632
 20
1362.514472373955
  0
LWPOLYLINE
  5
FF6
330
1F
100
AcDbEntity
  8
Hewi
  6
CUSTOM
 62
    18
420
        0
370
     9
100
AcDbPolyline
 90
        9
 70
     0
 43
0.0
 10
814.1192096606117
 20
1265.755084380008
 10
814.1192096606117
 20
1266.011383731276
 10
814.1192096606117
 20
1266.767143913537
 10
814.1192096606117
 20
1267.983624757777
 10
814.1192096606117
 20
1269.598469613539
 10
814.1192096606117
 20
1271.528901742753
 10
814.1192096606117
 20
1356.529485456888
 10
814.1192096606117
 20
1364.109930492393
 10
814.1192096606117
 20
1365.891008577038
  0
LWPOLYLINE
  5
FF7
330
1F
100
AcDbEntity
  8
Hewi
  6
CUSTOM
 62
    18
420
        0
370
     9
100
AcDbPolyline
 90
        9
 70
     0
 43
0.0
 10
524.1192139036211
 20
1365.87448572413
 10
524.1192139036211
 20
1364.109930492393
 10
524.1192139036211
 20
1356.529485456888
 10
524.1192139036211
 20
1271.528901742753
 10
524.1192139036211
 20
1269.598469613539
 10
524.1192139036211
 20
1267.983624757777
 10
524.1192139036211
 20
1266.767143913537
 10
524.1192139036211
 20
1266.011383731276
 10
524.1192139036211
 20
1265.755084380008
  0
LINE
  5
FF8
330
1F
100
AcDbEntity
  8
Hewi
  6
CUSTOM
 62
    18
420
        0
370
     9
100
AcDbLine
 10
809.1192097337696
 20
1265.755084380008
 30
0.0
 11
814.1192096606117
 21
1265.755084380008
 31
0.0
  0
LINE
  5
FF9
330
1F
100
AcDbEntity
  8
Hewi
  6
CUSTOM
 62
    18
420
        0
370
     9
100
AcDbLine
 10
524.1192139036211
 20
1265.755084380008
 30
0.0
 11
529.1192138304632
 21
1265.755084380008
 31
0.0
  0
LINE
  5
FFA
330
1F
100
AcDbEntity
  8
Hewi
  6
CUSTOM
 62
    18
420
        0
370
     9
100
AcDbLine
 10
550.0881760302218
 20
1353.397284359708
 30
0.0
 11
550.2218274252081
 21
1354.674268760621
 31
0.0
  0
LWPOLYLINE
  5
FFD
330
1F
100
AcDbEntity
  8
Hewi
  6
CUSTOM
 62
    18
420
        0
370
     9
100
AcDbPolyline
 90
       10
 70
     0
 43
0.0
 10
521.1192139475115
 20
1366.414960169409
 10
521.1192139475115
 20
1362.650265851087
 10
521.1192139475115
 20
1355.279440372797
 10
521.1192139475115
 20
1348.791777196457
 10
521.1192139475115
 20
1343.564315724179
 10
521.1192139475115
 20
1339.900857015683
 10
521.1192139475115
 20
1338.014307974975
 10
521.4192139431213
 20
1337.716495313769
 10
523.8192139080073
 20
1337.716495313769
 10
524.1192139036193
 20
1338.014307974975
  0
LWPOLYLINE
  5
FFE
330
1F
100
AcDbEntity
  8
Hewi
  6
CUSTOM
 62
    18
420
        0
370
     9
100
AcDbPolyline
 90
       14
 70
     0
 43
0.0
 10
607.9823202044881
 20
1335.177221324112
 10
607.8169109763148
 20
1335.187257155082
 10
607.4831102020289
 20
1335.198146081492
 10
607.021170331418
 20
1335.207232821367
 10
606.4551543377729
 20
1335.21409123756
 10
605.8153887423104
 20
1335.218355793152
 10
605.1383099503963
 20
1335.219803787922
 10
573.1001191714912
 20
1335.219769553144
 10
572.5338580776806
 20
1335.218763054102
 10
571.9890113536202
 20
1335.215774219419
 10
571.3941185919318
 20
1335.209719640816
 10
570.8949206898832
 20
1335.201312404749
 10
570.5167319341835
 20
1335.190957544886
 10
570.2806885255977
 20
1335.179175631892
  0
LWPOLYLINE
  5
FFF
330
1F
100
AcDbEntity
  8
Hewi
  6
CUSTOM
 62
    18
420
        0
370
     9
100
AcDbPolyline
 90
        3
 70
     0
 43
0.0
 10
730.2004086759352
 20
1335.088170724631
 10
669.1192117794871
 20
1335.088360858212
 10
608.038014883039
 20
1335.088170724631
  0
LWPOLYLINE
  5
1000
330
1F
100
AcDbEntity
  8
Hewi
  6
CUSTOM
 62
    18
420
        0
370
     9
100
AcDbPolyline
 90
        5
 70
     0
 43
0.0
 10
550.1192160767914
 20
1353.693859305833
 10
550.1192160513218
 20
1349.521418441332
 10
550.1192160266874
 20
1345.75745457495
 10
550.1192159921684
 20
1341.275715639567
 10
550.1192159611654
 20
1338.460201523128
  0
LWPOLYLINE
  5
1001
330
1F
100
AcDbEntity
  8
Hewi
  6
CUSTOM
 62
    18
420
        0
370
     9
100
AcDbPolyline
 90
        8
 70
     0
 43
0.0
 10
809.1192097337696
 20
1362.500704105356
 10
809.1192097337696
 20
1356.529485456888
 10
809.1192097337696
 20
1271.528901742753
 10
809.1192097337696
 20
1269.598469613539
 10
809.1192097337696
 20
1267.983624757777
 10
809.1192097337696
 20
1266.767143913537
 10
809.1192097337696
 20
1266.011383731276
 10
809.1192097337696
 20
1265.755084380008
  0
LWPOLYLINE
  5
1003
330
1F
100
AcDbEntity
  8
Hewi
  6
CUSTOM
 62
    18
420
        0
370
     9
100
AcDbPolyline
 90
        7
 70
     0
 43
0.0
 10
528.3245088501606
 20
1363.346885508642
 10
529.2060263851599
 20
1362.441335918398
 10
530.0454236376498
 20
1359.505148760214
 10
530.1265638728873
 20
1358.174605539401
 10
530.149551636703
 20
1358.024987393612
 10
531.5329000132769
 20
1350.104138803984
 10
530.1192140213061
 20
1351.333551255996
  0
LWPOLYLINE
  5
1004
330
1F
100
AcDbEntity
  8
Hewi
  6
CUSTOM
 62
    18
420
        0
370
     9
100
AcDbPolyline
 90
        3
 70
     0
 43
0.0
 10
550.2218274252081
 20
1354.674268760621
 10
551.1497096283601
 20
1357.893858230563
 10
554.7488472234708
 20
1361.491580069263
  0
LWPOLYLINE
  5
1005
330
1F
100
AcDbEntity
  8
Hewi
  6
CUSTOM
 62
    18
420
        0
370
     9
100
AcDbPolyline
 90
       10
 70
     0
 43
0.0
 10
652.119147721949
 20
1359.813574411767
 10
651.7677749514387
 20
1359.457321787624
 10
649.2662792212447
 20
1358.322773794292
 10
648.0028141652527
 20
1358.209430908622
 10
620.0406125449116
 20
1358.979698971366
 10
589.3814396129019
 20
1360.499899441268
 10
589.1976042970052
 20
1360.512809795852
 10
562.1238170011347
 20
1362.438488963388
 10
560.9414304482015
 20
1362.534784531901
 10
555.3293263332196
 20
1361.838597208248
  0
LWPOLYLINE
  5
1006
330
1F
100
AcDbEntity
  8
Hewi
  6
CUSTOM
 62
    18
420
        0
370
     9
100
AcDbPolyline
 90
        4
 70
     0
 43
0.0
 10
551.1688003417348
 20
1358.200534233184
 10
554.4895860530341
 20
1361.362245279357
 10
555.2269343561691
 20
1361.73007808873
 10
555.5714719514233
 20
1361.868635625046
  0
LWPOLYLINE
  5
1009
330
1F
100
AcDbEntity
  8
Hewi
  6
CUSTOM
 62
    18
420
        0
370
     9
100
AcDbPolyline
 90
       13
 70
     0
 43
0.0
 10
477.2282411436481
 20
1371.423690022653
 10
471.1609496985146
 20
1370.210289041745
 10
468.1125009631505
 20
1369.495649835672
 10
463.9383286938008
 20
1368.664667704954
 10
461.6593818103738
 20
1368.66668368646
 10
459.5333704493278
 20
1369.008225275321
 10
457.6157192826611
 20
1369.618890352806
 10
456.0641903516732
 20
1369.857022121447
 10
454.3186332298536
 20
1370.717574567216
 10
454.1823639116628
 20
1370.785044735513
 10
454.1035471426384
 20
1370.826364921408
 10
453.9749451863535
 20
1370.904008731925
 10
453.8559146887273
 20
1370.984941151411
  0
LWPOLYLINE
  5
100A
330
1F
100
AcDbEntity
  8
Hewi
  6
CUSTOM
 62
    18
420
        0
370
     9
100
AcDbPolyline
 90
        5
 70
     0
 43
0.0
 10
530.1192138523073
 20
1337.601247309284
 10
530.1192138941151
 20
1339.193396523342
 10
530.119213941778
 20
1342.500455377067
 10
530.1192139855702
 20
1346.935550841395
 10
530.1192140213061
 20
1351.333551255996
  0
LWPOLYLINE
  5
100C
330
1F
100
AcDbEntity
  8
Hewi
  6
CUSTOM
 62
    18
420
        0
370
     9
100
AcDbPolyline
 90
        8
 70
     0
 43
0.0
 10
531.6192537199167
 20
1335.087373621438
 10
532.3935324811936
 20
1335.087223206134
 10
543.6598433753442
 20
1335.08739036358
 10
567.3004365301058
 20
1335.087686741694
 10
570.2004363847372
 20
1335.087853187019
 10
570.4144193204135
 20
1335.106019972249
 10
570.6214954500644
 20
1335.158381670411
 10
570.7034626927142
 20
1335.196070258655
  0
LWPOLYLINE
  5
100D
330
1F
100
AcDbEntity
  8
Hewi
  6
CUSTOM
 62
    18
420
        0
370
     9
100
AcDbPolyline
 90
        4
 70
     0
 43
0.0
 10
530.4703488970443
 20
1335.65614652594
 10
530.2914657209822
 20
1335.935141917751
 10
530.269166073831
 20
1335.977542476172
 10
530.119213810598
 20
1336.655896966668
  0
LWPOLYLINE
  5
100E
330
1F
100
AcDbEntity
  8
Hewi
  6
CUSTOM
 62
    18
420
        0
370
     9
100
AcDbPolyline
 90
        7
 70
     0
 43
0.0
 10
531.6192622305607
 20
1335.08723318443
 10
531.6030485421252
 20
1335.08720403992
 10
531.5869134164914
 20
1335.087506059627
 10
531.5692611753602
 20
1335.088233110299
 10
531.1203016930155
 20
1335.18849628356
 10
530.7209624383504
 20
1335.408792430502
 10
530.4703488970443
 20
1335.65614652594
  0
LWPOLYLINE
  5
1010
330
1F
100
AcDbEntity
  8
Hewi
  6
CUSTOM
 62
    18
420
        0
370
     9
100
AcDbPolyline
 90
        4
 70
     0
 43
0.0
 10
607.4966629747832
 20
1335.197703974557
 10
607.5960856905513
 20
1335.159066786115
 10
607.7148810558627
 20
1335.124625605116
 10
608.0380056851081
 20
1335.087886878145
  0
LWPOLYLINE
  5
1012
330
1F
100
AcDbEntity
  8
Hewi
  6
CUSTOM
 62
    18
420
        0
370
     9
100
AcDbPolyline
 90
       19
 70
     0
 43
0.0
 10
443.4548518525006
 20
1404.599755455622
 10
443.2508387835951
 20
1403.64860583106
 10
443.1373668954511
 20
1402.920662240125
 10
443.0503870853735
 20
1402.208318882049
 10
442.9913981685768
 20
1401.521768380025
 10
442.6562355982878
 20
1397.278448101223
 10
442.6319319238317
 20
1396.674912323067
 10
442.6388986056626
 20
1395.986249048656
 10
442.6826965548861
 20
1395.385521190436
 10
442.9956164816103
 20
1391.104072951004
 10
443.1712960557215
 20
1390.062909503224
 10
444.7945893877513
 20
1383.733569995687
 10
444.9160694434903
 20
1383.259574749312
 10
445.280072401405
 20
1382.418782722088
 10
447.3383506033568
 20
1378.297803594558
 10
447.4955569163683
 20
1378.023989819439
 10
447.5842779093891
 20
1377.891503567397
 10
447.7765054540068
 20
1377.631000024513
 10
449.9629032409848
 20
1374.869181204808
  0
LWPOLYLINE
  5
1013
330
1F
100
AcDbEntity
  8
Hewi
  6
CUSTOM
 62
    18
420
        0
370
     9
100
AcDbPolyline
 90
       20
 70
     0
 43
0.0
 10
447.8127433900881
 20
1377.585224899462
 10
448.1844294045767
 20
1376.818325389057
 10
448.410313354643
 20
1376.362257477449
 10
448.5240990720085
 20
1376.13181365628
 10
450.5776252877421
 20
1373.59409945224
 10
450.693327419336
 20
1373.462299442443
 10
450.7537665683156
 20
1373.395279243285
 10
450.8158703882052
 20
1373.335557559428
 10
450.9002862655416
 20
1373.257501239065
 10
451.0969191729564
 20
1373.087370547995
 10
452.1004528756929
 20
1372.224551927589
 10
452.1671218670944
 20
1372.168724187926
 10
452.257477954714
 20
1372.095000588706
 10
452.4435485821631
 20
1371.952862415461
 10
452.4912492324528
 20
1371.918837206056
 10
452.5873441964066
 20
1371.847729488473
 10
452.6606825182168
 20
1371.796699631965
 10
452.7349072470242
 20
1371.746099274848
 10
453.7749750771999
 20
1371.039356100095
 10
453.9119489941604
 20
1370.947269808575
  0
LWPOLYLINE
  5
1014
330
1F
100
AcDbEntity
  8
Hewi
  6
CUSTOM
 62
    18
420
        0
370
     9
100
AcDbPolyline
 90
        3
 70
     0
 43
0.0
 10
530.119213810598
 20
1336.655896966668
 10
530.1192138105651
 20
1336.846962432312
 10
530.1192138523073
 20
1337.601247309284
  0
LWPOLYLINE
  5
1015
330
1F
100
AcDbEntity
  8
Hewi
  6
CUSTOM
 62
    18
420
        0
370
     9
100
AcDbPolyline
 90
        3
 70
     0
 43
0.0
 10
530.4703488970443
 20
1335.65614652594
 10
530.7209602355324
 20
1335.431841260029
 10
531.1185736758525
 20
1335.196155477494
  0
LWPOLYLINE
  5
1017
330
1F
100
AcDbEntity
  8
Hewi
  6
CUSTOM
 62
    18
420
        0
370
     9
100
AcDbPolyline
 90
       10
 70
     0
 43
0.0
 10
472.7433492267281
 20
1370.827291002155
 10
478.3724458807808
 20
1371.575845884353
 10
484.6333100672364
 20
1371.033455123771
 10
486.4730669230357
 20
1370.776281943979
 10
495.3583880669248
 20
1369.569460162309
 10
508.9985161890654
 20
1367.83529845707
 10
519.6144271372104
 20
1366.584563011649
 10
522.3302376155933
 20
1366.278466919572
 10
523.016021984931
 20
1366.242217124587
 10
526.1409417786053
 20
1365.200575413569
  0
LWPOLYLINE
  5
1018
330
1F
100
AcDbEntity
  8
Hewi
  6
CUSTOM
 62
    18
420
        0
370
     9
100
AcDbPolyline
 90
        3
 70
     0
 43
0.0
 10
446.2321695686585
 20
1412.322430447029
 10
446.1809663437923
 20
1412.257713935303
 10
446.0592513982973
 20
1412.096425733524
  0
LWPOLYLINE
  5
1019
330
1F
100
AcDbEntity
  8
Hewi
  6
CUSTOM
 62
    18
420
        0
370
     9
100
AcDbPolyline
 90
        4
 70
     0
 43
0.0
 10
509.1285589775941
 20
1433.550037334109
 10
520.9062692242842
 20
1436.159996261723
 10
535.1887373696682
 20
1438.217998821953
 10
535.8987000390007
 20
1438.247232631501
  0
LWPOLYLINE
  5
101C
330
1F
100
AcDbEntity
  8
Hewi
  6
CUSTOM
 62
    18
420
        0
370
     9
100
AcDbPolyline
 90
        3
 70
     0
 43
0.0
 10
535.4135215085898
 20
1438.20234906316
 10
543.6948536548477
 20
1438.968449999446
 10
552.1715919730413
 20
1439.503277837373
  0
LWPOLYLINE
  5
101D
330
1F
100
AcDbEntity
  8
Hewi
  6
CUSTOM
 62
    18
420
        0
370
     9
100
AcDbPolyline
 90
        4
 70
     0
 43
0.0
 10
443.4548518525006
 20
1404.599755455622
 10
443.9730795955528
 20
1406.884240392921
 10
444.8659221346751
 20
1409.612069052909
 10
446.0592513982973
 20
1412.096425733524
  0
LWPOLYLINE
  5
101E
330
1F
100
AcDbEntity
  8
Hewi
  6
CUSTOM
 62
    18
420
        0
370
     9
100
AcDbPolyline
 90
       65
 70
     0
 43
0.0
 10
894.7835717064773
 20
1404.599755455622
 10
894.1156260044262
 20
1406.627072003543
 10
893.3722240090828
 20
1409.612620810508
 10
892.057319508749
 20
1412.257987963292
 10
892.0088930279089
 20
1412.351972144083
 10
891.0933530500441
 20
1413.547431350597
 10
890.113046214965
 20
1414.718676402631
 10
889.8533198861132
 20
1414.952930256083
 10
889.6817408004096
 20
1415.09394217006
 10
889.4021179067641
 20
1415.304491076526
 10
888.9126836401265
 20
1415.656313103047
 10
886.9452981644027
 20
1417.014493772025
 10
885.8850627155916
 20
1417.551110861417
 10
885.60799790511
 20
1417.684272600412
 10
883.0725168062945
 20
1418.479889646184
 10
880.347782439483
 20
1419.03608443219
 10
875.8643182601629
 20
1419.168674365074
 10
871.2115001330458
 20
1418.961879603095
 10
864.8709570913377
 20
1418.68633647534
 10
857.8201501226704
 20
1418.389435198035
 10
847.5326106916561
 20
1417.974421378294
 10
836.7643159484542
 20
1417.563431247326
 10
822.5716652045774
 20
1417.113022273732
 10
805.7314773837479
 20
1416.660103263232
 10
779.9526794432165
 20
1416.063542521382
 10
751.6563925932422
 20
1415.25135954335
 10
725.1126689998054
 20
1415.189371311775
 10
690.3843767654416
 20
1414.916235671431
 10
688.6204165281777
 20
1414.908189504797
 10
686.5731503100305
 20
1414.899558344977
 10
683.4840273590271
 20
1414.887973462175
 10
679.2047689464797
 20
1414.874785408573
 10
674.3094120361092
 20
1414.863774681468
 10
671.3789838201627
 20
1414.8592658973
 10
669.1199383462389
 20
1414.771333276466
 10
666.4486293588852
 20
1414.774819476533
 10
663.7984864672817
 20
1414.779175452162
 10
659.3727755591917
 20
1414.789510529365
 10
655.1970418504061
 20
1414.802770612438
 10
651.8603479909761
 20
1414.815813930038
 10
649.5443886952815
 20
1414.826144961944
 10
647.8776987355668
 20
1414.83422747171
 10
613.1876652752435
 20
1415.125378941572
 10
558.406813411897
 20
1416.06101977979
 10
536.0252075101071
 20
1416.609555820898
 10
518.3261650449074
 20
1417.110777242278
 10
506.5915505731189
 20
1417.475557894167
 10
495.5267937003063
 20
1417.842988359812
 10
486.1352998121637
 20
1418.172585191706
 10
477.8307928481352
 20
1418.477443869042
 10
471.0799599430246
 20
1418.734414550923
 10
465.078089563598
 20
1418.969681853071
 10
460.819830066539
 20
1419.248421278848
 10
456.7098023495345
 20
1418.775003475814
 10
455.1659067526816
 20
1418.479889646183
 10
453.7944339485475
 20
1418.135351990235
 10
452.6304256538677
 20
1417.684272600412
 10
452.3699917335798
 20
1417.559425192392
 10
451.6591653300983
 20
1417.162222038765
 10
449.3257399188496
 20
1415.656313103047
 10
448.4492908830143
 20
1414.984886046867
 10
448.277531711763
 20
1414.84425029589
 10
448.0174565226116
 20
1414.610511976238
 10
446.9746448116675
 20
1413.292848447014
 10
446.0592513982973
 20
1412.096425733524
  0
LWPOLYLINE
  5
101F
330
1F
100
AcDbEntity
  8
Hewi
  6
CUSTOM
 62
    18
420
        0
370
     9
100
AcDbPolyline
 90
       14
 70
     0
 43
0.0
 10
478.2254160012469
 20
1384.070971126248
 10
486.3725105552729
 20
1383.418748307942
 10
496.0072887330351
 20
1382.607244247045
 10
507.544769915501
 20
1381.730161835476
 10
519.8720093044594
 20
1380.998442606697
 10
538.6473324123108
 20
1380.259145177315
 10
580.5885189365872
 20
1379.138749230202
 10
624.8599575014667
 20
1378.33382084855
 10
669.1192117794871
 20
1378.004466328934
 10
712.6398277699718
 20
1378.323686215773
 10
756.1726420892572
 20
1379.106367555119
 10
799.5910911466652
 20
1380.259145177315
 10
801.8599717202214
 20
1380.332479328982
 10
809.392700025508
 20
1380.594915400002
  0
LWPOLYLINE
  5
1020
330
1F
100
AcDbEntity
  8
Hewi
  6
CUSTOM
 62
    18
420
        0
370
     9
100
AcDbPolyline
 90
        6
 70
     0
 43
0.0
 10
498.5863505686118
 20
1430.348638506556
 10
497.9050516880177
 20
1430.131732425921
 10
488.5718451930168
 20
1426.368943878248
 10
480.9058056302891
 20
1422.510782537827
 10
474.579870550102
 20
1418.674443039964
 10
474.4812375119691
 20
1418.604944851003
  0
LWPOLYLINE
  5
1021
330
1F
100
AcDbEntity
  8
Hewi
  6
CUSTOM
 62
    18
420
        0
370
     9
100
AcDbPolyline
 90
        8
 70
     0
 43
0.0
 10
550.9709928464726
 20
1439.427527727886
 10
552.0564224243626
 20
1439.555123465061
 10
568.9682233332641
 20
1440.21559343308
 10
618.5703530777373
 20
1441.324469567921
 10
669.1193131850086
 20
1441.6724590628
 10
719.6680704813443
 20
1441.324469567919
 10
769.3690441935322
 20
1440.21260934564
 10
770.9065284842944
 20
1440.067122471474
  0
LWPOLYLINE
  5
1025
330
1F
100
AcDbEntity
  8
Hewi
  6
CUSTOM
 62
    18
420
        0
370
     9
100
AcDbPolyline
 90
        3
 70
     0
 43
0.0
 10
498.587197602692
 20
1430.348899160184
 10
508.6105559432416
 20
1433.433337884382
 10
509.127906247395
 20
1433.549892688081
  0
LINE
  5
1027
330
1F
100
AcDbEntity
  8
Hewi
  6
CUSTOM
 62
    18
420
        0
370
     9
100
AcDbLine
 10
535.413589400041
 20
1438.201899614222
 30
0.0
 11
535.4135215085898
 21
1438.20234906316
 31
0.0
  0
LINE
  5
1028
330
1F
100
AcDbEntity
  8
Hewi
  6
CUSTOM
 62
    18
420
        0
370
     9
100
AcDbLine
 10
509.1280055916249
 20
1433.549999874762
 30
0.0
 11
509.127906247395
 21
1433.549892688081
 31
0.0
  0
LINE
  5
1029
330
1F
100
AcDbEntity
  8
Hewi
  6
CUSTOM
 62
    18
420
        0
370
     9
100
AcDbLine
 10
498.5863505686118
 20
1430.348638506556
 30
0.0
 11
498.5863995411636
 21
1430.348764581159
 31
0.0
  0
LWPOLYLINE
  5
102A
330
1F
100
AcDbEntity
  8
Hewi
  6
CUSTOM
 62
    18
420
        0
370
     9
100
AcDbPolyline
 90
        4
 70
     0
 43
0.0
 10
479.2616144979656
 20
1383.988017346888
 10
477.4962008074598
 20
1384.037872678948
 10
471.5816632309342
 20
1383.968814307802
 10
466.7427006154503
 20
1383.544697376098
  0
LWPOLYLINE
  5
102B
330
1F
100
AcDbEntity
  8
Hewi
  6
CUSTOM
 62
    18
420
        0
370
     9
100
AcDbPolyline
 90
       25
 70
     0
 43
0.0
 10
888.7746084881383
 20
1374.82624484953
 10
887.4506336293707
 20
1373.376250443338
 10
887.374407529176
 20
1373.294641414344
 10
887.329019814566
 20
1373.247390219049
 10
887.2456685307041
 20
1373.168439597586
 10
887.0292256916746
 20
1372.978200475785
 10
886.9845514764255
 20
1372.941425698841
 10
886.8944796181276
 20
1372.865654008165
 10
886.7626454533127
 20
1372.762093063123
 10
885.215857552599
 20
1371.547409285871
 10
885.0919951882422
 20
1371.455329289488
 10
885.0206261704697
 20
1371.403354232302
 10
884.9242510541843
 20
1371.3334419073
 10
884.8752716762646
 20
1371.300166332513
 10
884.7263843453584
 20
1371.199125060795
 10
884.6508369915481
 20
1371.148039394156
 10
884.5227038051106
 20
1371.067277091674
 10
884.4702443336901
 20
1371.039539962999
 10
882.1742332340182
 20
1369.857022132126
 10
880.6227042763129
 20
1369.618890352806
 10
878.7050531096847
 20
1369.008225275329
 10
876.5790417486423
 20
1368.666683686461
 10
874.3000948651786
 20
1368.664667704954
 10
865.7886792677619
 20
1370.532413417526
 10
860.2842676324362
 20
1371.507203466016
  0
LWPOLYLINE
  5
102D
330
1F
100
AcDbEntity
  8
Hewi
  6
CUSTOM
 62
    18
420
        0
370
     9
100
AcDbPolyline
 90
        3
 70
     0
 43
0.0
 10
468.2281058018706
 20
1383.674887563613
 10
467.1873619130908
 20
1383.431008543975
 10
466.1031167792168
 20
1383.06477818415
  0
LWPOLYLINE
  5
102F
330
1F
100
AcDbEntity
  8
Hewi
  6
CUSTOM
 62
    18
420
        0
370
     9
100
AcDbPolyline
 90
       18
 70
     0
 43
0.0
 10
894.7835717064773
 20
1404.599755455622
 10
894.987584775381
 20
1403.64860583106
 10
895.4243564495264
 20
1399.58852461891
 10
895.511291717019
 20
1398.866522480759
 10
895.5684397089971
 20
1398.171883807789
 10
895.5945665053477
 20
1397.507521454394
 10
895.5580133130716
 20
1396.428424055
 10
895.2568063053313
 20
1391.251727029006
 10
895.2329014256903
 20
1391.011907609494
 10
895.0671275032545
 20
1390.062909503223
 10
893.7864891654006
 20
1384.666675494425
 10
893.4976726975017
 20
1383.75751716103
 10
891.2154109886177
 20
1378.789816769758
 10
891.0076413803398
 20
1378.458516659214
 10
889.7983123026497
 20
1376.690080343496
 10
889.66777462979
 20
1376.500648814282
 10
889.5277060717052
 20
1376.311450593462
 10
889.387179564097
 20
1376.114792219293
  0
LWPOLYLINE
  5
1033
330
1F
100
AcDbEntity
  8
Hewi
  6
CUSTOM
 62
    18
420
        0
370
     9
100
AcDbPolyline
 90
        5
 70
     0
 43
0.0
 10
890.5950329122877
 20
1377.855147544451
 10
890.2787247428113
 20
1377.135693993096
 10
890.1115505554226
 20
1376.788754168644
 10
888.911569627926
 20
1375.025410636176
 10
888.7746084881383
 20
1374.82624484953
  0
LWPOLYLINE
  5
1034
330
1F
100
AcDbEntity
  8
Hewi
  6
CUSTOM
 62
    18
420
        0
370
     9
100
AcDbPolyline
 90
        6
 70
     0
 43
0.0
 10
678.9466385731247
 20
1360.376427674274
 10
674.1845341930639
 20
1360.530792004049
 10
669.119211780624
 20
1360.583062088399
 10
665.4586964313039
 20
1360.556631470695
 10
661.9179199891987
 20
1360.474864326598
 10
657.330293022851
 20
1360.279259775567
  0
LWPOLYLINE
  5
1035
330
1F
100
AcDbEntity
  8
Hewi
  6
CUSTOM
 62
    18
420
        0
370
     9
100
AcDbPolyline
 90
        3
 70
     0
 43
0.0
 10
888.5679377004889
 20
1374.597882290728
 10
888.6534368595166
 20
1374.691081313614
 10
888.6987801118921
 20
1374.740751891356
  0
LWPOLYLINE
  5
1036
330
1F
100
AcDbEntity
  8
Hewi
  6
CUSTOM
 62
    18
420
        0
370
     9
100
AcDbPolyline
 90
        7
 70
     0
 43
0.0
 10
860.5755074771131
 20
1371.527860951574
 10
853.6051134917398
 20
1371.033455123771
 10
849.8209110177267
 20
1370.511432561573
 10
839.6092547759598
 20
1369.143450745378
 10
821.9917907731613
 20
1366.972356042145
 10
815.2224015740449
 20
1366.242217124587
 10
812.2476103696573
 20
1365.295172281137
  0
LINE
  5
1037
330
1F
100
AcDbEntity
  8
Hewi
  6
CUSTOM
 62
    18
420
        0
370
     9
100
AcDbLine
 10
888.7746084881383
 20
1374.82624484953
 30
0.0
 11
888.6987801118921
 21
1374.740751891356
 31
0.0
  0
LWPOLYLINE
  5
1038
330
1F
100
AcDbEntity
  8
Hewi
  6
CUSTOM
 62
    18
420
        0
370
     9
100
AcDbPolyline
 90
       12
 70
     0
 43
0.0
 10
792.9831936228001
 20
1439.077370868574
 10
793.1369324281551
 20
1439.116987579241
 10
808.9366520284603
 20
1437.492341569734
 10
822.8832815828518
 20
1435.054442006667
 10
833.7077330351744
 20
1432.269864297778
 10
834.2931601385789
 20
1432.114060057005
 10
843.1816949685599
 20
1429.052006015039
 10
843.9240078265102
 20
1428.792598684644
 10
852.0689752381057
 20
1425.242159258439
 10
858.3527187671823
 20
1421.936058935841
 10
863.6585529891018
 20
1418.674443053007
 10
863.7101293469987
 20
1418.637455370914
  0
LINE
  5
1039
330
1F
100
AcDbEntity
  8
Hewi
  6
CUSTOM
 62
    18
420
        0
370
     9
100
AcDbLine
 10
792.9831936228001
 20
1439.077370868574
 30
0.0
 11
769.2097603729636
 21
1440.1431927913
 31
0.0
  0
LWPOLYLINE
  5
103A
330
1F
100
AcDbEntity
  8
Hewi
  6
CUSTOM
 62
    18
420
        0
370
     9
100
AcDbPolyline
 90
        4
 70
     0
 43
0.0
 10
894.7835717064773
 20
1404.599755455622
 10
894.4028439774829
 20
1406.151402679602
 10
894.0366186605807
 20
1407.590221696028
 10
893.6577765091334
 20
1408.4658242145
  0
LWPOLYLINE
  5
103C
330
1F
100
AcDbEntity
  8
Hewi
  6
CUSTOM
 62
    18
420
        0
370
     9
100
AcDbPolyline
 90
       12
 70
     0
 43
0.0
 10
809.392700025508
 20
1380.594915400002
 10
819.1532697894272
 20
1381.038314702597
 10
832.1600220047512
 20
1381.83232608043
 10
843.4375301390391
 20
1382.706899606422
 10
849.2131278559137
 20
1383.133946118355
 10
851.2979721220636
 20
1383.267905517823
 10
853.086279537516
 20
1383.379963595451
 10
856.2461835336453
 20
1383.568144826603
 10
859.5072033225788
 20
1383.742817922754
 10
862.4736793512129
 20
1383.876163190379
 10
865.8872409946742
 20
1383.981860572286
 10
867.7761906307804
 20
1384.007253272327
  0
LWPOLYLINE
  5
103E
330
1F
100
AcDbEntity
  8
Hewi
  6
CUSTOM
 62
    18
420
        0
370
     9
100
AcDbPolyline
 90
        3
 70
     0
 43
0.0
 10
822.455297692235
 20
1435.124457276926
 10
808.660341151233
 20
1437.495844377402
 10
792.9831936228001
 20
1439.077370868574
  0
LWPOLYLINE
  5
103F
330
1F
100
AcDbEntity
  8
Hewi
  6
CUSTOM
 62
    18
420
        0
370
     9
100
AcDbPolyline
 90
       14
 70
     0
 43
0.0
 10
767.9821685157222
 20
1335.177118217917
 10
767.8171172590646
 20
1335.187158704443
 10
767.4840632142132
 20
1335.198053239319
 10
767.0228406101887
 20
1335.207160875942
 10
766.4564176267776
 20
1335.214039611483
 10
765.8159399111028
 20
1335.218322473468
 10
765.1383043874846
 20
1335.219769553144
 10
733.1001136085797
 20
1335.219803787922
 10
732.5342770379903
 20
1335.218796038227
 10
731.990052882702
 20
1335.215817383788
 10
731.3957753180548
 20
1335.209784532243
 10
730.8960842683809
 20
1335.20140101071
 10
730.5172670973152
 20
1335.191053865893
 10
730.2805310357289
 20
1335.179277915496
  0
LWPOLYLINE
  5
1040
330
1F
100
AcDbEntity
  8
Hewi
  6
CUSTOM
 62
    18
420
        0
370
     9
100
AcDbPolyline
 90
        9
 70
     0
 43
0.0
 10
686.1494933326012
 20
1359.804079875184
 10
687.8931425050941
 20
1358.708183531866
 10
690.2350717388526
 20
1358.222907588093
 10
690.4436483327879
 20
1358.226392706356
 10
722.3882324297663
 20
1359.148413741123
 10
775.5182916819394
 20
1362.385072311133
 10
776.575007197465
 20
1362.47110633198
 10
777.2934067425667
 20
1362.531639276251
 10
782.8514414719684
 20
1361.845319955421
  0
LWPOLYLINE
  5
1041
330
1F
100
AcDbEntity
  8
Hewi
  6
CUSTOM
 62
    18
420
        0
370
     9
100
AcDbPolyline
 90
        3
 70
     0
 43
0.0
 10
809.392700025508
 20
1380.594915400002
 10
809.7068975486488
 20
1380.61891357701
 10
814.746949755332
 20
1381.213502118644
  0
LWPOLYLINE
  5
1042
330
1F
100
AcDbEntity
  8
Hewi
  6
CUSTOM
 62
    18
420
        0
370
     9
100
AcDbPolyline
 90
        3
 70
     0
 43
0.0
 10
782.6794223123979
 20
1361.866561286445
 10
782.9274491786891
 20
1361.770373344266
 10
783.7623758209082
 20
1361.356062078412
  0
LINE
  5
1043
330
1F
100
AcDbEntity
  8
Hewi
  6
CUSTOM
 62
    18
420
        0
370
     9
100
AcDbLine
 10
782.8514413118248
 20
1361.845319975196
 30
0.0
 11
782.466883595247
 21
1362.034589164872
 31
0.0
  0
LWPOLYLINE
  5
1045
330
1F
100
AcDbEntity
  8
Hewi
  6
CUSTOM
 62
    18
420
        0
370
     9
100
AcDbPolyline
 90
       10
 70
     0
 43
0.0
 10
789.4974969761424
 20
1336.851262053789
 10
789.0080605545025
 20
1337.092029637807
 10
788.723388877599
 20
1337.25855443261
 10
788.4785969255609
 20
1337.487228123665
 10
788.2921423002608
 20
1337.761848505771
 10
788.1647341052812
 20
1338.093900721982
 10
788.1192075978106
 20
1338.460201523128
 10
788.1192075668077
 20
1341.275715639567
 10
788.1192075322887
 20
1345.75745457495
 10
788.1192074821682
 20
1353.69669174921
  0
LINE
  5
1046
330
1F
100
AcDbEntity
  8
Hewi
  6
CUSTOM
 62
    18
420
        0
370
     9
100
AcDbLine
 10
788.0165961337696
 20
1354.674268760621
 30
0.0
 11
788.1192074821682
 21
1353.69669174921
 31
0.0
  0
LWPOLYLINE
  5
1048
330
1F
100
AcDbEntity
  8
Hewi
  6
CUSTOM
 62
    18
420
        0
370
     9
100
AcDbPolyline
 90
        3
 70
     0
 43
0.0
 10
783.2831142415034
 20
1361.59388353988
 10
787.0746944883102
 20
1357.919545538244
 10
788.0165961337696
 20
1354.674268760621
  0
LWPOLYLINE
  5
1049
330
1F
100
AcDbEntity
  8
Hewi
  6
CUSTOM
 62
    18
420
        0
370
     9
100
AcDbPolyline
 90
        3
 70
     0
 43
0.0
 10
872.4802558905558
 20
1383.080689617057
 10
870.6220658445728
 20
1383.563063007174
 10
869.535934118865
 20
1383.748220041556
  0
LWPOLYLINE
  5
104A
330
1F
100
AcDbEntity
  8
Hewi
  6
CUSTOM
 62
    18
420
        0
370
     9
100
AcDbPolyline
 90
        3
 70
     0
 43
0.0
 10
812.7479799503872
 20
1365.682041630738
 10
809.2689420109035
 20
1362.992163668959
 10
808.1929999213263
 20
1359.505148760214
  0
LWPOLYLINE
  5
104B
330
1F
100
AcDbEntity
  8
Hewi
  6
CUSTOM
 62
    18
420
        0
370
     9
100
AcDbPolyline
 90
        5
 70
     0
 43
0.0
 10
807.1466048083365
 20
1335.194494193357
 10
806.669162383616
 20
1335.088233110299
 10
806.6531091490924
 20
1335.087555293803
 10
806.6369816142321
 20
1335.08721827434
 10
806.6191613284154
 20
1335.08723318443
  0
LWPOLYLINE
  5
104C
330
1F
100
AcDbEntity
  8
Hewi
  6
CUSTOM
 62
    18
420
        0
370
     9
100
AcDbPolyline
 90
        3
 70
     0
 43
0.0
 10
808.11920974838
 20
1336.655896966668
 10
808.0786386279033
 20
1336.30560188808
 10
807.9549545286244
 20
1335.952583978888
  0
LWPOLYLINE
  5
104D
330
1F
100
AcDbEntity
  8
Hewi
  6
CUSTOM
 62
    18
420
        0
370
     9
100
AcDbPolyline
 90
        7
 70
     0
 43
0.0
 10
806.6191698390593
 20
1335.087373621438
 10
805.8091188554062
 20
1335.087223764376
 10
803.7191740518007
 20
1335.087256071984
 10
780.0785810820616
 20
1335.087580631956
 10
768.0379871742371
 20
1335.087853187019
 10
767.7357876420117
 20
1335.124083979714
 10
767.5344482311666
 20
1335.196405094291
  0
LWPOLYLINE
  5
104E
330
1F
100
AcDbEntity
  8
Hewi
  6
CUSTOM
 62
    18
420
        0
370
     9
100
AcDbPolyline
 90
        4
 70
     0
 43
0.0
 10
730.7298141109876
 20
1335.19685945024
 10
730.6221013563518
 20
1335.159066786115
 10
730.5235425031132
 20
1335.124625605116
 10
730.200417873868
 20
1335.087886878145
  0
LWPOLYLINE
  5
1054
330
1F
100
AcDbEntity
  8
Hewi
  6
CUSTOM
 62
    18
420
        0
370
     9
100
AcDbPolyline
 90
        3
 70
     0
 43
0.0
 10
807.9549545286244
 20
1335.952583978888
 10
807.6435498725533
 20
1335.547942980919
 10
807.317114471407
 20
1335.28734743218
  0
LWPOLYLINE
  5
1056
330
1F
100
AcDbEntity
  8
Hewi
  6
CUSTOM
 62
    18
420
        0
370
     9
100
AcDbPolyline
 90
        3
 70
     0
 43
0.0
 10
648.0044028950507
 20
1358.38649958507
 10
650.3460529430267
 20
1358.894747857232
 10
651.7775724060811
 20
1359.776721812163
  0
LWPOLYLINE
  5
1057
330
1F
100
AcDbEntity
  8
Hewi
  6
CUSTOM
 62
    18
420
        0
370
     9
100
AcDbPolyline
 90
        4
 70
     0
 43
0.0
 10
657.9081892724352
 20
1360.303899777189
 10
654.4001359106912
 20
1360.059670450018
 10
651.6177568155852
 20
1359.759479297228
 10
649.8726984183357
 20
1359.44158564241
  0
LWPOLYLINE
  5
1058
330
1F
100
AcDbEntity
  8
Hewi
  6
CUSTOM
 62
    18
420
        0
370
     9
100
AcDbPolyline
 90
        4
 70
     0
 43
0.0
 10
687.3148377316099
 20
1359.64831289547
 10
687.6784376258963
 20
1359.38249826441
 10
688.8809207987087
 20
1359.149906585367
 10
690.2310557166911
 20
1359.018449459535
  0
LWPOLYLINE
  5
1059
330
1F
100
AcDbEntity
  8
Hewi
  6
CUSTOM
 62
    18
420
        0
370
     9
100
AcDbPolyline
 90
        3
 70
     0
 43
0.0
 10
807.317114471407
 20
1335.28734743218
 10
807.6427673706875
 20
1335.518515880024
 10
807.9549545286244
 20
1335.952583978888
  0
LINE
  5
105C
330
1F
100
AcDbEntity
  8
Hewi
  6
CUSTOM
 62
    18
420
        0
370
     9
100
AcDbLine
 10
808.1192095855822
 20
1345.582210491591
 30
0.0
 11
808.1192096376417
 21
1340.877904441365
 31
0.0
  0
LWPOLYLINE
  5
105E
330
1F
100
AcDbEntity
  8
Hewi
  6
CUSTOM
 62
    18
420
        0
370
     9
100
AcDbPolyline
 90
        3
 70
     0
 43
0.0
 10
808.1192096901686
 20
1338.09865708751
 10
808.1192097484088
 20
1336.846962432312
 10
808.1192097484088
 20
1336.655896966668
  0
LWPOLYLINE
  5
105F
330
1F
100
AcDbEntity
  8
Hewi
  6
CUSTOM
 62
    18
420
        0
370
     9
100
AcDbPolyline
 90
        3
 70
     0
 43
0.0
 10
806.6191698390593
 20
1335.087373621438
 10
806.9852774355531
 20
1335.160479041933
 10
807.1466048083365
 20
1335.194494193357
  0
LINE
  5
1060
330
1F
100
AcDbEntity
  8
Hewi
  6
CUSTOM
 62
    18
420
        0
370
     9
100
AcDbLine
 10
807.1466048083365
 20
1335.194494193357
 30
0.0
 11
807.317114471407
 21
1335.28734743218
 31
0.0
  0
LWPOLYLINE
  5
1061
330
1F
100
AcDbEntity
  8
Hewi
  6
CUSTOM
 62
    18
420
        0
370
     9
100
AcDbPolyline
 90
        3
 70
     0
 43
0.0
 10
808.226384321375
 20
1359.613344078578
 10
808.1192094859616
 20
1358.320737215158
 10
808.1192095357437
 20
1351.584927786089
  0
LINE
  5
1062
330
1F
100
AcDbEntity
  8
Hewi
  6
CUSTOM
 62
    18
420
        0
370
     9
100
AcDbLine
 10
808.1192096376417
 20
1340.877904441365
 30
0.0
 11
808.1192096901686
 21
1338.09865708751
 31
0.0
  0
LINE
  5
1063
330
1F
100
AcDbEntity
  8
Hewi
  6
CUSTOM
 62
    18
420
        0
370
     9
100
AcDbLine
 10
808.1192095357437
 20
1351.584927786089
 30
0.0
 11
808.1192095855822
 21
1345.582210491591
 31
0.0
  0
LWPOLYLINE
  5
1064
330
1F
100
AcDbEntity
  8
Hewi
  6
CUSTOM
 62
    18
420
        0
370
     9
100
AcDbPolyline
 90
        5
 70
     0
 43
0.0
 10
688.5973592874762
 20
1359.37236903912
 10
687.5191082522632
 20
1359.621008852575
 10
685.2518611643281
 20
1359.924062830881
 10
682.081237426526
 20
1360.196170860345
 10
678.655102720335
 20
1360.38587785045
  0
LINE
  5
1065
330
1F
100
AcDbEntity
  8
Hewi
  6
CUSTOM
 62
    18
420
        0
370
     9
100
AcDbLine
 10
529.2008221736542
 20
1362.602959161852
 30
0.0
 11
525.6775163067177
 21
1365.593989923473
 31
0.0
  0
LWPOLYLINE
  5
1066
330
1F
100
AcDbEntity
  8
Hewi
  6
CUSTOM
 62
    18
420
        0
370
     9
100
AcDbPolyline
 90
        3
 70
     0
 43
0.0
 10
686.5230553287982
 20
1359.754147317989
 10
687.6796848856336
 20
1359.002225975313
 10
688.3218151240253
 20
1358.757515890689
  0
LINE
  5
1067
330
1F
100
AcDbEntity
  8
Hewi
  6
CUSTOM
 62
    18
420
        0
370
     9
100
AcDbLine
 10
529.2651669170955
 20
1362.234464045205
 30
0.0
 11
529.1012129331284
 21
1362.549006812223
 31
0.0
  0
LINE
  5
1068
330
1F
100
AcDbEntity
  8
Hewi
  6
CUSTOM
 62
    18
420
        0
370
     9
100
AcDbLine
 10
479.2054927494318
 20
1371.503677423753
 30
0.0
 11
477.4438925027787
 21
1371.452367244556
 31
0.0
  0
LINE
  5
1069
330
1F
100
AcDbEntity
  8
Hewi
  6
CUSTOM
 62
    18
420
        0
370
     9
100
AcDbLine
 10
551.0290787691756
 20
1357.475290171733
 30
0.0
 11
551.2651940043179
 21
1358.009297190812
 31
0.0
  0
LINE
  5
106A
330
1F
100
AcDbEntity
  8
Hewi
  6
CUSTOM
 62
    18
420
        0
370
     9
100
AcDbLine
 10
531.6205644972779
 20
1335.087373366264
 30
0.0
 11
531.6192622305607
 21
1335.08723318443
 31
0.0
  0
LINE
  5
106B
330
1F
100
AcDbEntity
  8
Hewi
  6
CUSTOM
 62
    18
420
        0
370
     9
100
AcDbLine
 10
530.1192140213061
 20
1351.333551255996
 30
0.0
 11
530.1192140728272
 21
1358.295128136047
 31
0.0
  0
LWPOLYLINE
  5
106C
330
1F
100
AcDbEntity
  8
Hewi
  6
CUSTOM
 62
    18
420
        0
370
     9
100
AcDbPolyline
 90
        3
 70
     0
 43
0.0
 10
686.9073162779312
 20
1359.327782584689
 10
686.4709273393835
 20
1359.51243133656
 10
686.1042193297508
 20
1359.761880533038
  0
LINE
  5
106D
330
1F
100
AcDbEntity
  8
Hewi
  6
CUSTOM
 62
    18
420
        0
370
     9
100
AcDbLine
 10
550.4014407863397
 20
1355.297495823983
 30
0.0
 11
550.1199456320953
 21
1353.700829852775
 31
0.0
  0
LINE
  5
106E
330
1F
100
AcDbEntity
  8
Hewi
  6
CUSTOM
 62
    18
420
        0
370
     9
100
AcDbLine
 10
608.0380056851081
 20
1335.087886878145
 30
0.0
 11
608.056721818275
 21
1335.088170782852
 31
0.0
  0
LINE
  5
106F
330
1F
100
AcDbEntity
  8
Hewi
  6
CUSTOM
 62
    18
420
        0
370
     9
100
AcDbLine
 10
447.9319075060337
 20
1377.434698914769
 30
0.0
 11
448.0473111653171
 21
1377.218795878109
 31
0.0
  0
LWPOLYLINE
  5
1070
330
1F
100
AcDbEntity
  8
Hewi
  6
CUSTOM
 62
    18
420
        0
370
     9
100
AcDbPolyline
 90
        9
 70
     0
 43
0.0
 10
517.1192140060375
 20
1366.878539795237
 10
517.1192140060375
 20
1265.755084380008
 10
517.2947186181954
 20
1265.755084380008
 10
517.8124319205782
 20
1265.755084380008
 10
518.6463936064174
 20
1265.755084380008
 10
519.7547853544638
 20
1265.755084380008
 10
521.082027774235
 20
1265.755084380008
 10
522.5615673887149
 20
1265.755084380008
 10
524.1192139036193
 20
1265.755084380008
  0
LWPOLYLINE
  5
1071
330
1F
100
AcDbEntity
  8
Hewi
  6
CUSTOM
 62
    18
420
        0
370
     9
100
AcDbPolyline
 90
        9
 70
     0
 43
0.0
 10
814.1192096606117
 20
1265.755084380008
 10
815.6768561755161
 20
1265.755084380008
 10
817.156395789998
 20
1265.755084380008
 10
818.4836382097692
 20
1265.755084380008
 10
819.5920299578137
 20
1265.755084380008
 10
820.4259916436567
 20
1265.755084380008
 10
820.9437049460357
 20
1265.755084380008
 10
821.1192095581973
 20
1265.755084380008
 10
821.1192095581973
 20
1366.878240919668
  0
LINE
  5
1072
330
1F
100
AcDbEntity
  8
Hewi
  6
CUSTOM
 62
    18
420
        0
370
     9
100
AcDbLine
 10
782.592144608654
 20
1361.877338544923
 30
0.0
 11
782.7703982744824
 21
1361.831279665249
 31
0.0
  0
LWPOLYLINE
  5
1073
330
1F
100
AcDbEntity
  8
Hewi
  6
CUSTOM
 62
    18
420
        0
370
     9
100
AcDbPolyline
 90
        3
 70
     0
 43
0.0
 10
688.8308533273336
 20
1358.513878555562
 10
688.9724688031108
 20
1358.453956961457
 10
689.2320866171431
 20
1358.430738185734
  0
LINE
  5
1074
330
1F
100
AcDbEntity
  8
Hewi
  6
CUSTOM
 62
    18
420
        0
370
     9
100
AcDbLine
 10
686.1042193297508
 20
1359.761880533038
 30
0.0
 11
686.0506213327608
 21
1359.81729571017
 31
0.0
  0
LINE
  5
1075
330
1F
100
AcDbEntity
  8
Hewi
  6
CUSTOM
 62
    18
420
        0
370
     9
100
AcDbLine
 10
870.2306101538487
 20
1383.707119860844
 30
0.0
 11
865.6901076728317
 21
1383.975756556183
 31
0.0
  0
LINE
  5
1076
330
1F
100
AcDbEntity
  8
Hewi
  6
CUSTOM
 62
    18
420
        0
370
     9
100
AcDbLine
 10
872.0240672821018
 20
1382.795599560529
 30
0.0
 11
870.4564923020807
 21
1383.591288984082
 31
0.0
  0
LWPOLYLINE
  5
1077
330
1F
100
AcDbEntity
  8
Hewi
  6
CUSTOM
 62
    18
420
        0
370
     9
100
AcDbPolyline
 90
       32
 70
     0
 43
0.0
 10
751.1192105823703
 20
1265.755084380008
 10
750.6741687209687
 20
1265.704940204544
 10
750.251443116831
 20
1265.557022116494
 10
749.872230996896
 20
1265.318747346444
 10
749.5555476403114
 20
1265.002063986315
 10
749.3172728729295
 20
1264.622851862135
 10
749.1693547865343
 20
1264.200126253267
 10
749.119210611632
 20
1263.755084386883
 10
749.119210611632
 20
1259.755084400634
 10
749.0189222618263
 20
1258.865000667869
 10
748.7230860890377
 20
1258.019549450131
 10
748.2465365542736
 20
1257.261125201774
 10
747.6131698411027
 20
1256.627758481513
 10
746.8547456012347
 20
1256.151208941414
 10
746.0092943929594
 20
1255.855372765313
 10
745.1192106701545
 20
1255.755084414386
 10
593.1192128940765
 20
1255.755084414386
 10
592.2291291712736
 20
1255.855372765313
 10
591.3836779630001
 20
1256.151208941414
 10
590.6252537231303
 20
1256.627758481513
 10
589.9918870099607
 20
1257.261125201774
 10
589.5153374751952
 20
1258.019549450131
 10
589.2195013024047
 20
1258.865000667869
 10
589.1192129526008
 20
1259.755084400634
 10
589.1192129526008
 20
1263.755084386883
 10
589.0690687776968
 20
1264.200126253267
 10
588.9211506913034
 20
1264.622851862135
 10
588.6828759239215
 20
1265.002063986315
 10
588.366192567335
 20
1265.318747346444
 10
587.9869804474017
 20
1265.557022116494
 10
587.5642548432643
 20
1265.704940204544
 10
587.1192129818626
 20
1265.755084380008
  0
LINE
  5
1078
330
1F
100
AcDbEntity
  8
Hewi
  6
CUSTOM
 62
    18
420
        0
370
     9
100
AcDbLine
 10
806.6191613284154
 20
1335.08723318443
 30
0.0
 11
806.6180330551505
 21
1335.08737341114
 31
0.0
  0
LINE
  5
1079
330
1F
100
AcDbEntity
  8
Hewi
  6
CUSTOM
 62
    18
420
        0
370
     9
100
AcDbLine
 10
788.1192074821682
 20
1353.69669174921
 30
0.0
 11
787.9347586107906
 21
1354.956236002889
 31
0.0
  0
LINE
  5
107A
330
1F
100
AcDbEntity
  8
Hewi
  6
CUSTOM
 62
    18
420
        0
370
     9
100
AcDbLine
 10
809.1842371302263
 20
1362.671132045025
 30
0.0
 11
809.1092217896838
 21
1362.474527264708
 31
0.0
  0
LINE
  5
107B
330
1F
100
AcDbEntity
  8
Hewi
  6
CUSTOM
 62
    18
420
        0
370
     9
100
AcDbLine
 10
730.1983896943767
 20
1335.088170730074
 30
0.0
 11
730.200417873868
 21
1335.087886878145
 31
0.0
  0
LINE
  5
107C
330
1F
100
AcDbEntity
  8
Hewi
  6
CUSTOM
 62
    18
420
        0
370
     9
100
AcDbLine
 10
786.9002799724968
 20
1358.088566849648
 30
0.0
 11
787.2076315172596
 21
1357.461517425219
 31
0.0
  0
LINE
  5
107D
330
1F
100
AcDbEntity
  8
Hewi
  6
CUSTOM
 62
    18
420
        0
370
     9
100
AcDbLine
 10
809.1630638516761
 20
1362.649023714101
 30
0.0
 11
810.1272099225916
 21
1363.655748252204
 31
0.0
  0
LINE
  5
107E
330
1F
100
AcDbEntity
  8
Hewi
  6
CUSTOM
 62
    18
420
        0
370
     9
100
AcDbLine
 10
888.6987801118921
 20
1374.740751891356
 30
0.0
 11
887.948514586602
 21
1373.921521071551
 31
0.0
  0
LINE
  5
1080
330
1F
100
AcDbEntity
  8
Hewi
  6
CUSTOM
 62
    18
420
        0
370
     9
100
AcDbLine
 10
686.1042193297508
 20
1359.761880533038
 30
0.0
 11
686.3802652447811
 21
1359.659038031606
 31
0.0
  0
LINE
  5
1081
330
1F
100
AcDbEntity
  8
Hewi
  6
CUSTOM
 62
    18
420
        0
370
     9
100
AcDbLine
 10
650.647350563484
 20
1359.582702410689
 30
0.0
 11
650.6435539355988
 21
1359.580706060916
 31
0.0
  0
LINE
  5
1082
330
1F
100
AcDbEntity
  8
Hewi
  6
CUSTOM
 62
    18
420
        0
370
     9
100
AcDbLine
 10
650.5593059110542
 20
1359.17312553989
 30
0.0
 11
651.107960011157
 21
1359.666610686691
 31
0.0
  0
LINE
  5
1083
330
1F
100
AcDbEntity
  8
Hewi
  6
CUSTOM
 62
    18
420
        0
370
     9
100
AcDbLine
 10
467.6175891686908
 20
1383.531824323491
 30
0.0
 11
466.5839875175806
 21
1382.962643042219
 31
0.0
  0
LINE
  5
1084
330
1F
100
AcDbEntity
  8
Hewi
  6
CUSTOM
 62
    18
420
        0
370
     9
100
AcDbLine
 10
821.1192095581973
 20
1435.362800261941
 30
0.0
 11
821.1192095581973
 21
1462.363671147952
 31
0.0
  0
LINE
  5
1085
330
1F
100
AcDbEntity
  8
Hewi
  6
CUSTOM
 62
    18
420
        0
370
     9
100
AcDbLine
 10
517.1192140060375
 20
1462.372870683768
 30
0.0
 11
517.1192140060375
 21
1435.320782730691
 31
0.0
  0
LWPOLYLINE
  5
1086
330
1F
100
AcDbEntity
  8
Hewi
  6
CUSTOM
 62
    18
420
        0
370
     9
100
AcDbPolyline
 90
       10
 70
     0
 43
0.0
 10
814.1192096606117
 20
1338.014307974976
 10
814.4192096562237
 20
1337.71649531377
 10
816.8192096211077
 20
1337.71649531377
 10
817.1192096167196
 20
1338.014307974976
 10
817.1192096167196
 20
1339.900857015684
 10
817.1192096167196
 20
1343.56431572418
 10
817.1192096167196
 20
1348.791777196458
 10
817.1192096167196
 20
1355.279440372798
 10
817.1192096167196
 20
1362.650265851088
 10
817.1192096167196
 20
1366.446804728895
  0
LWPOLYLINE
  5
1087
330
1F
100
AcDbEntity
  8
Hewi
  6
CUSTOM
 62
    18
420
        0
370
     9
100
AcDbPolyline
 90
       12
 70
     0
 43
0.0
 10
460.9171482688106
 20
1529.715190643339
 10
460.6817308510454
 20
1530.504179992248
 10
455.061749160166
 20
1551.453824221873
 10
452.7407330853018
 20
1563.156445599332
 10
450.2821207285233
 20
1576.018900325389
 10
448.251999285894
 20
1590.584895673704
 10
446.4739559598562
 20
1604.857731129594
 10
445.0947918557466
 20
1621.107970731475
 10
444.0543170031178
 20
1636.71238829711
 10
443.4168075259877
 20
1653.861901587992
 10
443.1698729411253
 20
1665.50538433351
 10
443.2285609812169
 20
1694.281352078979
  0
LWPOLYLINE
  5
1088
330
1F
100
AcDbEntity
  8
Hewi
  6
CUSTOM
 62
    18
420
        0
370
     9
100
AcDbPolyline
 90
        6
 70
     0
 43
0.0
 10
513.742600518206
 20
1463.675384583215
 10
516.5385994543138
 20
1462.503806040818
 10
531.0919300669848
 20
1459.221997254929
 10
546.164017175637
 20
1457.364511507798
 10
561.4155611749428
 20
1456.384950435744
 10
577.4014543354167
 20
1456.337259805987
  0
LWPOLYLINE
  5
108A
330
1F
100
AcDbEntity
  8
Hewi
  6
CUSTOM
 62
    18
420
        0
370
     9
100
AcDbPolyline
 90
        9
 70
     0
 43
0.0
 10
473.9940397315859
 20
1794.319610801984
 10
475.0336110550706
 20
1795.200418149563
 10
484.0684511709587
 20
1801.115154240785
 10
494.4538587864717
 20
1805.823550907867
 10
499.9738429380867
 20
1807.530879033429
 10
507.2041015673603
 20
1809.437181061626
 10
512.9519981676256
 20
1810.286215055573
 10
528.5241494692181
 20
1812.106154840089
 10
538.3281147059442
 20
1812.585265328955
  0
LWPOLYLINE
  5
108B
330
1F
100
AcDbEntity
  8
Hewi
  6
CUSTOM
 62
    18
420
        0
370
     9
100
AcDbPolyline
 90
        6
 70
     0
 43
0.0
 10
668.3761659309657
 20
1453.691183632083
 10
639.1876572229466
 20
1453.900263024427
 10
615.2481041399148
 20
1454.307433656629
 10
609.2644476424339
 20
1454.544081909261
 10
585.3467382099552
 20
1455.491287687414
 10
563.6417542808685
 20
1456.378309045949
  0
LWPOLYLINE
  5
108C
330
1F
100
AcDbEntity
  8
Hewi
  6
CUSTOM
 62
    18
420
        0
370
     9
100
AcDbPolyline
 90
       14
 70
     0
 43
0.0
 10
465.5738994692092
 20
1786.455173620897
 10
462.1762745561536
 20
1782.329228190652
 10
458.5351133324711
 20
1777.198922928023
 10
455.3539130898733
 20
1771.751311659886
 10
452.8767109274887
 20
1766.562830533598
 10
450.1628008126171
 20
1759.712370862204
 10
448.5888315483387
 20
1754.451342418856
 10
446.557204124454
 20
1746.146907834656
 10
445.7075134344521
 20
1740.760598595179
 10
445.207912505828
 20
1737.845985342242
 10
444.1051345960714
 20
1726.219898037418
 10
443.5148613262988
 20
1711.673550627319
 10
443.214959932473
 20
1694.109297556758
 10
443.2277629847795
 20
1693.890082860959
  0
LWPOLYLINE
  5
108D
330
1F
100
AcDbEntity
  8
Hewi
  6
CUSTOM
 62
    18
420
        0
370
     9
100
AcDbPolyline
 90
        3
 70
     0
 43
0.0
 10
465.5738994692092
 20
1786.455173620897
 10
470.7021238386531
 20
1791.439998044548
 10
473.9940397315859
 20
1794.319610801984
  0
LWPOLYLINE
  5
108E
330
1F
100
AcDbEntity
  8
Hewi
  6
CUSTOM
 62
    18
420
        0
370
     9
100
AcDbPolyline
 90
        6
 70
     0
 43
0.0
 10
507.2534287321468
 20
1465.94518809308
 10
505.3995006621808
 20
1466.589982215147
 10
496.1563108820919
 20
1471.932007987548
 10
487.9621040873753
 20
1478.890543326585
 10
480.4942400471408
 20
1487.71876120805
 10
479.6813887875287
 20
1489.166972312825
  0
LWPOLYLINE
  5
108F
330
1F
100
AcDbEntity
  8
Hewi
  6
CUSTOM
 62
    18
420
        0
370
     9
100
AcDbPolyline
 90
       18
 70
     0
 43
0.0
 10
895.0098625830159
 20
1694.281352078979
 10
895.0416043715922
 20
1670.495671590265
 10
894.8623963823738
 20
1654.639557805975
 10
894.2801410784959
 20
1639.575735655822
 10
893.3101006099605
 20
1622.537750257754
 10
892.001785437762
 20
1608.097538970387
 10
890.2899098198869
 20
1592.073650854328
 10
888.3275254450017
 20
1579.210690973564
 10
885.9988389511382
 20
1564.93562732478
 10
880.4592561452682
 20
1540.535823672029
 10
874.1791568929581
 20
1520.29026290309
 10
867.4417091399408
 20
1504.155477092689
 10
860.0916324563367
 20
1491.112423039346
 10
852.5010321260486
 20
1481.238475229162
 10
844.6857417796854
 20
1473.894128849893
 10
836.4730068638561
 20
1468.467505213251
 10
829.2893399073946
 20
1465.129867783932
 10
823.4161841084931
 20
1463.154473746843
  0
LWPOLYLINE
  5
1091
330
1F
100
AcDbEntity
  8
Hewi
  6
CUSTOM
 62
    18
420
        0
370
     9
100
AcDbPolyline
 90
        7
 70
     0
 43
0.0
 10
775.5545534959474
 20
1456.412759830727
 10
786.8212210308447
 20
1457.156389575802
 10
796.9611176127544
 20
1457.925486548288
 10
809.4253028128569
 20
1459.70991268487
 10
811.0136969464983
 20
1459.924750567099
 10
821.6998241099188
 20
1462.503806040818
 10
825.3364541785412
 20
1463.882443240935
  0
LWPOLYLINE
  5
1092
330
1F
100
AcDbEntity
  8
Hewi
  6
CUSTOM
 62
    18
420
        0
370
     9
100
AcDbPolyline
 90
       10
 70
     0
 43
0.0
 10
538.3281147080181
 20
1812.585265329056
 10
538.7093058015286
 20
1812.680834952763
 10
582.082431673587
 20
1814.088400732822
 10
625.5890316187177
 20
1814.868618088005
 10
669.1192242152737
 20
1815.113214817433
 10
712.6493934105162
 20
1814.868618071267
 10
756.1559926237405
 20
1814.08840071465
 10
799.5291177627041
 20
1812.680834952763
 10
814.1900659250111
 20
1811.853312805212
 10
816.9289010855827
 20
1811.437744587017
  0
LWPOLYLINE
  5
1093
330
1F
100
AcDbEntity
  8
Hewi
  6
CUSTOM
 62
    18
420
        0
370
     9
100
AcDbPolyline
 90
        4
 70
     0
 43
0.0
 10
460.9242448992226
 20
1529.693426450193
 10
467.0063684241886
 20
1512.637731154312
 10
470.386480367786
 20
1505.390384578554
 10
473.529321918184
 20
1498.83022802535
  0
LWPOLYLINE
  5
1095
330
1F
100
AcDbEntity
  8
Hewi
  6
CUSTOM
 62
    18
420
        0
370
     9
100
AcDbPolyline
 90
        5
 70
     0
 43
0.0
 10
668.3761659309657
 20
1453.691183632083
 10
693.0622016143716
 20
1453.840071362566
 10
717.0059210653635
 20
1454.234973250253
 10
746.922431293271
 20
1455.136825678014
 10
775.5545534959474
 20
1456.412759830727
  0
LWPOLYLINE
  5
1096
330
1F
100
AcDbEntity
  8
Hewi
  6
CUSTOM
 62
    18
420
        0
370
     9
100
AcDbPolyline
 90
        5
 70
     0
 43
0.0
 10
841.4033852326847
 20
1806.658056875044
 10
852.5456487142038
 20
1801.980527298621
 10
862.4126362286443
 20
1795.803489294792
 10
863.1826890442042
 20
1795.135632005754
 10
870.3086283894188
 20
1788.858961223179
  0
LWPOLYLINE
  5
1097
330
1F
100
AcDbEntity
  8
Hewi
  6
CUSTOM
 62
    18
420
        0
370
     9
100
AcDbPolyline
 90
        3
 70
     0
 43
0.0
 10
839.3184390731457
 20
1807.100221183275
 10
841.1737354335581
 20
1806.719369757505
 10
841.4033852326847
 20
1806.658056875044
  0
LWPOLYLINE
  5
1098
330
1F
100
AcDbEntity
  8
Hewi
  6
CUSTOM
 62
    18
420
        0
370
     9
100
AcDbPolyline
 90
        3
 70
     0
 43
0.0
 10
473.9940397315859
 20
1794.319610801984
 10
466.5248363627214
 20
1787.370054679985
 10
465.5738994692092
 20
1786.455173620897
  0
LWPOLYLINE
  5
109A
330
1F
100
AcDbEntity
  8
Hewi
  6
CUSTOM
 62
    18
420
        0
370
     9
100
AcDbPolyline
 90
       12
 70
     0
 43
0.0
 10
895.0107687398668
 20
1693.602311125135
 10
895.0756223391364
 20
1694.17733402421
 10
894.6784869013081
 20
1711.595404698435
 10
893.7535823107738
 20
1730.703967896727
 10
891.7282693919478
 20
1745.644546550583
 10
891.5942335548352
 20
1746.205746024068
 10
888.4061111501832
 20
1758.534467310353
 10
888.2489196361166
 20
1759.032086129723
 10
883.59343465233
 20
1770.336437775046
 10
877.8096605098633
 20
1780.016235790348
 10
871.018841398598
 20
1788.215615211911
 10
870.3086283894188
 20
1788.858961223179
  0
LWPOLYLINE
  5
109B
330
1F
100
AcDbEntity
  8
Hewi
  6
CUSTOM
 62
    18
420
        0
370
     9
100
AcDbPolyline
 90
        3
 70
     0
 43
0.0
 10
893.3270263682716
 20
1622.835037617565
 10
893.3278506783244
 20
1622.496812124513
 10
893.2300295246369
 20
1621.653985077131
  0
LWPOLYLINE
  5
109C
330
1F
100
AcDbEntity
  8
Hewi
  6
CUSTOM
 62
    18
420
        0
370
     9
100
AcDbPolyline
 90
        3
 70
     0
 43
0.0
 10
894.8643531121142
 20
1654.81268614076
 10
894.9057847799359
 20
1654.569554479255
 10
894.7834562221849
 20
1652.597256879532
  0
LWPOLYLINE
  5
109D
330
1F
100
AcDbEntity
  8
Hewi
  6
CUSTOM
 62
    18
420
        0
370
     9
100
AcDbPolyline
 90
        3
 70
     0
 43
0.0
 10
841.4033852326847
 20
1806.658056875044
 10
835.2714081556442
 20
1808.386306290339
 10
829.299483063103
 20
1809.765764627216
  0
LWPOLYLINE
  5
109E
330
1F
100
AcDbEntity
  8
Hewi
  6
CUSTOM
 62
    18
420
        0
370
     9
100
AcDbPolyline
 90
        3
 70
     0
 43
0.0
 10
882.9229606023728
 20
1771.021485948734
 10
877.1867854758784
 20
1780.577902128881
 10
870.3086283894188
 20
1788.858961223179
  0
LWPOLYLINE
  5
109F
330
1F
100
AcDbEntity
  8
Hewi
  6
CUSTOM
 62
    18
420
        0
370
     9
100
AcDbPolyline
 90
        3
 70
     0
 43
0.0
 10
473.5456710550716
 20
1498.802470588507
 10
477.2624639403328
 20
1492.840888696007
 10
480.4912218374628
 20
1487.724138578406
  0
LWPOLYLINE
  5
10A0
330
1F
100
AcDbEntity
  8
Hewi
  6
CUSTOM
 62
    18
420
        0
370
     9
100
AcDbPolyline
 90
        3
 70
     0
 43
0.0
 10
506.34160818282
 20
1466.262318267276
 10
510.8884398286225
 20
1464.410236248111
 10
515.7589528423159
 20
1462.830493316742
  0
LWPOLYLINE
  5
10A2
330
1F
100
AcDbEntity
  8
Hewi
  6
CUSTOM
 62
    18
420
        0
370
     9
100
AcDbPolyline
 90
        3
 70
     0
 43
0.0
 10
827.890982180892
 20
1810.02018835332
 10
821.8209039014327
 20
1810.974975331368
 10
815.8712448302592
 20
1811.598224614542
  0
LWPOLYLINE
  5
10A3
330
1F
100
AcDbEntity
  8
Hewi
  6
CUSTOM
 62
    18
420
        0
370
     9
100
AcDbPolyline
 90
        3
 70
     0
 43
0.0
 10
830.9976428137488
 20
1809.284508942906
 10
828.6539279442804
 20
1809.948713895554
 10
826.5499007078798
 20
1810.145823845423
  0
LWPOLYLINE
  5
124F
330
1F
100
AcDbEntity
  8
Hewi
  6
CUSTOM
 62
    18
420
        0
370
     9
100
AcDbPolyline
 90
       31
 70
     0
 43
0.0
 10
1387.90371345991
 20
1784.870456501717
 10
1388.995393028642
 20
1784.990994269209
 10
1390.034477122677
 20
1785.346800243896
 10
1390.970904237951
 20
1785.920732230691
 10
1391.759558728762
 20
1786.685139052315
 10
1392.362444411519
 20
1787.6031927413
 10
1392.750515163552
 20
1788.630662855906
 10
1392.905074321481
 20
1789.71804743607
 10
1392.818675458242
 20
1790.812957933168
 10
1390.501975149504
 20
1802.699910993488
 10
1390.336523568519
 20
1803.961093359105
 10
1390.33422513426
 20
1805.233001952038
 10
1390.699021597163
 20
1807.382700912486
 10
1391.512628689899
 20
1809.404655530667
 10
1392.751635135268
 20
1811.197547762401
 10
1394.353465103142
 20
1812.675882039366
 10
1396.23314878528
 20
1813.780678721478
 10
1398.305639662787
 20
1814.454553820486
 10
1401.515147781252
 20
1815.113214817433
 10
1401.521305446562
 20
1815.114478064629
 10
1402.472390795636
 20
1815.228588803993
 10
1403.429573868383
 20
1815.188533252807
 10
1404.753989516884
 20
1814.876709536664
 10
1405.225093762725
 20
1814.75544159155
 10
1407.779684632238
 20
1813.968870458789
 10
1412.02154056459
 20
1812.550989401414
 10
1413.301291366727
 20
1811.989396670915
 10
1415.11907062762
 20
1811.159863321203
 10
1415.529090090301
 20
1810.883586249516
 10
1416.322671944497
 20
1810.322932867288
 10
1417.78357928688
 20
1808.972811039351
  0
LWPOLYLINE
  5
1257
330
1F
100
AcDbEntity
  8
Hewi
  6
CUSTOM
 62
    18
420
        0
370
     9
100
AcDbPolyline
 90
        8
 70
     0
 43
0.0
 10
1425.460239876713
 20
1793.873143085216
 10
1427.488813049756
 20
1787.248581924429
 10
1427.886971134434
 20
1786.398489906702
 10
1429.895276021645
 20
1778.636607483394
 10
1431.909591379244
 20
1769.464950927779
 10
1433.980271019838
 20
1758.182803145064
 10
1435.836675384696
 20
1745.890517312987
 10
1436.015429033093
 20
1741.962943284212
  0
LWPOLYLINE
  5
1258
330
1F
100
AcDbEntity
  8
Hewi
  6
CUSTOM
 62
    18
420
        0
370
     9
100
AcDbPolyline
 90
        6
 70
     0
 43
0.0
 10
1435.889838409988
 20
1744.722419716242
 10
1437.314918083262
 20
1733.250145418223
 10
1437.580471496918
 20
1731.65363166706
 10
1439.462953521641
 20
1712.528287061205
 10
1440.965845420739
 20
1694.996455571607
 10
1441.050324892936
 20
1690.583899980722
  0
LWPOLYLINE
  5
125B
330
1F
100
AcDbEntity
  8
Hewi
  6
CUSTOM
 62
    18
420
        0
370
     9
100
AcDbPolyline
 90
        3
 70
     0
 43
0.0
 10
1427.442483356113
 20
1787.399877381894
 10
1425.905173140428
 20
1792.895248171018
 10
1425.460239876713
 20
1793.873143085216
  0
LINE
  5
1260
330
1F
100
AcDbEntity
  8
Hewi
  6
CUSTOM
 62
    18
420
        0
370
     9
100
AcDbLine
 10
1419.853991661068
 20
1806.34473829207
 30
0.0
 11
1421.018858661125
 21
1804.531710109191
 31
0.0
  0
LWPOLYLINE
  5
1268
330
1F
100
AcDbEntity
  8
Hewi
  6
CUSTOM
 62
    18
420
        0
370
     9
100
AcDbPolyline
 90
        3
 70
     0
 43
0.0
 10
1444.267092525107
 20
1642.032332397284
 10
1444.269466039955
 20
1642.016040717309
 10
1444.26865257868
 20
1641.996877624805
  0
LWPOLYLINE
  5
1269
330
1F
100
AcDbEntity
  8
Hewi
  6
CUSTOM
 62
    18
420
        0
370
     9
100
AcDbPolyline
 90
        4
 70
     0
 43
0.0
 10
1441.698712913941
 20
1493.296445611793
 10
1441.501937294882
 20
1491.717328849226
 10
1441.501757744274
 20
1491.713139283936
 10
1440.350938659298
 20
1482.973783390009
  0
LWPOLYLINE
  5
126B
330
1F
100
AcDbEntity
  8
Hewi
  6
CUSTOM
 62
    18
420
        0
370
     9
100
AcDbPolyline
 90
        3
 70
     0
 43
0.0
 10
1442.826616437736
 20
1668.304857448404
 10
1442.837864086216
 20
1668.48481223728
 10
1442.805388795378
 20
1668.644779686855
  0
LWPOLYLINE
  5
126C
330
1F
100
AcDbEntity
  8
Hewi
  6
CUSTOM
 62
    18
420
        0
370
     9
100
AcDbPolyline
 90
        3
 70
     0
 43
0.0
 10
1442.739540255109
 20
1502.874724423529
 10
1442.093184407647
 20
1499.692458908939
 10
1442.739200210131
 20
1502.871560403358
  0
LINE
  5
126F
330
1F
100
AcDbEntity
  8
Hewi
  6
CUSTOM
 62
    18
420
        0
370
     9
100
AcDbLine
 10
1442.739540255109
 20
1502.874724423529
 30
0.0
 11
1442.739200210131
 21
1502.871560403358
 31
0.0
  0
LWPOLYLINE
  5
1271
330
1F
100
AcDbEntity
  8
Hewi
  6
CUSTOM
 62
    18
420
        0
370
     9
100
AcDbPolyline
 90
        6
 70
     0
 43
0.0
 10
1445.637789400382
 20
1555.678884855462
 10
1445.637983271049
 20
1555.680055951646
 10
1445.637864084831
 20
1555.681597466417
 10
1445.812620747863
 20
1580.605740817684
 10
1445.403385083324
 20
1609.676188456848
 10
1444.26865257869
 20
1641.996877624511
  0
LWPOLYLINE
  5
1272
330
1F
100
AcDbEntity
  8
Hewi
  6
CUSTOM
 62
    18
420
        0
370
     9
100
AcDbPolyline
 90
       11
 70
     0
 43
0.0
 10
1403.846686376771
 20
1577.070817260277
 10
1377.845286128035
 20
1577.06801380363
 10
1377.845286128035
 20
1468.830278171951
 10
1377.845286128035
 20
1468.385236304384
 10
1377.845286128035
 20
1467.962510694392
 10
1377.845286128035
 20
1467.583298569206
 10
1377.845286128035
 20
1467.266615208234
 10
1377.845286128035
 20
1467.028340437552
 10
1377.845286128035
 20
1466.880422349108
 10
1377.845286128035
 20
1466.830278173511
 10
1417.996035795167
 20
1466.830278173511
  0
LWPOLYLINE
  5
1273
330
1F
100
AcDbEntity
  8
Hewi
  6
CUSTOM
 62
    18
420
        0
370
     9
100
AcDbPolyline
 90
        4
 70
     0
 43
0.0
 10
1444.973177315479
 20
1534.470290482994
 10
1444.229161586131
 20
1521.454114425505
 10
1443.948155338914
 20
1516.955285895189
 10
1443.948033635629
 20
1516.9527377976
  0
LINE
  5
1274
330
1F
100
AcDbEntity
  8
Hewi
  6
CUSTOM
 62
    18
420
        0
370
     9
100
AcDbLine
 10
1443.15073546329
 20
1514.224660940372
 30
0.0
 11
1443.948033635629
 21
1516.9527377976
 31
0.0
  0
LWPOLYLINE
  5
1275
330
1F
100
AcDbEntity
  8
Hewi
  6
CUSTOM
 62
    18
420
        0
370
     9
100
AcDbPolyline
 90
       14
 70
     0
 43
0.0
 10
1395.580877706908
 20
1813.397302023541
 10
1408.027081424063
 20
1778.150323409081
 10
1409.023759988225
 20
1774.72496970473
 10
1410.461353234908
 20
1768.94952724061
 10
1412.179080204188
 20
1760.733170086563
 10
1413.912255665987
 20
1750.703942356764
 10
1415.615731095062
 20
1738.740288841462
 10
1417.308714516225
 20
1724.284375532391
 10
1419.188531471285
 20
1704.991262263493
 10
1420.813652222284
 20
1685.601950679167
 10
1420.969241123368
 20
1683.327092801827
 10
1421.102290671519
 20
1680.948998189418
 10
1421.254014735253
 20
1676.529074250004
 10
1421.264190920934
 20
1672.606764165642
  0
LWPOLYLINE
  5
127B
330
1F
100
AcDbEntity
  8
Hewi
  6
CUSTOM
 62
    18
420
        0
370
     9
100
AcDbPolyline
 90
        4
 70
     0
 43
0.0
 10
1417.36745944661
 20
1466.830278174544
 10
1417.638229000214
 20
1466.783653575325
 10
1417.994014118012
 20
1466.698793027167
 10
1418.619531090757
 20
1466.485872071627
  0
LWPOLYLINE
  5
127C
330
1F
100
AcDbEntity
  8
Hewi
  6
CUSTOM
 62
    18
420
        0
370
     9
100
AcDbPolyline
 90
        3
 70
     0
 43
0.0
 10
1441.686341320406
 20
1493.188279642503
 10
1441.670464766554
 20
1493.047367591283
 10
1441.65015709594
 20
1492.871917672582
  0
LINE
  5
127D
330
1F
100
AcDbEntity
  8
Hewi
  6
CUSTOM
 62
    18
420
        0
370
     9
100
AcDbLine
 10
1416.203983736923
 20
1586.286215720922
 30
0.0
 11
1416.607082192975
 21
1587.922409745996
 31
0.0
  0
LINE
  5
127E
330
1F
100
AcDbEntity
  8
Hewi
  6
CUSTOM
 62
    18
420
        0
370
     9
100
AcDbLine
 10
1411.018049149076
 20
1600.800796534135
 30
0.0
 11
1409.972136782617
 21
1601.52257126126
 31
0.0
  0
LWPOLYLINE
  5
127F
330
1F
100
AcDbEntity
  8
Hewi
  6
CUSTOM
 62
    18
420
        0
370
     9
100
AcDbPolyline
 90
        4
 70
     0
 43
0.0
 10
1436.883800055825
 20
1458.721985219041
 10
1437.537411535418
 20
1462.796075273637
 10
1438.173277645686
 20
1466.769102505113
 10
1439.491832391704
 20
1475.851308625508
  0
LWPOLYLINE
  5
1280
330
1F
100
AcDbEntity
  8
Hewi
  6
CUSTOM
 62
    18
420
        0
370
     9
100
AcDbPolyline
 90
        4
 70
     0
 43
0.0
 10
1439.747543030389
 20
1477.612643704481
 10
1439.798532079864
 20
1477.963856317091
 10
1439.925410679554
 20
1478.987999281227
 10
1440.892961755793
 20
1486.768737217283
  0
LWPOLYLINE
  5
1281
330
1F
100
AcDbEntity
  8
Hewi
  6
CUSTOM
 62
    18
420
        0
370
     9
100
AcDbPolyline
 90
        3
 70
     0
 43
0.0
 10
1441.734055308643
 20
1493.614081940499
 10
1441.730352532415
 20
1493.578900316166
 10
1441.713347072836
 20
1493.427968683676
  0
LINE
  5
1282
330
1F
100
AcDbEntity
  8
Hewi
  6
CUSTOM
 62
    18
420
        0
370
     9
100
AcDbLine
 10
1411.038049872271
 20
1762.731432028981
 30
0.0
 11
1410.981862612643
 21
1762.723303601459
 31
0.0
  0
LINE
  5
1284
330
1F
100
AcDbEntity
  8
Hewi
  6
CUSTOM
 62
    18
420
        0
370
     9
100
AcDbLine
 10
1416.750585894174
 20
1589.269226263456
 30
0.0
 11
1416.750364463661
 21
1591.322898417996
 31
0.0
  0
LWPOLYLINE
  5
1285
330
1F
100
AcDbEntity
  8
Hewi
  6
CUSTOM
 62
    18
420
        0
370
     9
100
AcDbPolyline
 90
        3
 70
     0
 43
0.0
 10
1441.478679107768
 20
1491.425212927281
 10
1441.469556551717
 20
1491.349682046745
 10
1441.452699804742
 20
1491.213924975963
  0
LWPOLYLINE
  5
1286
330
1F
100
AcDbEntity
  8
Hewi
  6
CUSTOM
 62
    18
420
        0
370
     9
100
AcDbPolyline
 90
        3
 70
     0
 43
0.0
 10
1441.405473184209
 20
1490.833581860217
 10
1441.383780427609
 20
1490.658877624736
 10
1440.833690960402
 20
1486.292100338133
  0
LINE
  5
1287
330
1F
100
AcDbEntity
  8
Hewi
  6
CUSTOM
 62
    18
420
        0
370
     9
100
AcDbLine
 10
1413.117538481906
 20
1581.075654100307
 30
0.0
 11
1414.275828589392
 21
1582.383377469248
 31
0.0
  0
LWPOLYLINE
  5
1288
330
1F
100
AcDbEntity
  8
Hewi
  6
CUSTOM
 62
    18
420
        0
370
     9
100
AcDbPolyline
 90
        3
 70
     0
 43
0.0
 10
1445.677103595059
 20
1561.278015982929
 10
1445.778967463144
 20
1566.163628985518
 10
1445.760874172101
 20
1573.225540857117
  0
LWPOLYLINE
  5
1289
330
1F
100
AcDbEntity
  8
Hewi
  6
CUSTOM
 62
    18
420
        0
370
     9
100
AcDbPolyline
 90
        3
 70
     0
 43
0.0
 10
1443.733243952787
 20
1651.769078373615
 10
1443.471589431712
 20
1657.575105451078
 10
1443.189345692068
 20
1661.689118707902
  0
LINE
  5
128A
330
1F
100
AcDbEntity
  8
Hewi
  6
CUSTOM
 62
    18
420
        0
370
     9
100
AcDbLine
 10
1415.296190724166
 20
1596.022632994982
 30
0.0
 11
1414.641231588175
 21
1597.270226509841
 31
0.0
  0
LWPOLYLINE
  5
128B
330
1F
100
AcDbEntity
  8
Hewi
  6
CUSTOM
 62
    18
420
        0
370
     9
100
AcDbPolyline
 90
        3
 70
     0
 43
0.0
 10
1445.726244919951
 20
1586.741530084431
 10
1445.709466156881
 20
1593.290374395236
 10
1445.52231065472
 20
1601.228196521613
  0
LWPOLYLINE
  5
128C
330
1F
100
AcDbEntity
  8
Hewi
  6
CUSTOM
 62
    18
420
        0
370
     9
100
AcDbPolyline
 90
        4
 70
     0
 43
0.0
 10
1416.71177143513
 20
1809.96334009917
 10
1417.027979537735
 20
1809.720418428178
 10
1417.389549352797
 20
1809.394677206455
 10
1417.629681343951
 20
1809.115038383163
  0
LINE
  5
128D
330
1F
100
AcDbEntity
  8
Hewi
  6
CUSTOM
 62
    18
420
        0
370
     9
100
AcDbLine
 10
1419.336376086215
 20
1807.131277633532
 30
0.0
 11
1419.232598636173
 21
1807.226979296174
 31
0.0
  0
LINE
  5
128E
330
1F
100
AcDbEntity
  8
Hewi
  6
CUSTOM
 62
    18
420
        0
370
     9
100
AcDbLine
 10
1403.846686376771
 20
1577.070817260277
 30
0.0
 11
1406.855623296709
 21
1577.436497600082
 31
0.0
  0
LINE
  5
128F
330
1F
100
AcDbEntity
  8
Hewi
  6
CUSTOM
 62
    18
420
        0
370
     9
100
AcDbLine
 10
1419.336376086215
 20
1807.131277633532
 30
0.0
 11
1419.194107748375
 21
1807.279327417136
 31
0.0
  0
LWPOLYLINE
  5
1290
330
1F
100
AcDbEntity
  8
Hewi
  6
CUSTOM
 62
    18
420
        0
370
     9
100
AcDbPolyline
 90
        3
 70
     1
 43
0.0
 10
1419.336376086215
 20
1807.131277633532
 10
1419.455131106436
 20
1806.924332156204
 10
1419.337084941175
 20
1807.13019956203
  0
LWPOLYLINE
  5
1291
330
1F
100
AcDbEntity
  8
Hewi
  6
CUSTOM
 62
    18
420
        0
370
     9
100
AcDbPolyline
 90
        3
 70
     0
 43
0.0
 10
1442.860489708466
 20
1504.283805131979
 10
1443.023782238838
 20
1505.818035877278
 10
1443.366734951055
 20
1510.18164421189
  0
LWPOLYLINE
  5
1293
330
1F
100
AcDbEntity
  8
Hewi
  6
CUSTOM
 62
    18
420
        0
370
     9
100
AcDbPolyline
 90
        3
 70
     0
 43
0.0
 10
1445.124483002977
 20
1538.982410809356
 10
1445.277041657616
 20
1542.090174011661
 10
1445.356515015082
 20
1545.901889351909
  0
LWPOLYLINE
  5
1294
330
1F
100
AcDbEntity
  8
Hewi
  6
CUSTOM
 62
    18
420
        0
370
     9
100
AcDbPolyline
 90
        3
 70
     0
 43
0.0
 10
1441.609880999389
 20
1492.523948769621
 10
1441.594668477489
 20
1492.392518839462
 10
1441.555669772075
 20
1492.062662852391
  0
LWPOLYLINE
  5
1295
330
1F
100
AcDbEntity
  8
Hewi
  6
CUSTOM
 62
    18
420
        0
370
     9
100
AcDbPolyline
 90
        3
 70
     0
 43
0.0
 10
1444.13809206149
 20
1519.996117741901
 10
1444.28290372813
 20
1521.838649884076
 10
1444.476077952484
 20
1525.773790420722
  0
LINE
  5
1297
330
1F
100
AcDbEntity
  8
Hewi
  6
CUSTOM
 62
    18
420
        0
370
     9
100
AcDbLine
 10
1416.407741615341
 20
1593.028478062341
 30
0.0
 11
1416.063082226157
 21
1594.426167663611
 31
0.0
  0
LINE
  5
1299
330
1F
100
AcDbEntity
  8
Hewi
  6
CUSTOM
 62
    18
420
        0
370
     9
100
AcDbLine
 10
1413.471689200417
 20
1598.666123578815
 30
0.0
 11
1412.569628764644
 21
1599.684118218714
 31
0.0
  0
LINE
  5
129A
330
1F
100
AcDbEntity
  8
Hewi
  6
CUSTOM
 62
    18
420
        0
370
     9
100
AcDbLine
 10
1407.80292670424
 20
1577.769546933184
 30
0.0
 11
1409.696336219985
 21
1578.487856003233
 31
0.0
  0
LINE
  5
129B
330
1F
100
AcDbEntity
  8
Hewi
  6
CUSTOM
 62
    18
420
        0
370
     9
100
AcDbLine
 10
1442.981380112801
 20
1505.465436165276
 30
0.0
 11
1442.875847877159
 21
1504.462730292224
 31
0.0
  0
LINE
  5
129C
330
1F
100
AcDbEntity
  8
Hewi
  6
CUSTOM
 62
    18
420
        0
370
     9
100
AcDbLine
 10
1407.995484674305
 20
1602.298931014211
 30
0.0
 11
1407.004267773372
 21
1602.674727775904
 31
0.0
  0
LINE
  5
129D
330
1F
100
AcDbEntity
  8
Hewi
  6
CUSTOM
 62
    18
420
        0
370
     9
100
AcDbLine
 10
1414.974043165542
 20
1583.505063482883
 30
0.0
 11
1415.766804731252
 21
1585.015940392688
 31
0.0
  0
LWPOLYLINE
  5
129F
330
1F
100
AcDbEntity
  8
Hewi
  6
CUSTOM
 62
    18
420
        0
370
     9
100
AcDbPolyline
 90
        3
 70
     0
 43
0.0
 10
1445.159018084086
 20
1616.636516192791
 10
1444.986192417369
 20
1623.966567329104
 10
1444.60365933767
 20
1632.454849548086
  0
LINE
  5
12A1
330
1F
100
AcDbEntity
  8
Hewi
  6
CUSTOM
 62
    18
420
        0
370
     9
100
AcDbLine
 10
1410.711100188353
 20
1579.128867033762
 30
0.0
 11
1412.215151813776
 21
1580.167278416113
 31
0.0
  0
LINE
  5
12A2
330
1F
100
AcDbEntity
  8
Hewi
  6
CUSTOM
 62
    18
420
        0
370
     9
100
AcDbLine
 10
1420.016591879666
 20
1806.118271383926
 30
0.0
 11
1420.200225087624
 21
1805.805851912095
 31
0.0
  0
LWPOLYLINE
  5
12A3
330
1F
100
AcDbEntity
  8
Hewi
  6
CUSTOM
 62
    18
420
        0
370
     9
100
AcDbPolyline
 90
        4
 70
     0
 43
0.0
 10
1420.720581990293
 20
1804.995955387828
 10
1420.378167711534
 20
1805.605667484266
 10
1420.377475972611
 20
1805.606723215906
 10
1420.108522601269
 20
1805.961867502047
  0
LWPOLYLINE
  5
12A4
330
1F
100
AcDbEntity
  8
Hewi
  6
CUSTOM
 62
    18
420
        0
370
     9
100
AcDbPolyline
 90
        3
 70
     0
 43
0.0
 10
1419.336376086215
 20
1807.131277633532
 10
1419.816512851278
 20
1806.458670514717
 10
1419.892169497493
 20
1806.329954092925
  0
LWPOLYLINE
  5
12A5
330
1F
100
AcDbEntity
  8
Hewi
  6
CUSTOM
 62
    18
420
        0
370
     9
100
AcDbPolyline
 90
        8
 70
     0
 43
0.0
 10
1424.577050329816
 20
1796.06353685695
 10
1423.48040000966
 20
1799.44319104899
 10
1422.564837283018
 20
1801.378514802547
 10
1422.554907658106
 20
1801.421483393384
 10
1422.090083291606
 20
1802.482189717941
 10
1421.49800607583
 20
1803.609697801716
 10
1421.340984705131
 20
1803.891249587391
 10
1421.018858661125
 20
1804.531710109191
  0
LWPOLYLINE
  5
12A7
330
1F
100
AcDbEntity
  8
Hewi
  6
CUSTOM
 62
    18
420
        0
370
     9
100
AcDbPolyline
 90
        3
 70
     0
 43
0.0
 10
1441.698712913941
 20
1493.296445611793
 10
1441.761735702355
 20
1493.862856758866
 10
1442.739193245908
 20
1502.871526237365
  0
LWPOLYLINE
  5
12AA
330
1F
100
AcDbEntity
  8
Hewi
  6
CUSTOM
 62
    18
420
        0
370
     9
100
AcDbPolyline
 90
        3
 70
     0
 43
0.0
 10
1427.817345436666
 20
1786.54714503897
 10
1427.777614000854
 20
1786.710288247109
 10
1427.094347202783
 20
1788.644347904298
  0
LWPOLYLINE
  5
12AB
330
1F
100
AcDbEntity
  8
Hewi
  6
CUSTOM
 62
    18
420
        0
370
     9
100
AcDbPolyline
 90
        3
 70
     0
 43
0.0
 10
1415.724338669802
 20
1810.745646129591
 10
1415.464431409687
 20
1810.941890459839
 10
1415.349967534077
 20
1811.004281629781
  0
LWPOLYLINE
  5
12AC
330
1F
100
AcDbEntity
  8
Hewi
  6
CUSTOM
 62
    18
420
        0
370
     9
100
AcDbPolyline
 90
       12
 70
     0
 43
0.0
 10
1430.01906768317
 20
1453.801234140478
 10
1425.825357141679
 20
1454.477177576972
 10
1424.703520076514
 20
1454.726597474782
 10
1423.621898387831
 20
1455.102791515817
 10
1421.709155963386
 20
1456.145869491987
 10
1420.066648851381
 20
1457.568956755777
 10
1418.77528780286
 20
1459.314900888293
 10
1417.89530126415
 20
1461.299853448849
 10
1417.457330254296
 20
1463.431706500542
 10
1417.490123400511
 20
1465.619267280858
 10
1417.609090046656
 20
1466.788361076159
 10
1417.604679413539
 20
1466.789430575747
  0
LWPOLYLINE
  5
12AD
330
1F
100
AcDbEntity
  8
Hewi
  6
CUSTOM
 62
    18
420
        0
370
     9
100
AcDbPolyline
 90
        3
 70
     0
 43
0.0
 10
1424.793979170593
 20
1795.444035560606
 10
1424.631636241949
 20
1796.500176108019
 10
1423.820307201298
 20
1798.395665925301
  0
LWPOLYLINE
  5
12AE
330
1F
100
AcDbEntity
  8
Hewi
  6
CUSTOM
 62
    18
420
        0
370
     9
100
AcDbPolyline
 90
        3
 70
     0
 43
0.0
 10
1437.26136324802
 20
1733.745997930317
 10
1437.205419340858
 20
1734.97608361789
 10
1436.916444522062
 20
1736.777781036921
  0
LWPOLYLINE
  5
12AF
330
1F
100
AcDbEntity
  8
Hewi
  6
CUSTOM
 62
    18
420
        0
370
     9
100
AcDbPolyline
 90
        4
 70
     0
 43
0.0
 10
1437.331340811457
 20
1733.15141155404
 10
1437.135193013324
 20
1734.818043042915
 10
1436.317920852855
 20
1742.139873244784
 10
1435.869059193247
 20
1745.178980488701
  0
LWPOLYLINE
  5
12B1
330
1F
100
AcDbEntity
  8
Hewi
  6
CUSTOM
 62
    18
420
        0
370
     9
100
AcDbPolyline
 90
        3
 70
     0
 43
0.0
 10
1424.715421214719
 20
1795.955103352296
 10
1425.572963342778
 20
1793.868665932008
 10
1425.751536042328
 20
1793.232918848714
  0
LWPOLYLINE
  5
12B2
330
1F
100
AcDbEntity
  8
Hewi
  6
CUSTOM
 62
    18
420
        0
370
     9
100
AcDbPolyline
 90
        3
 70
     0
 43
0.0
 10
1433.196326212704
 20
1762.454145259116
 10
1433.34028778836
 20
1761.904355592786
 10
1433.434040620122
 20
1761.158952613843
  0
LWPOLYLINE
  5
12B3
330
1F
100
AcDbEntity
  8
Hewi
  6
CUSTOM
 62
    18
420
        0
370
     9
100
AcDbPolyline
 90
        3
 70
     0
 43
0.0
 10
1434.284572250637
 20
1756.167855471926
 10
1434.385161448361
 20
1755.620959624195
 10
1434.590549028218
 20
1754.141813017854
  0
LWPOLYLINE
  5
12B4
330
1F
100
AcDbEntity
  8
Hewi
  6
CUSTOM
 62
    18
420
        0
370
     9
100
AcDbPolyline
 90
        3
 70
     0
 43
0.0
 10
1426.818579581797
 20
1789.630125083796
 10
1426.703291822946
 20
1790.41105730028
 10
1426.323656953874
 20
1791.399308241325
  0
LWPOLYLINE
  5
12B5
330
1F
100
AcDbEntity
  8
Hewi
  6
CUSTOM
 62
    18
420
        0
370
     9
100
AcDbPolyline
 90
        3
 70
     0
 43
0.0
 10
1431.055797943773
 20
1773.352475325713
 10
1431.202023418185
 20
1772.863890699484
 10
1431.445564107223
 20
1771.577777378039
  0
LWPOLYLINE
  5
12B6
330
1F
100
AcDbEntity
  8
Hewi
  6
CUSTOM
 62
    18
420
        0
370
     9
100
AcDbPolyline
 90
        4
 70
     0
 43
0.0
 10
1440.14644002651
 20
1704.555145261904
 10
1439.477475276169
 20
1712.522880843755
 10
1438.408356305522
 20
1723.767167315372
 10
1438.312354652593
 20
1724.217960346198
  0
LINE
  5
12B7
330
1F
100
AcDbEntity
  8
Hewi
  6
CUSTOM
 62
    18
420
        0
370
     9
100
AcDbLine
 10
1419.974163789922
 20
1806.218440758465
 30
0.0
 11
1420.049666186439
 21
1806.040185556213
 31
0.0
  0
LWPOLYLINE
  5
12B8
330
1F
100
AcDbEntity
  8
Hewi
  6
CUSTOM
 62
    18
420
        0
370
     9
100
AcDbPolyline
 90
        3
 70
     0
 43
0.0
 10
1428.805423782819
 20
1782.848769204723
 10
1428.977600072761
 20
1782.339404649971
 10
1429.014634368082
 20
1782.040192767853
  0
LINE
  5
12BA
330
1F
100
AcDbEntity
  8
Hewi
  6
CUSTOM
 62
    18
420
        0
370
     9
100
AcDbLine
 10
1441.006615054615
 20
1693.576864550701
 30
0.0
 11
1440.980938008011
 21
1694.208134450241
 31
0.0
  0
LWPOLYLINE
  5
12BB
330
1F
100
AcDbEntity
  8
Hewi
  6
CUSTOM
 62
    18
420
        0
370
     9
100
AcDbPolyline
 90
        3
 70
     0
 43
0.0
 10
1435.180626286244
 20
1750.23458329048
 10
1435.354161086652
 20
1749.332693396582
 10
1435.423111488466
 20
1748.628953887596
  0
LINE
  5
12BC
330
1F
100
AcDbEntity
  8
Hewi
  6
CUSTOM
 62
    18
420
        0
370
     9
100
AcDbLine
 10
1417.347817117797
 20
1466.83027817224
 30
0.0
 11
1417.543104539062
 21
1466.800033334011
 31
0.0
  0
LINE
  5
12BE
330
1F
100
AcDbEntity
  8
Hewi
  6
CUSTOM
 62
    18
420
        0
370
     9
100
AcDbLine
 10
1442.826616437918
 20
1668.304857445087
 30
0.0
 11
1444.2670925624
 21
1642.032331717114
 31
0.0
  0
LWPOLYLINE
  5
12BF
330
1F
100
AcDbEntity
  8
Hewi
  6
CUSTOM
 62
    18
420
        0
370
     9
100
AcDbPolyline
 90
        4
 70
     0
 43
0.0
 10
1440.371985888101
 20
1482.636759188901
 10
1439.730279451954
 20
1477.473745141684
 10
1438.092202717361
 20
1466.327977574148
 10
1436.883800055825
 20
1458.721985219041
  0
LINE
  5
12C0
330
1F
100
AcDbEntity
  8
Hewi
  6
CUSTOM
 62
    18
420
        0
370
     9
100
AcDbLine
 10
1440.98811442851
 20
1693.833294534783
 30
0.0
 11
1442.805388849678
 21
1668.644778934227
 31
0.0
  0
LWPOLYLINE
  5
12C1
330
1F
100
AcDbEntity
  8
Hewi
  6
CUSTOM
 62
    18
420
        0
370
     9
100
AcDbPolyline
 90
        3
 70
     0
 43
0.0
 10
1444.973177315479
 20
1534.470290482994
 10
1445.424080908057
 20
1547.916786890646
 10
1445.637789401212
 20
1555.67888488557
  0
LINE
  5
12C2
330
1F
100
AcDbEntity
  8
Hewi
  6
CUSTOM
 62
    18
420
        0
370
     9
100
AcDbLine
 10
1417.78357928688
 20
1808.972811039351
 30
0.0
 11
1419.194107748375
 21
1807.279327417136
 31
0.0
  0
LWPOLYLINE
  5
12C4
330
1F
100
AcDbEntity
  8
Hewi
  6
CUSTOM
 62
    18
420
        0
370
     9
100
AcDbPolyline
 90
        3
 70
     0
 43
0.0
 10
1413.39900389711
 20
1811.944806106247
 10
1414.151399066945
 20
1811.613697921695
 10
1414.523050294023
 20
1811.431853851052
  0
LINE
  5
12C5
330
1F
100
AcDbEntity
  8
Hewi
  6
CUSTOM
 62
    18
420
        0
370
     9
100
AcDbLine
 10
1443.947896279704
 20
1516.952267813477
 30
0.0
 11
1442.739540255109
 21
1502.874724423529
 31
0.0
  0
LWPOLYLINE
  5
12C6
330
1F
100
AcDbEntity
  8
Hewi
  6
CUSTOM
 62
    18
420
        0
370
     9
100
AcDbPolyline
 90
       19
 70
     0
 43
0.0
 10
1320.534811893155
 20
1745.043161871295
 10
1319.600979693279
 20
1744.615767885352
 10
1319.11949112952
 20
1744.435955072518
 10
1318.969275794934
 20
1744.403434644114
 10
1317.605627536006
 20
1744.153024073924
 10
1317.091696473286
 20
1744.146799604306
 10
1316.066535997373
 20
1744.208070938002
 10
1314.576753162286
 20
1744.598429800724
 10
1307.998907503463
 20
1747.123428311534
 10
1307.899529403595
 20
1747.175003830828
 10
1307.866879752478
 20
1747.201646695298
 10
1307.814119514099
 20
1747.247399806042
 10
1307.746960643477
 20
1747.33698600068
 10
1307.701420417928
 20
1747.439270188863
 10
1307.679782414521
 20
1747.549123414292
 10
1307.683131653104
 20
1747.66103717754
 10
1307.711300188864
 20
1747.769399655205
 10
1307.75383232376
 20
1747.880199660608
 10
1322.985460534268
 20
1787.55994986095
  0
LINE
  5
12C8
330
1F
100
AcDbEntity
  8
Hewi
  6
CUSTOM
 62
    18
420
        0
370
     9
100
AcDbLine
 10
1418.713211255175
 20
1466.386056065599
 30
0.0
 11
1419.006029174171
 21
1466.076633285332
 31
0.0
  0
LWPOLYLINE
  5
12CA
330
1F
100
AcDbEntity
  8
Hewi
  6
CUSTOM
 62
    18
420
        0
370
     9
100
AcDbPolyline
 90
       29
 70
     0
 43
0.0
 10
1355.6159334248
 20
1706.507701463629
 10
1333.703448352856
 20
1706.507701463629
 10
1333.024521679744
 20
1706.585534712208
 10
1332.380823719002
 20
1706.814995781552
 10
1331.805755206249
 20
1707.184178204684
 10
1331.329155775178
 20
1707.673925536719
 10
1330.9757556138
 20
1708.258825360409
 10
1330.76389224387
 20
1708.908527906819
 10
1330.704559008288
 20
1709.589320869392
 10
1330.80083463937
 20
1710.265878696176
 10
1331.047723507028
 20
1710.903095591467
 10
1331.432414836184
 20
1711.46790711457
 10
1331.93494744292
 20
1711.93100585501
 10
1354.071948258436
 20
1728.086347443053
 10
1354.587762431687
 20
1728.564940024888
 10
1354.977910048871
 20
1729.150516637842
 10
1355.220927999327
 20
1729.81086307609
 10
1355.303447186506
 20
1730.509651836773
 10
1355.303447186506
 20
1755.007701425788
 10
1355.279062821118
 20
1755.960097860824
 10
1355.248002417335
 20
1756.434362709142
 10
1355.242342109517
 20
1756.503977354431
 10
1355.222249235608
 20
1756.728201310386
 10
1355.199152304645
 20
1756.953359092941
 10
1355.197155078436
 20
1756.971540489933
 10
1355.195139276787
 20
1756.989719836807
 10
1355.193104901796
 20
1757.007897114586
 10
1352.643067835828
 20
1764.457032984074
 10
1347.136479879083
 20
1770.061768669445
  0
LINE
  5
12CB
330
1F
100
AcDbEntity
  8
Hewi
  6
CUSTOM
 62
    18
420
        0
370
     9
100
AcDbLine
 10
1323.381889764568
 20
1788.290736191027
 30
0.0
 11
1323.358054204269
 21
1788.257755833603
 31
0.0
  0
LINE
  5
12CD
330
1F
100
AcDbEntity
  8
Hewi
  6
CUSTOM
 62
    18
420
        0
370
     9
100
AcDbLine
 10
1407.238185558351
 20
1780.144418342576
 30
0.0
 11
1407.64144707997
 21
1779.242419103448
 31
0.0
  0
LWPOLYLINE
  5
12CE
330
1F
100
AcDbEntity
  8
Hewi
  6
CUSTOM
 62
    18
420
        0
370
     9
100
AcDbPolyline
 90
        5
 70
     0
 43
0.0
 10
1323.890440354942
 20
1788.842840604876
 10
1324.10539857357
 20
1789.011449708078
 10
1324.207495655537
 20
1789.082006091696
 10
1324.356190144493
 20
1789.17472843306
 10
1324.550085241182
 20
1789.279450053829
  0
LWPOLYLINE
  5
12D0
330
1F
100
AcDbEntity
  8
Hewi
  6
CUSTOM
 62
    18
420
        0
370
     9
100
AcDbPolyline
 90
       10
 70
     0
 43
0.0
 10
1320.534811893155
 20
1745.043161871295
 10
1321.783047271867
 20
1745.945238058298
 10
1321.812725921494
 20
1745.978921757552
 10
1321.834143851792
 20
1746.018376708856
 10
1321.84622190674
 20
1746.061614949445
 10
1321.848351525884
 20
1746.106457893128
 10
1321.840425407009
 20
1746.150646099723
 10
1321.822842912637
 20
1746.191953118399
 10
1319.51827646874
 20
1753.720650739662
 10
1320.685293490219
 20
1761.458288080929
  0
LINE
  5
12D2
330
1F
100
AcDbEntity
  8
Hewi
  6
CUSTOM
 62
    18
420
        0
370
     9
100
AcDbLine
 10
1325.423313044638
 20
1789.565621264377
 30
0.0
 11
1325.414118090515
 21
1789.564004520547
 31
0.0
  0
LINE
  5
12D4
330
1F
100
AcDbEntity
  8
Hewi
  6
CUSTOM
 62
    18
420
        0
370
     9
100
AcDbLine
 10
1324.402892740784
 20
1789.201544929006
 30
0.0
 11
1324.550085241182
 21
1789.279450053829
 31
0.0
  0
LINE
  5
12D5
330
1F
100
AcDbEntity
  8
Hewi
  6
CUSTOM
 62
    18
420
        0
370
     9
100
AcDbLine
 10
1319.395852028813
 20
1754.327628517076
 30
0.0
 11
1320.0537816592
 21
1750.136860393385
 31
0.0
  0
LWPOLYLINE
  5
12D7
330
1F
100
AcDbEntity
  8
Hewi
  6
CUSTOM
 62
    18
420
        0
370
     9
100
AcDbPolyline
 90
        3
 70
     0
 43
0.0
 10
1323.696056354561
 20
1788.661554783207
 10
1323.56850765704
 20
1788.524762234913
 10
1323.553903085926
 20
1788.506447538742
  0
LWPOLYLINE
  5
12D8
330
1F
100
AcDbEntity
  8
Hewi
  6
CUSTOM
 62
    18
420
        0
370
     9
100
AcDbPolyline
 90
        5
 70
     0
 43
0.0
 10
1322.985460534268
 20
1787.55994986095
 10
1323.190443137175
 20
1787.992989664608
 10
1323.284570399174
 20
1788.148375335698
 10
1323.350717556271
 20
1788.246949713545
 10
1323.358054204269
 20
1788.257755833603
  0
LWPOLYLINE
  5
12D9
330
1F
100
AcDbEntity
  8
Hewi
  6
CUSTOM
 62
    18
420
        0
370
     9
100
AcDbPolyline
 90
        3
 70
     0
 43
0.0
 10
1323.100175072122
 20
1787.802292188124
 10
1323.005074368302
 20
1787.609794661511
 10
1322.985460534268
 20
1787.55994986095
  0
LWPOLYLINE
  5
12DA
330
1F
100
AcDbEntity
  8
Hewi
  6
CUSTOM
 62
    18
420
        0
370
     9
100
AcDbPolyline
 90
        3
 70
     0
 43
0.0
 10
1323.69698408593
 20
1788.662422288724
 10
1323.870096995375
 20
1788.824838190432
 10
1323.890440354942
 20
1788.842840604876
  0
LWPOLYLINE
  5
12DB
330
1F
100
AcDbEntity
  8
Hewi
  6
CUSTOM
 62
    18
420
        0
370
     9
100
AcDbPolyline
 90
        3
 70
     0
 43
0.0
 10
1324.550085241182
 20
1789.279450053829
 10
1324.786738365743
 20
1789.384866726988
 10
1324.791950459341
 20
1789.38694037587
  0
LINE
  5
12DC
330
1F
100
AcDbEntity
  8
Hewi
  6
CUSTOM
 62
    18
420
        0
370
     9
100
AcDbLine
 10
1325.122299821307
 20
1789.497831739291
 30
0.0
 11
1325.296678425602
 21
1789.540903282574
 31
0.0
  0
LWPOLYLINE
  5
12DD
330
1F
100
AcDbEntity
  8
Hewi
  6
CUSTOM
 62
    18
420
        0
370
     9
100
AcDbPolyline
 90
        4
 70
     0
 43
0.0
 10
1325.296678425602
 20
1789.540903282574
 10
1325.361176675427
 20
1789.554155202124
 10
1325.426895742377
 20
1789.566236401035
 10
1326.084596121163
 20
1789.611223067265
  0
LINE
  5
12DE
330
1F
100
AcDbEntity
  8
Hewi
  6
CUSTOM
 62
    18
420
        0
370
     9
100
AcDbLine
 10
1323.910967685491
 20
1788.859874001581
 30
0.0
 11
1323.890440354942
 21
1788.842840604876
 31
0.0
  0
LWPOLYLINE
  5
12E0
330
1F
100
AcDbEntity
  8
Hewi
  6
CUSTOM
 62
    18
420
        0
370
     9
100
AcDbPolyline
 90
        3
 70
     0
 43
0.0
 10
1323.358054204269
 20
1788.257755833603
 10
1323.53333211611
 20
1788.484022815115
 10
1323.69698408593
 20
1788.662422288724
  0
LWPOLYLINE
  5
12E1
330
1F
100
AcDbEntity
  8
Hewi
  6
CUSTOM
 62
    18
420
        0
370
     9
100
AcDbPolyline
 90
        3
 70
     0
 43
0.0
 10
1324.791950459341
 20
1789.38694037587
 10
1325.070512014203
 20
1789.483080851584
 10
1325.296678425602
 20
1789.540903282574
  0
LINE
  5
12E2
330
1F
100
AcDbEntity
  8
Hewi
  6
CUSTOM
 62
    18
420
        0
370
     9
100
AcDbLine
 10
1418.421106045756
 20
1466.553414363979
 30
0.0
 11
1418.887931909677
 21
1466.285951889113
 31
0.0
  0
LWPOLYLINE
  5
12E3
330
1F
100
AcDbEntity
  8
Hewi
  6
CUSTOM
 62
    18
420
        0
370
     9
100
AcDbPolyline
 90
        7
 70
     0
 43
0.0
 10
1355.930747532906
 20
1755.053535691508
 10
1355.715664551779
 20
1754.958185859779
 10
1355.6208621031
 20
1754.898617167108
 10
1355.541691749407
 20
1754.819446326865
 10
1355.48212342282
 20
1754.724643295568
 10
1355.445144127971
 20
1754.61896189307
 10
1355.430750606072
 20
1754.564994258329
  0
LWPOLYLINE
  5
12E4
330
1F
100
AcDbEntity
  8
Hewi
  6
CUSTOM
 62
    18
420
        0
370
     9
100
AcDbPolyline
 90
        5
 70
     0
 43
0.0
 10
1355.622607439348
 20
1754.898617167108
 10
1355.644221986352
 20
1754.91220992305
 10
1355.717409888026
 20
1754.958185859779
 10
1355.787538023119
 20
1754.983229683955
 10
1355.823090641053
 20
1754.995165381889
  0
LWPOLYLINE
  5
12E5
330
1F
100
AcDbEntity
  8
Hewi
  6
CUSTOM
 62
    18
420
        0
370
     9
100
AcDbPolyline
 90
        8
 70
     0
 43
0.0
 10
1368.915124840955
 20
1788.115547967036
 10
1369.608524058046
 20
1788.014568515696
 10
1370.263320482234
 20
1787.765087109045
 10
1370.848117176457
 20
1787.379066170417
 10
1371.334873631743
 20
1786.875015078711
 10
1371.700250286014
 20
1786.277102659257
 10
1371.926727636415
 20
1785.613998309003
 10
1372.003446284743
 20
1784.91749732307
  0
LINE
  5
12E6
330
1F
100
AcDbEntity
  8
Hewi
  6
CUSTOM
 62
    18
420
        0
370
     9
100
AcDbLine
 10
1355.934350424188
 20
1755.007701425788
 30
0.0
 11
1355.843707234477
 21
1754.983229683955
 31
0.0
  0
LWPOLYLINE
  5
12E7
330
1F
100
AcDbEntity
  8
Hewi
  6
CUSTOM
 62
    18
420
        0
370
     9
100
AcDbPolyline
 90
        3
 70
     0
 43
0.0
 10
1307.856651648991
 20
1747.358199811445
 10
1307.909831449418
 20
1747.312446700701
 10
1307.942061538488
 20
1747.285803836231
  0
LINE
  5
12EA
330
1F
100
AcDbEntity
  8
Hewi
  6
CUSTOM
 62
    18
420
        0
370
     9
100
AcDbLine
 10
1355.932605087941
 20
1755.007701425788
 30
0.0
 11
1355.934350424188
 21
1755.007701425788
 31
0.0
  0
LWPOLYLINE
  5
12EB
330
1F
100
AcDbEntity
  8
Hewi
  6
CUSTOM
 62
    18
420
        0
370
     9
100
AcDbPolyline
 90
        8
 70
     0
 43
0.0
 10
1354.378806697696
 20
1761.079691615881
 10
1352.495320149043
 20
1764.87011840505
 10
1349.780011439842
 20
1768.116956101884
 10
1346.382540861251
 20
1770.641248010443
 10
1342.490167576201
 20
1772.303862156259
 10
1338.317428413296
 20
1773.013159855192
 10
1334.094313191346
 20
1772.730046583741
 10
1330.053588317932
 20
1771.470126760841
  0
LWPOLYLINE
  5
12EC
330
1F
100
AcDbEntity
  8
Hewi
  6
CUSTOM
 62
    18
420
        0
370
     9
100
AcDbPolyline
 90
        3
 70
     0
 43
0.0
 10
1320.235578097977
 20
1744.906209295528
 10
1320.350290221711
 20
1744.954542321663
 10
1320.534811893155
 20
1745.043161871295
  0
LINE
  5
12ED
330
1F
100
AcDbEntity
  8
Hewi
  6
CUSTOM
 62
    18
420
        0
370
     9
100
AcDbLine
 10
1352.449898465822
 20
1764.653645347254
 30
0.0
 11
1352.843144031449
 21
1763.872572922084
 31
0.0
  0
LINE
  5
12EE
330
1F
100
AcDbEntity
  8
Hewi
  6
CUSTOM
 62
    18
420
        0
370
     9
100
AcDbLine
 10
1323.696915963197
 20
1788.662348026225
 30
0.0
 11
1323.696056354561
 21
1788.661554783207
 31
0.0
  0
LWPOLYLINE
  5
12EF
330
1F
100
AcDbEntity
  8
Hewi
  6
CUSTOM
 62
    18
420
        0
370
     9
100
AcDbPolyline
 90
        3
 70
     0
 43
0.0
 10
1324.946559472952
 20
1789.440300876972
 10
1324.836914787816
 20
1789.404407279721
 10
1324.792057417722
 20
1789.386977290659
  0
LINE
  5
12F1
330
1F
100
AcDbEntity
  8
Hewi
  6
CUSTOM
 62
    18
420
        0
370
     9
100
AcDbLine
 10
1355.934350424188
 20
1755.007701425788
 30
0.0
 11
1356.673234333624
 21
1755.007701425788
 31
0.0
  0
LINE
  5
12F2
330
1F
100
AcDbEntity
  8
Hewi
  6
CUSTOM
 62
    18
420
        0
370
     9
100
AcDbLine
 10
1323.910967685491
 20
1788.859874001581
 30
0.0
 11
1323.904233197164
 21
1788.853659445766
 31
0.0
  0
LWPOLYLINE
  5
12F3
330
1F
100
AcDbEntity
  8
Hewi
  6
CUSTOM
 62
    18
420
        0
370
     9
100
AcDbPolyline
 90
        3
 70
     0
 43
0.0
 10
1323.283871459898
 20
1788.147221523869
 10
1323.21733549178
 20
1788.03944175795
 10
1323.211822865438
 20
1788.028283407978
  0
LINE
  5
12F5
330
1F
100
AcDbEntity
  8
Hewi
  6
CUSTOM
 62
    18
420
        0
370
     9
100
AcDbLine
 10
1341.534977055865
 20
1772.466228987901
 30
0.0
 11
1338.21257390183
 21
1773.006130520629
 31
0.0
  0
LINE
  5
12F7
330
1F
100
AcDbEntity
  8
Hewi
  6
CUSTOM
 62
    18
420
        0
370
     9
100
AcDbLine
 10
1346.702810743063
 20
1770.231046874187
 30
0.0
 11
1347.654316549269
 21
1769.534702241677
 31
0.0
  0
LINE
  5
12F9
330
1F
100
AcDbEntity
  8
Hewi
  6
CUSTOM
 62
    18
420
        0
370
     9
100
AcDbLine
 10
1325.009041250293
 20
1767.91959105465
 30
0.0
 11
1320.712062831686
 21
1761.540112879651
 31
0.0
  0
LINE
  5
12FA
330
1F
100
AcDbEntity
  8
Hewi
  6
CUSTOM
 62
    18
420
        0
370
     9
100
AcDbLine
 10
1331.734633972903
 20
1771.982509326308
 30
0.0
 11
1325.201218647756
 21
1768.110739011135
 31
0.0
  0
LWPOLYLINE
  5
12FB
330
1F
100
AcDbEntity
  8
Hewi
  6
CUSTOM
 62
    18
420
        0
370
     9
100
AcDbPolyline
 90
        3
 70
     0
 43
0.0
 10
1325.423691512681
 20
1789.565647363374
 10
1325.423313044638
 20
1789.565621264377
 10
1325.414118090515
 20
1789.564004520547
  0
LINE
  5
12FC
330
1F
100
AcDbEntity
  8
Hewi
  6
CUSTOM
 62
    18
420
        0
370
     9
100
AcDbLine
 10
1339.612515594875
 20
1772.778635351492
 30
0.0
 11
1332.040622035869
 21
1772.080798609225
 31
0.0
  0
LINE
  5
12FD
330
1F
100
AcDbEntity
  8
Hewi
  6
CUSTOM
 62
    18
420
        0
370
     9
100
AcDbLine
 10
1323.961746375204
 20
1788.8987716793
 30
0.0
 11
1323.910967685491
 21
1788.859874001581
 31
0.0
  0
LINE
  5
12FE
330
1F
100
AcDbEntity
  8
Hewi
  6
CUSTOM
 62
    18
420
        0
370
     9
100
AcDbLine
 10
1320.946866763626
 20
1761.888712846702
 30
0.0
 11
1320.876516407013
 21
1761.678586107619
 31
0.0
  0
LINE
  5
12FF
330
1F
100
AcDbEntity
  8
Hewi
  6
CUSTOM
 62
    18
420
        0
370
     9
100
AcDbLine
 10
1339.133609920943
 20
1772.734498706345
 30
0.0
 11
1340.443073835642
 21
1772.524294282133
 31
0.0
  0
LINE
  5
1300
330
1F
100
AcDbEntity
  8
Hewi
  6
CUSTOM
 62
    18
420
        0
370
     9
100
AcDbLine
 10
1347.108159572363
 20
1770.082547790853
 30
0.0
 11
1339.857470779294
 21
1772.738829287902
 31
0.0
  0
LINE
  5
1301
330
1F
100
AcDbEntity
  8
Hewi
  6
CUSTOM
 62
    18
420
        0
370
     9
100
AcDbLine
 10
1332.985587517548
 20
1772.384339934808
 30
0.0
 11
1329.911168188609
 21
1771.396776653176
 31
0.0
  0
LINE
  5
1302
330
1F
100
AcDbEntity
  8
Hewi
  6
CUSTOM
 62
    18
420
        0
370
     9
100
AcDbLine
 10
1323.441862712785
 20
1788.365944584101
 30
0.0
 11
1323.381889764568
 21
1788.290736191027
 31
0.0
  0
LINE
  5
1303
330
1F
100
AcDbEntity
  8
Hewi
  6
CUSTOM
 62
    18
420
        0
370
     9
100
AcDbLine
 10
1324.666296208667
 20
1767.410737088332
 30
0.0
 11
1325.603479864059
 21
1768.349123218315
 31
0.0
  0
LINE
  5
1304
330
1F
100
AcDbEntity
  8
Hewi
  6
CUSTOM
 62
    18
420
        0
370
     9
100
AcDbLine
 10
1323.381889764568
 20
1788.290736191027
 30
0.0
 11
1323.369078836545
 21
1788.271987577103
 31
0.0
  0
LINE
  5
1306
330
1F
100
AcDbEntity
  8
Hewi
  6
CUSTOM
 62
    18
420
        0
370
     9
100
AcDbLine
 10
1325.122299821307
 20
1789.497831739291
 30
0.0
 11
1325.101230671106
 21
1789.490934482112
 31
0.0
  0
LINE
  5
1307
330
1F
100
AcDbEntity
  8
Hewi
  6
CUSTOM
 62
    18
420
        0
370
     9
100
AcDbLine
 10
1325.414118090515
 20
1789.564004520547
 30
0.0
 11
1325.411391572598
 21
1789.563386254685
 31
0.0
  0
LINE
  5
1308
330
1F
100
AcDbEntity
  8
Hewi
  6
CUSTOM
 62
    18
420
        0
370
     9
100
AcDbLine
 10
1331.269868463101
 20
1771.707084412937
 30
0.0
 11
1332.57476288154
 21
1772.13002580175
 31
0.0
  0
LINE
  5
1309
330
1F
100
AcDbEntity
  8
Hewi
  6
CUSTOM
 62
    18
420
        0
370
     9
100
AcDbLine
 10
1324.79145033823
 20
1789.386741401017
 30
0.0
 11
1324.789040759278
 21
1789.385805123774
 31
0.0
  0
LINE
  5
130A
330
1F
100
AcDbEntity
  8
Hewi
  6
CUSTOM
 62
    18
420
        0
370
     9
100
AcDbLine
 10
1354.249690578959
 20
1761.339531642794
 30
0.0
 11
1352.443044147678
 21
1764.932627576223
 31
0.0
  0
LINE
  5
130B
330
1F
100
AcDbEntity
  8
Hewi
  6
CUSTOM
 62
    18
420
        0
370
     9
100
AcDbLine
 10
1325.174566101624
 20
1789.509683653649
 30
0.0
 11
1325.122299821307
 21
1789.497831739291
 31
0.0
  0
LWPOLYLINE
  5
130C
330
1F
100
AcDbEntity
  8
Hewi
  6
CUSTOM
 62
    18
420
        0
370
     9
100
AcDbPolyline
 90
        3
 70
     0
 43
0.0
 10
1324.20488657799
 20
1789.080203032561
 10
1324.149382303024
 20
1789.042505239387
 10
1324.140581630516
 20
1789.035763716028
  0
LINE
  5
130D
330
1F
100
AcDbEntity
  8
Hewi
  6
CUSTOM
 62
    18
420
        0
370
     9
100
AcDbLine
 10
1319.699093024621
 20
1753.129948257853
 30
0.0
 11
1319.559382723278
 21
1753.993196389515
 31
0.0
  0
LINE
  5
130E
330
1F
100
AcDbEntity
  8
Hewi
  6
CUSTOM
 62
    18
420
        0
370
     9
100
AcDbLine
 10
1349.218663565142
 20
1768.534032825806
 30
0.0
 11
1346.296751336663
 21
1770.677892694292
 31
0.0
  0
LINE
  5
130F
330
1F
100
AcDbEntity
  8
Hewi
  6
CUSTOM
 62
    18
420
        0
370
     9
100
AcDbLine
 10
1324.402892740784
 20
1789.201544929006
 30
0.0
 11
1324.380903489424
 21
1789.188075967732
 31
0.0
  0
LWPOLYLINE
  5
1310
330
1F
100
AcDbEntity
  8
Hewi
  6
CUSTOM
 62
    18
420
        0
370
     9
100
AcDbPolyline
 90
        3
 70
     0
 43
0.0
 10
1324.789040759278
 20
1789.385805123774
 10
1324.789040759278
 20
1789.385805123774
 10
1324.79145033823
 20
1789.386741401017
  0
LINE
  5
1311
330
1F
100
AcDbEntity
  8
Hewi
  6
CUSTOM
 62
    18
420
        0
370
     9
100
AcDbLine
 10
1324.428206066627
 20
1789.213623816185
 30
0.0
 11
1324.402892740784
 21
1789.201544929006
 31
0.0
  0
LINE
  5
1312
330
1F
100
AcDbEntity
  8
Hewi
  6
CUSTOM
 62
    18
420
        0
370
     9
100
AcDbLine
 10
1320.579878122197
 20
1760.759355801468
 30
0.0
 11
1320.94198708149
 21
1761.881468308653
 31
0.0
  0
LINE
  5
1313
330
1F
100
AcDbEntity
  8
Hewi
  6
CUSTOM
 62
    18
420
        0
370
     9
100
AcDbLine
 10
1325.414118090515
 20
1789.564004520547
 30
0.0
 11
1325.405027964831
 21
1789.562216426577
 31
0.0
  0
LINE
  5
1315
330
1F
100
AcDbEntity
  8
Hewi
  6
CUSTOM
 62
    18
420
        0
370
     9
100
AcDbLine
 10
1319.563720422604
 20
1754.021956422229
 30
0.0
 11
1319.670418014504
 21
1753.307126666545
 31
0.0
  0
LWPOLYLINE
  5
1317
330
1F
100
AcDbEntity
  8
Hewi
  6
CUSTOM
 62
    18
420
        0
370
     9
100
AcDbPolyline
 90
       26
 70
     1
 43
0.0
 10
1468.666271625372
 20
1371.619990682895
 10
1468.891829114994
 20
1371.420164173485
 10
1469.063010702601
 20
1371.172164815932
 10
1469.16986793655
 20
1370.890405431456
 10
1469.206190662804
 20
1370.59126085133
 10
1469.16986793655
 20
1370.292116271204
 10
1469.063010702601
 20
1370.010356886729
 10
1468.891829114994
 20
1369.762357529176
 10
1468.666271625372
 20
1369.562531019766
 10
1468.399446815168
 20
1369.422490548885
 10
1468.106861572483
 20
1369.350374759676
 10
1467.805519888117
 20
1369.350374759676
 10
1467.512934645433
 20
1369.422490548885
 10
1467.246109835232
 20
1369.562531019766
 10
1467.020552345609
 20
1369.762357529176
 10
1466.849370758001
 20
1370.010356886729
 10
1466.742513524053
 20
1370.292116271204
 10
1466.706190797798
 20
1370.59126085133
 10
1466.742513524053
 20
1370.890405431456
 10
1466.849370758001
 20
1371.172164815932
 10
1467.020552345609
 20
1371.420164173485
 10
1467.246109835232
 20
1371.619990682895
 10
1467.512934645433
 20
1371.760031153775
 10
1467.805519888117
 20
1371.832146942985
 10
1468.106861572483
 20
1371.832146942985
 10
1468.399446815168
 20
1371.760031153775
  0
LWPOLYLINE
  5
1318
330
1F
100
AcDbEntity
  8
Hewi
  6
CUSTOM
 62
    18
420
        0
370
     9
100
AcDbPolyline
 90
       26
 70
     1
 43
0.0
 10
1454.742514172026
 20
1370.292116271204
 10
1454.706191445771
 20
1370.59126085133
 10
1454.742514172026
 20
1370.890405431456
 10
1454.849371405976
 20
1371.172164815932
 10
1455.020552993585
 20
1371.420164173485
 10
1455.246110483203
 20
1371.619990682895
 10
1455.512935293405
 20
1371.760031153775
 10
1455.80552053609
 20
1371.832146942985
 10
1456.106862220458
 20
1371.832146942985
 10
1456.399447463143
 20
1371.760031153775
 10
1456.666272273345
 20
1371.619990682895
 10
1456.891829762966
 20
1371.420164173485
 10
1457.063011350576
 20
1371.172164815932
 10
1457.16986858452
 20
1370.890405431456
 10
1457.206191310779
 20
1370.59126085133
 10
1457.16986858452
 20
1370.292116271204
 10
1457.063011350576
 20
1370.010356886729
 10
1456.891829762966
 20
1369.762357529176
 10
1456.666272273345
 20
1369.562531019766
 10
1456.399447463143
 20
1369.422490548885
 10
1456.106862220458
 20
1369.350374759676
 10
1455.80552053609
 20
1369.350374759676
 10
1455.512935293405
 20
1369.422490548885
 10
1455.246110483203
 20
1369.562531019766
 10
1455.020552993585
 20
1369.762357529176
 10
1454.849371405976
 20
1370.010356886729
  0
LWPOLYLINE
  5
1319
330
1F
100
AcDbEntity
  8
Hewi
  6
CUSTOM
 62
    18
420
        0
370
     9
100
AcDbPolyline
 90
       15
 70
     0
 43
0.0
 10
1383.258059479812
 20
1371.856651994985
 10
1381.457899258434
 20
1371.919514978469
 10
1379.954569719819
 20
1371.972012405551
 10
1378.823454084397
 20
1372.011511836026
 10
1378.121271213246
 20
1372.036032603516
 10
1377.883231487595
 20
1372.044345134347
 10
1378.057728961685
 20
1377.041299265544
 10
1378.295768687335
 20
1377.032986734712
 10
1378.997951558485
 20
1377.008465967222
 10
1380.129067193909
 20
1376.968966536747
 10
1381.632396732523
 20
1376.916469109665
 10
1383.4325569539
 20
1376.853606126181
 10
1385.439280307728
 20
1376.783529798779
 10
1387.551941305698
 20
1376.709754047128
 10
1417.43372542002
 20
1375.666259096539
  0
LINE
  5
131A
330
1F
100
AcDbEntity
  8
Hewi
  6
CUSTOM
 62
    18
420
        0
370
     9
100
AcDbLine
 10
1417.259227945929
 20
1370.669304965341
 30
0.0
 11
1387.377443831606
 21
1371.712799915932
 31
0.0
  0
LINE
  5
131B
330
1F
100
AcDbEntity
  8
Hewi
  6
CUSTOM
 62
    18
420
        0
370
     9
100
AcDbLine
 10
1417.43372542002
 20
1375.666259096539
 30
0.0
 11
1417.259227945929
 21
1370.669304965341
 31
0.0
  0
LWPOLYLINE
  5
131D
330
1F
100
AcDbEntity
  8
Hewi
  6
CUSTOM
 62
    18
420
        0
370
     9
100
AcDbPolyline
 90
       73
 70
     0
 43
0.0
 10
1376.003446068752
 20
1265.870456906656
 10
1375.827941463499
 20
1265.870456906656
 10
1375.310228181501
 20
1265.870456906656
 10
1374.476266528492
 20
1265.870456906656
 10
1373.367874824076
 20
1265.870456906656
 10
1372.040632456557
 20
1265.870456906656
 10
1370.56109290032
 20
1265.870456906656
 10
1369.003446446735
 20
1265.870456906656
 10
1347.72868644067
 20
1265.870456906656
 10
1347.247293058885
 20
1265.887029353718
 10
1346.76817906748
 20
1265.93666822462
 10
1346.293613063964
 20
1266.019138480057
 10
1276.003451468527
 20
1280.742078516674
 10
1274.973742662768
 20
1280.957760778007
 10
1273.96643736079
 20
1281.168750413298
 10
1273.00345163052
 20
1281.370456894562
 10
1271.664850174989
 20
1281.370456894562
 10
1270.546083913393
 20
1281.370456894562
 10
1269.703840285167
 20
1281.370456894562
 10
1269.180795438409
 20
1281.370456894562
 10
1269.00345184651
 20
1281.370456894562
 10
1269.00345184651
 20
1319.370456864913
 10
1269.178956451762
 20
1319.370456864913
 10
1269.696669733761
 20
1319.370456864913
 10
1270.530631386769
 20
1319.370456864913
 10
1271.639023091182
 20
1319.370456864913
 10
1272.966265458704
 20
1319.370456864913
 10
1274.44580501494
 20
1319.370456864913
 10
1276.003451468527
 20
1319.370456864913
 10
1304.763782951471
 20
1319.370456864913
 10
1306.445901153061
 20
1319.575570695707
 10
1308.029440580813
 20
1320.178891707053
 10
1309.421599566578
 20
1321.145062903543
 10
1310.540792092403
 20
1322.417462835044
 10
1311.321429053555
 20
1323.921523837425
 10
1311.717762039269
 20
1325.569101992347
 10
1355.957426614488
 20
1709.47110056983
 10
1355.982981107649
 20
1709.737566914973
 10
1355.998328767167
 20
1710.00481547831
 10
1356.003447148707
 20
1710.272455436934
 10
1356.003447148707
 20
1754.070456525748
 10
1356.028519235171
 20
1754.292977459531
 10
1356.102478275456
 20
1754.504340264527
 10
1356.221615654456
 20
1754.69394632712
 10
1356.379957326516
 20
1754.852288007606
 10
1356.56956337902
 20
1754.971425392948
 10
1356.780926172765
 20
1755.045384437169
 10
1357.003447094706
 20
1755.070456524967
 10
1369.003446446735
 20
1755.070456524967
 10
1370.48666931715
 20
1755.070456524967
 10
1371.902535299959
 20
1755.070456524967
 10
1373.186746353517
 20
1755.070456524967
 10
1374.280983218243
 20
1755.070456524967
 10
1375.135553841113
 20
1755.070456524967
 10
1375.711650017004
 20
1755.070456524967
 10
1375.831425111897
 20
1755.123532499471
 10
1375.833164842682
 20
1755.125363728121
 10
1375.889128252421
 20
1755.212839841241
 10
1375.915817833278
 20
1755.282674274347
 10
1375.917456591225
 20
1755.287855644595
 10
1375.940727880584
 20
1755.377631472027
 10
1375.967211911255
 20
1755.541574546377
 10
1375.968701119767
 20
1755.554144445705
 10
1375.98094515768
 20
1755.682188188632
 10
1375.989754576317
 20
1755.821895302815
 10
1375.992695120341
 20
1755.886882980366
 10
1375.99829174763
 20
1756.069048669714
 10
1376.001073049369
 20
1756.235624591431
 10
1376.001746506555
 20
1756.299750642047
 10
1376.002540737299
 20
1756.4089140456
 10
1376.003384535677
 20
1756.677174916756
 10
1376.003408006585
 20
1756.698011157778
 10
1376.003474265884
 20
1756.88374119676
  0
LWPOLYLINE
  5
131E
330
1F
100
AcDbEntity
  8
Hewi
  6
CUSTOM
 62
    18
420
        0
370
     9
100
AcDbPolyline
 90
       26
 70
     0
 43
0.0
 10
1481.493765899953
 20
1397.048574405414
 10
1486.657044410143
 20
1392.474308556203
 10
1491.176238323028
 20
1385.927125516809
 10
1493.997269299202
 20
1378.488677766658
 10
1494.956189272361
 20
1370.59126085133
 10
1493.997269299202
 20
1362.693843936003
 10
1491.176238323028
 20
1355.255396185851
 10
1486.657044410143
 20
1348.708213146458
 10
1480.702326684167
 20
1343.432793298029
 10
1473.658151694811
 20
1339.735724866786
 10
1465.933901287924
 20
1337.831868031654
 10
1457.978480820651
 20
1337.831868031654
 10
1450.254230413764
 20
1339.735724866786
 10
1443.210055424409
 20
1343.432793298029
 10
1437.255337698432
 20
1348.708213146458
 10
1432.73614378555
 20
1355.255396185851
 10
1429.915112809376
 20
1362.693843936003
 10
1428.956192836214
 20
1370.59126085133
 10
1429.915112809376
 20
1378.488677766658
 10
1432.73614378555
 20
1385.927125516809
 10
1437.255337698432
 20
1392.474308556203
 10
1443.210055424409
 20
1397.749728404631
 10
1450.254230413764
 20
1401.446796835875
 10
1457.978480820651
 20
1403.350653671006
 10
1465.933901287928
 20
1403.350653671006
 10
1472.964817411193
 20
1401.617688397562
  0
LWPOLYLINE
  5
131F
330
1F
100
AcDbEntity
  8
Hewi
  6
CUSTOM
 62
    18
420
        0
370
     9
100
AcDbPolyline
 90
       69
 70
     0
 43
0.0
 10
1371.239514303491
 20
1755.070456524967
 10
1371.446347314918
 20
1755.087434628413
 10
1371.473848585395
 20
1755.092948728993
 10
1371.621423796375
 20
1755.143343755338
 10
1371.665311985102
 20
1755.167921994616
 10
1371.703586308911
 20
1755.194569100516
 10
1371.774659393806
 20
1755.261140709796
 10
1371.816910934253
 20
1755.315607527488
 10
1371.864720372686
 20
1755.398991519012
 10
1371.903102359343
 20
1755.494184643447
 10
1371.915946617049
 20
1755.534804371573
 10
1371.933608385312
 20
1755.601343673599
 10
1371.967978964677
 20
1755.794439594428
 10
1371.971105256434
 20
1755.81975281123
 10
1371.982028010448
 20
1755.928861985014
 10
1371.991546692085
 20
1756.072114306937
 10
1371.995352185234
 20
1756.157921907322
 10
1371.999795161066
 20
1756.31549725595
 10
1372.002237393293
 20
1756.486216570205
 10
1372.002895736486
 20
1756.576235024454
 10
1372.003246385278
 20
1756.662312286326
 10
1372.003444073063
 20
1756.949800087772
 10
1372.003446284743
 20
1757.070456523408
 10
1372.003446284743
 20
1785.11063507788
 10
1371.931522551937
 20
1785.763604752192
 10
1371.719200035934
 20
1786.385265080556
 10
1371.376659422554
 20
1786.945807973794
 10
1370.920325245726
 20
1787.418355872269
 10
1370.372078344892
 20
1787.780250502232
 10
1369.758206697211
 20
1788.014139320967
 10
1369.108144931189
 20
1788.108807556599
 10
1325.742024429852
 20
1789.623185934969
 10
1325.003351590265
 20
1789.55726113682
 10
1324.303420479872
 20
1789.312148734872
 10
1323.685003399022
 20
1788.902827376477
 10
1323.185891382765
 20
1788.35431040341
 10
1322.836584817141
 20
1787.700117304047
 10
1307.691912797607
 20
1748.246895737989
 10
1307.612168431082
 20
1748.039154549724
 10
1307.536422780074
 20
1747.841830372089
 10
1307.46847404782
 20
1747.664817863307
 10
1307.411729467477
 20
1747.516993169707
 10
1307.369034449249
 20
1747.405768838688
 10
1307.342529899633
 20
1747.33672212264
 10
1307.333544867415
 20
1747.313315312221
 10
1303.599223363071
 20
1748.746787109283
 10
1303.60820839529
 20
1748.770193919703
 10
1303.634712944905
 20
1748.83924063575
 10
1303.677407963134
 20
1748.950464966769
 10
1303.734152543476
 20
1749.098289660369
 10
1303.802101275731
 20
1749.275302169152
 10
1303.877846926738
 20
1749.472626346786
 10
1303.957591293263
 20
1749.680367535052
 10
1319.102263312797
 20
1789.13358910111
 10
1319.91731196592
 20
1790.66003966629
 10
1321.081906670519
 20
1791.939912603448
 10
1322.524879859169
 20
1792.894995773034
 10
1324.158052450087
 20
1793.466924710914
 10
1325.881622409124
 20
1793.620749239926
 10
1369.247742910461
 20
1792.106370861555
 10
1370.76455369785
 20
1791.88547831175
 10
1372.196920875766
 20
1791.339737734701
 10
1373.476163644379
 20
1790.495316931453
 10
1374.540943390317
 20
1789.392705168345
 10
1375.340204821532
 20
1788.084771750789
 10
1375.835624025538
 20
1786.634230984607
 10
1376.003446068752
 20
1785.11063507788
 10
1376.003446068752
 20
1757.070456523408
 10
1376.003474265884
 20
1756.88374119676
  0
LWPOLYLINE
  5
1320
330
1F
100
AcDbEntity
  8
Hewi
  6
CUSTOM
 62
    18
420
        0
370
     9
100
AcDbPolyline
 90
       32
 70
     0
 43
0.0
 10
1376.003446068752
 20
1265.870456906656
 10
1376.003446068752
 20
1265.820312731057
 10
1376.003446068752
 20
1265.672394642615
 10
1376.003446068752
 20
1265.434119871932
 10
1376.003446068752
 20
1265.117436510961
 10
1376.003446068752
 20
1264.738224385774
 10
1376.003446068752
 20
1264.31549877578
 10
1376.003446068752
 20
1263.870456908216
 10
1376.003446068752
 20
1259.870456911337
 10
1376.003446068752
 20
1258.980373176206
 10
1376.003446068752
 20
1258.134921956221
 10
1376.003446068752
 20
1257.376497705848
 10
1376.003446068752
 20
1256.743130983905
 10
1376.003446068752
 20
1256.266581442539
 10
1376.003446068752
 20
1255.970745265652
 10
1376.003446068752
 20
1255.870456914458
 10
1372.003446284743
 20
1255.870456914458
 10
1372.003446284743
 20
1255.970745265652
 10
1372.003446284743
 20
1256.266581442539
 10
1372.003446284743
 20
1256.743130983905
 10
1372.003446284743
 20
1257.376497705848
 10
1372.003446284743
 20
1258.134921956221
 10
1372.003446284743
 20
1258.980373176206
 10
1372.003446284743
 20
1259.870456911337
 10
1372.003446284743
 20
1263.870456908216
 10
1372.003446284743
 20
1264.31549877578
 10
1372.003446284743
 20
1264.738224385774
 10
1372.003446284743
 20
1265.117436510961
 10
1372.003446284743
 20
1265.434119871932
 10
1372.003446284743
 20
1265.672394642615
 10
1372.003446284743
 20
1265.820312731057
 10
1372.003446284743
 20
1265.870456906656
  0
LINE
  5
1321
330
1F
100
AcDbEntity
  8
Hewi
  6
CUSTOM
 62
    18
420
        0
370
     9
100
AcDbLine
 10
1376.003446068752
 20
1265.870456906656
 30
0.0
 11
1376.003474265884
 21
1756.88374119676
 31
0.0
  0
LWPOLYLINE
  5
1322
330
1F
100
AcDbEntity
  8
Hewi
  6
CUSTOM
 62
    18
420
        0
370
     9
100
AcDbPolyline
 90
       19
 70
     0
 43
0.0
 10
1492.853154812594
 20
1359.677061820591
 10
1491.864346411523
 20
1356.644858224768
 10
1452.227925281993
 20
1271.644274284744
 10
1451.044955011573
 20
1269.713842150401
 10
1449.458051471695
 20
1268.098997290347
 10
1447.548559132195
 20
1266.882516442875
 10
1445.414358322983
 20
1266.126756258603
 10
1443.164847901014
 20
1265.870456906656
 10
1387.345285615058
 20
1265.870456906656
 10
1385.23133685662
 20
1265.870456906656
 10
1383.223390316016
 20
1265.870456906656
 10
1381.422132817238
 20
1265.870456906656
 10
1379.917886932675
 20
1265.870456906656
 10
1378.786081832162
 20
1265.870456906656
 10
1378.083470949446
 20
1265.870456906656
 10
1377.845286128035
 20
1265.870456906656
 10
1377.845286128035
 20
1371.870456823951
 10
1378.064954621751
 20
1371.870456823951
 10
1378.71380131348
 20
1371.870456823951
  0
LWPOLYLINE
  5
1323
330
1F
100
AcDbEntity
  8
Hewi
  6
CUSTOM
 62
    18
420
        0
370
     9
100
AcDbPolyline
 90
        3
 70
     0
 43
0.0
 10
1457.142000887403
 20
1403.144479870439
 10
1456.28409888002
 20
1403.100142180021
 10
1453.306535008018
 20
1402.199122395908
  0
LWPOLYLINE
  5
1324
330
1F
100
AcDbEntity
  8
Hewi
  6
CUSTOM
 62
    18
420
        0
370
     9
100
AcDbPolyline
 90
        3
 70
     0
 43
0.0
 10
1494.859982836309
 20
1371.383592479154
 10
1494.91804935533
 20
1372.177381906784
 10
1494.383952456871
 20
1375.304055236651
  0
LWPOLYLINE
  5
1325
330
1F
100
AcDbEntity
  8
Hewi
  6
CUSTOM
 62
    18
420
        0
370
     9
100
AcDbPolyline
 90
        3
 70
     0
 43
0.0
 10
1493.711030828953
 20
1379.243426749924
 10
1493.575495981096
 20
1380.036865534698
 10
1492.310549461137
 20
1382.936192698111
  0
LWPOLYLINE
  5
1326
330
1F
100
AcDbEntity
  8
Hewi
  6
CUSTOM
 62
    18
420
        0
370
     9
100
AcDbPolyline
 90
        3
 70
     0
 43
0.0
 10
1472.839247625623
 20
1401.648638563422
 10
1472.075774996503
 20
1402.001354901451
 10
1469.004035973243
 20
1402.593933399211
  0
LWPOLYLINE
  5
1327
330
1F
100
AcDbEntity
  8
Hewi
  6
CUSTOM
 62
    18
420
        0
370
     9
100
AcDbPolyline
 90
        3
 70
     0
 43
0.0
 10
1494.092384493882
 20
1363.477188004372
 10
1494.336346565209
 20
1364.225303280418
 10
1494.568395316022
 20
1367.397490079145
  0
LWPOLYLINE
  5
1328
330
1F
100
AcDbEntity
  8
Hewi
  6
CUSTOM
 62
    18
420
        0
370
     9
100
AcDbPolyline
 90
        5
 70
     0
 43
0.0
 10
1382.845285858046
 20
1371.870761596101
 10
1384.276055297588
 20
1371.821102795797
 10
1385.789672924711
 20
1371.768246100728
 10
1387.345285615058
 20
1371.713922905659
 10
1417.259227945929
 20
1370.669304965341
  0
LWPOLYLINE
  5
1329
330
1F
100
AcDbEntity
  8
Hewi
  6
CUSTOM
 62
    18
420
        0
370
     9
100
AcDbPolyline
 90
        8
 70
     0
 43
0.0
 10
1436.750519168055
 20
1391.742952556081
 10
1436.119496301926
 20
1391.120876812784
 10
1426.84255959183
 20
1379.445772515822
 10
1425.258494802364
 20
1377.856809691506
 10
1423.360040778646
 20
1376.661010244449
 10
1421.242766918629
 20
1375.918571488784
 10
1419.013258151721
 20
1375.666868269519
 10
1417.433746692811
 20
1375.666868269519
  0
LWPOLYLINE
  5
132A
330
1F
100
AcDbEntity
  8
Hewi
  6
CUSTOM
 62
    18
420
        0
370
     9
100
AcDbPolyline
 90
        3
 70
     0
 43
0.0
 10
1376.003465556295
 20
1605.574401472392
 10
1377.204446003902
 20
1605.573084741028
 10
1377.845286108487
 20
1605.573349071307
  0
LWPOLYLINE
  5
132B
330
1F
100
AcDbEntity
  8
Hewi
  6
CUSTOM
 62
    18
420
        0
370
     9
100
AcDbPolyline
 90
        3
 70
     0
 43
0.0
 10
1382.854672253899
 20
1371.870456823951
 10
1382.862740922031
 20
1371.870456823951
 10
1382.845285858046
 20
1371.870761596101
  0
LWPOLYLINE
  5
132C
330
1F
100
AcDbEntity
  8
Hewi
  6
CUSTOM
 62
    18
420
        0
370
     9
100
AcDbPolyline
 90
        3
 70
     0
 43
0.0
 10
1377.845286059987
 20
1610.562973553109
 10
1377.204446003902
 20
1610.562736618095
 10
1376.003465853407
 20
1610.564486899554
  0
LWPOLYLINE
  5
132D
330
1F
100
AcDbEntity
  8
Hewi
  6
CUSTOM
 62
    18
420
        0
370
     9
100
AcDbPolyline
 90
        3
 70
     0
 43
0.0
 10
1465.081438027502
 20
1403.350653674078
 10
1464.246797763274
 20
1403.511666660597
 10
1461.131313637318
 20
1403.350653666703
  0
LINE
  5
132E
330
1F
100
AcDbEntity
  8
Hewi
  6
CUSTOM
 62
    18
420
        0
370
     9
100
AcDbLine
 10
1378.71380131348
 20
1371.870456823951
 30
0.0
 11
1382.845285858046
 21
1371.870761596101
 31
0.0
  0
LWPOLYLINE
  5
132F
330
1F
100
AcDbEntity
  8
Hewi
  6
CUSTOM
 62
    18
420
        0
370
     9
100
AcDbPolyline
 90
        3
 70
     0
 43
0.0
 10
1490.712551707234
 20
1386.598891651666
 10
1490.387062381833
 20
1387.344931130532
 10
1488.468942941564
 20
1389.84932020705
  0
LWPOLYLINE
  5
1330
330
1F
100
AcDbEntity
  8
Hewi
  6
CUSTOM
 62
    18
420
        0
370
     9
100
AcDbPolyline
 90
        3
 70
     0
 43
0.0
 10
1486.039291906006
 20
1393.021589558719
 10
1485.538883785477
 20
1393.674946489759
 10
1483.082890133368
 20
1395.640733110137
  0
LWPOLYLINE
  5
1331
330
1F
100
AcDbEntity
  8
Hewi
  6
CUSTOM
 62
    18
420
        0
370
     9
100
AcDbPolyline
 90
        3
 70
     0
 43
0.0
 10
1449.483384106341
 20
1401.042225433108
 10
1448.652526908104
 20
1400.79080554572
 10
1445.985497955895
 20
1399.206393086469
  0
LWPOLYLINE
  5
1332
330
1F
100
AcDbEntity
  8
Hewi
  6
CUSTOM
 62
    18
420
        0
370
     9
100
AcDbPolyline
 90
        4
 70
     0
 43
0.0
 10
1378.71380131348
 20
1371.870456823951
 10
1379.761819638351
 20
1371.870456823951
 10
1381.160542939687
 20
1371.870456823951
 10
1382.845285858046
 20
1371.870761596101
  0
LWPOLYLINE
  5
1333
330
1F
100
AcDbEntity
  8
Hewi
  6
CUSTOM
 62
    18
420
        0
370
     9
100
AcDbPolyline
 90
        3
 70
     0
 43
0.0
 10
1442.551654540445
 20
1397.166436120101
 10
1441.797599793644
 20
1396.7184718283
 10
1439.594663948442
 20
1394.546770885445
  0
LWPOLYLINE
  5
1334
330
1F
100
AcDbEntity
  8
Hewi
  6
CUSTOM
 62
    18
420
        0
370
     9
100
AcDbPolyline
 90
       21
 70
     0
 43
0.0
 10
1889.188515312637
 20
1405.990238913513
 10
1889.650515459358
 20
1405.738902382373
 10
1890.662999489693
 20
1405.185603104128
 10
1891.576533972906
 20
1404.4286325293
 10
1892.314271927491
 20
1403.540546859816
 10
1893.073442260757
 20
1402.037573801147
 10
1893.568291937009
 20
1400.362934208374
 10
1894.038666393247
 20
1396.777157715411
 10
1893.969466064883
 20
1393.472030095891
 10
1893.531156002324
 20
1390.980921494146
 10
1892.63370116584
 20
1388.503662482391
 10
1891.147819999217
 20
1386.067681953054
 10
1888.963011746633
 20
1383.724242424604
 10
1886.017398980931
 20
1381.566020712142
 10
1882.327570131893
 20
1379.744688598013
 10
1878.018422014503
 20
1378.48849350239
 10
1873.353002357248
 20
1378.119839153883
 10
1870.107291872584
 20
1378.736610238811
 10
1866.947632154811
 20
1379.813230774412
 10
1865.08464958152
 20
1380.621041121941
 10
1864.890314657375
 20
1380.735072065406
  0
LWPOLYLINE
  5
1335
330
1F
100
AcDbEntity
  8
Hewi
  6
CUSTOM
 62
    18
420
        0
370
     9
100
AcDbPolyline
 90
       13
 70
     0
 43
0.0
 10
1450.200487321773
 20
1436.468845315576
 10
1452.761505386757
 20
1439.169185213606
 10
1454.159655509032
 20
1440.424005531986
 10
1455.374679493252
 20
1441.216320924946
 10
1456.358352410684
 20
1441.606405429722
 10
1457.51728767158
 20
1441.787832056945
 10
1458.847457984206
 20
1441.668768126184
 10
1459.94470420602
 20
1441.322255352505
 10
1460.919131791528
 20
1440.799745459427
 10
1461.118537359911
 20
1440.682889294852
 10
1461.407899249726
 20
1440.484867303769
 10
1461.947956617551
 20
1440.108730269097
 10
1462.745442591771
 20
1439.553139111299
  0
LINE
  5
1336
330
1F
100
AcDbEntity
  8
Hewi
  6
CUSTOM
 62
    18
420
        0
370
     9
100
AcDbLine
 10
1417.433746692811
 20
1375.666868269519
 30
0.0
 11
1417.43372542002
 21
1375.66625909653
 31
0.0
  0
LWPOLYLINE
  5
1337
330
1F
100
AcDbEntity
  8
Hewi
  6
CUSTOM
 62
    18
420
        0
370
     9
100
AcDbPolyline
 90
       20
 70
     0
 43
0.0
 10
1619.129279297078
 20
1368.793573461138
 10
1600.218859022408
 20
1369.343275331525
 10
1583.401691968611
 20
1370.689612123178
 10
1565.496373542495
 20
1372.750378695049
 10
1552.541795177432
 20
1374.704462744465
 10
1540.845277269558
 20
1376.946550964207
 10
1529.517738557842
 20
1379.5892934417
 10
1518.356678899294
 20
1382.644050311266
 10
1504.453133222081
 20
1387.190577411161
 10
1493.110216086874
 20
1391.629251603498
 10
1483.718128738949
 20
1395.899926453389
 10
1475.887168986641
 20
1399.943788241372
 10
1469.950599044383
 20
1403.34420910332
 10
1464.95076895432
 20
1406.45919249725
 10
1460.862403943703
 20
1409.194078124456
 10
1459.882178916716
 20
1409.903946050706
 10
1458.940530736206
 20
1410.653415619863
 10
1457.511479736804
 20
1411.966536788085
 10
1456.549773109152
 20
1413.02148032542
 10
1455.750691233675
 20
1414.063159150345
  0
LWPOLYLINE
  5
1338
330
1F
100
AcDbEntity
  8
Hewi
  6
CUSTOM
 62
    18
420
        0
370
     9
100
AcDbPolyline
 90
        3
 70
     0
 43
0.0
 10
1671.901276902719
 20
1361.54414434519
 10
1671.02310985975
 20
1361.4245152939
 10
1664.46038431146
 20
1360.698434867051
  0
LWPOLYLINE
  5
1339
330
1F
100
AcDbEntity
  8
Hewi
  6
CUSTOM
 62
    18
420
        0
370
     9
100
AcDbPolyline
 90
        6
 70
     0
 43
0.0
 10
1668.195339781853
 20
1370.103224033661
 10
1668.324117613832
 20
1370.103846460488
 10
1687.580938070189
 20
1370.871713289653
 10
1705.728367501144
 20
1372.059569719759
 10
1743.104660158967
 20
1375.290422287321
 10
1778.450208040205
 20
1379.143938835715
  0
LINE
  5
133B
330
1F
100
AcDbEntity
  8
Hewi
  6
CUSTOM
 62
    18
420
        0
370
     9
100
AcDbLine
 10
1885.197168365817
 20
1407.998186229444
 30
0.0
 11
1887.524765178235
 21
1406.838911503818
 31
0.0
  0
LWPOLYLINE
  5
133C
330
1F
100
AcDbEntity
  8
Hewi
  6
CUSTOM
 62
    18
420
        0
370
     9
100
AcDbPolyline
 90
        5
 70
     0
 43
0.0
 10
1668.195339775728
 20
1370.10322403342
 10
1640.042813286745
 20
1368.996026293611
 10
1619.594829626017
 20
1368.780040505082
 10
1619.419656813574
 20
1368.782056486594
 10
1604.658797118492
 20
1369.367502803068
  0
LWPOLYLINE
  5
133D
330
1F
100
AcDbEntity
  8
Hewi
  6
CUSTOM
 62
    18
420
        0
370
     9
100
AcDbPolyline
 90
        5
 70
     0
 43
0.0
 10
1444.162883974484
 20
1417.035949069965
 10
1445.812832036868
 20
1427.741912880131
 10
1446.511666509791
 20
1430.611337403596
 10
1447.973894591106
 20
1433.524332924497
 10
1450.200487321773
 20
1436.468845315576
  0
LWPOLYLINE
  5
133F
330
1F
100
AcDbEntity
  8
Hewi
  6
CUSTOM
 62
    18
420
        0
370
     9
100
AcDbPolyline
 90
        3
 70
     0
 43
0.0
 10
1586.907638788874
 20
1352.334401325636
 10
1593.562636760156
 20
1353.422066255953
 10
1619.39138653442
 20
1357.606780129693
  0
LINE
  5
1340
330
1F
100
AcDbEntity
  8
Hewi
  6
CUSTOM
 62
    18
420
        0
370
     9
100
AcDbLine
 10
1382.845285858046
 20
1371.870761596101
 30
0.0
 11
1382.969621209544
 21
1371.866724481869
 31
0.0
  0
LWPOLYLINE
  5
1341
330
1F
100
AcDbEntity
  8
Hewi
  6
CUSTOM
 62
    18
420
        0
370
     9
100
AcDbPolyline
 90
        3
 70
     0
 43
0.0
 10
1718.882706199016
 20
1406.744028963591
 10
1707.248723691975
 20
1405.811204232879
 10
1705.873343408631
 20
1405.694739835094
  0
LWPOLYLINE
  5
1342
330
1F
100
AcDbEntity
  8
Hewi
  6
CUSTOM
 62
    18
420
        0
370
     9
100
AcDbPolyline
 90
        6
 70
     0
 43
0.0
 10
1561.182501524946
 20
1404.716249331331
 10
1567.790195780276
 20
1404.21092493827
 10
1579.351841284737
 20
1403.267290271171
 10
1590.942155698299
 20
1402.624091076501
 10
1595.237769973912
 20
1402.452742224618
 10
1602.550969170189
 20
1402.23604248469
  0
LWPOLYLINE
  5
1343
330
1F
100
AcDbEntity
  8
Hewi
  6
CUSTOM
 62
    18
420
        0
370
     9
100
AcDbPolyline
 90
        5
 70
     0
 43
0.0
 10
1614.172329285305
 20
1402.069847896831
 10
1619.98627423469
 20
1402.059223787536
 10
1622.868985529581
 20
1401.999954948237
 10
1625.801731663736
 20
1402.090797477994
 10
1637.435506084586
 20
1402.270468654752
  0
LWPOLYLINE
  5
1344
330
1F
100
AcDbEntity
  8
Hewi
  6
CUSTOM
 62
    18
420
        0
370
     9
100
AcDbPolyline
 90
        4
 70
     0
 43
0.0
 10
1649.073093124206
 20
1402.588558293747
 10
1656.824038577179
 20
1402.868309341899
 10
1661.315685753958
 20
1403.053453716502
 10
1672.350610740943
 20
1403.575698410714
  0
LWPOLYLINE
  5
1349
330
1F
100
AcDbEntity
  8
Hewi
  6
CUSTOM
 62
    18
420
        0
370
     9
100
AcDbPolyline
 90
        4
 70
     0
 43
0.0
 10
1484.234196306572
 20
1425.723375204908
 10
1479.326012527091
 20
1428.409324804185
 10
1470.227649688604
 20
1434.166363538833
 10
1467.060992249982
 20
1436.419864626287
  0
LWPOLYLINE
  5
134A
330
1F
100
AcDbEntity
  8
Hewi
  6
CUSTOM
 62
    18
420
        0
370
     9
100
AcDbPolyline
 90
       11
 70
     0
 43
0.0
 10
1861.009338296985
 20
1382.23125439902
 10
1858.862840214809
 20
1382.615105417783
 10
1857.903661356336
 20
1382.76329411743
 10
1854.053750848929
 20
1383.249318956935
 10
1852.727829199578
 20
1383.383278356759
 10
1851.49123425304
 20
1383.495336434685
 10
1849.055637084886
 20
1383.683517666336
 10
1846.14969036534
 20
1383.858190762952
 10
1843.08468390617
 20
1383.991536030932
 10
1838.928805221337
 20
1384.09723341312
 10
1836.213189771036
 20
1384.122161398699
  0
LWPOLYLINE
  5
134B
330
1F
100
AcDbEntity
  8
Hewi
  6
CUSTOM
 62
    18
420
        0
370
     9
100
AcDbPolyline
 90
        6
 70
     0
 43
0.0
 10
1566.382661775389
 20
1404.318566310896
 10
1551.304750217938
 20
1406.112138381696
 10
1534.895269556677
 20
1408.901492205252
 10
1519.358928792691
 20
1412.492182320758
 10
1508.358500472428
 20
1415.737019461495
 10
1498.098390769025
 20
1419.420169046312
  0
LINE
  5
134D
330
1F
100
AcDbEntity
  8
Hewi
  6
CUSTOM
 62
    18
420
        0
370
     9
100
AcDbLine
 10
1490.730407676732
 20
1422.553730856488
 30
0.0
 11
1484.234196306572
 21
1425.723375204908
 31
0.0
  0
LINE
  5
134E
330
1F
100
AcDbEntity
  8
Hewi
  6
CUSTOM
 62
    18
420
        0
370
     9
100
AcDbLine
 10
1465.080542373445
 20
1437.881173678056
 30
0.0
 11
1462.816476716809
 21
1439.499861836594
 31
0.0
  0
LINE
  5
134F
330
1F
100
AcDbEntity
  8
Hewi
  6
CUSTOM
 62
    18
420
        0
370
     9
100
AcDbLine
 10
1467.060992249982
 20
1436.419864626287
 30
0.0
 11
1465.080542373445
 21
1437.881173678056
 31
0.0
  0
LWPOLYLINE
  5
1351
330
1F
100
AcDbEntity
  8
Hewi
  6
CUSTOM
 62
    18
420
        0
370
     9
100
AcDbPolyline
 90
        3
 70
     0
 43
0.0
 10
1782.666682480554
 20
1413.409657175106
 10
1744.31712913695
 20
1409.116821609573
 10
1705.873343408631
 20
1405.694739835094
  0
LWPOLYLINE
  5
1352
330
1F
100
AcDbEntity
  8
Hewi
  6
CUSTOM
 62
    18
420
        0
370
     9
100
AcDbPolyline
 90
        6
 70
     0
 43
0.0
 10
1778.450208040205
 20
1379.143938835715
 10
1789.500235270285
 20
1380.525609926264
 10
1800.505269536737
 20
1381.82055354173
 10
1813.257480399199
 20
1383.066603166956
 10
1824.454373963968
 20
1383.822492700948
 10
1832.552702514163
 20
1384.089049779515
  0
LINE
  5
1353
330
1F
100
AcDbEntity
  8
Hewi
  6
CUSTOM
 62
    18
420
        0
370
     9
100
AcDbLine
 10
1498.098390769025
 20
1419.420169046312
 30
0.0
 11
1490.730407676732
 21
1422.553730856488
 31
0.0
  0
LWPOLYLINE
  5
1354
330
1F
100
AcDbEntity
  8
Hewi
  6
CUSTOM
 62
    18
420
        0
370
     9
100
AcDbPolyline
 90
       13
 70
     0
 43
0.0
 10
1885.197168365817
 20
1407.998186229444
 10
1884.217808989203
 20
1408.463374549873
 10
1882.546959696012
 20
1409.209095455434
 10
1879.41684286709
 20
1410.537970061554
 10
1874.780028732311
 20
1412.350881514206
 10
1868.571924030574
 20
1414.502971345262
 10
1861.148549136161
 20
1416.642527415349
 10
1852.382876434846
 20
1418.398437449669
 10
1843.074499713569
 20
1419.284047299416
 10
1831.908610374867
 20
1419.151457366179
 10
1818.361260245518
 20
1417.905391532687
 10
1802.467222425752
 20
1415.914685356723
 10
1782.666682480554
 20
1413.409657175106
  0
LINE
  5
135B
330
1F
100
AcDbEntity
  8
Hewi
  6
CUSTOM
 62
    18
420
        0
370
     9
100
AcDbLine
 10
1830.306182771018
 20
1384.068728459258
 30
0.0
 11
1836.264564039061
 21
1384.122626113228
 31
0.0
  0
LINE
  5
135F
330
1F
100
AcDbEntity
  8
Hewi
  6
CUSTOM
 62
    18
420
        0
370
     9
100
AcDbLine
 10
1889.188515312637
 20
1405.990238913513
 30
0.0
 11
1887.974106576086
 21
1406.611000011889
 31
0.0
  0
LINE
  5
1368
330
1F
100
AcDbEntity
  8
Hewi
  6
CUSTOM
 62
    18
420
        0
370
     9
100
AcDbLine
 10
1887.974106576086
 20
1406.611000011889
 30
0.0
 11
1885.197168365817
 21
1407.998186229444
 31
0.0
  0
LWPOLYLINE
  5
136B
330
1F
100
AcDbEntity
  8
Hewi
  6
CUSTOM
 62
    18
420
        0
370
     9
100
AcDbPolyline
 90
        3
 70
     0
 43
0.0
 10
1866.632596249203
 20
1379.972543902387
 10
1865.686869062215
 20
1380.400367607206
 10
1862.576938895905
 20
1381.707130189127
  0
LWPOLYLINE
  5
1371
330
1F
100
AcDbEntity
  8
Hewi
  6
CUSTOM
 62
    18
420
        0
370
     9
100
AcDbPolyline
 90
       25
 70
     0
 43
0.0
 10
1403.846686376771
 20
1577.070817260277
 10
1406.751007973442
 20
1577.399717354481
 10
1409.508439928031
 20
1578.369164773372
 10
1411.979588995516
 20
1579.930152194137
 10
1414.03953405612
 20
1582.003768838339
 10
1415.584141107158
 20
1584.48518957965
 10
1416.535327427938
 20
1587.248974046341
 10
1416.845008804578
 20
1590.155407862243
 10
1416.810225501714
 20
1591.024909686958
 10
1416.172888127566
 20
1594.197580807046
 10
1414.771674016301
 20
1597.114538093906
 10
1412.693409035712
 20
1599.595033048288
 10
1410.066872334532
 20
1601.48536244579
 10
1407.054816576002
 20
1602.668392517184
 10
1403.843883011419
 20
1603.070817111932
 10
1377.845286128035
 20
1603.068013837532
 10
1377.845286128035
 20
1778.870456506399
 10
1377.845286128035
 20
1780.205582109095
 10
1377.845286128035
 20
1781.473758939072
 10
1377.845286128035
 20
1782.611395314632
 10
1377.845286128036
 20
1783.561445397547
 10
1377.845286128036
 20
1784.276269709596
 10
1377.845286128036
 20
1784.720023974925
 10
1377.845286128036
 20
1784.870456501717
 10
1395.208930729351
 20
1784.870456501717
  0
LINE
  5
1372
330
1F
100
AcDbEntity
  8
Hewi
  6
CUSTOM
 62
    18
420
        0
370
     9
100
AcDbLine
 10
1376.003450664229
 20
1345.894198751344
 30
0.0
 11
1377.845286156902
 21
1345.889287465313
 31
0.0
  0
LINE
  5
1373
330
1F
100
AcDbEntity
  8
Hewi
  6
CUSTOM
 62
    18
420
        0
370
     9
100
AcDbLine
 10
1377.845285999163
 20
1355.854524127572
 30
0.0
 11
1376.003451116449
 21
1355.851159465768
 31
0.0
  0
LWPOLYLINE
  5
1374
330
1F
100
AcDbEntity
  8
Hewi
  6
CUSTOM
 62
    18
420
        0
370
     9
100
AcDbPolyline
 90
        3
 70
     0
 43
0.0
 10
1377.845286059987
 20
1570.562973584318
 10
1377.204446003902
 20
1570.562736649304
 10
1376.003463595345
 20
1570.564486934054
  0
LWPOLYLINE
  5
1375
330
1F
100
AcDbEntity
  8
Hewi
  6
CUSTOM
 62
    18
420
        0
370
     9
100
AcDbPolyline
 90
        3
 70
     0
 43
0.0
 10
1376.003463298233
 20
1565.574401506077
 10
1377.204446003902
 20
1565.573084772237
 10
1377.845286108487
 20
1565.573349102516
  0
LWPOLYLINE
  5
1376
330
1F
100
AcDbEntity
  8
Hewi
  6
CUSTOM
 62
    18
420
        0
370
     9
100
AcDbPolyline
 90
       10
 70
     0
 43
0.0
 10
1436.882860823601
 20
1458.716452417052
 10
1436.571231751519
 20
1457.5837235488
 10
1436.047636742291
 20
1456.537630179327
 10
1435.36401314113
 20
1455.659710733271
 10
1435.173569607817
 20
1455.445614563895
 10
1434.739926804582
 20
1455.078077464649
 10
1434.071463566811
 20
1454.588442136676
 10
1432.798898433749
 20
1454.013978135679
 10
1431.425139236538
 20
1453.744960500597
 10
1430.01906768317
 20
1453.801234140478
  0
LINE
  5
1377
330
1F
100
AcDbEntity
  8
Hewi
  6
CUSTOM
 62
    18
420
        0
370
     9
100
AcDbLine
 10
1436.883800055825
 20
1458.721985219041
 30
0.0
 11
1436.882860823601
 21
1458.716452417052
 31
0.0
  0
LWPOLYLINE
  5
1388
330
1F
100
AcDbEntity
  8
Hewi
  6
CUSTOM
 62
    18
420
        0
370
     9
100
AcDbPolyline
 90
        3
 70
     0
 43
0.0
 10
1441.555669772075
 20
1492.062662852391
 10
1441.627692554867
 20
1492.675508143853
 10
1441.698712913941
 20
1493.296445611793
  0
LWPOLYLINE
  5
1389
330
1F
100
AcDbEntity
  8
Hewi
  6
CUSTOM
 62
    18
420
        0
370
     9
100
AcDbPolyline
 90
        4
 70
     0
 43
0.0
 10
1439.936015965146
 20
1479.178982623477
 10
1441.424053956328
 20
1490.980950187442
 10
1441.492099684097
 20
1491.534361586137
 10
1441.555669772075
 20
1492.062662852391
  0
LWPOLYLINE
  5
138F
330
1F
100
AcDbEntity
  8
Hewi
  6
CUSTOM
 62
    18
420
        0
370
     9
100
AcDbPolyline
 90
        5
 70
     0
 43
0.0
 10
1455.812633696442
 20
1413.982411289775
 10
1455.105992527577
 20
1414.611073960525
 10
1453.667228184998
 20
1415.89106932249
 10
1453.059764385963
 20
1416.431498930554
 10
1452.52369086026
 20
1416.908416247845
  0
LWPOLYLINE
  5
1392
330
1F
100
AcDbEntity
  8
Hewi
  6
CUSTOM
 62
    18
420
        0
370
     9
100
AcDbPolyline
 90
        5
 70
     0
 43
0.0
 10
1586.907638788874
 20
1352.334401325636
 10
1560.479001668851
 20
1348.155351082917
 10
1533.976792497327
 20
1344.386467706237
 10
1494.061859840821
 20
1339.897547848771
 10
1483.703220795207
 20
1339.143267241428
  0
LWPOLYLINE
  5
1395
330
1F
100
AcDbEntity
  8
Hewi
  6
CUSTOM
 62
    18
420
        0
370
     9
100
AcDbPolyline
 90
       10
 70
     0
 43
0.0
 10
1624.560955334402
 20
1358.442562804116
 10
1636.323495588326
 20
1358.773053476207
 10
1643.207054995822
 20
1359.133822234028
 10
1647.01190939487
 20
1359.373429551794
 10
1650.68546165095
 20
1359.622425456788
 10
1655.235282268427
 20
1359.952893780888
 10
1659.092910441006
 20
1360.253361103261
 10
1662.004143927573
 20
1360.491800452377
 10
1663.830233848299
 20
1360.646164782562
 10
1664.46038431146
 20
1360.698434867051
  0
LWPOLYLINE
  5
1396
330
1F
100
AcDbEntity
  8
Hewi
  6
CUSTOM
 62
    18
420
        0
370
     9
100
AcDbPolyline
 90
        8
 70
     0
 43
0.0
 10
1664.46038431146
 20
1360.698434867051
 10
1674.907516247364
 20
1361.885824469907
 10
1693.353517839615
 20
1364.484588004757
 10
1695.363771409442
 20
1364.802227958311
 10
1701.750753682718
 20
1365.873929397537
 10
1710.797324486546
 20
1367.479618046817
 10
1732.322634920941
 20
1371.740193897149
 10
1754.774333317462
 20
1376.562697920727
  0
LWPOLYLINE
  5
13A3
330
1F
100
AcDbEntity
  8
Hewi
  6
CUSTOM
 62
    18
420
        0
370
     9
100
AcDbPolyline
 90
        5
 70
     0
 43
0.0
 10
1452.52369086026
 20
1416.908416247845
 10
1451.899632706088
 20
1417.463609008636
 10
1451.711330649301
 20
1417.63113711919
 10
1451.548922224923
 20
1417.795259085773
 10
1451.392083390117
 20
1417.99957731194
  0
LWPOLYLINE
  5
13A7
330
1F
100
AcDbEntity
  8
Hewi
  6
CUSTOM
 62
    18
420
        0
370
     9
100
AcDbPolyline
 90
        3
 70
     0
 43
0.0
 10
1601.387880408272
 20
1354.696088882189
 10
1593.558713082189
 20
1353.424843101455
 10
1586.907638788874
 20
1352.334401325636
  0
LINE
  5
13AB
330
1F
100
AcDbEntity
  8
Hewi
  6
CUSTOM
 62
    18
420
        0
370
     9
100
AcDbLine
 10
1464.818683502784
 20
1438.072220957907
 30
0.0
 11
1465.013538077979
 21
1437.929078233799
 31
0.0
  0
LINE
  5
13AC
330
1F
100
AcDbEntity
  8
Hewi
  6
CUSTOM
 62
    18
420
        0
370
     9
100
AcDbLine
 10
1490.425414722511
 20
1422.702543623535
 30
0.0
 11
1498.098390769025
 21
1419.420169046312
 31
0.0
  0
LINE
  5
13AE
330
1F
100
AcDbEntity
  8
Hewi
  6
CUSTOM
 62
    18
420
        0
370
     9
100
AcDbLine
 10
1700.751512740356
 20
1405.385111224201
 30
0.0
 11
1724.185535393882
 21
1407.324803502693
 31
0.0
  0
LWPOLYLINE
  5
13AF
330
1F
100
AcDbEntity
  8
Hewi
  6
CUSTOM
 62
    18
420
        0
370
     9
100
AcDbPolyline
 90
        3
 70
     0
 43
0.0
 10
1465.485468279075
 20
1437.582392124402
 10
1465.886255389379
 20
1437.287968661683
 10
1467.300589761475
 20
1436.249358892241
  0
LWPOLYLINE
  5
13B0
330
1F
100
AcDbEntity
  8
Hewi
  6
CUSTOM
 62
    18
420
        0
370
     9
100
AcDbPolyline
 90
        3
 70
     1
 43
0.0
 10
1455.750691234048
 20
1414.063159149708
 10
1455.737708501084
 20
1414.078214840625
 10
1455.673353343719
 20
1414.163976406753
  0
LINE
  5
13B1
330
1F
100
AcDbEntity
  8
Hewi
  6
CUSTOM
 62
    18
420
        0
370
     9
100
AcDbLine
 10
1414.00529990287
 20
1375.785982256493
 30
0.0
 11
1441.766944633856
 21
1411.344907848575
 31
0.0
  0
LINE
  5
13B2
330
1F
100
AcDbEntity
  8
Hewi
  6
CUSTOM
 62
    18
420
        0
370
     9
100
AcDbLine
 10
1657.581385399475
 20
1402.905680025203
 30
0.0
 11
1675.914349812275
 21
1403.883637104087
 31
0.0
  0
LINE
  5
13B3
330
1F
100
AcDbEntity
  8
Hewi
  6
CUSTOM
 62
    18
420
        0
370
     9
100
AcDbLine
 10
1618.073970828453
 20
1402.065533932078
 30
0.0
 11
1640.076485158108
 21
1402.448937560078
 31
0.0
  0
LINE
  5
13B4
330
1F
100
AcDbEntity
  8
Hewi
  6
CUSTOM
 62
    18
420
        0
370
     9
100
AcDbLine
 10
1464.03411178982
 20
1438.629316643572
 30
0.0
 11
1464.818683502784
 21
1438.072220957907
 31
0.0
  0
LINE
  5
13B5
330
1F
100
AcDbEntity
  8
Hewi
  6
CUSTOM
 62
    18
420
        0
370
     9
100
AcDbLine
 10
1470.20758340662
 20
1434.180643387268
 30
0.0
 11
1470.248684843447
 21
1434.153053429838
 31
0.0
  0
LINE
  5
13B6
330
1F
100
AcDbEntity
  8
Hewi
  6
CUSTOM
 62
    18
420
        0
370
     9
100
AcDbLine
 10
1546.478878165518
 20
1406.932460791455
 30
0.0
 11
1566.709185201886
 21
1404.293595410446
 31
0.0
  0
LINE
  5
13B7
330
1F
100
AcDbEntity
  8
Hewi
  6
CUSTOM
 62
    18
420
        0
370
     9
100
AcDbLine
 10
1531.36822072258
 20
1409.71664807812
 30
0.0
 11
1539.30438079097
 21
1408.15201257577
 31
0.0
  0
LINE
  5
13B8
330
1F
100
AcDbEntity
  8
Hewi
  6
CUSTOM
 62
    18
420
        0
370
     9
100
AcDbLine
 10
1740.149367267768
 20
1408.745827399653
 30
0.0
 11
1782.666682480554
 21
1413.409657175106
 31
0.0
  0
LINE
  5
13B9
330
1F
100
AcDbEntity
  8
Hewi
  6
CUSTOM
 62
    18
420
        0
370
     9
100
AcDbLine
 10
1515.687592599026
 20
1413.575129975083
 30
0.0
 11
1523.450016482024
 21
1411.546668283727
 31
0.0
  0
LINE
  5
13BA
330
1F
100
AcDbEntity
  8
Hewi
  6
CUSTOM
 62
    18
420
        0
370
     9
100
AcDbLine
 10
1478.83947431713
 20
1428.717184510657
 30
0.0
 11
1481.740275889751
 21
1427.088145727975
 31
0.0
  0
LINE
  5
13BB
330
1F
100
AcDbEntity
  8
Hewi
  6
CUSTOM
 62
    18
420
        0
370
     9
100
AcDbLine
 10
1483.66535256046
 20
1426.034668689503
 30
0.0
 11
1488.033080712724
 21
1423.869815982566
 31
0.0
  0
LINE
  5
13BC
330
1F
100
AcDbEntity
  8
Hewi
  6
CUSTOM
 62
    18
420
        0
370
     9
100
AcDbLine
 10
1597.415169799115
 20
1402.396857517175
 30
0.0
 11
1593.804203885872
 21
1402.509926108583
 31
0.0
  0
LINE
  5
13BD
330
1F
100
AcDbEntity
  8
Hewi
  6
CUSTOM
 62
    18
420
        0
370
     9
100
AcDbLine
 10
1507.283699841593
 20
1416.122848813364
 30
0.0
 11
1510.029380814853
 21
1415.244153686605
 31
0.0
  0
LINE
  5
13BE
330
1F
100
AcDbEntity
  8
Hewi
  6
CUSTOM
 62
    18
420
        0
370
     9
100
AcDbLine
 10
1861.272691766815
 20
1382.144162726332
 30
0.0
 11
1860.8100178806
 21
1382.266898193067
 31
0.0
  0
LWPOLYLINE
  5
13C0
330
1F
100
AcDbEntity
  8
Hewi
  6
CUSTOM
 62
    18
420
        0
370
     9
100
AcDbPolyline
 90
        3
 70
     0
 43
0.0
 10
1455.297971093982
 20
1414.522140199144
 10
1455.716944748314
 20
1414.082232300413
 10
1455.807261522606
 20
1413.989414426571
  0
LINE
  5
13C1
330
1F
100
AcDbEntity
  8
Hewi
  6
CUSTOM
 62
    18
420
        0
370
     9
100
AcDbLine
 10
1444.162883974484
 20
1417.035949069965
 30
0.0
 11
1441.766944633856
 21
1411.344907848575
 31
0.0
  0
LINE
  5
13C2
330
1F
100
AcDbEntity
  8
Hewi
  6
CUSTOM
 62
    18
420
        0
370
     9
100
AcDbLine
 10
1619.517510053896
 20
1357.627170970597
 30
0.0
 11
1624.592770113308
 21
1358.443124802224
 31
0.0
  0
LINE
  5
13C3
330
1F
100
AcDbEntity
  8
Hewi
  6
CUSTOM
 62
    18
420
        0
370
     9
100
AcDbLine
 10
1595.940777609484
 20
1402.431911181871
 30
0.0
 11
1602.245948705062
 21
1402.282005780303
 31
0.0
  0
LINE
  5
13C4
330
1F
100
AcDbEntity
  8
Hewi
  6
CUSTOM
 62
    18
420
        0
370
     9
100
AcDbLine
 10
1464.55880289191
 20
1438.25419003429
 30
0.0
 11
1464.818683502784
 21
1438.072220957907
 31
0.0
  0
LWPOLYLINE
  5
13C5
330
1F
100
AcDbEntity
  8
Hewi
  6
CUSTOM
 62
    18
420
        0
370
     9
100
AcDbPolyline
 90
        3
 70
     0
 43
0.0
 10
1846.654576551537
 20
1418.943434594638
 10
1849.695524936447
 20
1418.761194616559
 10
1851.081875191808
 20
1418.522216229546
  0
LWPOLYLINE
  5
13C6
330
1F
100
AcDbEntity
  8
Hewi
  6
CUSTOM
 62
    18
420
        0
370
     9
100
AcDbPolyline
 90
        3
 70
     0
 43
0.0
 10
1855.979782774286
 20
1417.677917287574
 10
1858.884326957527
 20
1417.177233364996
 10
1860.174900490063
 20
1416.837565434181
  0
LINE
  5
13C7
330
1F
100
AcDbEntity
  8
Hewi
  6
CUSTOM
 62
    18
420
        0
370
     9
100
AcDbLine
 10
1805.272341874749
 20
1382.28635580635
 30
0.0
 11
1797.32446910018
 21
1381.446274176845
 31
0.0
  0
LINE
  5
13C8
330
1F
100
AcDbEntity
  8
Hewi
  6
CUSTOM
 62
    18
420
        0
370
     9
100
AcDbLine
 10
1792.65401852459
 20
1380.896710223661
 30
0.0
 11
1778.450208040205
 21
1379.143938835715
 31
0.0
  0
LINE
  5
13C9
330
1F
100
AcDbEntity
  8
Hewi
  6
CUSTOM
 62
    18
420
        0
370
     9
100
AcDbLine
 10
1827.751756651123
 20
1383.931026293951
 30
0.0
 11
1823.02298022332
 21
1383.725860934529
 31
0.0
  0
LINE
  5
13CA
330
1F
100
AcDbEntity
  8
Hewi
  6
CUSTOM
 62
    18
420
        0
370
     9
100
AcDbLine
 10
1817.511122807702
 20
1383.353761722222
 30
0.0
 11
1811.40736587036
 21
1382.885823959094
 31
0.0
  0
LWPOLYLINE
  5
13CB
330
1F
100
AcDbEntity
  8
Hewi
  6
CUSTOM
 62
    18
420
        0
370
     9
100
AcDbPolyline
 90
        3
 70
     0
 43
0.0
 10
1835.524229248943
 20
1419.194391210827
 10
1839.640243487819
 20
1419.363794213403
 10
1841.318819617174
 20
1419.263199386298
  0
LWPOLYLINE
  5
13CC
330
1F
100
AcDbEntity
  8
Hewi
  6
CUSTOM
 62
    18
420
        0
370
     9
100
AcDbPolyline
 90
        3
 70
     0
 43
0.0
 10
1870.57627270165
 20
1413.808147626327
 10
1872.337537412124
 20
1413.230104138531
 10
1873.703034596148
 20
1412.724230262866
  0
LWPOLYLINE
  5
13CD
330
1F
100
AcDbEntity
  8
Hewi
  6
CUSTOM
 62
    18
420
        0
370
     9
100
AcDbPolyline
 90
        3
 70
     0
 43
0.0
 10
1880.576551746684
 20
1410.045621766382
 10
1881.053413740211
 20
1409.849843310177
 10
1881.847563608464
 20
1409.506020379231
  0
LWPOLYLINE
  5
13CE
330
1F
100
AcDbEntity
  8
Hewi
  6
CUSTOM
 62
    18
420
        0
370
     9
100
AcDbPolyline
 90
        3
 70
     0
 43
0.0
 10
1882.986437096096
 20
1409.012951204067
 10
1883.4110189438
 20
1408.829130767724
 10
1883.711273801273
 20
1408.689447530234
  0
LWPOLYLINE
  5
13CF
330
1F
100
AcDbEntity
  8
Hewi
  6
CUSTOM
 62
    18
420
        0
370
     9
100
AcDbPolyline
 90
        3
 70
     0
 43
0.0
 10
1804.464902277372
 20
1416.164891985172
 10
1814.600255966164
 20
1417.456032193785
 10
1815.725054843502
 20
1417.575210465157
  0
LWPOLYLINE
  5
13D0
330
1F
100
AcDbEntity
  8
Hewi
  6
CUSTOM
 62
    18
420
        0
370
     9
100
AcDbPolyline
 90
        3
 70
     0
 43
0.0
 10
1876.030122899004
 20
1411.862117039527
 10
1877.279087508403
 20
1411.399414827528
 10
1878.588020806554
 20
1410.862024673006
  0
LWPOLYLINE
  5
13D1
330
1F
100
AcDbEntity
  8
Hewi
  6
CUSTOM
 62
    18
420
        0
370
     9
100
AcDbPolyline
 90
        3
 70
     0
 43
0.0
 10
1863.59459530432
 20
1415.937530967102
 10
1866.086483696145
 20
1415.281687225901
 10
1867.646428002158
 20
1414.769716684474
  0
LWPOLYLINE
  5
13D2
330
1F
100
AcDbEntity
  8
Hewi
  6
CUSTOM
 62
    18
420
        0
370
     9
100
AcDbPolyline
 90
        3
 70
     0
 43
0.0
 10
1822.000297879798
 20
1418.240104992147
 10
1828.137528696656
 20
1418.890376409111
 10
1829.825351756862
 20
1418.959842226677
  0
LWPOLYLINE
  5
13D3
330
1F
100
AcDbEntity
  8
Hewi
  6
CUSTOM
 62
    18
420
        0
370
     9
100
AcDbPolyline
 90
        3
 70
     0
 43
0.0
 10
1633.461608818081
 20
1358.692643391414
 10
1629.247560772368
 20
1358.501872357884
 10
1624.571314886139
 20
1358.442853875439
  0
LINE
  5
13D4
330
1F
100
AcDbEntity
  8
Hewi
  6
CUSTOM
 62
    18
420
        0
370
     9
100
AcDbLine
 10
1887.524765178235
 20
1406.838911503818
 30
0.0
 11
1887.878821085972
 21
1406.658598737092
 31
0.0
  0
LINE
  5
13D5
330
1F
100
AcDbEntity
  8
Hewi
  6
CUSTOM
 62
    18
420
        0
370
     9
100
AcDbLine
 10
1889.054861454664
 20
1406.059667641669
 30
0.0
 11
1889.095444521161
 21
1406.037813280335
 31
0.0
  0
LINE
  5
13D6
330
1F
100
AcDbEntity
  8
Hewi
  6
CUSTOM
 62
    18
420
        0
370
     9
100
AcDbLine
 10
1888.466290873217
 20
1406.359413494332
 30
0.0
 11
1889.054861454664
 21
1406.059667641669
 31
0.0
  0
LWPOLYLINE
  5
13D7
330
1F
100
AcDbEntity
  8
Hewi
  6
CUSTOM
 62
    18
420
        0
370
     9
100
AcDbPolyline
 90
        3
 70
     0
 43
0.0
 10
1649.186608196319
 20
1359.5208321362
 10
1648.349821303043
 20
1359.462213860101
 10
1647.865750900837
 20
1359.431303517881
  0
LWPOLYLINE
  5
13D8
330
1F
100
AcDbEntity
  8
Hewi
  6
CUSTOM
 62
    18
420
        0
370
     9
100
AcDbPolyline
 90
        3
 70
     0
 43
0.0
 10
1661.527394959175
 20
1360.452753184498
 10
1660.831591880829
 20
1360.394632553412
 10
1660.109006578619
 20
1360.336582632151
  0
LWPOLYLINE
  5
13D9
330
1F
100
AcDbEntity
  8
Hewi
  6
CUSTOM
 62
    18
420
        0
370
     9
100
AcDbPolyline
 90
        3
 70
     0
 43
0.0
 10
1658.442397077045
 20
1360.202693179871
 10
1657.431958179131
 20
1360.121518129281
 10
1656.405235773141
 20
1360.044020447558
  0
LWPOLYLINE
  5
13DA
330
1F
100
AcDbEntity
  8
Hewi
  6
CUSTOM
 62
    18
420
        0
370
     9
100
AcDbPolyline
 90
        3
 70
     0
 43
0.0
 10
1663.821726822954
 20
1360.645445660658
 10
1663.173311964776
 20
1360.590237104962
 10
1662.777979445019
 20
1360.55721486598
  0
LWPOLYLINE
  5
13DB
330
1F
100
AcDbEntity
  8
Hewi
  6
CUSTOM
 62
    18
420
        0
370
     9
100
AcDbPolyline
 90
        3
 70
     0
 43
0.0
 10
1654.245672470731
 20
1359.881015190737
 10
1653.179661498586
 20
1359.800551982229
 10
1652.003918728867
 20
1359.718189298433
  0
LINE
  5
13DC
330
1F
100
AcDbEntity
  8
Hewi
  6
CUSTOM
 62
    18
420
        0
370
     9
100
AcDbLine
 10
1462.18389001979
 20
1439.192725441253
 30
0.0
 11
1462.184216130212
 21
1439.192477366175
 31
0.0
  0
LINE
  5
13DD
330
1F
100
AcDbEntity
  8
Hewi
  6
CUSTOM
 62
    18
420
        0
370
     9
100
AcDbLine
 10
1592.374647300658
 20
1402.56695005487
 30
0.0
 11
1571.611085960055
 21
1403.89907274096
 31
0.0
  0
LWPOLYLINE
  5
13DE
330
1F
100
AcDbEntity
  8
Hewi
  6
CUSTOM
 62
    18
420
        0
370
     9
100
AcDbPolyline
 90
        3
 70
     0
 43
0.0
 10
1689.469932200985
 20
1363.937449334952
 10
1692.290963822131
 20
1364.321746763557
 10
1693.139987283761
 20
1364.454504769265
  0
LINE
  5
13DF
330
1F
100
AcDbEntity
  8
Hewi
  6
CUSTOM
 62
    18
420
        0
370
     9
100
AcDbLine
 10
1705.873343408631
 20
1405.694739835094
 30
0.0
 11
1665.303558208961
 21
1403.242185867184
 31
0.0
  0
LINE
  5
13E0
330
1F
100
AcDbEntity
  8
Hewi
  6
CUSTOM
 62
    18
420
        0
370
     9
100
AcDbLine
 10
1447.304946340344
 20
1407.640797272732
 30
0.0
 11
1426.426227388343
 21
1379.028152906522
 31
0.0
  0
LINE
  5
13E1
330
1F
100
AcDbEntity
  8
Hewi
  6
CUSTOM
 62
    18
420
        0
370
     9
100
AcDbLine
 10
1618.311600168266
 20
1402.062284000219
 30
0.0
 11
1599.931592854112
 21
1402.313658053643
 31
0.0
  0
LINE
  5
13E2
330
1F
100
AcDbEntity
  8
Hewi
  6
CUSTOM
 62
    18
420
        0
370
     9
100
AcDbLine
 10
1657.988134430166
 20
1402.916293030361
 30
0.0
 11
1627.146593620949
 21
1402.111567425112
 31
0.0
  0
LINE
  5
13E3
330
1F
100
AcDbEntity
  8
Hewi
  6
CUSTOM
 62
    18
420
        0
370
     9
100
AcDbLine
 10
1549.108329088032
 20
1375.362618764314
 30
0.0
 11
1549.423829487815
 21
1375.270706750755
 31
0.0
  0
LINE
  5
13E5
330
1F
100
AcDbEntity
  8
Hewi
  6
CUSTOM
 62
    18
420
        0
370
     9
100
AcDbLine
 10
1861.05231044735
 20
1382.21800901285
 30
0.0
 11
1862.831421156728
 21
1381.621857216338
 31
0.0
  0
LINE
  5
13E6
330
1F
100
AcDbEntity
  8
Hewi
  6
CUSTOM
 62
    18
420
        0
370
     9
100
AcDbLine
 10
1862.159453487134
 20
1381.987455337229
 30
0.0
 11
1860.863265669388
 21
1382.257376074946
 31
0.0
  0
LINE
  5
13E7
330
1F
100
AcDbEntity
  8
Hewi
  6
CUSTOM
 62
    18
420
        0
370
     9
100
AcDbLine
 10
1462.900241984625
 20
1439.439974065011
 30
0.0
 11
1462.745442591771
 21
1439.553139111299
 31
0.0
  0
LINE
  5
13EC
330
1F
100
AcDbEntity
  8
Hewi
  6
CUSTOM
 62
    18
420
        0
370
     9
100
AcDbLine
 10
1889.054861454664
 20
1406.059667641669
 30
0.0
 11
1889.046249320174
 21
1406.062960058449
 31
0.0
  0
LINE
  5
13ED
330
1F
100
AcDbEntity
  8
Hewi
  6
CUSTOM
 62
    18
420
        0
370
     9
100
AcDbLine
 10
1887.498401070101
 20
1406.848633009024
 30
0.0
 11
1887.524765178235
 21
1406.838911503818
 31
0.0
  0
LWPOLYLINE
  5
1402
330
1F
100
AcDbEntity
  8
Hewi
  6
CUSTOM
 62
    18
420
        0
370
     9
100
AcDbPolyline
 90
        5
 70
     0
 43
0.0
 10
890.3070059255442
 20
710.7098918679684
 10
890.7090088900641
 20
710.9115935231059
 10
891.4585157039073
 20
711.4007956762496
 10
892.1253925803412
 20
712.0016357466879
 10
892.2471383963292
 20
712.1758156104138
  0
LWPOLYLINE
  5
1403
330
1F
100
AcDbEntity
  8
Hewi
  6
CUSTOM
 62
    18
420
        0
370
     9
100
AcDbPolyline
 90
        2
 70
     0
 43
0.0
 10
889.3354231193351
 20
710.2386728227002
 10
889.3354231249686
 20
710.2386728250238
  0
LINE
  5
1421
330
1F
100
AcDbEntity
  8
Hewi
100
AcDbLine
 10
1395.208930729351
 20
1784.870456501717
 30
0.0
 11
1416.810225501714
 21
1591.024909686958
 31
0.0
  0
ARC
  5
1432
330
1F
100
AcDbEntity
  8
Hewi
100
AcDbCircle
 10
-236.5695894089117
 20
1588.526445551238
 30
0.0
 40
1659.964560820817
100
AcDbArc
 50
355.7768917126179
 51
2.903381097964092
  0
LINE
  5
1459
330
1F
100
AcDbEntity
  8
Hewi
  6
CUSTOM
 62
    18
420
        0
370
     9
100
AcDbLine
 10
1624.560955265996
 20
1358.442562802194
 30
0.0
 11
1601.387881672102
 21
1354.696089086517
 31
0.0
  0
ENDSEC
  0
SECTION
  2
OBJECTS
  0
DICTIONARY
  5
C
330
0
100
AcDbDictionary
281
     1
  3
ACAD_CIP_PREVIOUS_PRODUCT_INFO
350
119
  3
ACAD_COLOR
350
114
  3
ACAD_DETAILVIEWSTYLE
350
10E
  3
ACAD_GROUP
350
D
  3
ACAD_IMAGE_DICT
350
6E
  3
ACAD_LAYOUT
350
1A
  3
ACAD_MATERIAL
350
43
  3
ACAD_MLEADERSTYLE
350
6B
  3
ACAD_MLINESTYLE
350
17
  3
ACAD_PLOTSETTINGS
350
19
  3
ACAD_PLOTSTYLENAME
350
E
  3
ACAD_SCALELIST
350
47
  3
ACAD_SECTIONVIEWSTYLE
350
10F
  3
ACAD_TABLESTYLE
350
69
  3
ACAD_VISUALSTYLE
350
2A
  3
ACDB_RECOMPOSE_DATA
350
14B4
  3
AcDbVariableDictionary
350
107
  3
AcDsDecomposeData
350
14BA
  0
SUN
  5
6D
330
29
100
AcDbSun
 90
        1
290
     1
 63
     7
421
 16777215
 40
1.0
291
     1
 91
  2455826
 92
 54000000
292
     0
 70
     0
 71
   256
280
     1
1001
ACAD
1000
AcDbSavedByObjectVersion
1070
     0
1000
AcDbSavedByObjectVersion
1070
     0
1000
AcDbSavedByObjectVersion
1070
     0
1000
AcDbSavedByObjectVersion
1070
     0
1000
AcDbSavedByObjectVersion
1070
     0
1000
AcDbSavedByObjectVersion
1070
     0
1000
AcDbSavedByObjectVersion
1070
     0
1000
AcDbSavedByObjectVersion
1070
     0
1000
AcDbSavedByObjectVersion
1070
     0
  0
DICTIONARY
  5
490
330
2
100
AcDbDictionary
280
     1
281
     1
  3
ACAD_LAYERSTATES
360
491
  0
DICTIONARY
  5
48E
330
48D
100
AcDbDictionary
280
     1
281
     1
  0
DICTIONARY
  5
6E5
330
1F
100
AcDbDictionary
280
     1
281
     1
  3
ACAD_SORTENTS
360
6E6
  0
XRECORD
  5
119
102
{ACAD_REACTORS
330
C
102
}
330
C
100
AcDbXrecord
280
     1
300
ACDLT
300
2021
300

  0
DICTIONARY
  5
114
102
{ACAD_REACTORS
330
C
102
}
330
C
100
AcDbDictionary
281
     1
  0
DICTIONARY
  5
10E
102
{ACAD_REACTORS
330
C
102
}
330
C
100
AcDbDictionary
281
     1
  3
Metric50
350
116
  0
DICTIONARY
  5
D
102
{ACAD_REACTORS
330
C
102
}
330
C
100
AcDbDictionary
281
     1
  0
DICTIONARY
  5
6E
102
{ACAD_REACTORS
330
C
102
}
330
C
100
AcDbDictionary
281
     1
  0
DICTIONARY
  5
1A
102
{ACAD_REACTORS
330
C
102
}
330
C
100
AcDbDictionary
281
     1
  3
Layout1
350
1E
  3
Layout2
350
26
  3
Model
350
22
  0
DICTIONARY
  5
43
102
{ACAD_REACTORS
330
C
102
}
330
C
100
AcDbDictionary
281
     1
  3
ByBlock
350
45
  3
ByLayer
350
44
  3
Global
350
46
  0
DICTIONARY
  5
6B
102
{ACAD_REACTORS
330
C
102
}
330
C
100
AcDbDictionary
281
     1
  3
Standard
350
6C
  0
DICTIONARY
  5
17
102
{ACAD_REACTORS
330
C
102
}
330
C
100
AcDbDictionary
281
     1
  3
Standard
350
18
  0
DICTIONARY
  5
19
102
{ACAD_REACTORS
330
C
102
}
330
C
100
AcDbDictionary
281
     1
  0
ACDBDICTIONARYWDFLT
  5
E
102
{ACAD_REACTORS
330
C
102
}
330
C
100
AcDbDictionary
281
     1
  3
Normal
350
F
100
AcDbDictionaryWithDefault
340
F
  0
DICTIONARY
  5
47
102
{ACAD_REACTORS
330
C
102
}
330
C
100
AcDbDictionary
281
     1
  3
A0
350
48
  3
A1
350
49
  3
A2
350
4A
  3
A3
350
4B
  3
A4
350
4C
  3
A5
350
4D
  3
A6
350
4E
  3
A7
350
4F
  3
A8
350
50
  3
A9
350
51
  3
B0
350
52
  3
B1
350
53
  3
B2
350
54
  3
B3
350
55
  3
B4
350
56
  3
B5
350
57
  3
B6
350
58
  3
B7
350
59
  3
B8
350
5A
  3
B9
350
5B
  3
C0
350
5C
  3
C1
350
5D
  3
C2
350
5E
  3
C3
350
5F
  3
C4
350
60
  3
C5
350
61
  3
C6
350
62
  3
C7
350
63
  3
C8
350
64
  3
C9
350
65
  3
D0
350
66
  3
D1
350
67
  3
D2
350
68
  0
DICTIONARY
  5
10F
102
{ACAD_REACTORS
330
C
102
}
330
C
100
AcDbDictionary
281
     1
  3
Metric50
350
115
  0
DICTIONARY
  5
69
102
{ACAD_REACTORS
330
C
102
}
330
C
100
AcDbDictionary
281
     1
  3
Standard
350
6A
  0
DICTIONARY
  5
2A
102
{ACAD_REACTORS
330
C
102
}
330
C
100
AcDbDictionary
281
     1
  3
2dWireframe
350
2F
  3
Basic
350
32
  3
Brighten
350
36
  3
ColorChange
350
3A
  3
Conceptual
350
34
  3
Dim
350
35
  3
EdgeColorOff
350
3D
  3
Facepattern
350
39
  3
Flat
350
2B
  3
FlatWithEdges
350
2C
  3
Gouraud
350
2D
  3
GouraudWithEdges
350
2E
  3
Hidden
350
31
  3
JitterOff
350
3B
  3
Linepattern
350
38
  3
OverhangOff
350
3C
  3
Realistic
350
33
  3
Shaded
350
42
  3
Shaded with edges
350
41
  3
Shades of Gray
350
3E
  3
Sketchy
350
3F
  3
Thicken
350
37
  3
Wireframe
350
30
  3
X-Ray
350
40
  0
XRECORD
  5
14B4
102
{ACAD_REACTORS
330
C
102
}
330
C
100
AcDbXrecord
280
     1
 90
        1
330
6A
  0
DICTIONARY
  5
107
102
{ACAD_REACTORS
330
C
102
}
330
C
100
AcDbDictionary
281
     1
  3
CANNOSCALE
350
108
  3
CENTEREXE
350
110
  3
CENTERLTYPEFILE
350
111
  3
CMLEADERSTYLE
350
10D
  3
CTABLESTYLE
350
10C
  3
CVIEWDETAILSTYLE
350
485
  3
CVIEWSECTIONSTYLE
350
486
  0
DICTIONARY
  5
14BA
102
{ACAD_REACTORS
330
C
102
}
330
C
100
AcDbDictionary
281
     1
  3
AcDsRecords
350
14BC
  3
AcDsSchemas
350
14BB
1001
ACAD
1070
     2
  0
DICTIONARY
  5
491
102
{ACAD_REACTORS
330
490
102
}
330
490
100
AcDbDictionary
281
     1
  0
SORTENTSTABLE
  5
6E6
102
{ACAD_REACTORS
330
6E5
102
}
330
6E5
100
AcDbSortentsTable
330
1F
331
E45
  5
E46
331
E46
  5
E47
331
E47
  5
E4A
331
E4C
  5
E4D
331
E4D
  5
E4F
331
E4F
  5
E52
331
E52
  5
E58
331
E5D
  5
E5E
331
E5E
  5
E5F
331
E5F
  5
E62
331
E61
  5
E65
331
E62
  5
E66
331
E63
  5
E67
331
E65
  5
E68
331
E66
  5
E69
331
E67
  5
E6A
331
E68
  5
E6B
331
E69
  5
E6C
331
E6A
  5
E6D
331
E6B
  5
E6E
331
E6C
  5
E6F
331
E6D
  5
E70
331
E6E
  5
E71
331
E6F
  5
E72
331
E71
  5
E74
331
E72
  5
E75
331
E73
  5
E76
331
E74
  5
E77
331
E75
  5
E78
331
E76
  5
E79
331
E77
  5
E7A
331
E78
  5
E7B
331
E79
  5
E7C
331
E7A
  5
E7D
331
E7B
  5
E7E
331
E7C
  5
E7F
331
E7D
  5
E80
331
E7E
  5
E81
331
E7F
  5
E82
331
E80
  5
E83
331
E81
  5
E84
331
E82
  5
E85
331
E83
  5
E86
331
E84
  5
E87
331
E85
  5
E88
331
E86
  5
E89
331
E87
  5
E8A
331
E88
  5
E8B
331
E89
  5
E8C
331
E8A
  5
E8D
331
E8B
  5
E8E
331
E8C
  5
E8F
331
E8D
  5
E90
331
E8E
  5
E91
331
E8F
  5
E92
331
E90
  5
E93
331
E91
  5
E94
331
E92
  5
E95
331
E93
  5
E96
331
E94
  5
E97
331
E95
  5
E98
331
E96
  5
E99
331
E97
  5
E9A
331
E98
  5
E9B
331
E99
  5
E9C
331
E9A
  5
E9D
331
E9B
  5
E9E
331
E9C
  5
E9F
331
E9D
  5
EA0
331
E9E
  5
EA1
331
E9F
  5
EA2
331
EA0
  5
EA3
331
EA1
  5
EA4
331
EA2
  5
EA5
331
EA3
  5
EA6
331
EA4
  5
EA7
331
EA5
  5
EA8
331
EA6
  5
EA9
331
EA7
  5
EAA
331
EA8
  5
EAB
331
EA9
  5
EAC
331
EAA
  5
EAD
331
EAB
  5
EAE
331
EAC
  5
EAF
331
EAD
  5
EB0
331
EAE
  5
EB1
331
EAF
  5
EB2
331
EB0
  5
EB3
331
EB1
  5
EB4
331
EB2
  5
EB5
331
EB3
  5
EB6
331
EB4
  5
EB7
331
EB5
  5
EB8
331
EB6
  5
EB9
331
EB7
  5
EBA
331
EB8
  5
EBB
331
EB9
  5
EBC
331
EBA
  5
EBD
331
EBB
  5
EBE
331
EBC
  5
EBF
331
EBD
  5
EC0
331
EBF
  5
EC2
331
EC0
  5
EC3
331
EC2
  5
EC5
331
EC3
  5
EC6
331
EC4
  5
EC7
331
EC5
  5
EC8
331
EC6
  5
EC9
331
EC7
  5
ECE
331
EC8
  5
ED1
331
EC9
  5
ED3
331
ECE
  5
ED4
331
ED1
  5
ED5
331
ED3
  5
ED6
331
ED5
  5
ED8
331
ED6
  5
ED9
331
ED7
  5
EDA
331
ED8
  5
EDB
331
ED9
  5
EDC
331
EDA
  5
EDD
331
EDB
  5
EDE
331
EDC
  5
EE0
331
EDD
  5
EE1
331
EDE
  5
EE2
331
EE0
  5
EE3
331
EE2
  5
EE5
331
EE3
  5
EE6
331
EE4
  5
EE7
331
EE7
  5
EEA
331
EE8
  5
EEB
331
EE9
  5
EEC
331
EEA
  5
EED
331
EEB
  5
EEE
331
EEC
  5
EEF
331
EED
  5
EF0
331
EEE
  5
EF1
331
EEF
  5
EF2
331
EF0
  5
EF3
331
EF1
  5
EF4
331
EF2
  5
EF5
331
EF3
  5
EF6
331
EF4
  5
EF7
331
EF5
  5
EF8
331
EF6
  5
EF9
331
EF7
  5
EFA
331
EF8
  5
EFB
331
EF9
  5
EFC
331
EFA
  5
EFD
331
EFB
  5
EFE
331
EFC
  5
EFF
331
EFD
  5
F00
331
EFE
  5
F01
331
EFF
  5
F02
331
F00
  5
F03
331
F01
  5
F04
331
F02
  5
F05
331
F03
  5
F06
331
F04
  5
F07
331
F05
  5
F08
331
F06
  5
F09
331
F07
  5
F0A
331
F08
  5
F0B
331
F09
  5
F0C
331
F0A
  5
F0D
331
F0B
  5
F0E
331
F0C
  5
F0F
331
F0D
  5
F10
331
F0E
  5
F11
331
F0F
  5
F12
331
F10
  5
F13
331
F11
  5
F14
331
F12
  5
F15
331
F13
  5
F16
331
F14
  5
F17
331
F15
  5
F18
331
F16
  5
F19
331
F17
  5
F1A
331
F18
  5
F1B
331
F19
  5
F1C
331
F1A
  5
F1D
331
F1B
  5
F1E
331
F1C
  5
F1F
331
F1D
  5
F20
331
F1E
  5
F21
331
F1F
  5
F22
331
F20
  5
F23
331
F21
  5
F24
331
F22
  5
F25
331
F23
  5
F26
331
F24
  5
F27
331
F25
  5
F28
331
F26
  5
F29
331
F27
  5
F2A
331
F28
  5
F2B
331
F29
  5
F2C
331
F2A
  5
F2D
331
F2B
  5
F2E
331
F2C
  5
F2F
331
F2D
  5
F30
331
F2E
  5
F31
331
F2F
  5
F32
331
F30
  5
F33
331
F31
  5
F34
331
F32
  5
F35
331
F33
  5
F36
331
F34
  5
F37
331
F35
  5
F39
331
F36
  5
F3A
331
F37
  5
F3C
331
F39
  5
F3D
331
F3A
  5
F3E
331
F3C
  5
F3F
331
F3E
  5
FF5
331
FF4
  5
FF7
331
FF5
  5
FF8
331
FF6
  5
FF9
331
FF7
  5
FFA
331
FF8
  5
FFB
331
FF9
  5
FFC
331
FFA
  5
FFF
331
FFD
  5
1000
331
FFE
  5
1001
331
FFF
  5
1002
331
1000
  5
1003
331
1001
  5
1005
331
1003
  5
1006
331
1004
  5
1007
331
1005
  5
1008
331
1006
  5
100B
331
1009
  5
100C
331
100A
  5
100E
331
100C
  5
100F
331
100D
  5
1010
331
100E
  5
1012
331
1010
  5
1014
331
1012
  5
1015
331
1013
  5
1016
331
1014
  5
1017
331
1015
  5
1019
331
1017
  5
101A
331
1018
  5
101B
331
1019
  5
101E
331
101C
  5
101F
331
101D
  5
1020
331
101E
  5
1021
331
101F
  5
1022
331
1020
  5
1023
331
1021
  5
1027
331
1025
  5
1029
331
1027
  5
102A
331
1028
  5
102B
331
1029
  5
102C
331
102A
  5
102D
331
102B
  5
102F
331
102D
  5
1031
331
102F
  5
1035
331
1033
  5
1036
331
1034
  5
1037
331
1035
  5
1038
331
1036
  5
1039
331
1037
  5
103A
331
1038
  5
103B
331
1039
  5
103C
331
103A
  5
103E
331
103C
  5
1040
331
103E
  5
1041
331
103F
  5
1042
331
1040
  5
1043
331
1041
  5
1044
331
1042
  5
1045
331
1043
  5
1047
331
1045
  5
1048
331
1046
  5
104A
331
1048
  5
104B
331
1049
  5
104C
331
104A
  5
104D
331
104B
  5
104E
331
104C
  5
104F
331
104D
  5
1050
331
104E
  5
1056
331
1054
  5
1058
331
1056
  5
1059
331
1057
  5
105A
331
1058
  5
105B
331
1059
  5
105E
331
105C
  5
1060
331
105E
  5
1061
331
105F
  5
1062
331
1060
  5
1063
331
1061
  5
1064
331
1062
  5
1065
331
1063
  5
1066
331
1064
  5
1067
331
1065
  5
1068
331
1066
  5
1069
331
1067
  5
106A
331
1068
  5
106B
331
1069
  5
106C
331
106A
  5
106D
331
106B
  5
106E
331
106C
  5
106F
331
106D
  5
1070
331
106E
  5
1071
331
106F
  5
1072
331
1070
  5
1073
331
1071
  5
1074
331
1072
  5
1075
331
1073
  5
1076
331
1074
  5
1077
331
1075
  5
1078
331
1076
  5
1079
331
1077
  5
107A
331
1078
  5
107B
331
1079
  5
107C
331
107A
  5
107D
331
107B
  5
107E
331
107C
  5
107F
331
107D
  5
1080
331
107E
  5
1082
331
1080
  5
1083
331
1081
  5
1084
331
1082
  5
1085
331
1083
  5
1086
331
1084
  5
1087
331
1085
  5
1088
331
1086
  5
1089
331
1087
  5
108A
331
1088
  5
108C
331
108A
  5
108D
331
108B
  5
108E
331
108C
  5
108F
331
108D
  5
1090
331
108E
  5
1091
331
108F
  5
1092
331
1091
  5
1094
331
1092
  5
1095
331
1093
  5
1097
331
1095
  5
1098
331
1096
  5
1099
331
1097
  5
109A
331
1098
  5
109B
331
109A
  5
109D
331
109B
  5
109E
331
109C
  5
109F
331
109D
  5
10A0
331
109E
  5
10A1
331
109F
  5
10A2
331
10A0
  5
10A3
331
10A2
  5
124C
331
10A3
  5
1251
331
124F
  5
1259
331
1257
  5
125A
331
1258
  5
125D
331
125B
  5
1262
331
1260
  5
126A
331
1268
  5
126B
331
1269
  5
126D
331
126B
  5
126E
331
126C
  5
1271
331
126F
  5
1273
331
1271
  5
1274
331
1272
  5
1275
331
1273
  5
1276
331
1274
  5
1277
331
1275
  5
127D
331
127B
  5
127E
331
127C
  5
127F
331
127D
  5
1280
331
127E
  5
1281
331
127F
  5
1282
331
1280
  5
1283
331
1281
  5
1284
331
1282
  5
1286
331
1284
  5
1287
331
1285
  5
1288
331
1286
  5
1289
331
1287
  5
128A
331
1288
  5
128B
331
1289
  5
128C
331
128A
  5
128D
331
128B
  5
128E
331
128C
  5
128F
331
128D
  5
1290
331
128E
  5
1291
331
128F
  5
1292
331
1290
  5
1293
331
1291
  5
1295
331
1293
  5
1296
331
1294
  5
1297
331
1295
  5
1299
331
1297
  5
129B
331
1299
  5
129C
331
129A
  5
129D
331
129B
  5
129E
331
129C
  5
129F
331
129D
  5
12A1
331
129F
  5
12A3
331
12A1
  5
12A4
331
12A2
  5
12A5
331
12A3
  5
12A6
331
12A4
  5
12A7
331
12A5
  5
12A9
331
12A7
  5
12AC
331
12AA
  5
12AD
331
12AB
  5
12AE
331
12AC
  5
12AF
331
12AD
  5
12B0
331
12AE
  5
12B1
331
12AF
  5
12B3
331
12B1
  5
12B4
331
12B2
  5
12B5
331
12B3
  5
12B6
331
12B4
  5
12B7
331
12B5
  5
12B8
331
12B6
  5
12B9
331
12B7
  5
12BA
331
12B8
  5
12BC
331
12BA
  5
12BD
331
12BB
  5
12BE
331
12BC
  5
12C0
331
12BE
  5
12C1
331
12BF
  5
12C2
331
12C0
  5
12C3
331
12C1
  5
12C4
331
12C2
  5
12C6
331
12C4
  5
12C7
331
12C5
  5
12C8
331
12C6
  5
12CA
331
12C8
  5
12CC
331
12CA
  5
12CD
331
12CB
  5
12CF
331
12CD
  5
12D0
331
12CE
  5
12D2
331
12D0
  5
12D4
331
12D2
  5
12D6
331
12D4
  5
12D7
331
12D5
  5
12D9
331
12D7
  5
12DA
331
12D8
  5
12DB
331
12D9
  5
12DC
331
12DA
  5
12DD
331
12DB
  5
12DE
331
12DC
  5
12DF
331
12DD
  5
12E0
331
12DE
  5
12E2
331
12E0
  5
12E3
331
12E1
  5
12E4
331
12E2
  5
12E5
331
12E3
  5
12E6
331
12E4
  5
12E7
331
12E5
  5
12E8
331
12E6
  5
12E9
331
12E7
  5
12EC
331
12EA
  5
12ED
331
12EB
  5
12EE
331
12EC
  5
12EF
331
12ED
  5
12F0
331
12EE
  5
12F1
331
12EF
  5
12F3
331
12F1
  5
12F4
331
12F2
  5
12F5
331
12F3
  5
12F7
331
12F5
  5
12F9
331
12F7
  5
12FB
331
12F9
  5
12FC
331
12FA
  5
12FD
331
12FB
  5
12FE
331
12FC
  5
12FF
331
12FD
  5
1300
331
12FE
  5
1301
331
12FF
  5
1302
331
1300
  5
1303
331
1301
  5
1304
331
1302
  5
1305
331
1303
  5
1306
331
1304
  5
1308
331
1306
  5
1309
331
1307
  5
130A
331
1308
  5
130B
331
1309
  5
130C
331
130A
  5
130D
331
130B
  5
130E
331
130C
  5
130F
331
130D
  5
1310
331
130E
  5
1311
331
130F
  5
1312
331
1310
  5
1313
331
1311
  5
1314
331
1312
  5
1315
331
1313
  5
1317
331
1315
  5
1319
331
1317
  5
131A
331
1318
  5
131B
331
1319
  5
131C
331
131A
  5
131D
331
131B
  5
131F
331
131D
  5
1320
331
131E
  5
1321
331
131F
  5
1322
331
1320
  5
1323
331
1321
  5
1324
331
1322
  5
1325
331
1323
  5
1326
331
1324
  5
1327
331
1325
  5
1328
331
1326
  5
1329
331
1327
  5
132A
331
1328
  5
132B
331
1329
  5
132C
331
132A
  5
132D
331
132B
  5
132E
331
132C
  5
132F
331
132D
  5
1330
331
132E
  5
1331
331
132F
  5
1332
331
1330
  5
1333
331
1331
  5
1334
331
1332
  5
1335
331
1333
  5
1336
331
1334
  5
1337
331
1335
  5
1338
331
1336
  5
1339
331
1337
  5
133A
331
1338
  5
133B
331
1339
  5
133D
331
133B
  5
133E
331
133C
  5
133F
331
133D
  5
1341
331
133F
  5
1342
331
1340
  5
1343
331
1341
  5
1344
331
1342
  5
1345
331
1343
  5
1346
331
1344
  5
134B
331
1349
  5
134C
331
134A
  5
134D
331
134B
  5
134F
331
134D
  5
1350
331
134E
  5
1351
331
134F
  5
1353
331
1351
  5
1354
331
1352
  5
1355
331
1353
  5
1356
331
1354
  5
135D
331
135B
  5
1361
331
135F
  5
136A
331
1368
  5
136D
331
136B
  5
1373
331
1371
  5
1374
331
1372
  5
1375
331
1373
  5
1376
331
1374
  5
1377
331
1375
  5
1378
331
1376
  5
1379
331
1377
  5
138A
331
1388
  5
138B
331
1389
  5
1391
331
138F
  5
1394
331
1392
  5
1397
331
1395
  5
1398
331
1396
  5
13A5
331
13A3
  5
13A9
331
13A7
  5
13AD
331
13AB
  5
13AE
331
13AC
  5
13B0
331
13AE
  5
13B1
331
13AF
  5
13B2
331
13B0
  5
13B3
331
13B1
  5
13B4
331
13B2
  5
13B5
331
13B3
  5
13B6
331
13B4
  5
13B7
331
13B5
  5
13B8
331
13B6
  5
13B9
331
13B7
  5
13BA
331
13B8
  5
13BB
331
13B9
  5
13BC
331
13BA
  5
13BD
331
13BB
  5
13BE
331
13BC
  5
13BF
331
13BD
  5
13C0
331
13BE
  5
13C1
331
13C0
  5
13C3
331
13C1
  5
13C4
331
13C2
  5
13C5
331
13C3
  5
13C6
331
13C4
  5
13C7
331
13C5
  5
13C8
331
13C6
  5
13C9
331
13C7
  5
13CA
331
13C8
  5
13CB
331
13C9
  5
13CC
331
13CA
  5
13CD
331
13CB
  5
13CE
331
13CC
  5
13CF
331
13CD
  5
13D0
331
13CE
  5
13D1
331
13CF
  5
13D2
331
13D0
  5
13D3
331
13D1
  5
13D4
331
13D2
  5
13D5
331
13D3
  5
13D6
331
13D4
  5
13D7
331
13D5
  5
13D8
331
13D6
  5
13D9
331
13D7
  5
13DA
331
13D8
  5
13DB
331
13D9
  5
13DC
331
13DA
  5
13DD
331
13DB
  5
13DE
331
13DC
  5
13DF
331
13DD
  5
13E0
331
13DE
  5
13E1
331
13DF
  5
13E2
331
13E0
  5
13E3
331
13E1
  5
13E4
331
13E2
  5
13E5
331
13E3
  5
13E7
331
13E5
  5
13E8
331
13E6
  5
13E9
331
13E7
  5
1402
331
13EC
  5
1421
331
13ED
  5
1432
331
1402
  5
E60
331
1403
  5
E63
331
1421
  5
1459
331
1432
  5
145A
331
1459
  5
1403
  0
ACDBDETAILVIEWSTYLE
  5
116
102
{ACAD_XDICTIONARY
360
14BF
102
}
102
{ACAD_REACTORS
330
10E
102
}
330
10E
100
AcDbModelDocViewStyle
 70
     0
  3
Metric50
290
     0
100
AcDbDetailViewStyle
 70
     0
 71
     0
 90
        3
 71
     1
340
11
 62
   256
 40
5.0
340
0
 62
   256
 40
5.0
300

 40
0.0
280
     1
 71
     2
340
16
 90
       25
 62
   256
 71
     3
340
11
 62
   256
 40
5.0
 90
        0
 40
15.0
 90
        1
300
%<\AcVar ViewDetailId>% (%<\AcVar ViewScale \f "%sn">%)
 71
     4
340
16
 90
       25
 62
   256
340
16
 90
       25
 62
   256
280
     0
  0
LAYOUT
  5
1E
102
{ACAD_REACTORS
330
1A
102
}
330
1A
100
AcDbPlotSettings
  1

  2
none_device
  4

  6

 40
0.0
 41
0.0
 42
0.0
 43
0.0
 44
0.0
 45
0.0
 46
0.0
 47
0.0
 48
0.0
 49
0.0
140
0.0
141
0.0
142
1.0
143
1.0
 70
   688
 72
     1
 73
     0
 74
     5
  7

 75
    16
147
1.0
 76
     0
 77
     2
 78
   300
148
0.0
149
0.0
100
AcDbLayout
  1
Layout1
 70
     1
 71
     1
 10
0.0
 20
0.0
 11
420.0
 21
297.0
 12
0.0
 22
0.0
 32
0.0
 14
1.000000000000000E+20
 24
1.000000000000000E+20
 34
1.000000000000000E+20
 15
-1.000000000000000E+20
 25
-1.000000000000000E+20
 35
-1.000000000000000E+20
146
0.0
 13
0.0
 23
0.0
 33
0.0
 16
1.0
 26
0.0
 36
0.0
 17
0.0
 27
1.0
 37
0.0
 76
     0
330
1B
  0
LAYOUT
  5
26
102
{ACAD_REACTORS
330
1A
102
}
330
1A
100
AcDbPlotSettings
  1

  2
none_device
  4

  6

 40
0.0
 41
0.0
 42
0.0
 43
0.0
 44
0.0
 45
0.0
 46
0.0
 47
0.0
 48
0.0
 49
0.0
140
0.0
141
0.0
142
1.0
143
1.0
 70
   688
 72
     1
 73
     0
 74
     5
  7

 75
    16
147
1.0
 76
     0
 77
     2
 78
   300
148
0.0
149
0.0
100
AcDbLayout
  1
Layout2
 70
     1
 71
     2
 10
0.0
 20
0.0
 11
0.0
 21
0.0
 12
0.0
 22
0.0
 32
0.0
 14
0.0
 24
0.0
 34
0.0
 15
0.0
 25
0.0
 35
0.0
146
0.0
 13
0.0
 23
0.0
 33
0.0
 16
1.0
 26
0.0
 36
0.0
 17
0.0
 27
1.0
 37
0.0
 76
     0
330
23
  0
LAYOUT
  5
22
102
{ACAD_REACTORS
330
1A
102
}
330
1A
100
AcDbPlotSettings
  1

  2
none_device
  4
Letter_(8.50_x_11.00_Inches)
  6

 40
6.349999999999997
 41
6.349999999999997
 42
6.350005079999997
 43
6.350005079999997
 44
215.9
 45
279.4
 46
0.0
 47
0.0
 48
0.0
 49
0.0
140
0.0
141
0.0
142
1.0
143
1.0
 70
  1712
 72
     1
 73
     0
 74
     0
  7

 75
     0
147
1.0
 76
     0
 77
     2
 78
   300
148
0.0
149
0.0
100
AcDbLayout
  1
Model
 70
     1
 71
     0
 10
0.0
 20
0.0
 11
420.0
 21
297.0
 12
0.0
 22
0.0
 32
0.0
 14
-45.25316535320677
 24
93.29113539721936
 34
0.0
 15
0.1687797052525326
 25
133.2911345722814
 35
0.0
146
0.0
 13
0.0
 23
0.0
 33
0.0
 16
1.0
 26
0.0
 36
0.0
 17
0.0
 27
1.0
 37
0.0
 76
     0
330
1F
331
29
  0
MATERIAL
  5
45
102
{ACAD_REACTORS
330
43
102
}
330
43
100
AcDbMaterial
  1
ByBlock
  0
MATERIAL
  5
44
102
{ACAD_REACTORS
330
43
102
}
330
43
100
AcDbMaterial
  1
ByLayer
  0
MATERIAL
  5
46
102
{ACAD_REACTORS
330
43
102
}
330
43
100
AcDbMaterial
  1
Global
  0
MLEADERSTYLE
  5
6C
102
{ACAD_REACTORS
330
6B
102
}
330
6B
100
AcDbMLeaderStyle
179
     2
170
     2
171
     1
172
     0
 90
        2
 40
0.0
 41
0.0
173
     1
 91
-1056964608
340
14
 92
       -2
290
     1
 42
2.0
291
     1
 43
8.0
  3
Standard
 44
4.0
300

342
11
174
     1
178
     6
175
     1
176
     0
 93
-1056964608
 45
4.0
292
     0
297
     0
 46
4.0
 94
-1056964608
 47
1.0
 49
1.0
140
1.0
293
     1
141
0.0
294
     1
177
     0
142
1.0
295
     0
296
     0
143
3.75
271
     0
272
     9
273
     9
298
     0
  0
MLINESTYLE
  5
18
102
{ACAD_REACTORS
330
17
102
}
330
17
100
AcDbMlineStyle
  2
STANDARD
 70
     0
  3

 62
   256
 51
90.0
 52
90.0
 71
     2
 49
0.5
 62
   256
  6
BYLAYER
 49
-0.5
 62
   256
  6
BYLAYER
  0
ACDBPLACEHOLDER
  5
F
102
{ACAD_REACTORS
330
E
102
}
330
E
  0
SCALE
  5
48
102
{ACAD_REACTORS
330
47
102
}
330
47
100
AcDbScale
 70
     0
300
1:1
140
1.0
141
1.0
290
     1
  0
SCALE
  5
49
102
{ACAD_REACTORS
330
47
102
}
330
47
100
AcDbScale
 70
     0
300
1:2
140
1.0
141
2.0
290
     0
  0
SCALE
  5
4A
102
{ACAD_REACTORS
330
47
102
}
330
47
100
AcDbScale
 70
     0
300
1:4
140
1.0
141
4.0
290
     0
  0
SCALE
  5
4B
102
{ACAD_REACTORS
330
47
102
}
330
47
100
AcDbScale
 70
     0
300
1:5
140
1.0
141
5.0
290
     0
  0
SCALE
  5
4C
102
{ACAD_REACTORS
330
47
102
}
330
47
100
AcDbScale
 70
     0
300
1:8
140
1.0
141
8.0
290
     0
  0
SCALE
  5
4D
102
{ACAD_REACTORS
330
47
102
}
330
47
100
AcDbScale
 70
     0
300
1:10
140
1.0
141
10.0
290
     0
  0
SCALE
  5
4E
102
{ACAD_REACTORS
330
47
102
}
330
47
100
AcDbScale
 70
     0
300
1:16
140
1.0
141
16.0
290
     0
  0
SCALE
  5
4F
102
{ACAD_REACTORS
330
47
102
}
330
47
100
AcDbScale
 70
     0
300
1:20
140
1.0
141
20.0
290
     0
  0
SCALE
  5
50
102
{ACAD_REACTORS
330
47
102
}
330
47
100
AcDbScale
 70
     0
300
1:30
140
1.0
141
30.0
290
     0
  0
SCALE
  5
51
102
{ACAD_REACTORS
330
47
102
}
330
47
100
AcDbScale
 70
     0
300
1:40
140
1.0
141
40.0
290
     0
  0
SCALE
  5
52
102
{ACAD_REACTORS
330
47
102
}
330
47
100
AcDbScale
 70
     0
300
1:50
140
1.0
141
50.0
290
     0
  0
SCALE
  5
53
102
{ACAD_REACTORS
330
47
102
}
330
47
100
AcDbScale
 70
     0
300
1:100
140
1.0
141
100.0
290
     0
  0
SCALE
  5
54
102
{ACAD_REACTORS
330
47
102
}
330
47
100
AcDbScale
 70
     0
300
2:1
140
2.0
141
1.0
290
     0
  0
SCALE
  5
55
102
{ACAD_REACTORS
330
47
102
}
330
47
100
AcDbScale
 70
     0
300
4:1
140
4.0
141
1.0
290
     0
  0
SCALE
  5
56
102
{ACAD_REACTORS
330
47
102
}
330
47
100
AcDbScale
 70
     0
300
8:1
140
8.0
141
1.0
290
     0
  0
SCALE
  5
57
102
{ACAD_REACTORS
330
47
102
}
330
47
100
AcDbScale
 70
     0
300
10:1
140
10.0
141
1.0
290
     0
  0
SCALE
  5
58
102
{ACAD_REACTORS
330
47
102
}
330
47
100
AcDbScale
 70
     0
300
100:1
140
100.0
141
1.0
290
     0
  0
SCALE
  5
59
102
{ACAD_REACTORS
330
47
102
}
330
47
100
AcDbScale
 70
     0
300
1/128" = 1'-0"
140
0.0078125
141
12.0
290
     0
  0
SCALE
  5
5A
102
{ACAD_REACTORS
330
47
102
}
330
47
100
AcDbScale
 70
     0
300
1/64" = 1'-0"
140
0.015625
141
12.0
290
     0
  0
SCALE
  5
5B
102
{ACAD_REACTORS
330
47
102
}
330
47
100
AcDbScale
 70
     0
300
1/32" = 1'-0"
140
0.03125
141
12.0
290
     0
  0
SCALE
  5
5C
102
{ACAD_REACTORS
330
47
102
}
330
47
100
AcDbScale
 70
     0
300
1/16" = 1'-0"
140
0.0625
141
12.0
290
     0
  0
SCALE
  5
5D
102
{ACAD_REACTORS
330
47
102
}
330
47
100
AcDbScale
 70
     0
300
3/32" = 1'-0"
140
0.09375
141
12.0
290
     0
  0
SCALE
  5
5E
102
{ACAD_REACTORS
330
47
102
}
330
47
100
AcDbScale
 70
     0
300
1/8" = 1'-0"
140
0.125
141
12.0
290
     0
  0
SCALE
  5
5F
102
{ACAD_REACTORS
330
47
102
}
330
47
100
AcDbScale
 70
     0
300
3/16" = 1'-0"
140
0.1875
141
12.0
290
     0
  0
SCALE
  5
60
102
{ACAD_REACTORS
330
47
102
}
330
47
100
AcDbScale
 70
     0
300
1/4" = 1'-0"
140
0.25
141
12.0
290
     0
  0
SCALE
  5
61
102
{ACAD_REACTORS
330
47
102
}
330
47
100
AcDbScale
 70
     0
300
3/8" = 1'-0"
140
0.375
141
12.0
290
     0
  0
SCALE
  5
62
102
{ACAD_REACTORS
330
47
102
}
330
47
100
AcDbScale
 70
     0
300
1/2" = 1'-0"
140
0.5
141
12.0
290
     0
  0
SCALE
  5
63
102
{ACAD_REACTORS
330
47
102
}
330
47
100
AcDbScale
 70
     0
300
3/4" = 1'-0"
140
0.75
141
12.0
290
     0
  0
SCALE
  5
64
102
{ACAD_REACTORS
330
47
102
}
330
47
100
AcDbScale
 70
     0
300
1" = 1'-0"
140
1.0
141
12.0
290
     0
  0
SCALE
  5
65
102
{ACAD_REACTORS
330
47
102
}
330
47
100
AcDbScale
 70
     0
300
1-1/2" = 1'-0"
140
1.5
141
12.0
290
     0
  0
SCALE
  5
66
102
{ACAD_REACTORS
330
47
102
}
330
47
100
AcDbScale
 70
     0
300
3" = 1'-0"
140
3.0
141
12.0
290
     0
  0
SCALE
  5
67
102
{ACAD_REACTORS
330
47
102
}
330
47
100
AcDbScale
 70
     0
300
6" = 1'-0"
140
6.0
141
12.0
290
     0
  0
SCALE
  5
68
102
{ACAD_REACTORS
330
47
102
}
330
47
100
AcDbScale
 70
     0
300
1'-0" = 1'-0"
140
12.0
141
12.0
290
     0
  0
ACDBSECTIONVIEWSTYLE
  5
115
102
{ACAD_XDICTIONARY
360
14BD
102
}
102
{ACAD_REACTORS
330
10F
102
}
330
10F
100
AcDbModelDocViewStyle
 70
     0
  3
Metric50
290
     0
100
AcDbSectionViewStyle
 70
     0
 71
     0
 90
      102
 71
     1
340
11
 62
   256
 40
5.0
340
0
340
0
 62
   256
 40
5.0
300
I, O, Q, S, X, Z
 40
10.0
 90
        0
 40
2.5
 90
        0
 71
     2
340
16
 90
       25
 62
   256
340
16
 90
       50
 62
   256
 40
5.0
 40
2.5
 40
5.0
 71
     3
340
11
 62
   256
 40
5.0
 90
        0
 40
15.0
 90
        1
300
%<\AcVar ViewSectionStartId>%-%<\AcVar ViewSectionEndId>% (%<\AcVar ViewScale \f "%sn">%)
 71
     4
 62
   256
 62
   257
300
ANSI31
 40
1.0
 90
        0
290
     0
290
     0
 90
        6
 40
0.0
 40
1.570796326794896
 40
0.2617993877991494
 40
1.308996938995747
 40
-0.2617993877991494
 40
1.832595714594044
  0
TABLESTYLE
  5
6A
102
{ACAD_XDICTIONARY
360
109
102
}
102
{ACAD_REACTORS
330
69
102
}
330
69
100
AcDbTableStyle
280
     0
  3
Standard
 70
     0
 71
     0
 40
1.5
 41
1.5
280
     0
281
     0
  7
Standard
140
4.5
170
     2
 62
     0
 63
     7
283
     0
 90
        4
 91
        0
  1

274
    -2
284
     1
 64
     0
275
    -2
285
     1
 65
     0
276
    -2
286
     1
 66
     0
277
    -2
287
     1
 67
     0
278
    -2
288
     1
 68
     0
279
    -2
289
     1
 69
     0
  7
Standard
140
6.0
170
     5
 62
     0
 63
     7
283
     0
 90
        4
 91
        0
  1

274
    -2
284
     1
 64
     0
275
    -2
285
     1
 65
     0
276
    -2
286
     1
 66
     0
277
    -2
287
     1
 67
     0
278
    -2
288
     1
 68
     0
279
    -2
289
     1
 69
     0
  7
Standard
140
4.5
170
     5
 62
     0
 63
     7
283
     0
 90
        4
 91
        0
  1

274
    -2
284
     1
 64
     0
275
    -2
285
     1
 65
     0
276
    -2
286
     1
 66
     0
277
    -2
287
     1
 67
     0
278
    -2
288
     1
 68
     0
279
    -2
289
     1
 69
     0
  0
VISUALSTYLE
  5
2F
102
{ACAD_REACTORS
330
2A
102
}
330
2A
100
AcDbVisualStyle
  2
2dWireframe
 70
     4
177
     3
291
     0
 70
    58
 90
        0
176
     1
 90
        2
176
     1
 90
        0
176
     1
 90
        0
176
     1
 40
0.6
176
     1
 40
30.0
176
     1
 62
     7
420
 16777215
176
     1
 90
        1
176
     1
 90
        4
176
     1
 62
     7
176
     1
 62
   257
176
     1
 90
        1
176
     1
 90
        1
176
     1
 40
1.0
176
     1
 90
        0
176
     1
 62
   257
176
     1
 40
1.0
176
     1
 90
        1
176
     1
 90
        6
176
     1
 90
        2
176
     1
 62
     7
176
     1
 90
        5
176
     1
 90
        0
176
     1
 90
        0
176
     1
290
     0
176
     1
 90
        1
176
     1
 40
0.0
176
     1
 90
        0
176
     1
290
     1
176
     1
290
     1
176
     1
290
     0
176
     1
290
     0
176
     1
290
     0
176
     1
290
     0
176
     1
290
     0
176
     1
290
     0
176
     1
290
     0
176
     1
 90
       50
176
     1
 40
0.0
176
     1
 40
1.0
176
     1
 90
        0
176
     1
 62
    18
176
     1
 90
       50
176
     1
 90
        3
176
     1
 62
     5
420
      255
176
     1
290
     0
176
     1
 90
       50
176
     1
 90
       50
176
     1
 90
       50
176
     1
290
     0
176
     1
 90
       50
176
     1
 62
   256
176
     0
 40
1.0
176
     0
 90
        2
176
     1
  1
strokes_ogs.tif
176
     1
290
     0
176
     1
 40
1.0
176
     1
 40
1.0
176
     1
1001
ACAD
1000
AcDbSavedByObjectVersion
1070
     0
  0
VISUALSTYLE
  5
32
102
{ACAD_REACTORS
330
2A
102
}
330
2A
100
AcDbVisualStyle
  2
Basic
 70
     7
177
     3
291
     1
 70
    58
 90
        1
176
     1
 90
        0
176
     1
 90
        1
176
     1
 90
        0
176
     1
 40
0.6
176
     1
 40
30.0
176
     1
 62
     7
420
 16777215
176
     1
 90
        0
176
     1
 90
        4
176
     1
 62
     7
176
     1
 62
   257
176
     1
 90
        1
176
     1
 90
        1
176
     1
 40
1.0
176
     1
 90
        8
176
     1
 62
     7
176
     1
 40
1.0
176
     1
 90
        1
176
     1
 90
        6
176
     1
 90
        2
176
     1
 62
     7
176
     1
 90
        5
176
     1
 90
        0
176
     1
 90
        0
176
     1
290
     0
176
     1
 90
        1
176
     1
 40
0.0
176
     1
 90
        0
176
     1
290
     0
176
     1
290
     1
176
     1
290
     1
176
     1
290
     0
176
     1
290
     0
176
     1
290
     0
176
     1
290
     0
176
     1
290
     0
176
     1
290
     0
176
     1
 90
       50
176
     1
 40
0.0
176
     1
 40
1.0
176
     1
 90
        0
176
     1
 62
    18
176
     1
 90
       50
176
     1
 90
        3
176
     1
 62
     5
420
      255
176
     1
290
     0
176
     1
 90
       50
176
     1
 90
       50
176
     1
 90
       50
176
     1
290
     0
176
     1
 90
       50
176
     1
 62
   256
176
     0
 40
1.0
176
     0
 90
        2
176
     1
  1
strokes_ogs.tif
176
     1
290
     0
176
     1
 40
1.0
176
     1
 40
1.0
176
     1
1001
ACAD
1000
AcDbSavedByObjectVersion
1070
     0
  0
VISUALSTYLE
  5
36
102
{ACAD_REACTORS
330
2A
102
}
330
2A
100
AcDbVisualStyle
  2
Brighten
 70
    12
177
     3
291
     1
 70
    58
 90
        2
176
     1
 90
        2
176
     1
 90
        0
176
     1
 90
        0
176
     1
 40
0.6
176
     1
 40
30.0
176
     1
 62
     7
420
 16777215
176
     1
 90
        1
176
     1
 90
        4
176
     1
 62
     7
176
     1
 62
   257
176
     1
 90
        1
176
     1
 90
        1
176
     1
 40
1.0
176
     1
 90
        8
176
     1
 62
     7
176
     1
 40
1.0
176
     1
 90
        1
176
     1
 90
        6
176
     1
 90
        2
176
     1
 62
     7
176
     1
 90
        5
176
     1
 90
        0
176
     1
 90
        0
176
     1
290
     0
176
     1
 90
        1
176
     1
 40
50.0
176
     1
 90
        0
176
     1
290
     0
176
     1
290
     1
176
     1
290
     1
176
     1
290
     0
176
     1
290
     0
176
     1
290
     0
176
     1
290
     0
176
     1
290
     0
176
     1
290
     0
176
     1
 90
       50
176
     1
 40
0.0
176
     1
 40
1.0
176
     1
 90
        0
176
     1
 62
    18
176
     1
 90
       50
176
     1
 90
        3
176
     1
 62
     5
420
      255
176
     1
290
     0
176
     1
 90
       50
176
     1
 90
       50
176
     1
 90
       50
176
     1
290
     0
176
     1
 90
       50
176
     1
 62
   256
176
     0
 40
1.0
176
     0
 90
        2
176
     1
  1
strokes_ogs.tif
176
     1
290
     0
176
     1
 40
1.0
176
     1
 40
1.0
176
     1
1001
ACAD
1000
AcDbSavedByObjectVersion
1070
     0
  0
VISUALSTYLE
  5
3A
102
{ACAD_REACTORS
330
2A
102
}
330
2A
100
AcDbVisualStyle
  2
ColorChange
 70
    16
177
     3
291
     1
 70
    58
 90
        2
176
     1
 90
        2
176
     1
 90
        3
176
     1
 90
        0
176
     1
 40
0.6
176
     1
 40
30.0
176
     1
 62
     8
420
  8421504
176
     1
 90
        1
176
     1
 90
        4
176
     1
 62
     7
176
     1
 62
   257
176
     1
 90
        1
176
     1
 90
        1
176
     1
 40
1.0
176
     1
 90
        8
176
     1
 62
     8
420
  8421504
176
     1
 40
1.0
176
     1
 90
        1
176
     1
 90
        6
176
     1
 90
        2
176
     1
 62
     7
176
     1
 90
        5
176
     1
 90
        0
176
     1
 90
        0
176
     1
290
     0
176
     1
 90
        1
176
     1
 40
0.0
176
     1
 90
        0
176
     1
290
     0
176
     1
290
     1
176
     1
290
     1
176
     1
290
     0
176
     1
290
     0
176
     1
290
     0
176
     1
290
     0
176
     1
290
     0
176
     1
290
     0
176
     1
 90
       50
176
     1
 40
0.0
176
     1
 40
1.0
176
     1
 90
        0
176
     1
 62
    18
176
     1
 90
       50
176
     1
 90
        3
176
     1
 62
     5
420
      255
176
     1
290
     0
176
     1
 90
       50
176
     1
 90
       50
176
     1
 90
       50
176
     1
290
     0
176
     1
 90
       50
176
     1
 62
   256
176
     0
 40
1.0
176
     0
 90
        2
176
     1
  1
strokes_ogs.tif
176
     1
290
     0
176
     1
 40
1.0
176
     1
 40
1.0
176
     1
1001
ACAD
1000
AcDbSavedByObjectVersion
1070
     0
  0
VISUALSTYLE
  5
34
102
{ACAD_REACTORS
330
2A
102
}
330
2A
100
AcDbVisualStyle
  2
Conceptual
 70
     9
177
     3
291
     0
 70
    58
 90
        3
176
     1
 90
        2
176
     1
 90
        0
176
     1
 90
        0
176
     1
 40
0.6
176
     1
 40
30.0
176
     1
 62
     7
420
 16777215
176
     1
 90
        2
176
     1
 90
        2
176
     1
 62
     7
176
     1
 62
   257
176
     1
 90
        1
176
     1
 90
        1
176
     1
 40
179.0
176
     1
 90
        8
176
     1
 62
     7
176
     1
 40
1.0
176
     1
 90
        1
176
     1
 90
        6
176
     1
 90
        2
176
     1
 62
     7
176
     1
 90
        3
176
     1
 90
        0
176
     1
 90
        0
176
     1
290
     0
176
     1
 90
        1
176
     1
 40
0.0
176
     1
 90
        0
176
     1
290
     0
176
     1
290
     1
176
     1
290
     1
176
     1
290
     0
176
     1
290
     0
176
     1
290
     0
176
     1
290
     0
176
     1
290
     0
176
     1
290
     0
176
     1
 90
       50
176
     1
 40
0.0
176
     1
 40
1.0
176
     1
 90
        0
176
     1
 62
    18
176
     1
 90
       50
176
     1
 90
        3
176
     1
 62
     5
420
      255
176
     1
290
     0
176
     1
 90
       50
176
     1
 90
       50
176
     1
 90
       50
176
     1
290
     0
176
     1
 90
       50
176
     1
 62
   256
176
     0
 40
1.0
176
     0
 90
        2
176
     1
  1
strokes_ogs.tif
176
     1
290
     0
176
     1
 40
1.0
176
     1
 40
1.0
176
     1
1001
ACAD
1000
AcDbSavedByObjectVersion
1070
     0
  0
VISUALSTYLE
  5
35
102
{ACAD_REACTORS
330
2A
102
}
330
2A
100
AcDbVisualStyle
  2
Dim
 70
    11
177
     3
291
     1
 70
    58
 90
        2
176
     1
 90
        2
176
     1
 90
        0
176
     1
 90
        0
176
     1
 40
0.6
176
     1
 40
30.0
176
     1
 62
     7
420
 16777215
176
     1
 90
        1
176
     1
 90
        4
176
     1
 62
     7
176
     1
 62
   257
176
     1
 90
        1
176
     1
 90
        1
176
     1
 40
1.0
176
     1
 90
        8
176
     1
 62
     7
176
     1
 40
1.0
176
     1
 90
        1
176
     1
 90
        6
176
     1
 90
        2
176
     1
 62
     7
176
     1
 90
        5
176
     1
 90
        0
176
     1
 90
        0
176
     1
290
     0
176
     1
 90
        1
176
     1
 40
-50.0
176
     1
 90
        0
176
     1
290
     0
176
     1
290
     1
176
     1
290
     1
176
     1
290
     0
176
     1
290
     0
176
     1
290
     0
176
     1
290
     0
176
     1
290
     0
176
     1
290
     0
176
     1
 90
       50
176
     1
 40
0.0
176
     1
 40
1.0
176
     1
 90
        0
176
     1
 62
    18
176
     1
 90
       50
176
     1
 90
        3
176
     1
 62
     5
420
      255
176
     1
290
     0
176
     1
 90
       50
176
     1
 90
       50
176
     1
 90
       50
176
     1
290
     0
176
     1
 90
       50
176
     1
 62
   256
176
     0
 40
1.0
176
     0
 90
        2
176
     1
  1
strokes_ogs.tif
176
     1
290
     0
176
     1
 40
1.0
176
     1
 40
1.0
176
     1
1001
ACAD
1000
AcDbSavedByObjectVersion
1070
     0
  0
VISUALSTYLE
  5
3D
102
{ACAD_REACTORS
330
2A
102
}
330
2A
100
AcDbVisualStyle
  2
EdgeColorOff
 70
    22
177
     3
291
     1
 70
    58
 90
        2
176
     0
 90
        2
176
     0
 90
        0
176
     0
 90
        0
176
     0
 40
0.6
176
     0
 40
30.0
176
     0
 62
     7
420
 16777215
176
     0
 90
        1
176
     0
 90
        4
176
     0
 62
     7
176
     0
 62
   257
176
     0
 90
        1
176
     0
 90
        1
176
     0
 40
1.0
176
     0
 90
        8
176
     2
 62
     7
176
     0
 40
1.0
176
     0
 90
        1
176
     0
 90
        6
176
     0
 90
        2
176
     0
 62
     7
176
     0
 90
        5
176
     0
 90
        0
176
     0
 90
        0
176
     0
290
     0
176
     0
 90
        1
176
     0
 40
0.0
176
     0
 90
        0
176
     0
290
     0
176
     0
290
     1
176
     0
290
     1
176
     0
290
     0
176
     0
290
     0
176
     0
290
     0
176
     0
290
     0
176
     0
290
     0
176
     0
290
     0
176
     0
 90
       50
176
     0
 40
0.0
176
     0
 40
1.0
176
     0
 90
        0
176
     0
 62
    18
176
     0
 90
       50
176
     0
 90
        3
176
     0
 62
     5
420
      255
176
     0
290
     0
176
     0
 90
       50
176
     0
 90
       50
176
     0
 90
       50
176
     0
290
     0
176
     0
 90
       50
176
     0
 62
   256
176
     0
 40
1.0
176
     0
 90
        2
176
     0
  1
strokes_ogs.tif
176
     0
290
     0
176
     0
 40
1.0
176
     0
 40
1.0
176
     0
1001
ACAD
1000
AcDbSavedByObjectVersion
1070
     0
  0
VISUALSTYLE
  5
39
102
{ACAD_REACTORS
330
2A
102
}
330
2A
100
AcDbVisualStyle
  2
Facepattern
 70
    15
177
     3
291
     1
 70
    58
 90
        2
176
     1
 90
        2
176
     1
 90
        0
176
     1
 90
        0
176
     1
 40
0.6
176
     1
 40
30.0
176
     1
 62
     7
420
 16777215
176
     1
 90
        1
176
     1
 90
        4
176
     1
 62
     7
176
     1
 62
   257
176
     1
 90
        1
176
     1
 90
        1
176
     1
 40
1.0
176
     1
 90
        8
176
     1
 62
     7
176
     1
 40
1.0
176
     1
 90
        1
176
     1
 90
        6
176
     1
 90
        2
176
     1
 62
     7
176
     1
 90
        5
176
     1
 90
        0
176
     1
 90
        0
176
     1
290
     0
176
     1
 90
        1
176
     1
 40
0.0
176
     1
 90
        0
176
     1
290
     0
176
     1
290
     1
176
     1
290
     1
176
     1
290
     0
176
     1
290
     0
176
     1
290
     0
176
     1
290
     0
176
     1
290
     0
176
     1
290
     0
176
     1
 90
       50
176
     1
 40
0.0
176
     1
 40
1.0
176
     1
 90
        0
176
     1
 62
    18
176
     1
 90
       50
176
     1
 90
        3
176
     1
 62
     5
420
      255
176
     1
290
     0
176
     1
 90
       50
176
     1
 90
       50
176
     1
 90
       50
176
     1
290
     0
176
     1
 90
       50
176
     1
 62
   256
176
     0
 40
1.0
176
     0
 90
        2
176
     1
  1
strokes_ogs.tif
176
     1
290
     0
176
     1
 40
1.0
176
     1
 40
1.0
176
     1
1001
ACAD
1000
AcDbSavedByObjectVersion
1070
     0
  0
VISUALSTYLE
  5
2B
102
{ACAD_REACTORS
330
2A
102
}
330
2A
100
AcDbVisualStyle
  2
Flat
 70
     0
177
     3
291
     1
 70
    58
 90
        2
176
     1
 90
        1
176
     1
 90
        1
176
     1
 90
        2
176
     1
 40
0.6
176
     1
 40
30.0
176
     1
 62
     7
420
 16777215
176
     1
 90
        0
176
     1
 90
        0
176
     1
 62
     7
176
     1
 62
   257
176
     1
 90
        1
176
     1
 90
        1
176
     1
 40
1.0
176
     1
 90
        8
176
     1
 62
     7
176
     1
 40
1.0
176
     1
 90
        1
176
     1
 90
        6
176
     1
 90
        2
176
     1
 62
     7
176
     1
 90
        5
176
     1
 90
        0
176
     1
 90
        0
176
     1
290
     0
176
     1
 90
       13
176
     1
 40
0.0
176
     1
 90
        0
176
     1
290
     0
176
     1
290
     1
176
     1
290
     1
176
     1
290
     0
176
     1
290
     0
176
     1
290
     0
176
     1
290
     0
176
     1
290
     0
176
     1
290
     0
176
     1
 90
       50
176
     1
 40
0.0
176
     1
 40
1.0
176
     1
 90
        0
176
     1
 62
    18
176
     1
 90
       50
176
     1
 90
        3
176
     1
 62
     5
420
      255
176
     1
290
     0
176
     1
 90
       50
176
     1
 90
       50
176
     1
 90
       50
176
     1
290
     0
176
     1
 90
       50
176
     1
 62
   256
176
     0
 40
1.0
176
     0
 90
        2
176
     1
  1
strokes_ogs.tif
176
     1
290
     0
176
     1
 40
1.0
176
     1
 40
1.0
176
     1
1001
ACAD
1000
AcDbSavedByObjectVersion
1070
     0
  0
VISUALSTYLE
  5
2C
102
{ACAD_REACTORS
330
2A
102
}
330
2A
100
AcDbVisualStyle
  2
FlatWithEdges
 70
     1
177
     3
291
     1
 70
    58
 90
        2
176
     1
 90
        1
176
     1
 90
        1
176
     1
 90
        2
176
     1
 40
0.6
176
     1
 40
30.0
176
     1
 62
     7
420
 16777215
176
     1
 90
        1
176
     1
 90
        0
176
     1
 62
     7
176
     1
 62
   257
176
     1
 90
        1
176
     1
 90
        1
176
     1
 40
1.0
176
     1
 90
        0
176
     1
 62
   257
176
     1
 40
1.0
176
     1
 90
        1
176
     1
 90
        6
176
     1
 90
        2
176
     1
 62
     7
176
     1
 90
        5
176
     1
 90
        0
176
     1
 90
        0
176
     1
290
     0
176
     1
 90
       13
176
     1
 40
0.0
176
     1
 90
        0
176
     1
290
     0
176
     1
290
     1
176
     1
290
     1
176
     1
290
     0
176
     1
290
     0
176
     1
290
     0
176
     1
290
     0
176
     1
290
     0
176
     1
290
     0
176
     1
 90
       50
176
     1
 40
0.0
176
     1
 40
1.0
176
     1
 90
        0
176
     1
 62
    18
176
     1
 90
       50
176
     1
 90
        3
176
     1
 62
     5
420
      255
176
     1
290
     0
176
     1
 90
       50
176
     1
 90
       50
176
     1
 90
       50
176
     1
290
     0
176
     1
 90
       50
176
     1
 62
   256
176
     0
 40
1.0
176
     0
 90
        2
176
     1
  1
strokes_ogs.tif
176
     1
290
     0
176
     1
 40
1.0
176
     1
 40
1.0
176
     1
1001
ACAD
1000
AcDbSavedByObjectVersion
1070
     0
  0
VISUALSTYLE
  5
2D
102
{ACAD_REACTORS
330
2A
102
}
330
2A
100
AcDbVisualStyle
  2
Gouraud
 70
     2
177
     3
291
     1
 70
    58
 90
        2
176
     1
 90
        2
176
     1
 90
        1
176
     1
 90
        2
176
     1
 40
0.6
176
     1
 40
30.0
176
     1
 62
     7
420
 16777215
176
     1
 90
        0
176
     1
 90
        0
176
     1
 62
     7
176
     1
 62
   257
176
     1
 90
        1
176
     1
 90
        1
176
     1
 40
1.0
176
     1
 90
        0
176
     1
 62
     7
176
     1
 40
1.0
176
     1
 90
        1
176
     1
 90
        6
176
     1
 90
        2
176
     1
 62
     7
176
     1
 90
        5
176
     1
 90
        0
176
     1
 90
        0
176
     1
290
     0
176
     1
 90
       13
176
     1
 40
0.0
176
     1
 90
        0
176
     1
290
     0
176
     1
290
     1
176
     1
290
     1
176
     1
290
     0
176
     1
290
     0
176
     1
290
     0
176
     1
290
     0
176
     1
290
     0
176
     1
290
     0
176
     1
 90
       50
176
     1
 40
0.0
176
     1
 40
1.0
176
     1
 90
        0
176
     1
 62
    18
176
     1
 90
       50
176
     1
 90
        3
176
     1
 62
     5
420
      255
176
     1
290
     0
176
     1
 90
       50
176
     1
 90
       50
176
     1
 90
       50
176
     1
290
     0
176
     1
 90
       50
176
     1
 62
   256
176
     0
 40
1.0
176
     0
 90
        2
176
     1
  1
strokes_ogs.tif
176
     1
290
     0
176
     1
 40
1.0
176
     1
 40
1.0
176
     1
1001
ACAD
1000
AcDbSavedByObjectVersion
1070
     0
  0
VISUALSTYLE
  5
2E
102
{ACAD_REACTORS
330
2A
102
}
330
2A
100
AcDbVisualStyle
  2
GouraudWithEdges
 70
     3
177
     3
291
     1
 70
    58
 90
        2
176
     1
 90
        2
176
     1
 90
        1
176
     1
 90
        2
176
     1
 40
0.6
176
     1
 40
30.0
176
     1
 62
     7
420
 16777215
176
     1
 90
        1
176
     1
 90
        0
176
     1
 62
     7
176
     1
 62
   257
176
     1
 90
        1
176
     1
 90
        1
176
     1
 40
1.0
176
     1
 90
        0
176
     1
 62
   257
176
     1
 40
1.0
176
     1
 90
        1
176
     1
 90
        6
176
     1
 90
        2
176
     1
 62
     7
176
     1
 90
        5
176
     1
 90
        0
176
     1
 90
        0
176
     1
290
     0
176
     1
 90
       13
176
     1
 40
0.0
176
     1
 90
        0
176
     1
290
     0
176
     1
290
     1
176
     1
290
     1
176
     1
290
     0
176
     1
290
     0
176
     1
290
     0
176
     1
290
     0
176
     1
290
     0
176
     1
290
     0
176
     1
 90
       50
176
     1
 40
0.0
176
     1
 40
1.0
176
     1
 90
        0
176
     1
 62
    18
176
     1
 90
       50
176
     1
 90
        3
176
     1
 62
     5
420
      255
176
     1
290
     0
176
     1
 90
       50
176
     1
 90
       50
176
     1
 90
       50
176
     1
290
     0
176
     1
 90
       50
176
     1
 62
   256
176
     0
 40
1.0
176
     0
 90
        2
176
     1
  1
strokes_ogs.tif
176
     1
290
     0
176
     1
 40
1.0
176
     1
 40
1.0
176
     1
1001
ACAD
1000
AcDbSavedByObjectVersion
1070
     0
  0
VISUALSTYLE
  5
31
102
{ACAD_REACTORS
330
2A
102
}
330
2A
100
AcDbVisualStyle
  2
Hidden
 70
     6
177
     3
291
     0
 70
    58
 90
        1
176
     1
 90
        2
176
     1
 90
        2
176
     1
 90
        0
176
     1
 40
0.6
176
     1
 40
30.0
176
     1
 62
     7
420
 16777215
176
     1
 90
        2
176
     1
 90
        2
176
     1
 62
     7
176
     1
 62
   257
176
     1
 90
        2
176
     1
 90
        1
176
     1
 40
40.0
176
     1
 90
        0
176
     1
 62
   257
176
     1
 40
1.0
176
     1
 90
        1
176
     1
 90
        6
176
     1
 90
        2
176
     1
 62
     7
176
     1
 90
        3
176
     1
 90
        0
176
     1
 90
        0
176
     1
290
     0
176
     1
 90
        1
176
     1
 40
0.0
176
     1
 90
        0
176
     1
290
     0
176
     1
290
     1
176
     1
290
     1
176
     1
290
     0
176
     1
290
     0
176
     1
290
     0
176
     1
290
     0
176
     1
290
     0
176
     1
290
     0
176
     1
 90
       50
176
     1
 40
0.0
176
     1
 40
1.0
176
     1
 90
        0
176
     1
 62
    18
176
     1
 90
       50
176
     1
 90
        3
176
     1
 62
     5
420
      255
176
     1
290
     0
176
     1
 90
       50
176
     1
 90
       50
176
     1
 90
       50
176
     1
290
     0
176
     1
 90
       50
176
     1
 62
   256
176
     0
 40
1.0
176
     0
 90
        2
176
     1
  1
strokes_ogs.tif
176
     1
290
     0
176
     1
 40
1.0
176
     1
 40
1.0
176
     1
1001
ACAD
1000
AcDbSavedByObjectVersion
1070
     0
  0
VISUALSTYLE
  5
3B
102
{ACAD_REACTORS
330
2A
102
}
330
2A
100
AcDbVisualStyle
  2
JitterOff
 70
    20
177
     3
291
     1
 70
    58
 90
        2
176
     0
 90
        2
176
     0
 90
        0
176
     0
 90
        0
176
     0
 40
0.6
176
     0
 40
30.0
176
     0
 62
     7
420
 16777215
176
     0
 90
        1
176
     0
 90
        4
176
     0
 62
     7
176
     0
 62
   257
176
     0
 90
        1
176
     0
 90
        1
176
     0
 40
1.0
176
     0
 90
       10
176
     2
 62
     7
176
     0
 40
1.0
176
     0
 90
        1
176
     0
 90
        6
176
     0
 90
        2
176
     0
 62
     7
176
     0
 90
        5
176
     0
 90
        0
176
     0
 90
        0
176
     0
290
     0
176
     0
 90
        1
176
     0
 40
0.0
176
     0
 90
        0
176
     0
290
     0
176
     0
290
     1
176
     0
290
     1
176
     0
290
     0
176
     0
290
     0
176
     0
290
     0
176
     0
290
     0
176
     0
290
     0
176
     0
290
     0
176
     0
 90
       50
176
     0
 40
0.0
176
     0
 40
1.0
176
     0
 90
        0
176
     0
 62
    18
176
     0
 90
       50
176
     0
 90
        3
176
     0
 62
     5
420
      255
176
     0
290
     0
176
     0
 90
       50
176
     0
 90
       50
176
     0
 90
       50
176
     0
290
     0
176
     0
 90
       50
176
     0
 62
   256
176
     0
 40
1.0
176
     0
 90
        2
176
     0
  1
strokes_ogs.tif
176
     0
290
     0
176
     0
 40
1.0
176
     0
 40
1.0
176
     0
1001
ACAD
1000
AcDbSavedByObjectVersion
1070
     0
  0
VISUALSTYLE
  5
38
102
{ACAD_REACTORS
330
2A
102
}
330
2A
100
AcDbVisualStyle
  2
Linepattern
 70
    14
177
     3
291
     1
 70
    58
 90
        2
176
     1
 90
        2
176
     1
 90
        0
176
     1
 90
        0
176
     1
 40
0.6
176
     1
 40
30.0
176
     1
 62
     7
420
 16777215
176
     1
 90
        1
176
     1
 90
        4
176
     1
 62
     7
176
     1
 62
   257
176
     1
 90
        7
176
     1
 90
        7
176
     1
 40
1.0
176
     1
 90
        8
176
     1
 62
     7
176
     1
 40
1.0
176
     1
 90
        1
176
     1
 90
        6
176
     1
 90
        2
176
     1
 62
     7
176
     1
 90
        5
176
     1
 90
        0
176
     1
 90
        0
176
     1
290
     0
176
     1
 90
        1
176
     1
 40
0.0
176
     1
 90
        0
176
     1
290
     0
176
     1
290
     1
176
     1
290
     1
176
     1
290
     0
176
     1
290
     0
176
     1
290
     0
176
     1
290
     0
176
     1
290
     0
176
     1
290
     0
176
     1
 90
       50
176
     1
 40
0.0
176
     1
 40
1.0
176
     1
 90
        0
176
     1
 62
    18
176
     1
 90
       50
176
     1
 90
        3
176
     1
 62
     5
420
      255
176
     1
290
     0
176
     1
 90
       50
176
     1
 90
       50
176
     1
 90
       50
176
     1
290
     0
176
     1
 90
       50
176
     1
 62
   256
176
     0
 40
1.0
176
     0
 90
        2
176
     1
  1
strokes_ogs.tif
176
     1
290
     0
176
     1
 40
1.0
176
     1
 40
1.0
176
     1
1001
ACAD
1000
AcDbSavedByObjectVersion
1070
     0
  0
VISUALSTYLE
  5
3C
102
{ACAD_REACTORS
330
2A
102
}
330
2A
100
AcDbVisualStyle
  2
OverhangOff
 70
    21
177
     3
291
     1
 70
    58
 90
        2
176
     0
 90
        2
176
     0
 90
        0
176
     0
 90
        0
176
     0
 40
0.6
176
     0
 40
30.0
176
     0
 62
     7
420
 16777215
176
     0
 90
        1
176
     0
 90
        4
176
     0
 62
     7
176
     0
 62
   257
176
     0
 90
        1
176
     0
 90
        1
176
     0
 40
1.0
176
     0
 90
        9
176
     2
 62
     7
176
     0
 40
1.0
176
     0
 90
        1
176
     0
 90
        6
176
     0
 90
        2
176
     0
 62
     7
176
     0
 90
        5
176
     0
 90
        0
176
     0
 90
        0
176
     0
290
     0
176
     0
 90
        1
176
     0
 40
0.0
176
     0
 90
        0
176
     0
290
     0
176
     0
290
     1
176
     0
290
     1
176
     0
290
     0
176
     0
290
     0
176
     0
290
     0
176
     0
290
     0
176
     0
290
     0
176
     0
290
     0
176
     0
 90
       50
176
     0
 40
0.0
176
     0
 40
1.0
176
     0
 90
        0
176
     0
 62
    18
176
     0
 90
       50
176
     0
 90
        3
176
     0
 62
     5
420
      255
176
     0
290
     0
176
     0
 90
       50
176
     0
 90
       50
176
     0
 90
       50
176
     0
290
     0
176
     0
 90
       50
176
     0
 62
   256
176
     0
 40
1.0
176
     0
 90
        2
176
     0
  1
strokes_ogs.tif
176
     0
290
     0
176
     0
 40
1.0
176
     0
 40
1.0
176
     0
1001
ACAD
1000
AcDbSavedByObjectVersion
1070
     0
  0
VISUALSTYLE
  5
33
102
{ACAD_REACTORS
330
2A
102
}
330
2A
100
AcDbVisualStyle
  2
Realistic
 70
     8
177
     3
291
     0
 70
    58
 90
        2
176
     1
 90
        3
176
     1
 90
        0
176
     1
 90
        2
176
     1
 40
0.6
176
     1
 40
30.0
176
     1
 62
     7
420
 16777215
176
     1
 90
        0
176
     1
 90
        0
176
     1
 62
     7
176
     1
 62
   257
176
     1
 90
        1
176
     1
 90
        1
176
     1
 40
1.0
176
     1
 90
        8
176
     1
 62
   257
176
     1
 40
1.0
176
     1
 90
        1
176
     1
 90
        6
176
     1
 90
        2
176
     1
 62
     7
176
     1
 90
        3
176
     1
 90
        0
176
     1
 90
        0
176
     1
290
     0
176
     1
 90
       13
176
     1
 40
0.0
176
     1
 90
        0
176
     1
290
     0
176
     1
290
     1
176
     1
290
     1
176
     1
290
     0
176
     1
290
     0
176
     1
290
     0
176
     1
290
     0
176
     1
290
     0
176
     1
290
     0
176
     1
 90
       50
176
     1
 40
0.0
176
     1
 40
1.0
176
     1
 90
        0
176
     1
 62
    18
176
     1
 90
       50
176
     1
 90
        3
176
     1
 62
     5
420
      255
176
     1
290
     0
176
     1
 90
       50
176
     1
 90
       50
176
     1
 90
       50
176
     1
290
     0
176
     1
 90
       50
176
     1
 62
   256
176
     0
 40
1.0
176
     0
 90
        2
176
     1
  1
strokes_ogs.tif
176
     1
290
     0
176
     1
 40
1.0
176
     1
 40
1.0
176
     1
1001
ACAD
1000
AcDbSavedByObjectVersion
1070
     0
  0
VISUALSTYLE
  5
42
102
{ACAD_REACTORS
330
2A
102
}
330
2A
100
AcDbVisualStyle
  2
Shaded
 70
    27
177
     3
291
     0
 70
    58
 90
        2
176
     1
 90
        2
176
     1
 90
        1
176
     1
 90
        2
176
     1
 40
0.6
176
     1
 40
30.0
176
     1
 62
     7
420
 16777215
176
     1
 90
        0
176
     1
 90
        4
176
     1
 62
     7
176
     1
 62
   257
176
     1
 90
        1
176
     1
 90
        1
176
     1
 40
1.0
176
     1
 90
        8
176
     1
 62
   257
176
     1
 40
1.0
176
     1
 90
        1
176
     1
 90
        6
176
     1
 90
        2
176
     1
 62
     8
420
  7895160
176
     1
 90
        3
176
     1
 90
        0
176
     1
 90
        0
176
     1
290
     0
176
     1
 90
        5
176
     1
 40
0.0
176
     1
 90
        0
176
     1
290
     0
176
     1
290
     1
176
     1
290
     1
176
     1
290
     0
176
     1
290
     0
176
     1
290
     0
176
     1
290
     0
176
     1
290
     0
176
     1
290
     0
176
     1
 90
       50
176
     1
 40
0.0
176
     1
 40
1.0
176
     1
 90
        0
176
     1
 62
    18
176
     1
 90
       50
176
     1
 90
        3
176
     1
 62
     5
420
      255
176
     1
290
     0
176
     1
 90
       50
176
     1
 90
       50
176
     1
 90
       50
176
     1
290
     0
176
     1
 90
       50
176
     1
 62
   256
176
     0
 40
1.0
176
     0
 90
        2
176
     1
  1
strokes_ogs.tif
176
     1
290
     0
176
     1
 40
1.0
176
     1
 40
1.0
176
     1
1001
ACAD
1000
AcDbSavedByObjectVersion
1070
     0
  0
VISUALSTYLE
  5
41
102
{ACAD_REACTORS
330
2A
102
}
330
2A
100
AcDbVisualStyle
  2
Shaded with edges
 70
    26
177
     3
291
     0
 70
    58
 90
        2
176
     1
 90
        2
176
     1
 90
        1
176
     1
 90
        2
176
     1
 40
0.6
176
     1
 40
30.0
176
     1
 62
     7
420
 16777215
176
     1
 90
        1
176
     1
 90
       10
176
     1
 62
     7
176
     1
 62
   257
176
     1
 90
        2
176
     1
 90
        1
176
     1
 40
1.0
176
     1
 90
        8
176
     1
 62
   257
176
     1
 40
1.0
176
     1
 90
        1
176
     1
 90
        6
176
     1
 90
        2
176
     1
 62
     7
176
     1
 90
        3
176
     1
 90
        0
176
     1
 90
        0
176
     1
290
     0
176
     1
 90
        5
176
     1
 40
0.0
176
     1
 90
        0
176
     1
290
     0
176
     1
290
     1
176
     1
290
     1
176
     1
290
     0
176
     1
290
     0
176
     1
290
     0
176
     1
290
     0
176
     1
290
     0
176
     1
290
     0
176
     1
 90
       50
176
     1
 40
0.0
176
     1
 40
1.0
176
     1
 90
        0
176
     1
 62
    18
176
     1
 90
       50
176
     1
 90
        3
176
     1
 62
     5
420
      255
176
     1
290
     0
176
     1
 90
       50
176
     1
 90
       50
176
     1
 90
       50
176
     1
290
     0
176
     1
 90
       50
176
     1
 62
   256
176
     0
 40
1.0
176
     0
 90
        2
176
     1
  1
strokes_ogs.tif
176
     1
290
     0
176
     1
 40
1.0
176
     1
 40
1.0
176
     1
1001
ACAD
1000
AcDbSavedByObjectVersion
1070
     0
  0
VISUALSTYLE
  5
3E
102
{ACAD_REACTORS
330
2A
102
}
330
2A
100
AcDbVisualStyle
  2
Shades of Gray
 70
    23
177
     3
291
     0
 70
    58
 90
        2
176
     1
 90
        2
176
     1
 90
        3
176
     1
 90
        0
176
     1
 40
0.6
176
     1
 40
30.0
176
     1
 62
     7
420
 16777215
176
     1
 90
        2
176
     1
 90
        2
176
     1
 62
     7
176
     1
 62
     7
176
     1
 90
        1
176
     1
 90
        1
176
     1
 40
40.0
176
     1
 90
        8
176
     1
 62
     7
176
     1
 40
1.0
176
     1
 90
        1
176
     1
 90
        6
176
     1
 90
        2
176
     1
 62
     7
176
     1
 90
        3
176
     1
 90
        0
176
     1
 90
        0
176
     1
290
     0
176
     1
 90
        1
176
     1
 40
0.0
176
     1
 90
        0
176
     1
290
     0
176
     1
290
     1
176
     1
290
     1
176
     1
290
     0
176
     1
290
     0
176
     1
290
     0
176
     1
290
     0
176
     1
290
     0
176
     1
290
     0
176
     1
 90
       50
176
     1
 40
0.0
176
     1
 40
1.0
176
     1
 90
        0
176
     1
 62
    18
176
     1
 90
       50
176
     1
 90
        3
176
     1
 62
     5
420
      255
176
     1
290
     0
176
     1
 90
       50
176
     1
 90
       50
176
     1
 90
       50
176
     1
290
     0
176
     1
 90
       50
176
     1
 62
   256
176
     0
 40
1.0
176
     0
 90
        2
176
     1
  1
strokes_ogs.tif
176
     1
290
     0
176
     1
 40
1.0
176
     1
 40
1.0
176
     1
1001
ACAD
1000
AcDbSavedByObjectVersion
1070
     0
  0
VISUALSTYLE
  5
3F
102
{ACAD_REACTORS
330
2A
102
}
330
2A
100
AcDbVisualStyle
  2
Sketchy
 70
    24
177
     3
291
     0
 70
    58
 90
        1
176
     1
 90
        2
176
     1
 90
        2
176
     1
 90
        0
176
     1
 40
0.6
176
     1
 40
30.0
176
     1
 62
     7
420
 16777215
176
     1
 90
        2
176
     1
 90
        2
176
     1
 62
     7
176
     1
 62
     7
176
     1
 90
        1
176
     1
 90
        1
176
     1
 40
40.0
176
     1
 90
       11
176
     1
 62
     7
176
     1
 40
1.0
176
     1
 90
        1
176
     1
 90
        6
176
     1
 90
        2
176
     1
 62
     7
176
     1
 90
        6
176
     1
 90
        0
176
     1
 90
        0
176
     1
290
     0
176
     1
 90
        1
176
     1
 40
0.0
176
     1
 90
        0
176
     1
290
     0
176
     1
290
     1
176
     1
290
     1
176
     1
290
     0
176
     1
290
     0
176
     1
290
     0
176
     1
290
     0
176
     1
290
     0
176
     1
290
     0
176
     1
 90
       50
176
     1
 40
0.0
176
     1
 40
1.0
176
     1
 90
        0
176
     1
 62
    18
176
     1
 90
       50
176
     1
 90
        3
176
     1
 62
     5
420
      255
176
     1
290
     0
176
     1
 90
       50
176
     1
 90
       50
176
     1
 90
       50
176
     1
290
     0
176
     1
 90
       50
176
     1
 62
   256
176
     0
 40
1.0
176
     0
 90
        2
176
     1
  1
strokes_ogs.tif
176
     1
290
     0
176
     1
 40
1.0
176
     1
 40
1.0
176
     1
1001
ACAD
1000
AcDbSavedByObjectVersion
1070
     0
  0
VISUALSTYLE
  5
37
102
{ACAD_REACTORS
330
2A
102
}
330
2A
100
AcDbVisualStyle
  2
Thicken
 70
    13
177
     3
291
     1
 70
    58
 90
        2
176
     1
 90
        2
176
     1
 90
        0
176
     1
 90
        0
176
     1
 40
0.6
176
     1
 40
30.0
176
     1
 62
     7
420
 16777215
176
     1
 90
        1
176
     1
 90
        4
176
     1
 62
     7
176
     1
 62
   257
176
     1
 90
        1
176
     1
 90
        1
176
     1
 40
1.0
176
     1
 90
       12
176
     1
 62
     7
176
     1
 40
1.0
176
     1
 90
        1
176
     1
 90
        6
176
     1
 90
        2
176
     1
 62
     7
176
     1
 90
        5
176
     1
 90
        0
176
     1
 90
        0
176
     1
290
     0
176
     1
 90
        1
176
     1
 40
0.0
176
     1
 90
        0
176
     1
290
     0
176
     1
290
     1
176
     1
290
     1
176
     1
290
     0
176
     1
290
     0
176
     1
290
     0
176
     1
290
     0
176
     1
290
     0
176
     1
290
     0
176
     1
 90
       50
176
     1
 40
0.0
176
     1
 40
1.0
176
     1
 90
        0
176
     1
 62
    18
176
     1
 90
       50
176
     1
 90
        3
176
     1
 62
     5
420
      255
176
     1
290
     0
176
     1
 90
       50
176
     1
 90
       50
176
     1
 90
       50
176
     1
290
     0
176
     1
 90
       50
176
     1
 62
   256
176
     0
 40
1.0
176
     0
 90
        2
176
     1
  1
strokes_ogs.tif
176
     1
290
     0
176
     1
 40
1.0
176
     1
 40
1.0
176
     1
1001
ACAD
1000
AcDbSavedByObjectVersion
1070
     0
  0
VISUALSTYLE
  5
30
102
{ACAD_REACTORS
330
2A
102
}
330
2A
100
AcDbVisualStyle
  2
Wireframe
 70
     5
177
     3
291
     0
 70
    58
 90
        0
176
     1
 90
        2
176
     1
 90
        0
176
     1
 90
        0
176
     1
 40
0.6
176
     1
 40
30.0
176
     1
 62
     7
420
 16777215
176
     1
 90
        1
176
     1
 90
        4
176
     1
 62
     7
176
     1
 62
   257
176
     1
 90
        1
176
     1
 90
        1
176
     1
 40
1.0
176
     1
 90
        0
176
     1
 62
   257
176
     1
 40
1.0
176
     1
 90
        1
176
     1
 90
        6
176
     1
 90
        2
176
     1
 62
     7
176
     1
 90
        3
176
     1
 90
        0
176
     1
 90
        0
176
     1
290
     0
176
     1
 90
        1
176
     1
 40
0.0
176
     1
 90
        0
176
     1
290
     0
176
     1
290
     1
176
     1
290
     1
176
     1
290
     0
176
     1
290
     0
176
     1
290
     0
176
     1
290
     0
176
     1
290
     0
176
     1
290
     0
176
     1
 90
       50
176
     1
 40
0.0
176
     1
 40
1.0
176
     1
 90
        0
176
     1
 62
    18
176
     1
 90
       50
176
     1
 90
        3
176
     1
 62
     5
420
      255
176
     1
290
     0
176
     1
 90
       50
176
     1
 90
       50
176
     1
 90
       50
176
     1
290
     0
176
     1
 90
       50
176
     1
 62
   256
176
     0
 40
1.0
176
     0
 90
        2
176
     1
  1
strokes_ogs.tif
176
     1
290
     0
176
     1
 40
1.0
176
     1
 40
1.0
176
     1
1001
ACAD
1000
AcDbSavedByObjectVersion
1070
     0
  0
VISUALSTYLE
  5
40
102
{ACAD_REACTORS
330
2A
102
}
330
2A
100
AcDbVisualStyle
  2
X-Ray
 70
    25
177
     3
291
     0
 70
    58
 90
        2
176
     1
 90
        2
176
     1
 90
        1
176
     1
 90
        1
176
     1
 40
0.5
176
     1
 40
30.0
176
     1
 62
     7
420
 16777215
176
     1
 90
        1
176
     1
 90
        0
176
     1
 62
     7
176
     1
 62
   257
176
     1
 90
        1
176
     1
 90
        1
176
     1
 40
1.0
176
     1
 90
        8
176
     1
 62
     7
176
     1
 40
1.0
176
     1
 90
        1
176
     1
 90
        6
176
     1
 90
        2
176
     1
 62
     7
176
     1
 90
        3
176
     1
 90
        0
176
     1
 90
        0
176
     1
290
     0
176
     1
 90
       13
176
     1
 40
0.0
176
     1
 90
        0
176
     1
290
     0
176
     1
290
     1
176
     1
290
     1
176
     1
290
     0
176
     1
290
     0
176
     1
290
     0
176
     1
290
     0
176
     1
290
     0
176
     1
290
     0
176
     1
 90
       50
176
     1
 40
0.0
176
     1
 40
1.0
176
     1
 90
        0
176
     1
 62
    18
176
     1
 90
       50
176
     1
 90
        3
176
     1
 62
     5
420
      255
176
     1
290
     0
176
     1
 90
       50
176
     1
 90
       50
176
     1
 90
       50
176
     1
290
     0
176
     1
 90
       50
176
     1
 62
   256
176
     0
 40
1.0
176
     0
 90
        2
176
     1
  1
strokes_ogs.tif
176
     1
290
     0
176
     1
 40
1.0
176
     1
 40
1.0
176
     1
1001
ACAD
1000
AcDbSavedByObjectVersion
1070
     0
  0
DICTIONARYVAR
  5
108
102
{ACAD_REACTORS
330
107
102
}
330
107
100
DictionaryVariables
280
     0
  1
1:1
  0
DICTIONARYVAR
  5
110
102
{ACAD_REACTORS
330
107
102
}
330
107
100
DictionaryVariables
280
     0
  1
3.500000
  0
DICTIONARYVAR
  5
111
102
{ACAD_REACTORS
330
107
102
}
330
107
100
DictionaryVariables
280
     0
  1
acadiso.lin
  0
DICTIONARYVAR
  5
10D
102
{ACAD_REACTORS
330
107
102
}
330
107
100
DictionaryVariables
280
     0
  1
STANDARD
  0
DICTIONARYVAR
  5
10C
102
{ACAD_REACTORS
330
107
102
}
330
107
100
DictionaryVariables
280
     0
  1
STANDARD
  0
DICTIONARYVAR
  5
485
102
{ACAD_REACTORS
330
107
102
}
330
107
100
DictionaryVariables
280
     0
  1
Metric50
  0
DICTIONARYVAR
  5
486
102
{ACAD_REACTORS
330
107
102
}
330
107
100
DictionaryVariables
280
     0
  1
Metric50
  0
DICTIONARY
  5
14BC
102
{ACAD_REACTORS
330
14BA
102
}
330
14BA
100
AcDbDictionary
281
     1
  0
DICTIONARY
  5
14BB
102
{ACAD_REACTORS
330
14BA
102
}
330
14BA
100
AcDbDictionary
281
     1
  3
2485817815808
350
14B8
  3
2485817815824
350
14B9
  3
2486616240336
350
14B5
  3
2486616240352
350
14B6
  3
2486616240368
350
14B7
  0
DICTIONARY
  5
14BF
330
116
100
AcDbDictionary
280
     1
281
     1
  3
ACAD_XREC_ROUNDTRIP
360
14C0
  0
DICTIONARY
  5
14BD
330
115
100
AcDbDictionary
280
     1
281
     1
  3
ACAD_XREC_ROUNDTRIP
360
14BE
  0
DICTIONARY
  5
109
330
6A
100
AcDbDictionary
280
     1
281
     1
  3
ACAD_ROUNDTRIP_2008_TABLESTYLE_CELLSTYLEMAP
360
14B3
  0
XRECORD
  5
14B8
102
{ACAD_REACTORS
330
14BB
102
}
330
14BB
100
AcDbXrecord
280
     1
  1
AcDbDs::IndexedPropertySchema
  2
AcDs:Indexable
280
     1
 91
        0
  0
XRECORD
  5
14B9
102
{ACAD_REACTORS
330
14BB
102
}
330
14BB
100
AcDbXrecord
280
     1
  1
AcDbDs::HandleAttributeSchema
  2
AcDbDs::HandleAttribute
280
     7
 91
        1
284
     1
  0
XRECORD
  5
14B5
102
{ACAD_REACTORS
330
14BB
102
}
330
14BB
100
AcDbXrecord
280
     1
  1
AcDb_Thumbnail_Schema
102
{ATTRRECORD
341
14B6
  2
AcDbDs::TreatedAsObjectData
280
     1
291
     1
102
ATTRRECORD}
102
{ATTRRECORD
341
14B7
  2
AcDbDs::Legacy
280
     1
291
     1
102
ATTRRECORD}
  2
AcDbDs::ID
280
    10
 91
        8
102
{ATTRRECORD
341
14B8
  2
AcDs:Indexable
280
     1
291
     1
102
ATTRRECORD}
102
{ATTRRECORD
341
14B9
  2
AcDbDs::HandleAttribute
280
     7
282
     1
102
ATTRRECORD}
  2
Thumbnail_Data
280
    15
 91
        0
  0
XRECORD
  5
14B6
102
{ACAD_REACTORS
330
14BB
102
}
330
14BB
100
AcDbXrecord
280
     1
  1
AcDbDs::TreatedAsObjectDataSchema
  2
AcDbDs::TreatedAsObjectData
280
     1
 91
        0
  0
XRECORD
  5
14B7
102
{ACAD_REACTORS
330
14BB
102
}
330
14BB
100
AcDbXrecord
280
     1
  1
AcDbDs::LegacySchema
  2
AcDbDs::Legacy
280
     1
 91
        0
  0
XRECORD
  5
14C0
102
{ACAD_REACTORS
330
14BF
102
}
330
14BF
100
AcDbXrecord
280
     1
102
DISPLAYNAME
  1
Metric50
102
FLAGS
 90
        0
  0
XRECORD
  5
14BE
102
{ACAD_REACTORS
330
14BD
102
}
330
14BD
100
AcDbXrecord
280
     1
102
DISPLAYNAME
  1
Metric50
102
FLAGS
 90
        0
  0
CELLSTYLEMAP
  5
14B3
102
{ACAD_REACTORS
330
109
102
}
330
109
100
AcDbCellStyleMap
 90
        3
300
CELLSTYLE
  1
TABLEFORMAT_BEGIN
 90
        5
170
     1
 91
        0
 92
    32768
 62
   257
 93
        1
300
CONTENTFORMAT
  1
CONTENTFORMAT_BEGIN
 90
        0
 91
        0
 92
        4
 93
        0
300

 40
0.0
140
1.0
 94
        5
 62
     0
340
11
144
6.0
309
CONTENTFORMAT_END
171
     1
301
MARGIN
  1
CELLMARGIN_BEGIN
 40
1.5
 40
1.5
 40
1.5
 40
1.5
 40
0.18
 40
0.18
309
CELLMARGIN_END
 94
        6
 95
        1
302
GRIDFORMAT
  1
GRIDFORMAT_BEGIN
 90
        0
 91
        1
 62
     0
 92
       -2
340
14
 93
        0
 40
0.045
309
GRIDFORMAT_END
 95
        2
302
GRIDFORMAT
  1
GRIDFORMAT_BEGIN
 90
        0
 91
        1
 62
     0
 92
       -2
340
14
 93
        0
 40
0.045
309
GRIDFORMAT_END
 95
        4
302
GRIDFORMAT
  1
GRIDFORMAT_BEGIN
 90
        0
 91
        1
 62
     0
 92
       -2
340
14
 93
        0
 40
0.045
309
GRIDFORMAT_END
 95
        8
302
GRIDFORMAT
  1
GRIDFORMAT_BEGIN
 90
        0
 91
        1
 62
     0
 92
       -2
340
14
 93
        0
 40
0.045
309
GRIDFORMAT_END
 95
       16
302
GRIDFORMAT
  1
GRIDFORMAT_BEGIN
 90
        0
 91
        1
 62
     0
 92
       -2
340
14
 93
        0
 40
0.045
309
GRIDFORMAT_END
 95
       32
302
GRIDFORMAT
  1
GRIDFORMAT_BEGIN
 90
        0
 91
        1
 62
     0
 92
       -2
340
14
 93
        0
 40
0.045
309
GRIDFORMAT_END
309
TABLEFORMAT_END
  1
CELLSTYLE_BEGIN
 90
        1
 91
        1
300
_TITLE
309
CELLSTYLE_END
300
CELLSTYLE
  1
TABLEFORMAT_BEGIN
 90
        5
170
     1
 91
        0
 92
        0
 62
   257
 93
        1
300
CONTENTFORMAT
  1
CONTENTFORMAT_BEGIN
 90
        0
 91
        0
 92
        4
 93
        0
300

 40
0.0
140
1.0
 94
        5
 62
     0
340
11
144
4.5
309
CONTENTFORMAT_END
171
     1
301
MARGIN
  1
CELLMARGIN_BEGIN
 40
1.5
 40
1.5
 40
1.5
 40
1.5
 40
0.18
 40
0.18
309
CELLMARGIN_END
 94
        6
 95
        1
302
GRIDFORMAT
  1
GRIDFORMAT_BEGIN
 90
        0
 91
        1
 62
     0
 92
       -2
340
14
 93
        0
 40
0.045
309
GRIDFORMAT_END
 95
        2
302
GRIDFORMAT
  1
GRIDFORMAT_BEGIN
 90
        0
 91
        1
 62
     0
 92
       -2
340
14
 93
        0
 40
0.045
309
GRIDFORMAT_END
 95
        4
302
GRIDFORMAT
  1
GRIDFORMAT_BEGIN
 90
        0
 91
        1
 62
     0
 92
       -2
340
14
 93
        0
 40
0.045
309
GRIDFORMAT_END
 95
        8
302
GRIDFORMAT
  1
GRIDFORMAT_BEGIN
 90
        0
 91
        1
 62
     0
 92
       -2
340
14
 93
        0
 40
0.045
309
GRIDFORMAT_END
 95
       16
302
GRIDFORMAT
  1
GRIDFORMAT_BEGIN
 90
        0
 91
        1
 62
     0
 92
       -2
340
14
 93
        0
 40
0.045
309
GRIDFORMAT_END
 95
       32
302
GRIDFORMAT
  1
GRIDFORMAT_BEGIN
 90
        0
 91
        1
 62
     0
 92
       -2
340
14
 93
        0
 40
0.045
309
GRIDFORMAT_END
309
TABLEFORMAT_END
  1
CELLSTYLE_BEGIN
 90
        2
 91
        1
300
_HEADER
309
CELLSTYLE_END
300
CELLSTYLE
  1
TABLEFORMAT_BEGIN
 90
        5
170
     1
 91
        0
 92
        0
 62
   257
 93
        1
300
CONTENTFORMAT
  1
CONTENTFORMAT_BEGIN
 90
        0
 91
        0
 92
        4
 93
        0
300

 40
0.0
140
1.0
 94
        2
 62
     0
340
11
144
4.5
309
CONTENTFORMAT_END
171
     1
301
MARGIN
  1
CELLMARGIN_BEGIN
 40
1.5
 40
1.5
 40
1.5
 40
1.5
 40
0.18
 40
0.18
309
CELLMARGIN_END
 94
        6
 95
        1
302
GRIDFORMAT
  1
GRIDFORMAT_BEGIN
 90
        0
 91
        1
 62
     0
 92
       -2
340
14
 93
        0
 40
0.045
309
GRIDFORMAT_END
 95
        2
302
GRIDFORMAT
  1
GRIDFORMAT_BEGIN
 90
        0
 91
        1
 62
     0
 92
       -2
340
14
 93
        0
 40
0.045
309
GRIDFORMAT_END
 95
        4
302
GRIDFORMAT
  1
GRIDFORMAT_BEGIN
 90
        0
 91
        1
 62
     0
 92
       -2
340
14
 93
        0
 40
0.045
309
GRIDFORMAT_END
 95
        8
302
GRIDFORMAT
  1
GRIDFORMAT_BEGIN
 90
        0
 91
        1
 62
     0
 92
       -2
340
14
 93
        0
 40
0.045
309
GRIDFORMAT_END
 95
       16
302
GRIDFORMAT
  1
GRIDFORMAT_BEGIN
 90
        0
 91
        1
 62
     0
 92
       -2
340
14
 93
        0
 40
0.045
309
GRIDFORMAT_END
 95
       32
302
GRIDFORMAT
  1
GRIDFORMAT_BEGIN
 90
        0
 91
        1
 62
     0
 92
       -2
340
14
 93
        0
 40
0.045
309
GRIDFORMAT_END
309
TABLEFORMAT_END
  1
CELLSTYLE_BEGIN
 90
        3
 91
        2
300
_DATA
309
CELLSTYLE_END
  0
ENDSEC
  0
SECTION
  2
ACDSDATA
 70
     2
 71
     8
  0
ACDSSCHEMA
 90
        0
  1
AcDb_Thumbnail_Schema
  2
AcDbDs::ID
280
    10
 91
        8
  2
Thumbnail_Data
280
    15
 91
        0
101
ACDSRECORD
 95
        0
 90
        1
  2
AcDbDs::TreatedAsObjectData
280
     1
291
     1
101
ACDSRECORD
 95
        0
 90
        2
  2
AcDbDs::Legacy
280
     1
291
     1
101
ACDSRECORD
  1
AcDbDs::ID
 90
        3
  2
AcDs:Indexable
280
     1
291
     1
101
ACDSRECORD
  1
AcDbDs::ID
 90
        4
  2
AcDbDs::HandleAttribute
280
     7
282
     1
  0
ACDSSCHEMA
 90
        1
  1
AcDbDs::TreatedAsObjectDataSchema
  2
AcDbDs::TreatedAsObjectData
280
     1
 91
        0
  0
ACDSSCHEMA
 90
        2
  1
AcDbDs::LegacySchema
  2
AcDbDs::Legacy
280
     1
 91
        0
  0
ACDSSCHEMA
 90
        3
  1
AcDbDs::IndexedPropertySchema
  2
AcDs:Indexable
280
     1
 91
        0
  0
ACDSSCHEMA
 90
        4
  1
AcDbDs::HandleAttributeSchema
  2
AcDbDs::HandleAttribute
280
     7
 91
        1
284
     1
  0
ACDSRECORD
 90
        0
  2
AcDbDs::ID
280
    10
320
22
  2
Thumbnail_Data
280
    15
 94
     1167
310
89504E470D0A1A0A0000000D49484452000001000000007B0803000000AC3EAEE200000300504C5445FFFFFFFFFFFFFFFFFF0000000000000000000000000000000000000000000000000000330000660000990000CC0000FF0033000033330033660033990033CC0033FF0066000066330066660066990066CC0066FF0099
310
000099330099660099990099CC0099FF00CC0000CC3300CC6600CC9900CCCC00CCFF00FF0000FF3300FF6600FF9900FFCC00FFFF3300003300333300663300993300CC3300FF3333003333333333663333993333CC3333FF3366003366333366663366993366CC3366FF3399003399333399663399993399CC3399FF33CC00
310
33CC3333CC6633CC9933CCCC33CCFF33FF0033FF3333FF6633FF9933FFCC33FFFF6600006600336600666600996600CC6600FF6633006633336633666633996633CC6633FF6666006666336666666666996666CC6666FF6699006699336699666699996699CC6699FF66CC0066CC3366CC6666CC9966CCCC66CCFF66FF0066
310
FF3366FF6666FF9966FFCC66FFFF9900009900339900669900999900CC9900FF9933009933339933669933999933CC9933FF9966009966339966669966999966CC9966FF9999009999339999669999999999CC9999FF99CC0099CC3399CC6699CC9999CCCC99CCFF99FF0099FF3399FF6699FF9999FFCC99FFFFCC0000CC00
310
33CC0066CC0099CC00CCCC00FFCC3300CC3333CC3366CC3399CC33CCCC33FFCC6600CC6633CC6666CC6699CC66CCCC66FFCC9900CC9933CC9966CC9999CC99CCCC99FFCCCC00CCCC33CCCC66CCCC99CCCCCCCCCCFFCCFF00CCFF33CCFF66CCFF99CCFFCCCCFFFFFF0000FF0033FF0066FF0099FF00CCFF00FFFF3300FF3333
310
FF3366FF3399FF33CCFF33FFFF6600FF6633FF6666FF6699FF66CCFF66FFFF9900FF9933FF9966FF9999FF99CCFF99FFFFCC00FFCC33FFCC66FFCC99FFCCCCFFCCFFFFFF00FFFF33FFFF66FFFF99FFFFCCFFFFFF0000000D0D0D1A1A1A2828283535354343435050505D5D5D6B6B6B787878868686939393A1A1A1AEAEAEBB
310
BBBBC9C9C9D6D6D6E4E4E4F1F1F1FFFFFF000000000000000000000000000000000000000000000000000000000000AD4AB4E4000000CF4944415478DAEDDA310EC2400C0440FFFF997E090548244439AE4014DE9982004AE395B17C11550000000000000000F053FDB6B86772FD1B652ED31953FF22819E9B402F3E6574C0
310
6E00951C404F0EA0C30338D51C38023603281D508387407F1FF59303D858857B7207F4D9DDF702A8D1C7A1D52F202180D7FC5B9C869FF76476C0B10B000060D82A7CBC440610BEEBF7C7550784961F1AC1DD23B1A8042EEF224760EC1814C0E55500917B70EC36BCF7171901084000C38760E53E12B008859F850000000000
310
0000000000E05F1EFDC30AACF15B5EFF0000000049454E44AE42608257AD5BFD7901EC6F0920A4069C6A8B371AFD87EDB0F91F78299C7C3C9E3407D2AA4065AF80AF5E9AEA5B04051019C073316406504300916BA036BB02E135203480D0CB800004200001084000C10D81F87EC0D878676884C97E2E000000000000000000
310
C07FFA0184F1DA223CE535400000000049454E44AE426082
  0
ENDSEC
  0
EOF
