  0
SECTION
  2
HEADER
  9
$ACADVER
  1
AC1027
  9
$ACADMAINTVER
 70
   125
  9
$DWGCODEPAGE
  3
ANSI_1252
  9
$LASTSAVEDBY
  1
kaschu
  9
$REQUIREDVERSIONS
160
                 0
  9
$INSBASE
 10
0.0
 20
0.0
 30
0.0
  9
$EXTMIN
 10
141.46342197426
 20
61.7149291295554
 30
0.0
  9
$EXTMAX
 10
3141.523593763995
 20
2036.250313277806
 30
0.0
  9
$LIMMIN
 10
0.0
 20
0.0
  9
$LIMMAX
 10
420.0
 20
297.0
  9
$ORTHOMODE
 70
     0
  9
$REGENMODE
 70
     1
  9
$FILLMODE
 70
     1
  9
$QTEXTMODE
 70
     0
  9
$MIRRTEXT
 70
     1
  9
$LTSCALE
 40
1.0
  9
$ATTMODE
 70
     1
  9
$TEXTSIZE
 40
2.5
  9
$TRACEWID
 40
1.0
  9
$TEXTSTYLE
  7
Standard
  9
$CLAYER
  8
0
  9
$CELTYPE
  6
ByLayer
  9
$CECOLOR
 62
   256
  9
$CELTSCALE
 40
1.0
  9
$DISPSILH
 70
     0
  9
$DIMSCALE
 40
1.0
  9
$DIMASZ
 40
2.5
  9
$DIMEXO
 40
0.625
  9
$DIMDLI
 40
3.75
  9
$DIMRND
 40
0.0
  9
$DIMDLE
 40
0.0
  9
$DIMEXE
 40
1.25
  9
$DIMTP
 40
0.0
  9
$DIMTM
 40
0.0
  9
$DIMTXT
 40
2.5
  9
$DIMCEN
 40
2.5
  9
$DIMTSZ
 40
0.0
  9
$DIMTOL
 70
     0
  9
$DIMLIM
 70
     0
  9
$DIMTIH
 70
     0
  9
$DIMTOH
 70
     0
  9
$DIMSE1
 70
     0
  9
$DIMSE2
 70
     0
  9
$DIMTAD
 70
     1
  9
$DIMZIN
 70
     8
  9
$DIMBLK
  1

  9
$DIMASO
 70
     1
  9
$DIMSHO
 70
     1
  9
$DIMPOST
  1

  9
$DIMAPOST
  1

  9
$DIMALT
 70
     0
  9
$DIMALTD
 70
     3
  9
$DIMALTF
 40
0.03937007874016
  9
$DIMLFAC
 40
1.0
  9
$DIMTOFL
 70
     1
  9
$DIMTVP
 40
0.0
  9
$DIMTIX
 70
     0
  9
$DIMSOXD
 70
     0
  9
$DIMSAH
 70
     0
  9
$DIMBLK1
  1

  9
$DIMBLK2
  1

  9
$DIMSTYLE
  2
ISO-25
  9
$DIMCLRD
 70
     0
  9
$DIMCLRE
 70
     0
  9
$DIMCLRT
 70
     0
  9
$DIMTFAC
 40
1.0
  9
$DIMGAP
 40
0.625
  9
$DIMJUST
 70
     0
  9
$DIMSD1
 70
     0
  9
$DIMSD2
 70
     0
  9
$DIMTOLJ
 70
     0
  9
$DIMTZIN
 70
     8
  9
$DIMALTZ
 70
     0
  9
$DIMALTTZ
 70
     0
  9
$DIMUPT
 70
     0
  9
$DIMDEC
 70
     2
  9
$DIMTDEC
 70
     2
  9
$DIMALTU
 70
     2
  9
$DIMALTTD
 70
     3
  9
$DIMTXSTY
  7
Standard
  9
$DIMAUNIT
 70
     0
  9
$DIMADEC
 70
     0
  9
$DIMALTRND
 40
0.0
  9
$DIMAZIN
 70
     0
  9
$DIMDSEP
 70
    44
  9
$DIMATFIT
 70
     3
  9
$DIMFRAC
 70
     0
  9
$DIMLDRBLK
  1

  9
$DIMLUNIT
 70
     2
  9
$DIMLWD
 70
    -2
  9
$DIMLWE
 70
    -2
  9
$DIMTMOVE
 70
     0
  9
$DIMFXL
 40
1.0
  9
$DIMFXLON
 70
     0
  9
$DIMJOGANG
 40
0.7853981633974483
  9
$DIMTFILL
 70
     0
  9
$DIMTFILLCLR
 70
     0
  9
$DIMARCSYM
 70
     0
  9
$DIMLTYPE
  6

  9
$DIMLTEX1
  6

  9
$DIMLTEX2
  6

  9
$DIMTXTDIRECTION
 70
     0
  9
$LUNITS
 70
     2
  9
$LUPREC
 70
     4
  9
$SKETCHINC
 40
1.0
  9
$FILLETRAD
 40
10.0
  9
$AUNITS
 70
     0
  9
$AUPREC
 70
     0
  9
$MENU
  1
.
  9
$ELEVATION
 40
0.0
  9
$PELEVATION
 40
0.0
  9
$THICKNESS
 40
0.0
  9
$LIMCHECK
 70
     0
  9
$CHAMFERA
 40
0.0
  9
$CHAMFERB
 40
0.0
  9
$CHAMFERC
 40
0.0
  9
$CHAMFERD
 40
0.0
  9
$SKPOLY
 70
     0
  9
$TDCREATE
 40
2459082.501111111
  9
$TDUCREATE
 40
2459082.417789201
  9
$TDUPDATE
 40
2459312.627210648
  9
$TDUUPDATE
 40
2459312.543877315
  9
$TDINDWG
 40
0.0320139005
  9
$TDUSRTIMER
 40
0.0320139005
  9
$USRTIMER
 70
     1
  9
$ANGBASE
 50
0.0
  9
$ANGDIR
 70
     0
  9
$PDMODE
 70
     0
  9
$PDSIZE
 40
0.0
  9
$PLINEWID
 40
0.0
  9
$SPLFRAME
 70
     0
  9
$SPLINETYPE
 70
     6
  9
$SPLINESEGS
 70
     8
  9
$HANDSEED
  5
202D
  9
$SURFTAB1
 70
     6
  9
$SURFTAB2
 70
     6
  9
$SURFTYPE
 70
     6
  9
$SURFU
 70
     6
  9
$SURFV
 70
     6
  9
$UCSBASE
  2

  9
$UCSNAME
  2

  9
$UCSORG
 10
0.0
 20
0.0
 30
0.0
  9
$UCSXDIR
 10
1.0
 20
0.0
 30
0.0
  9
$UCSYDIR
 10
0.0
 20
1.0
 30
0.0
  9
$UCSORTHOREF
  2

  9
$UCSORTHOVIEW
 70
     0
  9
$UCSORGTOP
 10
0.0
 20
0.0
 30
0.0
  9
$UCSORGBOTTOM
 10
0.0
 20
0.0
 30
0.0
  9
$UCSORGLEFT
 10
0.0
 20
0.0
 30
0.0
  9
$UCSORGRIGHT
 10
0.0
 20
0.0
 30
0.0
  9
$UCSORGFRONT
 10
0.0
 20
0.0
 30
0.0
  9
$UCSORGBACK
 10
0.0
 20
0.0
 30
0.0
  9
$PUCSBASE
  2

  9
$PUCSNAME
  2

  9
$PUCSORG
 10
0.0
 20
0.0
 30
0.0
  9
$PUCSXDIR
 10
1.0
 20
0.0
 30
0.0
  9
$PUCSYDIR
 10
0.0
 20
1.0
 30
0.0
  9
$PUCSORTHOREF
  2

  9
$PUCSORTHOVIEW
 70
     0
  9
$PUCSORGTOP
 10
0.0
 20
0.0
 30
0.0
  9
$PUCSORGBOTTOM
 10
0.0
 20
0.0
 30
0.0
  9
$PUCSORGLEFT
 10
0.0
 20
0.0
 30
0.0
  9
$PUCSORGRIGHT
 10
0.0
 20
0.0
 30
0.0
  9
$PUCSORGFRONT
 10
0.0
 20
0.0
 30
0.0
  9
$PUCSORGBACK
 10
0.0
 20
0.0
 30
0.0
  9
$USERI1
 70
     0
  9
$USERI2
 70
     0
  9
$USERI3
 70
     0
  9
$USERI4
 70
     0
  9
$USERI5
 70
     0
  9
$USERR1
 40
0.0
  9
$USERR2
 40
0.0
  9
$USERR3
 40
0.0
  9
$USERR4
 40
0.0
  9
$USERR5
 40
0.0
  9
$WORLDVIEW
 70
     1
  9
$SHADEDGE
 70
     3
  9
$SHADEDIF
 70
    70
  9
$TILEMODE
 70
     1
  9
$MAXACTVP
 70
    64
  9
$PINSBASE
 10
0.0
 20
0.0
 30
0.0
  9
$PLIMCHECK
 70
     0
  9
$PEXTMIN
 10
1.000000000000000E+20
 20
1.000000000000000E+20
 30
1.000000000000000E+20
  9
$PEXTMAX
 10
-1.000000000000000E+20
 20
-1.000000000000000E+20
 30
-1.000000000000000E+20
  9
$PLIMMIN
 10
0.0
 20
0.0
  9
$PLIMMAX
 10
420.0
 20
297.0
  9
$UNITMODE
 70
     0
  9
$VISRETAIN
 70
     1
  9
$PLINEGEN
 70
     0
  9
$PSLTSCALE
 70
     1
  9
$TREEDEPTH
 70
  3020
  9
$CMLSTYLE
  2
Standard
  9
$CMLJUST
 70
     0
  9
$CMLSCALE
 40
20.0
  9
$PROXYGRAPHICS
 70
     1
  9
$MEASUREMENT
 70
     1
  9
$CELWEIGHT
370
    -1
  9
$ENDCAPS
280
     0
  9
$JOINSTYLE
280
     0
  9
$LWDISPLAY
290
     0
  9
$INSUNITS
 70
     5
  9
$HYPERLINKBASE
  1

  9
$STYLESHEET
  1

  9
$XEDIT
290
     1
  9
$CEPSNTYPE
380
     0
  9
$PSTYLEMODE
290
     1
  9
$FINGERPRINTGUID
  2
{921A62D8-B26A-40CB-89FE-00D0C55F98C6}
  9
$VERSIONGUID
  2
{A7A993F1-7DFC-A244-B9E0-3BCA2206410C}
  9
$EXTNAMES
290
     1
  9
$PSVPSCALE
 40
0.0
  9
$OLESTARTUP
290
     0
  9
$SORTENTS
280
   127
  9
$INDEXCTL
280
     0
  9
$HIDETEXT
280
     1
  9
$XCLIPFRAME
280
     2
  9
$HALOGAP
280
     0
  9
$OBSCOLOR
 70
   257
  9
$OBSLTYPE
280
     0
  9
$INTERSECTIONDISPLAY
280
     0
  9
$INTERSECTIONCOLOR
 70
   257
  9
$DIMASSOC
280
     2
  9
$PROJECTNAME
  1

  9
$CAMERADISPLAY
290
     0
  9
$LENSLENGTH
 40
50.0
  9
$CAMERAHEIGHT
 40
0.0
  9
$STEPSPERSEC
 40
2.0
  9
$STEPSIZE
 40
6.0
  9
$3DDWFPREC
 40
2.0
  9
$PSOLWIDTH
 40
5.0
  9
$PSOLHEIGHT
 40
80.0
  9
$LOFTANG1
 40
1.570796326794897
  9
$LOFTANG2
 40
1.570796326794897
  9
$LOFTMAG1
 40
0.0
  9
$LOFTMAG2
 40
0.0
  9
$LOFTPARAM
 70
     7
  9
$LOFTNORMALS
280
     1
  9
$LATITUDE
 40
37.795
  9
$LONGITUDE
 40
-122.394
  9
$NORTHDIRECTION
 40
0.0
  9
$TIMEZONE
 70
 -8000
  9
$LIGHTGLYPHDISPLAY
280
     1
  9
$TILEMODELIGHTSYNCH
280
     1
  9
$CMATERIAL
347
44
  9
$SOLIDHIST
280
     0
  9
$SHOWHIST
280
     1
  9
$DWFFRAME
280
     2
  9
$DGNFRAME
280
     2
  9
$REALWORLDSCALE
290
     1
  9
$INTERFERECOLOR
 62
   256
  9
$INTERFEREOBJVS
345
33
  9
$INTERFEREVPVS
346
30
  9
$CSHADOW
280
     0
  9
$SHADOWPLANELOCATION
 40
0.0
  0
ENDSEC
  0
SECTION
  2
CLASSES
  0
CLASS
  1
ACDBDICTIONARYWDFLT
  2
AcDbDictionaryWithDefault
  3
ObjectDBX Classes
 90
        0
 91
        1
280
     0
281
     0
  0
CLASS
  1
VISUALSTYLE
  2
AcDbVisualStyle
  3
ObjectDBX Classes
 90
     4095
 91
       24
280
     0
281
     0
  0
CLASS
  1
MATERIAL
  2
AcDbMaterial
  3
ObjectDBX Classes
 90
     1153
 91
        3
280
     0
281
     0
  0
CLASS
  1
SCALE
  2
AcDbScale
  3
ObjectDBX Classes
 90
     1153
 91
       33
280
     0
281
     0
  0
CLASS
  1
TABLESTYLE
  2
AcDbTableStyle
  3
ObjectDBX Classes
 90
     4095
 91
        1
280
     0
281
     0
  0
CLASS
  1
MLEADERSTYLE
  2
AcDbMLeaderStyle
  3
ACDB_MLEADERSTYLE_CLASS
 90
     4095
 91
        1
280
     0
281
     0
  0
CLASS
  1
SUN
  2
AcDbSun
  3
SCENEOE
 90
     1153
 91
        1
280
     0
281
     0
  0
CLASS
  1
DICTIONARYVAR
  2
AcDbDictionaryVar
  3
ObjectDBX Classes
 90
        0
 91
        7
280
     0
281
     0
  0
CLASS
  1
CELLSTYLEMAP
  2
AcDbCellStyleMap
  3
ObjectDBX Classes
 90
     1152
 91
        3
280
     0
281
     0
  0
CLASS
  1
ACDBSECTIONVIEWSTYLE
  2
AcDbSectionViewStyle
  3
ObjectDBX Classes
 90
     1025
 91
        1
280
     0
281
     0
  0
CLASS
  1
ACDBDETAILVIEWSTYLE
  2
AcDbDetailViewStyle
  3
ObjectDBX Classes
 90
     1025
 91
        1
280
     0
281
     0
  0
CLASS
  1
DIMASSOC
  2
AcDbDimAssoc
  3
"AcDbDimAssoc|Product Desc:     AcDim ARX App For Dimension|Company:          Autodesk, Inc.|WEB Address:      www.autodesk.com"
 90
        0
 91
        4
280
     0
281
     0
  0
CLASS
  1
SORTENTSTABLE
  2
AcDbSortentsTable
  3
ObjectDBX Classes
 90
        0
 91
        1
280
     0
281
     0
  0
ENDSEC
  0
SECTION
  2
TABLES
  0
TABLE
  2
VPORT
  5
8
330
0
100
AcDbSymbolTable
 70
     1
1001
ACAD
1000
DbSaveVer
1071
      224
  0
VPORT
  5
29
330
8
100
AcDbSymbolTableRecord
100
AcDbViewportTableRecord
  2
*Active
 70
     0
 10
0.0
 20
0.0
 11
1.0
 21
1.0
 12
877.644142709245
 22
1605.717217864885
 13
0.0
 23
0.0
 14
10.0
 24
10.0
 15
10.0
 25
10.0
 16
0.0
 26
0.0
 36
1.0
 17
0.0
 27
0.0
 37
0.0
 40
4637.388625009966
 41
2.078193832599119
 42
50.0
 43
0.0
 44
0.0
 50
0.0
 51
0.0
 71
     0
 72
   100
 73
     1
 74
     3
 75
     0
 76
     0
 77
     0
 78
     0
281
     0
 65
     1
110
0.0
120
0.0
130
0.0
111
1.0
121
0.0
131
0.0
112
0.0
122
1.0
132
0.0
 79
     0
146
0.0
348
2F
 60
     3
 61
     5
292
     1
282
     1
141
0.0
142
0.0
 63
   250
421
  3355443
361
6D
1001
ACAD_NAV_VCDISPLAY
1070
     3
  0
ENDTAB
  0
TABLE
  2
LTYPE
  5
5
330
0
100
AcDbSymbolTable
 70
    11
  0
LTYPE
  5
14
330
5
100
AcDbSymbolTableRecord
100
AcDbLinetypeTableRecord
  2
ByBlock
 70
     0
  3

 72
    65
 73
     0
 40
0.0
  0
LTYPE
  5
15
330
5
100
AcDbSymbolTableRecord
100
AcDbLinetypeTableRecord
  2
ByLayer
 70
     0
  3

 72
    65
 73
     0
 40
0.0
  0
LTYPE
  5
16
330
5
100
AcDbSymbolTableRecord
100
AcDbLinetypeTableRecord
  2
Continuous
 70
     0
  3
Solid line
 72
    65
 73
     0
 40
0.0
  0
LTYPE
  5
6F
330
5
100
AcDbSymbolTableRecord
100
AcDbLinetypeTableRecord
  2
CUSTOM
 70
     0
  3

 72
    65
 73
     0
 40
0.0
  0
LTYPE
  5
70
330
5
100
AcDbSymbolTableRecord
100
AcDbLinetypeTableRecord
  2
SOLID
 70
     0
  3

 72
    65
 73
     0
 40
0.0
  0
LTYPE
  5
71
330
5
100
AcDbSymbolTableRecord
100
AcDbLinetypeTableRecord
  2
DASHED
 70
     0
  3

 72
    65
 73
     2
 40
2.27109725292296
 49
1.13554862646148
 74
     0
 49
-1.13554862646148
 74
     0
  0
LTYPE
  5
72
330
5
100
AcDbSymbolTableRecord
100
AcDbLinetypeTableRecord
  2
LONG_DASH
 70
     0
  3

 72
    65
 73
     2
 40
2.27109725292296
 49
1.703322939692224
 74
     0
 49
-0.5677743132307414
 74
     0
  0
LTYPE
  5
73
330
5
100
AcDbSymbolTableRecord
100
AcDbLinetypeTableRecord
  2
SHORT_DASH
 70
     0
  3

 72
    65
 73
     4
 40
2.27109725292296
 49
0.4542194505845931
 74
     0
 49
-0.6813291758768897
 74
     0
 49
0.4542194505845931
 74
     0
 49
-0.6813291758768897
 74
     0
  0
LTYPE
  5
74
330
5
100
AcDbSymbolTableRecord
100
AcDbLinetypeTableRecord
  2
DOTTED
 70
     0
  3

 72
    65
 73
     8
 40
2.27109725292296
 49
0.1135548626461483
 74
     0
 49
-0.4542194505845931
 74
     0
 49
0.1135548626461483
 74
     0
 49
-0.4542194505845931
 74
     0
 49
0.1135548626461483
 74
     0
 49
-0.4542194505845931
 74
     0
 49
0.1135548626461483
 74
     0
 49
-0.4542194505845931
 74
     0
  0
LTYPE
  5
75
330
5
100
AcDbSymbolTableRecord
100
AcDbLinetypeTableRecord
  2
DOTDASH
 70
     0
  3

 72
    65
 73
     4
 40
2.27109725292296
 49
0.1135548626461483
 74
     0
 49
-0.5677743132307414
 74
     0
 49
1.021993763815334
 74
     0
 49
-0.5677743132307414
 74
     0
  0
LTYPE
  5
76
330
5
100
AcDbSymbolTableRecord
100
AcDbLinetypeTableRecord
  2
DOTDOTDASH
 70
     0
  3

 72
    65
 73
     6
 40
2.27109725292296
 49
0.1135548626461483
 74
     0
 49
-0.3406645879384448
 74
     0
 49
0.1135548626461483
 74
     0
 49
-0.3406645879384448
 74
     0
 49
1.021993763815334
 74
     0
 49
-0.3406645879384448
 74
     0
  0
LTYPE
  5
77
330
5
100
AcDbSymbolTableRecord
100
AcDbLinetypeTableRecord
  2
DASHDASHDOT
 70
     0
  3

 72
    65
 73
     6
 40
2.27109725292296
 49
0.1135548626461483
 74
     0
 49
-0.3406645879384448
 74
     0
 49
0.1135548626461483
 74
     0
 49
-0.3406645879384448
 74
     0
 49
1.021993763815334
 74
     0
 49
-0.3406645879384448
 74
     0
  0
ENDTAB
  0
TABLE
  2
LAYER
  5
2
102
{ACAD_XDICTIONARY
360
490
102
}
330
0
100
AcDbSymbolTable
 70
     3
  0
LAYER
  5
10
330
2
100
AcDbSymbolTableRecord
100
AcDbLayerTableRecord
  2
0
 70
     0
 62
     7
  6
Continuous
370
    -3
390
F
347
46
348
0
  0
LAYER
  5
46D
330
2
100
AcDbSymbolTableRecord
100
AcDbLayerTableRecord
  2
Defpoints
 70
     0
 62
     7
  6
Continuous
290
     0
370
    -3
390
F
347
46
348
0
  0
LAYER
  5
48D
102
{ACAD_XDICTIONARY
360
48E
102
}
330
2
100
AcDbSymbolTableRecord
100
AcDbLayerTableRecord
  2
Hewi
 70
     0
 62
     7
  6
Continuous
370
    -3
390
F
347
46
348
0
1001
AcAecLayerStandard
1000

1000

  0
ENDTAB
  0
TABLE
  2
STYLE
  5
3
330
0
100
AcDbSymbolTable
 70
     1
  0
STYLE
  5
11
330
3
100
AcDbSymbolTableRecord
100
AcDbTextStyleTableRecord
  2
Standard
 70
     0
 40
0.0
 41
1.0
 50
0.0
 71
     0
 42
2.5
  3
txt
  4

  0
ENDTAB
  0
TABLE
  2
VIEW
  5
6
330
0
100
AcDbSymbolTable
 70
     0
  0
ENDTAB
  0
TABLE
  2
UCS
  5
7
330
0
100
AcDbSymbolTable
 70
     0
  0
ENDTAB
  0
TABLE
  2
APPID
  5
9
330
0
100
AcDbSymbolTable
 70
     4
  0
APPID
  5
12
330
9
100
AcDbSymbolTableRecord
100
AcDbRegAppTableRecord
  2
ACAD
 70
     0
  0
APPID
  5
11A
330
9
100
AcDbSymbolTableRecord
100
AcDbRegAppTableRecord
  2
ACAD_NAV_VCDISPLAY
 70
     0
  0
APPID
  5
463
330
9
100
AcDbSymbolTableRecord
100
AcDbRegAppTableRecord
  2
ACAD_EXEMPT_FROM_CAD_STANDARDS
 70
     0
  0
APPID
  5
48F
330
9
100
AcDbSymbolTableRecord
100
AcDbRegAppTableRecord
  2
AcAecLayerStandard
 70
     0
  0
ENDTAB
  0
TABLE
  2
DIMSTYLE
  5
A
330
0
100
AcDbSymbolTable
 70
     2
100
AcDbDimStyleTable
 71
     1
340
27
  0
DIMSTYLE
105
27
330
A
100
AcDbSymbolTableRecord
100
AcDbDimStyleTableRecord
  2
ISO-25
 70
     0
 41
2.5
 42
0.625
 43
3.75
 44
1.25
 73
     0
 74
     0
 77
     1
 78
     8
140
2.5
141
2.5
143
0.03937007874016
147
0.625
171
     3
172
     1
271
     2
272
     2
274
     3
278
    44
283
     0
284
     8
340
11
  0
ENDTAB
  0
TABLE
  2
BLOCK_RECORD
  5
1
330
0
100
AcDbSymbolTable
 70
    11
  0
BLOCK_RECORD
  5
1F
102
{ACAD_XDICTIONARY
360
6E5
102
}
330
1
100
AcDbSymbolTableRecord
100
AcDbBlockTableRecord
  2
*Model_Space
340
22
 70
     0
280
     1
281
     0
  0
BLOCK_RECORD
  5
1B
330
1
100
AcDbSymbolTableRecord
100
AcDbBlockTableRecord
  2
*Paper_Space
340
1E
 70
     0
280
     1
281
     0
  0
BLOCK_RECORD
  5
23
330
1
100
AcDbSymbolTableRecord
100
AcDbBlockTableRecord
  2
*Paper_Space0
340
26
 70
     0
280
     1
281
     0
  0
BLOCK_RECORD
  5
46E
330
1
100
AcDbSymbolTableRecord
100
AcDbBlockTableRecord
  2
*D1
340
0
 70
     0
280
     1
281
     0
  0
BLOCK_RECORD
  5
66A
330
1
100
AcDbSymbolTableRecord
100
AcDbBlockTableRecord
  2
*D2
340
0
 70
     0
280
     1
281
     0
  0
BLOCK_RECORD
  5
1853
330
1
100
AcDbSymbolTableRecord
100
AcDbBlockTableRecord
  2
*D4
340
0
 70
     0
280
     1
281
     0
  0
BLOCK_RECORD
  5
186B
330
1
100
AcDbSymbolTableRecord
100
AcDbBlockTableRecord
  2
*D5
340
0
 70
     0
280
     1
281
     0
  0
BLOCK_RECORD
  5
1DAC
330
1
100
AcDbSymbolTableRecord
100
AcDbBlockTableRecord
  2
*D7
340
0
 70
     0
280
     1
281
     0
  0
BLOCK_RECORD
  5
1DCD
330
1
100
AcDbSymbolTableRecord
100
AcDbBlockTableRecord
  2
*D9
340
0
 70
     0
280
     1
281
     0
  0
ENDTAB
  0
ENDSEC
  0
SECTION
  2
BLOCKS
  0
BLOCK
  5
20
330
1F
100
AcDbEntity
  8
0
100
AcDbBlockBegin
  2
*Model_Space
 70
     0
 10
0.0
 20
0.0
 30
0.0
  3
*Model_Space
  1

  0
ENDBLK
  5
21
330
1F
100
AcDbEntity
  8
0
100
AcDbBlockEnd
  0
BLOCK
  5
1C
330
1B
100
AcDbEntity
 67
     1
  8
0
100
AcDbBlockBegin
  2
*Paper_Space
 70
     0
 10
0.0
 20
0.0
 30
0.0
  3
*Paper_Space
  1

  0
ENDBLK
  5
1D
330
1B
100
AcDbEntity
 67
     1
  8
0
100
AcDbBlockEnd
  0
BLOCK
  5
24
330
23
100
AcDbEntity
 67
     1
  8
0
100
AcDbBlockBegin
  2
*Paper_Space0
 70
     0
 10
0.0
 20
0.0
 30
0.0
  3
*Paper_Space0
  1

  0
ENDBLK
  5
25
330
23
100
AcDbEntity
 67
     1
  8
0
100
AcDbBlockEnd
  0
BLOCK
  5
46F
330
46E
100
AcDbEntity
  8
0
100
AcDbBlockBegin
  2
*D1
 70
     1
 10
0.0
 20
0.0
 30
0.0
  3
*D1
  1

  0
LINE
  5
47B
330
46E
100
AcDbEntity
  8
0
 62
     0
440
 16777216
370
    -2
100
AcDbLine
 10
169.1949724005773
 20
163.8184210226795
 30
0.0
 11
169.1949724005773
 21
189.5873868086067
 31
0.0
  0
LINE
  5
47C
330
46E
100
AcDbEntity
  8
0
 62
     0
440
 16777216
370
    -2
100
AcDbLine
 10
209.1949715756394
 20
163.8184210226795
 30
0.0
 11
209.1949715756394
 21
189.5873868086067
 31
0.0
  0
LINE
  5
47D
330
46E
100
AcDbEntity
  8
0
 62
     0
440
 16777216
370
    -2
100
AcDbLine
 10
171.6949724005774
 20
188.3373868086066
 30
0.0
 11
206.6949715756394
 21
188.3373868086066
 31
0.0
  0
SOLID
  5
47E
330
46E
100
AcDbEntity
  8
0
 62
     0
440
 16777216
100
AcDbTrace
 10
171.6949724005774
 20
188.7540534752734
 30
0.0
 11
171.6949724005774
 21
187.9207201419401
 31
0.0
 12
169.1949724005773
 22
188.3373868086066
 32
0.0
 13
169.1949724005773
 23
188.3373868086066
 33
0.0
  0
SOLID
  5
47F
330
46E
100
AcDbEntity
  8
0
 62
     0
440
 16777216
100
AcDbTrace
 10
206.6949715756394
 20
188.7540534752734
 30
0.0
 11
206.6949715756394
 21
187.9207201419401
 31
0.0
 12
209.1949715756394
 22
188.3373868086066
 32
0.0
 13
209.1949715756394
 23
188.3373868086066
 33
0.0
  0
MTEXT
  5
480
330
46E
100
AcDbEntity
  8
0
 62
     0
440
 16777216
100
AcDbMText
 10
189.1949719881084
 20
190.2123868086068
 30
0.0
 40
2.5
 41
0.0
 46
0.0
 71
     5
 72
     1
  1
40
 73
     1
 44
1.0
  0
POINT
  5
481
330
46E
100
AcDbEntity
  8
Defpoints
 62
     0
440
 16777216
100
AcDbPoint
 10
169.1949724005773
 20
163.1934210226795
 30
0.0
  0
POINT
  5
482
330
46E
100
AcDbEntity
  8
Defpoints
 62
     0
440
 16777216
100
AcDbPoint
 10
209.1949715756394
 20
163.1934210226795
 30
0.0
  0
POINT
  5
483
330
46E
100
AcDbEntity
  8
Defpoints
 62
     0
440
 16777216
100
AcDbPoint
 10
209.1949715756394
 20
188.3373868086066
 30
0.0
  0
ENDBLK
  5
470
330
46E
100
AcDbEntity
  8
0
100
AcDbBlockEnd
  0
BLOCK
  5
66B
330
66A
100
AcDbEntity
  8
0
100
AcDbBlockBegin
  2
*D2
 70
     1
 10
0.0
 20
0.0
 30
0.0
  3
*D2
  1

  0
LINE
  5
677
330
66A
100
AcDbEntity
  8
0
 62
     0
440
 16777216
370
    -2
100
AcDbLine
 10
827.7595291992735
 20
1013.325643810532
 30
0.0
 11
827.7595291992735
 21
145.1276556228231
 31
0.0
  0
LINE
  5
678
330
66A
100
AcDbEntity
  8
0
 62
     0
440
 16777216
370
    -2
100
AcDbLine
 10
927.7595321341673
 20
1013.325643810532
 30
0.0
 11
927.7595321341673
 21
145.1276556228231
 31
0.0
  0
LINE
  5
679
330
66A
100
AcDbEntity
  8
0
 62
     0
440
 16777216
370
    -2
100
AcDbLine
 10
830.2595291992735
 20
146.377655622823
 30
0.0
 11
925.2595321341672
 21
146.377655622823
 31
0.0
  0
SOLID
  5
67A
330
66A
100
AcDbEntity
  8
0
 62
     0
440
 16777216
100
AcDbTrace
 10
830.2595291992735
 20
146.7943222894897
 30
0.0
 11
830.2595291992735
 21
145.9609889561564
 31
0.0
 12
827.7595291992735
 22
146.377655622823
 32
0.0
 13
827.7595291992735
 23
146.377655622823
 33
0.0
  0
SOLID
  5
67B
330
66A
100
AcDbEntity
  8
0
 62
     0
440
 16777216
100
AcDbTrace
 10
925.2595321341672
 20
146.7943222894897
 30
0.0
 11
925.2595321341672
 21
145.9609889561564
 31
0.0
 12
927.7595321341673
 22
146.377655622823
 32
0.0
 13
927.7595321341673
 23
146.377655622823
 33
0.0
  0
MTEXT
  5
67C
330
66A
100
AcDbEntity
  8
0
 62
     0
440
 16777216
100
AcDbMText
 10
877.7595306667203
 20
148.2526556228231
 30
0.0
 40
2.5
 41
0.0
 46
0.0
 71
     5
 72
     1
  1
100
 73
     1
 44
1.0
  0
POINT
  5
67D
330
66A
100
AcDbEntity
  8
Defpoints
 62
     0
440
 16777216
100
AcDbPoint
 10
827.7595291992735
 20
1013.950643810532
 30
0.0
  0
POINT
  5
67E
330
66A
100
AcDbEntity
  8
Defpoints
 62
     0
440
 16777216
100
AcDbPoint
 10
927.7595321341673
 20
1013.950643810532
 30
0.0
  0
POINT
  5
67F
330
66A
100
AcDbEntity
  8
Defpoints
 62
     0
440
 16777216
100
AcDbPoint
 10
927.7595321341673
 20
146.377655622823
 30
0.0
  0
ENDBLK
  5
66C
330
66A
100
AcDbEntity
  8
0
100
AcDbBlockEnd
  0
BLOCK
  5
1854
330
1853
100
AcDbEntity
  8
0
100
AcDbBlockBegin
  2
*D4
 70
     1
 10
0.0
 20
0.0
 30
0.0
  3
*D4
  1

  0
LINE
  5
1860
330
1853
100
AcDbEntity
  8
0
 62
     0
440
 16777216
370
    -2
100
AcDbLine
 10
1893.855076178792
 20
1712.530233627345
 30
0.0
 11
1893.855076178792
 21
2033.958646611139
 31
0.0
  0
LINE
  5
1861
330
1853
100
AcDbEntity
  8
0
 62
     0
440
 16777216
370
    -2
100
AcDbLine
 10
1961.770667983877
 20
1708.687760801007
 30
0.0
 11
1961.770667983877
 21
2033.958646611139
 31
0.0
  0
LINE
  5
1862
330
1853
100
AcDbEntity
  8
0
 62
     0
440
 16777216
370
    -2
100
AcDbLine
 10
1896.355076178792
 20
2032.70864661114
 30
0.0
 11
1959.270667983878
 21
2032.70864661114
 31
0.0
  0
SOLID
  5
1863
330
1853
100
AcDbEntity
  8
0
 62
     0
440
 16777216
100
AcDbTrace
 10
1896.355076178792
 20
2033.125313277806
 30
0.0
 11
1896.355076178792
 21
2032.291979944473
 31
0.0
 12
1893.855076178792
 22
2032.70864661114
 32
0.0
 13
1893.855076178792
 23
2032.70864661114
 33
0.0
  0
SOLID
  5
1864
330
1853
100
AcDbEntity
  8
0
 62
     0
440
 16777216
100
AcDbTrace
 10
1959.270667983878
 20
2033.125313277806
 30
0.0
 11
1959.270667983878
 21
2032.291979944473
 31
0.0
 12
1961.770667983877
 22
2032.70864661114
 32
0.0
 13
1961.770667983877
 23
2032.70864661114
 33
0.0
  0
MTEXT
  5
1865
330
1853
100
AcDbEntity
  8
0
 62
     0
440
 16777216
100
AcDbMText
 10
1927.812872081335
 20
2034.791979944473
 30
0.0
 40
2.5
 41
0.0
 46
0.0
 71
     5
 72
     1
  1
67,92
 73
     1
 44
1.0
  0
POINT
  5
1866
330
1853
100
AcDbEntity
  8
Defpoints
 62
     0
440
 16777216
100
AcDbPoint
 10
1893.855076178792
 20
1711.905233627345
 30
0.0
  0
POINT
  5
1867
330
1853
100
AcDbEntity
  8
Defpoints
 62
     0
440
 16777216
100
AcDbPoint
 10
1961.770667983877
 20
1708.062760801007
 30
0.0
  0
POINT
  5
1868
330
1853
100
AcDbEntity
  8
Defpoints
 62
     0
440
 16777216
100
AcDbPoint
 10
1961.770667983877
 20
2032.70864661114
 30
0.0
  0
ENDBLK
  5
1855
330
1853
100
AcDbEntity
  8
0
100
AcDbBlockEnd
  0
BLOCK
  5
186C
330
186B
100
AcDbEntity
  8
0
100
AcDbBlockBegin
  2
*D5
 70
     1
 10
0.0
 20
0.0
 30
0.0
  3
*D5
  1

  0
LINE
  5
1878
330
186B
100
AcDbEntity
  8
0
 62
     0
440
 16777216
370
    -2
100
AcDbLine
 10
1185.429330074025
 20
1712.530230661555
 30
0.0
 11
1185.429330074025
 21
2024.795037790309
 31
0.0
  0
LINE
  5
1879
330
186B
100
AcDbEntity
  8
0
 62
     0
440
 16777216
370
    -2
100
AcDbLine
 10
1253.432990153246
 20
1713.487543853602
 30
0.0
 11
1253.432990153246
 21
2024.795037790309
 31
0.0
  0
LINE
  5
187A
330
186B
100
AcDbEntity
  8
0
 62
     0
440
 16777216
370
    -2
100
AcDbLine
 10
1187.929330074026
 20
2023.545037790309
 30
0.0
 11
1250.932990153246
 21
2023.545037790309
 31
0.0
  0
SOLID
  5
187B
330
186B
100
AcDbEntity
  8
0
 62
     0
440
 16777216
100
AcDbTrace
 10
1187.929330074026
 20
2023.961704456976
 30
0.0
 11
1187.929330074026
 21
2023.128371123642
 31
0.0
 12
1185.429330074025
 22
2023.545037790309
 32
0.0
 13
1185.429330074025
 23
2023.545037790309
 33
0.0
  0
SOLID
  5
187C
330
186B
100
AcDbEntity
  8
0
 62
     0
440
 16777216
100
AcDbTrace
 10
1250.932990153246
 20
2023.961704456976
 30
0.0
 11
1250.932990153246
 21
2023.128371123642
 31
0.0
 12
1253.432990153246
 22
2023.545037790309
 32
0.0
 13
1253.432990153246
 23
2023.545037790309
 33
0.0
  0
MTEXT
  5
187D
330
186B
100
AcDbEntity
  8
0
 62
     0
440
 16777216
100
AcDbMText
 10
1219.431160113636
 20
2025.420037790309
 30
0.0
 40
2.5
 41
0.0
 46
0.0
 71
     5
 72
     1
  1
68
 73
     1
 44
1.0
  0
POINT
  5
187E
330
186B
100
AcDbEntity
  8
Defpoints
 62
     0
440
 16777216
100
AcDbPoint
 10
1185.429330074025
 20
1711.905230661555
 30
0.0
  0
POINT
  5
187F
330
186B
100
AcDbEntity
  8
Defpoints
 62
     0
440
 16777216
100
AcDbPoint
 10
1253.432990153246
 20
1712.862543853602
 30
0.0
  0
POINT
  5
1880
330
186B
100
AcDbEntity
  8
Defpoints
 62
     0
440
 16777216
100
AcDbPoint
 10
1253.432990153246
 20
2023.545037790309
 30
0.0
  0
ENDBLK
  5
186D
330
186B
100
AcDbEntity
  8
0
100
AcDbBlockEnd
  0
BLOCK
  5
1DAD
330
1DAC
100
AcDbEntity
  8
0
100
AcDbBlockBegin
  2
*D7
 70
     1
 10
0.0
 20
0.0
 30
0.0
  3
*D7
  1

  0
LINE
  5
1DB9
330
1DAC
100
AcDbEntity
  8
0
 62
     0
440
 16777216
370
    -2
100
AcDbLine
 10
2409.813271287938
 20
1532.782262450029
 30
0.0
 11
2409.813271287938
 21
1131.341462799966
 31
0.0
  0
LINE
  5
1DBA
330
1DAC
100
AcDbEntity
  8
0
 62
     0
440
 16777216
370
    -2
100
AcDbLine
 10
1755.013235827024
 20
1434.582673737662
 30
0.0
 11
1755.013235827024
 21
1131.341462799966
 31
0.0
  0
LINE
  5
1DBB
330
1DAC
100
AcDbEntity
  8
0
 62
     0
440
 16777216
370
    -2
100
AcDbLine
 10
2407.313271287938
 20
1132.591462799966
 30
0.0
 11
1757.513235827024
 21
1132.591462799966
 31
0.0
  0
SOLID
  5
1DBC
330
1DAC
100
AcDbEntity
  8
0
 62
     0
440
 16777216
100
AcDbTrace
 10
2407.313271287938
 20
1133.008129466633
 30
0.0
 11
2407.313271287938
 21
1132.174796133299
 31
0.0
 12
2409.813271287938
 22
1132.591462799966
 32
0.0
 13
2409.813271287938
 23
1132.591462799966
 33
0.0
  0
SOLID
  5
1DBD
330
1DAC
100
AcDbEntity
  8
0
 62
     0
440
 16777216
100
AcDbTrace
 10
1757.513235827024
 20
1133.008129466633
 30
0.0
 11
1757.513235827024
 21
1132.174796133299
 31
0.0
 12
1755.013235827024
 22
1132.591462799966
 32
0.0
 13
1755.013235827024
 23
1132.591462799966
 33
0.0
  0
MTEXT
  5
1DBE
330
1DAC
100
AcDbEntity
  8
0
 62
     0
440
 16777216
100
AcDbMText
 10
2082.413253557481
 20
1134.674796133299
 30
0.0
 40
2.5
 41
0.0
 46
0.0
 71
     5
 72
     1
  1
654,8
 73
     1
 44
1.0
  0
POINT
  5
1DBF
330
1DAC
100
AcDbEntity
  8
Defpoints
 62
     0
440
 16777216
100
AcDbPoint
 10
2409.813271287938
 20
1533.407262450029
 30
0.0
  0
POINT
  5
1DC0
330
1DAC
100
AcDbEntity
  8
Defpoints
 62
     0
440
 16777216
100
AcDbPoint
 10
1755.013235827024
 20
1435.207673737663
 30
0.0
  0
POINT
  5
1DC1
330
1DAC
100
AcDbEntity
  8
Defpoints
 62
     0
440
 16777216
100
AcDbPoint
 10
1755.013235827024
 20
1132.591462799966
 30
0.0
  0
ENDBLK
  5
1DAE
330
1DAC
100
AcDbEntity
  8
0
100
AcDbBlockEnd
  0
BLOCK
  5
1DCE
330
1DCD
100
AcDbEntity
  8
0
100
AcDbBlockBegin
  2
*D9
 70
     1
 10
0.0
 20
0.0
 30
0.0
  3
*D9
  1

  0
LINE
  5
1DDA
330
1DCD
100
AcDbEntity
  8
0
 62
     0
440
 16777216
370
    -2
100
AcDbLine
 10
691.6617035004349
 20
260.978357267278
 30
0.0
 11
1156.142562497281
 21
260.9783572672781
 31
0.0
  0
LINE
  5
1DDB
330
1DCD
100
AcDbEntity
  8
0
 62
     0
440
 16777216
370
    -2
100
AcDbLine
 10
691.6617035004349
 20
885.7140639841642
 30
0.0
 11
1156.14256249728
 21
885.7140639841642
 31
0.0
  0
LINE
  5
1DDC
330
1DCD
100
AcDbEntity
  8
0
 62
     0
440
 16777216
370
    -2
100
AcDbLine
 10
1154.892562497281
 20
263.4783572672782
 30
0.0
 11
1154.892562497281
 21
883.2140639841641
 31
0.0
  0
SOLID
  5
1DDD
330
1DCD
100
AcDbEntity
  8
0
 62
     0
440
 16777216
100
AcDbTrace
 10
1154.475895830614
 20
263.4783572672782
 30
0.0
 11
1155.309229163948
 21
263.4783572672782
 31
0.0
 12
1154.892562497281
 22
260.9783572672782
 32
0.0
 13
1154.892562497281
 23
260.9783572672782
 33
0.0
  0
SOLID
  5
1DDE
330
1DCD
100
AcDbEntity
  8
0
 62
     0
440
 16777216
100
AcDbTrace
 10
1154.475895830614
 20
883.2140639841641
 30
0.0
 11
1155.309229163947
 21
883.2140639841641
 31
0.0
 12
1154.892562497281
 22
885.7140639841642
 32
0.0
 13
1154.892562497281
 23
885.7140639841642
 33
0.0
  0
MTEXT
  5
1DDF
330
1DCD
100
AcDbEntity
  8
0
 62
     0
440
 16777216
100
AcDbMText
 10
1152.809229163947
 20
573.3462106257206
 30
0.0
 40
2.5
 41
0.0
 46
0.0
 71
     5
 72
     1
  1
624,74
 11
0.0000000000000001
 21
1.0
 31
0.0
 73
     1
 44
1.0
  0
POINT
  5
1DE0
330
1DCD
100
AcDbEntity
  8
Defpoints
 62
     0
440
 16777216
100
AcDbPoint
 10
691.0367035004348
 20
260.978357267278
 30
0.0
  0
POINT
  5
1DE1
330
1DCD
100
AcDbEntity
  8
Defpoints
 62
     0
440
 16777216
100
AcDbPoint
 10
691.0367035004348
 20
885.7140639841642
 30
0.0
  0
POINT
  5
1DE2
330
1DCD
100
AcDbEntity
  8
Defpoints
 62
     0
440
 16777216
100
AcDbPoint
 10
1154.892562497281
 20
885.7140639841642
 30
0.0
  0
ENDBLK
  5
1DCF
330
1DCD
100
AcDbEntity
  8
0
100
AcDbBlockEnd
  0
ENDSEC
  0
SECTION
  2
ENTITIES
  0
LWPOLYLINE
  5
E44
330
1F
100
AcDbEntity
  8
Hewi
  6
CUSTOM
 62
    18
420
        0
370
     9
100
AcDbPolyline
 90
        7
 70
     0
 43
0.0
 10
142.0541154613635
 20
524.7061756039725
 10
142.0013629976255
 20
521.9021166671771
 10
142.3953033725137
 20
518.0648237540817
 10
142.3960976833333
 20
518.0567366246631
 10
142.6928469385365
 20
516.7392196798519
 10
143.2809844332333
 20
515.5135560060239
 10
143.5683985555715
 20
514.9812406220535
  0
LWPOLYLINE
  5
E45
330
1F
100
AcDbEntity
  8
Hewi
  6
CUSTOM
 62
    18
420
        0
370
     9
100
AcDbPolyline
 90
       12
 70
     0
 43
0.0
 10
142.0600510383792
 20
523.7583853537127
 10
142.0464499894823
 20
525.9301944214607
 10
142.4483416746206
 20
527.8117470502252
 10
142.5024472658333
 20
528.0544819692457
 10
142.9860443200887
 20
529.9141642334152
 10
143.5503686191387
 20
531.2540151408011
 10
144.5093852696718
 20
533.1938217969813
 10
145.8754624241246
 20
534.8720823789401
 10
146.916166120669
 20
536.1031854685778
 10
148.6028789729769
 20
537.4344229859286
 10
149.8646131436907
 20
538.4222281124634
 10
151.4570090851503
 20
539.3695562141045
  0
LWPOLYLINE
  5
E46
330
1F
100
AcDbEntity
  8
Hewi
  6
CUSTOM
 62
    18
420
        0
370
     9
100
AcDbPolyline
 90
        5
 70
     0
 43
0.0
 10
143.7496860611209
 20
514.470307765375
 10
144.059401991808
 20
514.0214204790026
 10
144.333469705798
 20
513.6640087541991
 10
144.9563871204535
 20
513.0182132505195
 10
145.0248170790262
 20
512.9663899676621
  0
LWPOLYLINE
  5
E47
330
1F
100
AcDbEntity
  8
Hewi
  6
CUSTOM
 62
    18
420
        0
370
     9
100
AcDbPolyline
 90
       18
 70
     0
 43
0.0
 10
189.3636931760175
 20
510.7022327187137
 10
193.4922670051946
 20
510.7563493542338
 10
205.1129627611679
 20
510.9026518658433
 10
211.282811463816
 20
510.9773211727016
 10
225.504769292178
 20
511.14082839666
 10
240.7564189975273
 20
511.3019273754551
 10
281.1799861686012
 20
511.6499641901618
 10
324.5508643845677
 20
511.8836579336677
 10
367.9507036738704
 20
511.962667322016
 10
423.8721283629108
 20
511.842765203916
 10
479.7326133713887
 20
511.4519478536236
 10
502.5095621856978
 20
511.2247643716369
 10
514.2563743418759
 20
511.0936851658729
 10
524.6680412110834
 20
510.9701481714353
 10
535.9588152870148
 20
510.828849891448
 10
546.6929109625215
 20
510.6880304308661
 10
555.967636132329
 20
510.5617378485617
 10
561.0663041892438
 20
510.4904479814504
  0
LWPOLYLINE
  5
E4C
330
1F
100
AcDbEntity
  8
Hewi
  6
CUSTOM
 62
    18
420
        0
370
     9
100
AcDbPolyline
 90
        7
 70
     0
 43
0.0
 10
147.0855297108991
 20
511.5003802862886
 10
146.8609704144289
 20
511.627229418961
 10
146.280341182675
 20
511.9650960497282
 10
146.168953319622
 20
512.036355486297
 10
145.7451008714123
 20
512.3646702677714
 10
145.4604261278964
 20
512.5852859076418
 10
145.024817092326
 20
512.9663899560264
  0
LWPOLYLINE
  5
E4D
330
1F
100
AcDbEntity
  8
Hewi
  6
CUSTOM
 62
    18
420
        0
370
     9
100
AcDbPolyline
 90
        7
 70
     0
 43
0.0
 10
557.5701012513672
 20
510.5886619394031
 10
564.4778031257374
 20
510.3946134980565
 10
569.6055473319975
 20
510.2471214579936
 10
574.0806428248869
 20
510.1160880788015
 10
577.8073594359394
 20
510.005370974339
 10
581.007000837866
 20
509.941008602012
 10
584.3613916220363
 20
510.3502442974367
  0
LWPOLYLINE
  5
E4F
330
1F
100
AcDbEntity
  8
Hewi
  6
CUSTOM
 62
    18
420
        0
370
     9
100
AcDbPolyline
 90
       17
 70
     0
 43
0.0
 10
592.5039348509561
 20
515.2205842932189
 10
592.5915343066098
 20
515.3681598254646
 10
593.3739759115069
 20
517.6231204955794
 10
593.6938915363425
 20
521.3551123140532
 10
593.8413577386472
 20
523.7583853537127
 10
593.9071174955114
 20
525.0816928942295
 10
593.7944679365918
 20
526.4016286276664
 10
593.0717931937944
 20
529.4631525517955
 10
592.1909720918772
 20
531.4458921097464
 10
591.3098631370103
 20
533.2528857943616
 10
590.0351227928239
 20
534.9958914098855
 10
588.0959366736353
 20
536.71420012055
 10
586.4971375647128
 20
538.1159634329832
 10
583.3698438937354
 20
539.892139138742
 10
581.568630873824
 20
540.8783559829886
 10
577.2767673243304
 20
542.7273648279752
 10
572.0509314273222
 20
544.5800707330731
  0
LWPOLYLINE
  5
E52
330
1F
100
AcDbEntity
  8
Hewi
  6
CUSTOM
 62
    18
420
        0
370
     9
100
AcDbPolyline
 90
       13
 70
     0
 43
0.0
 10
147.0855297108991
 20
511.5003802862886
 10
147.5113054811117
 20
511.292150559248
 10
147.8427931014355
 20
511.1481239853569
 10
148.5483211679385
 20
510.8842980605483
 10
149.9985773016142
 20
510.4584465547628
 10
153.2175424788638
 20
510.0441632007813
 10
157.2535458672409
 20
509.974661889272
 10
160.8335318015687
 20
510.0600865962455
 10
165.3871510744138
 20
510.167245027574
 10
170.6964541164543
 20
510.2901223769339
 10
176.7969235818708
 20
510.4284366972351
 10
183.4299086843875
 20
510.5751654755152
 10
192.3906203234201
 20
510.7670519368045
  0
LWPOLYLINE
  5
E5D
330
1F
100
AcDbEntity
  8
Hewi
  6
CUSTOM
 62
    18
420
        0
370
     9
100
AcDbPolyline
 90
       23
 70
     0
 43
0.0
 10
572.0509314273222
 20
544.5800707330731
 10
565.942964200214
 20
546.4407486645077
 10
565.0438160520679
 20
546.7168666380302
 10
562.7733730468916
 20
547.1884786071635
 10
558.144638726355
 20
548.5460715742838
 10
555.2621836598937
 20
549.107121718412
 10
549.414554897159
 20
550.5631691565314
 10
545.7767532444013
 20
551.195494198278
 10
539.4575371446789
 20
552.5451267472639
 10
534.8892159662699
 20
553.2339469310336
 10
527.9511014788604
 20
554.492770526165
 10
522.3178902776271
 20
555.2023172418726
 10
514.0321848938584
 20
556.456750915612
 10
510.8648552282502
 20
556.7193028375994
 10
505.2575061577099
 20
557.389889729493
 10
499.4193319753229
 20
558.182640295065
 10
455.6956695493973
 20
562.1969182684979
 10
411.8996832669779
 20
564.6151412627026
 10
367.9507002569025
 20
565.4194084025035
 10
324.0047533207417
 20
564.6292967734653
 10
280.1816054862844
 20
562.2051380382527
 10
236.4820768017034
 20
558.182640295065
 10
234.4084059059295
 20
557.640914489897
  0
LWPOLYLINE
  5
E5E
330
1F
100
AcDbEntity
  8
Hewi
  6
CUSTOM
 62
    18
420
        0
370
     9
100
AcDbPolyline
 90
        2
 70
     0
 43
0.0
 10
586.3080775741236
 20
511.4856603207003
 10
586.3171405748107
 20
511.48416342638
  0
LWPOLYLINE
  5
E5F
330
1F
100
AcDbEntity
  8
Hewi
  6
CUSTOM
 62
    18
420
        0
370
     9
100
AcDbPolyline
 90
        5
 70
     0
 43
0.0
 10
591.0786309991999
 20
513.2119424681441
 10
591.4048042058221
 20
513.5000074412645
 10
591.9274712717414
 20
514.1308366095533
 10
592.3113012999001
 20
514.688644938647
 10
592.5039348480513
 20
515.2205842851991
  0
LWPOLYLINE
  5
E61
330
1F
100
AcDbEntity
  8
Hewi
  6
CUSTOM
 62
    18
420
        0
370
     9
100
AcDbPolyline
 90
       20
 70
     0
 43
0.0
 10
222.7276641179031
 20
556.4021312845008
 10
222.9507048736541
 20
557.5865634896882
 10
222.9507048736541
 20
577.9083483512541
 10
223.1011374000608
 20
577.9083483512541
 10
223.5448916642525
 20
577.9083483512525
 10
224.2597159744673
 20
577.9083483512525
 10
225.2097660549425
 20
577.9083483512521
 10
226.3474024275838
 20
577.9083483512521
 10
227.6155792543085
 20
577.9083483512521
 10
228.9507048535794
 20
577.9083483512514
 10
506.9507039234486
 20
577.9083483512514
 10
508.2858295227197
 20
577.9083483512521
 10
509.5540063494427
 20
577.9083483512521
 10
510.6916427220839
 20
577.9083483512521
 10
511.6416928025607
 20
577.9083483512525
 10
512.3565171127757
 20
577.9083483512525
 10
512.8002713769653
 20
577.9083483512541
 10
512.9507039033724
 20
577.9083483512541
 10
512.9507039033724
 20
557.5865634896882
 10
513.1594283595149
 20
556.5290970344476
  0
LWPOLYLINE
  5
E62
330
1F
100
AcDbEntity
  8
Hewi
  6
CUSTOM
 62
    18
420
        0
370
     9
100
AcDbPolyline
 90
        3
 70
     0
 43
0.0
 10
584.3613916220363
 20
510.3502442974367
 10
588.5513573116604
 20
511.3682001028601
 10
589.2394997079573
 20
511.7966952394566
  0
LWPOLYLINE
  5
E63
330
1F
100
AcDbEntity
  8
Hewi
  6
CUSTOM
 62
    18
420
        0
370
     9
100
AcDbPolyline
 90
        3
 70
     0
 43
0.0
 10
570.9325657620374
 20
544.920759907912
 10
571.0279929852858
 20
544.9006397413868
 10
572.0509314273222
 20
544.5800707330731
  0
LWPOLYLINE
  5
E65
330
1F
100
AcDbEntity
  8
Hewi
  6
CUSTOM
 62
    18
420
        0
370
     9
100
AcDbPolyline
 90
        3
 70
     0
 43
0.0
 10
235.5264986417914
 20
557.9330050412945
 10
224.9129540773156
 20
556.6834219197617
 10
216.2262833255409
 20
555.5652730937253
  0
LWPOLYLINE
  5
E67
330
1F
100
AcDbEntity
  8
Hewi
  6
CUSTOM
 62
    18
420
        0
370
     9
100
AcDbPolyline
 90
        3
 70
     0
 43
0.0
 10
515.9507038933352
 20
502.2716951282127
 10
515.9507038933352
 20
505.3930171325131
 10
515.9507038933352
 20
511.0735814808075
  0
LWPOLYLINE
  5
E69
330
1F
100
AcDbEntity
  8
Hewi
  6
CUSTOM
 62
    18
420
        0
370
     9
100
AcDbPolyline
 90
        3
 70
     0
 43
0.0
 10
581.049960553124
 20
509.9462496875084
 10
582.3162884387894
 20
510.0478314384586
 10
582.6912811048369
 20
510.1464908023749
  0
LINE
  5
E6D
330
1F
100
AcDbEntity
  8
Hewi
  6
CUSTOM
 62
    18
420
        0
370
     9
100
AcDbLine
 10
143.531239547621
 20
515.050062285316
 30
0.0
 11
143.7496860611209
 21
514.470307765375
 31
0.0
  0
LINE
  5
E71
330
1F
100
AcDbEntity
  8
Hewi
  6
CUSTOM
 62
    18
420
        0
370
     9
100
AcDbLine
 10
152.5010675003013
 20
539.8843122299218
 30
0.0
 11
151.4570090851503
 21
539.3695562141045
 31
0.0
  0
LWPOLYLINE
  5
E72
330
1F
100
AcDbEntity
  8
Hewi
  6
CUSTOM
 62
    18
420
        0
370
     9
100
AcDbPolyline
 90
        8
 70
     0
 43
0.0
 10
163.73642592177
 20
544.4931864586195
 10
162.5952265227806
 20
544.1739809690948
 10
160.2523403447048
 20
543.2953870703332
 10
159.7706398905426
 20
543.1618958259496
 10
157.5269157107685
 20
542.2681073483349
 10
157.2033564152751
 20
542.1442523510804
 10
155.146527392484
 20
541.2683141707569
 10
152.5010675003013
 20
539.8843122299218
  0
LWPOLYLINE
  5
EBC
330
1F
100
AcDbEntity
  8
Hewi
  6
CUSTOM
 62
    18
420
        0
370
     9
100
AcDbPolyline
 90
       54
 70
     0
 43
0.0
 10
142.9540152800655
 20
155.3535398023547
 10
142.2920614453305
 20
162.0470273282444
 10
142.286341912215
 20
171.7084067588975
 10
141.745945110264
 20
179.3308175110187
 10
141.6310151674333
 20
185.8992208425875
 10
141.5442831628406
 20
192.4640481900351
 10
141.487725648989
 20
199.01872494913
 10
141.46342197426
 20
204.9635973582054
 10
141.4703886561672
 20
212.1601138325344
 10
141.5141866058893
 20
218.9031858599719
 10
141.6938774811605
 20
231.8739765486666
 10
141.8344837940185
 20
238.4560926408271
 10
142.2260072825282
 20
251.602609478841
 10
142.4015932843413
 20
256.2331689533567
 10
142.4963694833948
 20
258.5417198942894
 10
142.6953596182301
 20
263.1265149783839
 10
142.846466792498
 20
266.4277803145306
 10
142.976675597767
 20
269.7325566728919
 10
143.1398053261163
 20
274.6638626759384
 10
143.4001411137103
 20
281.2375491711135
 10
143.5345254577713
 20
284.5178355082929
 10
143.6598878440543
 20
286.9815598017321
 10
143.7199744567114
 20
288.2246872558125
 10
143.786912709811
 20
289.4788398363079
 10
143.8777928555699
 20
291.149311015332
 10
144.0887214614794
 20
294.9077213232977
 10
144.1607108466105
 20
296.1642951546382
 10
144.2580827248458
 20
297.833345218035
 10
144.4581674483105
 20
301.1736225290292
 10
144.5093838096673
 20
302.0090985119564
 10
144.612204564406
 20
303.6822830012996
 10
144.6906100589421
 20
304.9326399228843
 10
144.7699311185024
 20
306.1869826494275
 10
144.9171283985779
 20
308.4850272802515
 10
144.98449507262
 20
309.5292047711676
 10
145.1222890800945
 20
311.6085935559922
 10
145.2072210528366
 20
312.8626047806897
 10
145.3536965945782
 20
314.9905098516305
 10
145.4386068776148
 20
316.1979597813724
 10
145.617503704183
 20
318.6921876690449
 10
145.6791484693385
 20
319.5247568235445
 10
146.0589777631738
 20
324.5271876240086
 10
146.3884474244513
 20
328.6927704923942
 10
146.4558972920275
 20
329.5305518815005
 10
146.7248335513268
 20
332.8688249951337
 10
146.8616960950584
 20
334.5332611441691
 10
147.0635612035967
 20
336.9461669021262
 10
147.1026068064912
 20
337.3633133468119
 10
147.2015842691253
 20
338.5485078714927
 10
147.4147894245688
 20
340.9180674089739
 10
147.7606223993678
 20
344.4701099917292
 10
148.2462204697295
 20
349.2030502117259
 10
148.4957070992293
 20
351.5679370924304
 10
149.2844884472633
 20
358.8505689404676
  0
LWPOLYLINE
  5
EBF
330
1F
100
AcDbEntity
  8
Hewi
  6
CUSTOM
 62
    18
420
        0
370
     9
100
AcDbPolyline
 90
       28
 70
     0
 43
0.0
 10
149.2658049258261
 20
358.6780684007254
 10
149.284823909531
 20
358.8569233370354
 10
149.784768988702
 20
363.3880214675683
 10
150.0496374693684
 20
365.7476898460199
 10
151.0066569322807
 20
374.0946585945201
 10
151.6855407349538
 20
379.883686602519
 10
152.806109788291
 20
389.2794776779311
 10
154.4536905252844
 20
403.0593630176663
 10
156.0194264178698
 20
414.908389979111
 10
157.9646097038529
 20
426.7699200386886
 10
160.6392908772558
 20
439.4212269313129
 10
164.7042758751468
 20
452.9739279258319
 10
169.8352624594972
 20
464.5360015067417
 10
170.31011192213
 20
465.3549246706606
 10
176.5734132882535
 20
475.3322878764739
 10
184.2111773990344
 20
483.7958367445881
 10
192.4137791377342
 20
490.2332289783251
 10
193.0955944489433
 20
490.7558897781976
 10
202.6814871725783
 20
496.186212568293
 10
213.8502041176979
 20
500.5366865545129
 10
216.1638478427609
 20
501.2411389652306
 10
217.8240329683683
 20
501.7118603002171
 10
219.7180472364106
 20
502.215607626279
 10
222.613775749207
 20
502.9218023491749
 10
224.4826535286138
 20
503.3411511495651
 10
226.3999473549884
 20
503.7871713140783
 10
229.090281296858
 20
504.5231797208406
 10
229.95354497884
 20
504.7139780207885
  0
LWPOLYLINE
  5
EC0
330
1F
100
AcDbEntity
  8
Hewi
  6
CUSTOM
 62
    18
420
        0
370
     9
100
AcDbPolyline
 90
        4
 70
     0
 43
0.0
 10
228.9507048483156
 20
507.0582028716516
 10
228.9507048483137
 20
505.7203839640584
 10
228.9507048483137
 20
504.6828629750766
 10
228.9507048483137
 20
504.4849950754487
  0
LWPOLYLINE
  5
EC9
330
1F
100
AcDbEntity
  8
Hewi
  6
CUSTOM
 62
    18
420
        0
370
     9
100
AcDbPolyline
 90
       62
 70
     0
 43
0.0
 10
142.6097959820253
 20
158.8341866893706
 10
143.0910991540132
 20
149.463319266748
 10
143.6458349539404
 20
144.8894481500419
 10
143.952958001142
 20
143.0010247461932
 10
144.1459704230183
 20
141.7622255605424
 10
144.4615309690468
 20
139.8814436954617
 10
145.164566299316
 20
136.1568257618091
 10
145.693169709286
 20
133.6864011762773
 10
146.8167222905485
 20
129.1074801544005
 10
147.5903124059295
 20
126.3527590555063
 10
148.3324986736425
 20
123.9435523941552
 10
149.132706434242
 20
121.5566899568856
 10
149.5529199426437
 20
120.3776881228032
 10
149.9929352721355
 20
119.1949930402506
 10
150.9159328971636
 20
116.8574198800747
 10
151.4006720776177
 20
115.7002460664834
 10
151.9012308386717
 20
114.5514127191886
 10
152.428071272654
 20
113.3907121603179
 10
152.9522254050533
 20
112.2807910784559
 10
155.2508470679694
 20
107.8573270388192
 10
156.4993674891045
 20
105.7107249031614
 10
157.8147514241373
 20
103.612440399173
 10
159.1972886121784
 20
101.56271747567
 10
161.3918208858029
 20
98.58636386804022
 10
162.1579988372468
 20
97.61782836652123
 10
162.9366591901924
 20
96.66566510341453
 10
163.7319553820088
 20
95.72621967473599
 10
163.8004469993556
 20
95.64490609176067
 10
164.6137811010138
 20
94.70908252023031
 10
166.0595151038287
 20
93.12235902638764
 10
168.9129091398882
 20
90.24759940724567
 10
170.7383974110652
 20
88.5657029212507
 10
173.5811399471404
 20
86.16012090685263
 10
174.9337472979823
 20
85.09794160586995
 10
176.5459839901267
 20
83.89475511328232
 10
179.1071551534622
 20
82.11470548027454
 10
180.1571441290198
 20
81.42854829479842
 10
181.2088669564598
 20
80.7646431053717
 10
182.8171349176792
 20
79.79479698260917
 10
185.7628496268313
 20
78.14677943478631
 10
189.4833769671403
 20
76.28083039038893
 10
191.7800254529664
 20
75.24045852413564
 10
196.4718220230714
 20
73.36040888561365
 10
199.1516262239183
 20
72.4197506460004
 10
201.2782102584278
 20
71.73567058008302
 10
208.6575500988201
 20
69.75494301878143
 10
213.663060211793
 20
68.72969881448302
 10
216.1850005088326
 20
68.29560983382402
 10
221.2577908798103
 20
67.56332395259732
 10
226.3564331102425
 20
66.98571329482735
 10
231.471155394338
 20
66.52968817258397
 10
235.3146281053378
 20
66.24414526874625
 10
236.5958072448793
 20
66.1792445217415
 10
250.6272662831707
 20
65.27593020205131
 10
257.687892178159
 20
64.93811864698364
 10
261.145991249994
 20
64.76768285963226
 10
267.0736111277674
 20
64.4957826856953
 10
271.7434808074229
 20
64.23431646968811
 10
278.7699722187972
 20
63.91081514978293
 10
286.1802095620315
 20
63.59215225919882
 10
291.1297059178087
 20
63.40986383325298
 10
301.0300036455391
 20
63.08798039817935
  0
LWPOLYLINE
  5
ECE
330
1F
100
AcDbEntity
  8
Hewi
  6
CUSTOM
 62
    18
420
        0
370
     9
100
AcDbPolyline
 90
       71
 70
     0
 43
0.0
 10
593.6150668595563
 20
171.7084067588975
 10
593.580430590504
 20
161.9579263605937
 10
592.9794587607701
 20
153.0516852772589
 10
592.7432693757236
 20
149.3360372201787
 10
592.1746551767081
 20
144.7769074470652
 10
591.9364255983873
 20
143.0315064484043
 10
591.7441547637391
 20
141.792053274808
 10
591.4296698574175
 20
139.9101864467012
 10
590.7287922806172
 20
136.183326256425
 10
590.0152962553258
 20
132.8923518066666
 10
589.1060807976864
 20
129.2248768389722
 10
588.3085951906814
 20
126.3723743171885
 10
587.175503484539
 20
122.7635377966271
 10
586.5595183942787
 20
120.978417101694
 10
586.132151727008
 20
119.8013929120257
 10
585.4558571922443
 20
118.0334674569867
 10
584.5031639998723
 20
115.709413966947
 10
584.0029976907535
 20
114.5592316680858
 10
583.4856845016457
 20
113.4170347424351
 10
582.9526654550298
 20
112.2857797590122
 10
581.8083032011799
 20
109.995835955623
 10
579.4065280721751
 20
105.7067165033072
 10
578.6722038165699
 20
104.5144388318376
 10
576.7083482148133
 20
101.5526152059709
 10
575.2604413322751
 20
99.55170361268125
 10
574.1324898105849
 20
98.08595004804864
 10
573.3581542972313
 20
97.12262757613821
 10
572.5722223567333
 20
96.17691943186446
 10
571.7681218480191
 20
95.24263432108915
 10
570.5330776715946
 20
93.8678825864722
 10
568.8327131383318
 20
92.08432949335344
 10
565.2516077136551
 20
88.68766594187496
 10
562.5390477239234
 20
86.39471053230597
 10
561.4456307149339
 20
85.53079178454117
 10
560.459520758506
 20
84.77874924538213
 10
557.4209946280188
 20
82.61403455688464
 10
556.3766904305139
 20
81.92050537478513
 10
555.337849021602
 20
81.25296449790402
 10
555.0584548978347
 20
81.07830244246583
 10
553.9915073784523
 20
80.41614083484631
 10
551.5845431647849
 20
79.00584827647668
 10
550.7371113618701
 20
78.53544894895413
 10
546.2583951910744
 20
76.25703648778284
 10
541.6368364967949
 20
74.24497769013391
 10
539.2781197934164
 20
73.33953692761042
 10
536.8910625577536
 20
72.49838474977514
 10
529.5866948028868
 20
70.34605024609522
 10
527.111915907184
 20
69.75023506931393
 10
522.880065949048
 20
68.87386371398775
 10
519.6009924950269
 20
68.30318631821416
 10
516.2942328166281
 20
67.81026304614801
 10
511.1182871625387
 20
67.17945424075281
 10
506.9108419190139
 20
66.7697800193045
 10
501.8078337505738
 20
66.36358932245366
 10
499.8916948422246
 20
66.22813241659196
 10
499.299287230924
 20
66.18738641803616
 10
484.7221966049619
 20
65.25407400643416
 10
477.4242469951587
 20
64.86458050435152
 10
467.6897729571682
 20
64.40716733718279
 10
462.8395494673639
 20
64.16357542478863
 10
455.5495828651255
 20
63.84185545431904
 10
448.2629187098264
 20
63.5323094149694
 10
443.3957845434833
 20
63.35582818686595
 10
433.6845252731891
 20
62.97124610882026
 10
426.391945216248
 20
62.71918262989402
 10
411.7849345929153
 20
62.31403913055015
 10
367.9514576207493
 20
61.7149291295554
 10
323.3078130899794
 20
62.33508786119637
 10
308.4319052258488
 20
62.75438176947045
 10
301.0052182320742
 20
63.01438623590451
 10
298.8331471185065
 20
63.15940569907661
  0
LWPOLYLINE
  5
ED1
330
1F
100
AcDbEntity
  8
Hewi
  6
CUSTOM
 62
    18
420
        0
370
     9
100
AcDbPolyline
 90
       81
 70
     0
 43
0.0
 10
505.9478637929278
 20
504.7139780207885
 10
507.1189224235167
 20
504.4279244234594
 10
509.0014532077766
 20
503.9468238192084
 10
511.6535832290756
 20
503.285488873405
 10
513.3779924046009
 20
502.9085620432673
 10
514.8286228896232
 20
502.5611641281529
 10
517.4431651739049
 20
501.886677226016
 10
518.6058046335548
 20
501.565612601893
 10
518.7222047388058
 20
501.5323541701923
 10
519.928304288458
 20
501.1852392951801
 10
520.8071098200726
 20
500.9227101238296
 10
532.4953215134865
 20
496.5240994537166
 10
542.2334272602109
 20
491.1380482073105
 10
551.163107607741
 20
484.2781135647487
 10
558.9261288139823
 20
475.8603234460206
 10
564.150194323014
 20
467.9058223680885
 10
565.8401822166143
 20
465.0738678016241
 10
569.7353946941002
 20
456.7368784867112
 10
571.2966348331609
 20
452.6579073547491
 10
572.7702180436518
 20
447.4918793529477
 10
574.3681953891553
 20
442.8994183293606
 10
575.6942667929105
 20
437.2775548436029
 10
576.8188884635073
 20
432.344885747252
 10
578.4086179139575
 20
424.3285335351265
 10
579.8819823538996
 20
414.908389979111
 10
581.4477182485133
 20
403.0593629293525
 10
583.0952989834782
 20
389.2794776779311
 10
584.2158680368137
 20
379.883686602519
 10
585.3145145369144
 20
370.463994898645
 10
585.8517713024027
 20
365.7476898460199
 10
586.378673090532
 20
361.0269022346537
 10
587.3777974147324
 20
351.8306389771922
 10
587.6551883020418
 20
349.2030502117259
 10
588.1407863723998
 20
344.4701099917292
 10
588.4866193472027
 20
340.9180674089739
 10
588.6998245026425
 20
338.5485078714927
 10
588.7872008858103
 20
337.3628241528653
 10
588.8910812496013
 20
336.1265084355441
 10
589.0984883067574
 20
333.6322784586883
 10
589.3010265086669
 20
331.1384726361612
 10
589.4686566205074
 20
329.051626331402
 10
589.5691099634841
 20
327.8020233567563
 10
590.0856917746129
 20
321.1470449421167
 10
590.2411932839877
 20
319.0656547004351
 10
590.3321450227848
 20
317.8233118817197
 10
590.5093592843529
 20
315.3256566451436
 10
590.5675277852295
 20
314.4952141610087
 10
590.7383874744663
 20
311.9968899723907
 10
590.7946299932737
 20
311.1649415878545
 10
590.9314014750198
 20
309.0878931828819
 10
591.0121913905494
 20
307.8353857907514
 10
591.1718219458836
 20
305.3335194165875
 10
591.2245128239756
 20
304.4988533750425
 10
591.3280819836109
 20
302.8340766089563
 10
591.4050454208608
 20
301.5801883802142
 10
591.5388948273102
 20
299.3733735439068
 10
591.6796215081831
 20
296.9961885149487
 10
591.7759416492954
 20
295.3281919805101
 10
591.8238323212464
 20
294.4933007241815
 10
592.0565187503345
 20
290.324378022442
 10
592.1464654306799
 20
288.6568244158593
 10
592.1937651620754
 20
287.718678610895
 10
592.2715869037165
 20
286.1751016672565
 10
592.4262787034079
 20
282.9004912046436
 10
592.6257744671145
 20
277.9635898413928
 10
592.8676109660882
 20
271.402917396772
 10
592.9815641826444
 20
268.1133234618956
 10
593.1277061918191
 20
264.8088586192825
 10
593.2735320871434
 20
261.5154558077397
 10
593.4132017286099
 20
258.2284206169957
 10
593.634754468623
 20
252.5268459004747
 10
593.8801220968289
 20
245.0705785814051
 10
594.1959411747139
 20
231.9342385953802
 10
594.365180665869
 20
220.0501196957466
 10
594.3895084748872
 20
217.2736464132559
 10
594.4260616675763
 20
205.6747026220874
 10
594.3999348709349
 20
199.1051908571398
 10
594.3427868783089
 20
192.5553161662074
 10
594.2558516098342
 20
185.9947762489173
 10
594.0547025023715
 20
179.058218732815
 10
593.608789010099
 20
169.9411288645769
  0
LWPOLYLINE
  5
ED3
330
1F
100
AcDbEntity
  8
Hewi
  6
CUSTOM
 62
    18
420
        0
370
     9
100
AcDbPolyline
 90
        3
 70
     0
 43
0.0
 10
506.950703923454
 20
504.4690150391207
 10
506.950703923454
 20
504.8622663979466
 10
506.950703923454
 20
507.0582028716516
  0
LINE
  5
ED5
330
1F
100
AcDbEntity
  8
Hewi
  6
CUSTOM
 62
    18
420
        0
370
     9
100
AcDbLine
 10
367.9501154799
 20
297.9083613578136
 30
0.0
 11
365.5161251921689
 21
298.1349778418302
 31
0.0
  0
LWPOLYLINE
  5
ED6
330
1F
100
AcDbEntity
  8
Hewi
  6
CUSTOM
 62
    18
420
        0
370
     9
100
AcDbPolyline
 90
        4
 70
     0
 43
0.0
 10
367.9488506737015
 20
296.4658458615941
 10
367.9489650979684
 20
297.2198325471849
 10
367.9516590651947
 20
296.4660817960781
 10
367.9512915346638
 20
295.5698621013435
  0
LINE
  5
ED7
330
1F
100
AcDbEntity
  8
Hewi
  6
CUSTOM
 62
    18
420
        0
370
     9
100
AcDbLine
 10
364.8116160269383
 20
298.2672286166225
 30
0.0
 11
363.5138840715061
 21
298.6409114768918
 31
0.0
  0
LINE
  5
ED8
330
1F
100
AcDbEntity
  8
Hewi
  6
CUSTOM
 62
    18
420
        0
370
     9
100
AcDbLine
 10
353.4665604015208
 20
366.634147374296
 30
0.0
 11
353.8947282637674
 21
368.0672844362771
 31
0.0
  0
LWPOLYLINE
  5
ED9
330
1F
100
AcDbEntity
  8
Hewi
  6
CUSTOM
 62
    18
420
        0
370
     9
100
AcDbPolyline
 90
       13
 70
     0
 43
0.0
 10
382.8049251476474
 20
310.7833597897695
 10
382.2302169904706
 20
308.3032719017456
 10
380.6463516678904
 20
304.9152108224504
 10
378.8169378905239
 20
302.5617898332212
 10
376.7304822297429
 20
300.74477136707
 10
373.7723428032823
 20
299.0833208390113
 10
370.7865150273574
 20
298.178814676517
 10
367.9504149881574
 20
297.9083431468495
 10
366.1356049435564
 20
298.0186888151665
 10
364.2362520855204
 20
298.3752361966497
 10
361.3629395284135
 20
299.431994116945
 10
358.3519498311816
 20
301.3799839688067
 10
356.4776216955888
 20
303.2429363274504
  0
LINE
  5
EDA
330
1F
100
AcDbEntity
  8
Hewi
  6
CUSTOM
 62
    18
420
        0
370
     9
100
AcDbLine
 10
367.9512915346638
 20
295.5698621013435
 30
0.0
 11
367.9488506737015
 21
296.4658458615941
 31
0.0
  0
LWPOLYLINE
  5
EDB
330
1F
100
AcDbEntity
  8
Hewi
  6
CUSTOM
 62
    18
420
        0
370
     9
100
AcDbPolyline
 90
       12
 70
     0
 43
0.0
 10
370.4096399967256
 20
377.7057657637611
 10
372.7575970563212
 20
377.1178712404282
 10
375.1938915867922
 20
376.0442878036574
 10
377.5830360701365
 20
374.4087948053468
 10
379.9180437275427
 20
371.9552771802163
 10
381.7064581231734
 20
368.897358036822
 10
382.7166533466789
 20
365.5831810979851
 10
382.9542644219599
 20
362.9082648268444
 10
382.9547425383715
 20
349.0274755677892
 10
382.9547444373784
 20
335.1303961044919
 10
382.9539030420092
 20
312.9082637562834
 10
382.9211447413944
 20
311.9051091704686
  0
LWPOLYLINE
  5
EDC
330
1F
100
AcDbEntity
  8
Hewi
  6
CUSTOM
 62
    18
420
        0
370
     9
100
AcDbPolyline
 90
        7
 70
     0
 43
0.0
 10
353.1037119716511
 20
365.0934054811305
 10
353.6779938617838
 20
367.5319448188666
 10
354.486531634193
 20
369.5290542432356
 10
356.4231717964521
 20
372.5104672243638
 10
358.9688576208954
 20
374.9236282899459
 10
361.8704098604484
 20
376.6215847757566
 10
365.0489931606644
 20
377.62542923203
  0
LWPOLYLINE
  5
EDD
330
1F
100
AcDbEntity
  8
Hewi
  6
CUSTOM
 62
    18
420
        0
370
     9
100
AcDbPolyline
 90
        6
 70
     0
 43
0.0
 10
353.340899580864
 20
309.54171980105
 10
352.9475057350574
 20
312.9082637562834
 10
352.9468674349027
 20
326.7921755314546
 10
352.9466116993189
 20
340.6899755753957
 10
352.9471443551102
 20
362.9082648268444
 10
352.9773236790405
 20
363.8939259280752
  0
LINE
  5
EDE
330
1F
100
AcDbEntity
  8
Hewi
  6
CUSTOM
 62
    18
420
        0
370
     9
100
AcDbLine
 10
367.9490951290118
 20
295.5697452315071
 30
0.0
 11
367.9488506737015
 21
296.4658458615941
 31
0.0
  0
LWPOLYLINE
  5
EE0
330
1F
100
AcDbEntity
  8
Hewi
  6
CUSTOM
 62
    18
420
        0
370
     9
100
AcDbPolyline
 90
        3
 70
     0
 43
0.0
 10
356.5513322603964
 20
303.1696731580455
 10
354.6004674252817
 20
306.0608767777702
 10
353.3125918528221
 20
309.6199488808895
  0
LWPOLYLINE
  5
EE2
330
1F
100
AcDbEntity
  8
Hewi
  6
CUSTOM
 62
    18
420
        0
370
     9
100
AcDbPolyline
 90
        3
 70
     0
 43
0.0
 10
364.743807201412
 20
377.5290469108966
 10
367.9504079291764
 20
377.9083418784016
 10
369.1455053466654
 20
377.860791088432
  0
LINE
  5
EE3
330
1F
100
AcDbEntity
  8
Hewi
  6
CUSTOM
 62
    18
420
        0
370
     9
100
AcDbLine
 10
228.9507048483156
 20
507.0582028716516
 30
0.0
 11
228.9507048483137
 21
511.1772266917512
 31
0.0
  0
LINE
  5
EE4
330
1F
100
AcDbEntity
  8
Hewi
  6
CUSTOM
 62
    18
420
        0
370
     9
100
AcDbLine
 10
506.950703923454
 20
511.1752072530521
 30
0.0
 11
506.950703923454
 21
507.0582028716516
 31
0.0
  0
LINE
  5
EE7
330
1F
100
AcDbEntity
  8
Hewi
  6
CUSTOM
 62
    18
420
        0
370
     9
100
AcDbLine
 10
358.8160201619195
 20
301.0797490296317
 30
0.0
 11
357.0858878035797
 21
302.6383619363795
 31
0.0
  0
LINE
  5
EE8
330
1F
100
AcDbEntity
  8
Hewi
  6
CUSTOM
 62
    18
420
        0
370
     9
100
AcDbLine
 10
361.9593117793919
 20
299.2126580450495
 30
0.0
 11
360.4265463805696
 21
300.0378030053106
 31
0.0
  0
LINE
  5
EE9
330
1F
100
AcDbEntity
  8
Hewi
  6
CUSTOM
 62
    18
420
        0
370
     9
100
AcDbLine
 10
354.2429102211735
 20
368.9273029879714
 30
0.0
 11
355.0889190547402
 21
370.4564158190151
 31
0.0
  0
LWPOLYLINE
  5
EED
330
1F
100
AcDbEntity
  8
Hewi
  6
CUSTOM
 62
    18
420
        0
370
     9
100
AcDbPolyline
 90
        3
 70
     0
 43
0.0
 10
227.9507048569249
 20
511.1666640703545
 10
227.9507048569249
 20
507.1011022274506
 10
227.9507048569249
 20
504.2114199452548
  0
LWPOLYLINE
  5
EEF
330
1F
100
AcDbEntity
  8
Hewi
  6
CUSTOM
 62
    18
420
        0
370
     9
100
AcDbPolyline
 90
        3
 70
     0
 43
0.0
 10
512.9507039033724
 20
503.0019602272709
 10
512.9507039033724
 20
507.1011022274506
 10
512.9507039033724
 20
511.1082549307127
  0
LINE
  5
EF0
330
1F
100
AcDbEntity
  8
Hewi
  6
CUSTOM
 62
    18
420
        0
370
     9
100
AcDbLine
 10
377.2999645914206
 20
301.2407128727827
 30
0.0
 11
375.7567328394198
 21
300.1978612376561
 31
0.0
  0
LINE
  5
EF1
330
1F
100
AcDbEntity
  8
Hewi
  6
CUSTOM
 62
    18
420
        0
370
     9
100
AcDbLine
 10
367.9514183941865
 20
377.9083016738066
 30
0.0
 11
370.5897199977532
 21
377.6606763203262
 31
0.0
  0
LINE
  5
EF2
330
1F
100
AcDbEntity
  8
Hewi
  6
CUSTOM
 62
    18
420
        0
370
     9
100
AcDbLine
 10
356.159035492221
 20
372.103835460176
 30
0.0
 11
357.2524298079752
 21
373.2965552431878
 31
0.0
  0
LINE
  5
EF3
330
1F
100
AcDbEntity
  8
Hewi
  6
CUSTOM
 62
    18
420
        0
370
     9
100
AcDbLine
 10
381.094676792456
 20
305.8742272689192
 30
0.0
 11
380.3866393301631
 21
304.5811078999912
 31
0.0
  0
LINE
  5
EF5
330
1F
100
AcDbEntity
  8
Hewi
  6
CUSTOM
 62
    18
420
        0
370
     9
100
AcDbLine
 10
379.5712968073984
 20
303.5322231696016
 30
0.0
 11
378.1915956479314
 21
302.0172019983355
 31
0.0
  0
LWPOLYLINE
  5
EF6
330
1F
100
AcDbEntity
  8
Hewi
  6
CUSTOM
 62
    18
420
        0
370
     9
100
AcDbPolyline
 90
        3
 70
     0
 43
0.0
 10
507.9507039201032
 20
504.2153537230278
 10
507.9507039201032
 20
507.1011022274506
 10
507.9507039201032
 20
511.1640481015216
  0
LINE
  5
EF8
330
1F
100
AcDbEntity
  8
Hewi
  6
CUSTOM
 62
    18
420
        0
370
     9
100
AcDbLine
 10
352.9527117905855
 20
363.0900980585442
 30
0.0
 11
353.1779203549049
 21
365.4085121448941
 31
0.0
  0
LINE
  5
EF9
330
1F
100
AcDbEntity
  8
Hewi
  6
CUSTOM
 62
    18
420
        0
370
     9
100
AcDbLine
 10
374.0643330360235
 20
376.5420418027625
 30
0.0
 11
375.9940320834539
 21
375.496550241387
 31
0.0
  0
LINE
  5
EFA
330
1F
100
AcDbEntity
  8
Hewi
  6
CUSTOM
 62
    18
420
        0
370
     9
100
AcDbLine
 10
382.5989256160154
 20
365.9694138915987
 30
0.0
 11
382.9198293396985
 21
363.2959191723838
 31
0.0
  0
LINE
  5
EFB
330
1F
100
AcDbEntity
  8
Hewi
  6
CUSTOM
 62
    18
420
        0
370
     9
100
AcDbLine
 10
381.4847420903243
 20
369.2764590398001
 30
0.0
 11
382.0566228112674
 21
367.7485625421268
 31
0.0
  0
LWPOLYLINE
  5
EFC
330
1F
100
AcDbEntity
  8
Hewi
  6
CUSTOM
 62
    18
420
        0
370
     9
100
AcDbPolyline
 90
        3
 70
     0
 43
0.0
 10
222.9507048736541
 20
511.111464778609
 10
222.9507048736541
 20
507.1011022274506
 10
222.9507048736541
 20
502.9974041775285
  0
LINE
  5
EFD
330
1F
100
AcDbEntity
  8
Hewi
  6
CUSTOM
 62
    18
420
        0
370
     9
100
AcDbLine
 10
358.6197544863808
 20
374.5926989644311
 30
0.0
 11
360.0697254771639
 21
375.5678440568636
 31
0.0
  0
LINE
  5
EFE
330
1F
100
AcDbEntity
  8
Hewi
  6
CUSTOM
 62
    18
420
        0
370
     9
100
AcDbLine
 10
377.0465037661034
 20
374.7760789278847
 30
0.0
 11
378.3911162519979
 21
373.5597016823411
 31
0.0
  0
LINE
  5
EFF
330
1F
100
AcDbEntity
  8
Hewi
  6
CUSTOM
 62
    18
420
        0
370
     9
100
AcDbLine
 10
382.4327613031944
 20
309.1773289152407
 30
0.0
 11
382.0811571278552
 21
307.984416563022
 31
0.0
  0
LINE
  5
F00
330
1F
100
AcDbEntity
  8
Hewi
  6
CUSTOM
 62
    18
420
        0
370
     9
100
AcDbLine
 10
371.1453832624685
 20
298.2875277545017
 30
0.0
 11
367.9534562477619
 21
297.9086331842735
 31
0.0
  0
LINE
  5
F02
330
1F
100
AcDbEntity
  8
Hewi
  6
CUSTOM
 62
    18
420
        0
370
     9
100
AcDbLine
 10
361.5123385080206
 20
376.4120453588191
 30
0.0
 11
363.2692931393214
 21
377.0633731785556
 31
0.0
  0
LINE
  5
F03
330
1F
100
AcDbEntity
  8
Hewi
  6
CUSTOM
 62
    18
420
        0
370
     9
100
AcDbLine
 10
379.5912441340569
 20
372.2986630152923
 30
0.0
 11
380.4966072071854
 21
370.966020795956
 31
0.0
  0
LINE
  5
F04
330
1F
100
AcDbEntity
  8
Hewi
  6
CUSTOM
 62
    18
420
        0
370
     9
100
AcDbLine
 10
382.9476143334959
 20
312.715685189122
 30
0.0
 11
382.732243160908
 21
310.4697088724961
 31
0.0
  0
LINE
  5
F05
330
1F
100
AcDbEntity
  8
Hewi
  6
CUSTOM
 62
    18
420
        0
370
     9
100
AcDbLine
 10
371.474108440032
 20
377.4392382446108
 30
0.0
 11
373.0993378397304
 21
376.9672789220558
 31
0.0
  0
LINE
  5
F06
330
1F
100
AcDbEntity
  8
Hewi
  6
CUSTOM
 62
    18
420
        0
370
     9
100
AcDbLine
 10
374.2709418312788
 20
299.3633609291381
 30
0.0
 11
372.4076170980934
 21
298.6699002025251
 31
0.0
  0
LWPOLYLINE
  5
F39
330
1F
100
AcDbEntity
  8
Hewi
  6
CUSTOM
 62
    18
420
        0
370
     9
100
AcDbPolyline
 90
        3
 70
     0
 43
0.0
 10
219.9507048836895
 20
511.0769743573055
 10
219.9507048836895
 20
505.3930171325163
 10
219.9507048836895
 20
502.2723468324438
  0
LINE
  5
F3A
330
1F
100
AcDbEntity
  8
Hewi
  6
CUSTOM
 62
    18
420
        0
370
     9
100
AcDbLine
 10
506.9506966516801
 20
505.8500177968686
 30
0.0
 11
507.9507026684039
 21
505.8500177968686
 31
0.0
  0
LINE
  5
F3C
330
1F
100
AcDbEntity
  8
Hewi
  6
CUSTOM
 62
    18
420
        0
370
     9
100
AcDbLine
 10
227.9507047628595
 20
505.8500177968686
 30
0.0
 11
228.9507045890823
 21
505.8500177968686
 31
0.0
  0
LWPOLYLINE
  5
F3E
330
1F
100
AcDbEntity
  8
Hewi
  6
CUSTOM
 62
    18
420
        0
370
     9
100
AcDbPolyline
 90
        8
 70
     0
 43
0.0
 10
217.7081553423995
 20
555.5902201864626
 10
215.1735066555302
 20
555.5475497308365
 10
203.1313749432683
 20
553.7031065512445
 10
191.3826846313221
 20
551.5616464820709
 10
181.6624992127344
 20
549.475251349904
 10
173.5027761221063
 20
547.4479927265256
 10
165.890516322348
 20
545.2519874290545
 10
163.3594485070388
 20
544.3603921921615
  0
LWPOLYLINE
  5
FF4
330
1F
100
AcDbEntity
  8
Hewi
  6
CUSTOM
 62
    18
420
        0
370
     9
100
AcDbPolyline
 90
       34
 70
     0
 43
0.0
 10
227.9507064368608
 20
1066.791211242783
 10
228.0635308303935
 20
1066.791211242783
 10
228.3963465247798
 20
1066.791211242783
 10
228.932464751393
 20
1066.791211242783
 10
229.6450023037104
 20
1066.791211242783
 10
230.498229573559
 20
1066.791211242783
 10
231.4493621828697
 20
1066.791211242783
 10
232.4507063710207
 20
1066.791211242783
 10
347.9507046811359
 20
1066.791211242783
 10
347.9507046811359
 20
1096.791211139652
 10
348.0760651183917
 20
1097.903815805608
 10
348.4458603343792
 20
1098.960629827782
 10
349.0415472528348
 20
1099.908660138227
 10
349.8332556442985
 20
1100.700368538553
 10
350.7812859441328
 20
1101.296055463677
 10
351.8380999544769
 20
1101.665850683803
 10
352.950704607978
 20
1101.791211122463
 10
382.9507041690484
 20
1101.791211122463
 10
384.0633088225514
 20
1101.665850683803
 10
385.1201228328954
 20
1101.296055463677
 10
386.0681531327299
 20
1100.700368538553
 10
386.8598615241917
 20
1099.908660138227
 10
387.4555484426492
 20
1098.960629827782
 10
387.8253436586383
 20
1097.903815805608
 10
387.9507040958925
 20
1096.791211139652
 10
387.9507040958925
 20
1066.791211242783
 10
503.4507024060058
 20
1066.791211242783
 10
504.4520465941586
 20
1066.791211242783
 10
505.4031792034674
 20
1066.791211242783
 10
506.2564064733196
 20
1066.791211242783
 10
506.9689440256367
 20
1066.791211242783
 10
507.5050622522485
 20
1066.791211242783
 10
507.8378779466365
 20
1066.791211242783
 10
507.9507023401673
 20
1066.791211242783
  0
LWPOLYLINE
  5
FF5
330
1F
100
AcDbEntity
  8
Hewi
  6
CUSTOM
 62
    18
420
        0
370
     9
100
AcDbPolyline
 90
        8
 70
     0
 43
0.0
 10
227.9507064368608
 20
1066.791211242783
 10
227.9507064368608
 20
1067.047510594051
 10
227.9507064368608
 20
1067.803270776312
 10
227.9507064368608
 20
1069.019751620551
 10
227.9507064368608
 20
1070.634596476314
 10
227.9507064368608
 20
1072.565028605528
 10
227.9507064368608
 20
1157.565612319662
 10
227.9507064368608
 20
1163.55059923673
  0
LWPOLYLINE
  5
FF6
330
1F
100
AcDbEntity
  8
Hewi
  6
CUSTOM
 62
    18
420
        0
370
     9
100
AcDbPolyline
 90
        9
 70
     0
 43
0.0
 10
512.9507022670094
 20
1066.791211242783
 10
512.9507022670094
 20
1067.047510594051
 10
512.9507022670094
 20
1067.803270776312
 10
512.9507022670094
 20
1069.019751620551
 10
512.9507022670094
 20
1070.634596476314
 10
512.9507022670094
 20
1072.565028605528
 10
512.9507022670094
 20
1157.565612319662
 10
512.9507022670094
 20
1165.146057355168
 10
512.9507022670094
 20
1166.927135439813
  0
LWPOLYLINE
  5
FF7
330
1F
100
AcDbEntity
  8
Hewi
  6
CUSTOM
 62
    18
420
        0
370
     9
100
AcDbPolyline
 90
        9
 70
     0
 43
0.0
 10
222.9507065100188
 20
1166.910612586905
 10
222.9507065100188
 20
1165.146057355168
 10
222.9507065100188
 20
1157.565612319662
 10
222.9507065100188
 20
1072.565028605528
 10
222.9507065100188
 20
1070.634596476314
 10
222.9507065100188
 20
1069.019751620551
 10
222.9507065100188
 20
1067.803270776312
 10
222.9507065100188
 20
1067.047510594051
 10
222.9507065100188
 20
1066.791211242783
  0
LINE
  5
FF8
330
1F
100
AcDbEntity
  8
Hewi
  6
CUSTOM
 62
    18
420
        0
370
     9
100
AcDbLine
 10
507.9507023401673
 20
1066.791211242783
 30
0.0
 11
512.9507022670094
 21
1066.791211242783
 31
0.0
  0
LINE
  5
FF9
330
1F
100
AcDbEntity
  8
Hewi
  6
CUSTOM
 62
    18
420
        0
370
     9
100
AcDbLine
 10
222.9507065100188
 20
1066.791211242783
 30
0.0
 11
227.9507064368608
 21
1066.791211242783
 31
0.0
  0
LINE
  5
FFA
330
1F
100
AcDbEntity
  8
Hewi
  6
CUSTOM
 62
    18
420
        0
370
     9
100
AcDbLine
 10
248.9196686366195
 20
1154.433411222483
 30
0.0
 11
249.0533200316058
 21
1155.710395623396
 31
0.0
  0
LWPOLYLINE
  5
FFD
330
1F
100
AcDbEntity
  8
Hewi
  6
CUSTOM
 62
    18
420
        0
370
     9
100
AcDbPolyline
 90
       10
 70
     0
 43
0.0
 10
219.9507065539092
 20
1167.451087032183
 10
219.9507065539092
 20
1163.686392713862
 10
219.9507065539092
 20
1156.315567235572
 10
219.9507065539092
 20
1149.827904059232
 10
219.9507065539092
 20
1144.600442586954
 10
219.9507065539092
 20
1140.936983878457
 10
219.9507065539092
 20
1139.05043483775
 10
220.250706549519
 20
1138.752622176544
 10
222.650706514405
 20
1138.752622176544
 10
222.950706510017
 20
1139.05043483775
  0
LWPOLYLINE
  5
FFE
330
1F
100
AcDbEntity
  8
Hewi
  6
CUSTOM
 62
    18
420
        0
370
     9
100
AcDbPolyline
 90
       14
 70
     0
 43
0.0
 10
306.8138128108858
 20
1136.213348186887
 10
306.6484035827125
 20
1136.223384017856
 10
306.3146028084266
 20
1136.234272944267
 10
305.8526629378157
 20
1136.243359684142
 10
305.2866469441706
 20
1136.250218100335
 10
304.6468813487081
 20
1136.254482655927
 10
303.969802556794
 20
1136.255930650697
 10
271.9316117778888
 20
1136.255896415919
 10
271.3653506840783
 20
1136.254889916877
 10
270.8205039600179
 20
1136.251901082194
 10
270.2256111983294
 20
1136.245846503591
 10
269.726413296281
 20
1136.237439267524
 10
269.3482245405812
 20
1136.227084407661
 10
269.1121811319954
 20
1136.215302494667
  0
LWPOLYLINE
  5
FFF
330
1F
100
AcDbEntity
  8
Hewi
  6
CUSTOM
 62
    18
420
        0
370
     9
100
AcDbPolyline
 90
        3
 70
     0
 43
0.0
 10
429.0319012823329
 20
1136.124297587406
 10
367.9507043858848
 20
1136.124487720987
 10
306.8695074894367
 20
1136.124297587406
  0
LWPOLYLINE
  5
1000
330
1F
100
AcDbEntity
  8
Hewi
  6
CUSTOM
 62
    18
420
        0
370
     9
100
AcDbPolyline
 90
        5
 70
     0
 43
0.0
 10
248.9507086831891
 20
1154.729986168608
 10
248.9507086577195
 20
1150.557545304107
 10
248.950708633085
 20
1146.793581437725
 10
248.950708598566
 20
1142.311842502341
 10
248.9507085675631
 20
1139.496328385903
  0
LWPOLYLINE
  5
1001
330
1F
100
AcDbEntity
  8
Hewi
  6
CUSTOM
 62
    18
420
        0
370
     9
100
AcDbPolyline
 90
        8
 70
     0
 43
0.0
 10
507.9507023401673
 20
1163.536830968131
 10
507.9507023401673
 20
1157.565612319662
 10
507.9507023401673
 20
1072.565028605528
 10
507.9507023401673
 20
1070.634596476314
 10
507.9507023401673
 20
1069.019751620551
 10
507.9507023401673
 20
1067.803270776312
 10
507.9507023401673
 20
1067.047510594051
 10
507.9507023401673
 20
1066.791211242783
  0
LWPOLYLINE
  5
1003
330
1F
100
AcDbEntity
  8
Hewi
  6
CUSTOM
 62
    18
420
        0
370
     9
100
AcDbPolyline
 90
        7
 70
     0
 43
0.0
 10
227.1560014565582
 20
1164.383012371416
 10
228.0375189915576
 20
1163.477462781173
 10
228.8769162440475
 20
1160.541275622988
 10
228.958056479285
 20
1159.210732402176
 10
228.9810442431007
 20
1159.061114256387
 10
230.3643926196746
 20
1151.140265666759
 10
228.9507066277038
 20
1152.369678118771
  0
LWPOLYLINE
  5
1004
330
1F
100
AcDbEntity
  8
Hewi
  6
CUSTOM
 62
    18
420
        0
370
     9
100
AcDbPolyline
 90
        3
 70
     0
 43
0.0
 10
249.0533200316058
 20
1155.710395623396
 10
249.9812022347578
 20
1158.929985093338
 10
253.5803398298686
 20
1162.527706932038
  0
LWPOLYLINE
  5
1005
330
1F
100
AcDbEntity
  8
Hewi
  6
CUSTOM
 62
    18
420
        0
370
     9
100
AcDbPolyline
 90
       10
 70
     0
 43
0.0
 10
350.9506403283467
 20
1160.849701274542
 10
350.5992675578363
 20
1160.493448650399
 10
348.0977718276424
 20
1159.358900657067
 10
346.8343067716504
 20
1159.245557771397
 10
318.8721051513093
 20
1160.015825834141
 10
288.2129322192995
 20
1161.536026304043
 10
288.0290969034029
 20
1161.548936658627
 10
260.9553096075324
 20
1163.474615826163
 10
259.7729230545992
 20
1163.570911394676
 10
254.1608189396172
 20
1162.874724071023
  0
LWPOLYLINE
  5
1006
330
1F
100
AcDbEntity
  8
Hewi
  6
CUSTOM
 62
    18
420
        0
370
     9
100
AcDbPolyline
 90
        4
 70
     0
 43
0.0
 10
250.0002929481325
 20
1159.236661095959
 10
253.3210786594318
 20
1162.398372142132
 10
254.0584269625668
 20
1162.766204951505
 10
254.402964557821
 20
1162.904762487821
  0
LWPOLYLINE
  5
1009
330
1F
100
AcDbEntity
  8
Hewi
  6
CUSTOM
 62
    18
420
        0
370
     9
100
AcDbPolyline
 90
       13
 70
     0
 43
0.0
 10
176.0597337500457
 20
1172.459816885428
 10
169.9924423049123
 20
1171.24641590452
 10
166.9439935695481
 20
1170.531776698447
 10
162.7698213001985
 20
1169.700794567729
 10
160.4908744167715
 20
1169.702810549235
 10
158.3648630557255
 20
1170.044352138096
 10
156.4472118890588
 20
1170.65501721558
 10
154.8956829580708
 20
1170.893148984222
 10
153.1501258362512
 20
1171.753701429991
 10
153.0138565180605
 20
1171.821171598288
 10
152.935039749036
 20
1171.862491784183
 10
152.8064377927512
 20
1171.9401355947
 10
152.687407295125
 20
1172.021068014186
  0
LWPOLYLINE
  5
100A
330
1F
100
AcDbEntity
  8
Hewi
  6
CUSTOM
 62
    18
420
        0
370
     9
100
AcDbPolyline
 90
        5
 70
     0
 43
0.0
 10
228.950706458705
 20
1138.637374172059
 10
228.9507065005127
 20
1140.229523386117
 10
228.9507065481757
 20
1143.536582239842
 10
228.9507065919679
 20
1147.97167770417
 10
228.9507066277038
 20
1152.369678118771
  0
LWPOLYLINE
  5
100C
330
1F
100
AcDbEntity
  8
Hewi
  6
CUSTOM
 62
    18
420
        0
370
     9
100
AcDbPolyline
 90
        8
 70
     0
 43
0.0
 10
230.4507463263144
 20
1136.123500484213
 10
231.2250250875912
 20
1136.123350068909
 10
242.4913359817418
 20
1136.123517226355
 10
266.1319291365034
 20
1136.123813604469
 10
269.0319289911349
 20
1136.123980049793
 10
269.2459119268111
 20
1136.142146835024
 10
269.452988056462
 20
1136.194508533186
 10
269.5349552991118
 20
1136.232197121429
  0
LWPOLYLINE
  5
100D
330
1F
100
AcDbEntity
  8
Hewi
  6
CUSTOM
 62
    18
420
        0
370
     9
100
AcDbPolyline
 90
        4
 70
     0
 43
0.0
 10
229.301841503442
 20
1136.692273388715
 10
229.1229583273798
 20
1136.971268780526
 10
229.1006586802287
 20
1137.013669338946
 10
228.9507064169957
 20
1137.692023829443
  0
LWPOLYLINE
  5
100E
330
1F
100
AcDbEntity
  8
Hewi
  6
CUSTOM
 62
    18
420
        0
370
     9
100
AcDbPolyline
 90
        7
 70
     0
 43
0.0
 10
230.4507548369584
 20
1136.123360047205
 10
230.4345411485229
 20
1136.123330902695
 10
230.418406022889
 20
1136.123632922402
 10
230.4007537817579
 20
1136.124359973074
 10
229.9517942994132
 20
1136.224623146335
 10
229.5524550447481
 20
1136.444919293277
 10
229.301841503442
 20
1136.692273388715
  0
LWPOLYLINE
  5
1010
330
1F
100
AcDbEntity
  8
Hewi
  6
CUSTOM
 62
    18
420
        0
370
     9
100
AcDbPolyline
 90
        4
 70
     0
 43
0.0
 10
306.3281555811809
 20
1136.233830837332
 10
306.4275782969489
 20
1136.195193648889
 10
306.5463736622604
 20
1136.160752467891
 10
306.8694982915058
 20
1136.12401374092
  0
LWPOLYLINE
  5
1012
330
1F
100
AcDbEntity
  8
Hewi
  6
CUSTOM
 62
    18
420
        0
370
     9
100
AcDbPolyline
 90
       19
 70
     0
 43
0.0
 10
142.2863444588982
 20
1205.635882318397
 10
142.0823313899927
 20
1204.684732693835
 10
141.9688595018488
 20
1203.9567891029
 10
141.8818796917712
 20
1203.244445744824
 10
141.8228907749745
 20
1202.557895242799
 10
141.4877282046855
 20
1198.314574963998
 10
141.4634245302293
 20
1197.711039185842
 10
141.4703912120603
 20
1197.022375911431
 10
141.5141891612837
 20
1196.421648053211
 10
141.827109088008
 20
1192.140199813779
 10
142.0027886621191
 20
1191.099036365999
 10
143.626081994149
 20
1184.769696858462
 10
143.7475620498879
 20
1184.295701612087
 10
144.1115650078027
 20
1183.454909584863
 10
146.1698432097544
 20
1179.333930457333
 10
146.327049522766
 20
1179.060116682214
 10
146.4157705157868
 20
1178.927630430171
 10
146.6079980604044
 20
1178.667126887288
 10
148.7943958473825
 20
1175.905308067583
  0
LWPOLYLINE
  5
1013
330
1F
100
AcDbEntity
  8
Hewi
  6
CUSTOM
 62
    18
420
        0
370
     9
100
AcDbPolyline
 90
       20
 70
     0
 43
0.0
 10
146.6442359964858
 20
1178.621351762237
 10
147.0159220109744
 20
1177.854452251832
 10
147.2418059610406
 20
1177.398384340224
 10
147.3555916784062
 20
1177.167940519055
 10
149.4091178941398
 20
1174.630226315015
 10
149.5248200257337
 20
1174.498426305217
 10
149.5852591747133
 20
1174.43140610606
 10
149.6473629946029
 20
1174.371684422203
 10
149.7317788719393
 20
1174.29362810184
 10
149.928411779354
 20
1174.12349741077
 10
150.9319454820905
 20
1173.260678790364
 10
150.998614473492
 20
1173.204851050701
 10
151.0889705611116
 20
1173.131127451481
 10
151.2750411885608
 20
1172.988989278236
 10
151.3227418388505
 20
1172.954964068831
 10
151.4188368028042
 20
1172.883856351248
 10
151.4921751246144
 20
1172.83282649474
 10
151.5663998534218
 20
1172.782226137623
 10
152.6064676835975
 20
1172.07548296287
 10
152.7434416005581
 20
1171.983396671349
  0
LWPOLYLINE
  5
1014
330
1F
100
AcDbEntity
  8
Hewi
  6
CUSTOM
 62
    18
420
        0
370
     9
100
AcDbPolyline
 90
        3
 70
     0
 43
0.0
 10
228.9507064169957
 20
1137.692023829443
 10
228.9507064169628
 20
1137.883089295087
 10
228.950706458705
 20
1138.637374172059
  0
LWPOLYLINE
  5
1015
330
1F
100
AcDbEntity
  8
Hewi
  6
CUSTOM
 62
    18
420
        0
370
     9
100
AcDbPolyline
 90
        3
 70
     0
 43
0.0
 10
229.301841503442
 20
1136.692273388715
 10
229.5524528419301
 20
1136.467968122804
 10
229.9500662822502
 20
1136.232282340269
  0
LWPOLYLINE
  5
1017
330
1F
100
AcDbEntity
  8
Hewi
  6
CUSTOM
 62
    18
420
        0
370
     9
100
AcDbPolyline
 90
       10
 70
     0
 43
0.0
 10
171.5748418331258
 20
1171.86341786493
 10
177.2039384871784
 20
1172.611972747128
 10
183.464802673634
 20
1172.069581986546
 10
185.3045595294333
 20
1171.812408806754
 10
194.1898806733225
 20
1170.605587025084
 10
207.8300087954631
 20
1168.871425319845
 10
218.4459197436081
 20
1167.620689874424
 10
221.161730221991
 20
1167.314593782347
 10
221.8475145913287
 20
1167.278343987361
 10
224.972434385003
 20
1166.236702276344
  0
LWPOLYLINE
  5
1018
330
1F
100
AcDbEntity
  8
Hewi
  6
CUSTOM
 62
    18
420
        0
370
     9
100
AcDbPolyline
 90
        3
 70
     0
 43
0.0
 10
145.0636621750562
 20
1213.358557309804
 10
145.01245895019
 20
1213.293840798078
 10
144.890744004695
 20
1213.132552596299
  0
LWPOLYLINE
  5
1019
330
1F
100
AcDbEntity
  8
Hewi
  6
CUSTOM
 62
    18
420
        0
370
     9
100
AcDbPolyline
 90
        4
 70
     0
 43
0.0
 10
207.9600515839918
 20
1234.586164196884
 10
219.7377618306818
 20
1237.196123124498
 10
234.0202299760658
 20
1239.254125684728
 10
234.7301926453984
 20
1239.283359494275
  0
LWPOLYLINE
  5
101C
330
1F
100
AcDbEntity
  8
Hewi
  6
CUSTOM
 62
    18
420
        0
370
     9
100
AcDbPolyline
 90
        3
 70
     0
 43
0.0
 10
234.2450141149875
 20
1239.238475925935
 10
242.5263462612454
 20
1240.004576862221
 10
251.003084579439
 20
1240.539404700148
  0
LWPOLYLINE
  5
101D
330
1F
100
AcDbEntity
  8
Hewi
  6
CUSTOM
 62
    18
420
        0
370
     9
100
AcDbPolyline
 90
        4
 70
     0
 43
0.0
 10
142.2863444588982
 20
1205.635882318397
 10
142.8045722019504
 20
1207.920367255696
 10
143.6974147410728
 20
1210.648195915684
 10
144.890744004695
 20
1213.132552596299
  0
LWPOLYLINE
  5
101E
330
1F
100
AcDbEntity
  8
Hewi
  6
CUSTOM
 62
    18
420
        0
370
     9
100
AcDbPolyline
 90
       65
 70
     0
 43
0.0
 10
593.6150643128748
 20
1205.635882318397
 10
592.9471186108239
 20
1207.663198866318
 10
592.2037166154804
 20
1210.648747673283
 10
590.8888121151465
 20
1213.294114826067
 10
590.8403856343065
 20
1213.388099006858
 10
589.9248456564418
 20
1214.583558213372
 10
588.9445388213626
 20
1215.754803265406
 10
588.6848124925109
 20
1215.989057118858
 10
588.5132334068073
 20
1216.130069032834
 10
588.2336105131616
 20
1216.340617939301
 10
587.7441762465241
 20
1216.692439965822
 10
585.7767907708003
 20
1218.0506206348
 10
584.7165553219893
 20
1218.587237724191
 10
584.4394905115076
 20
1218.720399463187
 10
581.9040094126921
 20
1219.516016508959
 10
579.1792750458807
 20
1220.072211294965
 10
574.6958108665604
 20
1220.204801227849
 10
570.0429927394434
 20
1219.99800646587
 10
563.7024496977353
 20
1219.722463338114
 10
556.651642729068
 20
1219.42556206081
 10
546.3641032980538
 20
1219.010548241069
 10
535.5958085548519
 20
1218.599558110101
 10
521.403157810975
 20
1218.149149136507
 10
504.5629699901455
 20
1217.696230126007
 10
478.7841720496142
 20
1217.099669384157
 10
450.4878851996399
 20
1216.287486406125
 10
423.944161606203
 20
1216.22549817455
 10
389.2158693718393
 20
1215.952362534206
 10
387.4519091345754
 20
1215.944316367572
 10
385.4046429164282
 20
1215.935685207752
 10
382.3155199654248
 20
1215.92410032495
 10
378.0362615528773
 20
1215.910912271348
 10
373.1409046425069
 20
1215.899901544243
 10
370.2104764265604
 20
1215.895392760075
 10
367.9514309526366
 20
1215.807460139241
 10
365.2801219652829
 20
1215.810946339308
 10
362.6299790736794
 20
1215.815302314936
 10
358.2042681655894
 20
1215.825637392139
 10
354.0285344568038
 20
1215.838897475213
 10
350.6918405973738
 20
1215.851940792813
 10
348.3758813016792
 20
1215.862271824719
 10
346.7091913419645
 20
1215.870354334485
 10
312.0191578816411
 20
1216.161505804346
 10
257.2383060182947
 20
1217.097146642565
 10
234.8567001165047
 20
1217.645682683673
 10
217.1576576513051
 20
1218.146904105053
 10
205.4230431795166
 20
1218.511684756942
 10
194.358286306704
 20
1218.879115222587
 10
184.9667924185613
 20
1219.208712054481
 10
176.6622854545329
 20
1219.513570731817
 10
169.9114525494223
 20
1219.770541413697
 10
163.9095821699957
 20
1220.005808715846
 10
159.6513226729366
 20
1220.284548141623
 10
155.5412949559322
 20
1219.811130338589
 10
153.9973993590793
 20
1219.516016508957
 10
152.6259265549452
 20
1219.17147885301
 10
151.4619182602654
 20
1218.720399463187
 10
151.2014843399774
 20
1218.595552055167
 10
150.490657936496
 20
1218.198348901539
 10
148.1572325252473
 20
1216.692439965822
 10
147.2807834894119
 20
1216.021012909642
 10
147.1090243181606
 20
1215.880377158665
 10
146.8489491290092
 20
1215.646638839013
 10
145.8061374180651
 20
1214.328975309789
 10
144.890744004695
 20
1213.132552596299
  0
LWPOLYLINE
  5
101F
330
1F
100
AcDbEntity
  8
Hewi
  6
CUSTOM
 62
    18
420
        0
370
     9
100
AcDbPolyline
 90
       14
 70
     0
 43
0.0
 10
177.0569086076445
 20
1185.107097989023
 10
185.2040031616706
 20
1184.454875170717
 10
194.8387813394328
 20
1183.64337110982
 10
206.3762625218987
 20
1182.766288698251
 10
218.7035019108571
 20
1182.034569469472
 10
237.4788250187084
 20
1181.29527204009
 10
279.4200115429849
 20
1180.174876092976
 10
323.6914501078644
 20
1179.369947711325
 10
367.9507043858848
 20
1179.040593191709
 10
411.4713203763694
 20
1179.359813078548
 10
455.0041346956549
 20
1180.142494417894
 10
498.4225837530629
 20
1181.29527204009
 10
500.6914643266191
 20
1181.368606191756
 10
508.2241926319056
 20
1181.631042262777
  0
LWPOLYLINE
  5
1020
330
1F
100
AcDbEntity
  8
Hewi
  6
CUSTOM
 62
    18
420
        0
370
     9
100
AcDbPolyline
 90
        6
 70
     0
 43
0.0
 10
197.4178431750095
 20
1231.384765369331
 10
196.7365442944153
 20
1231.167859288696
 10
187.4033377994145
 20
1227.405070741023
 10
179.7372982366868
 20
1223.546909400602
 10
173.4113631564996
 20
1219.710569902739
 10
173.3127301183668
 20
1219.641071713778
  0
LWPOLYLINE
  5
1021
330
1F
100
AcDbEntity
  8
Hewi
  6
CUSTOM
 62
    18
420
        0
370
     9
100
AcDbPolyline
 90
        8
 70
     0
 43
0.0
 10
249.8024854528703
 20
1240.463654590661
 10
250.8879150307603
 20
1240.591250327836
 10
267.7997159396618
 20
1241.251720295855
 10
317.401845684135
 20
1242.360596430696
 10
367.9508057914063
 20
1242.708585925575
 10
418.499563087742
 20
1242.360596430694
 10
468.2005367999298
 20
1241.248736208415
 10
469.7380210906921
 20
1241.103249334249
  0
LWPOLYLINE
  5
1025
330
1F
100
AcDbEntity
  8
Hewi
  6
CUSTOM
 62
    18
420
        0
370
     9
100
AcDbPolyline
 90
        3
 70
     0
 43
0.0
 10
197.4186902090897
 20
1231.385026022959
 10
207.4420485496393
 20
1234.469464747157
 10
207.9593988537927
 20
1234.586019550856
  0
LINE
  5
1027
330
1F
100
AcDbEntity
  8
Hewi
  6
CUSTOM
 62
    18
420
        0
370
     9
100
AcDbLine
 10
234.2450820064387
 20
1239.238026476997
 30
0.0
 11
234.2450141149875
 21
1239.238475925935
 31
0.0
  0
LINE
  5
1028
330
1F
100
AcDbEntity
  8
Hewi
  6
CUSTOM
 62
    18
420
        0
370
     9
100
AcDbLine
 10
207.9594981980226
 20
1234.586126737537
 30
0.0
 11
207.9593988537927
 21
1234.586019550856
 31
0.0
  0
LINE
  5
1029
330
1F
100
AcDbEntity
  8
Hewi
  6
CUSTOM
 62
    18
420
        0
370
     9
100
AcDbLine
 10
197.4178431750095
 20
1231.384765369331
 30
0.0
 11
197.4178921475613
 21
1231.384891443934
 31
0.0
  0
LWPOLYLINE
  5
102A
330
1F
100
AcDbEntity
  8
Hewi
  6
CUSTOM
 62
    18
420
        0
370
     9
100
AcDbPolyline
 90
        4
 70
     0
 43
0.0
 10
178.0931071043633
 20
1185.024144209663
 10
176.3276934138574
 20
1185.073999541723
 10
170.4131558373319
 20
1185.004941170577
 10
165.5741932218479
 20
1184.580824238873
  0
LWPOLYLINE
  5
102B
330
1F
100
AcDbEntity
  8
Hewi
  6
CUSTOM
 62
    18
420
        0
370
     9
100
AcDbPolyline
 90
       25
 70
     0
 43
0.0
 10
587.6061010945359
 20
1175.862371712305
 10
586.2821262357683
 20
1174.412377306113
 10
586.2059001355736
 20
1174.330768277118
 10
586.1605124209638
 20
1174.283517081824
 10
586.0771611371018
 20
1174.204566460361
 10
585.8607182980724
 20
1174.01432733856
 10
585.8160440828231
 20
1173.977552561616
 10
585.7259722245252
 20
1173.90178087094
 10
585.5941380597102
 20
1173.798219925898
 10
584.0473501589967
 20
1172.583536148646
 10
583.9234877946398
 20
1172.491456152263
 10
583.8521187768674
 20
1172.439481095077
 10
583.7557436605819
 20
1172.369568770075
 10
583.7067642826623
 20
1172.336293195288
 10
583.557876951756
 20
1172.23525192357
 10
583.4823295979458
 20
1172.184166256931
 10
583.3541964115083
 20
1172.103403954449
 10
583.3017369400878
 20
1172.075666825774
 10
581.0057258404159
 20
1170.893148994901
 10
579.4541968827105
 20
1170.65501721558
 10
577.5365457160823
 20
1170.044352138104
 10
575.4105343550398
 20
1169.702810549236
 10
573.1315874715764
 20
1169.700794567729
 10
564.6201718741594
 20
1171.568540280301
 10
559.1157602388339
 20
1172.543330328791
  0
LWPOLYLINE
  5
102D
330
1F
100
AcDbEntity
  8
Hewi
  6
CUSTOM
 62
    18
420
        0
370
     9
100
AcDbPolyline
 90
        3
 70
     0
 43
0.0
 10
167.0595984082683
 20
1184.711014426388
 10
166.0188545194884
 20
1184.46713540675
 10
164.9346093856145
 20
1184.100905046925
  0
LWPOLYLINE
  5
102F
330
1F
100
AcDbEntity
  8
Hewi
  6
CUSTOM
 62
    18
420
        0
370
     9
100
AcDbPolyline
 90
       18
 70
     0
 43
0.0
 10
593.6150643128748
 20
1205.635882318397
 10
593.8190773817787
 20
1204.684732693835
 10
594.255849055924
 20
1200.624651481685
 10
594.3427843234167
 20
1199.902649343534
 10
594.3999323153948
 20
1199.208010670564
 10
594.4260591117454
 20
1198.543648317169
 10
594.3895059194692
 20
1197.464550917775
 10
594.0882989117288
 20
1192.287853891781
 10
594.064394032088
 20
1192.048034472269
 10
593.8986201096522
 20
1191.099036365998
 10
592.6179817717983
 20
1185.7028023572
 10
592.3291653038993
 20
1184.793644023804
 10
590.0469035950153
 20
1179.825943632533
 10
589.8391339867374
 20
1179.494643521989
 10
588.6298049090473
 20
1177.726207206271
 10
588.4992672361877
 20
1177.536775677056
 10
588.359198678103
 20
1177.347577456236
 10
588.2186721704946
 20
1177.150919082068
  0
LWPOLYLINE
  5
1033
330
1F
100
AcDbEntity
  8
Hewi
  6
CUSTOM
 62
    18
420
        0
370
     9
100
AcDbPolyline
 90
        5
 70
     0
 43
0.0
 10
589.4265255186853
 20
1178.891274407226
 10
589.1102173492089
 20
1178.171820855871
 10
588.9430431618203
 20
1177.824881031419
 10
587.7430622343236
 20
1176.061537498951
 10
587.6061010945359
 20
1175.862371712305
  0
LWPOLYLINE
  5
1034
330
1F
100
AcDbEntity
  8
Hewi
  6
CUSTOM
 62
    18
420
        0
370
     9
100
AcDbPolyline
 90
        6
 70
     0
 43
0.0
 10
377.7781311795225
 20
1161.412554537049
 10
373.0160267994615
 20
1161.566918866824
 10
367.9507043870217
 20
1161.619188951173
 10
364.2901890377016
 20
1161.59275833347
 10
360.7494125955964
 20
1161.510991189373
 10
356.1617856292487
 20
1161.315386638342
  0
LWPOLYLINE
  5
1035
330
1F
100
AcDbEntity
  8
Hewi
  6
CUSTOM
 62
    18
420
        0
370
     9
100
AcDbPolyline
 90
        3
 70
     0
 43
0.0
 10
587.3994303068865
 20
1175.634009153503
 10
587.4849294659141
 20
1175.727208176389
 10
587.5302727182897
 20
1175.77687875413
  0
LWPOLYLINE
  5
1036
330
1F
100
AcDbEntity
  8
Hewi
  6
CUSTOM
 62
    18
420
        0
370
     9
100
AcDbPolyline
 90
        7
 70
     0
 43
0.0
 10
559.4070000835109
 20
1172.563987814349
 10
552.4366060981374
 20
1172.069581986546
 10
548.6524036241243
 20
1171.547559424348
 10
538.4407473823574
 20
1170.179577608153
 10
520.823283379559
 20
1168.008482904919
 10
514.0538941804424
 20
1167.278343987361
 10
511.0791029760549
 20
1166.331299143912
  0
LINE
  5
1037
330
1F
100
AcDbEntity
  8
Hewi
  6
CUSTOM
 62
    18
420
        0
370
     9
100
AcDbLine
 10
587.6061010945359
 20
1175.862371712305
 30
0.0
 11
587.5302727182897
 21
1175.77687875413
 31
0.0
  0
LWPOLYLINE
  5
1038
330
1F
100
AcDbEntity
  8
Hewi
  6
CUSTOM
 62
    18
420
        0
370
     9
100
AcDbPolyline
 90
       12
 70
     0
 43
0.0
 10
491.8146862291978
 20
1240.113497731349
 10
491.9684250345527
 20
1240.153114442016
 10
507.7681446348578
 20
1238.528468432509
 10
521.7147741892493
 20
1236.090568869442
 10
532.5392256415721
 20
1233.305991160553
 10
533.1246527449766
 20
1233.15018691978
 10
542.0131875749575
 20
1230.088132877814
 10
542.755500432908
 20
1229.828725547419
 10
550.9004678445034
 20
1226.278286121214
 10
557.1842113735799
 20
1222.972185798616
 10
562.4900455954993
 20
1219.710569915781
 10
562.5416219533964
 20
1219.673582233689
  0
LINE
  5
1039
330
1F
100
AcDbEntity
  8
Hewi
  6
CUSTOM
 62
    18
420
        0
370
     9
100
AcDbLine
 10
491.8146862291978
 20
1240.113497731349
 30
0.0
 11
468.0412529793612
 21
1241.179319654075
 31
0.0
  0
LWPOLYLINE
  5
103A
330
1F
100
AcDbEntity
  8
Hewi
  6
CUSTOM
 62
    18
420
        0
370
     9
100
AcDbPolyline
 90
        4
 70
     0
 43
0.0
 10
593.6150643128748
 20
1205.635882318397
 10
593.2343365838805
 20
1207.187529542377
 10
592.8681112669784
 20
1208.626348558803
 10
592.4892691155309
 20
1209.501951077275
  0
LWPOLYLINE
  5
103C
330
1F
100
AcDbEntity
  8
Hewi
  6
CUSTOM
 62
    18
420
        0
370
     9
100
AcDbPolyline
 90
       12
 70
     0
 43
0.0
 10
508.2241926319056
 20
1181.631042262777
 10
517.9847623958249
 20
1182.074441565372
 10
530.9915146111489
 20
1182.868452943205
 10
542.2690227454368
 20
1183.743026469197
 10
548.0446204623113
 20
1184.17007298113
 10
550.1294647284612
 20
1184.304032380597
 10
551.9177721439136
 20
1184.416090458226
 10
555.0776761400429
 20
1184.604271689378
 10
558.3386959289764
 20
1184.778944785529
 10
561.3051719576105
 20
1184.912290053154
 10
564.7187336010719
 20
1185.017987435061
 10
566.6076832371779
 20
1185.043380135102
  0
LWPOLYLINE
  5
103E
330
1F
100
AcDbEntity
  8
Hewi
  6
CUSTOM
 62
    18
420
        0
370
     9
100
AcDbPolyline
 90
        3
 70
     0
 43
0.0
 10
521.2867902986325
 20
1236.160584139701
 10
507.4918337576307
 20
1238.531971240177
 10
491.8146862291978
 20
1240.113497731349
  0
LWPOLYLINE
  5
103F
330
1F
100
AcDbEntity
  8
Hewi
  6
CUSTOM
 62
    18
420
        0
370
     9
100
AcDbPolyline
 90
       14
 70
     0
 43
0.0
 10
466.8136611221198
 20
1136.213245080692
 10
466.6486098654623
 20
1136.223285567218
 10
466.3155558206109
 20
1136.234180102094
 10
465.8543332165863
 20
1136.243287738717
 10
465.2879102331753
 20
1136.250166474258
 10
464.6474325175004
 20
1136.254449336243
 10
463.9697969938822
 20
1136.255896415919
 10
431.9316062149773
 20
1136.255930650697
 10
431.3657696443879
 20
1136.254922901001
 10
430.8215454890996
 20
1136.251944246563
 10
430.2272679244524
 20
1136.245911395018
 10
429.7275768747786
 20
1136.237527873485
 10
429.3487597037128
 20
1136.227180728667
 10
429.1120236421265
 20
1136.215404778271
  0
LWPOLYLINE
  5
1040
330
1F
100
AcDbEntity
  8
Hewi
  6
CUSTOM
 62
    18
420
        0
370
     9
100
AcDbPolyline
 90
        9
 70
     0
 43
0.0
 10
384.9809859389988
 20
1160.840206737959
 10
386.7246351114918
 20
1159.744310394641
 10
389.0665643452503
 20
1159.259034450868
 10
389.2751409391856
 20
1159.262519569131
 10
421.2197250361639
 20
1160.184540603898
 10
474.349784288337
 20
1163.421199173908
 10
475.4064998038627
 20
1163.507233194755
 10
476.1248993489643
 20
1163.567766139026
 10
481.6829340783661
 20
1162.881446818196
  0
LWPOLYLINE
  5
1041
330
1F
100
AcDbEntity
  8
Hewi
  6
CUSTOM
 62
    18
420
        0
370
     9
100
AcDbPolyline
 90
        3
 70
     0
 43
0.0
 10
508.2241926319056
 20
1181.631042262777
 10
508.5383901550463
 20
1181.655040439784
 10
513.5784423617296
 20
1182.249628981419
  0
LWPOLYLINE
  5
1042
330
1F
100
AcDbEntity
  8
Hewi
  6
CUSTOM
 62
    18
420
        0
370
     9
100
AcDbPolyline
 90
        3
 70
     0
 43
0.0
 10
481.5109149187955
 20
1162.90268814922
 10
481.7589417850867
 20
1162.806500207041
 10
482.5938684273059
 20
1162.392188941187
  0
LINE
  5
1043
330
1F
100
AcDbEntity
  8
Hewi
  6
CUSTOM
 62
    18
420
        0
370
     9
100
AcDbLine
 10
481.6829339182224
 20
1162.881446837971
 30
0.0
 11
481.2983762016447
 21
1163.070716027647
 31
0.0
  0
LWPOLYLINE
  5
1045
330
1F
100
AcDbEntity
  8
Hewi
  6
CUSTOM
 62
    18
420
        0
370
     9
100
AcDbPolyline
 90
       10
 70
     0
 43
0.0
 10
488.32898958254
 20
1137.887388916564
 10
487.8395531609002
 20
1138.128156500582
 10
487.5548814839967
 20
1138.294681295385
 10
487.3100895319586
 20
1138.52335498644
 10
487.1236349066585
 20
1138.797975368546
 10
486.9962267116789
 20
1139.130027584757
 10
486.9507002042083
 20
1139.496328385903
 10
486.9507001732054
 20
1142.311842502341
 10
486.9507001386864
 20
1146.793581437725
 10
486.9507000885659
 20
1154.732818611985
  0
LINE
  5
1046
330
1F
100
AcDbEntity
  8
Hewi
  6
CUSTOM
 62
    18
420
        0
370
     9
100
AcDbLine
 10
486.8480887401672
 20
1155.710395623396
 30
0.0
 11
486.9507000885659
 21
1154.732818611985
 31
0.0
  0
LWPOLYLINE
  5
1048
330
1F
100
AcDbEntity
  8
Hewi
  6
CUSTOM
 62
    18
420
        0
370
     9
100
AcDbPolyline
 90
        3
 70
     0
 43
0.0
 10
482.114606847901
 20
1162.630010402655
 10
485.9061870947079
 20
1158.955672401019
 10
486.8480887401672
 20
1155.710395623396
  0
LWPOLYLINE
  5
1049
330
1F
100
AcDbEntity
  8
Hewi
  6
CUSTOM
 62
    18
420
        0
370
     9
100
AcDbPolyline
 90
        3
 70
     0
 43
0.0
 10
571.3117484969534
 20
1184.116816479831
 10
569.4535584509703
 20
1184.599189869949
 10
568.3674267252627
 20
1184.784346904331
  0
LWPOLYLINE
  5
104A
330
1F
100
AcDbEntity
  8
Hewi
  6
CUSTOM
 62
    18
420
        0
370
     9
100
AcDbPolyline
 90
        3
 70
     0
 43
0.0
 10
511.5794725567849
 20
1166.718168493513
 10
508.1004346173012
 20
1164.028290531734
 10
507.0244925277239
 20
1160.541275622988
  0
LWPOLYLINE
  5
104B
330
1F
100
AcDbEntity
  8
Hewi
  6
CUSTOM
 62
    18
420
        0
370
     9
100
AcDbPolyline
 90
        5
 70
     0
 43
0.0
 10
505.9780974147342
 20
1136.230621056131
 10
505.5006549900136
 20
1136.124359973074
 10
505.4846017554901
 20
1136.123682156578
 10
505.4684742206298
 20
1136.123345137115
 10
505.4506539348131
 20
1136.123360047205
  0
LWPOLYLINE
  5
104C
330
1F
100
AcDbEntity
  8
Hewi
  6
CUSTOM
 62
    18
420
        0
370
     9
100
AcDbPolyline
 90
        3
 70
     0
 43
0.0
 10
506.9507023547775
 20
1137.692023829443
 10
506.9101312343009
 20
1137.341728750855
 10
506.786447135022
 20
1136.988710841663
  0
LWPOLYLINE
  5
104D
330
1F
100
AcDbEntity
  8
Hewi
  6
CUSTOM
 62
    18
420
        0
370
     9
100
AcDbPolyline
 90
        7
 70
     0
 43
0.0
 10
505.4506624454569
 20
1136.123500484213
 10
504.6406114618037
 20
1136.123350627151
 10
502.5506666581983
 20
1136.123382934759
 10
478.9100736884592
 20
1136.123707494731
 10
466.8694797806347
 20
1136.123980049793
 10
466.5672802484094
 20
1136.160210842489
 10
466.3659408375643
 20
1136.232531957065
  0
LWPOLYLINE
  5
104E
330
1F
100
AcDbEntity
  8
Hewi
  6
CUSTOM
 62
    18
420
        0
370
     9
100
AcDbPolyline
 90
        4
 70
     0
 43
0.0
 10
429.5613067173852
 20
1136.232986313015
 10
429.4535939627494
 20
1136.195193648889
 10
429.3550351095109
 20
1136.160752467891
 10
429.0319104802656
 20
1136.12401374092
  0
LWPOLYLINE
  5
1054
330
1F
100
AcDbEntity
  8
Hewi
  6
CUSTOM
 62
    18
420
        0
370
     9
100
AcDbPolyline
 90
        3
 70
     0
 43
0.0
 10
506.786447135022
 20
1136.988710841663
 10
506.4750424789509
 20
1136.584069843694
 10
506.1486070778046
 20
1136.323474294955
  0
LWPOLYLINE
  5
1056
330
1F
100
AcDbEntity
  8
Hewi
  6
CUSTOM
 62
    18
420
        0
370
     9
100
AcDbPolyline
 90
        3
 70
     0
 43
0.0
 10
346.8358955014484
 20
1159.422626447845
 10
349.1775455494244
 20
1159.930874720006
 10
350.6090650124788
 20
1160.812848674938
  0
LWPOLYLINE
  5
1057
330
1F
100
AcDbEntity
  8
Hewi
  6
CUSTOM
 62
    18
420
        0
370
     9
100
AcDbPolyline
 90
        4
 70
     0
 43
0.0
 10
356.7396818788329
 20
1161.340026639964
 10
353.2316285170889
 20
1161.095797312793
 10
350.4492494219829
 20
1160.795606160003
 10
348.7041910247334
 20
1160.477712505185
  0
LWPOLYLINE
  5
1058
330
1F
100
AcDbEntity
  8
Hewi
  6
CUSTOM
 62
    18
420
        0
370
     9
100
AcDbPolyline
 90
        4
 70
     0
 43
0.0
 10
386.1463303380075
 20
1160.684439758244
 10
386.509930232294
 20
1160.418625127184
 10
387.7124134051064
 20
1160.186033448142
 10
389.0625483230888
 20
1160.05457632231
  0
LWPOLYLINE
  5
1059
330
1F
100
AcDbEntity
  8
Hewi
  6
CUSTOM
 62
    18
420
        0
370
     9
100
AcDbPolyline
 90
        3
 70
     0
 43
0.0
 10
506.1486070778046
 20
1136.323474294955
 10
506.4742599770852
 20
1136.554642742798
 10
506.786447135022
 20
1136.988710841663
  0
LINE
  5
105C
330
1F
100
AcDbEntity
  8
Hewi
  6
CUSTOM
 62
    18
420
        0
370
     9
100
AcDbLine
 10
506.9507021919799
 20
1146.618337354366
 30
0.0
 11
506.9507022440395
 21
1141.91403130414
 31
0.0
  0
LWPOLYLINE
  5
105E
330
1F
100
AcDbEntity
  8
Hewi
  6
CUSTOM
 62
    18
420
        0
370
     9
100
AcDbPolyline
 90
        3
 70
     0
 43
0.0
 10
506.9507022965662
 20
1139.134783950285
 10
506.9507023548064
 20
1137.883089295087
 10
506.9507023548064
 20
1137.692023829443
  0
LWPOLYLINE
  5
105F
330
1F
100
AcDbEntity
  8
Hewi
  6
CUSTOM
 62
    18
420
        0
370
     9
100
AcDbPolyline
 90
        3
 70
     0
 43
0.0
 10
505.4506624454569
 20
1136.123500484213
 10
505.8167700419508
 20
1136.196605904708
 10
505.9780974147342
 20
1136.230621056131
  0
LINE
  5
1060
330
1F
100
AcDbEntity
  8
Hewi
  6
CUSTOM
 62
    18
420
        0
370
     9
100
AcDbLine
 10
505.9780974147342
 20
1136.230621056131
 30
0.0
 11
506.1486070778046
 21
1136.323474294955
 31
0.0
  0
LWPOLYLINE
  5
1061
330
1F
100
AcDbEntity
  8
Hewi
  6
CUSTOM
 62
    18
420
        0
370
     9
100
AcDbPolyline
 90
        3
 70
     0
 43
0.0
 10
507.0578769277727
 20
1160.649470941353
 10
506.9507020923593
 20
1159.356864077933
 10
506.9507021421413
 20
1152.621054648864
  0
LINE
  5
1062
330
1F
100
AcDbEntity
  8
Hewi
  6
CUSTOM
 62
    18
420
        0
370
     9
100
AcDbLine
 10
506.9507022440395
 20
1141.91403130414
 30
0.0
 11
506.9507022965662
 21
1139.134783950285
 31
0.0
  0
LINE
  5
1063
330
1F
100
AcDbEntity
  8
Hewi
  6
CUSTOM
 62
    18
420
        0
370
     9
100
AcDbLine
 10
506.9507021421413
 20
1152.621054648864
 30
0.0
 11
506.9507021919799
 21
1146.618337354366
 31
0.0
  0
LWPOLYLINE
  5
1064
330
1F
100
AcDbEntity
  8
Hewi
  6
CUSTOM
 62
    18
420
        0
370
     9
100
AcDbPolyline
 90
        5
 70
     0
 43
0.0
 10
387.4288518938739
 20
1160.408495901894
 10
386.3506008586609
 20
1160.65713571535
 10
384.0833537707258
 20
1160.960189693656
 10
380.9127300329237
 20
1161.23229772312
 10
377.4865953267326
 20
1161.422004713225
  0
LINE
  5
1065
330
1F
100
AcDbEntity
  8
Hewi
  6
CUSTOM
 62
    18
420
        0
370
     9
100
AcDbLine
 10
228.0323147800518
 20
1163.639086024627
 30
0.0
 11
224.5090089131154
 21
1166.630116786248
 31
0.0
  0
LWPOLYLINE
  5
1066
330
1F
100
AcDbEntity
  8
Hewi
  6
CUSTOM
 62
    18
420
        0
370
     9
100
AcDbPolyline
 90
        3
 70
     0
 43
0.0
 10
385.3545479351959
 20
1160.790274180764
 10
386.5111774920314
 20
1160.038352838087
 10
387.153307730423
 20
1159.793642753464
  0
LINE
  5
1067
330
1F
100
AcDbEntity
  8
Hewi
  6
CUSTOM
 62
    18
420
        0
370
     9
100
AcDbLine
 10
228.0966595234931
 20
1163.27059090798
 30
0.0
 11
227.9327055395261
 21
1163.585133674998
 31
0.0
  0
LINE
  5
1068
330
1F
100
AcDbEntity
  8
Hewi
  6
CUSTOM
 62
    18
420
        0
370
     9
100
AcDbLine
 10
178.0369853558295
 20
1172.539804286528
 30
0.0
 11
176.2753851091763
 21
1172.488494107331
 31
0.0
  0
LINE
  5
1069
330
1F
100
AcDbEntity
  8
Hewi
  6
CUSTOM
 62
    18
420
        0
370
     9
100
AcDbLine
 10
249.8605713755733
 20
1158.511417034508
 30
0.0
 11
250.0966866107155
 21
1159.045424053587
 31
0.0
  0
LINE
  5
106A
330
1F
100
AcDbEntity
  8
Hewi
  6
CUSTOM
 62
    18
420
        0
370
     9
100
AcDbLine
 10
230.4520571036755
 20
1136.123500229039
 30
0.0
 11
230.4507548369584
 21
1136.123360047205
 31
0.0
  0
LINE
  5
106B
330
1F
100
AcDbEntity
  8
Hewi
  6
CUSTOM
 62
    18
420
        0
370
     9
100
AcDbLine
 10
228.9507066277038
 20
1152.369678118771
 30
0.0
 11
228.9507066792249
 21
1159.331254998821
 31
0.0
  0
LWPOLYLINE
  5
106C
330
1F
100
AcDbEntity
  8
Hewi
  6
CUSTOM
 62
    18
420
        0
370
     9
100
AcDbPolyline
 90
        3
 70
     0
 43
0.0
 10
385.7388088843288
 20
1160.363909447464
 10
385.3024199457811
 20
1160.548558199335
 10
384.9357119361485
 20
1160.798007395813
  0
LINE
  5
106D
330
1F
100
AcDbEntity
  8
Hewi
  6
CUSTOM
 62
    18
420
        0
370
     9
100
AcDbLine
 10
249.2329333927374
 20
1156.333622686757
 30
0.0
 11
248.951438238493
 21
1154.73695671555
 31
0.0
  0
LINE
  5
106E
330
1F
100
AcDbEntity
  8
Hewi
  6
CUSTOM
 62
    18
420
        0
370
     9
100
AcDbLine
 10
306.8694982915058
 20
1136.12401374092
 30
0.0
 11
306.8882144246727
 21
1136.124297645627
 31
0.0
  0
LINE
  5
106F
330
1F
100
AcDbEntity
  8
Hewi
  6
CUSTOM
 62
    18
420
        0
370
     9
100
AcDbLine
 10
146.7634001124314
 20
1178.470825777544
 30
0.0
 11
146.8788037717148
 21
1178.254922740884
 31
0.0
  0
LWPOLYLINE
  5
1070
330
1F
100
AcDbEntity
  8
Hewi
  6
CUSTOM
 62
    18
420
        0
370
     9
100
AcDbPolyline
 90
        9
 70
     0
 43
0.0
 10
215.9507066124352
 20
1167.914666658012
 10
215.9507066124352
 20
1066.791211242783
 10
216.126211224593
 20
1066.791211242783
 10
216.6439245269759
 20
1066.791211242783
 10
217.477886212815
 20
1066.791211242783
 10
218.5862779608615
 20
1066.791211242783
 10
219.9135203806327
 20
1066.791211242783
 10
221.3930599951126
 20
1066.791211242783
 10
222.950706510017
 20
1066.791211242783
  0
LWPOLYLINE
  5
1071
330
1F
100
AcDbEntity
  8
Hewi
  6
CUSTOM
 62
    18
420
        0
370
     9
100
AcDbPolyline
 90
        9
 70
     0
 43
0.0
 10
512.9507022670094
 20
1066.791211242783
 10
514.5083487819136
 20
1066.791211242783
 10
515.9878883963956
 20
1066.791211242783
 10
517.315130816167
 20
1066.791211242783
 10
518.4235225642113
 20
1066.791211242783
 10
519.2574842500544
 20
1066.791211242783
 10
519.7751975524333
 20
1066.791211242783
 10
519.9507021645948
 20
1066.791211242783
 10
519.9507021645948
 20
1167.914367782443
  0
LINE
  5
1072
330
1F
100
AcDbEntity
  8
Hewi
  6
CUSTOM
 62
    18
420
        0
370
     9
100
AcDbLine
 10
481.4236372150516
 20
1162.913465407697
 30
0.0
 11
481.6018908808801
 21
1162.867406528024
 31
0.0
  0
LWPOLYLINE
  5
1073
330
1F
100
AcDbEntity
  8
Hewi
  6
CUSTOM
 62
    18
420
        0
370
     9
100
AcDbPolyline
 90
        3
 70
     0
 43
0.0
 10
387.6623459337313
 20
1159.550005418337
 10
387.8039614095085
 20
1159.490083824232
 10
388.0635792235407
 20
1159.466865048508
  0
LINE
  5
1074
330
1F
100
AcDbEntity
  8
Hewi
  6
CUSTOM
 62
    18
420
        0
370
     9
100
AcDbLine
 10
384.9357119361485
 20
1160.798007395813
 30
0.0
 11
384.8821139391585
 21
1160.853422572944
 31
0.0
  0
LINE
  5
1075
330
1F
100
AcDbEntity
  8
Hewi
  6
CUSTOM
 62
    18
420
        0
370
     9
100
AcDbLine
 10
569.0621027602463
 20
1184.743246723619
 30
0.0
 11
564.5216002792293
 21
1185.011883418958
 31
0.0
  0
LINE
  5
1076
330
1F
100
AcDbEntity
  8
Hewi
  6
CUSTOM
 62
    18
420
        0
370
     9
100
AcDbLine
 10
570.8555598884994
 20
1183.831726423304
 30
0.0
 11
569.2879849084784
 21
1184.627415846857
 31
0.0
  0
LWPOLYLINE
  5
1077
330
1F
100
AcDbEntity
  8
Hewi
  6
CUSTOM
 62
    18
420
        0
370
     9
100
AcDbPolyline
 90
       32
 70
     0
 43
0.0
 10
449.950703188768
 20
1066.791211242783
 10
449.5056613273663
 20
1066.741067067319
 10
449.0829357232287
 20
1066.593148979269
 10
448.7037236032937
 20
1066.354874209219
 10
448.3870402467091
 20
1066.03819084909
 10
448.1487654793271
 20
1065.65897872491
 10
448.0008473929319
 20
1065.236253116042
 10
447.9507032180296
 20
1064.791211249658
 10
447.9507032180296
 20
1060.791211263409
 10
447.8504148682239
 20
1059.901127530644
 10
447.5545786954354
 20
1059.055676312906
 10
447.0780291606713
 20
1058.297252064549
 10
446.4446624475003
 20
1057.663885344288
 10
445.6862382076324
 20
1057.187335804189
 10
444.840786999357
 20
1056.891499628088
 10
443.9507032765521
 20
1056.79121127716
 10
291.9507055004742
 20
1056.79121127716
 10
291.0606217776713
 20
1056.891499628088
 10
290.2151705693977
 20
1057.187335804189
 10
289.456746329528
 20
1057.663885344288
 10
288.8233796163585
 20
1058.297252064549
 10
288.3468300815929
 20
1059.055676312906
 10
288.0509939088024
 20
1059.901127530644
 10
287.9507055589985
 20
1060.791211263409
 10
287.9507055589985
 20
1064.791211249658
 10
287.9005613840945
 20
1065.236253116042
 10
287.7526432977011
 20
1065.65897872491
 10
287.5143685303192
 20
1066.03819084909
 10
287.1976851737327
 20
1066.354874209219
 10
286.8184730537994
 20
1066.593148979269
 10
286.3957474496619
 20
1066.741067067319
 10
285.9507055882604
 20
1066.791211242783
  0
LINE
  5
1078
330
1F
100
AcDbEntity
  8
Hewi
  6
CUSTOM
 62
    18
420
        0
370
     9
100
AcDbLine
 10
505.4506539348131
 20
1136.123360047205
 30
0.0
 11
505.4495256615481
 21
1136.123500273915
 31
0.0
  0
LINE
  5
1079
330
1F
100
AcDbEntity
  8
Hewi
  6
CUSTOM
 62
    18
420
        0
370
     9
100
AcDbLine
 10
486.9507000885659
 20
1154.732818611985
 30
0.0
 11
486.7662512171882
 21
1155.992362865664
 31
0.0
  0
LINE
  5
107A
330
1F
100
AcDbEntity
  8
Hewi
  6
CUSTOM
 62
    18
420
        0
370
     9
100
AcDbLine
 10
508.0157297366239
 20
1163.7072589078
 30
0.0
 11
507.9407143960813
 21
1163.510654127483
 31
0.0
  0
LINE
  5
107B
330
1F
100
AcDbEntity
  8
Hewi
  6
CUSTOM
 62
    18
420
        0
370
     9
100
AcDbLine
 10
429.0298823007743
 20
1136.124297592848
 30
0.0
 11
429.0319104802656
 21
1136.12401374092
 31
0.0
  0
LINE
  5
107C
330
1F
100
AcDbEntity
  8
Hewi
  6
CUSTOM
 62
    18
420
        0
370
     9
100
AcDbLine
 10
485.7317725788944
 20
1159.124693712423
 30
0.0
 11
486.0391241236572
 21
1158.497644287994
 31
0.0
  0
LINE
  5
107D
330
1F
100
AcDbEntity
  8
Hewi
  6
CUSTOM
 62
    18
420
        0
370
     9
100
AcDbLine
 10
507.9945564580738
 20
1163.685150576875
 30
0.0
 11
508.9587025289891
 21
1164.691875114979
 31
0.0
  0
LINE
  5
107E
330
1F
100
AcDbEntity
  8
Hewi
  6
CUSTOM
 62
    18
420
        0
370
     9
100
AcDbLine
 10
587.5302727182897
 20
1175.77687875413
 30
0.0
 11
586.7800071929997
 21
1174.957647934326
 31
0.0
  0
LINE
  5
1080
330
1F
100
AcDbEntity
  8
Hewi
  6
CUSTOM
 62
    18
420
        0
370
     9
100
AcDbLine
 10
384.9357119361485
 20
1160.798007395813
 30
0.0
 11
385.2117578511787
 21
1160.695164894381
 31
0.0
  0
LINE
  5
1081
330
1F
100
AcDbEntity
  8
Hewi
  6
CUSTOM
 62
    18
420
        0
370
     9
100
AcDbLine
 10
349.4788431698816
 20
1160.618829273464
 30
0.0
 11
349.4750465419965
 21
1160.61683292369
 31
0.0
  0
LINE
  5
1082
330
1F
100
AcDbEntity
  8
Hewi
  6
CUSTOM
 62
    18
420
        0
370
     9
100
AcDbLine
 10
349.3907985174519
 20
1160.209252402665
 30
0.0
 11
349.9394526175547
 21
1160.702737549466
 31
0.0
  0
LINE
  5
1083
330
1F
100
AcDbEntity
  8
Hewi
  6
CUSTOM
 62
    18
420
        0
370
     9
100
AcDbLine
 10
166.4490817750885
 20
1184.567951186265
 30
0.0
 11
165.4154801239783
 21
1183.998769904994
 31
0.0
  0
LINE
  5
1084
330
1F
100
AcDbEntity
  8
Hewi
  6
CUSTOM
 62
    18
420
        0
370
     9
100
AcDbLine
 10
519.9507021645948
 20
1236.398927124716
 30
0.0
 11
519.9507021645948
 21
1263.399798010726
 31
0.0
  0
LINE
  5
1085
330
1F
100
AcDbEntity
  8
Hewi
  6
CUSTOM
 62
    18
420
        0
370
     9
100
AcDbLine
 10
215.9507066124352
 20
1263.408997546543
 30
0.0
 11
215.9507066124352
 21
1236.356909593466
 31
0.0
  0
LWPOLYLINE
  5
1086
330
1F
100
AcDbEntity
  8
Hewi
  6
CUSTOM
 62
    18
420
        0
370
     9
100
AcDbPolyline
 90
       10
 70
     0
 43
0.0
 10
512.9507022670094
 20
1139.050434837751
 10
513.2507022626214
 20
1138.752622176545
 10
515.6507022275055
 20
1138.752622176545
 10
515.9507022231173
 20
1139.050434837751
 10
515.9507022231173
 20
1140.936983878459
 10
515.9507022231173
 20
1144.600442586955
 10
515.9507022231173
 20
1149.827904059233
 10
515.9507022231173
 20
1156.315567235573
 10
515.9507022231173
 20
1163.686392713862
 10
515.9507022231173
 20
1167.48293159167
  0
LWPOLYLINE
  5
1087
330
1F
100
AcDbEntity
  8
Hewi
  6
CUSTOM
 62
    18
420
        0
370
     9
100
AcDbPolyline
 90
       12
 70
     0
 43
0.0
 10
159.7486408752083
 20
1330.751317506114
 10
159.513223457443
 20
1331.540306855022
 10
153.8932417665636
 20
1352.489951084647
 10
151.5722256916995
 20
1364.192572462107
 10
149.113613334921
 20
1377.055027188164
 10
147.0834918922916
 20
1391.621022536479
 10
145.3054485662538
 20
1405.893857992369
 10
143.9262844621443
 20
1422.14409759425
 10
142.8858096095155
 20
1437.748515159885
 10
142.2483001323853
 20
1454.898028450767
 10
142.001365547523
 20
1466.541511196284
 10
142.0600535876145
 20
1495.317478941753
  0
LWPOLYLINE
  5
1088
330
1F
100
AcDbEntity
  8
Hewi
  6
CUSTOM
 62
    18
420
        0
370
     9
100
AcDbPolyline
 90
        6
 70
     0
 43
0.0
 10
212.5740931246037
 20
1264.71151144599
 10
215.3700920607115
 20
1263.539932903593
 10
229.9234226733824
 20
1260.258124117704
 10
244.9955097820347
 20
1258.400638370573
 10
260.2470537813405
 20
1257.421077298519
 10
276.2329469418144
 20
1257.373386668761
  0
LWPOLYLINE
  5
108A
330
1F
100
AcDbEntity
  8
Hewi
  6
CUSTOM
 62
    18
420
        0
370
     9
100
AcDbPolyline
 90
        9
 70
     0
 43
0.0
 10
172.8255323379835
 20
1595.355737664759
 10
173.8651036614683
 20
1596.236545012337
 10
182.8999437773564
 20
1602.15128110356
 10
193.2853513928693
 20
1606.859677770642
 10
198.8053355444843
 20
1608.567005896204
 10
206.0355941737579
 20
1610.473307924401
 10
211.7834907740233
 20
1611.322341918348
 10
227.3556420756158
 20
1613.142281702864
 10
237.1596073123419
 20
1613.62139219173
  0
LWPOLYLINE
  5
108B
330
1F
100
AcDbEntity
  8
Hewi
  6
CUSTOM
 62
    18
420
        0
370
     9
100
AcDbPolyline
 90
        6
 70
     0
 43
0.0
 10
367.2076585373634
 20
1254.727310494858
 10
338.0191498293443
 20
1254.936389887202
 10
314.0795967463124
 20
1255.343560519404
 10
308.0959402488316
 20
1255.580208772036
 10
284.1782308163529
 20
1256.527414550189
 10
262.4732468872662
 20
1257.414435908724
  0
LWPOLYLINE
  5
108C
330
1F
100
AcDbEntity
  8
Hewi
  6
CUSTOM
 62
    18
420
        0
370
     9
100
AcDbPolyline
 90
       14
 70
     0
 43
0.0
 10
164.4053920756068
 20
1587.491300483671
 10
161.0077671625513
 20
1583.365355053427
 10
157.3666059388688
 20
1578.235049790798
 10
154.1854056962709
 20
1572.78743852266
 10
151.7082035338864
 20
1567.598957396373
 10
148.9942934190147
 20
1560.748497724978
 10
147.4203241547363
 20
1555.48746928163
 10
145.3886967308516
 20
1547.183034697431
 10
144.5390060408498
 20
1541.796725457954
 10
144.0394051122256
 20
1538.882112205017
 10
142.9366272024691
 20
1527.256024900192
 10
142.3463539326965
 20
1512.709677490094
 10
142.0464525388706
 20
1495.145424419533
 10
142.0592555911772
 20
1494.926209723734
  0
LWPOLYLINE
  5
108D
330
1F
100
AcDbEntity
  8
Hewi
  6
CUSTOM
 62
    18
420
        0
370
     9
100
AcDbPolyline
 90
        3
 70
     0
 43
0.0
 10
164.4053920756068
 20
1587.491300483671
 10
169.5336164450507
 20
1592.476124907323
 10
172.8255323379835
 20
1595.355737664759
  0
LWPOLYLINE
  5
108E
330
1F
100
AcDbEntity
  8
Hewi
  6
CUSTOM
 62
    18
420
        0
370
     9
100
AcDbPolyline
 90
        6
 70
     0
 43
0.0
 10
206.0849213385445
 20
1266.981314955855
 10
204.2309932685784
 20
1267.626109077922
 10
194.9878034884896
 20
1272.968134850323
 10
186.793596693773
 20
1279.92667018936
 10
179.3257326535384
 20
1288.754888070825
 10
178.5128813939263
 20
1290.2030991756
  0
LWPOLYLINE
  5
108F
330
1F
100
AcDbEntity
  8
Hewi
  6
CUSTOM
 62
    18
420
        0
370
     9
100
AcDbPolyline
 90
       18
 70
     0
 43
0.0
 10
593.8413551894135
 20
1495.317478941753
 10
593.8730969779899
 20
1471.53179845304
 10
593.6938889887715
 20
1455.67568466875
 10
593.1116336848936
 20
1440.611862518597
 10
592.1415932163581
 20
1423.573877120529
 10
590.8332780441596
 20
1409.133665833162
 10
589.1214024262845
 20
1393.109777717103
 10
587.1590180513993
 20
1380.246817836339
 10
584.8303315575359
 20
1365.971754187555
 10
579.2907487516658
 20
1341.571950534804
 10
573.0106494993557
 20
1321.326389765865
 10
566.2732017463384
 20
1305.191603955464
 10
558.9231250627344
 20
1292.148549902121
 10
551.3325247324462
 20
1282.274602091937
 10
543.517234386083
 20
1274.930255712668
 10
535.3044994702538
 20
1269.503632076026
 10
528.1208325137923
 20
1266.165994646706
 10
522.2476767148909
 20
1264.190600609618
  0
LWPOLYLINE
  5
1091
330
1F
100
AcDbEntity
  8
Hewi
  6
CUSTOM
 62
    18
420
        0
370
     9
100
AcDbPolyline
 90
        7
 70
     0
 43
0.0
 10
474.3860461023451
 20
1257.448886693502
 10
485.6527136372424
 20
1258.192516438577
 10
495.792610219152
 20
1258.961613411063
 10
508.2567954192545
 20
1260.746039547645
 10
509.8451895528959
 20
1260.960877429874
 10
520.5313167163165
 20
1263.539932903593
 10
524.1679467849388
 20
1264.91857010371
  0
LWPOLYLINE
  5
1092
330
1F
100
AcDbEntity
  8
Hewi
  6
CUSTOM
 62
    18
420
        0
370
     9
100
AcDbPolyline
 90
       10
 70
     0
 43
0.0
 10
237.1596073144158
 20
1613.621392191831
 10
237.5407984079263
 20
1613.716961815538
 10
280.9139242799847
 20
1615.124527595597
 10
324.4205242251154
 20
1615.90474495078
 10
367.9507168216714
 20
1616.149341680207
 10
411.4808860169138
 20
1615.904744934042
 10
454.9874852301382
 20
1615.124527577425
 10
498.3606103691017
 20
1613.716961815538
 10
513.0215585314088
 20
1612.889439667987
 10
515.7603936919804
 20
1612.473871449791
  0
LWPOLYLINE
  5
1093
330
1F
100
AcDbEntity
  8
Hewi
  6
CUSTOM
 62
    18
420
        0
370
     9
100
AcDbPolyline
 90
        4
 70
     0
 43
0.0
 10
159.7557375056203
 20
1330.729553312967
 10
165.8378610305863
 20
1313.673858017087
 10
169.2179729741837
 20
1306.426511441329
 10
172.3608145245816
 20
1299.866354888125
  0
LWPOLYLINE
  5
1095
330
1F
100
AcDbEntity
  8
Hewi
  6
CUSTOM
 62
    18
420
        0
370
     9
100
AcDbPolyline
 90
        5
 70
     0
 43
0.0
 10
367.2076585373634
 20
1254.727310494858
 10
391.8936942207693
 20
1254.87619822534
 10
415.8374136717611
 20
1255.271100113028
 10
445.7539238996687
 20
1256.172952540789
 10
474.3860461023451
 20
1257.448886693502
  0
LWPOLYLINE
  5
1096
330
1F
100
AcDbEntity
  8
Hewi
  6
CUSTOM
 62
    18
420
        0
370
     9
100
AcDbPolyline
 90
        5
 70
     0
 43
0.0
 10
540.2348778390823
 20
1607.694183737819
 10
551.3771413206014
 20
1603.016654161396
 10
561.2441288350419
 20
1596.839616157567
 10
562.0141816506019
 20
1596.171758868529
 10
569.1401209958164
 20
1589.895088085954
  0
LWPOLYLINE
  5
1097
330
1F
100
AcDbEntity
  8
Hewi
  6
CUSTOM
 62
    18
420
        0
370
     9
100
AcDbPolyline
 90
        3
 70
     0
 43
0.0
 10
538.1499316795434
 20
1608.13634804605
 10
540.0052280399559
 20
1607.75549662028
 10
540.2348778390823
 20
1607.694183737819
  0
LWPOLYLINE
  5
1098
330
1F
100
AcDbEntity
  8
Hewi
  6
CUSTOM
 62
    18
420
        0
370
     9
100
AcDbPolyline
 90
        3
 70
     0
 43
0.0
 10
172.8255323379835
 20
1595.355737664759
 10
165.3563289691191
 20
1588.40618154276
 10
164.4053920756068
 20
1587.491300483671
  0
LWPOLYLINE
  5
109A
330
1F
100
AcDbEntity
  8
Hewi
  6
CUSTOM
 62
    18
420
        0
370
     9
100
AcDbPolyline
 90
       12
 70
     0
 43
0.0
 10
593.8422613462644
 20
1494.63843798791
 10
593.9071149455339
 20
1495.213460886984
 10
593.5099795077057
 20
1512.63153156121
 10
592.5850749171714
 20
1531.740094759502
 10
590.5597619983455
 20
1546.680673413358
 10
590.4257261612328
 20
1547.241872886843
 10
587.2376037565809
 20
1559.570594173128
 10
587.0804122425142
 20
1560.068212992498
 10
582.4249272587276
 20
1571.372564637821
 10
576.6411531162609
 20
1581.052362653123
 10
569.8503340049957
 20
1589.251742074686
 10
569.1401209958164
 20
1589.895088085954
  0
LWPOLYLINE
  5
109B
330
1F
100
AcDbEntity
  8
Hewi
  6
CUSTOM
 62
    18
420
        0
370
     9
100
AcDbPolyline
 90
        3
 70
     0
 43
0.0
 10
592.1585189746692
 20
1423.87116448034
 10
592.1593432847221
 20
1423.532938987287
 10
592.0615221310344
 20
1422.690111939906
  0
LWPOLYLINE
  5
109C
330
1F
100
AcDbEntity
  8
Hewi
  6
CUSTOM
 62
    18
420
        0
370
     9
100
AcDbPolyline
 90
        3
 70
     0
 43
0.0
 10
593.6958457185119
 20
1455.848813003535
 10
593.7372773863335
 20
1455.60568134203
 10
593.6149488285825
 20
1453.633383742307
  0
LWPOLYLINE
  5
109D
330
1F
100
AcDbEntity
  8
Hewi
  6
CUSTOM
 62
    18
420
        0
370
     9
100
AcDbPolyline
 90
        3
 70
     0
 43
0.0
 10
540.2348778390823
 20
1607.694183737819
 10
534.1029007620419
 20
1609.422433153113
 10
528.1309756695007
 20
1610.801891489991
  0
LWPOLYLINE
  5
109E
330
1F
100
AcDbEntity
  8
Hewi
  6
CUSTOM
 62
    18
420
        0
370
     9
100
AcDbPolyline
 90
        3
 70
     0
 43
0.0
 10
581.7544532087704
 20
1572.057612811509
 10
576.018278082276
 20
1581.614028991656
 10
569.1401209958164
 20
1589.895088085954
  0
LWPOLYLINE
  5
109F
330
1F
100
AcDbEntity
  8
Hewi
  6
CUSTOM
 62
    18
420
        0
370
     9
100
AcDbPolyline
 90
        3
 70
     0
 43
0.0
 10
172.3771636614693
 20
1299.838597451282
 10
176.0939565467304
 20
1293.877015558782
 10
179.3227144438605
 20
1288.760265441181
  0
LWPOLYLINE
  5
10A0
330
1F
100
AcDbEntity
  8
Hewi
  6
CUSTOM
 62
    18
420
        0
370
     9
100
AcDbPolyline
 90
        3
 70
     0
 43
0.0
 10
205.1731007892177
 20
1267.298445130051
 10
209.7199324350202
 20
1265.446363110886
 10
214.5904454487136
 20
1263.866620179517
  0
LWPOLYLINE
  5
10A2
330
1F
100
AcDbEntity
  8
Hewi
  6
CUSTOM
 62
    18
420
        0
370
     9
100
AcDbPolyline
 90
        3
 70
     0
 43
0.0
 10
526.7224747872896
 20
1611.056315216095
 10
520.6523965078304
 20
1612.011102194143
 10
514.7027374366569
 20
1612.634351477317
  0
LWPOLYLINE
  5
10A3
330
1F
100
AcDbEntity
  8
Hewi
  6
CUSTOM
 62
    18
420
        0
370
     9
100
AcDbPolyline
 90
        3
 70
     0
 43
0.0
 10
529.8291354201465
 20
1610.32063580568
 10
527.485420550678
 20
1610.984840758329
 10
525.3813933142774
 20
1611.181950708198
  0
LWPOLYLINE
  5
1402
330
1F
100
AcDbEntity
  8
Hewi
  6
CUSTOM
 62
    18
420
        0
370
     9
100
AcDbPolyline
 90
        5
 70
     0
 43
0.0
 10
589.138498531942
 20
511.7460187307432
 10
589.5405014964617
 20
511.9477203858807
 10
590.2900083103049
 20
512.4369225390245
 10
590.9568851867389
 20
513.0377626094627
 10
591.0786310027268
 20
513.2119424731886
  0
LWPOLYLINE
  5
1403
330
1F
100
AcDbEntity
  8
Hewi
  6
CUSTOM
 62
    18
420
        0
370
     9
100
AcDbPolyline
 90
        2
 70
     0
 43
0.0
 10
588.1669157257327
 20
511.274799685475
 10
588.1669157313662
 20
511.2747996877986
  0
LINE
  5
1698
330
1F
100
AcDbEntity
  8
Hewi
370
     9
100
AcDbLine
 10
1001.673755237905
 20
1579.791216474897
 30
0.0
 11
1001.673755237909
 21
1403.988771921685
 31
0.0
  0
LWPOLYLINE
  5
169C
330
1F
100
AcDbEntity
  8
Hewi
370
     9
100
AcDbPolyline
 90
       16
 70
     0
 43
0.0
 10
1029.516977684561
 20
1377.990522661369
 10
1032.421299442095
 20
1378.3194227591
 10
1035.178731549414
 20
1379.288870188382
 10
1037.649880753771
 20
1380.849857625879
 10
1039.709825928471
 20
1382.923474292307
 10
1041.254433065063
 20
1385.40489506022
 10
1042.205619438529
 20
1388.168679556535
 10
1042.515300832317
 20
1391.075113403591
 10
1042.480517527528
 20
1391.944615237615
 10
1041.843180118077
 20
1395.117286391711
 10
1040.441965929203
 20
1398.034243709839
 10
1038.363700833502
 20
1400.514738690807
 10
1035.737163986846
 20
1402.405068108572
 10
1032.72510806148
 20
1403.588098192646
 10
1029.514174319054
 20
1403.990522791706
 10
1003.515575995657
 20
1403.987719517278
  0
LWPOLYLINE
  5
16A2
330
1F
100
AcDbEntity
  8
Hewi
370
     9
100
AcDbPolyline
 90
        6
 70
     0
 43
0.0
 10
1001.673755237905
 20
1585.791216534525
 10
1001.673755237912
 20
1585.64078400612
 10
1001.673755237912
 20
1585.197029736033
 10
1001.673755237912
 20
1584.482205416325
 10
1001.673755237909
 20
1583.532155323228
 10
1001.673755237909
 20
1582.394518935472
  0
LINE
  5
16A3
330
1F
100
AcDbEntity
  8
Hewi
370
     9
100
AcDbLine
 10
1003.515575995657
 20
1377.987719204692
 30
0.0
 11
1029.516977684561
 21
1377.990522661369
 31
0.0
  0
LWPOLYLINE
  5
16A4
330
1F
100
AcDbEntity
  8
Hewi
370
     9
100
AcDbPolyline
 90
        4
 70
     0
 43
0.0
 10
1001.673755237909
 20
1377.988771609099
 10
1001.673755237909
 20
1269.751034817271
 10
1001.673755237909
 20
1269.305992944937
 10
1001.673755237909
 20
1268.883267330411
  0
LINE
  5
16AA
330
1F
100
AcDbEntity
  8
Hewi
370
     9
100
AcDbLine
 10
1020.879221558712
 20
1585.790164130118
 30
0.0
 11
1003.515575995653
 21
1585.790164130118
 31
0.0
  0
LINE
  5
16EE
330
1F
100
AcDbEntity
  8
Hewi
370
     9
100
AcDbLine
 10
1039.946120505795
 20
1383.303082962243
 30
0.0
 11
1038.787830365115
 21
1381.995359614243
 31
0.0
  0
LINE
  5
16EF
330
1F
100
AcDbEntity
  8
Hewi
370
     9
100
AcDbLine
 10
1035.36662780811
 20
1379.40756140295
 30
0.0
 11
1033.473218231159
 21
1378.689252341769
 31
0.0
  0
LINE
  5
16F0
330
1F
100
AcDbEntity
  8
Hewi
370
     9
100
AcDbLine
 10
1032.525914724799
 20
1378.35620299946
 30
0.0
 11
1029.516977684561
 21
1377.990522661369
 31
0.0
  0
LINE
  5
16F4
330
1F
100
AcDbEntity
  8
Hewi
370
     9
100
AcDbLine
 10
1037.885443604292
 20
1381.086983863661
 30
0.0
 11
1036.381391876347
 21
1380.048572456914
 31
0.0
  0
LINE
  5
16F5
330
1F
100
AcDbEntity
  8
Hewi
370
     9
100
AcDbLine
 10
1041.437096720972
 20
1385.935645920292
 30
0.0
 11
1040.644335046253
 21
1384.424768870237
 31
0.0
  0
LINE
  5
16F6
330
1F
100
AcDbEntity
  8
Hewi
370
     9
100
AcDbLine
 10
1042.277374218709
 20
1388.842115308744
 30
0.0
 11
1041.874275729158
 21
1387.20592122079
 31
0.0
  0
LINE
  5
1701
330
1F
100
AcDbEntity
  8
Hewi
370
     9
100
AcDbLine
 10
1035.642428448896
 20
1402.442276911177
 30
0.0
 11
1036.6883407772
 21
1401.720502242626
 31
0.0
  0
LINE
  5
1710
330
1F
100
AcDbEntity
  8
Hewi
370
     9
100
AcDbLine
 10
1040.311523493852
 20
1398.189932127442
 30
0.0
 11
1040.966482622705
 21
1396.942338681907
 31
0.0
  0
LINE
  5
1711
330
1F
100
AcDbEntity
  8
Hewi
370
     9
100
AcDbLine
 10
1032.674559272429
 20
1403.594433445224
 30
0.0
 11
1033.665776211888
 21
1403.218636685713
 31
0.0
  0
LINE
  5
1714
330
1F
100
AcDbEntity
  8
Hewi
370
     9
100
AcDbLine
 10
1001.673755237909
 20
1580.124997879149
 30
0.0
 11
1001.673755237905
 21
1579.791216474897
 31
0.0
  0
LINE
  5
1715
330
1F
100
AcDbEntity
  8
Hewi
370
     9
100
AcDbLine
 10
1041.73337421059
 20
1395.345873250726
 30
0.0
 11
1042.078033618861
 21
1393.948183634475
 31
0.0
  0
LINE
  5
1718
330
1F
100
AcDbEntity
  8
Hewi
370
     9
100
AcDbLine
 10
1042.420656486152
 20
1392.242604018551
 30
0.0
 11
1042.420877916694
 21
1390.1889317019
 31
0.0
  0
LINE
  5
1719
330
1F
100
AcDbEntity
  8
Hewi
370
     9
100
AcDbLine
 10
1038.239920540094
 20
1400.603823879665
 30
0.0
 11
1039.141981041313
 21
1399.585829211379
 31
0.0
  0
LINE
  5
1731
330
1F
100
AcDbEntity
  8
Hewi
370
     9
100
AcDbLine
 10
915.6286319215178
 20
1546.937310876768
 30
0.0
 11
915.6065749471526
 21
1546.867945813492
 31
0.0
  0
LWPOLYLINE
  5
17CB
330
1F
100
AcDbEntity
  8
Hewi
370
     9
100
AcDbPolyline
 90
        5
 70
     0
 43
0.0
 10
971.6737551417027
 20
1416.791214854951
 10
970.0237538626824
 20
1416.791214854951
 10
969.8319351341488
 20
1416.791203907989
 10
969.8319432320349
 20
1557.804500929591
 10
969.8319150349016
 20
1557.991216258238
  0
LWPOLYLINE
  5
17CE
330
1F
100
AcDbEntity
  8
Hewi
370
     9
100
AcDbPolyline
 90
        3
 70
     0
 43
0.0
 10
969.8319150350762
 20
1066.791211376546
 10
970.0237538626824
 20
1066.791211376546
 10
971.6737551417027
 20
1066.791211376546
  0
LWPOLYLINE
  5
17D4
330
1F
100
AcDbEntity
  8
Hewi
370
     9
100
AcDbPolyline
 90
        4
 70
     0
 43
0.0
 10
971.9069989163363
 20
1579.791216474896
 10
971.9737551966172
 20
1579.791216474896
 10
1001.373755237491
 20
1579.791216474896
 10
1001.440511517772
 20
1579.791216474896
  0
LWPOLYLINE
  5
17D5
330
1F
100
AcDbEntity
  8
Hewi
370
     9
100
AcDbPolyline
 90
       16
 70
     0
 43
0.0
 10
971.6737551961996
 20
1066.791211376546
 10
971.6812768225535
 20
1066.791211376546
 10
971.7034645358726
 20
1066.791211376546
 10
971.7392057515498
 20
1066.791211376546
 10
971.7867082558004
 20
1066.791211376546
 10
971.8435900747026
 20
1066.791211376546
 10
971.9069989163363
 20
1066.791211376546
 10
971.9737551966172
 20
1066.791211376546
 10
1001.373755237491
 20
1066.791211376546
 10
1001.440511517772
 20
1066.791211376546
 10
1001.503920359406
 20
1066.791211376546
 10
1001.560802178308
 20
1066.791211376546
 10
1001.608304682559
 20
1066.791211376546
 10
1001.644045898236
 20
1066.791211376546
 10
1001.666233611551
 20
1066.791211376546
 10
1001.673755237909
 20
1066.791211376546
  0
LINE
  5
17D6
330
1F
100
AcDbEntity
  8
Hewi
370
     9
100
AcDbLine
 10
971.6737551961996
 20
1579.791216474896
 30
0.0
 11
971.6737551961996
 21
1066.791211376546
 31
0.0
  0
LINE
  5
17D7
330
1F
100
AcDbEntity
  8
Hewi
370
     9
100
AcDbLine
 10
1001.673755237909
 20
1066.791211376546
 30
0.0
 11
1001.673755237909
 21
1377.988779786475
 31
0.0
  0
LWPOLYLINE
  5
17D8
330
1F
100
AcDbEntity
  8
Hewi
370
     9
100
AcDbPolyline
 90
       73
 70
     0
 43
0.0
 10
969.8319292928935
 20
1557.692790271719
 10
969.8317239477292
 20
1557.52051671127
 10
969.8316977472169
 20
1557.508809394106
 10
969.8310097033973
 20
1557.329673773341
 10
969.8284283489011
 20
1557.076929004255
 10
969.8280656056594
 20
1557.055494576225
 10
969.8242356023802
 20
1556.893985995391
 10
969.8182235417116
 20
1556.742655024265
 10
969.8150134373172
 20
1556.684370264274
 10
969.8025116171084
 20
1556.524617000957
 10
969.7879685817461
 20
1556.404359203108
 10
969.7818699654963
 20
1556.365351860758
 10
969.7691968432554
 20
1556.298391188715
 10
969.7295384560165
 20
1556.16178728204
 10
969.7199456959097
 20
1556.138803818794
 10
969.6981529233417
 20
1556.095982938999
 10
969.6616337994019
 20
1556.046123442105
 10
969.6423338140993
 20
1556.028046747129
 10
969.5401189669937
 20
1555.991216238364
 10
968.9640227591917
 20
1555.991216238364
 10
968.1094520889892
 20
1555.991216238364
 10
967.0152151636539
 20
1555.991216238364
 10
965.7310040389639
 20
1555.991216238364
 10
964.3151379777373
 20
1555.991216238364
 10
962.83191502517
 20
1555.991216238364
 10
950.8319150084862
 20
1555.991216238364
 10
950.6093940742175
 20
1555.966144150297
 10
950.3980312687671
 20
1555.892185105282
 10
950.2084252057612
 20
1555.773047718665
 10
950.0500835249296
 20
1555.61470603648
 10
949.9309461393313
 20
1555.425099971855
 10
949.8569870949504
 20
1555.213737164593
 10
949.8319150070965
 20
1554.991216228427
 10
949.8319150070965
 20
1511.19321467016
 10
949.8267966252752
 20
1510.92557470867
 10
949.8114489649051
 20
1510.658326142467
 10
949.7858944703256
 20
1510.391859794466
 10
905.5462274447636
 20
1126.489857102116
 10
905.1498944370942
 20
1124.842278929536
 10
904.3692574327033
 20
1123.338217911034
 10
903.2500648448912
 20
1122.065817965895
 10
901.8579057820133
 20
1121.099646759048
 10
900.2743662665562
 20
1120.496325741234
 10
898.5922479717991
 20
1120.291211908244
 10
869.8319148958725
 20
1120.291211908244
 10
868.2742683560135
 20
1120.291211908244
 10
866.7947287178286
 20
1120.291211908244
 10
865.4674862767933
 20
1120.291211908244
 10
864.3590945109899
 20
1120.291211908244
 10
863.5251328117883
 20
1120.291211908244
 10
863.0074195011111
 20
1120.291211908244
 10
862.8319148861409
 20
1120.291211908244
 10
862.8319148861409
 20
1082.29121153059
 10
863.0092584878621
 20
1082.29121153059
 10
863.5323033635904
 20
1082.29121153059
 10
864.3745470384674
 20
1082.29121153059
 10
865.4933133620325
 20
1082.29121153059
 10
866.8319148916998
 20
1082.29121153059
 10
867.7949006753079
 20
1082.089505047162
 10
868.802206033084
 20
1081.878515409609
 10
869.8319148958725
 20
1081.662833145965
 10
940.1220803845463
 20
1066.939892951539
 10
940.5966464143457
 20
1066.857422695216
 10
941.0757604322862
 20
1066.807783823786
 10
941.5571538407384
 20
1066.791211376543
 10
962.83191502517
 20
1066.791211376543
 10
964.389561565029
 20
1066.791211376543
 10
965.8691012032141
 20
1066.791211376543
 10
967.1963436442457
 20
1066.791211376543
 10
968.3047354100526
 20
1066.791211376543
 10
969.1386971092542
 20
1066.791211376543
 10
969.6564104199278
 20
1066.791211376543
 10
969.8319150349016
 20
1066.791211376543
  0
LWPOLYLINE
  5
17D9
330
1F
100
AcDbEntity
  8
Hewi
370
     9
100
AcDbPolyline
 90
        3
 70
     0
 43
0.0
 10
971.6737551961996
 20
1580.955141700405
 10
971.6737551961996
 20
1579.795613650389
 10
971.6737551961996
 20
1579.791216474897
  0
LWPOLYLINE
  5
17DA
330
1F
100
AcDbEntity
  8
Hewi
370
     9
100
AcDbPolyline
 90
        7
 70
     0
 43
0.0
 10
1001.673755237909
 20
1585.791216534525
 10
971.6737551961996
 20
1584.743593439361
 10
971.6737551961996
 20
1584.645293745548
 10
971.6737551961996
 20
1584.360612484983
 10
971.6737551961996
 20
1583.794551341881
 10
971.6737551961996
 20
1583.009078202221
 10
971.6737551961996
 20
1582.044518780312
  0
LWPOLYLINE
  5
17DB
330
1F
100
AcDbEntity
  8
Hewi
370
     9
100
AcDbPolyline
 90
       68
 70
     0
 43
0.0
 10
969.8319150349016
 20
1557.991216258238
 10
969.8319150349016
 20
1586.031395113263
 10
969.6640929823916
 20
1587.55499103632
 10
969.1686737509444
 20
1589.005531818049
 10
968.3694122754605
 20
1590.313465249624
 10
967.3046324705465
 20
1591.416077024552
 10
966.0253896310823
 20
1592.26049783685
 10
964.5930223738288
 20
1592.806238419747
 10
963.0762115024262
 20
1593.027130971922
 10
919.710088599124
 20
1594.541509366523
 10
917.9865185446216
 20
1594.387684835865
 10
916.3533458632446
 20
1593.815755891855
 10
914.9103725946734
 20
1592.860672712031
 10
913.7457778255702
 20
1591.580799761153
 10
912.9307291273034
 20
1590.054349179612
 10
897.7860562689384
 20
1550.601127190673
 10
897.7063118979931
 20
1550.393386000181
 10
897.6305662427913
 20
1550.19606182043
 10
897.5626175067736
 20
1550.019049309752
 10
897.5058729232841
 20
1549.871224614567
 10
897.4631779026967
 20
1549.760000282358
 10
897.4366733516072
 20
1549.69095356557
 10
897.427688318894
 20
1549.667546754899
 10
901.1620100300751
 20
1548.234074942471
 10
901.1709950627883
 20
1548.25748175314
 10
901.1974996138743
 20
1548.326528469928
 10
901.2401946344652
 20
1548.437752802141
 10
901.2969392179511
 20
1548.585577497326
 10
901.3648879539724
 20
1548.762590008004
 10
901.4406336091742
 20
1548.959914187755
 10
901.5203779801158
 20
1549.167655378245
 10
916.6650508384845
 20
1588.620877367186
 10
917.014357423457
 20
1589.27507047356
 10
917.5134694673579
 20
1589.823587452507
 10
918.1318865824577
 20
1590.232908815289
 10
918.8318177316178
 20
1590.478021219863
 10
919.5704906121209
 20
1590.543946018718
 10
962.9366135154196
 20
1589.029567624116
 10
963.5866753174486
 20
1588.93489938747
 10
964.2005469991309
 20
1588.70101056623
 10
964.7487939303282
 20
1588.339115932387
 10
965.2051281324384
 20
1587.866568028845
 10
965.5476687647897
 20
1587.306025129601
 10
965.7599912925507
 20
1586.684364794573
 10
965.8319150293392
 20
1586.031395113263
 10
965.8319150293392
 20
1557.991216258238
 10
965.8319128176589
 20
1557.870559821312
 10
965.8318933098016
 20
1557.690402077132
 10
965.8317869271705
 20
1557.612299891136
 10
965.8314434080311
 20
1557.512128260332
 10
965.8284895456526
 20
1557.24772173052
 10
965.8282639054595
 20
1557.23625698269
 10
965.8239590263983
 20
1557.082365955016
 10
965.8166889982712
 20
1556.934620869486
 10
965.813697984926
 20
1556.89057266
 10
965.7964477073109
 20
1556.715199315584
 10
965.7769241039895
 20
1556.591601177715
 10
965.7746150967069
 20
1556.579739246628
 10
965.7507700114365
 20
1556.47788714355
 10
965.6972206513346
 20
1556.328299524943
 10
965.6931891095991
 20
1556.319751235931
 10
965.6403507288851
 20
1556.229112265584
 10
965.57604474845
 20
1556.153445203755
 10
965.5702145004216
 20
1556.147859355062
 10
965.4498925198167
 20
1556.064103469516
 10
965.3667303809234
 20
1556.030810905174
 10
965.2748160286574
 20
1556.008194341991
 10
965.0679830057779
 20
1555.991216238364
  0
LWPOLYLINE
  5
17DC
330
1F
100
AcDbEntity
  8
Hewi
370
     9
100
AcDbPolyline
 90
       32
 70
     0
 43
0.0
 10
965.8319150293392
 20
1066.791211376543
 10
965.8319150293392
 20
1066.741067200409
 10
965.8319150293392
 20
1066.59314911038
 10
965.8319150293392
 20
1066.354874337142
 10
965.8319150293392
 20
1066.038190972778
 10
965.8319150293392
 20
1065.658978843528
 10
965.8319150293392
 20
1065.236253229004
 10
965.8319150293392
 20
1064.791211356669
 10
965.8319150293392
 20
1060.791211316916
 10
965.8319150293392
 20
1059.901127572242
 10
965.8319150293392
 20
1059.055676343195
 10
965.8319150293392
 20
1058.297252084694
 10
965.8319150293392
 20
1057.663885355961
 10
965.8319150293392
 20
1057.187335809487
 10
965.8319150293392
 20
1056.891499629429
 10
965.8319150293392
 20
1056.79121127716
 10
969.8319150349016
 20
1056.79121127716
 10
969.8319150349016
 20
1056.891499629429
 10
969.8319150349016
 20
1057.187335809487
 10
969.8319150349016
 20
1057.663885355961
 10
969.8319150349016
 20
1058.297252084694
 10
969.8319150349016
 20
1059.055676343195
 10
969.8319150349016
 20
1059.901127572242
 10
969.8319150349016
 20
1060.791211316916
 10
969.8319150349016
 20
1064.791211356669
 10
969.8319150349016
 20
1065.236253229004
 10
969.8319150349016
 20
1065.658978843528
 10
969.8319150349016
 20
1066.038190972778
 10
969.8319150349016
 20
1066.354874337142
 10
969.8319150349016
 20
1066.59314911038
 10
969.8319150349016
 20
1066.741067200409
 10
969.8319150349016
 20
1066.791211376543
  0
LINE
  5
17DD
330
1F
100
AcDbEntity
  8
Hewi
370
     9
100
AcDbLine
 10
1001.673755237909
 20
1377.988779786475
 30
0.0
 11
1001.673755237909
 21
1403.988772594291
 31
0.0
  0
LINE
  5
17DE
330
1F
100
AcDbEntity
  8
Hewi
370
     9
100
AcDbLine
 10
971.6737551961996
 20
1579.791216474897
 30
0.0
 11
1001.673755237909
 21
1579.791216474897
 31
0.0
  0
LINE
  5
17DF
330
1F
100
AcDbEntity
  8
Hewi
370
     9
100
AcDbLine
 10
971.6737551961996
 20
1582.044518780312
 30
0.0
 11
971.6737551961996
 21
1580.955141700405
 31
0.0
  0
LWPOLYLINE
  5
17E0
330
1F
100
AcDbEntity
  8
Hewi
370
     9
100
AcDbPolyline
 90
        4
 70
     0
 43
0.0
 10
1001.673755237909
 20
1579.791216474897
 10
1001.673755237909
 20
1579.794876656958
 10
1001.673755237909
 20
1580.970527600096
 10
1001.673755237909
 20
1582.095341916592
  0
LWPOLYLINE
  5
17E1
330
1F
100
AcDbEntity
  8
Hewi
370
     9
100
AcDbPolyline
 90
        3
 70
     0
 43
0.0
 10
971.6737551961996
 20
1582.044518780312
 10
971.8465426046131
 20
1579.795609405615
 10
971.6737551961996
 20
1580.955141700405
  0
LINE
  5
17E2
330
1F
100
AcDbEntity
  8
Hewi
370
     9
100
AcDbLine
 10
969.8319292928935
 20
1557.692790271719
 30
0.0
 11
969.8319150349016
 21
1557.991216258238
 31
0.0
  0
LINE
  5
17E3
330
1F
100
AcDbEntity
  8
Hewi
370
     9
100
AcDbLine
 10
969.8319150349016
 20
1066.791211376543
 30
0.0
 11
969.8319292928935
 21
1557.692790271719
 31
0.0
  0
LWPOLYLINE
  5
17E5
330
1F
100
AcDbEntity
  8
Hewi
370
     9
100
AcDbPolyline
 90
       16
 70
     0
 43
0.0
 10
1118.523451050277
 20
1160.596764891542
 10
1117.534642594437
 20
1157.564561263216
 10
1077.898219269525
 20
1072.563976412112
 10
1076.715248933582
 20
1070.633544257076
 10
1075.128345305805
 20
1069.018699379716
 10
1073.218852860543
 20
1067.802218519204
 10
1071.084651933124
 20
1067.046458326831
 10
1068.835141386556
 20
1066.790158972139
 10
1013.015576008867
 20
1066.790158972139
 10
1010.901627133341
 20
1066.790158972139
 10
1008.893680481516
 20
1066.790158972139
 10
1007.092422882971
 20
1066.790158972139
 10
1005.588176915094
 20
1066.790158972139
 10
1004.45637175189
 20
1066.790158972139
 10
1003.753760830262
 20
1066.790158972139
 10
1003.515575995657
 20
1066.790158972139
  0
LWPOLYLINE
  5
17F0
330
1F
100
AcDbEntity
  8
Hewi
370
     9
100
AcDbPolyline
 90
        3
 70
     0
 43
0.0
 10
949.125324375389
 20
1556.414157698236
 10
949.1304893838242
 20
1556.154019520278
 10
949.1319150061208
 20
1555.928461138512
  0
LWPOLYLINE
  5
17F2
330
1F
100
AcDbEntity
  8
Hewi
370
     9
100
AcDbPolyline
 90
       19
 70
     0
 43
0.0
 10
917.1127611343617
 20
1589.068667815563
 10
917.0458015342083
 20
1588.960201824724
 10
916.8335403989731
 20
1588.530554723678
 10
916.8139265638528
 20
1588.480709922585
 10
901.5397653724466
 20
1548.690159290345
 10
901.5115968351237
 20
1548.581796811517
 10
901.5082475963572
 20
1548.469883047071
 10
901.5298856009577
 20
1548.360029820462
 10
901.5754258290327
 20
1548.257745631183
 10
901.6425847033751
 20
1548.168159435585
 10
901.6953449446736
 20
1548.122406324349
 10
901.7279945976007
 20
1548.095763459596
 10
901.8273727029736
 20
1548.044187939749
 10
908.4052187261296
 20
1545.519189401875
 10
909.8950016437338
 20
1545.128830534968
 10
910.920162176426
 20
1545.067559200617
 10
911.4340932676132
 20
1545.073783670303
 10
912.7977416020694
 20
1545.324194243176
 10
912.9479569449795
 20
1545.356714671927
  0
LWPOLYLINE
  5
17F4
330
1F
100
AcDbEntity
  8
Hewi
370
     9
100
AcDbPolyline
 90
       19
 70
     0
 43
0.0
 10
949.1319150061208
 20
1555.428461133542
 10
949.1319150061208
 20
1531.430411286912
 10
949.0493958143707
 20
1530.73162251874
 10
948.8063778504548
 20
1530.071276073415
 10
948.4162302116601
 20
1529.485699454182
 10
947.900416009841
 20
1529.007106867216
 10
925.7634139682012
 20
1512.851765106012
 10
925.2608813336301
 20
1512.388666360611
 10
924.8761899831697
 20
1511.823854831454
 10
924.6293011018314
 20
1511.186637929331
 10
924.5330254654181
 20
1510.510080095295
 10
924.592358704289
 20
1509.829287125429
 10
924.8042220859533
 20
1509.179584572051
 10
925.1576222669063
 20
1508.594684742092
 10
925.6342217243727
 20
1508.104937404809
 10
926.2092902689801
 20
1507.735754977717
 10
926.8529882653748
 20
1507.506293905917
 10
927.5319149760907
 20
1507.428460656503
 10
949.4444008802529
 20
1507.428460656503
  0
LWPOLYLINE
  5
17F5
330
1F
100
AcDbEntity
  8
Hewi
370
     9
100
AcDbPolyline
 90
        4
 70
     0
 43
0.0
 10
949.1319150061208
 20
1555.928461138512
 10
949.1319150061208
 20
1555.655006489672
 10
949.1319150061208
 20
1555.485753966306
 10
949.1319150061208
 20
1555.428461133542
  0
LINE
  5
17F6
330
1F
100
AcDbEntity
  8
Hewi
370
     9
100
AcDbLine
 10
946.1610724548227
 20
1565.807376256243
 30
0.0
 11
948.0589400230638
 21
1562.03779285203
 31
0.0
  0
LWPOLYLINE
  5
17F8
330
1F
100
AcDbEntity
  8
Hewi
370
     9
100
AcDbPolyline
 90
        4
 70
     0
 43
0.0
 10
919.1251445832021
 20
1590.461663365442
 10
918.9507659692463
 20
1590.418591821695
 10
918.6653809199487
 20
1590.325167361124
 10
918.6175068887569
 20
1590.306565204978
  0
LINE
  5
17F9
330
1F
100
AcDbEntity
  8
Hewi
370
     9
100
AcDbLine
 10
949.1253662339222
 20
1556.412613142078
 30
0.0
 11
949.1253581906057
 21
1556.412910317058
 31
0.0
  0
LWPOLYLINE
  5
17FA
330
1F
100
AcDbEntity
  8
Hewi
370
     9
100
AcDbPolyline
 90
        3
 70
     0
 43
0.0
 10
919.2517792092512
 20
1590.486381347509
 10
919.2425842546217
 20
1590.484764603663
 10
919.1251445832021
 20
1590.461663365442
  0
LINE
  5
17FB
330
1F
100
AcDbEntity
  8
Hewi
370
     9
100
AcDbLine
 10
949.1253581906057
 20
1556.412910317058
 30
0.0
 11
949.1253501949067
 21
1556.413205553888
 31
0.0
  0
LINE
  5
17FD
330
1F
100
AcDbEntity
  8
Hewi
370
     9
100
AcDbLine
 10
949.131842893963
 20
1555.979270685243
 30
0.0
 11
949.1319150061208
 21
1555.928461138512
 31
0.0
  0
LWPOLYLINE
  5
17FE
330
1F
100
AcDbEntity
  8
Hewi
370
     9
100
AcDbPolyline
 90
        4
 70
     0
 43
0.0
 10
917.5245224235041
 20
1589.58231485665
 10
917.3969737189182
 20
1589.445522306889
 10
917.2103558161106
 20
1589.211496260492
 10
917.1865202544905
 20
1589.178515902716
  0
LWPOLYLINE
  5
1800
330
1F
100
AcDbEntity
  8
Hewi
370
     9
100
AcDbPolyline
 90
        4
 70
     0
 43
0.0
 10
918.0342259682184
 20
1590.001556239962
 10
917.9778483970768
 20
1589.963265316912
 10
917.739433766339
 20
1589.780634077147
 10
917.718906434653
 20
1589.763600680262
  0
LWPOLYLINE
  5
1801
330
1F
100
AcDbEntity
  8
Hewi
370
     9
100
AcDbPolyline
 90
        3
 70
     0
 43
0.0
 10
918.3785513574294
 20
1590.200210133896
 10
918.2313588488796
 20
1590.122305008237
 10
918.0342259682184
 20
1590.001556239962
  0
LINE
  5
1802
330
1F
100
AcDbEntity
  8
Hewi
370
     9
100
AcDbLine
 10
949.1253276031311
 20
1556.414038771001
 30
0.0
 11
949.125324375389
 21
1556.414157698236
 31
0.0
  0
LINE
  5
1805
330
1F
100
AcDbEntity
  8
Hewi
370
     9
100
AcDbLine
 10
940.0276786677423
 20
1571.520358086394
 30
0.0
 11
943.4334522295321
 21
1569.027896119385
 31
0.0
  0
LWPOLYLINE
  5
1806
330
1F
100
AcDbEntity
  8
Hewi
370
     9
100
AcDbPolyline
 90
        3
 70
     0
 43
0.0
 10
918.0333526724135
 20
1590.000963108623
 10
918.0359617528083
 20
1590.002766169646
 10
918.1846562499995
 20
1590.095488512002
  0
LWPOLYLINE
  5
1807
330
1F
100
AcDbEntity
  8
Hewi
370
     9
100
AcDbPolyline
 90
        3
 70
     1
 43
0.0
 10
919.2517792092512
 20
1590.486381347509
 10
919.9130623224009
 20
1590.531983150887
 10
919.2553619071878
 20
1590.486996484172
  0
LWPOLYLINE
  5
1808
330
1F
100
AcDbEntity
  8
Hewi
370
     9
100
AcDbPolyline
 90
       11
 70
     0
 43
0.0
 10
912.9479569449795
 20
1545.356714671927
 10
914.1787561053389
 20
1545.875301926629
 10
914.3632777870044
 20
1545.963921477212
 10
915.6115132348531
 20
1546.865997673883
 10
915.641191886123
 20
1546.899681373499
 10
915.6626098176056
 20
1546.939136325227
 10
915.6746878732265
 20
1546.982374566279
 10
915.6768174924874
 20
1547.027217510442
 10
915.6688913731704
 20
1547.07140571751
 10
915.6513088778302
 20
1547.112712736629
 10
913.5275588237528
 20
1554.050708084252
  0
LWPOLYLINE
  5
1809
330
1F
100
AcDbEntity
  8
Hewi
370
     9
100
AcDbPolyline
 90
        3
 70
     0
 43
0.0
 10
914.0640439808958
 20
1545.826968903265
 10
913.4294455354028
 20
1545.536527486687
 10
912.9479569449795
 20
1545.356714671927
  0
LWPOLYLINE
  5
180A
330
1F
100
AcDbEntity
  8
Hewi
370
     9
100
AcDbPolyline
 90
       10
 70
     0
 43
0.0
 10
949.1319150061208
 20
1555.928461138512
 10
949.1075306393831
 20
1556.880857583755
 10
949.0764702338783
 20
1557.355122437156
 10
949.0708099257462
 20
1557.424737083192
 10
949.0507170507298
 20
1557.64896104155
 10
949.027620118486
 20
1557.874118826517
 10
949.0256228921644
 20
1557.892300223704
 10
949.023607090403
 20
1557.910479570773
 10
949.0215727153008
 20
1557.928656848747
 10
946.6716116755197
 20
1564.793332866596
  0
LINE
  5
180B
330
1F
100
AcDbEntity
  8
Hewi
370
     9
100
AcDbLine
 10
917.1127611343617
 20
1589.068667815563
 30
0.0
 11
917.1865202544905
 21
1589.178515902716
 31
0.0
  0
LINE
  5
180C
330
1F
100
AcDbEntity
  8
Hewi
370
     9
100
AcDbLine
 10
917.5245224235041
 20
1589.58231485665
 30
0.0
 11
917.718906434653
 21
1589.763600680262
 31
0.0
  0
LINE
  5
180D
330
1F
100
AcDbEntity
  8
Hewi
370
     9
100
AcDbLine
 10
917.718906434653
 20
1589.763600680262
 30
0.0
 11
917.6985630739581
 21
1589.745598265623
 31
0.0
  0
LINE
  5
180E
330
1F
100
AcDbEntity
  8
Hewi
370
     9
100
AcDbLine
 10
918.6175068887569
 20
1590.306565204978
 30
0.0
 11
918.3785513574294
 21
1590.200210133896
 31
0.0
  0
LINE
  5
180F
330
1F
100
AcDbEntity
  8
Hewi
370
     9
100
AcDbLine
 10
917.1865202544905
 20
1589.178515902716
 30
0.0
 11
917.1791836060874
 21
1589.167709782543
 31
0.0
  0
LINE
  5
1810
330
1F
100
AcDbEntity
  8
Hewi
370
     9
100
AcDbLine
 10
918.3785513574294
 20
1590.200210133896
 30
0.0
 11
918.6152044950977
 21
1590.305626808183
 31
0.0
  0
LINE
  5
1811
330
1F
100
AcDbEntity
  8
Hewi
370
     9
100
AcDbLine
 10
917.1130364453238
 20
1589.06913540364
 30
0.0
 11
917.1791836060874
 21
1589.167709782543
 31
0.0
  0
LINE
  5
1812
330
1F
100
AcDbEntity
  8
Hewi
370
     9
100
AcDbLine
 10
917.5254501549279
 20
1589.583182362175
 30
0.0
 11
917.6985630739581
 21
1589.745598265623
 31
0.0
  0
LWPOLYLINE
  5
1813
330
1F
100
AcDbEntity
  8
Hewi
370
     9
100
AcDbPolyline
 90
        8
 70
     0
 43
0.0
 10
965.8319150293392
 20
1585.838257356381
 10
965.7551963767618
 20
1586.53475834978
 10
965.5287190138151
 20
1587.197862707142
 10
965.1633423393105
 20
1587.795775133003
 10
964.6765858570615
 20
1588.299826230113
 10
964.0917891304489
 20
1588.685847172877
 10
963.436992669991
 20
1588.935328582203
 10
962.7435934144923
 20
1589.036308034627
  0
LINE
  5
1814
330
1F
100
AcDbEntity
  8
Hewi
370
     9
100
AcDbLine
 10
919.1251445832021
 20
1590.461663365442
 30
0.0
 11
919.189642836598
 21
1590.474915285132
 31
0.0
  0
LWPOLYLINE
  5
1815
330
1F
100
AcDbEntity
  8
Hewi
370
     9
100
AcDbPolyline
 90
       10
 70
     0
 43
0.0
 10
949.6319150068156
 20
1555.928461138512
 10
949.5206545396831
 20
1555.915925094477
 10
949.4849686935376
 20
1555.903989396414
 10
949.4149731369544
 20
1555.87894557197
 10
949.3416406861797
 20
1555.83296963475
 10
949.3201701054495
 20
1555.819376878662
 10
949.2409992650392
 20
1555.740206037569
 10
949.1814305722364
 20
1555.645403005257
 10
949.1444510500441
 20
1555.539721601626
 10
949.1319150061208
 20
1555.428461133542
  0
LINE
  5
1816
330
1F
100
AcDbEntity
  8
Hewi
370
     9
100
AcDbLine
 10
949.4626160292828
 20
1556.708514929973
 30
0.0
 11
949.4703597119478
 21
1556.710089569709
 31
0.0
  0
LWPOLYLINE
  5
1817
330
1F
100
AcDbEntity
  8
Hewi
370
     9
100
AcDbPolyline
 90
        3
 70
     1
 43
0.0
 10
949.1482704472291
 20
1556.509052284283
 10
949.1772134407401
 20
1556.553120659695
 10
949.1508042673631
 20
1556.514219373559
  0
LWPOLYLINE
  5
1818
330
1F
100
AcDbEntity
  8
Hewi
370
     9
100
AcDbPolyline
 90
        3
 70
     0
 43
0.0
 10
949.4703597119478
 20
1556.710089569709
 10
949.4320164068776
 20
1556.700998103047
 10
949.4626160292828
 20
1556.708514929973
  0
LWPOLYLINE
  5
1819
330
1F
100
AcDbEntity
  8
Hewi
370
     9
100
AcDbPolyline
 90
        3
 70
     0
 43
0.0
 10
949.3580204418794
 20
1556.676434061379
 10
949.3287743854562
 20
1556.664168605741
 10
949.3532991187421
 20
1556.674767305114
  0
LWPOLYLINE
  5
181A
330
1F
100
AcDbEntity
  8
Hewi
370
     9
100
AcDbPolyline
 90
        3
 70
     0
 43
0.0
 10
949.595359742827
 20
1557.271795171456
 10
949.5795080762581
 20
1557.450147597486
 10
949.5747024289448
 20
1557.503429458165
  0
LINE
  5
181B
330
1F
100
AcDbEntity
  8
Hewi
370
     9
100
AcDbLine
 10
949.2029413384734
 20
1556.581037694486
 30
0.0
 11
949.199973949333
 21
1556.577812687792
 31
0.0
  0
LINE
  5
181C
330
1F
100
AcDbEntity
  8
Hewi
370
     9
100
AcDbLine
 10
949.6319150068156
 20
1555.928461138512
 30
0.0
 11
949.5410971906858
 21
1555.903989396414
 31
0.0
  0
LINE
  5
181D
330
1F
100
AcDbEntity
  8
Hewi
370
     9
100
AcDbLine
 10
949.3532923630009
 20
1556.674989727822
 30
0.0
 11
949.3532991187421
 21
1556.674767305114
 31
0.0
  0
LINE
  5
181E
330
1F
100
AcDbEntity
  8
Hewi
370
     9
100
AcDbLine
 10
949.2799094870424
 20
1556.638690059901
 30
0.0
 11
949.2805230441627
 21
1556.638798927388
 31
0.0
  0
LINE
  5
181F
330
1F
100
AcDbEntity
  8
Hewi
370
     9
100
AcDbLine
 10
949.2421074501253
 20
1556.61388036073
 30
0.0
 11
949.2799094870424
 21
1556.638690059901
 31
0.0
  0
LINE
  5
1820
330
1F
100
AcDbEntity
  8
Hewi
370
     9
100
AcDbLine
 10
949.1482704472291
 20
1556.509052284283
 30
0.0
 11
949.1381709694179
 21
1556.486974296214
 31
0.0
  0
LINE
  5
1821
330
1F
100
AcDbEntity
  8
Hewi
370
     9
100
AcDbLine
 10
949.5074844052142
 20
1556.717153059948
 30
0.0
 11
949.4703597119478
 21
1556.710089569709
 31
0.0
  0
LINE
  5
1822
330
1F
100
AcDbEntity
  8
Hewi
370
     9
100
AcDbLine
 10
949.3532991187421
 20
1556.674767305114
 30
0.0
 11
949.3580204418794
 21
1556.676434061379
 31
0.0
  0
LINE
  5
1823
330
1F
100
AcDbEntity
  8
Hewi
370
     9
100
AcDbLine
 10
949.315312678118
 20
1556.657768152436
 30
0.0
 11
949.2805230441627
 21
1556.638798927388
 31
0.0
  0
LINE
  5
1824
330
1F
100
AcDbEntity
  8
Hewi
370
     9
100
AcDbLine
 10
949.4190160183098
 20
1556.697382206113
 30
0.0
 11
949.3580204418794
 21
1556.676434061379
 31
0.0
  0
LWPOLYLINE
  5
1825
330
1F
100
AcDbEntity
  8
Hewi
370
     9
100
AcDbPolyline
 90
       11
 70
     0
 43
0.0
 10
915.6300994128141
 20
1547.111201641775
 10
913.9478928004173
 20
1551.219712223412
 10
913.3262161676903
 20
1555.384688468166
 10
913.6940104878194
 20
1559.579713652527
 10
915.0309514048458
 20
1563.572970207706
 10
917.26315941165
 20
1567.143790322307
 10
920.2672824398941
 20
1570.094850070689
 10
923.8773123093888
 20
1572.26307355553
 10
927.8937583589685
 20
1573.528644500462
 10
932.094671323146
 20
1573.821627311141
 10
936.2479082737518
 20
1573.125831724124
  0
LINE
  5
1826
330
1F
100
AcDbEntity
  8
Hewi
370
     9
100
AcDbLine
 10
949.462600634215
 20
1556.708665705213
 30
0.0
 11
949.4626160292828
 21
1556.708514929973
 31
0.0
  0
LINE
  5
1827
330
1F
100
AcDbEntity
  8
Hewi
370
     9
100
AcDbLine
 10
949.462600634215
 20
1556.708665705213
 30
0.0
 11
949.5074844052142
 21
1556.717153059948
 31
0.0
  0
LWPOLYLINE
  5
1828
330
1F
100
AcDbEntity
  8
Hewi
370
     9
100
AcDbPolyline
 90
        3
 70
     0
 43
0.0
 10
915.1015083889324
 20
1547.080599858107
 10
915.0969806448047
 20
1547.080396956271
 10
915.1011295161698
 20
1547.078572952928
  0
LWPOLYLINE
  5
1829
330
1F
100
AcDbEntity
  8
Hewi
370
     9
100
AcDbPolyline
 90
        3
 70
     0
 43
0.0
 10
915.1011295161698
 20
1547.078572952928
 10
915.1071571439642
 20
1547.080854420492
 10
915.1015083889324
 20
1547.080599858107
  0
LINE
  5
182A
330
1F
100
AcDbEntity
  8
Hewi
370
     9
100
AcDbLine
 10
915.1011295161698
 20
1547.078572952928
 30
0.0
 11
915.1015083889324
 21
1547.080599858107
 31
0.0
  0
LWPOLYLINE
  5
182B
330
1F
100
AcDbEntity
  8
Hewi
370
     9
100
AcDbPolyline
 90
        5
 70
     0
 43
0.0
 10
915.6460566589229
 20
1547.112335872903
 10
915.6459269878977
 20
1547.01708085117
 10
915.6413304984308
 20
1546.977245528589
 10
915.6296240567863
 20
1546.939523058214
 10
915.5988857515476
 20
1546.870985307601
  0
LINE
  5
182C
330
1F
100
AcDbEntity
  8
Hewi
370
     9
100
AcDbLine
 10
915.5683201867214
 20
1547.024902567764
 30
0.0
 11
915.5638357547431
 21
1546.990975312814
 31
0.0
  0
LWPOLYLINE
  5
182D
330
1F
100
AcDbEntity
  8
Hewi
370
     9
100
AcDbPolyline
 90
        4
 70
     1
 43
0.0
 10
915.4265339814301
 20
1546.940408686443
 10
915.4563083174217
 20
1547.010491818402
 10
915.4602244308698
 20
1547.036371149508
 10
915.4537125644129
 20
1547.099476615962
  0
LINE
  5
182E
330
1F
100
AcDbEntity
  8
Hewi
370
     9
100
AcDbLine
 10
917.5254356305959
 20
1589.583166528989
 30
0.0
 11
917.5254501549279
 21
1589.583182362175
 31
0.0
  0
LINE
  5
182F
330
1F
100
AcDbEntity
  8
Hewi
370
     9
100
AcDbLine
 10
914.4083440225768
 20
1561.68011558464
 30
0.0
 11
913.3921862708922
 21
1554.942716156765
 31
0.0
  0
LINE
  5
1830
330
1F
100
AcDbEntity
  8
Hewi
370
     9
100
AcDbLine
 10
918.4947623424923
 20
1568.331496950273
 30
0.0
 11
914.7753325875783
 21
1562.809472501126
 31
0.0
  0
LINE
  5
1831
330
1F
100
AcDbEntity
  8
Hewi
370
     9
100
AcDbLine
 10
913.6803843911657
 20
1559.42429575929
 30
0.0
 11
914.7049822975386
 21
1562.599345822876
 31
0.0
  0
LWPOLYLINE
  5
1832
330
1F
100
AcDbEntity
  8
Hewi
370
     9
100
AcDbPolyline
 90
        3
 70
     0
 43
0.0
 10
916.9286411139037
 20
1588.723052264358
 10
917.0189091781139
 20
1588.913749730884
 10
917.0402889070428
 20
1588.949043473721
  0
LINE
  5
1833
330
1F
100
AcDbEntity
  8
Hewi
370
     9
100
AcDbLine
 10
917.3617981760399
 20
1589.404782886653
 30
0.0
 11
917.3823691463766
 21
1589.427207609798
 31
0.0
  0
LINE
  5
1834
330
1F
100
AcDbEntity
  8
Hewi
370
     9
100
AcDbLine
 10
918.619916468342
 20
1590.307501482426
 30
0.0
 11
918.6204165889831
 21
1590.307700457088
 31
0.0
  0
LINE
  5
1835
330
1F
100
AcDbEntity
  8
Hewi
370
     9
100
AcDbLine
 10
931.9768676108724
 20
1573.813411367771
 30
0.0
 11
935.967780516079
 21
1573.172761784053
 31
0.0
  0
LINE
  5
1836
330
1F
100
AcDbEntity
  8
Hewi
370
     9
100
AcDbLine
 10
918.8989781592754
 20
1590.403840933831
 30
0.0
 11
918.9255659772062
 21
1590.410342280776
 31
0.0
  0
LINE
  5
1837
330
1F
100
AcDbEntity
  8
Hewi
370
     9
100
AcDbLine
 10
917.8363773448399
 20
1589.854895148759
 30
0.0
 11
917.9338646651885
 21
1589.932209785273
 31
0.0
  0
LINE
  5
1838
330
1F
100
AcDbEntity
  8
Hewi
370
     9
100
AcDbLine
 10
917.7902124545871
 20
1589.819531751954
 30
0.0
 11
917.9338646651885
 21
1589.932209785273
 31
0.0
  0
LWPOLYLINE
  5
1839
330
1F
100
AcDbEntity
  8
Hewi
370
     9
100
AcDbPolyline
 90
        3
 70
     0
 43
0.0
 10
949.4626160292828
 20
1556.708514929973
 10
949.4684798650087
 20
1556.709643844806
 10
949.5074844052142
 20
1556.717153059948
  0
LINE
  5
183A
330
1F
100
AcDbEntity
  8
Hewi
370
     9
100
AcDbLine
 10
940.531278096274
 20
1571.151806740335
 30
0.0
 11
934.2715407584728
 21
1573.445054209447
 31
0.0
  0
LINE
  5
183B
330
1F
100
AcDbEntity
  8
Hewi
370
     9
100
AcDbLine
 10
918.9296968179732
 20
1590.411694564407
 30
0.0
 11
918.8989781592754
 21
1590.403840933831
 31
0.0
  0
LINE
  5
183C
330
1F
100
AcDbEntity
  8
Hewi
370
     9
100
AcDbLine
 10
919.1778342271863
 20
1590.472027802343
 30
0.0
 11
919.189642836598
 21
1590.474915285132
 31
0.0
  0
LINE
  5
183D
330
1F
100
AcDbEntity
  8
Hewi
370
     9
100
AcDbLine
 10
918.6152044950977
 20
1590.305626808183
 30
0.0
 11
918.6170329967717
 21
1590.306354283662
 31
0.0
  0
LINE
  5
183E
330
1F
100
AcDbEntity
  8
Hewi
370
     9
100
AcDbLine
 10
917.2854676073693
 20
1589.305689343036
 30
0.0
 11
917.3617981760399
 21
1589.404782886653
 31
0.0
  0
LINE
  5
183F
330
1F
100
AcDbEntity
  8
Hewi
370
     9
100
AcDbLine
 10
932.9620768200292
 20
1573.655258607272
 30
0.0
 11
926.4032296371333
 21
1573.050785721987
 31
0.0
  0
LINE
  5
1840
330
1F
100
AcDbEntity
  8
Hewi
370
     9
100
AcDbLine
 10
919.189642836598
 20
1590.474915285132
 30
0.0
 11
919.2334941278387
 21
1590.482976509567
 31
0.0
  0
LINE
  5
1841
330
1F
100
AcDbEntity
  8
Hewi
370
     9
100
AcDbLine
 10
918.6131955952188
 20
1590.304646321552
 30
0.0
 11
918.6152044950977
 21
1590.305626808183
 31
0.0
  0
LINE
  5
1842
330
1F
100
AcDbEntity
  8
Hewi
370
     9
100
AcDbLine
 10
917.1123375045208
 20
1589.06798158934
 30
0.0
 11
917.1130364453238
 21
1589.06913540364
 31
0.0
  0
LINE
  5
1843
330
1F
100
AcDbEntity
  8
Hewi
370
     9
100
AcDbLine
 10
917.1871623137558
 20
1567.022219229242
 30
0.0
 11
919.6634158622329
 21
1569.501649879834
 31
0.0
  0
LINE
  5
1844
330
1F
100
AcDbEntity
  8
Hewi
370
     9
100
AcDbLine
 10
917.1791836060874
 20
1589.167709782543
 30
0.0
 11
917.1798127821894
 21
1589.168526588842
 31
0.0
  0
LINE
  5
1845
330
1F
100
AcDbEntity
  8
Hewi
370
     9
100
AcDbLine
 10
917.2703287728326
 20
1589.286704660922
 30
0.0
 11
917.3617981760399
 21
1589.404782886653
 31
0.0
  0
LINE
  5
1846
330
1F
100
AcDbEntity
  8
Hewi
370
     9
100
AcDbLine
 10
914.0104694250295
 20
1551.066879199988
 30
0.0
 11
913.4988838778664
 21
1554.22788625386
 31
0.0
  0
LINE
  5
1847
330
1F
100
AcDbEntity
  8
Hewi
370
     9
100
AcDbLine
 10
925.0983349311754
 20
1572.627844299559
 30
0.0
 11
919.4319461103951
 21
1569.269883117127
 31
0.0
  0
LINE
  5
1848
330
1F
100
AcDbEntity
  8
Hewi
370
     9
100
AcDbLine
 10
950.5017025341549
 20
1555.928461138512
 30
0.0
 11
949.6319150068156
 21
1555.928461138512
 31
0.0
  0
LINE
  5
1849
330
1F
100
AcDbEntity
  8
Hewi
370
     9
100
AcDbLine
 10
918.7750256178659
 20
1590.361060960944
 30
0.0
 11
918.8989781592754
 21
1590.403840933831
 31
0.0
  0
LINE
  5
184A
330
1F
100
AcDbEntity
  8
Hewi
370
     9
100
AcDbLine
 10
917.9338646651885
 20
1589.932209785273
 30
0.0
 11
917.9690477254517
 21
1589.956523794429
 31
0.0
  0
LINE
  5
184B
330
1F
100
AcDbEntity
  8
Hewi
370
     9
100
AcDbLine
 10
941.4827839367827
 20
1570.455462114869
 30
0.0
 11
946.2783659734995
 21
1565.574405318206
 31
0.0
  0
LINE
  5
184C
330
1F
100
AcDbEntity
  8
Hewi
370
     9
100
AcDbLine
 10
917.6985630739581
 20
1589.745598265623
 30
0.0
 11
917.7055153903348
 21
1589.75111196537
 31
0.0
  0
LINE
  5
184D
330
1F
100
AcDbEntity
  8
Hewi
370
     9
100
AcDbLine
 10
918.1846562499995
 20
1590.095488512002
 30
0.0
 11
918.1990391641738
 21
1590.102508401441
 31
0.0
  0
LINE
  5
184E
330
1F
100
AcDbEntity
  8
Hewi
370
     9
100
AcDbLine
 10
923.7652432586292
 20
1572.195763655931
 30
0.0
 11
927.3118176799616
 21
1573.345276615056
 31
0.0
  0
LINE
  5
184F
330
1F
100
AcDbEntity
  8
Hewi
370
     9
100
AcDbLine
 10
918.2093696008887
 20
1590.108836049348
 30
0.0
 11
918.1846562499995
 21
1590.095488512002
 31
0.0
  0
LINE
  5
1850
330
1F
100
AcDbEntity
  8
Hewi
370
     9
100
AcDbLine
 10
949.1161968509914
 20
1556.693134588522
 30
0.0
 11
949.1253258935321
 21
1556.414081235076
 31
0.0
  0
LWPOLYLINE
  5
1958
330
1F
100
AcDbEntity
  8
Hewi
370
     9
100
AcDbPolyline
 90
       31
 70
     0
 43
0.0
 10
1013.574005399584
 20
1585.7901585672
 10
1014.665684968317
 20
1585.910696334692
 10
1015.704769062352
 20
1586.266502309379
 10
1016.641196177627
 20
1586.840434296174
 10
1017.429850668436
 20
1587.604841117798
 10
1018.032736351194
 20
1588.522894806783
 10
1018.420807103227
 20
1589.550364921389
 10
1018.575366261157
 20
1590.637749501553
 10
1018.488967397918
 20
1591.732659998651
 10
1016.172267089179
 20
1603.619613058971
 10
1016.006815508195
 20
1604.880795424588
 10
1016.004517073936
 20
1606.152704017521
 10
1016.369313536839
 20
1608.302402977969
 10
1017.182920629575
 20
1610.32435759615
 10
1018.421927074943
 20
1612.117249827884
 10
1020.023757042817
 20
1613.595584104849
 10
1021.903440724956
 20
1614.700380786961
 10
1023.975931602463
 20
1615.374255885969
 10
1027.185439720927
 20
1616.032916882916
 10
1027.191597386238
 20
1616.034180130112
 10
1028.142682735312
 20
1616.148290869476
 10
1029.099865808059
 20
1616.10823531829
 10
1030.42428145656
 20
1615.796411602147
 10
1030.895385702401
 20
1615.675143657033
 10
1033.449976571914
 20
1614.888572524272
 10
1037.691832504266
 20
1613.470691466897
 10
1038.971583306403
 20
1612.909098736398
 10
1040.789362567295
 20
1612.079565386686
 10
1041.199382029977
 20
1611.803288314999
 10
1041.992963884172
 20
1611.242634932771
 10
1043.453871226556
 20
1609.892513104834
  0
LWPOLYLINE
  5
1959
330
1F
100
AcDbEntity
  8
Hewi
370
     9
100
AcDbPolyline
 90
        8
 70
     0
 43
0.0
 10
1051.130531816389
 20
1594.792845150699
 10
1053.159104989432
 20
1588.168283989912
 10
1053.55726307411
 20
1587.318191972185
 10
1055.56556796132
 20
1579.556309548877
 10
1057.579883318919
 20
1570.384652993262
 10
1059.650562959514
 20
1559.102505210547
 10
1061.506967324372
 20
1546.81021937847
 10
1061.685720972769
 20
1542.882645349695
  0
LWPOLYLINE
  5
195A
330
1F
100
AcDbEntity
  8
Hewi
370
     9
100
AcDbPolyline
 90
        6
 70
     0
 43
0.0
 10
1061.560130349664
 20
1545.642121781725
 10
1062.985210022937
 20
1534.169847483706
 10
1063.250763436594
 20
1532.573333732543
 10
1065.133245461317
 20
1513.447989126688
 10
1066.636137360413
 20
1495.91615763709
 10
1066.720616832612
 20
1491.503602046205
  0
LWPOLYLINE
  5
195B
330
1F
100
AcDbEntity
  8
Hewi
370
     9
100
AcDbPolyline
 90
        3
 70
     0
 43
0.0
 10
1053.112775295788
 20
1588.319579447377
 10
1051.575465080104
 20
1593.814950236501
 10
1051.130531816389
 20
1594.792845150699
  0
LINE
  5
195C
330
1F
100
AcDbEntity
  8
Hewi
370
     9
100
AcDbLine
 10
1045.524283600744
 20
1607.264440357553
 30
0.0
 11
1046.689150600801
 21
1605.451412174674
 31
0.0
  0
LWPOLYLINE
  5
195D
330
1F
100
AcDbEntity
  8
Hewi
370
     9
100
AcDbPolyline
 90
        3
 70
     0
 43
0.0
 10
1069.937384464783
 20
1442.952034462767
 10
1069.939757979631
 20
1442.935742782792
 10
1069.938944518355
 20
1442.916579690288
  0
LWPOLYLINE
  5
195E
330
1F
100
AcDbEntity
  8
Hewi
370
     9
100
AcDbPolyline
 90
        4
 70
     0
 43
0.0
 10
1067.369004853617
 20
1294.216147677276
 10
1067.172229234558
 20
1292.637030914709
 10
1067.17204968395
 20
1292.632841349419
 10
1066.021230598974
 20
1283.893485455492
  0
LWPOLYLINE
  5
195F
330
1F
100
AcDbEntity
  8
Hewi
370
     9
100
AcDbPolyline
 90
        3
 70
     0
 43
0.0
 10
1068.496908377412
 20
1469.224559513887
 10
1068.508156025891
 20
1469.404514302763
 10
1068.475680735053
 20
1469.564481752338
  0
LWPOLYLINE
  5
1960
330
1F
100
AcDbEntity
  8
Hewi
370
     9
100
AcDbPolyline
 90
        3
 70
     0
 43
0.0
 10
1068.409832194784
 20
1303.794426489012
 10
1067.763476347323
 20
1300.612160974422
 10
1068.409492149807
 20
1303.791262468841
  0
LINE
  5
1961
330
1F
100
AcDbEntity
  8
Hewi
370
     9
100
AcDbLine
 10
1068.409832194784
 20
1303.794426489012
 30
0.0
 11
1068.409492149807
 21
1303.791262468841
 31
0.0
  0
LWPOLYLINE
  5
1962
330
1F
100
AcDbEntity
  8
Hewi
370
     9
100
AcDbPolyline
 90
        6
 70
     0
 43
0.0
 10
1071.308081340058
 20
1356.598586920945
 10
1071.308275210725
 20
1356.599758017129
 10
1071.308156024506
 20
1356.6012995319
 10
1071.482912687539
 20
1381.525442883167
 10
1071.073677022999
 20
1410.595890522331
 10
1069.938944518366
 20
1442.916579689994
  0
LWPOLYLINE
  5
1963
330
1F
100
AcDbEntity
  8
Hewi
370
     9
100
AcDbPolyline
 90
       11
 70
     0
 43
0.0
 10
1029.516978316447
 20
1377.99051932576
 10
1003.515578067711
 20
1377.987715869113
 10
1003.515578067711
 20
1269.749980237434
 10
1003.515578067711
 20
1269.304938369867
 10
1003.515578067711
 20
1268.882212759875
 10
1003.515578067711
 20
1268.503000634689
 10
1003.515578067711
 20
1268.186317273717
 10
1003.515578067711
 20
1267.948042503035
 10
1003.515578067711
 20
1267.800124414591
 10
1003.515578067711
 20
1267.749980238994
 10
1043.666327734843
 20
1267.749980238994
  0
LWPOLYLINE
  5
1964
330
1F
100
AcDbEntity
  8
Hewi
370
     9
100
AcDbPolyline
 90
        4
 70
     0
 43
0.0
 10
1070.643469255155
 20
1335.389992548477
 10
1069.899453525805
 20
1322.373816490988
 10
1069.618447278589
 20
1317.874987960672
 10
1069.618325575303
 20
1317.872439863083
  0
LINE
  5
1965
330
1F
100
AcDbEntity
  8
Hewi
370
     9
100
AcDbLine
 10
1068.821027402965
 20
1315.144363005855
 30
0.0
 11
1069.618325575303
 21
1317.872439863083
 31
0.0
  0
LWPOLYLINE
  5
1966
330
1F
100
AcDbEntity
  8
Hewi
370
     9
100
AcDbPolyline
 90
       14
 70
     0
 43
0.0
 10
1021.251169646583
 20
1614.317004089024
 10
1033.697373363739
 20
1579.070025474564
 10
1034.694051927901
 20
1575.644671770213
 10
1036.131645174584
 20
1569.869229306093
 10
1037.849372143864
 20
1561.652872152046
 10
1039.582547605663
 20
1551.623644422247
 10
1041.286023034738
 20
1539.659990906945
 10
1042.979006455899
 20
1525.204077597874
 10
1044.858823410961
 20
1505.910964328976
 10
1046.483944161959
 20
1486.52165274465
 10
1046.639533063044
 20
1484.24679486731
 10
1046.772582611195
 20
1481.868700254901
 10
1046.924306674929
 20
1477.448776315487
 10
1046.93448286061
 20
1473.526466231125
  0
LWPOLYLINE
  5
1967
330
1F
100
AcDbEntity
  8
Hewi
370
     9
100
AcDbPolyline
 90
        4
 70
     0
 43
0.0
 10
1043.037751386286
 20
1267.749980240027
 10
1043.30852093989
 20
1267.703355640808
 10
1043.664306057687
 20
1267.61849509265
 10
1044.289823030433
 20
1267.40557413711
  0
LWPOLYLINE
  5
1968
330
1F
100
AcDbEntity
  8
Hewi
370
     9
100
AcDbPolyline
 90
        3
 70
     0
 43
0.0
 10
1067.356633260081
 20
1294.107981707986
 10
1067.340756706229
 20
1293.967069656766
 10
1067.320449035616
 20
1293.791619738065
  0
LINE
  5
1969
330
1F
100
AcDbEntity
  8
Hewi
370
     9
100
AcDbLine
 10
1041.874275676598
 20
1387.205917786405
 30
0.0
 11
1042.277374132651
 21
1388.842111811479
 31
0.0
  0
LINE
  5
196A
330
1F
100
AcDbEntity
  8
Hewi
370
     9
100
AcDbLine
 10
1036.688341088751
 20
1401.720498599618
 30
0.0
 11
1035.642428722293
 21
1402.442273326743
 31
0.0
  0
LWPOLYLINE
  5
196B
330
1F
100
AcDbEntity
  8
Hewi
370
     9
100
AcDbPolyline
 90
        4
 70
     0
 43
0.0
 10
1062.554091995499
 20
1259.641687284524
 10
1063.207703475094
 20
1263.71577733912
 10
1063.843569585362
 20
1267.688804570596
 10
1065.16212433138
 20
1276.771010690991
  0
LWPOLYLINE
  5
196C
330
1F
100
AcDbEntity
  8
Hewi
370
     9
100
AcDbPolyline
 90
        4
 70
     0
 43
0.0
 10
1065.417834970064
 20
1278.532345769964
 10
1065.468824019538
 20
1278.883558382574
 10
1065.59570261923
 20
1279.90770134671
 10
1066.563253695469
 20
1287.688439282766
  0
LWPOLYLINE
  5
196D
330
1F
100
AcDbEntity
  8
Hewi
370
     9
100
AcDbPolyline
 90
        3
 70
     0
 43
0.0
 10
1067.404347248319
 20
1294.533784005982
 10
1067.400644472091
 20
1294.498602381649
 10
1067.383639012512
 20
1294.347670749159
  0
LINE
  5
196E
330
1F
100
AcDbEntity
  8
Hewi
370
     9
100
AcDbLine
 10
1036.708341811947
 20
1563.651134094464
 30
0.0
 11
1036.652154552319
 21
1563.643005666942
 31
0.0
  0
LINE
  5
196F
330
1F
100
AcDbEntity
  8
Hewi
370
     9
100
AcDbLine
 10
1042.420877833849
 20
1390.188928328939
 30
0.0
 11
1042.420656403337
 21
1392.242600483479
 31
0.0
  0
LWPOLYLINE
  5
1970
330
1F
100
AcDbEntity
  8
Hewi
370
     9
100
AcDbPolyline
 90
        3
 70
     0
 43
0.0
 10
1067.148971047443
 20
1292.344914992764
 10
1067.139848491393
 20
1292.269384112228
 10
1067.122991744418
 20
1292.133627041446
  0
LWPOLYLINE
  5
1971
330
1F
100
AcDbEntity
  8
Hewi
370
     9
100
AcDbPolyline
 90
        3
 70
     0
 43
0.0
 10
1067.075765123885
 20
1291.7532839257
 10
1067.054072367285
 20
1291.578579690219
 10
1066.503982900077
 20
1287.211802403616
  0
LINE
  5
1972
330
1F
100
AcDbEntity
  8
Hewi
370
     9
100
AcDbLine
 10
1038.787830421582
 20
1381.99535616579
 30
0.0
 11
1039.946120529068
 21
1383.303079534731
 31
0.0
  0
LWPOLYLINE
  5
1973
330
1F
100
AcDbEntity
  8
Hewi
370
     9
100
AcDbPolyline
 90
        3
 70
     0
 43
0.0
 10
1071.347395534734
 20
1362.197718048412
 10
1071.44925940282
 20
1367.083331051001
 10
1071.431166111777
 20
1374.1452429226
  0
LWPOLYLINE
  5
1974
330
1F
100
AcDbEntity
  8
Hewi
370
     9
100
AcDbPolyline
 90
        3
 70
     0
 43
0.0
 10
1069.403535892463
 20
1452.688780439098
 10
1069.141881371388
 20
1458.494807516561
 10
1068.859637631744
 20
1462.608820773385
  0
LINE
  5
1975
330
1F
100
AcDbEntity
  8
Hewi
370
     9
100
AcDbLine
 10
1040.966482663842
 20
1396.942335060465
 30
0.0
 11
1040.31152352785
 21
1398.189928575324
 31
0.0
  0
LWPOLYLINE
  5
1976
330
1F
100
AcDbEntity
  8
Hewi
370
     9
100
AcDbPolyline
 90
        3
 70
     0
 43
0.0
 10
1071.396536859626
 20
1387.661232149914
 10
1071.379758096557
 20
1394.210076460719
 10
1071.192602594396
 20
1402.147898587096
  0
LWPOLYLINE
  5
1977
330
1F
100
AcDbEntity
  8
Hewi
370
     9
100
AcDbPolyline
 90
        4
 70
     0
 43
0.0
 10
1042.382063374806
 20
1610.883042164653
 10
1042.698271477411
 20
1610.640120493661
 10
1043.059841292472
 20
1610.314379271938
 10
1043.299973283627
 20
1610.034740448646
  0
LINE
  5
1978
330
1F
100
AcDbEntity
  8
Hewi
370
     9
100
AcDbLine
 10
1045.006668025891
 20
1608.050979699015
 30
0.0
 11
1044.902890575849
 21
1608.146681361657
 31
0.0
  0
LINE
  5
1979
330
1F
100
AcDbEntity
  8
Hewi
370
     9
100
AcDbLine
 10
1029.516978316447
 20
1377.99051932576
 30
0.0
 11
1032.525915236385
 21
1378.356199665565
 31
0.0
  0
LINE
  5
197A
330
1F
100
AcDbEntity
  8
Hewi
370
     9
100
AcDbLine
 10
1045.006668025891
 20
1608.050979699015
 30
0.0
 11
1044.864399688051
 21
1608.199029482619
 31
0.0
  0
LWPOLYLINE
  5
197B
330
1F
100
AcDbEntity
  8
Hewi
370
     9
100
AcDbPolyline
 90
        3
 70
     1
 43
0.0
 10
1045.006668025891
 20
1608.050979699015
 10
1045.125423046111
 20
1607.844034221687
 10
1045.00737688085
 20
1608.049901627513
  0
LWPOLYLINE
  5
197C
330
1F
100
AcDbEntity
  8
Hewi
370
     9
100
AcDbPolyline
 90
        3
 70
     0
 43
0.0
 10
1068.530781648142
 20
1305.203507197462
 10
1068.694074178514
 20
1306.737737942761
 10
1069.03702689073
 20
1311.101346277373
  0
LWPOLYLINE
  5
197D
330
1F
100
AcDbEntity
  8
Hewi
370
     9
100
AcDbPolyline
 90
        3
 70
     0
 43
0.0
 10
1070.794774942652
 20
1339.902112874839
 10
1070.947333597291
 20
1343.009876077144
 10
1071.026806954758
 20
1346.821591417392
  0
LWPOLYLINE
  5
197E
330
1F
100
AcDbEntity
  8
Hewi
370
     9
100
AcDbPolyline
 90
        3
 70
     0
 43
0.0
 10
1067.280172939065
 20
1293.443650835104
 10
1067.264960417165
 20
1293.312220904945
 10
1067.225961711751
 20
1292.982364917874
  0
LWPOLYLINE
  5
197F
330
1F
100
AcDbEntity
  8
Hewi
370
     9
100
AcDbPolyline
 90
        3
 70
     0
 43
0.0
 10
1069.808384001166
 20
1320.915819807384
 10
1069.953195667805
 20
1322.758351949559
 10
1070.14636989216
 20
1326.693492486205
  0
LINE
  5
1980
330
1F
100
AcDbEntity
  8
Hewi
370
     9
100
AcDbLine
 10
1042.078033555016
 20
1393.948180127824
 30
0.0
 11
1041.733374165833
 21
1395.345869729094
 31
0.0
  0
LINE
  5
1981
330
1F
100
AcDbEntity
  8
Hewi
370
     9
100
AcDbLine
 10
1039.141981140092
 20
1399.585825644298
 30
0.0
 11
1038.23992070432
 21
1400.603820284197
 31
0.0
  0
LINE
  5
1982
330
1F
100
AcDbEntity
  8
Hewi
370
     9
100
AcDbLine
 10
1033.473218643916
 20
1378.689248998667
 30
0.0
 11
1035.366628159661
 21
1379.407558068716
 31
0.0
  0
LINE
  5
1983
330
1F
100
AcDbEntity
  8
Hewi
370
     9
100
AcDbLine
 10
1068.651672052476
 20
1306.385138230759
 30
0.0
 11
1068.546139816835
 21
1305.382432357707
 31
0.0
  0
LINE
  5
1984
330
1F
100
AcDbEntity
  8
Hewi
370
     9
100
AcDbLine
 10
1033.665776613981
 20
1403.218633079694
 30
0.0
 11
1032.674559713048
 21
1403.594429841387
 31
0.0
  0
LINE
  5
1985
330
1F
100
AcDbEntity
  8
Hewi
370
     9
100
AcDbLine
 10
1040.644335105217
 20
1384.424765548366
 30
0.0
 11
1041.437096670928
 21
1385.935642458171
 31
0.0
  0
LWPOLYLINE
  5
1986
330
1F
100
AcDbEntity
  8
Hewi
370
     9
100
AcDbPolyline
 90
        3
 70
     0
 43
0.0
 10
1070.829310023762
 20
1417.556218258274
 10
1070.656484357045
 20
1424.886269394587
 10
1070.273951277346
 20
1433.374551613569
  0
LINE
  5
1987
330
1F
100
AcDbEntity
  8
Hewi
370
     9
100
AcDbLine
 10
1036.381392128029
 20
1380.048569099245
 30
0.0
 11
1037.885443753452
 21
1381.086980481596
 31
0.0
  0
LINE
  5
1988
330
1F
100
AcDbEntity
  8
Hewi
370
     9
100
AcDbLine
 10
1045.686883819342
 20
1607.037973449409
 30
0.0
 11
1045.870517027299
 21
1606.725553977578
 31
0.0
  0
LWPOLYLINE
  5
1989
330
1F
100
AcDbEntity
  8
Hewi
370
     9
100
AcDbPolyline
 90
        4
 70
     0
 43
0.0
 10
1046.390873929969
 20
1605.915657453311
 10
1046.04845965121
 20
1606.525369549749
 10
1046.047767912287
 20
1606.526425281389
 10
1045.778814540945
 20
1606.88156956753
  0
LWPOLYLINE
  5
198A
330
1F
100
AcDbEntity
  8
Hewi
370
     9
100
AcDbPolyline
 90
        3
 70
     0
 43
0.0
 10
1045.006668025891
 20
1608.050979699015
 10
1045.486804790952
 20
1607.3783725802
 10
1045.562461437167
 20
1607.249656158408
  0
LWPOLYLINE
  5
198B
330
1F
100
AcDbEntity
  8
Hewi
370
     9
100
AcDbPolyline
 90
        8
 70
     0
 43
0.0
 10
1050.24734226949
 20
1596.983238922433
 10
1049.150691949336
 20
1600.362893114473
 10
1048.235129222694
 20
1602.29821686803
 10
1048.225199597782
 20
1602.341185458867
 10
1047.760375231282
 20
1603.401891783424
 10
1047.168298015506
 20
1604.529399867199
 10
1047.011276644807
 20
1604.810951652874
 10
1046.689150600801
 20
1605.451412174674
  0
LWPOLYLINE
  5
198C
330
1F
100
AcDbEntity
  8
Hewi
370
     9
100
AcDbPolyline
 90
        3
 70
     0
 43
0.0
 10
1067.369004853617
 20
1294.216147677276
 10
1067.432027642031
 20
1294.782558824349
 10
1068.409485185584
 20
1303.791228302848
  0
LWPOLYLINE
  5
198D
330
1F
100
AcDbEntity
  8
Hewi
370
     9
100
AcDbPolyline
 90
        3
 70
     0
 43
0.0
 10
1053.487637376342
 20
1587.466847104453
 10
1053.447905940529
 20
1587.629990312592
 10
1052.764639142459
 20
1589.564049969781
  0
LWPOLYLINE
  5
198E
330
1F
100
AcDbEntity
  8
Hewi
370
     9
100
AcDbPolyline
 90
        3
 70
     0
 43
0.0
 10
1041.394630609478
 20
1611.665348195074
 10
1041.134723349363
 20
1611.861592525322
 10
1041.020259473752
 20
1611.923983695264
  0
LWPOLYLINE
  5
198F
330
1F
100
AcDbEntity
  8
Hewi
370
     9
100
AcDbPolyline
 90
       12
 70
     0
 43
0.0
 10
1055.689359622845
 20
1254.720936205961
 10
1051.495649081355
 20
1255.396879642455
 10
1050.373812016188
 20
1255.646299540265
 10
1049.292190327507
 20
1256.0224935813
 10
1047.379447903061
 20
1257.06557155747
 10
1045.736940791057
 20
1258.48865882126
 10
1044.445579742536
 20
1260.234602953776
 10
1043.565593203825
 20
1262.219555514332
 10
1043.127622193972
 20
1264.351408566025
 10
1043.160415340187
 20
1266.538969346341
 10
1043.279381986331
 20
1267.708063141642
 10
1043.274971353215
 20
1267.70913264123
  0
LWPOLYLINE
  5
1990
330
1F
100
AcDbEntity
  8
Hewi
370
     9
100
AcDbPolyline
 90
        3
 70
     0
 43
0.0
 10
1050.464271110269
 20
1596.363737626089
 10
1050.301928181625
 20
1597.419878173502
 10
1049.490599140973
 20
1599.315367990784
  0
LWPOLYLINE
  5
1991
330
1F
100
AcDbEntity
  8
Hewi
370
     9
100
AcDbPolyline
 90
        3
 70
     0
 43
0.0
 10
1062.931655187696
 20
1534.6656999958
 10
1062.875711280534
 20
1535.895785683373
 10
1062.586736461738
 20
1537.697483102404
  0
LWPOLYLINE
  5
1992
330
1F
100
AcDbEntity
  8
Hewi
370
     9
100
AcDbPolyline
 90
        4
 70
     0
 43
0.0
 10
1063.001632751132
 20
1534.071113619523
 10
1062.805484953
 20
1535.737745108398
 10
1061.988212792529
 20
1543.059575310267
 10
1061.539351132921
 20
1546.098682554184
  0
LWPOLYLINE
  5
1993
330
1F
100
AcDbEntity
  8
Hewi
370
     9
100
AcDbPolyline
 90
        3
 70
     0
 43
0.0
 10
1050.385713154395
 20
1596.874805417779
 10
1051.243255282454
 20
1594.788367997491
 10
1051.421827982003
 20
1594.152620914197
  0
LWPOLYLINE
  5
1994
330
1F
100
AcDbEntity
  8
Hewi
370
     9
100
AcDbPolyline
 90
        3
 70
     0
 43
0.0
 10
1058.86661815238
 20
1563.373847324599
 10
1059.010579728036
 20
1562.824057658269
 10
1059.104332559798
 20
1562.078654679326
  0
LWPOLYLINE
  5
1995
330
1F
100
AcDbEntity
  8
Hewi
370
     9
100
AcDbPolyline
 90
        3
 70
     0
 43
0.0
 10
1059.954864190313
 20
1557.087557537409
 10
1060.055453388037
 20
1556.540661689678
 10
1060.260840967893
 20
1555.061515083337
  0
LWPOLYLINE
  5
1996
330
1F
100
AcDbEntity
  8
Hewi
370
     9
100
AcDbPolyline
 90
        3
 70
     0
 43
0.0
 10
1052.488871521473
 20
1590.549827149279
 10
1052.373583762621
 20
1591.330759365763
 10
1051.99394889355
 20
1592.319010306808
  0
LWPOLYLINE
  5
1997
330
1F
100
AcDbEntity
  8
Hewi
370
     9
100
AcDbPolyline
 90
        3
 70
     0
 43
0.0
 10
1056.726089883448
 20
1574.272177391196
 10
1056.87231535786
 20
1573.783592764967
 10
1057.115856046899
 20
1572.497479443522
  0
LWPOLYLINE
  5
1998
330
1F
100
AcDbEntity
  8
Hewi
370
     9
100
AcDbPolyline
 90
        4
 70
     0
 43
0.0
 10
1065.816731966185
 20
1505.474847327387
 10
1065.147767215845
 20
1513.442582909238
 10
1064.078648245198
 20
1524.686869380855
 10
1063.982646592269
 20
1525.137662411681
  0
LINE
  5
1999
330
1F
100
AcDbEntity
  8
Hewi
370
     9
100
AcDbLine
 10
1045.644455729598
 20
1607.138142823948
 30
0.0
 11
1045.719958126114
 21
1606.959887621696
 31
0.0
  0
LWPOLYLINE
  5
199A
330
1F
100
AcDbEntity
  8
Hewi
370
     9
100
AcDbPolyline
 90
        3
 70
     0
 43
0.0
 10
1054.475715722494
 20
1583.768471270206
 10
1054.647892012437
 20
1583.259106715454
 10
1054.684926307758
 20
1582.959894833336
  0
LINE
  5
199B
330
1F
100
AcDbEntity
  8
Hewi
370
     9
100
AcDbLine
 10
1066.67690699429
 20
1494.496566616184
 30
0.0
 11
1066.651229947686
 21
1495.127836515724
 31
0.0
  0
LWPOLYLINE
  5
199C
330
1F
100
AcDbEntity
  8
Hewi
370
     9
100
AcDbPolyline
 90
        3
 70
     0
 43
0.0
 10
1060.85091822592
 20
1551.154285355963
 10
1061.024453026327
 20
1550.252395462065
 10
1061.093403428142
 20
1549.548655953079
  0
LINE
  5
199D
330
1F
100
AcDbEntity
  8
Hewi
370
     9
100
AcDbLine
 10
1043.018109057472
 20
1267.749980237723
 30
0.0
 11
1043.213396478736
 21
1267.719735399494
 31
0.0
  0
LINE
  5
199E
330
1F
100
AcDbEntity
  8
Hewi
370
     9
100
AcDbLine
 10
1068.496908377593
 20
1469.22455951057
 30
0.0
 11
1069.937384502076
 21
1442.952033782597
 31
0.0
  0
LWPOLYLINE
  5
199F
330
1F
100
AcDbEntity
  8
Hewi
370
     9
100
AcDbPolyline
 90
        4
 70
     0
 43
0.0
 10
1066.042277827776
 20
1283.556461254384
 10
1065.400571391629
 20
1278.393447207167
 10
1063.762494657037
 20
1267.247679639631
 10
1062.554091995499
 20
1259.641687284524
  0
LINE
  5
19A0
330
1F
100
AcDbEntity
  8
Hewi
370
     9
100
AcDbLine
 10
1066.658406368186
 20
1494.752996600266
 30
0.0
 11
1068.475680789354
 21
1469.56448099971
 31
0.0
  0
LWPOLYLINE
  5
19A1
330
1F
100
AcDbEntity
  8
Hewi
370
     9
100
AcDbPolyline
 90
        3
 70
     0
 43
0.0
 10
1070.643469255155
 20
1335.389992548477
 10
1071.094372847732
 20
1348.836488956129
 10
1071.308081340887
 20
1356.598586951053
  0
LINE
  5
19A2
330
1F
100
AcDbEntity
  8
Hewi
370
     9
100
AcDbLine
 10
1043.453871226556
 20
1609.892513104834
 30
0.0
 11
1044.864399688051
 21
1608.199029482619
 31
0.0
  0
LWPOLYLINE
  5
19A3
330
1F
100
AcDbEntity
  8
Hewi
370
     9
100
AcDbPolyline
 90
        3
 70
     0
 43
0.0
 10
1039.069295836785
 20
1612.86450817173
 10
1039.82169100662
 20
1612.533399987178
 10
1040.193342233699
 20
1612.351555916535
  0
LINE
  5
19A4
330
1F
100
AcDbEntity
  8
Hewi
370
     9
100
AcDbLine
 10
1069.61818821938
 20
1317.87196987896
 30
0.0
 11
1068.409832194784
 21
1303.794426489012
 31
0.0
  0
LINE
  5
19A5
330
1F
100
AcDbEntity
  8
Hewi
370
     9
100
AcDbLine
 10
1044.38350319485
 20
1267.305758131082
 30
0.0
 11
1044.676321113847
 21
1266.996335350815
 31
0.0
  0
LINE
  5
19A6
330
1F
100
AcDbEntity
  8
Hewi
370
     9
100
AcDbLine
 10
1032.908477498027
 20
1581.064120408059
 30
0.0
 11
1033.311739019646
 21
1580.162121168931
 31
0.0
  0
LINE
  5
19A7
330
1F
100
AcDbEntity
  8
Hewi
370
     9
100
AcDbLine
 10
1044.091397985432
 20
1267.473116429462
 30
0.0
 11
1044.558223849353
 21
1267.205653954596
 31
0.0
  0
LWPOLYLINE
  5
19A8
330
1F
100
AcDbEntity
  8
Hewi
370
     9
100
AcDbPolyline
 90
       26
 70
     1
 43
0.0
 10
1094.336563565048
 20
1172.539692748378
 10
1094.56212105467
 20
1172.339866238968
 10
1094.733302642277
 20
1172.091866881415
 10
1094.840159876224
 20
1171.810107496939
 10
1094.87648260248
 20
1171.510962916813
 10
1094.840159876224
 20
1171.211818336687
 10
1094.733302642277
 20
1170.930058952212
 10
1094.56212105467
 20
1170.682059594659
 10
1094.336563565048
 20
1170.482233085249
 10
1094.069738754844
 20
1170.342192614368
 10
1093.777153512158
 20
1170.270076825159
 10
1093.475811827793
 20
1170.270076825159
 10
1093.183226585107
 20
1170.342192614368
 10
1092.916401774908
 20
1170.482233085249
 10
1092.690844285285
 20
1170.682059594659
 10
1092.519662697677
 20
1170.930058952212
 10
1092.412805463729
 20
1171.211818336687
 10
1092.376482737474
 20
1171.510962916813
 10
1092.412805463729
 20
1171.810107496939
 10
1092.519662697677
 20
1172.091866881415
 10
1092.690844285285
 20
1172.339866238968
 10
1092.916401774908
 20
1172.539692748378
 10
1093.183226585107
 20
1172.679733219258
 10
1093.475811827793
 20
1172.751849008468
 10
1093.777153512158
 20
1172.751849008468
 10
1094.069738754844
 20
1172.679733219258
  0
LWPOLYLINE
  5
19A9
330
1F
100
AcDbEntity
  8
Hewi
370
     9
100
AcDbPolyline
 90
       26
 70
     1
 43
0.0
 10
1080.412806111702
 20
1171.211818336687
 10
1080.376483385447
 20
1171.510962916813
 10
1080.412806111702
 20
1171.810107496939
 10
1080.519663345651
 20
1172.091866881415
 10
1080.69084493326
 20
1172.339866238968
 10
1080.916402422879
 20
1172.539692748378
 10
1081.183227233081
 20
1172.679733219258
 10
1081.475812475766
 20
1172.751849008468
 10
1081.777154160133
 20
1172.751849008468
 10
1082.069739402819
 20
1172.679733219258
 10
1082.33656421302
 20
1172.539692748378
 10
1082.562121702642
 20
1172.339866238968
 10
1082.733303290251
 20
1172.091866881415
 10
1082.840160524195
 20
1171.810107496939
 10
1082.876483250455
 20
1171.510962916813
 10
1082.840160524195
 20
1171.211818336687
 10
1082.733303290251
 20
1170.930058952212
 10
1082.562121702642
 20
1170.682059594659
 10
1082.33656421302
 20
1170.482233085249
 10
1082.069739402819
 20
1170.342192614368
 10
1081.777154160133
 20
1170.270076825159
 10
1081.475812475766
 20
1170.270076825159
 10
1081.183227233081
 20
1170.342192614368
 10
1080.916402422879
 20
1170.482233085249
 10
1080.69084493326
 20
1170.682059594659
 10
1080.519663345651
 20
1170.930058952212
  0
LWPOLYLINE
  5
19AA
330
1F
100
AcDbEntity
  8
Hewi
370
     9
100
AcDbPolyline
 90
       15
 70
     0
 43
0.0
 10
1008.928351419488
 20
1172.776354060468
 10
1007.128191198109
 20
1172.839217043952
 10
1005.624861659495
 20
1172.891714471034
 10
1004.493746024073
 20
1172.931213901509
 10
1003.791563152921
 20
1172.955734668999
 10
1003.55352342727
 20
1172.96404719983
 10
1003.728020901361
 20
1177.961001331027
 10
1003.966060627011
 20
1177.952688800195
 10
1004.668243498161
 20
1177.928168032705
 10
1005.799359133585
 20
1177.88866860223
 10
1007.302688672198
 20
1177.836171175148
 10
1009.102848893575
 20
1177.773308191664
 10
1011.109572247404
 20
1177.703231864262
 10
1013.222233245373
 20
1177.629456112611
 10
1043.104017359696
 20
1176.585961162022
  0
LINE
  5
19AB
330
1F
100
AcDbEntity
  8
Hewi
370
     9
100
AcDbLine
 10
1042.929519885605
 20
1171.589007030824
 30
0.0
 11
1013.047735771282
 21
1172.632501981415
 31
0.0
  0
LINE
  5
19AC
330
1F
100
AcDbEntity
  8
Hewi
370
     9
100
AcDbLine
 10
1043.104017359696
 20
1176.585961162022
 30
0.0
 11
1042.929519885605
 21
1171.589007030824
 31
0.0
  0
LWPOLYLINE
  5
19AD
330
1F
100
AcDbEntity
  8
Hewi
370
     9
100
AcDbPolyline
 90
       26
 70
     0
 43
0.0
 10
1107.164057839628
 20
1197.968276470897
 10
1112.327336349818
 20
1193.394010621686
 10
1116.846530262704
 20
1186.846827582292
 10
1119.667561238877
 20
1179.408379832141
 10
1120.626481212037
 20
1171.510962916813
 10
1119.667561238877
 20
1163.613546001486
 10
1116.846530262704
 20
1156.175098251334
 10
1112.327336349818
 20
1149.627915211941
 10
1106.372618623843
 20
1144.352495363512
 10
1099.328443634487
 20
1140.655426932269
 10
1091.6041932276
 20
1138.751570097137
 10
1083.648772760327
 20
1138.751570097137
 10
1075.92452235344
 20
1140.655426932269
 10
1068.880347364085
 20
1144.352495363512
 10
1062.925629638107
 20
1149.627915211941
 10
1058.406435725226
 20
1156.175098251334
 10
1055.585404749051
 20
1163.613546001486
 10
1054.62648477589
 20
1171.510962916813
 10
1055.585404749051
 20
1179.408379832141
 10
1058.406435725226
 20
1186.846827582292
 10
1062.925629638107
 20
1193.394010621686
 10
1068.880347364085
 20
1198.669430470114
 10
1075.92452235344
 20
1202.366498901358
 10
1083.648772760327
 20
1204.270355736489
 10
1091.604193227604
 20
1204.270355736489
 10
1098.635109350869
 20
1202.537390463045
  0
LWPOLYLINE
  5
19AF
330
1F
100
AcDbEntity
  8
Hewi
370
     9
100
AcDbPolyline
 90
       19
 70
     0
 43
0.0
 10
1118.52344675227
 20
1160.596763886074
 10
1117.534638351199
 20
1157.564560290251
 10
1077.898217221669
 20
1072.563976350227
 10
1076.715246951249
 20
1070.633544215884
 10
1075.12834341137
 20
1069.01869935583
 10
1073.218851071871
 20
1067.802218508358
 10
1071.084650262658
 20
1067.046458324086
 10
1068.83513984069
 20
1066.790158972139
 10
1013.015577554733
 20
1066.790158972139
 10
1010.901628796295
 20
1066.790158972139
 10
1008.893682255692
 20
1066.790158972139
 10
1007.092424756913
 20
1066.790158972139
 10
1005.588178872351
 20
1066.790158972139
 10
1004.456373771837
 20
1066.790158972139
 10
1003.753762889122
 20
1066.790158972139
 10
1003.515578067711
 20
1066.790158972139
 10
1003.515578067711
 20
1172.790158889434
 10
1003.735246561427
 20
1172.790158889434
 10
1004.384093253155
 20
1172.790158889434
  0
LWPOLYLINE
  5
19B0
330
1F
100
AcDbEntity
  8
Hewi
370
     9
100
AcDbPolyline
 90
        3
 70
     0
 43
0.0
 10
1082.812292827078
 20
1204.064181935922
 10
1081.954390819696
 20
1204.019844245504
 10
1078.976826947693
 20
1203.118824461391
  0
LWPOLYLINE
  5
19B1
330
1F
100
AcDbEntity
  8
Hewi
370
     9
100
AcDbPolyline
 90
        3
 70
     0
 43
0.0
 10
1120.530274775984
 20
1172.303294544637
 10
1120.588341295005
 20
1173.097083972267
 10
1120.054244396547
 20
1176.223757302134
  0
LWPOLYLINE
  5
19B2
330
1F
100
AcDbEntity
  8
Hewi
370
     9
100
AcDbPolyline
 90
        3
 70
     0
 43
0.0
 10
1119.381322768628
 20
1180.163128815407
 10
1119.245787920772
 20
1180.956567600181
 10
1117.980841400813
 20
1183.855894763594
  0
LWPOLYLINE
  5
19B3
330
1F
100
AcDbEntity
  8
Hewi
370
     9
100
AcDbPolyline
 90
        3
 70
     0
 43
0.0
 10
1098.509539565299
 20
1202.568340628905
 10
1097.746066936179
 20
1202.921056966934
 10
1094.674327912919
 20
1203.513635464694
  0
LWPOLYLINE
  5
19B4
330
1F
100
AcDbEntity
  8
Hewi
370
     9
100
AcDbPolyline
 90
        3
 70
     0
 43
0.0
 10
1119.762676433557
 20
1164.396890069855
 10
1120.006638504885
 20
1165.145005345901
 10
1120.238687255697
 20
1168.317192144628
  0
LWPOLYLINE
  5
19B5
330
1F
100
AcDbEntity
  8
Hewi
370
     9
100
AcDbPolyline
 90
        5
 70
     0
 43
0.0
 10
1008.515577797721
 20
1172.790463661584
 10
1009.946347237264
 20
1172.74080486128
 10
1011.459964864386
 20
1172.687948166211
 10
1013.015577554733
 20
1172.633624971142
 10
1042.929519885605
 20
1171.589007030824
  0
LWPOLYLINE
  5
19B6
330
1F
100
AcDbEntity
  8
Hewi
370
     9
100
AcDbPolyline
 90
        8
 70
     0
 43
0.0
 10
1062.420811107731
 20
1192.662654621564
 10
1061.789788241602
 20
1192.040578878267
 10
1052.512851531506
 20
1180.365474581305
 10
1050.92878674204
 20
1178.776511756989
 10
1049.030332718321
 20
1177.580712309932
 10
1046.913058858305
 20
1176.838273554267
 10
1044.683550091397
 20
1176.586570335002
 10
1043.104038632486
 20
1176.586570335002
  0
LWPOLYLINE
  5
19B7
330
1F
100
AcDbEntity
  8
Hewi
370
     9
100
AcDbPolyline
 90
        3
 70
     0
 43
0.0
 10
1001.67375756402
 20
1406.495155942282
 10
1002.874738011626
 20
1406.493839210919
 10
1003.515578116212
 20
1406.494103541198
  0
LWPOLYLINE
  5
19B8
330
1F
100
AcDbEntity
  8
Hewi
370
     9
100
AcDbPolyline
 90
        3
 70
     0
 43
0.0
 10
1008.524964193575
 20
1172.790158889434
 10
1008.533032861707
 20
1172.790158889434
 10
1008.515577797721
 20
1172.790463661584
  0
LWPOLYLINE
  5
19B9
330
1F
100
AcDbEntity
  8
Hewi
370
     9
100
AcDbPolyline
 90
        3
 70
     0
 43
0.0
 10
1003.515578067711
 20
1411.483728022999
 10
1002.874738011626
 20
1411.483491087986
 10
1001.673757861131
 20
1411.485241369445
  0
LWPOLYLINE
  5
19BA
330
1F
100
AcDbEntity
  8
Hewi
370
     9
100
AcDbPolyline
 90
        3
 70
     0
 43
0.0
 10
1090.751729967178
 20
1204.270355739561
 10
1089.917089702949
 20
1204.43136872608
 10
1086.801605576992
 20
1204.270355732186
  0
LINE
  5
19BB
330
1F
100
AcDbEntity
  8
Hewi
370
     9
100
AcDbLine
 10
1004.384093253155
 20
1172.790158889434
 30
0.0
 11
1008.515577797721
 21
1172.790463661584
 31
0.0
  0
LWPOLYLINE
  5
19BC
330
1F
100
AcDbEntity
  8
Hewi
370
     9
100
AcDbPolyline
 90
        3
 70
     0
 43
0.0
 10
1116.38284364691
 20
1187.518593717149
 10
1116.057354321509
 20
1188.264633196015
 10
1114.13923488124
 20
1190.769022272533
  0
LWPOLYLINE
  5
19BD
330
1F
100
AcDbEntity
  8
Hewi
370
     9
100
AcDbPolyline
 90
        3
 70
     0
 43
0.0
 10
1111.709583845682
 20
1193.941291624202
 10
1111.209175725153
 20
1194.594648555242
 10
1108.753182073044
 20
1196.56043517562
  0
LWPOLYLINE
  5
19BE
330
1F
100
AcDbEntity
  8
Hewi
370
     9
100
AcDbPolyline
 90
        3
 70
     0
 43
0.0
 10
1075.153676046017
 20
1201.961927498591
 10
1074.322818847779
 20
1201.710507611203
 10
1071.655789895571
 20
1200.126095151952
  0
LWPOLYLINE
  5
19BF
330
1F
100
AcDbEntity
  8
Hewi
370
     9
100
AcDbPolyline
 90
        4
 70
     0
 43
0.0
 10
1004.384093253155
 20
1172.790158889434
 10
1005.432111578027
 20
1172.790158889434
 10
1006.830834879363
 20
1172.790158889434
 10
1008.515577797721
 20
1172.790463661584
  0
LWPOLYLINE
  5
19C0
330
1F
100
AcDbEntity
  8
Hewi
370
     9
100
AcDbPolyline
 90
        3
 70
     0
 43
0.0
 10
1068.221946480119
 20
1198.086138185584
 10
1067.46789173332
 20
1197.638173893783
 10
1065.264955888118
 20
1195.466472950928
  0
LWPOLYLINE
  5
19C1
330
1F
100
AcDbEntity
  8
Hewi
370
     9
100
AcDbPolyline
 90
       21
 70
     0
 43
0.0
 10
1514.858807252312
 20
1206.909940978996
 10
1515.320807399033
 20
1206.658604447856
 10
1516.333291429369
 20
1206.105305169611
 10
1517.246825912582
 20
1205.348334594783
 10
1517.984563867166
 20
1204.460248925299
 10
1518.743734200432
 20
1202.95727586663
 10
1519.238583876683
 20
1201.282636273857
 10
1519.708958332923
 20
1197.696859780894
 10
1519.639758004559
 20
1194.391732161374
 10
1519.201447941999
 20
1191.900623559629
 10
1518.303993105515
 20
1189.423364547874
 10
1516.818111938893
 20
1186.987384018537
 10
1514.633303686309
 20
1184.643944490087
 10
1511.687690920607
 20
1182.485722777625
 10
1507.997862071568
 20
1180.664390663496
 10
1503.688713954179
 20
1179.408195567873
 10
1499.023294296923
 20
1179.039541219366
 10
1495.77758381226
 20
1179.656312304294
 10
1492.617924094487
 20
1180.732932839895
 10
1490.754941521196
 20
1181.540743187424
 10
1490.560606597051
 20
1181.654774130889
  0
LWPOLYLINE
  5
19C2
330
1F
100
AcDbEntity
  8
Hewi
370
     9
100
AcDbPolyline
 90
       13
 70
     0
 43
0.0
 10
1075.870779261449
 20
1237.388547381059
 10
1078.431797326433
 20
1240.088887279089
 10
1079.829947448708
 20
1241.343707597469
 10
1081.044971432928
 20
1242.136022990429
 10
1082.028644350359
 20
1242.526107495205
 10
1083.187579611256
 20
1242.707534122428
 10
1084.517749923882
 20
1242.588470191667
 10
1085.614996145696
 20
1242.241957417988
 10
1086.589423731203
 20
1241.71944752491
 10
1086.788829299587
 20
1241.602591360335
 10
1087.078191189402
 20
1241.404569369252
 10
1087.618248557226
 20
1241.02843233458
 10
1088.415734531446
 20
1240.472841176782
  0
LINE
  5
19C3
330
1F
100
AcDbEntity
  8
Hewi
370
     9
100
AcDbLine
 10
1043.104038632486
 20
1176.586570335002
 30
0.0
 11
1043.104017359696
 21
1176.585961162013
 31
0.0
  0
LWPOLYLINE
  5
19C4
330
1F
100
AcDbEntity
  8
Hewi
370
     9
100
AcDbPolyline
 90
       20
 70
     0
 43
0.0
 10
1244.799571236754
 20
1169.713275526621
 10
1225.889150962084
 20
1170.262977397008
 10
1209.071983908287
 20
1171.609314188661
 10
1191.16666548217
 20
1173.670080760532
 10
1178.212087117108
 20
1175.624164809948
 10
1166.515569209234
 20
1177.86625302969
 10
1155.188030497518
 20
1180.508995507183
 10
1144.02697083897
 20
1183.563752376749
 10
1130.123425161757
 20
1188.110279476644
 10
1118.78050802655
 20
1192.548953668981
 10
1109.388420678624
 20
1196.819628518872
 10
1101.557460926317
 20
1200.863490306855
 10
1095.620890984059
 20
1204.263911168803
 10
1090.621060893996
 20
1207.378894562733
 10
1086.532695883379
 20
1210.113780189939
 10
1085.552470856392
 20
1210.823648116189
 10
1084.610822675881
 20
1211.573117685346
 10
1083.18177167648
 20
1212.886238853568
 10
1082.220065048828
 20
1213.941182390903
 10
1081.420983173351
 20
1214.982861215828
  0
LWPOLYLINE
  5
19C5
330
1F
100
AcDbEntity
  8
Hewi
370
     9
100
AcDbPolyline
 90
        3
 70
     0
 43
0.0
 10
1297.571568842395
 20
1162.463846410673
 10
1296.693401799426
 20
1162.344217359383
 10
1290.130676251136
 20
1161.618136932534
  0
LWPOLYLINE
  5
19C6
330
1F
100
AcDbEntity
  8
Hewi
370
     9
100
AcDbPolyline
 90
        6
 70
     0
 43
0.0
 10
1293.865631721528
 20
1171.022926099144
 10
1293.994409553508
 20
1171.023548525971
 10
1313.251230009863
 20
1171.791415355136
 10
1331.39865944082
 20
1172.979271785242
 10
1368.774952098642
 20
1176.210124352804
 10
1404.12049997988
 20
1180.063640901198
  0
LINE
  5
19C7
330
1F
100
AcDbEntity
  8
Hewi
370
     9
100
AcDbLine
 10
1510.867460305493
 20
1208.917888294927
 30
0.0
 11
1513.195057117911
 21
1207.758613569301
 31
0.0
  0
LWPOLYLINE
  5
19C8
330
1F
100
AcDbEntity
  8
Hewi
370
     9
100
AcDbPolyline
 90
        5
 70
     0
 43
0.0
 10
1293.865631715404
 20
1171.022926098903
 10
1265.713105226421
 20
1169.915728359094
 10
1245.265121565693
 20
1169.699742570565
 10
1245.089948753249
 20
1169.701758552077
 10
1230.329089058168
 20
1170.287204868551
  0
LWPOLYLINE
  5
19C9
330
1F
100
AcDbEntity
  8
Hewi
370
     9
100
AcDbPolyline
 90
        5
 70
     0
 43
0.0
 10
1069.833175914159
 20
1217.955651135448
 10
1071.483123976543
 20
1228.661614945614
 10
1072.181958449466
 20
1231.531039469079
 10
1073.644186530782
 20
1234.44403498998
 10
1075.870779261449
 20
1237.388547381059
  0
LWPOLYLINE
  5
19CA
330
1F
100
AcDbEntity
  8
Hewi
370
     9
100
AcDbPolyline
 90
        3
 70
     0
 43
0.0
 10
1212.57793072855
 20
1153.254103391119
 10
1219.232928699832
 20
1154.341768321436
 10
1245.061678474096
 20
1158.526482195176
  0
LINE
  5
19CB
330
1F
100
AcDbEntity
  8
Hewi
370
     9
100
AcDbLine
 10
1008.515577797721
 20
1172.790463661584
 30
0.0
 11
1008.63991314922
 21
1172.786426547352
 31
0.0
  0
LWPOLYLINE
  5
19CC
330
1F
100
AcDbEntity
  8
Hewi
370
     9
100
AcDbPolyline
 90
        3
 70
     0
 43
0.0
 10
1344.552998138692
 20
1207.663731029074
 10
1332.919015631651
 20
1206.730906298362
 10
1331.543635348307
 20
1206.614441900577
  0
LWPOLYLINE
  5
19CD
330
1F
100
AcDbEntity
  8
Hewi
370
     9
100
AcDbPolyline
 90
        6
 70
     0
 43
0.0
 10
1186.852793464622
 20
1205.635951396814
 10
1193.460487719951
 20
1205.130627003753
 10
1205.022133224413
 20
1204.186992336654
 10
1216.612447637975
 20
1203.543793141984
 10
1220.908061913587
 20
1203.372444290101
 10
1228.221261109863
 20
1203.155744550173
  0
LWPOLYLINE
  5
19CE
330
1F
100
AcDbEntity
  8
Hewi
370
     9
100
AcDbPolyline
 90
        5
 70
     0
 43
0.0
 10
1239.842621224981
 20
1202.989549962314
 10
1245.656566174365
 20
1202.978925853019
 10
1248.539277469257
 20
1202.91965701372
 10
1251.472023603412
 20
1203.010499543477
 10
1263.105798024262
 20
1203.190170720235
  0
LWPOLYLINE
  5
19CF
330
1F
100
AcDbEntity
  8
Hewi
370
     9
100
AcDbPolyline
 90
        4
 70
     0
 43
0.0
 10
1274.743385063882
 20
1203.50826035923
 10
1282.494330516854
 20
1203.788011407382
 10
1286.985977693634
 20
1203.973155781985
 10
1298.020902680619
 20
1204.495400476197
  0
LWPOLYLINE
  5
19D0
330
1F
100
AcDbEntity
  8
Hewi
370
     9
100
AcDbPolyline
 90
        4
 70
     0
 43
0.0
 10
1109.904488246248
 20
1226.643077270391
 10
1104.996304466767
 20
1229.329026869668
 10
1095.89794162828
 20
1235.086065604316
 10
1092.731284189658
 20
1237.33956669177
  0
LWPOLYLINE
  5
19D1
330
1F
100
AcDbEntity
  8
Hewi
370
     9
100
AcDbPolyline
 90
       11
 70
     0
 43
0.0
 10
1486.67963023666
 20
1183.150956464503
 10
1484.533132154485
 20
1183.534807483266
 10
1483.573953296012
 20
1183.682996182913
 10
1479.724042788604
 20
1184.169021022418
 10
1478.398121139254
 20
1184.302980422242
 10
1477.161526192716
 20
1184.415038500168
 10
1474.725929024562
 20
1184.603219731819
 10
1471.819982305016
 20
1184.777892828435
 10
1468.754975845846
 20
1184.911238096415
 10
1464.599097161013
 20
1185.016935478603
 10
1461.883481710712
 20
1185.041863464182
  0
LWPOLYLINE
  5
19D2
330
1F
100
AcDbEntity
  8
Hewi
370
     9
100
AcDbPolyline
 90
        6
 70
     0
 43
0.0
 10
1192.052953715064
 20
1205.238268376379
 10
1176.975042157613
 20
1207.031840447179
 10
1160.565561496353
 20
1209.821194270735
 10
1145.029220732367
 20
1213.411884386241
 10
1134.028792412104
 20
1216.656721526978
 10
1123.768682708699
 20
1220.339871111795
  0
LINE
  5
19D3
330
1F
100
AcDbEntity
  8
Hewi
370
     9
100
AcDbLine
 10
1116.400699616408
 20
1223.473432921971
 30
0.0
 11
1109.904488246248
 21
1226.643077270391
 31
0.0
  0
LINE
  5
19D4
330
1F
100
AcDbEntity
  8
Hewi
370
     9
100
AcDbLine
 10
1090.750834313121
 20
1238.800875743539
 30
0.0
 11
1088.486768656485
 21
1240.419563902077
 31
0.0
  0
LINE
  5
19D5
330
1F
100
AcDbEntity
  8
Hewi
370
     9
100
AcDbLine
 10
1092.731284189658
 20
1237.33956669177
 30
0.0
 11
1090.750834313121
 21
1238.800875743539
 31
0.0
  0
LWPOLYLINE
  5
19D6
330
1F
100
AcDbEntity
  8
Hewi
370
     9
100
AcDbPolyline
 90
        3
 70
     0
 43
0.0
 10
1408.33697442023
 20
1214.329359240589
 10
1369.987421076626
 20
1210.036523675056
 10
1331.543635348307
 20
1206.614441900577
  0
LWPOLYLINE
  5
19D7
330
1F
100
AcDbEntity
  8
Hewi
370
     9
100
AcDbPolyline
 90
        6
 70
     0
 43
0.0
 10
1404.12049997988
 20
1180.063640901198
 10
1415.170527209961
 20
1181.445311991747
 10
1426.175561476413
 20
1182.740255607213
 10
1438.927772338875
 20
1183.986305232439
 10
1450.124665903644
 20
1184.742194766431
 10
1458.222994453839
 20
1185.008751844998
  0
LINE
  5
19D8
330
1F
100
AcDbEntity
  8
Hewi
370
     9
100
AcDbLine
 10
1123.768682708699
 20
1220.339871111795
 30
0.0
 11
1116.400699616408
 21
1223.473432921971
 31
0.0
  0
LWPOLYLINE
  5
19D9
330
1F
100
AcDbEntity
  8
Hewi
370
     9
100
AcDbPolyline
 90
       13
 70
     0
 43
0.0
 10
1510.867460305493
 20
1208.917888294927
 10
1509.888100928877
 20
1209.383076615356
 10
1508.217251635688
 20
1210.128797520917
 10
1505.087134806765
 20
1211.457672127037
 10
1500.450320671987
 20
1213.270583579689
 10
1494.242215970249
 20
1215.422673410745
 10
1486.818841075837
 20
1217.562229480832
 10
1478.053168374521
 20
1219.318139515152
 10
1468.744791653245
 20
1220.203749364899
 10
1457.578902314542
 20
1220.071159431662
 10
1444.031552185193
 20
1218.82509359817
 10
1428.137514365428
 20
1216.834387422206
 10
1408.33697442023
 20
1214.329359240589
  0
LINE
  5
19DA
330
1F
100
AcDbEntity
  8
Hewi
370
     9
100
AcDbLine
 10
1455.976474710694
 20
1184.988430524741
 30
0.0
 11
1461.934855978737
 21
1185.042328178711
 31
0.0
  0
LINE
  5
19DB
330
1F
100
AcDbEntity
  8
Hewi
370
     9
100
AcDbLine
 10
1514.858807252312
 20
1206.909940978996
 30
0.0
 11
1513.644398515761
 21
1207.530702077372
 31
0.0
  0
LINE
  5
19DC
330
1F
100
AcDbEntity
  8
Hewi
370
     9
100
AcDbLine
 10
1513.644398515761
 20
1207.530702077372
 30
0.0
 11
1510.867460305493
 21
1208.917888294927
 31
0.0
  0
LWPOLYLINE
  5
19DD
330
1F
100
AcDbEntity
  8
Hewi
370
     9
100
AcDbPolyline
 90
        3
 70
     0
 43
0.0
 10
1492.302888188878
 20
1180.89224596787
 10
1491.35716100189
 20
1181.320069672689
 10
1488.247230835581
 20
1182.62683225461
  0
LWPOLYLINE
  5
19DE
330
1F
100
AcDbEntity
  8
Hewi
370
     9
100
AcDbPolyline
 90
       25
 70
     0
 43
0.0
 10
1029.516978316447
 20
1377.99051932576
 10
1032.421299913117
 20
1378.319419419964
 10
1035.178731867707
 20
1379.288866838855
 10
1037.649880935191
 20
1380.84985425962
 10
1039.709825995796
 20
1382.923470903822
 10
1041.254433046833
 20
1385.404891645133
 10
1042.205619367614
 20
1388.168676111824
 10
1042.515300744253
 20
1391.075109927726
 10
1042.48051744139
 20
1391.944611752441
 10
1041.843180067242
 20
1395.117282872529
 10
1040.441965955976
 20
1398.034240159389
 10
1038.363700975387
 20
1400.514735113771
 10
1035.737164274207
 20
1402.405064511273
 10
1032.725108515677
 20
1403.588094582667
 10
1029.514174951095
 20
1403.990519177415
 10
1003.515578067711
 20
1403.987715903015
 10
1003.515578067711
 20
1579.790158571882
 10
1003.515578067711
 20
1581.125284174578
 10
1003.515578067711
 20
1582.393461004555
 10
1003.515578067711
 20
1583.531097380115
 10
1003.515578067712
 20
1584.48114746303
 10
1003.515578067712
 20
1585.195971775079
 10
1003.515578067712
 20
1585.639726040408
 10
1003.515578067712
 20
1585.7901585672
 10
1020.879222669027
 20
1585.7901585672
  0
LINE
  5
19DF
330
1F
100
AcDbEntity
  8
Hewi
370
     9
100
AcDbLine
 10
1001.673742603905
 20
1146.813900816827
 30
0.0
 11
1003.515578096578
 21
1146.808989530796
 31
0.0
  0
LINE
  5
19E0
330
1F
100
AcDbEntity
  8
Hewi
370
     9
100
AcDbLine
 10
1003.515577938839
 20
1156.774226193055
 30
0.0
 11
1001.673743056124
 21
1156.770861531251
 31
0.0
  0
LWPOLYLINE
  5
19E1
330
1F
100
AcDbEntity
  8
Hewi
370
     9
100
AcDbPolyline
 90
        3
 70
     0
 43
0.0
 10
1003.515578067711
 20
1371.483728054208
 10
1002.874738011626
 20
1371.483491119194
 10
1001.67375560307
 20
1371.485241403944
  0
LWPOLYLINE
  5
19E2
330
1F
100
AcDbEntity
  8
Hewi
370
     9
100
AcDbPolyline
 90
        3
 70
     0
 43
0.0
 10
1001.673755305958
 20
1366.495155975967
 10
1002.874738011626
 20
1366.493839242127
 10
1003.515578116212
 20
1366.494103572406
  0
LWPOLYLINE
  5
19E3
330
1F
100
AcDbEntity
  8
Hewi
370
     9
100
AcDbPolyline
 90
       10
 70
     0
 43
0.0
 10
1062.553152763277
 20
1259.636154482535
 10
1062.241523691195
 20
1258.503425614283
 10
1061.717928681966
 20
1257.45733224481
 10
1061.034305080805
 20
1256.579412798754
 10
1060.843861547493
 20
1256.365316629378
 10
1060.410218744257
 20
1255.997779530132
 10
1059.741755506486
 20
1255.508144202159
 10
1058.469190373425
 20
1254.933680201162
 10
1057.095431176214
 20
1254.66466256608
 10
1055.689359622845
 20
1254.720936205961
  0
LINE
  5
19E4
330
1F
100
AcDbEntity
  8
Hewi
370
     9
100
AcDbLine
 10
1062.554091995499
 20
1259.641687284524
 30
0.0
 11
1062.553152763277
 21
1259.636154482535
 31
0.0
  0
LWPOLYLINE
  5
19E5
330
1F
100
AcDbEntity
  8
Hewi
370
     9
100
AcDbPolyline
 90
        3
 70
     0
 43
0.0
 10
1067.225961711751
 20
1292.982364917874
 10
1067.297984494541
 20
1293.595210209336
 10
1067.369004853617
 20
1294.216147677276
  0
LWPOLYLINE
  5
19E6
330
1F
100
AcDbEntity
  8
Hewi
370
     9
100
AcDbPolyline
 90
        4
 70
     0
 43
0.0
 10
1065.606307904822
 20
1280.09868468896
 10
1067.094345896004
 20
1291.900652252925
 10
1067.162391623773
 20
1292.45406365162
 10
1067.225961711751
 20
1292.982364917874
  0
LWPOLYLINE
  5
19E7
330
1F
100
AcDbEntity
  8
Hewi
370
     9
100
AcDbPolyline
 90
        5
 70
     0
 43
0.0
 10
1081.482925636117
 20
1214.902113355258
 10
1080.776284467253
 20
1215.530776026008
 10
1079.337520124674
 20
1216.810771387973
 10
1078.730056325639
 20
1217.351200996037
 10
1078.193982799936
 20
1217.828118313328
  0
LWPOLYLINE
  5
19E8
330
1F
100
AcDbEntity
  8
Hewi
370
     9
100
AcDbPolyline
 90
        5
 70
     0
 43
0.0
 10
1212.57793072855
 20
1153.254103391119
 10
1186.149293608526
 20
1149.0750531484
 10
1159.647084437003
 20
1145.30616977172
 10
1119.732151780497
 20
1140.817249914254
 10
1109.373512734882
 20
1140.062969306911
  0
LWPOLYLINE
  5
19E9
330
1F
100
AcDbEntity
  8
Hewi
370
     9
100
AcDbPolyline
 90
       10
 70
     0
 43
0.0
 10
1250.231247274078
 20
1159.362264869599
 10
1261.993787528
 20
1159.69275554169
 10
1268.877346935498
 20
1160.053524299511
 10
1272.682201334546
 20
1160.293131617277
 10
1276.355753590626
 20
1160.542127522271
 10
1280.905574208103
 20
1160.872595846371
 10
1284.763202380682
 20
1161.173063168744
 10
1287.674435867249
 20
1161.41150251786
 10
1289.500525787975
 20
1161.565866848045
 10
1290.130676251136
 20
1161.618136932534
  0
LWPOLYLINE
  5
19EA
330
1F
100
AcDbEntity
  8
Hewi
370
     9
100
AcDbPolyline
 90
        8
 70
     0
 43
0.0
 10
1290.130676251136
 20
1161.618136932534
 10
1300.577808187039
 20
1162.80552653539
 10
1319.023809779291
 20
1165.40429007024
 10
1321.034063349118
 20
1165.721930023794
 10
1327.421045622394
 20
1166.79363146302
 10
1336.467616426222
 20
1168.3993201123
 10
1357.992926860617
 20
1172.659895962632
 10
1380.444625257138
 20
1177.48239998621
  0
LWPOLYLINE
  5
19EB
330
1F
100
AcDbEntity
  8
Hewi
370
     9
100
AcDbPolyline
 90
        5
 70
     0
 43
0.0
 10
1078.193982799936
 20
1217.828118313328
 10
1077.569924645764
 20
1218.383311074119
 10
1077.381622588977
 20
1218.550839184673
 10
1077.219214164599
 20
1218.714961151256
 10
1077.062375329792
 20
1218.919279377423
  0
LWPOLYLINE
  5
19EC
330
1F
100
AcDbEntity
  8
Hewi
370
     9
100
AcDbPolyline
 90
        3
 70
     0
 43
0.0
 10
1227.058172347948
 20
1155.615790947672
 10
1219.229005021865
 20
1154.344545166938
 10
1212.57793072855
 20
1153.254103391119
  0
LINE
  5
19ED
330
1F
100
AcDbEntity
  8
Hewi
370
     9
100
AcDbLine
 10
1090.48897544246
 20
1238.99192302339
 30
0.0
 11
1090.683830017654
 21
1238.848780299282
 31
0.0
  0
LINE
  5
19EE
330
1F
100
AcDbEntity
  8
Hewi
370
     9
100
AcDbLine
 10
1116.095706662187
 20
1223.622245689018
 30
0.0
 11
1123.768682708699
 21
1220.339871111795
 31
0.0
  0
LINE
  5
19EF
330
1F
100
AcDbEntity
  8
Hewi
370
     9
100
AcDbLine
 10
1326.421804680032
 20
1206.304813289684
 30
0.0
 11
1349.855827333558
 21
1208.244505568176
 31
0.0
  0
LWPOLYLINE
  5
19F0
330
1F
100
AcDbEntity
  8
Hewi
370
     9
100
AcDbPolyline
 90
        3
 70
     0
 43
0.0
 10
1091.155760218751
 20
1238.502094189885
 10
1091.556547329054
 20
1238.207670727166
 10
1092.970881701151
 20
1237.169060957724
  0
LWPOLYLINE
  5
19F1
330
1F
100
AcDbEntity
  8
Hewi
370
     9
100
AcDbPolyline
 90
        3
 70
     1
 43
0.0
 10
1081.420983173724
 20
1214.982861215191
 10
1081.40800044076
 20
1214.997916906108
 10
1081.343645283395
 20
1215.083678472236
  0
LINE
  5
19F2
330
1F
100
AcDbEntity
  8
Hewi
370
     9
100
AcDbLine
 10
1039.675591842546
 20
1176.705684321976
 30
0.0
 11
1067.437236573532
 21
1212.264609914058
 31
0.0
  0
LINE
  5
19F3
330
1F
100
AcDbEntity
  8
Hewi
370
     9
100
AcDbLine
 10
1283.251677339151
 20
1203.825382090686
 30
0.0
 11
1301.584641751951
 21
1204.80333916957
 31
0.0
  0
LINE
  5
19F4
330
1F
100
AcDbEntity
  8
Hewi
370
     9
100
AcDbLine
 10
1243.744262768128
 20
1202.985235997561
 30
0.0
 11
1265.746777097784
 21
1203.368639625561
 31
0.0
  0
LINE
  5
19F5
330
1F
100
AcDbEntity
  8
Hewi
370
     9
100
AcDbLine
 10
1089.704403729495
 20
1239.549018709055
 30
0.0
 11
1090.48897544246
 21
1238.99192302339
 31
0.0
  0
LINE
  5
19F6
330
1F
100
AcDbEntity
  8
Hewi
370
     9
100
AcDbLine
 10
1095.877875346296
 20
1235.100345452751
 30
0.0
 11
1095.918976783123
 21
1235.072755495321
 31
0.0
  0
LINE
  5
19F7
330
1F
100
AcDbEntity
  8
Hewi
370
     9
100
AcDbLine
 10
1172.149170105194
 20
1207.852162856938
 30
0.0
 11
1192.379477141561
 21
1205.213297475929
 31
0.0
  0
LINE
  5
19F8
330
1F
100
AcDbEntity
  8
Hewi
370
     9
100
AcDbLine
 10
1157.038512662256
 20
1210.636350143603
 30
0.0
 11
1164.974672730645
 21
1209.071714641253
 31
0.0
  0
LINE
  5
19F9
330
1F
100
AcDbEntity
  8
Hewi
370
     9
100
AcDbLine
 10
1365.819659207443
 20
1209.665529465136
 30
0.0
 11
1408.33697442023
 21
1214.329359240589
 31
0.0
  0
LINE
  5
19FA
330
1F
100
AcDbEntity
  8
Hewi
370
     9
100
AcDbLine
 10
1141.357884538702
 20
1214.494832040566
 30
0.0
 11
1149.1203084217
 21
1212.46637034921
 31
0.0
  0
LINE
  5
19FB
330
1F
100
AcDbEntity
  8
Hewi
370
     9
100
AcDbLine
 10
1104.509766256806
 20
1229.63688657614
 30
0.0
 11
1107.410567829427
 21
1228.007847793458
 31
0.0
  0
LINE
  5
19FC
330
1F
100
AcDbEntity
  8
Hewi
370
     9
100
AcDbLine
 10
1109.335644500135
 20
1226.954370754986
 30
0.0
 11
1113.7033726524
 21
1224.789518048049
 31
0.0
  0
LINE
  5
19FD
330
1F
100
AcDbEntity
  8
Hewi
370
     9
100
AcDbLine
 10
1223.08546173879
 20
1203.316559582658
 30
0.0
 11
1219.474495825546
 21
1203.429628174066
 31
0.0
  0
LINE
  5
19FE
330
1F
100
AcDbEntity
  8
Hewi
370
     9
100
AcDbLine
 10
1132.953991781269
 20
1217.042550878847
 30
0.0
 11
1135.699672754528
 21
1216.163855752088
 31
0.0
  0
LINE
  5
19FF
330
1F
100
AcDbEntity
  8
Hewi
370
     9
100
AcDbLine
 10
1486.942983706491
 20
1183.063864791815
 30
0.0
 11
1486.480309820275
 21
1183.18660025855
 31
0.0
  0
LWPOLYLINE
  5
1A00
330
1F
100
AcDbEntity
  8
Hewi
370
     9
100
AcDbPolyline
 90
        3
 70
     0
 43
0.0
 10
1080.968263033657
 20
1215.441842264627
 10
1081.38723668799
 20
1215.001934365896
 10
1081.477553462282
 20
1214.909116492054
  0
LINE
  5
1A01
330
1F
100
AcDbEntity
  8
Hewi
370
     9
100
AcDbLine
 10
1069.833175914159
 20
1217.955651135448
 30
0.0
 11
1067.437236573532
 21
1212.264609914058
 31
0.0
  0
LINE
  5
1A02
330
1F
100
AcDbEntity
  8
Hewi
370
     9
100
AcDbLine
 10
1245.187801993572
 20
1158.54687303608
 30
0.0
 11
1250.263062052984
 21
1159.362826867707
 31
0.0
  0
LINE
  5
1A03
330
1F
100
AcDbEntity
  8
Hewi
370
     9
100
AcDbLine
 10
1221.61106954916
 20
1203.351613247354
 30
0.0
 11
1227.916240644738
 21
1203.201707845786
 31
0.0
  0
LINE
  5
1A04
330
1F
100
AcDbEntity
  8
Hewi
370
     9
100
AcDbLine
 10
1090.229094831586
 20
1239.173892099773
 30
0.0
 11
1090.48897544246
 21
1238.99192302339
 31
0.0
  0
LWPOLYLINE
  5
1A05
330
1F
100
AcDbEntity
  8
Hewi
370
     9
100
AcDbPolyline
 90
        3
 70
     0
 43
0.0
 10
1472.324868491212
 20
1219.863136660121
 10
1475.365816876123
 20
1219.680896682042
 10
1476.752167131484
 20
1219.441918295029
  0
LWPOLYLINE
  5
1A06
330
1F
100
AcDbEntity
  8
Hewi
370
     9
100
AcDbPolyline
 90
        3
 70
     0
 43
0.0
 10
1481.650074713961
 20
1218.597619353057
 10
1484.554618897202
 20
1218.096935430479
 10
1485.845192429739
 20
1217.757267499664
  0
LINE
  5
1A07
330
1F
100
AcDbEntity
  8
Hewi
370
     9
100
AcDbLine
 10
1430.942633814424
 20
1183.206057871833
 30
0.0
 11
1422.994761039856
 21
1182.365976242328
 31
0.0
  0
LINE
  5
1A08
330
1F
100
AcDbEntity
  8
Hewi
370
     9
100
AcDbLine
 10
1418.324310464265
 20
1181.816412289144
 30
0.0
 11
1404.12049997988
 21
1180.063640901198
 31
0.0
  0
LINE
  5
1A09
330
1F
100
AcDbEntity
  8
Hewi
370
     9
100
AcDbLine
 10
1453.422048590798
 20
1184.850728359434
 30
0.0
 11
1448.693272162995
 21
1184.645563000012
 31
0.0
  0
LINE
  5
1A0A
330
1F
100
AcDbEntity
  8
Hewi
370
     9
100
AcDbLine
 10
1443.181414747378
 20
1184.273463787705
 30
0.0
 11
1437.077657810036
 21
1183.805526024577
 31
0.0
  0
LWPOLYLINE
  5
1A0B
330
1F
100
AcDbEntity
  8
Hewi
370
     9
100
AcDbPolyline
 90
        3
 70
     0
 43
0.0
 10
1461.194521188619
 20
1220.11409327631
 10
1465.310535427493
 20
1220.283496278886
 10
1466.98911155685
 20
1220.182901451781
  0
LWPOLYLINE
  5
1A0C
330
1F
100
AcDbEntity
  8
Hewi
370
     9
100
AcDbPolyline
 90
        3
 70
     0
 43
0.0
 10
1496.246564641326
 20
1214.72784969181
 10
1498.007829351799
 20
1214.149806204014
 10
1499.373326535824
 20
1213.643932328349
  0
LWPOLYLINE
  5
1A0D
330
1F
100
AcDbEntity
  8
Hewi
370
     9
100
AcDbPolyline
 90
        3
 70
     0
 43
0.0
 10
1506.24684368636
 20
1210.965323831865
 10
1506.723705679887
 20
1210.76954537566
 10
1507.51785554814
 20
1210.425722444714
  0
LWPOLYLINE
  5
1A0E
330
1F
100
AcDbEntity
  8
Hewi
370
     9
100
AcDbPolyline
 90
        3
 70
     0
 43
0.0
 10
1508.656729035772
 20
1209.93265326955
 10
1509.081310883475
 20
1209.748832833207
 10
1509.381565740949
 20
1209.609149595717
  0
LWPOLYLINE
  5
1A0F
330
1F
100
AcDbEntity
  8
Hewi
370
     9
100
AcDbPolyline
 90
        3
 70
     0
 43
0.0
 10
1430.135194217048
 20
1217.084594050655
 10
1440.27054790584
 20
1218.375734259268
 10
1441.395346783178
 20
1218.49491253064
  0
LWPOLYLINE
  5
1A10
330
1F
100
AcDbEntity
  8
Hewi
370
     9
100
AcDbPolyline
 90
        3
 70
     0
 43
0.0
 10
1501.700414838679
 20
1212.78181910501
 10
1502.949379448078
 20
1212.319116893011
 10
1504.258312746229
 20
1211.781726738489
  0
LWPOLYLINE
  5
1A11
330
1F
100
AcDbEntity
  8
Hewi
370
     9
100
AcDbPolyline
 90
        3
 70
     0
 43
0.0
 10
1489.264887243995
 20
1216.857233032585
 10
1491.75677563582
 20
1216.201389291384
 10
1493.316719941832
 20
1215.689418749957
  0
LWPOLYLINE
  5
1A12
330
1F
100
AcDbEntity
  8
Hewi
370
     9
100
AcDbPolyline
 90
        3
 70
     0
 43
0.0
 10
1447.670589819473
 20
1219.15980705763
 10
1453.807820636332
 20
1219.810078474594
 10
1455.495643696538
 20
1219.87954429216
  0
LWPOLYLINE
  5
1A13
330
1F
100
AcDbEntity
  8
Hewi
370
     9
100
AcDbPolyline
 90
        3
 70
     0
 43
0.0
 10
1259.131900757757
 20
1159.612345456897
 10
1254.917852712044
 20
1159.421574423367
 10
1250.241606825815
 20
1159.362555940922
  0
LINE
  5
1A14
330
1F
100
AcDbEntity
  8
Hewi
370
     9
100
AcDbLine
 10
1513.195057117911
 20
1207.758613569301
 30
0.0
 11
1513.549113025647
 21
1207.578300802575
 31
0.0
  0
LINE
  5
1A15
330
1F
100
AcDbEntity
  8
Hewi
370
     9
100
AcDbLine
 10
1514.725153394339
 20
1206.979369707152
 30
0.0
 11
1514.765736460837
 21
1206.957515345818
 31
0.0
  0
LINE
  5
1A16
330
1F
100
AcDbEntity
  8
Hewi
370
     9
100
AcDbLine
 10
1514.136582812893
 20
1207.279115559815
 30
0.0
 11
1514.725153394339
 21
1206.979369707152
 31
0.0
  0
LWPOLYLINE
  5
1A17
330
1F
100
AcDbEntity
  8
Hewi
370
     9
100
AcDbPolyline
 90
        3
 70
     0
 43
0.0
 10
1274.856900135995
 20
1160.440534201683
 10
1274.020113242719
 20
1160.381915925584
 10
1273.536042840513
 20
1160.351005583364
  0
LWPOLYLINE
  5
1A18
330
1F
100
AcDbEntity
  8
Hewi
370
     9
100
AcDbPolyline
 90
        3
 70
     0
 43
0.0
 10
1287.197686898851
 20
1161.372455249981
 10
1286.501883820504
 20
1161.314334618895
 10
1285.779298518294
 20
1161.256284697634
  0
LWPOLYLINE
  5
1A19
330
1F
100
AcDbEntity
  8
Hewi
370
     9
100
AcDbPolyline
 90
        3
 70
     0
 43
0.0
 10
1284.112689016721
 20
1161.122395245354
 10
1283.102250118807
 20
1161.041220194764
 10
1282.075527712817
 20
1160.963722513041
  0
LWPOLYLINE
  5
1A1A
330
1F
100
AcDbEntity
  8
Hewi
370
     9
100
AcDbPolyline
 90
        3
 70
     0
 43
0.0
 10
1289.49201876263
 20
1161.565147726141
 10
1288.843603904452
 20
1161.509939170445
 10
1288.448271384694
 20
1161.476916931463
  0
LWPOLYLINE
  5
1A1B
330
1F
100
AcDbEntity
  8
Hewi
370
     9
100
AcDbPolyline
 90
        3
 70
     0
 43
0.0
 10
1279.915964410406
 20
1160.80071725622
 10
1278.849953438261
 20
1160.720254047712
 10
1277.674210668543
 20
1160.637891363916
  0
LINE
  5
1A1C
330
1F
100
AcDbEntity
  8
Hewi
370
     9
100
AcDbLine
 10
1087.854181959466
 20
1240.112427506736
 30
0.0
 11
1087.854508069888
 21
1240.112179431658
 31
0.0
  0
LINE
  5
1A1D
330
1F
100
AcDbEntity
  8
Hewi
370
     9
100
AcDbLine
 10
1218.044939240333
 20
1203.486652120353
 30
0.0
 11
1197.28137789973
 21
1204.818774806443
 31
0.0
  0
LWPOLYLINE
  5
1A1E
330
1F
100
AcDbEntity
  8
Hewi
370
     9
100
AcDbPolyline
 90
        3
 70
     0
 43
0.0
 10
1315.140224140661
 20
1164.857151400435
 10
1317.961255761807
 20
1165.24144882904
 10
1318.810279223437
 20
1165.374206834748
  0
LINE
  5
1A1F
330
1F
100
AcDbEntity
  8
Hewi
370
     9
100
AcDbLine
 10
1331.543635348307
 20
1206.614441900577
 30
0.0
 11
1290.973850148637
 21
1204.161887932667
 31
0.0
  0
LINE
  5
1A20
330
1F
100
AcDbEntity
  8
Hewi
370
     9
100
AcDbLine
 10
1072.97523828002
 20
1208.560499338215
 30
0.0
 11
1052.096519328018
 21
1179.947854972005
 31
0.0
  0
LINE
  5
1A21
330
1F
100
AcDbEntity
  8
Hewi
370
     9
100
AcDbLine
 10
1243.981892107942
 20
1202.981986065702
 30
0.0
 11
1225.601884793788
 21
1203.233360119126
 31
0.0
  0
LINE
  5
1A22
330
1F
100
AcDbEntity
  8
Hewi
370
     9
100
AcDbLine
 10
1283.658426369842
 20
1203.835995095844
 30
0.0
 11
1252.816885560625
 21
1203.031269490595
 31
0.0
  0
LINE
  5
1A23
330
1F
100
AcDbEntity
  8
Hewi
370
     9
100
AcDbLine
 10
1174.778621027708
 20
1176.282320829797
 30
0.0
 11
1175.094121427491
 21
1176.190408816238
 31
0.0
  0
LINE
  5
1A24
330
1F
100
AcDbEntity
  8
Hewi
370
     9
100
AcDbLine
 10
1486.722602387026
 20
1183.137711078333
 30
0.0
 11
1488.501713096404
 21
1182.541559281821
 31
0.0
  0
LINE
  5
1A25
330
1F
100
AcDbEntity
  8
Hewi
370
     9
100
AcDbLine
 10
1487.82974542681
 20
1182.907157402712
 30
0.0
 11
1486.533557609064
 21
1183.177078140429
 31
0.0
  0
LINE
  5
1A26
330
1F
100
AcDbEntity
  8
Hewi
370
     9
100
AcDbLine
 10
1088.570533924301
 20
1240.359676130494
 30
0.0
 11
1088.415734531446
 21
1240.472841176782
 31
0.0
  0
LINE
  5
1A27
330
1F
100
AcDbEntity
  8
Hewi
370
     9
100
AcDbLine
 10
1250.231247205671
 20
1159.362264867677
 30
0.0
 11
1227.058173611778
 21
1155.615791152
 31
0.0
  0
LINE
  5
1A28
330
1F
100
AcDbEntity
  8
Hewi
370
     9
100
AcDbLine
 10
1514.725153394339
 20
1206.979369707152
 30
0.0
 11
1514.71654125985
 21
1206.982662123932
 31
0.0
  0
LINE
  5
1A29
330
1F
100
AcDbEntity
  8
Hewi
370
     9
100
AcDbLine
 10
1513.168693009777
 20
1207.768335074507
 30
0.0
 11
1513.195057117911
 21
1207.758613569301
 31
0.0
  0
LINE
  5
1A2A
330
1F
100
AcDbEntity
  8
Hewi
100
AcDbLine
 10
1020.879222669027
 20
1585.7901585672
 30
0.0
 11
1042.48051744139
 21
1391.944611752441
 31
0.0
  0
ARC
  5
1A2B
330
1F
100
AcDbEntity
  8
Hewi
100
AcDbCircle
 10
-610.8992974692362
 20
1389.446147616721
 30
0.0
 40
1659.964560820817
100
AcDbArc
 50
355.7768917126177
 51
2.903381097964494
  0
LWPOLYLINE
  5
1A2C
330
1F
100
AcDbEntity
  8
Hewi
370
     9
100
AcDbPolyline
 90
        3
 70
     0
 43
0.0
 10
1316.515576541161
 20
1169.138157571646
 10
1270.953728408287
 20
1162.689281692643
 10
1245.153006195589
 20
1158.541278051182
  0
LINE
  5
1F32
330
1F
100
AcDbEntity
  8
Hewi
  6
CUSTOM
 62
    18
420
        0
370
     9
100
AcDbLine
 10
222.569817877026
 20
630.1195029549445
 30
0.0
 11
222.5697424481302
 21
630.1194875598768
 31
0.0
  0
LINE
  5
1F33
330
1F
100
AcDbEntity
  8
Hewi
  6
CUSTOM
 62
    18
420
        0
370
     9
100
AcDbLine
 10
222.5948479165079
 20
613.7718105282548
 30
0.0
 11
222.7240329494295
 21
613.7588517201867
 31
0.0
  0
LINE
  5
1F34
330
1F
100
AcDbEntity
  8
Hewi
  6
CUSTOM
 62
    18
420
        0
370
     9
100
AcDbLine
 10
222.4845879345273
 20
613.7867361049485
 30
0.0
 11
222.5118922242371
 21
613.7828451614733
 31
0.0
  0
LINE
  5
1F35
330
1F
100
AcDbEntity
  8
Hewi
  6
CUSTOM
 62
    18
420
        0
370
     9
100
AcDbLine
 10
222.2669244492633
 20
613.8293875680503
 30
0.0
 11
222.2489685898915
 21
613.8337976432514
 31
0.0
  0
LINE
  5
1F36
330
1F
100
AcDbEntity
  8
Hewi
  6
CUSTOM
 62
    18
420
        0
370
     9
100
AcDbLine
 10
222.0339462645668
 20
613.8941169060601
 30
0.0
 11
222.0937986053893
 21
613.8761659114662
 31
0.0
  0
LINE
  5
1F37
330
1F
100
AcDbEntity
  8
Hewi
  6
CUSTOM
 62
    18
420
        0
370
     9
100
AcDbLine
 10
222.3018022019248
 20
613.8217882960836
 30
0.0
 11
222.4649148402175
 21
613.790178186554
 31
0.0
  0
LINE
  5
1F38
330
1F
100
AcDbEntity
  8
Hewi
  6
CUSTOM
 62
    18
420
        0
370
     9
100
AcDbLine
 10
221.8703284800456
 20
613.9523757810803
 30
0.0
 11
221.9823654139352
 21
613.9119703461448
 31
0.0
  0
LINE
  5
1F39
330
1F
100
AcDbEntity
  8
Hewi
  6
CUSTOM
 62
    18
420
        0
370
     9
100
AcDbLine
 10
221.7234908277194
 20
614.0130698202402
 30
0.0
 11
221.7624685329527
 21
613.9964589881384
 31
0.0
  0
LWPOLYLINE
  5
1F3A
330
1F
100
AcDbEntity
  8
Hewi
  6
CUSTOM
 62
    18
420
        0
370
     9
100
AcDbPolyline
 90
        9
 70
     0
 43
0.0
 10
219.9507031923138
 20
654.5492632052975
 10
219.9632392363262
 20
654.6604824877541
 10
220.000218758764
 20
654.7661247709785
 10
220.0597874519615
 20
654.8608927097649
 10
220.1389582929067
 20
654.9400342439449
 10
220.2337613250427
 20
654.9995808865297
 10
220.3394427284791
 20
655.0365467202137
 10
220.4507031963556
 20
655.0490781237423
 10
222.9507032165609
 20
655.0490781237423
  0
LINE
  5
1F3B
330
1F
100
AcDbEntity
  8
Hewi
  6
CUSTOM
 62
    18
420
        0
370
     9
100
AcDbLine
 10
222.7253098111203
 20
613.7587405755913
 30
0.0
 11
222.9507032165609
 21
613.7501885598232
 31
0.0
  0
LWPOLYLINE
  5
1F3C
330
1F
100
AcDbEntity
  8
Hewi
  6
CUSTOM
 62
    18
420
        0
370
     9
100
AcDbPolyline
 90
        3
 70
     0
 43
0.0
 10
287.94549322333
 20
609.7501885573466
 10
287.9441366088238
 20
608.5491885525917
 10
287.9443091903729
 20
607.9083484125095
  0
LWPOLYLINE
  5
1F3D
330
1F
100
AcDbEntity
  8
Hewi
  6
CUSTOM
 62
    18
420
        0
370
     9
100
AcDbPolyline
 90
        5
 70
     0
 43
0.0
 10
241.9966241139489
 20
607.9083483934047
 10
241.9507033690377
 20
607.9542691380075
 10
241.9507033690377
 20
609.5436644083939
 10
241.7507036336672
 20
609.7439907486396
 10
237.9523349560066
 20
609.7501885543944
  0
LINE
  5
1F3E
330
1F
100
AcDbEntity
  8
Hewi
  6
CUSTOM
 62
    18
420
        0
370
     9
100
AcDbLine
 10
221.1935144528786
 20
614.3202226845898
 30
0.0
 11
221.2462628611854
 21
614.2826952954975
 31
0.0
  0
LWPOLYLINE
  5
1F3F
330
1F
100
AcDbEntity
  8
Hewi
  6
CUSTOM
 62
    18
420
        0
370
     9
100
AcDbPolyline
 90
        5
 70
     0
 43
0.0
 10
497.9523372887986
 20
609.7501885545035
 10
494.1507051433607
 20
609.7439854237419
 10
493.9507054079902
 20
609.5436590834962
 10
493.9507054079902
 20
607.9542691380039
 10
493.9047846660603
 20
607.9083483963814
  0
LWPOLYLINE
  5
1F40
330
1F
100
AcDbEntity
  8
Hewi
  6
CUSTOM
 62
    18
420
        0
370
     9
100
AcDbPolyline
 90
        4
 70
     0
 43
0.0
 10
348.1507042284818
 20
609.7501885542625
 10
347.9507042268658
 20
609.5501885539844
 10
347.9507042268658
 20
607.9542691380066
 10
347.9047834849359
 20
607.9083483963842
  0
LWPOLYLINE
  5
1F41
330
1F
100
AcDbEntity
  8
Hewi
  6
CUSTOM
 62
    18
420
        0
370
     9
100
AcDbPolyline
 90
        4
 70
     0
 43
0.0
 10
300.1507038405259
 20
609.7501885542625
 10
299.9507038389099
 20
609.5501885539853
 10
299.9507038389099
 20
607.9542691380066
 10
299.90478309698
 20
607.9083483963842
  0
LINE
  5
1F43
330
1F
100
AcDbEntity
  8
Hewi
  6
CUSTOM
 62
    18
420
        0
370
     9
100
AcDbLine
 10
219.9507031923138
 20
616.7501885639941
 30
0.0
 11
220.0187781056254
 21
616.1178940861201
 31
0.0
  0
LINE
  5
1F44
330
1F
100
AcDbEntity
  8
Hewi
  6
CUSTOM
 62
    18
420
        0
370
     9
100
AcDbLine
 10
220.2184037094073
 20
615.5145607962678
 30
0.0
 11
220.1438186271468
 21
615.7346783979502
 31
0.0
  0
LINE
  5
1F45
330
1F
100
AcDbEntity
  8
Hewi
  6
CUSTOM
 62
    18
420
        0
370
     9
100
AcDbLine
 10
222.9501506279382
 20
630.4567792137723
 30
0.0
 11
222.9507032165555
 21
630.456806106955
 31
0.0
  0
LWPOLYLINE
  5
1F46
330
1F
100
AcDbEntity
  8
Hewi
  6
CUSTOM
 62
    18
420
        0
370
     9
100
AcDbPolyline
 90
        3
 70
     0
 43
0.0
 10
222.5676415192709
 20
630.1117438772136
 10
222.5692991920648
 20
630.1174910342971
 10
222.5696052819064
 20
630.1185522487941
  0
LINE
  5
1F4A
330
1F
100
AcDbEntity
  8
Hewi
  6
CUSTOM
 62
    18
420
        0
370
     9
100
AcDbLine
 10
442.9676931506444
 20
607.9083485218335
 30
0.0
 11
442.9721540476809
 21
609.7501885542607
 31
0.0
  0
LWPOLYLINE
  5
1F4B
330
1F
100
AcDbEntity
  8
Hewi
  6
CUSTOM
 62
    18
420
        0
370
     9
100
AcDbPolyline
 90
        3
 70
     0
 43
0.0
 10
282.9539015370126
 20
607.908348461011
 10
282.9537250610017
 20
608.5491885525917
 10
282.954504204851
 20
609.7501885573466
  0
LWPOLYLINE
  5
1F4C
330
1F
100
AcDbEntity
  8
Hewi
  6
CUSTOM
 62
    18
420
        0
370
     9
100
AcDbPolyline
 90
        4
 70
     0
 43
0.0
 10
460.1507051337145
 20
609.7501885542616
 10
459.9507051320967
 20
609.5501885539834
 10
459.9507051320967
 20
607.9542691380039
 10
459.9047843901687
 20
607.9083483963824
  0
LWPOLYLINE
  5
1F4D
330
1F
100
AcDbEntity
  8
Hewi
  6
CUSTOM
 62
    18
420
        0
370
     9
100
AcDbPolyline
 90
        4
 70
     0
 43
0.0
 10
435.9966256830273
 20
607.9083483934028
 10
435.9507049381197
 20
607.9542691380048
 10
435.9507049381197
 20
609.5501885539834
 10
435.7507049365038
 20
609.7501885542616
  0
LWPOLYLINE
  5
1F4E
330
1F
100
AcDbEntity
  8
Hewi
  6
CUSTOM
 62
    18
420
        0
370
     9
100
AcDbPolyline
 90
        4
 70
     0
 43
0.0
 10
387.9966252950715
 20
607.9083483934028
 10
387.9507045501621
 20
607.9542691380048
 10
387.9507045501639
 20
609.5501885539844
 10
387.7507045485461
 20
609.7501885542625
  0
LWPOLYLINE
  5
1F4F
330
1F
100
AcDbEntity
  8
Hewi
  6
CUSTOM
 62
    18
420
        0
370
     9
100
AcDbPolyline
 90
        4
 70
     0
 43
0.0
 10
307.9965248067463
 20
607.9083483934038
 10
307.9506040618387
 20
607.9542691380066
 10
307.9506040618387
 20
609.5501885539853
 10
307.7506040602227
 20
609.7501885542625
  0
LINE
  5
1F50
330
1F
100
AcDbEntity
  8
Hewi
  6
CUSTOM
 62
    18
420
        0
370
     9
100
AcDbLine
 10
220.9971351823031
 20
614.4770421380181
 30
0.0
 11
220.9363731589371
 21
614.5299432897728
 31
0.0
  0
LINE
  5
1F52
330
1F
100
AcDbEntity
  8
Hewi
  6
CUSTOM
 62
    18
420
        0
370
     9
100
AcDbLine
 10
221.3332993047122
 20
614.2241341440532
 30
0.0
 11
221.5057298925337
 21
614.1221817636607
 31
0.0
  0
LWPOLYLINE
  5
1F53
330
1F
100
AcDbEntity
  8
Hewi
  6
CUSTOM
 62
    18
420
        0
370
     9
100
AcDbPolyline
 90
        4
 70
     0
 43
0.0
 10
428.1508047168052
 20
609.7501885542616
 10
427.9508047151892
 20
609.5501885539834
 10
427.9508047151892
 20
607.9542691380048
 10
427.9048839732629
 20
607.9083483963842
  0
LWPOLYLINE
  5
1F54
330
1F
100
AcDbEntity
  8
Hewi
  6
CUSTOM
 62
    18
420
        0
370
     9
100
AcDbPolyline
 90
        4
 70
     0
 43
0.0
 10
467.9966259427553
 20
607.9083483934028
 10
467.9507051978459
 20
607.9542691380039
 10
467.9507051978459
 20
609.5501885539834
 10
467.75070519623
 20
609.7501885542616
  0
LINE
  5
1F55
330
1F
100
AcDbEntity
  8
Hewi
  6
CUSTOM
 62
    18
420
        0
370
     9
100
AcDbLine
 10
220.5403579986494
 20
614.9672087155177
 30
0.0
 11
220.4432109039196
 21
615.1270373078333
 31
0.0
  0
LWPOLYLINE
  5
1F5C
330
1F
100
AcDbEntity
  8
Hewi
  6
CUSTOM
 62
    18
420
        0
370
     9
100
AcDbPolyline
 90
        4
 70
     0
 43
0.0
 10
275.9966243898404
 20
607.9083483934038
 10
275.9507036449311
 20
607.9542691380066
 10
275.9507036449311
 20
609.5501885539853
 10
275.7507036433151
 20
609.7501885542625
  0
LWPOLYLINE
  5
1F5D
330
1F
100
AcDbEntity
  8
Hewi
  6
CUSTOM
 62
    18
420
        0
370
     9
100
AcDbPolyline
 90
        6
 70
     0
 43
0.0
 10
512.9507055604651
 20
577.9083483512496
 10
512.8002730323394
 20
577.9083483512523
 10
512.3565187630763
 20
577.9083483512514
 10
511.6416944446926
 20
577.9083483512514
 10
510.691644353358
 20
577.9083483512496
 10
509.5540079677164
 20
577.9083483512496
  0
LWPOLYLINE
  5
1F5E
330
1F
100
AcDbEntity
  8
Hewi
  6
CUSTOM
 62
    18
420
        0
370
     9
100
AcDbPolyline
 90
        9
 70
     0
 43
0.0
 10
509.2514419871611
 20
577.9083483512496
 10
508.1264047766588
 20
577.9083483512496
 10
506.9507055119709
 20
577.9083483512496
 10
228.950703265057
 20
577.9083483512533
 10
227.6155776505282
 20
577.9083483512496
 10
226.3474008093133
 20
577.9083483512496
 10
225.2097644236699
 20
577.9083483512496
 10
224.2597143323353
 20
577.9083483512514
 10
223.5448900139516
 20
577.9083483512514
  0
LWPOLYLINE
  5
1F5F
330
1F
100
AcDbEntity
  8
Hewi
  6
CUSTOM
 62
    18
420
        0
370
     9
100
AcDbPolyline
 90
        4
 70
     0
 43
0.0
 10
268.1507035807979
 20
609.7501885542625
 10
267.9507035791801
 20
609.5501885539853
 10
267.9507035791801
 20
607.9542691380075
 10
267.904782837252
 20
607.9083483963851
  0
LWPOLYLINE
  5
1F60
330
1F
100
AcDbEntity
  8
Hewi
  6
CUSTOM
 62
    18
420
        0
370
     9
100
AcDbPolyline
 90
        3
 70
     0
 43
0.0
 10
233.1428554002439
 20
609.7501885488783
 10
232.9507032973877
 20
609.5583497264798
 10
232.9507032973877
 20
607.908348447455
  0
LWPOLYLINE
  5
1F61
330
1F
100
AcDbEntity
  8
Hewi
  6
CUSTOM
 62
    18
420
        0
370
     9
100
AcDbPolyline
 90
        3
 70
     0
 43
0.0
 10
502.7585480377062
 20
609.7501885543534
 10
502.9507054796401
 20
609.5583444015812
 10
502.9507054796401
 20
607.9083485990232
  0
LWPOLYLINE
  5
1F8A
330
1F
100
AcDbEntity
  8
Hewi
  6
CUSTOM
 62
    18
420
        0
370
     9
100
AcDbPolyline
 90
       34
 70
     0
 43
0.0
 10
512.9507055595301
 20
630.33496298295
 10
512.9942216135393
 20
630.3330853936359
 10
513.0033980463747
 20
630.3327876264931
 10
513.2094651408722
 20
630.3282513476871
 10
513.2147470438201
 20
630.3281776329687
 10
513.4524508902274
 20
630.3262636103092
 10
513.9125451424286
 20
630.3246575718823
 10
514.4203027115915
 20
630.3228851564191
 10
514.952450902351
 20
630.3210276012779
 10
515.4524509063929
 20
630.3192822649362
 10
515.5634240371262
 20
630.3064141952456
 10
515.6687699817273
 20
630.2692274381607
 10
515.7632296082181
 20
630.2095784492295
 10
515.8420872567392
 20
630.1304450545668
 10
515.9014061570403
 20
630.0357777903619
 10
515.9382249618491
 20
629.9303026822636
 10
515.9507055847122
 20
629.819285310412
 10
515.9507055847122
 20
629.9191583781795
 10
515.9507055847122
 20
630.2132832849394
 10
515.9507055847122
 20
630.6854793976582
 10
515.9507055847122
 20
631.3097698886623
 10
515.9507055847122
 20
653.4467719303021
 10
515.9507055847122
 20
653.8436214037684
 10
515.9507055847122
 20
654.1474117436901
 10
515.9507055847122
 20
654.3423796240277
 10
515.9507055847122
 20
654.4184083891069
 10
515.9382249618491
 20
654.5293846662681
 10
515.9014061570403
 20
654.6348207312267
 10
515.8420872567392
 20
654.7294529529718
 10
515.7632296082181
 20
654.8085570552594
 10
515.6687699817291
 20
654.8681839642541
 10
515.563424037128
 20
654.9053569561221
 10
515.4524509063929
 20
654.918220262509
 10
512.9507054417397
 20
654.9269498044378
  0
LINE
  5
1F8B
330
1F
100
AcDbEntity
  8
Hewi
  6
CUSTOM
 62
    18
420
        0
370
     9
100
AcDbLine
 10
513.7951272913112
 20
613.8723155323843
 30
0.0
 11
513.9100810840853
 21
613.9087124714798
 31
0.0
  0
LINE
  5
1F8C
330
1F
100
AcDbEntity
  8
Hewi
  6
CUSTOM
 62
    18
420
        0
370
     9
100
AcDbLine
 10
513.9731343774826
 20
613.9303664063464
 30
0.0
 11
514.0200390885991
 21
613.9478837785419
 31
0.0
  0
LWPOLYLINE
  5
1F8D
330
1F
100
AcDbEntity
  8
Hewi
  6
CUSTOM
 62
    18
420
        0
370
     9
100
AcDbPolyline
 90
        4
 70
     0
 43
0.0
 10
512.9507055604651
 20
613.7501885598204
 10
513.1760066699814
 20
613.7587234485128
 10
513.2028025626448
 20
613.7608610169892
 10
513.4179319298371
 20
613.78702213995
  0
LINE
  5
1F8E
330
1F
100
AcDbEntity
  8
Hewi
  6
CUSTOM
 62
    18
420
        0
370
     9
100
AcDbLine
 10
515.4507055806704
 20
629.819285310412
 30
0.0
 11
515.575832265388
 21
629.9099285051434
 31
0.0
  0
LWPOLYLINE
  5
1F8F
330
1F
100
AcDbEntity
  8
Hewi
  6
CUSTOM
 62
    18
420
        0
370
     9
100
AcDbPolyline
 90
        3
 70
     0
 43
0.0
 10
513.5877144160793
 20
613.8188635434118
 10
513.5953244821309
 20
613.8203915847326
 10
513.602130713524
 20
613.8219414140877
  0
LINE
  5
1F90
330
1F
100
AcDbEntity
  8
Hewi
  6
CUSTOM
 62
    18
420
        0
370
     9
100
AcDbLine
 10
513.7481186748162
 20
613.8586989732913
 30
0.0
 11
513.6595842956165
 21
613.8353333372653
 31
0.0
  0
LWPOLYLINE
  5
1F91
330
1F
100
AcDbEntity
  8
Hewi
  6
CUSTOM
 62
    18
420
        0
370
     9
100
AcDbPolyline
 90
        3
 70
     0
 43
0.0
 10
514.3230533957055
 20
614.0827385378917
 10
514.4102628707976
 20
614.129548708852
 10
514.4235940976657
 20
614.1371345513581
  0
LINE
  5
1F92
330
1F
100
AcDbEntity
  8
Hewi
  6
CUSTOM
 62
    18
420
        0
370
     9
100
AcDbLine
 10
515.6877701328182
 20
615.5227748335302
 30
0.0
 11
515.6904688949514
 21
615.5289697409635
 31
0.0
  0
LINE
  5
1F93
330
1F
100
AcDbEntity
  8
Hewi
  6
CUSTOM
 62
    18
420
        0
370
     9
100
AcDbLine
 10
514.0757157849354
 20
613.9697678680969
 30
0.0
 11
514.2605722402975
 21
614.0514852815205
 31
0.0
  0
LWPOLYLINE
  5
1F94
330
1F
100
AcDbEntity
  8
Hewi
  6
CUSTOM
 62
    18
420
        0
370
     9
100
AcDbPolyline
 90
        3
 70
     0
 43
0.0
 10
514.2605722402975
 20
614.0514852815205
 10
514.2605722402975
 20
614.0514852815205
 10
514.0757157849354
 20
613.9697678680969
  0
LWPOLYLINE
  5
1F95
330
1F
100
AcDbEntity
  8
Hewi
  6
CUSTOM
 62
    18
420
        0
370
     9
100
AcDbPolyline
 90
        3
 70
     0
 43
0.0
 10
452.9454945569312
 20
609.7501885573457
 10
452.9441379424231
 20
608.5491885525899
 10
452.9443105239704
 20
607.9083484125077
  0
LINE
  5
1F96
330
1F
100
AcDbEntity
  8
Hewi
  6
CUSTOM
 62
    18
420
        0
370
     9
100
AcDbLine
 10
514.9291679850709
 20
614.4969216533628
 30
0.0
 11
514.966540280179
 21
614.5316046824656
 31
0.0
  0
LINE
  5
1F99
330
1F
100
AcDbEntity
  8
Hewi
  6
CUSTOM
 62
    18
420
        0
370
     9
100
AcDbLine
 10
514.5048523748325
 20
614.1877822079132
 30
0.0
 11
514.7268758020389
 21
614.3353804199652
 31
0.0
  0
LINE
  5
1F9A
330
1F
100
AcDbEntity
  8
Hewi
  6
CUSTOM
 62
    18
420
        0
370
     9
100
AcDbLine
 10
292.9306336671823
 20
607.9083485218344
 30
0.0
 11
292.9245279169634
 21
609.7501885542616
 31
0.0
  0
LWPOLYLINE
  5
1F9B
330
1F
100
AcDbEntity
  8
Hewi
  6
CUSTOM
 62
    18
420
        0
370
     9
100
AcDbPolyline
 90
        3
 70
     0
 43
0.0
 10
447.9545055384521
 20
609.7501885573457
 10
447.9537263946029
 20
608.5491885525899
 10
447.9539028706155
 20
607.9083484610093
  0
LWPOLYLINE
  5
1FA5
330
1F
100
AcDbEntity
  8
Hewi
  6
CUSTOM
 62
    18
420
        0
370
     9
100
AcDbPolyline
 90
       14
 70
     0
 43
0.0
 10
512.9507055604669
 20
607.9083483929581
 10
512.8521214525306
 20
607.9083483929581
 10
512.566880856825
 20
607.9083483929581
 10
512.0004063478615
 20
607.9083483929581
 10
511.2153165286042
 20
607.9083483929581
 10
510.2501884633845
 20
607.9083483929581
 10
509.1596816360422
 20
607.9083483929581
 10
507.9997055204501
 20
607.9083483929581
 10
227.9017032565796
 20
607.9083483929617
 10
226.9315649942498
 20
607.9083483929617
 10
226.003206161479
 20
607.9083483929617
 10
224.9896518967987
 20
607.9083483929617
 10
224.138252793259
 20
607.9083483929617
 10
223.4960160371199
 20
607.9083483929617
  0
LWPOLYLINE
  5
1FA6
330
1F
100
AcDbEntity
  8
Hewi
  6
CUSTOM
 62
    18
420
        0
370
     9
100
AcDbPolyline
 90
       16
 70
     0
 43
0.0
 10
515.9507055847141
 20
709.7501886932879
 10
515.8754893206484
 20
710.4177514960849
 10
515.6536121860197
 20
711.0518399124504
 10
515.2962000268278
 20
711.620658101464
 10
514.8211749811586
 20
712.0956831439526
 10
514.2523567883388
 20
712.4530953007526
 10
513.6182683677277
 20
712.6749724338989
 10
512.9507055604651
 20
712.7501886974588
 10
487.4507053543627
 20
712.7501886974588
 10
486.449361143467
 20
712.7501886974588
 10
485.498228512554
 20
712.7501886974588
 10
484.6450012233224
 20
712.7501886974588
 10
483.9324636548215
 20
712.7501886974588
 10
483.3963454160318
 20
712.7501886974588
 10
483.0635297140859
 20
712.7501886974588
 10
482.9507053179939
 20
712.7501886974588
  0
LINE
  5
1FA7
330
1F
100
AcDbEntity
  8
Hewi
  6
CUSTOM
 62
    18
420
        0
370
     9
100
AcDbLine
 10
515.9878917588364
 20
716.0569707773722
 30
0.0
 11
517.3151342087519
 21
715.2230090781723
 31
0.0
  0
LINE
  5
1FA8
330
1F
100
AcDbEntity
  8
Hewi
  6
CUSTOM
 62
    18
420
        0
370
     9
100
AcDbLine
 10
517.3151342087519
 20
715.2230090781723
 30
0.0
 11
518.4235259819749
 21
714.1146173123662
 31
0.0
  0
LINE
  5
1FA9
330
1F
100
AcDbEntity
  8
Hewi
  6
CUSTOM
 62
    18
420
        0
370
     9
100
AcDbLine
 10
219.9507031923156
 20
702.7501886835563
 30
0.0
 11
229.9507032731406
 21
712.7501886974588
 31
0.0
  0
LINE
  5
1FAA
330
1F
100
AcDbEntity
  8
Hewi
  6
CUSTOM
 62
    18
420
        0
370
     9
100
AcDbLine
 10
518.4235259819749
 20
714.1146173123662
 30
0.0
 11
519.2574876867572
 21
712.7873748713328
 31
0.0
  0
LINE
  5
1FAB
330
1F
100
AcDbEntity
  8
Hewi
  6
CUSTOM
 62
    18
420
        0
370
     9
100
AcDbLine
 10
222.9507032165627
 20
592.908348372107
 30
0.0
 11
222.9507032165609
 21
577.9083483512533
 31
0.0
  0
LINE
  5
1FAC
330
1F
100
AcDbEntity
  8
Hewi
  6
CUSTOM
 62
    18
420
        0
370
     9
100
AcDbLine
 10
252.9507034590358
 20
712.7501886974588
 30
0.0
 11
252.9507034590358
 21
682.1544146479101
 31
0.0
  0
LINE
  5
1FAD
330
1F
100
AcDbEntity
  8
Hewi
  6
CUSTOM
 62
    18
420
        0
370
     9
100
AcDbLine
 10
482.9507053179939
 20
682.1544146479101
 30
0.0
 11
482.9507053179939
 21
712.7501886974588
 31
0.0
  0
LWPOLYLINE
  5
1FAE
330
1F
100
AcDbEntity
  8
Hewi
  6
CUSTOM
 62
    18
420
        0
370
     9
100
AcDbPolyline
 90
        3
 70
     0
 43
0.0
 10
222.9507032165627
 20
592.908348372107
 10
222.9507032165627
 20
592.8219544553805
 10
222.9507032165627
 20
578.2083483516709
  0
LWPOLYLINE
  5
1FAF
330
1F
100
AcDbEntity
  8
Hewi
  6
CUSTOM
 62
    18
420
        0
370
     9
100
AcDbPolyline
 90
        3
 70
     0
 43
0.0
 10
512.9507055604651
 20
577.9083483512496
 10
512.9507055604669
 20
607.7355609845437
 10
512.9507055604669
 20
607.9083483929581
  0
LWPOLYLINE
  5
1FB0
330
1F
100
AcDbEntity
  8
Hewi
  6
CUSTOM
 62
    18
420
        0
370
     9
100
AcDbPolyline
 90
        3
 70
     0
 43
0.0
 10
222.9507032165609
 20
577.9083483512533
 10
223.0700232049992
 20
577.9083483512533
 10
223.4155524038058
 20
577.9083483512533
  0
LINE
  5
1FB1
330
1F
100
AcDbEntity
  8
Hewi
  6
CUSTOM
 62
    18
420
        0
370
     9
100
AcDbLine
 10
223.091409673875
 20
607.9083483929617
 30
0.0
 11
222.9507032165627
 21
607.7355609845473
 31
0.0
  0
LWPOLYLINE
  5
1FB2
330
1F
100
AcDbEntity
  8
Hewi
  6
CUSTOM
 62
    18
420
        0
370
     9
100
AcDbPolyline
 90
        3
 70
     0
 43
0.0
 10
222.9507032165627
 20
607.7355609908956
 10
222.9507032165627
 20
607.6083483925432
 10
222.9507032165627
 20
592.908348372107
  0
LINE
  5
1FB3
330
1F
100
AcDbEntity
  8
Hewi
  6
CUSTOM
 62
    18
420
        0
370
     9
100
AcDbLine
 10
512.9507055604651
 20
577.9083483512496
 30
0.0
 11
512.9507055604651
 21
578.2083483449615
 31
0.0
  0
LWPOLYLINE
  5
1FB4
330
1F
100
AcDbEntity
  8
Hewi
  6
CUSTOM
 62
    18
420
        0
370
     9
100
AcDbPolyline
 90
        3
 70
     0
 43
0.0
 10
512.9507055604651
 20
578.2083483516673
 10
512.9507055604651
 20
592.8219544553768
 10
512.9507055604651
 20
592.9083483721034
  0
LINE
  5
1FB5
330
1F
100
AcDbEntity
  8
Hewi
  6
CUSTOM
 62
    18
420
        0
370
     9
100
AcDbLine
 10
505.9507055038891
 20
712.7501886974588
 30
0.0
 11
515.9507055847141
 21
702.7501886835563
 31
0.0
  0
LWPOLYLINE
  5
1FB6
330
1F
100
AcDbEntity
  8
Hewi
  6
CUSTOM
 62
    18
420
        0
370
     9
100
AcDbPolyline
 90
        3
 70
     0
 43
0.0
 10
223.091409673875
 20
607.9083483929617
 10
222.9507032165627
 20
607.9083483929617
 10
222.9507032165627
 20
607.7355609845473
  0
LINE
  5
1FB7
330
1F
100
AcDbEntity
  8
Hewi
  6
CUSTOM
 62
    18
420
        0
370
     9
100
AcDbLine
 10
223.4960160371199
 20
607.9083483929617
 30
0.0
 11
223.091409673875
 21
607.9083483929617
 31
0.0
  0
LWPOLYLINE
  5
1FB8
330
1F
100
AcDbEntity
  8
Hewi
  6
CUSTOM
 62
    18
420
        0
370
     9
100
AcDbPolyline
 90
       76
 70
     0
 43
0.0
 10
512.9507055604651
 20
609.7501885542607
 10
512.9507055604651
 20
609.9180106067689
 10
512.9507055604651
 20
610.413429838216
 10
512.9507055604651
 20
611.212691313699
 10
512.9507055604651
 20
612.2774711186139
 10
512.9507055604651
 20
613.55671395808
 10
512.9507055604651
 20
614.9890812153318
 10
512.9507055604651
 20
616.5058920867351
 10
512.9507055604651
 20
659.8720149900365
 10
512.9507055604651
 20
661.5955850445381
 10
512.9507055604651
 20
663.2287577259149
 10
512.9507055604651
 20
664.6717309944871
 10
512.9507055604651
 20
665.8363257635921
 10
512.9507055604651
 20
666.6513744618588
 10
512.9507055604651
 20
681.796047320223
 10
512.9256334724457
 20
681.8757916911673
 10
512.8516744275682
 20
681.9515373463683
 10
512.7325370411715
 20
682.0194860823886
 10
512.5741953592812
 20
682.0762306658754
 10
512.3845892950073
 20
682.1189256864673
 10
512.1732264881363
 20
682.1454302375524
 10
511.9507055523816
 20
682.1544152702682
 10
478.9507052856631
 20
682.1544152702682
 10
478.7281843499084
 20
682.1454302375524
 10
478.5168215430392
 20
682.1189256864673
 10
478.3272154787653
 20
682.0762306658754
 10
478.168873796875
 20
682.0194860823886
 10
478.0497364104765
 20
681.9515373463683
 10
477.9757773656008
 20
681.8757916911673
 10
477.9507052775795
 20
681.7960473202239
 10
477.9507052775795
 20
669.6115370187445
 10
477.9256331895601
 20
669.5317926478002
 10
477.8516741446826
 20
669.4560469925992
 10
477.7325367582841
 20
669.3880982565789
 10
477.5741950763975
 20
669.3313536730921
 10
477.3845890121235
 20
669.2886586525002
 10
477.1732262052526
 20
669.2621541014151
 10
476.9507052694978
 20
669.2531690687011
 10
258.9507035075301
 20
669.2531690687011
 10
258.7281825717753
 20
669.2621541014151
 10
258.5168197649043
 20
669.2886586525002
 10
258.3272137006304
 20
669.3313536730921
 10
258.1688720187437
 20
669.3880982565789
 10
258.0497346323452
 20
669.4560469925992
 10
257.9757755874659
 20
669.5317926478002
 10
257.9507034994483
 20
669.6115370187445
 10
257.9507034994483
 20
681.7960473202239
 10
257.9256314114252
 20
681.8757916911673
 10
257.8516723665496
 20
681.9515373463683
 10
257.7325349801529
 20
682.0194860823886
 10
257.5741932982644
 20
682.0762306658754
 10
257.3845872339887
 20
682.1189256864673
 10
257.1732244271195
 20
682.1454302375524
 10
256.9507034913647
 20
682.1544152702682
 10
223.9507032246445
 20
682.1544152702682
 10
223.7281822888915
 20
682.1454302375524
 10
223.5168194820187
 20
682.1189256864673
 10
223.3272134177466
 20
682.0762306658754
 10
223.1688717358581
 20
682.0194860823886
 10
223.0497343494596
 20
681.9515373463683
 10
222.9757753045821
 20
681.8757916911673
 10
222.9507032165627
 20
681.796047320223
 10
222.9507032165627
 20
666.6513744618588
 10
222.9507032165627
 20
665.8363257635921
 10
222.9507032165627
 20
664.6717309944871
 10
222.9507032165627
 20
663.2287577259149
 10
222.9507032165627
 20
661.5955850445381
 10
222.9507032165627
 20
659.8720149900365
 10
222.9507032165627
 20
616.5058920867351
 10
222.9507032165627
 20
614.9890812153318
 10
222.9507032165627
 20
613.55671395808
 10
222.9507032165627
 20
612.2774711186139
 10
222.9507032165627
 20
611.212691313699
 10
222.9507032165627
 20
610.413429838216
 10
222.9507032165627
 20
609.9180106067689
 10
222.9507032165627
 20
609.7501885542607
  0
LWPOLYLINE
  5
1FB9
330
1F
100
AcDbEntity
  8
Hewi
  6
CUSTOM
 62
    18
420
        0
370
     9
100
AcDbPolyline
 90
       11
 70
     0
 43
0.0
 10
482.9507053179939
 20
712.7501886974588
 10
482.9507053179939
 20
716.7501887030194
 10
483.0635297140859
 20
716.7501887030194
 10
483.3963454160318
 20
716.7501887030194
 10
483.9324636548215
 20
716.7501887030194
 10
484.6450012233224
 20
716.7501887030194
 10
485.498228512554
 20
716.7501887030194
 10
486.449361143467
 20
716.7501887030194
 10
487.4507053543627
 20
716.7501887030194
 10
512.9507055604651
 20
716.7501887030194
 10
514.5083521107487
 20
716.5746840880475
  0
LINE
  5
1FBA
330
1F
100
AcDbEntity
  8
Hewi
  6
CUSTOM
 62
    18
420
        0
370
     9
100
AcDbLine
 10
512.9507055604651
 20
592.9083483721034
 30
0.0
 11
512.9507055604651
 21
607.6083483925414
 31
0.0
  0
LINE
  5
1FBB
330
1F
100
AcDbEntity
  8
Hewi
  6
CUSTOM
 62
    18
420
        0
370
     9
100
AcDbLine
 10
514.5083521107487
 20
716.5746840880475
 30
0.0
 11
515.9878917588364
 21
716.0569707773722
 31
0.0
  0
LINE
  5
1FBC
330
1F
100
AcDbEntity
  8
Hewi
  6
CUSTOM
 62
    18
420
        0
370
     9
100
AcDbLine
 10
223.4960160371199
 20
607.9083483929617
 30
0.0
 11
222.9507032165627
 21
607.7355609845473
 31
0.0
  0
LINE
  5
1FBD
330
1F
100
AcDbEntity
  8
Hewi
  6
CUSTOM
 62
    18
420
        0
370
     9
100
AcDbLine
 10
512.9507055604651
 20
592.9083483721043
 30
0.0
 11
512.9507055604669
 21
607.9083483929581
 31
0.0
  0
LINE
  5
1FBE
330
1F
100
AcDbEntity
  8
Hewi
  6
CUSTOM
 62
    18
420
        0
370
     9
100
AcDbLine
 10
222.9507032165627
 20
607.7355609845473
 30
0.0
 11
222.9507032165609
 21
577.9083483512533
 31
0.0
  0
LINE
  5
1FBF
330
1F
100
AcDbEntity
  8
Hewi
  6
CUSTOM
 62
    18
420
        0
370
     9
100
AcDbLine
 10
512.9507055604651
 20
578.2083483449615
 30
0.0
 11
512.9507055604651
 21
592.9083483721043
 31
0.0
  0
LWPOLYLINE
  5
1FC0
330
1F
100
AcDbEntity
  8
Hewi
  6
CUSTOM
 62
    18
420
        0
370
     9
100
AcDbPolyline
 90
       10
 70
     0
 43
0.0
 10
519.7917617973041
 20
615.2669656114222
 10
519.950705617043
 20
616.7501885639922
 10
519.950705617043
 20
628.7501885806752
 10
519.950705617043
 20
628.972709514942
 10
519.950705617043
 20
629.184072320396
 10
519.950705617043
 20
629.3736783834003
 10
519.950705617043
 20
629.532020064231
 10
519.950705617043
 20
629.651157449831
 10
519.950705617043
 20
629.7251164942118
 10
519.950705617043
 20
629.7501885820658
  0
LWPOLYLINE
  5
1FC1
330
1F
100
AcDbEntity
  8
Hewi
  6
CUSTOM
 62
    18
420
        0
370
     9
100
AcDbPolyline
 90
       12
 70
     0
 43
0.0
 10
519.950705617043
 20
629.7501885820658
 10
519.950705617043
 20
629.7553069638872
 10
519.950705617043
 20
629.7706546242554
 10
519.950705617043
 20
629.796209118832
 10
519.950705617043
 20
674.0358761443977
 10
519.950705617043
 20
674.4322091520654
 10
519.950705617043
 20
675.2128461564563
 10
519.950705617043
 20
676.3320387442692
 10
519.950705617043
 20
677.724197807147
 10
519.950705617043
 20
679.3077373226043
 10
519.950705617043
 20
680.989855617364
 10
519.950705617043
 20
709.7501886932879
  0
LWPOLYLINE
  5
1FC2
330
1F
100
AcDbEntity
  8
Hewi
  6
CUSTOM
 62
    18
420
        0
370
     9
100
AcDbPolyline
 90
        8
 70
     0
 43
0.0
 10
515.9507055847141
 20
674.0358761443977
 10
515.9507055847141
 20
674.4322091520654
 10
515.9507055847141
 20
675.2128461564563
 10
515.9507055847141
 20
676.3320387442692
 10
515.9507055847141
 20
677.724197807147
 10
515.9507055847141
 20
679.3077373226043
 10
515.9507055847141
 20
680.989855617364
 10
515.9507055847141
 20
709.7501886932879
  0
LINE
  5
1FC3
330
1F
100
AcDbEntity
  8
Hewi
  6
CUSTOM
 62
    18
420
        0
370
     9
100
AcDbLine
 10
519.7752010008978
 20
711.3078352331468
 30
0.0
 11
519.950705617043
 21
709.7501886932879
 31
0.0
  0
LINE
  5
1FC4
330
1F
100
AcDbEntity
  8
Hewi
  6
CUSTOM
 62
    18
420
        0
370
     9
100
AcDbLine
 10
519.2574876867572
 20
712.7873748713328
 30
0.0
 11
519.7752010008978
 21
711.3078352331468
 31
0.0
  0
LINE
  5
1FC5
330
1F
100
AcDbEntity
  8
Hewi
  6
CUSTOM
 62
    18
420
        0
370
     9
100
AcDbLine
 10
222.9507032165627
 20
609.7501885542607
 30
0.0
 11
512.9507055604651
 21
609.7501885542607
 31
0.0
  0
LWPOLYLINE
  5
1FC6
330
1F
100
AcDbEntity
  8
Hewi
  6
CUSTOM
 62
    18
420
        0
370
     9
100
AcDbPolyline
 90
        3
 70
     0
 43
0.0
 10
517.3151342087519
 20
715.2230090781723
 10
517.3344410066809
 20
715.2075565506939
 10
518.4235259819749
 20
714.1146173123662
  0
LWPOLYLINE
  5
1FC7
330
1F
100
AcDbEntity
  8
Hewi
  6
CUSTOM
 62
    18
420
        0
370
     9
100
AcDbPolyline
 90
        3
 70
     0
 43
0.0
 10
518.4235259819749
 20
714.1146173123662
 10
518.4440230709213
 20
714.0887902271298
 10
519.2574876867572
 20
712.7873748713328
  0
LWPOLYLINE
  5
1FC8
330
1F
100
AcDbEntity
  8
Hewi
  6
CUSTOM
 62
    18
420
        0
370
     9
100
AcDbPolyline
 90
       31
 70
     0
 43
0.0
 10
515.9507055847141
 20
629.651157449831
 10
515.9507055847141
 20
629.532020064231
 10
515.9507055847141
 20
629.3736783834003
 10
515.9507055847141
 20
629.184072320396
 10
515.9507055847141
 20
628.972709514942
 10
515.9507055847141
 20
628.7501885806752
 10
515.9507055847141
 20
616.7501885639922
 10
515.8846311424192
 20
616.1240249912727
 10
515.6893183701238
 20
615.5254436908982
 10
515.3733707227681
 20
614.9808119463833
 10
514.9507055766287
 20
614.5141205833843
 10
514.6916961411432
 20
614.3072875605031
 10
514.652462226765
 20
614.2797862885037
 10
514.4156949431133
 20
614.1322110693455
 10
514.3342157293998
 20
614.0883228781896
 10
514.2577105785701
 20
614.0500485522608
 10
514.0991414106017
 20
613.9789754634294
 10
513.9916465884332
 20
613.9367239206432
 10
513.8524320432067
 20
613.8889144795622
 10
513.7199254256345
 20
613.8505324907774
 10
513.6696871881711
 20
613.8376882323601
 10
513.5939152547368
 20
613.8200264631178
 10
513.4106468658163
 20
613.7856558818494
 10
513.3900282980782
 20
613.7825295899212
 10
513.3086496452258
 20
613.7716068352993
 10
513.2178797716594
 20
613.7620881531394
 10
513.1711397189271
 20
613.7582826597783
 10
513.0986697888972
 20
613.7538396837008
 10
513.038062642742
 20
613.7513974513368
 10
513.012906686489
 20
613.7507391081072
 10
512.9929722979857
 20
613.7503884592953
  0
LWPOLYLINE
  5
1FC9
330
1F
100
AcDbEntity
  8
Hewi
  6
CUSTOM
 62
    18
420
        0
370
     9
100
AcDbPolyline
 90
        3
 70
     0
 43
0.0
 10
514.5083521107487
 20
716.5746840880475
 10
514.5163874270281
 20
716.5728451012983
 10
515.9878917588364
 20
716.0569707773722
  0
LWPOLYLINE
  5
1FCA
330
1F
100
AcDbEntity
  8
Hewi
  6
CUSTOM
 62
    18
420
        0
370
     9
100
AcDbPolyline
 90
        3
 70
     0
 43
0.0
 10
515.9878917588364
 20
716.0569707773722
 10
516.0027368190265
 20
716.0498002255718
 10
517.3151342087519
 20
715.2230090781723
  0
LWPOLYLINE
  5
1FCB
330
1F
100
AcDbEntity
  8
Hewi
  6
CUSTOM
 62
    18
420
        0
370
     9
100
AcDbPolyline
 90
        4
 70
     0
 43
0.0
 10
519.7752010008978
 20
711.3078352331468
 10
519.6477626605472
 20
711.7872029138508
 10
519.2752609319202
 20
712.7501886974588
 10
519.2574876867572
 20
712.7873748713328
  0
LWPOLYLINE
  5
1FCC
330
1F
100
AcDbEntity
  8
Hewi
  6
CUSTOM
 62
    18
420
        0
370
     9
100
AcDbPolyline
 90
       19
 70
     0
 43
0.0
 10
512.9507055604651
 20
609.7501885542607
 10
512.9595701324039
 20
609.7501603571246
 10
512.985890013532
 20
609.7502266164266
 10
512.9899471500237
 20
609.7502500873361
 10
513.0632836293832
 20
609.7510938857632
 10
513.1052407448794
 20
609.7518881165507
 10
513.1334207026473
 20
609.7525615737732
 10
513.2197011831911
 20
609.7553428756683
 10
513.3385632481865
 20
609.7609395032651
 10
513.3883052068601
 20
609.7638800474507
 10
513.5112117072556
 20
609.7726894665794
 10
513.6468902644034
 20
609.7849335051688
 10
513.6616421227106
 20
609.7864227137635
 10
513.88565001034
 20
609.8129067459023
 10
514.0441805981924
 20
609.8361780365486
 10
514.0544655160072
 20
609.8378167945849
 10
514.2101460628789
 20
609.8645063769237
 10
514.4852874685573
 20
609.9204697897586
 10
514.4930092326911
 20
609.9222095206406
  0
LWPOLYLINE
  5
1FCD
330
1F
100
AcDbEntity
  8
Hewi
  6
CUSTOM
 62
    18
420
        0
370
     9
100
AcDbPolyline
 90
        3
 70
     0
 43
0.0
 10
512.9929722979857
 20
613.7503884592953
 10
512.954348371885
 20
613.7501907715014
 10
512.9507055604651
 20
613.7501885598213
  0
LWPOLYLINE
  5
1FCE
330
1F
100
AcDbEntity
  8
Hewi
  6
CUSTOM
 62
    18
420
        0
370
     9
100
AcDbPolyline
 90
        3
 70
     0
 43
0.0
 10
517.5493578586199
 20
611.4726515001731
 10
517.3151342087519
 20
611.2773681791069
 10
516.326687643818
 20
610.6180808299678
  0
LWPOLYLINE
  5
1FCF
330
1F
100
AcDbEntity
  8
Hewi
  6
CUSTOM
 62
    18
420
        0
370
     9
100
AcDbPolyline
 90
        3
 70
     0
 43
0.0
 10
519.7752010008978
 20
711.3078352331468
 10
519.874555676967
 20
710.7798975560773
 10
519.950705617043
 20
709.7501886932879
  0
LWPOLYLINE
  5
1FD0
330
1F
100
AcDbEntity
  8
Hewi
  6
CUSTOM
 62
    18
420
        0
370
     9
100
AcDbPolyline
 90
        3
 70
     0
 43
0.0
 10
519.3221483774165
 20
613.8510995501938
 10
519.2574876867572
 20
613.7130023859473
 10
518.5631916859882
 20
612.5668884255065
  0
LINE
  5
1FD1
330
1F
100
AcDbEntity
  8
Hewi
  6
CUSTOM
 62
    18
420
        0
370
     9
100
AcDbLine
 10
516.326687643818
 20
610.6180808299678
 30
0.0
 11
517.5493578586199
 21
611.4726515001731
 31
0.0
  0
LWPOLYLINE
  5
1FD2
330
1F
100
AcDbEntity
  8
Hewi
  6
CUSTOM
 62
    18
420
        0
370
     9
100
AcDbPolyline
 90
        3
 70
     0
 43
0.0
 10
518.5631916859882
 20
612.5668884255065
 10
518.4235259819749
 20
612.385759944913
 10
517.5493578586199
 20
611.4726515001731
  0
LWPOLYLINE
  5
1FD3
330
1F
100
AcDbEntity
  8
Hewi
  6
CUSTOM
 62
    18
420
        0
370
     9
100
AcDbPolyline
 90
        3
 70
     0
 43
0.0
 10
516.326687643818
 20
610.6180808299678
 10
515.9878917588364
 20
610.4434064799071
 10
514.9507055766287
 20
610.0419846221667
  0
LINE
  5
1FD4
330
1F
100
AcDbEntity
  8
Hewi
  6
CUSTOM
 62
    18
420
        0
370
     9
100
AcDbLine
 10
512.9507055604651
 20
613.7501885598213
 30
0.0
 11
512.9929722979857
 21
613.7503884592953
 31
0.0
  0
LWPOLYLINE
  5
1FD5
330
1F
100
AcDbEntity
  8
Hewi
  6
CUSTOM
 62
    18
420
        0
370
     9
100
AcDbPolyline
 90
        3
 70
     0
 43
0.0
 10
519.7917617973041
 20
615.2669656114222
 10
519.7752010008978
 20
615.1925420241324
 10
519.3221483774165
 20
613.8510995501938
  0
LWPOLYLINE
  5
1FD6
330
1F
100
AcDbEntity
  8
Hewi
  6
CUSTOM
 62
    18
420
        0
370
     9
100
AcDbPolyline
 90
        3
 70
     0
 43
0.0
 10
514.4930092326911
 20
609.9222095206406
 10
514.5083521107487
 20
609.9256931692308
 10
514.9507055766287
 20
610.0419846221667
  0
LINE
  5
1FD7
330
1F
100
AcDbEntity
  8
Hewi
  6
CUSTOM
 62
    18
420
        0
370
     9
100
AcDbLine
 10
514.9507055766287
 20
610.0419846221667
 30
0.0
 11
516.326687643818
 21
610.6180808299678
 31
0.0
  0
LINE
  5
1FD8
330
1F
100
AcDbEntity
  8
Hewi
  6
CUSTOM
 62
    18
420
        0
370
     9
100
AcDbLine
 10
519.3221483774165
 20
613.8510995501938
 30
0.0
 11
519.7917617973041
 21
615.2669656114222
 31
0.0
  0
LINE
  5
1FD9
330
1F
100
AcDbEntity
  8
Hewi
  6
CUSTOM
 62
    18
420
        0
370
     9
100
AcDbLine
 10
517.5493578586199
 20
611.4726515001731
 30
0.0
 11
518.5631916859882
 21
612.5668884255065
 31
0.0
  0
LINE
  5
1FDA
330
1F
100
AcDbEntity
  8
Hewi
  6
CUSTOM
 62
    18
420
        0
370
     9
100
AcDbLine
 10
518.5631916859882
 20
612.5668884255065
 30
0.0
 11
519.3221483774165
 21
613.8510995501938
 31
0.0
  0
LINE
  5
1FDB
330
1F
100
AcDbEntity
  8
Hewi
  6
CUSTOM
 62
    18
420
        0
370
     9
100
AcDbLine
 10
514.4930092326911
 20
609.9222095206406
 30
0.0
 11
514.9507055766287
 21
610.0419846221667
 31
0.0
  0
LINE
  5
1FDC
330
1F
100
AcDbEntity
  8
Hewi
  6
CUSTOM
 62
    18
420
        0
370
     9
100
AcDbLine
 10
218.5862745682759
 20
715.2230090781723
 30
0.0
 11
219.9135170181914
 21
716.0569707773722
 31
0.0
  0
LWPOLYLINE
  5
1FDD
330
1F
100
AcDbEntity
  8
Hewi
  6
CUSTOM
 62
    18
420
        0
370
     9
100
AcDbPolyline
 90
       10
 70
     0
 43
0.0
 10
215.9507031599849
 20
629.7501885820658
 10
215.9507031599849
 20
629.7251164942118
 10
215.9507031599849
 20
629.651157449831
 10
215.9507031599849
 20
629.532020064231
 10
215.9507031599849
 20
629.3736783834003
 10
215.9507031599849
 20
629.184072320396
 10
215.9507031599849
 20
628.972709514942
 10
215.9507031599849
 20
628.7501885806752
 10
215.9507031599849
 20
616.7501885639922
 10
216.1096469797219
 20
615.2669656114222
  0
LWPOLYLINE
  5
1FDE
330
1F
100
AcDbEntity
  8
Hewi
  6
CUSTOM
 62
    18
420
        0
370
     9
100
AcDbPolyline
 90
       11
 70
     0
 43
0.0
 10
252.950703459034
 20
712.7501886974588
 10
252.950703459034
 20
716.7501887030194
 10
252.837879062942
 20
716.7501887030194
 10
252.5050633609942
 20
716.7501887030194
 10
251.9689451222064
 20
716.7501887030194
 10
251.2564075537055
 20
716.7501887030194
 10
250.4031802644738
 20
716.7501887030194
 10
249.452047633559
 20
716.7501887030194
 10
248.4507034226651
 20
716.7501887030194
 10
222.9507032165627
 20
716.7501887030194
 10
221.3930566662791
 20
716.5746840880475
  0
LWPOLYLINE
  5
1FDF
330
1F
100
AcDbEntity
  8
Hewi
  6
CUSTOM
 62
    18
420
        0
370
     9
100
AcDbPolyline
 90
       12
 70
     0
 43
0.0
 10
215.9507031599849
 20
709.7501886932879
 10
215.9507031599849
 20
680.989855617364
 10
215.9507031599849
 20
679.3077373226043
 10
215.9507031599849
 20
677.724197807147
 10
215.9507031599849
 20
676.3320387442692
 10
215.9507031599849
 20
675.2128461564563
 10
215.9507031599849
 20
674.4322091520654
 10
215.9507031599849
 20
674.0358761443977
 10
215.9507031599849
 20
629.796209118832
 10
215.9507031599849
 20
629.7706546242554
 10
215.9507031599849
 20
629.7553069638872
 10
215.9507031599849
 20
629.7501885820658
  0
LWPOLYLINE
  5
1FE0
330
1F
100
AcDbEntity
  8
Hewi
  6
CUSTOM
 62
    18
420
        0
370
     9
100
AcDbPolyline
 90
       16
 70
     0
 43
0.0
 10
222.9507032165627
 20
712.7501886974588
 10
222.2831404092983
 20
712.6749724338989
 10
221.6490519886891
 20
712.4530953007526
 10
221.0802337958692
 20
712.0956831439526
 10
220.6052087502001
 20
711.620658101464
 10
220.2477965910082
 20
711.0518399124504
 10
220.0259194563757
 20
710.4177514960849
 10
219.9507031923138
 20
709.7501886932879
 10
219.9507031923138
 20
680.989855617364
 10
219.9507031923138
 20
679.3077373226043
 10
219.9507031923138
 20
677.724197807147
 10
219.9507031923138
 20
676.3320387442692
 10
219.9507031923138
 20
675.2128461564563
 10
219.9507031923138
 20
674.4322091520654
 10
219.9507031923138
 20
674.0358761443977
 10
219.9507031923138
 20
654.5492643561694
  0
LINE
  5
1FE1
330
1F
100
AcDbEntity
  8
Hewi
  6
CUSTOM
 62
    18
420
        0
370
     9
100
AcDbLine
 10
219.9135170181914
 20
716.0569707773722
 30
0.0
 11
221.3930566662791
 21
716.5746840880475
 31
0.0
  0
LWPOLYLINE
  5
1FE2
330
1F
100
AcDbEntity
  8
Hewi
  6
CUSTOM
 62
    18
420
        0
370
     9
100
AcDbPolyline
 90
        9
 70
     0
 43
0.0
 10
252.950703459034
 20
712.7501886974588
 10
252.837879062942
 20
712.7501886974588
 10
252.5050633609942
 20
712.7501886974588
 10
251.9689451222064
 20
712.7501886974588
 10
251.2564075537055
 20
712.7501886974588
 10
250.4031802644738
 20
712.7501886974588
 10
249.452047633559
 20
712.7501886974588
 10
248.4507034226651
 20
712.7501886974588
 10
222.9507032165627
 20
712.7501886974588
  0
LINE
  5
1FE3
330
1F
100
AcDbEntity
  8
Hewi
  6
CUSTOM
 62
    18
420
        0
370
     9
100
AcDbLine
 10
215.9507031599849
 20
709.7501886932879
 30
0.0
 11
216.1262077761301
 21
711.3078352331468
 31
0.0
  0
LINE
  5
1FE4
330
1F
100
AcDbEntity
  8
Hewi
  6
CUSTOM
 62
    18
420
        0
370
     9
100
AcDbLine
 10
216.1262077761301
 20
711.3078352331468
 30
0.0
 11
216.6439210902706
 21
712.7873748713328
 31
0.0
  0
LINE
  5
1FE5
330
1F
100
AcDbEntity
  8
Hewi
  6
CUSTOM
 62
    18
420
        0
370
     9
100
AcDbLine
 10
216.6439210902706
 20
712.7873748713328
 30
0.0
 11
217.4778827950529
 21
714.1146173123662
 31
0.0
  0
LINE
  5
1FE6
330
1F
100
AcDbEntity
  8
Hewi
  6
CUSTOM
 62
    18
420
        0
370
     9
100
AcDbLine
 10
217.4778827950529
 20
714.1146173123662
 30
0.0
 11
218.5862745682759
 21
715.2230090781723
 31
0.0
  0
LINE
  5
1FE7
330
1F
100
AcDbEntity
  8
Hewi
  6
CUSTOM
 62
    18
420
        0
370
     9
100
AcDbLine
 10
519.950705617043
 20
629.7501885820658
 30
0.0
 11
515.9507055847141
 21
629.7501885820658
 31
0.0
  0
LWPOLYLINE
  5
1FE8
330
1F
100
AcDbEntity
  8
Hewi
  6
CUSTOM
 62
    18
420
        0
370
     9
100
AcDbPolyline
 90
        3
 70
     0
 43
0.0
 10
215.9507031599849
 20
709.7501886932879
 10
216.0268531000609
 20
710.7798975560773
 10
216.1262077761301
 20
711.3078352331468
  0
LWPOLYLINE
  5
1FE9
330
1F
100
AcDbEntity
  8
Hewi
  6
CUSTOM
 62
    18
420
        0
370
     9
100
AcDbPolyline
 90
        4
 70
     0
 43
0.0
 10
216.1262077761301
 20
711.3078352331468
 10
216.2536461164807
 20
711.7872029138508
 10
216.6261478451076
 20
712.7501886974588
 10
216.6439210902706
 20
712.7873748713328
  0
LWPOLYLINE
  5
1FEA
330
1F
100
AcDbEntity
  8
Hewi
  6
CUSTOM
 62
    18
420
        0
370
     9
100
AcDbPolyline
 90
        7
 70
     0
 43
0.0
 10
219.9507031923138
 20
616.7501885639922
 10
219.9507031923138
 20
628.7501885806752
 10
219.9507031923138
 20
628.972709514942
 10
219.9507031923138
 20
629.184072320396
 10
219.9507031923138
 20
629.3736783834003
 10
219.9507031923138
 20
629.532020064231
 10
219.9507031923138
 20
629.651157449831
  0
LWPOLYLINE
  5
1FEB
330
1F
100
AcDbEntity
  8
Hewi
  6
CUSTOM
 62
    18
420
        0
370
     9
100
AcDbPolyline
 90
        3
 70
     0
 43
0.0
 10
217.4778827950529
 20
714.1146173123662
 10
218.566967770347
 20
715.2075565506948
 10
218.5862745682759
 20
715.2230090781723
  0
LWPOLYLINE
  5
1FEC
330
1F
100
AcDbEntity
  8
Hewi
  6
CUSTOM
 62
    18
420
        0
370
     9
100
AcDbPolyline
 90
        3
 70
     0
 43
0.0
 10
218.5862745682759
 20
715.2230090781723
 10
219.8986719580014
 20
716.0498002255718
 10
219.9135170181914
 20
716.0569707773722
  0
LWPOLYLINE
  5
1FED
330
1F
100
AcDbEntity
  8
Hewi
  6
CUSTOM
 62
    18
420
        0
370
     9
100
AcDbPolyline
 90
        3
 70
     0
 43
0.0
 10
219.9135170181914
 20
716.0569707773722
 10
221.3850213499997
 20
716.5728451012983
 10
221.3930566662791
 20
716.5746840880475
  0
LWPOLYLINE
  5
1FEE
330
1F
100
AcDbEntity
  8
Hewi
  6
CUSTOM
 62
    18
420
        0
370
     9
100
AcDbPolyline
 90
       18
 70
     0
 43
0.0
 10
221.4161213084706
 20
609.9204697897586
 10
221.5890926747277
 20
609.8839506658179
 10
221.7041775638288
 20
609.8621578932508
 10
221.758390626738
 20
609.8525651331438
 10
222.0157587666879
 20
609.8129067459023
 10
222.1152876546792
 20
609.800233623666
 10
222.1677960950208
 20
609.7941350074144
 10
222.3101971509193
 20
609.7795919720502
 10
222.4646422958565
 20
609.7670901518442
 10
222.5131035701695
 20
609.7638800474507
 10
222.6226943087411
 20
609.7578679867812
 10
222.7180794812782
 20
609.7540379835028
 10
222.7292719765726
 20
609.7536752402585
 10
222.8381251476483
 20
609.7510938857632
 10
222.8915191592539
 20
609.7504058419428
 10
222.8943813555805
 20
609.7503796414322
 10
222.9281150649192
 20
609.750174296265
 10
222.9507032165627
 20
609.7501885542607
  0
LWPOLYLINE
  5
1FEF
330
1F
100
AcDbEntity
  8
Hewi
  6
CUSTOM
 62
    18
420
        0
370
     9
100
AcDbPolyline
 90
        3
 70
     0
 43
0.0
 10
216.6439210902706
 20
712.7873748713328
 10
217.4573857061066
 20
714.0887902271298
 10
217.4778827950529
 20
714.1146173123662
  0
LINE
  5
1FF0
330
1F
100
AcDbEntity
  8
Hewi
  6
CUSTOM
 62
    18
420
        0
370
     9
100
AcDbLine
 10
221.3326624007375
 20
609.9397697750629
 30
0.0
 11
221.4161213084706
 21
609.9204697897586
 31
0.0
  0
LWPOLYLINE
  5
1FF1
330
1F
100
AcDbEntity
  8
Hewi
  6
CUSTOM
 62
    18
420
        0
370
     9
100
AcDbPolyline
 90
        3
 70
     0
 43
0.0
 10
220.9507032003992
 20
610.0419846221667
 10
219.9135170181914
 20
610.4434064799071
 10
219.5747211332098
 20
610.6180808299678
  0
LWPOLYLINE
  5
1FF2
330
1F
100
AcDbEntity
  8
Hewi
  6
CUSTOM
 62
    18
420
        0
370
     9
100
AcDbPolyline
 90
        3
 70
     0
 43
0.0
 10
217.3382170910397
 20
612.5668884255065
 10
216.6439210902706
 20
613.7130023859473
 10
216.5792603996113
 20
613.8510995501938
  0
LWPOLYLINE
  5
1FF3
330
1F
100
AcDbEntity
  8
Hewi
  6
CUSTOM
 62
    18
420
        0
370
     9
100
AcDbPolyline
 90
        3
 70
     0
 43
0.0
 10
221.4161213084706
 20
609.9204697897586
 10
221.3930566662791
 20
609.9256931692308
 10
221.3326624007375
 20
609.9397697750629
  0
LWPOLYLINE
  5
1FF4
330
1F
100
AcDbEntity
  8
Hewi
  6
CUSTOM
 62
    18
420
        0
370
     9
100
AcDbPolyline
 90
       25
 70
     0
 43
0.0
 10
222.9278350081247
 20
613.7502102793588
 10
222.9143130429827
 20
613.7503166619891
 10
222.8922942977849
 20
613.7506601811293
 10
222.807370104664
 20
613.7536140435078
 10
222.8027389881288
 20
613.7538396837008
 10
222.7321569807489
 20
613.7581445627639
 10
222.6486367717687
 20
613.7654145908892
 10
222.6204453084272
 20
613.7684056042336
 10
222.4907619112116
 20
613.7856558818494
 10
222.3791754511901
 20
613.8051794851709
 10
222.3674328328423
 20
613.8074884924564
 10
222.2579930089566
 20
613.8313335777231
 10
222.0618732779319
 20
613.8848829378267
 10
222.0489767338211
 20
613.8889144795622
 10
221.8963199574398
 20
613.9417528602745
 10
221.7389802328914
 20
614.0060588407132
 10
221.7258472809506
 20
614.011889088738
 10
221.4857138339146
 20
614.1322110693455
 10
221.3463202354276
 20
614.2153732082371
 10
221.2097126358865
 20
614.3072875605031
 10
220.9507032003992
 20
614.5141205833843
 10
220.5280380542597
 20
614.9808119463833
 10
220.2120904069023
 20
615.5254436908982
 10
220.0167776346086
 20
616.1240249912727
 10
219.9507031923138
 20
616.7501885639922
  0
LWPOLYLINE
  5
1FF5
330
1F
100
AcDbEntity
  8
Hewi
  6
CUSTOM
 62
    18
420
        0
370
     9
100
AcDbPolyline
 90
        3
 70
     0
 43
0.0
 10
216.5792603996113
 20
613.8510995501938
 10
216.1262077761301
 20
615.1925420241324
 10
216.1096469797219
 20
615.2669656114222
  0
LWPOLYLINE
  5
1FF6
330
1F
100
AcDbEntity
  8
Hewi
  6
CUSTOM
 62
    18
420
        0
370
     9
100
AcDbPolyline
 90
        3
 70
     0
 43
0.0
 10
219.5747211332098
 20
610.6180808299678
 10
218.5862745682759
 20
611.2773681791069
 10
218.3520509184079
 20
611.4726515001731
  0
LINE
  5
1FF7
330
1F
100
AcDbEntity
  8
Hewi
  6
CUSTOM
 62
    18
420
        0
370
     9
100
AcDbLine
 10
220.9507032003992
 20
610.0419846221667
 30
0.0
 11
221.3326624007375
 21
609.9397697750629
 31
0.0
  0
LINE
  5
1FF8
330
1F
100
AcDbEntity
  8
Hewi
  6
CUSTOM
 62
    18
420
        0
370
     9
100
AcDbLine
 10
218.3520509184079
 20
611.4726515001731
 30
0.0
 11
219.5747211332098
 21
610.6180808299678
 31
0.0
  0
LWPOLYLINE
  5
1FF9
330
1F
100
AcDbEntity
  8
Hewi
  6
CUSTOM
 62
    18
420
        0
370
     9
100
AcDbPolyline
 90
        3
 70
     0
 43
0.0
 10
218.3520509184079
 20
611.4726515001731
 10
217.4778827950529
 20
612.385759944913
 10
217.3382170910397
 20
612.5668884255065
  0
LINE
  5
1FFA
330
1F
100
AcDbEntity
  8
Hewi
  6
CUSTOM
 62
    18
420
        0
370
     9
100
AcDbLine
 10
217.3382170910397
 20
612.5668884255065
 30
0.0
 11
218.3520509184079
 21
611.4726515001731
 31
0.0
  0
LINE
  5
1FFB
330
1F
100
AcDbEntity
  8
Hewi
  6
CUSTOM
 62
    18
420
        0
370
     9
100
AcDbLine
 10
219.5747211332098
 20
610.6180808299678
 30
0.0
 11
220.9507032003992
 21
610.0419846221667
 31
0.0
  0
LINE
  5
1FFC
330
1F
100
AcDbEntity
  8
Hewi
  6
CUSTOM
 62
    18
420
        0
370
     9
100
AcDbLine
 10
216.5792603996113
 20
613.8510995501938
 30
0.0
 11
217.3382170910397
 21
612.5668884255065
 31
0.0
  0
LINE
  5
1FFD
330
1F
100
AcDbEntity
  8
Hewi
  6
CUSTOM
 62
    18
420
        0
370
     9
100
AcDbLine
 10
216.1096469797219
 20
615.2669656114222
 30
0.0
 11
216.5792603996113
 21
613.8510995501938
 31
0.0
  0
LINE
  5
1FFE
330
1F
100
AcDbEntity
  8
Hewi
  6
CUSTOM
 62
    18
420
        0
370
     9
100
AcDbLine
 10
515.2593057360343
 20
711.6575523926522
 30
0.0
 11
515.4892958222979
 21
711.3133479064982
 31
0.0
  0
LINE
  5
1FFF
330
1F
100
AcDbEntity
  8
Hewi
  6
CUSTOM
 62
    18
420
        0
370
     9
100
AcDbLine
 10
514.7622039610785
 20
712.1327370911468
 30
0.0
 11
515.0520758831214
 21
711.8647822444037
 31
0.0
  0
LINE
  5
2000
330
1F
100
AcDbEntity
  8
Hewi
  6
CUSTOM
 62
    18
420
        0
370
     9
100
AcDbLine
 10
222.9507032165627
 20
613.7501885598213
 30
0.0
 11
222.9278350081247
 21
613.7502102793588
 31
0.0
  0
LWPOLYLINE
  5
2001
330
1F
100
AcDbEntity
  8
Hewi
  6
CUSTOM
 62
    18
420
        0
370
     9
100
AcDbPolyline
 90
        3
 70
     0
 43
0.0
 10
222.9507032165627
 20
613.7501885598213
 10
222.9470604051446
 20
613.7501907715014
 10
222.9278350081247
 20
613.7502102793588
  0
LINE
  5
2002
330
1F
100
AcDbEntity
  8
Hewi
  6
CUSTOM
 62
    18
420
        0
370
     9
100
AcDbLine
 10
219.9507031923138
 20
629.7501885820658
 30
0.0
 11
215.9507031599849
 21
629.7501885820658
 31
0.0
  0
LINE
  5
2003
330
1F
100
AcDbEntity
  8
Hewi
  6
CUSTOM
 62
    18
420
        0
370
     9
100
AcDbLine
 10
514.2486238626323
 20
614.0459757493373
 30
0.0
 11
514.2461532924232
 21
614.0451112594384
 31
0.0
  0
LINE
  5
2004
330
1F
100
AcDbEntity
  8
Hewi
  6
CUSTOM
 62
    18
420
        0
370
     9
100
AcDbLine
 10
514.2554253224359
 20
614.0492100442781
 30
0.0
 11
514.2543939564791
 21
614.0485619941001
 31
0.0
  0
LINE
  5
2005
330
1F
100
AcDbEntity
  8
Hewi
  6
CUSTOM
 62
    18
420
        0
370
     9
100
AcDbLine
 10
514.1700736546652
 20
712.4818874147059
 30
0.0
 11
514.5054303542099
 21
712.2940786402815
 31
0.0
  0
LINE
  5
2006
330
1F
100
AcDbEntity
  8
Hewi
  6
CUSTOM
 62
    18
420
        0
370
     9
100
AcDbLine
 10
513.5795066018697
 20
712.6793398361143
 30
0.0
 11
513.776977766626
 21
712.6194376135791
 31
0.0
  0
LINE
  5
2007
330
1F
100
AcDbEntity
  8
Hewi
  6
CUSTOM
 62
    18
420
        0
370
     9
100
AcDbLine
 10
515.6351227318362
 20
711.0812657097441
 30
0.0
 11
515.7941668323462
 21
710.6501578140798
 31
0.0
  0
LINE
  5
2008
330
1F
100
AcDbEntity
  8
Hewi
  6
CUSTOM
 62
    18
420
        0
370
     9
100
AcDbLine
 10
515.8697545497296
 20
710.4341405298929
 30
0.0
 11
515.9507055847141
 21
709.7501886932879
 31
0.0
  0
LINE
  5
2009
330
1F
100
AcDbEntity
  8
Hewi
  6
CUSTOM
 62
    18
420
        0
370
     9
100
AcDbLine
 10
220.5681548027594
 20
711.5616870817777
 30
0.0
 11
220.8361096512951
 21
711.8515590018806
 31
0.0
  0
LINE
  5
200A
330
1F
100
AcDbEntity
  8
Hewi
  6
CUSTOM
 62
    18
420
        0
370
     9
100
AcDbLine
 10
221.0433395044336
 20
712.0587888534084
 30
0.0
 11
221.3875439928913
 21
712.288778938133
 31
0.0
  0
LWPOLYLINE
  5
200B
330
1F
100
AcDbEntity
  8
Hewi
  6
CUSTOM
 62
    18
420
        0
370
     9
100
AcDbPolyline
 90
       24
 70
     0
 43
0.0
 10
222.9501506279382
 20
630.4567792137723
 10
222.7179917588644
 20
630.451614205339
 10
222.5179260373232
 20
630.4502606951975
 10
222.4507032125209
 20
630.4501885830405
 10
221.990608960318
 20
630.4501885830405
 10
221.482851391155
 20
630.4501885830405
 10
220.9507032003955
 20
630.4501885830405
 10
220.4507031963556
 20
630.4501885830405
 10
220.3394427284791
 20
630.4376525391136
 10
220.2337613250427
 20
630.4006730169223
 10
220.1389582929067
 20
630.3411043241232
 10
220.0597874519615
 20
630.2619334837082
 10
220.000218758764
 20
630.1671304522061
 10
219.9632392363262
 20
630.0614490494791
 10
219.9507031923138
 20
629.9501885823448
 10
219.9507031923138
 20
630.0464609727206
 10
219.9507031923138
 20
630.3299819306222
 10
219.9507031923138
 20
630.785154175881
 10
219.9507031923138
 20
631.3869374113393
 10
219.9507031923138
 20
653.523939452979
 10
219.9507031923138
 20
653.9427166484539
 10
219.9507031923138
 20
654.2632927738396
 10
219.9507031923138
 20
654.4690335082852
 10
219.9507031923138
 20
654.5492632052975
  0
LINE
  5
200C
330
1F
100
AcDbEntity
  8
Hewi
  6
CUSTOM
 62
    18
420
        0
370
     9
100
AcDbLine
 10
222.6241990471178
 20
630.2533292037042
 30
0.0
 11
222.6109274906637
 21
630.2288044704202
 31
0.0
  0
LWPOLYLINE
  5
200D
330
1F
100
AcDbEntity
  8
Hewi
  6
CUSTOM
 62
    18
420
        0
370
     9
100
AcDbPolyline
 90
        3
 70
     1
 43
0.0
 10
222.7305810986825
 20
630.3791622506879
 10
222.7002826159285
 20
630.3523404021071
 10
222.734031679817
 20
630.3821296398274
  0
LWPOLYLINE
  5
200E
330
1F
100
AcDbEntity
  8
Hewi
  6
CUSTOM
 62
    18
420
        0
370
     9
100
AcDbPolyline
 90
        3
 70
     0
 43
0.0
 10
222.83982729581
 20
629.9867438463335
 10
222.8920880087178
 20
630.0025955129022
 10
222.9048401688331
 20
630.0074011602174
  0
LINE
  5
200F
330
1F
100
AcDbEntity
  8
Hewi
  6
CUSTOM
 62
    18
420
        0
370
     9
100
AcDbLine
 10
220.021552054134
 20
710.3789897304851
 30
0.0
 11
220.0814542770684
 21
710.5764608939181
 31
0.0
  0
LINE
  5
2010
330
1F
100
AcDbEntity
  8
Hewi
  6
CUSTOM
 62
    18
420
        0
370
     9
100
AcDbLine
 10
221.6196261911998
 20
712.4346058466937
 30
0.0
 11
222.0507340897482
 21
712.5936499461396
 31
0.0
  0
LINE
  5
2011
330
1F
100
AcDbEntity
  8
Hewi
  6
CUSTOM
 62
    18
420
        0
370
     9
100
AcDbLine
 10
222.5787010140473
 20
630.1500871822837
 30
0.0
 11
222.5697424481302
 21
630.1194875598768
 31
0.0
  0
LWPOLYLINE
  5
2012
330
1F
100
AcDbEntity
  8
Hewi
  6
CUSTOM
 62
    18
420
        0
370
     9
100
AcDbPolyline
 90
        3
 70
     0
 43
0.0
 10
222.5697424481302
 20
630.1194875598768
 10
222.559781053226
 20
630.0746191839463
 10
222.5676415192709
 20
630.1117438772136
  0
LWPOLYLINE
  5
2013
330
1F
100
AcDbEntity
  8
Hewi
  6
CUSTOM
 62
    18
420
        0
370
     9
100
AcDbPolyline
 90
        3
 70
     1
 43
0.0
 10
222.6109274906637
 20
630.2288044704202
 10
222.5830695385328
 20
630.1630875708525
 10
222.6084039094228
 20
630.224083147281
  0
LINE
  5
2014
330
1F
100
AcDbEntity
  8
Hewi
  6
CUSTOM
 62
    18
420
        0
370
     9
100
AcDbLine
 10
222.6564497907828
 20
630.302194102119
 30
0.0
 11
222.6557243727955
 21
630.3015805449969
 31
0.0
  0
LINE
  5
2015
330
1F
100
AcDbEntity
  8
Hewi
  6
CUSTOM
 62
    18
420
        0
370
     9
100
AcDbLine
 10
222.6881900585511
 20
630.3399961390351
 30
0.0
 11
222.6564497907828
 21
630.302194102119
 31
0.0
  0
LWPOLYLINE
  5
2016
330
1F
100
AcDbEntity
  8
Hewi
  6
CUSTOM
 62
    18
420
        0
370
     9
100
AcDbPolyline
 90
        3
 70
     1
 43
0.0
 10
222.8177723469132
 20
630.4312993217974
 10
222.8237337501767
 20
630.4338331419331
 10
222.7668744621249
 20
630.4048901484194
  0
LINE
  5
2017
330
1F
100
AcDbEntity
  8
Hewi
  6
CUSTOM
 62
    18
420
        0
370
     9
100
AcDbLine
 10
220.4507031963556
 20
629.9501885823448
 30
0.0
 11
220.325703195346
 21
630.0410063984728
 31
0.0
  0
LINE
  5
2018
330
1F
100
AcDbEntity
  8
Hewi
  6
CUSTOM
 62
    18
420
        0
370
     9
100
AcDbLine
 10
220.2190044768638
 20
710.9695567793279
 30
0.0
 11
220.4068132525451
 21
711.304913476628
 31
0.0
  0
LWPOLYLINE
  5
2019
330
1F
100
AcDbEntity
  8
Hewi
  6
CUSTOM
 62
    18
420
        0
370
     9
100
AcDbPolyline
 90
        3
 70
     0
 43
0.0
 10
222.9501506279382
 20
630.4567792137723
 10
222.8907474952436
 20
630.4524019778829
 10
222.8904373657667
 20
630.4523420265232
  0
LINE
  5
201A
330
1F
100
AcDbEntity
  8
Hewi
  6
CUSTOM
 62
    18
420
        0
370
     9
100
AcDbLine
 10
222.2667513753793
 20
712.6692376630172
 30
0.0
 11
222.9507032165627
 21
712.7501886974588
 31
0.0
  0
LINE
  5
201B
330
1F
100
AcDbEntity
  8
Hewi
  6
CUSTOM
 62
    18
420
        0
370
     9
100
AcDbLine
 10
222.6322599640468
 20
630.2667909110424
 30
0.0
 11
222.6557243727955
 21
630.3015805449969
 31
0.0
  0
LINE
  5
201C
330
1F
100
AcDbEntity
  8
Hewi
  6
CUSTOM
 62
    18
420
        0
370
     9
100
AcDbLine
 10
222.5697424481302
 20
630.1194875598768
 30
0.0
 11
222.5676415192709
 21
630.1117438772136
 31
0.0
  0
LINE
  5
201D
330
1F
100
AcDbEntity
  8
Hewi
  6
CUSTOM
 62
    18
420
        0
370
     9
100
AcDbLine
 10
222.6110957369481
 20
630.2288112261614
 30
0.0
 11
222.6109274906637
 21
630.2288044704202
 31
0.0
  0
ENDSEC
  0
SECTION
  2
OBJECTS
  0
DICTIONARY
  5
C
330
0
100
AcDbDictionary
281
     1
  3
ACAD_CIP_PREVIOUS_PRODUCT_INFO
350
119
  3
ACAD_COLOR
350
114
  3
ACAD_DETAILVIEWSTYLE
350
10E
  3
ACAD_GROUP
350
D
  3
ACAD_IMAGE_DICT
350
6E
  3
ACAD_LAYOUT
350
1A
  3
ACAD_MATERIAL
350
43
  3
ACAD_MLEADERSTYLE
350
6B
  3
ACAD_MLINESTYLE
350
17
  3
ACAD_PLOTSETTINGS
350
19
  3
ACAD_PLOTSTYLENAME
350
E
  3
ACAD_SCALELIST
350
47
  3
ACAD_SECTIONVIEWSTYLE
350
10F
  3
ACAD_TABLESTYLE
350
69
  3
ACAD_VISUALSTYLE
350
2A
  3
ACDB_RECOMPOSE_DATA
350
2020
  3
AcDbVariableDictionary
350
107
  3
AcDsDecomposeData
350
2026
  0
SUN
  5
6D
330
29
100
AcDbSun
 90
        1
290
     1
 63
     7
421
 16777215
 40
1.0
291
     1
 91
  2455826
 92
 54000000
292
     0
 70
     0
 71
   256
280
     1
1001
ACAD
1000
AcDbSavedByObjectVersion
1070
     0
1000
AcDbSavedByObjectVersion
1070
     0
1000
AcDbSavedByObjectVersion
1070
     0
1000
AcDbSavedByObjectVersion
1070
     0
1000
AcDbSavedByObjectVersion
1070
     0
1000
AcDbSavedByObjectVersion
1070
     0
1000
AcDbSavedByObjectVersion
1070
     0
1000
AcDbSavedByObjectVersion
1070
     0
1000
AcDbSavedByObjectVersion
1070
     0
1000
AcDbSavedByObjectVersion
1070
     0
  0
DICTIONARY
  5
490
330
2
100
AcDbDictionary
280
     1
281
     1
  3
ACAD_LAYERSTATES
360
491
  0
DICTIONARY
  5
48E
330
48D
100
AcDbDictionary
280
     1
281
     1
  0
DICTIONARY
  5
6E5
330
1F
100
AcDbDictionary
280
     1
281
     1
  3
ACAD_SORTENTS
360
6E6
  0
XRECORD
  5
119
102
{ACAD_REACTORS
330
C
102
}
330
C
100
AcDbXrecord
280
     1
300
ACDLT
300
2021
300

  0
DICTIONARY
  5
114
102
{ACAD_REACTORS
330
C
102
}
330
C
100
AcDbDictionary
281
     1
  0
DICTIONARY
  5
10E
102
{ACAD_REACTORS
330
C
102
}
330
C
100
AcDbDictionary
281
     1
  3
Metric50
350
116
  0
DICTIONARY
  5
D
102
{ACAD_REACTORS
330
C
102
}
330
C
100
AcDbDictionary
281
     1
  0
DICTIONARY
  5
6E
102
{ACAD_REACTORS
330
C
102
}
330
C
100
AcDbDictionary
281
     1
  0
DICTIONARY
  5
1A
102
{ACAD_REACTORS
330
C
102
}
330
C
100
AcDbDictionary
281
     1
  3
Layout1
350
1E
  3
Layout2
350
26
  3
Model
350
22
  0
DICTIONARY
  5
43
102
{ACAD_REACTORS
330
C
102
}
330
C
100
AcDbDictionary
281
     1
  3
ByBlock
350
45
  3
ByLayer
350
44
  3
Global
350
46
  0
DICTIONARY
  5
6B
102
{ACAD_REACTORS
330
C
102
}
330
C
100
AcDbDictionary
281
     1
  3
Standard
350
6C
  0
DICTIONARY
  5
17
102
{ACAD_REACTORS
330
C
102
}
330
C
100
AcDbDictionary
281
     1
  3
Standard
350
18
  0
DICTIONARY
  5
19
102
{ACAD_REACTORS
330
C
102
}
330
C
100
AcDbDictionary
281
     1
  0
ACDBDICTIONARYWDFLT
  5
E
102
{ACAD_REACTORS
330
C
102
}
330
C
100
AcDbDictionary
281
     1
  3
Normal
350
F
100
AcDbDictionaryWithDefault
340
F
  0
DICTIONARY
  5
47
102
{ACAD_REACTORS
330
C
102
}
330
C
100
AcDbDictionary
281
     1
  3
A0
350
48
  3
A1
350
49
  3
A2
350
4A
  3
A3
350
4B
  3
A4
350
4C
  3
A5
350
4D
  3
A6
350
4E
  3
A7
350
4F
  3
A8
350
50
  3
A9
350
51
  3
B0
350
52
  3
B1
350
53
  3
B2
350
54
  3
B3
350
55
  3
B4
350
56
  3
B5
350
57
  3
B6
350
58
  3
B7
350
59
  3
B8
350
5A
  3
B9
350
5B
  3
C0
350
5C
  3
C1
350
5D
  3
C2
350
5E
  3
C3
350
5F
  3
C4
350
60
  3
C5
350
61
  3
C6
350
62
  3
C7
350
63
  3
C8
350
64
  3
C9
350
65
  3
D0
350
66
  3
D1
350
67
  3
D2
350
68
  0
DICTIONARY
  5
10F
102
{ACAD_REACTORS
330
C
102
}
330
C
100
AcDbDictionary
281
     1
  3
Metric50
350
115
  0
DICTIONARY
  5
69
102
{ACAD_REACTORS
330
C
102
}
330
C
100
AcDbDictionary
281
     1
  3
Standard
350
6A
  0
DICTIONARY
  5
2A
102
{ACAD_REACTORS
330
C
102
}
330
C
100
AcDbDictionary
281
     1
  3
2dWireframe
350
2F
  3
Basic
350
32
  3
Brighten
350
36
  3
ColorChange
350
3A
  3
Conceptual
350
34
  3
Dim
350
35
  3
EdgeColorOff
350
3D
  3
Facepattern
350
39
  3
Flat
350
2B
  3
FlatWithEdges
350
2C
  3
Gouraud
350
2D
  3
GouraudWithEdges
350
2E
  3
Hidden
350
31
  3
JitterOff
350
3B
  3
Linepattern
350
38
  3
OverhangOff
350
3C
  3
Realistic
350
33
  3
Shaded
350
42
  3
Shaded with edges
350
41
  3
Shades of Gray
350
3E
  3
Sketchy
350
3F
  3
Thicken
350
37
  3
Wireframe
350
30
  3
X-Ray
350
40
  0
XRECORD
  5
2020
102
{ACAD_REACTORS
330
C
102
}
330
C
100
AcDbXrecord
280
     1
 90
        1
330
6A
  0
DICTIONARY
  5
107
102
{ACAD_REACTORS
330
C
102
}
330
C
100
AcDbDictionary
281
     1
  3
CANNOSCALE
350
108
  3
CENTEREXE
350
110
  3
CENTERLTYPEFILE
350
111
  3
CMLEADERSTYLE
350
10D
  3
CTABLESTYLE
350
10C
  3
CVIEWDETAILSTYLE
350
485
  3
CVIEWSECTIONSTYLE
350
486
  0
DICTIONARY
  5
2026
102
{ACAD_REACTORS
330
C
102
}
330
C
100
AcDbDictionary
281
     1
  3
AcDsRecords
350
2028
  3
AcDsSchemas
350
2027
1001
ACAD
1070
     2
  0
DICTIONARY
  5
491
102
{ACAD_REACTORS
330
490
102
}
330
490
100
AcDbDictionary
281
     1
  0
SORTENTSTABLE
  5
6E6
102
{ACAD_REACTORS
330
6E5
102
}
330
6E5
100
AcDbSortentsTable
330
1F
331
E45
  5
E46
331
E46
  5
E47
331
E47
  5
E4A
331
E4C
  5
E4D
331
E4D
  5
E4F
331
E4F
  5
E52
331
E52
  5
E58
331
E5D
  5
E5E
331
E5E
  5
E5F
331
E5F
  5
E62
331
E61
  5
E65
331
E62
  5
E66
331
E63
  5
E67
331
E65
  5
E68
331
E67
  5
E6A
331
E69
  5
E6C
331
E6D
  5
E70
331
E71
  5
E74
331
E72
  5
E75
331
EBC
  5
EBF
331
EBF
  5
EC2
331
EC0
  5
EC3
331
EC9
  5
ED3
331
ECE
  5
ED4
331
ED1
  5
ED5
331
ED3
  5
ED6
331
ED5
  5
ED8
331
ED6
  5
ED9
331
ED7
  5
EDA
331
ED8
  5
EDB
331
ED9
  5
EDC
331
EDA
  5
EDD
331
EDB
  5
EDE
331
EDC
  5
EE0
331
EDD
  5
EE1
331
EDE
  5
EE2
331
EE0
  5
EE3
331
EE2
  5
EE5
331
EE3
  5
EE6
331
EE4
  5
EE7
331
EE7
  5
EEA
331
EE8
  5
EEB
331
EE9
  5
EEC
331
EED
  5
EF0
331
EEF
  5
EF2
331
EF0
  5
EF3
331
EF1
  5
EF4
331
EF2
  5
EF5
331
EF3
  5
EF6
331
EF5
  5
EF8
331
EF6
  5
EF9
331
EF8
  5
EFB
331
EF9
  5
EFC
331
EFA
  5
EFD
331
EFB
  5
EFE
331
EFC
  5
EFF
331
EFD
  5
F00
331
EFE
  5
F01
331
EFF
  5
F02
331
F00
  5
F03
331
F02
  5
F05
331
F03
  5
F06
331
F04
  5
F07
331
F05
  5
F08
331
F06
  5
F09
331
F39
  5
F3D
331
F3A
  5
F3E
331
F3C
  5
F3F
331
F3E
  5
FF5
331
FF4
  5
FF7
331
FF5
  5
FF8
331
FF6
  5
FF9
331
FF7
  5
FFA
331
FF8
  5
FFB
331
FF9
  5
FFC
331
FFA
  5
FFF
331
FFD
  5
1000
331
FFE
  5
1001
331
FFF
  5
1002
331
1000
  5
1003
331
1001
  5
1005
331
1003
  5
1006
331
1004
  5
1007
331
1005
  5
1008
331
1006
  5
100B
331
1009
  5
100C
331
100A
  5
100E
331
100C
  5
100F
331
100D
  5
1010
331
100E
  5
1012
331
1010
  5
1014
331
1012
  5
1015
331
1013
  5
1016
331
1014
  5
1017
331
1015
  5
1019
331
1017
  5
101A
331
1018
  5
101B
331
1019
  5
101E
331
101C
  5
101F
331
101D
  5
1020
331
101E
  5
1021
331
101F
  5
1022
331
1020
  5
1023
331
1021
  5
1027
331
1025
  5
1029
331
1027
  5
102A
331
1028
  5
102B
331
1029
  5
102C
331
102A
  5
102D
331
102B
  5
102F
331
102D
  5
1031
331
102F
  5
1035
331
1033
  5
1036
331
1034
  5
1037
331
1035
  5
1038
331
1036
  5
1039
331
1037
  5
103A
331
1038
  5
103B
331
1039
  5
103C
331
103A
  5
103E
331
103C
  5
1040
331
103E
  5
1041
331
103F
  5
1042
331
1040
  5
1043
331
1041
  5
1044
331
1042
  5
1045
331
1043
  5
1047
331
1045
  5
1048
331
1046
  5
104A
331
1048
  5
104B
331
1049
  5
104C
331
104A
  5
104D
331
104B
  5
104E
331
104C
  5
104F
331
104D
  5
1050
331
104E
  5
1056
331
1054
  5
1058
331
1056
  5
1059
331
1057
  5
105A
331
1058
  5
105B
331
1059
  5
105E
331
105C
  5
1060
331
105E
  5
1061
331
105F
  5
1062
331
1060
  5
1063
331
1061
  5
1064
331
1062
  5
1065
331
1063
  5
1066
331
1064
  5
1067
331
1065
  5
1068
331
1066
  5
1069
331
1067
  5
106A
331
1068
  5
106B
331
1069
  5
106C
331
106A
  5
106D
331
106B
  5
106E
331
106C
  5
106F
331
106D
  5
1070
331
106E
  5
1071
331
106F
  5
1072
331
1070
  5
1073
331
1071
  5
1074
331
1072
  5
1075
331
1073
  5
1076
331
1074
  5
1077
331
1075
  5
1078
331
1076
  5
1079
331
1077
  5
107A
331
1078
  5
107B
331
1079
  5
107C
331
107A
  5
107D
331
107B
  5
107E
331
107C
  5
107F
331
107D
  5
1080
331
107E
  5
1082
331
1080
  5
1083
331
1081
  5
1084
331
1082
  5
1085
331
1083
  5
1086
331
1084
  5
1087
331
1085
  5
1088
331
1086
  5
1089
331
1087
  5
108A
331
1088
  5
108C
331
108A
  5
108D
331
108B
  5
108E
331
108C
  5
108F
331
108D
  5
1090
331
108E
  5
1091
331
108F
  5
1092
331
1091
  5
1094
331
1092
  5
1095
331
1093
  5
1097
331
1095
  5
1098
331
1096
  5
1099
331
1097
  5
109A
331
1098
  5
109B
331
109A
  5
109D
331
109B
  5
109E
331
109C
  5
109F
331
109D
  5
10A0
331
109E
  5
10A1
331
109F
  5
10A2
331
10A0
  5
10A3
331
10A2
  5
124C
331
10A3
  5
1251
331
1402
  5
E60
331
1403
  5
E63
  0
ACDBDETAILVIEWSTYLE
  5
116
102
{ACAD_XDICTIONARY
360
202B
102
}
102
{ACAD_REACTORS
330
10E
102
}
330
10E
100
AcDbModelDocViewStyle
 70
     0
  3
Metric50
290
     0
100
AcDbDetailViewStyle
 70
     0
 71
     0
 90
        3
 71
     1
340
11
 62
   256
 40
5.0
340
0
 62
   256
 40
5.0
300

 40
0.0
280
     1
 71
     2
340
16
 90
       25
 62
   256
 71
     3
340
11
 62
   256
 40
5.0
 90
        0
 40
15.0
 90
        1
300
%<\AcVar ViewDetailId>% (%<\AcVar ViewScale \f "%sn">%)
 71
     4
340
16
 90
       25
 62
   256
340
16
 90
       25
 62
   256
280
     0
  0
LAYOUT
  5
1E
102
{ACAD_REACTORS
330
1A
102
}
330
1A
100
AcDbPlotSettings
  1

  2
none_device
  4

  6

 40
0.0
 41
0.0
 42
0.0
 43
0.0
 44
0.0
 45
0.0
 46
0.0
 47
0.0
 48
0.0
 49
0.0
140
0.0
141
0.0
142
1.0
143
1.0
 70
   688
 72
     1
 73
     0
 74
     5
  7

 75
    16
147
1.0
 76
     0
 77
     2
 78
   300
148
0.0
149
0.0
100
AcDbLayout
  1
Layout1
 70
     1
 71
     1
 10
0.0
 20
0.0
 11
420.0
 21
297.0
 12
0.0
 22
0.0
 32
0.0
 14
1.000000000000000E+20
 24
1.000000000000000E+20
 34
1.000000000000000E+20
 15
-1.000000000000000E+20
 25
-1.000000000000000E+20
 35
-1.000000000000000E+20
146
0.0
 13
0.0
 23
0.0
 33
0.0
 16
1.0
 26
0.0
 36
0.0
 17
0.0
 27
1.0
 37
0.0
 76
     0
330
1B
  0
LAYOUT
  5
26
102
{ACAD_REACTORS
330
1A
102
}
330
1A
100
AcDbPlotSettings
  1

  2
none_device
  4

  6

 40
0.0
 41
0.0
 42
0.0
 43
0.0
 44
0.0
 45
0.0
 46
0.0
 47
0.0
 48
0.0
 49
0.0
140
0.0
141
0.0
142
1.0
143
1.0
 70
   688
 72
     1
 73
     0
 74
     5
  7

 75
    16
147
1.0
 76
     0
 77
     2
 78
   300
148
0.0
149
0.0
100
AcDbLayout
  1
Layout2
 70
     1
 71
     2
 10
0.0
 20
0.0
 11
0.0
 21
0.0
 12
0.0
 22
0.0
 32
0.0
 14
0.0
 24
0.0
 34
0.0
 15
0.0
 25
0.0
 35
0.0
146
0.0
 13
0.0
 23
0.0
 33
0.0
 16
1.0
 26
0.0
 36
0.0
 17
0.0
 27
1.0
 37
0.0
 76
     0
330
23
  0
LAYOUT
  5
22
102
{ACAD_REACTORS
330
1A
102
}
330
1A
100
AcDbPlotSettings
  1

  2
none_device
  4
Letter_(8.50_x_11.00_Inches)
  6

 40
6.349999999999997
 41
6.349999999999997
 42
6.350005079999997
 43
6.350005079999997
 44
215.9
 45
279.4
 46
0.0
 47
0.0
 48
0.0
 49
0.0
140
0.0
141
0.0
142
1.0
143
1.0
 70
  1712
 72
     1
 73
     0
 74
     0
  7

 75
     0
147
1.0
 76
     0
 77
     2
 78
   300
148
0.0
149
0.0
100
AcDbLayout
  1
Model
 70
     1
 71
     0
 10
0.0
 20
0.0
 11
420.0
 21
297.0
 12
0.0
 22
0.0
 32
0.0
 14
-45.25316535320677
 24
93.29113539721936
 34
0.0
 15
0.1687797052525326
 25
133.2911345722814
 35
0.0
146
0.0
 13
0.0
 23
0.0
 33
0.0
 16
1.0
 26
0.0
 36
0.0
 17
0.0
 27
1.0
 37
0.0
 76
     0
330
1F
331
29
  0
MATERIAL
  5
45
102
{ACAD_REACTORS
330
43
102
}
330
43
100
AcDbMaterial
  1
ByBlock
  0
MATERIAL
  5
44
102
{ACAD_REACTORS
330
43
102
}
330
43
100
AcDbMaterial
  1
ByLayer
  0
MATERIAL
  5
46
102
{ACAD_REACTORS
330
43
102
}
330
43
100
AcDbMaterial
  1
Global
  0
MLEADERSTYLE
  5
6C
102
{ACAD_REACTORS
330
6B
102
}
330
6B
100
AcDbMLeaderStyle
179
     2
170
     2
171
     1
172
     0
 90
        2
 40
0.0
 41
0.0
173
     1
 91
-1056964608
340
14
 92
       -2
290
     1
 42
2.0
291
     1
 43
8.0
  3
Standard
 44
4.0
300

342
11
174
     1
178
     6
175
     1
176
     0
 93
-1056964608
 45
4.0
292
     0
297
     0
 46
4.0
 94
-1056964608
 47
1.0
 49
1.0
140
1.0
293
     1
141
0.0
294
     1
177
     0
142
1.0
295
     0
296
     0
143
3.75
271
     0
272
     9
273
     9
298
     0
  0
MLINESTYLE
  5
18
102
{ACAD_REACTORS
330
17
102
}
330
17
100
AcDbMlineStyle
  2
STANDARD
 70
     0
  3

 62
   256
 51
90.0
 52
90.0
 71
     2
 49
0.5
 62
   256
  6
BYLAYER
 49
-0.5
 62
   256
  6
BYLAYER
  0
ACDBPLACEHOLDER
  5
F
102
{ACAD_REACTORS
330
E
102
}
330
E
  0
SCALE
  5
48
102
{ACAD_REACTORS
330
47
102
}
330
47
100
AcDbScale
 70
     0
300
1:1
140
1.0
141
1.0
290
     1
  0
SCALE
  5
49
102
{ACAD_REACTORS
330
47
102
}
330
47
100
AcDbScale
 70
     0
300
1:2
140
1.0
141
2.0
290
     0
  0
SCALE
  5
4A
102
{ACAD_REACTORS
330
47
102
}
330
47
100
AcDbScale
 70
     0
300
1:4
140
1.0
141
4.0
290
     0
  0
SCALE
  5
4B
102
{ACAD_REACTORS
330
47
102
}
330
47
100
AcDbScale
 70
     0
300
1:5
140
1.0
141
5.0
290
     0
  0
SCALE
  5
4C
102
{ACAD_REACTORS
330
47
102
}
330
47
100
AcDbScale
 70
     0
300
1:8
140
1.0
141
8.0
290
     0
  0
SCALE
  5
4D
102
{ACAD_REACTORS
330
47
102
}
330
47
100
AcDbScale
 70
     0
300
1:10
140
1.0
141
10.0
290
     0
  0
SCALE
  5
4E
102
{ACAD_REACTORS
330
47
102
}
330
47
100
AcDbScale
 70
     0
300
1:16
140
1.0
141
16.0
290
     0
  0
SCALE
  5
4F
102
{ACAD_REACTORS
330
47
102
}
330
47
100
AcDbScale
 70
     0
300
1:20
140
1.0
141
20.0
290
     0
  0
SCALE
  5
50
102
{ACAD_REACTORS
330
47
102
}
330
47
100
AcDbScale
 70
     0
300
1:30
140
1.0
141
30.0
290
     0
  0
SCALE
  5
51
102
{ACAD_REACTORS
330
47
102
}
330
47
100
AcDbScale
 70
     0
300
1:40
140
1.0
141
40.0
290
     0
  0
SCALE
  5
52
102
{ACAD_REACTORS
330
47
102
}
330
47
100
AcDbScale
 70
     0
300
1:50
140
1.0
141
50.0
290
     0
  0
SCALE
  5
53
102
{ACAD_REACTORS
330
47
102
}
330
47
100
AcDbScale
 70
     0
300
1:100
140
1.0
141
100.0
290
     0
  0
SCALE
  5
54
102
{ACAD_REACTORS
330
47
102
}
330
47
100
AcDbScale
 70
     0
300
2:1
140
2.0
141
1.0
290
     0
  0
SCALE
  5
55
102
{ACAD_REACTORS
330
47
102
}
330
47
100
AcDbScale
 70
     0
300
4:1
140
4.0
141
1.0
290
     0
  0
SCALE
  5
56
102
{ACAD_REACTORS
330
47
102
}
330
47
100
AcDbScale
 70
     0
300
8:1
140
8.0
141
1.0
290
     0
  0
SCALE
  5
57
102
{ACAD_REACTORS
330
47
102
}
330
47
100
AcDbScale
 70
     0
300
10:1
140
10.0
141
1.0
290
     0
  0
SCALE
  5
58
102
{ACAD_REACTORS
330
47
102
}
330
47
100
AcDbScale
 70
     0
300
100:1
140
100.0
141
1.0
290
     0
  0
SCALE
  5
59
102
{ACAD_REACTORS
330
47
102
}
330
47
100
AcDbScale
 70
     0
300
1/128" = 1'-0"
140
0.0078125
141
12.0
290
     0
  0
SCALE
  5
5A
102
{ACAD_REACTORS
330
47
102
}
330
47
100
AcDbScale
 70
     0
300
1/64" = 1'-0"
140
0.015625
141
12.0
290
     0
  0
SCALE
  5
5B
102
{ACAD_REACTORS
330
47
102
}
330
47
100
AcDbScale
 70
     0
300
1/32" = 1'-0"
140
0.03125
141
12.0
290
     0
  0
SCALE
  5
5C
102
{ACAD_REACTORS
330
47
102
}
330
47
100
AcDbScale
 70
     0
300
1/16" = 1'-0"
140
0.0625
141
12.0
290
     0
  0
SCALE
  5
5D
102
{ACAD_REACTORS
330
47
102
}
330
47
100
AcDbScale
 70
     0
300
3/32" = 1'-0"
140
0.09375
141
12.0
290
     0
  0
SCALE
  5
5E
102
{ACAD_REACTORS
330
47
102
}
330
47
100
AcDbScale
 70
     0
300
1/8" = 1'-0"
140
0.125
141
12.0
290
     0
  0
SCALE
  5
5F
102
{ACAD_REACTORS
330
47
102
}
330
47
100
AcDbScale
 70
     0
300
3/16" = 1'-0"
140
0.1875
141
12.0
290
     0
  0
SCALE
  5
60
102
{ACAD_REACTORS
330
47
102
}
330
47
100
AcDbScale
 70
     0
300
1/4" = 1'-0"
140
0.25
141
12.0
290
     0
  0
SCALE
  5
61
102
{ACAD_REACTORS
330
47
102
}
330
47
100
AcDbScale
 70
     0
300
3/8" = 1'-0"
140
0.375
141
12.0
290
     0
  0
SCALE
  5
62
102
{ACAD_REACTORS
330
47
102
}
330
47
100
AcDbScale
 70
     0
300
1/2" = 1'-0"
140
0.5
141
12.0
290
     0
  0
SCALE
  5
63
102
{ACAD_REACTORS
330
47
102
}
330
47
100
AcDbScale
 70
     0
300
3/4" = 1'-0"
140
0.75
141
12.0
290
     0
  0
SCALE
  5
64
102
{ACAD_REACTORS
330
47
102
}
330
47
100
AcDbScale
 70
     0
300
1" = 1'-0"
140
1.0
141
12.0
290
     0
  0
SCALE
  5
65
102
{ACAD_REACTORS
330
47
102
}
330
47
100
AcDbScale
 70
     0
300
1-1/2" = 1'-0"
140
1.5
141
12.0
290
     0
  0
SCALE
  5
66
102
{ACAD_REACTORS
330
47
102
}
330
47
100
AcDbScale
 70
     0
300
3" = 1'-0"
140
3.0
141
12.0
290
     0
  0
SCALE
  5
67
102
{ACAD_REACTORS
330
47
102
}
330
47
100
AcDbScale
 70
     0
300
6" = 1'-0"
140
6.0
141
12.0
290
     0
  0
SCALE
  5
68
102
{ACAD_REACTORS
330
47
102
}
330
47
100
AcDbScale
 70
     0
300
1'-0" = 1'-0"
140
12.0
141
12.0
290
     0
  0
ACDBSECTIONVIEWSTYLE
  5
115
102
{ACAD_XDICTIONARY
360
2029
102
}
102
{ACAD_REACTORS
330
10F
102
}
330
10F
100
AcDbModelDocViewStyle
 70
     0
  3
Metric50
290
     0
100
AcDbSectionViewStyle
 70
     0
 71
     0
 90
      102
 71
     1
340
11
 62
   256
 40
5.0
340
0
340
0
 62
   256
 40
5.0
300
I, O, Q, S, X, Z
 40
10.0
 90
        0
 40
2.5
 90
        0
 71
     2
340
16
 90
       25
 62
   256
340
16
 90
       50
 62
   256
 40
5.0
 40
2.5
 40
5.0
 71
     3
340
11
 62
   256
 40
5.0
 90
        0
 40
15.0
 90
        1
300
%<\AcVar ViewSectionStartId>%-%<\AcVar ViewSectionEndId>% (%<\AcVar ViewScale \f "%sn">%)
 71
     4
 62
   256
 62
   257
300
ANSI31
 40
1.0
 90
        0
290
     0
290
     0
 90
        6
 40
0.0
 40
1.570796326794896
 40
0.2617993877991494
 40
1.308996938995747
 40
-0.2617993877991494
 40
1.832595714594044
  0
TABLESTYLE
  5
6A
102
{ACAD_XDICTIONARY
360
109
102
}
102
{ACAD_REACTORS
330
69
102
}
330
69
100
AcDbTableStyle
280
     0
  3
Standard
 70
     0
 71
     0
 40
1.5
 41
1.5
280
     0
281
     0
  7
Standard
140
4.5
170
     2
 62
     0
 63
     7
283
     0
 90
        4
 91
        0
  1

274
    -2
284
     1
 64
     0
275
    -2
285
     1
 65
     0
276
    -2
286
     1
 66
     0
277
    -2
287
     1
 67
     0
278
    -2
288
     1
 68
     0
279
    -2
289
     1
 69
     0
  7
Standard
140
6.0
170
     5
 62
     0
 63
     7
283
     0
 90
        4
 91
        0
  1

274
    -2
284
     1
 64
     0
275
    -2
285
     1
 65
     0
276
    -2
286
     1
 66
     0
277
    -2
287
     1
 67
     0
278
    -2
288
     1
 68
     0
279
    -2
289
     1
 69
     0
  7
Standard
140
4.5
170
     5
 62
     0
 63
     7
283
     0
 90
        4
 91
        0
  1

274
    -2
284
     1
 64
     0
275
    -2
285
     1
 65
     0
276
    -2
286
     1
 66
     0
277
    -2
287
     1
 67
     0
278
    -2
288
     1
 68
     0
279
    -2
289
     1
 69
     0
  0
VISUALSTYLE
  5
2F
102
{ACAD_REACTORS
330
2A
102
}
330
2A
100
AcDbVisualStyle
  2
2dWireframe
 70
     4
177
     3
291
     0
 70
    58
 90
        0
176
     1
 90
        2
176
     1
 90
        0
176
     1
 90
        0
176
     1
 40
0.6
176
     1
 40
30.0
176
     1
 62
     7
420
 16777215
176
     1
 90
        1
176
     1
 90
        4
176
     1
 62
     7
176
     1
 62
   257
176
     1
 90
        1
176
     1
 90
        1
176
     1
 40
1.0
176
     1
 90
        0
176
     1
 62
   257
176
     1
 40
1.0
176
     1
 90
        1
176
     1
 90
        6
176
     1
 90
        2
176
     1
 62
     7
176
     1
 90
        5
176
     1
 90
        0
176
     1
 90
        0
176
     1
290
     0
176
     1
 90
        1
176
     1
 40
0.0
176
     1
 90
        0
176
     1
290
     1
176
     1
290
     1
176
     1
290
     0
176
     1
290
     0
176
     1
290
     0
176
     1
290
     0
176
     1
290
     0
176
     1
290
     0
176
     1
290
     0
176
     1
 90
       50
176
     1
 40
0.0
176
     1
 40
1.0
176
     1
 90
        0
176
     1
 62
    18
176
     1
 90
       50
176
     1
 90
        3
176
     1
 62
     5
420
      255
176
     1
290
     0
176
     1
 90
       50
176
     1
 90
       50
176
     1
 90
       50
176
     1
290
     0
176
     1
 90
       50
176
     1
 62
   256
176
     0
 40
1.0
176
     0
 90
        2
176
     1
  1
strokes_ogs.tif
176
     1
290
     0
176
     1
 40
1.0
176
     1
 40
1.0
176
     1
1001
ACAD
1000
AcDbSavedByObjectVersion
1070
     0
  0
VISUALSTYLE
  5
32
102
{ACAD_REACTORS
330
2A
102
}
330
2A
100
AcDbVisualStyle
  2
Basic
 70
     7
177
     3
291
     1
 70
    58
 90
        1
176
     1
 90
        0
176
     1
 90
        1
176
     1
 90
        0
176
     1
 40
0.6
176
     1
 40
30.0
176
     1
 62
     7
420
 16777215
176
     1
 90
        0
176
     1
 90
        4
176
     1
 62
     7
176
     1
 62
   257
176
     1
 90
        1
176
     1
 90
        1
176
     1
 40
1.0
176
     1
 90
        8
176
     1
 62
     7
176
     1
 40
1.0
176
     1
 90
        1
176
     1
 90
        6
176
     1
 90
        2
176
     1
 62
     7
176
     1
 90
        5
176
     1
 90
        0
176
     1
 90
        0
176
     1
290
     0
176
     1
 90
        1
176
     1
 40
0.0
176
     1
 90
        0
176
     1
290
     0
176
     1
290
     1
176
     1
290
     1
176
     1
290
     0
176
     1
290
     0
176
     1
290
     0
176
     1
290
     0
176
     1
290
     0
176
     1
290
     0
176
     1
 90
       50
176
     1
 40
0.0
176
     1
 40
1.0
176
     1
 90
        0
176
     1
 62
    18
176
     1
 90
       50
176
     1
 90
        3
176
     1
 62
     5
420
      255
176
     1
290
     0
176
     1
 90
       50
176
     1
 90
       50
176
     1
 90
       50
176
     1
290
     0
176
     1
 90
       50
176
     1
 62
   256
176
     0
 40
1.0
176
     0
 90
        2
176
     1
  1
strokes_ogs.tif
176
     1
290
     0
176
     1
 40
1.0
176
     1
 40
1.0
176
     1
1001
ACAD
1000
AcDbSavedByObjectVersion
1070
     0
  0
VISUALSTYLE
  5
36
102
{ACAD_REACTORS
330
2A
102
}
330
2A
100
AcDbVisualStyle
  2
Brighten
 70
    12
177
     3
291
     1
 70
    58
 90
        2
176
     1
 90
        2
176
     1
 90
        0
176
     1
 90
        0
176
     1
 40
0.6
176
     1
 40
30.0
176
     1
 62
     7
420
 16777215
176
     1
 90
        1
176
     1
 90
        4
176
     1
 62
     7
176
     1
 62
   257
176
     1
 90
        1
176
     1
 90
        1
176
     1
 40
1.0
176
     1
 90
        8
176
     1
 62
     7
176
     1
 40
1.0
176
     1
 90
        1
176
     1
 90
        6
176
     1
 90
        2
176
     1
 62
     7
176
     1
 90
        5
176
     1
 90
        0
176
     1
 90
        0
176
     1
290
     0
176
     1
 90
        1
176
     1
 40
50.0
176
     1
 90
        0
176
     1
290
     0
176
     1
290
     1
176
     1
290
     1
176
     1
290
     0
176
     1
290
     0
176
     1
290
     0
176
     1
290
     0
176
     1
290
     0
176
     1
290
     0
176
     1
 90
       50
176
     1
 40
0.0
176
     1
 40
1.0
176
     1
 90
        0
176
     1
 62
    18
176
     1
 90
       50
176
     1
 90
        3
176
     1
 62
     5
420
      255
176
     1
290
     0
176
     1
 90
       50
176
     1
 90
       50
176
     1
 90
       50
176
     1
290
     0
176
     1
 90
       50
176
     1
 62
   256
176
     0
 40
1.0
176
     0
 90
        2
176
     1
  1
strokes_ogs.tif
176
     1
290
     0
176
     1
 40
1.0
176
     1
 40
1.0
176
     1
1001
ACAD
1000
AcDbSavedByObjectVersion
1070
     0
  0
VISUALSTYLE
  5
3A
102
{ACAD_REACTORS
330
2A
102
}
330
2A
100
AcDbVisualStyle
  2
ColorChange
 70
    16
177
     3
291
     1
 70
    58
 90
        2
176
     1
 90
        2
176
     1
 90
        3
176
     1
 90
        0
176
     1
 40
0.6
176
     1
 40
30.0
176
     1
 62
     8
420
  8421504
176
     1
 90
        1
176
     1
 90
        4
176
     1
 62
     7
176
     1
 62
   257
176
     1
 90
        1
176
     1
 90
        1
176
     1
 40
1.0
176
     1
 90
        8
176
     1
 62
     8
420
  8421504
176
     1
 40
1.0
176
     1
 90
        1
176
     1
 90
        6
176
     1
 90
        2
176
     1
 62
     7
176
     1
 90
        5
176
     1
 90
        0
176
     1
 90
        0
176
     1
290
     0
176
     1
 90
        1
176
     1
 40
0.0
176
     1
 90
        0
176
     1
290
     0
176
     1
290
     1
176
     1
290
     1
176
     1
290
     0
176
     1
290
     0
176
     1
290
     0
176
     1
290
     0
176
     1
290
     0
176
     1
290
     0
176
     1
 90
       50
176
     1
 40
0.0
176
     1
 40
1.0
176
     1
 90
        0
176
     1
 62
    18
176
     1
 90
       50
176
     1
 90
        3
176
     1
 62
     5
420
      255
176
     1
290
     0
176
     1
 90
       50
176
     1
 90
       50
176
     1
 90
       50
176
     1
290
     0
176
     1
 90
       50
176
     1
 62
   256
176
     0
 40
1.0
176
     0
 90
        2
176
     1
  1
strokes_ogs.tif
176
     1
290
     0
176
     1
 40
1.0
176
     1
 40
1.0
176
     1
1001
ACAD
1000
AcDbSavedByObjectVersion
1070
     0
  0
VISUALSTYLE
  5
34
102
{ACAD_REACTORS
330
2A
102
}
330
2A
100
AcDbVisualStyle
  2
Conceptual
 70
     9
177
     3
291
     0
 70
    58
 90
        3
176
     1
 90
        2
176
     1
 90
        0
176
     1
 90
        0
176
     1
 40
0.6
176
     1
 40
30.0
176
     1
 62
     7
420
 16777215
176
     1
 90
        2
176
     1
 90
        2
176
     1
 62
     7
176
     1
 62
   257
176
     1
 90
        1
176
     1
 90
        1
176
     1
 40
179.0
176
     1
 90
        8
176
     1
 62
     7
176
     1
 40
1.0
176
     1
 90
        1
176
     1
 90
        6
176
     1
 90
        2
176
     1
 62
     7
176
     1
 90
        3
176
     1
 90
        0
176
     1
 90
        0
176
     1
290
     0
176
     1
 90
        1
176
     1
 40
0.0
176
     1
 90
        0
176
     1
290
     0
176
     1
290
     1
176
     1
290
     1
176
     1
290
     0
176
     1
290
     0
176
     1
290
     0
176
     1
290
     0
176
     1
290
     0
176
     1
290
     0
176
     1
 90
       50
176
     1
 40
0.0
176
     1
 40
1.0
176
     1
 90
        0
176
     1
 62
    18
176
     1
 90
       50
176
     1
 90
        3
176
     1
 62
     5
420
      255
176
     1
290
     0
176
     1
 90
       50
176
     1
 90
       50
176
     1
 90
       50
176
     1
290
     0
176
     1
 90
       50
176
     1
 62
   256
176
     0
 40
1.0
176
     0
 90
        2
176
     1
  1
strokes_ogs.tif
176
     1
290
     0
176
     1
 40
1.0
176
     1
 40
1.0
176
     1
1001
ACAD
1000
AcDbSavedByObjectVersion
1070
     0
  0
VISUALSTYLE
  5
35
102
{ACAD_REACTORS
330
2A
102
}
330
2A
100
AcDbVisualStyle
  2
Dim
 70
    11
177
     3
291
     1
 70
    58
 90
        2
176
     1
 90
        2
176
     1
 90
        0
176
     1
 90
        0
176
     1
 40
0.6
176
     1
 40
30.0
176
     1
 62
     7
420
 16777215
176
     1
 90
        1
176
     1
 90
        4
176
     1
 62
     7
176
     1
 62
   257
176
     1
 90
        1
176
     1
 90
        1
176
     1
 40
1.0
176
     1
 90
        8
176
     1
 62
     7
176
     1
 40
1.0
176
     1
 90
        1
176
     1
 90
        6
176
     1
 90
        2
176
     1
 62
     7
176
     1
 90
        5
176
     1
 90
        0
176
     1
 90
        0
176
     1
290
     0
176
     1
 90
        1
176
     1
 40
-50.0
176
     1
 90
        0
176
     1
290
     0
176
     1
290
     1
176
     1
290
     1
176
     1
290
     0
176
     1
290
     0
176
     1
290
     0
176
     1
290
     0
176
     1
290
     0
176
     1
290
     0
176
     1
 90
       50
176
     1
 40
0.0
176
     1
 40
1.0
176
     1
 90
        0
176
     1
 62
    18
176
     1
 90
       50
176
     1
 90
        3
176
     1
 62
     5
420
      255
176
     1
290
     0
176
     1
 90
       50
176
     1
 90
       50
176
     1
 90
       50
176
     1
290
     0
176
     1
 90
       50
176
     1
 62
   256
176
     0
 40
1.0
176
     0
 90
        2
176
     1
  1
strokes_ogs.tif
176
     1
290
     0
176
     1
 40
1.0
176
     1
 40
1.0
176
     1
1001
ACAD
1000
AcDbSavedByObjectVersion
1070
     0
  0
VISUALSTYLE
  5
3D
102
{ACAD_REACTORS
330
2A
102
}
330
2A
100
AcDbVisualStyle
  2
EdgeColorOff
 70
    22
177
     3
291
     1
 70
    58
 90
        2
176
     0
 90
        2
176
     0
 90
        0
176
     0
 90
        0
176
     0
 40
0.6
176
     0
 40
30.0
176
     0
 62
     7
420
 16777215
176
     0
 90
        1
176
     0
 90
        4
176
     0
 62
     7
176
     0
 62
   257
176
     0
 90
        1
176
     0
 90
        1
176
     0
 40
1.0
176
     0
 90
        8
176
     2
 62
     7
176
     0
 40
1.0
176
     0
 90
        1
176
     0
 90
        6
176
     0
 90
        2
176
     0
 62
     7
176
     0
 90
        5
176
     0
 90
        0
176
     0
 90
        0
176
     0
290
     0
176
     0
 90
        1
176
     0
 40
0.0
176
     0
 90
        0
176
     0
290
     0
176
     0
290
     1
176
     0
290
     1
176
     0
290
     0
176
     0
290
     0
176
     0
290
     0
176
     0
290
     0
176
     0
290
     0
176
     0
290
     0
176
     0
 90
       50
176
     0
 40
0.0
176
     0
 40
1.0
176
     0
 90
        0
176
     0
 62
    18
176
     0
 90
       50
176
     0
 90
        3
176
     0
 62
     5
420
      255
176
     0
290
     0
176
     0
 90
       50
176
     0
 90
       50
176
     0
 90
       50
176
     0
290
     0
176
     0
 90
       50
176
     0
 62
   256
176
     0
 40
1.0
176
     0
 90
        2
176
     0
  1
strokes_ogs.tif
176
     0
290
     0
176
     0
 40
1.0
176
     0
 40
1.0
176
     0
1001
ACAD
1000
AcDbSavedByObjectVersion
1070
     0
  0
VISUALSTYLE
  5
39
102
{ACAD_REACTORS
330
2A
102
}
330
2A
100
AcDbVisualStyle
  2
Facepattern
 70
    15
177
     3
291
     1
 70
    58
 90
        2
176
     1
 90
        2
176
     1
 90
        0
176
     1
 90
        0
176
     1
 40
0.6
176
     1
 40
30.0
176
     1
 62
     7
420
 16777215
176
     1
 90
        1
176
     1
 90
        4
176
     1
 62
     7
176
     1
 62
   257
176
     1
 90
        1
176
     1
 90
        1
176
     1
 40
1.0
176
     1
 90
        8
176
     1
 62
     7
176
     1
 40
1.0
176
     1
 90
        1
176
     1
 90
        6
176
     1
 90
        2
176
     1
 62
     7
176
     1
 90
        5
176
     1
 90
        0
176
     1
 90
        0
176
     1
290
     0
176
     1
 90
        1
176
     1
 40
0.0
176
     1
 90
        0
176
     1
290
     0
176
     1
290
     1
176
     1
290
     1
176
     1
290
     0
176
     1
290
     0
176
     1
290
     0
176
     1
290
     0
176
     1
290
     0
176
     1
290
     0
176
     1
 90
       50
176
     1
 40
0.0
176
     1
 40
1.0
176
     1
 90
        0
176
     1
 62
    18
176
     1
 90
       50
176
     1
 90
        3
176
     1
 62
     5
420
      255
176
     1
290
     0
176
     1
 90
       50
176
     1
 90
       50
176
     1
 90
       50
176
     1
290
     0
176
     1
 90
       50
176
     1
 62
   256
176
     0
 40
1.0
176
     0
 90
        2
176
     1
  1
strokes_ogs.tif
176
     1
290
     0
176
     1
 40
1.0
176
     1
 40
1.0
176
     1
1001
ACAD
1000
AcDbSavedByObjectVersion
1070
     0
  0
VISUALSTYLE
  5
2B
102
{ACAD_REACTORS
330
2A
102
}
330
2A
100
AcDbVisualStyle
  2
Flat
 70
     0
177
     3
291
     1
 70
    58
 90
        2
176
     1
 90
        1
176
     1
 90
        1
176
     1
 90
        2
176
     1
 40
0.6
176
     1
 40
30.0
176
     1
 62
     7
420
 16777215
176
     1
 90
        0
176
     1
 90
        0
176
     1
 62
     7
176
     1
 62
   257
176
     1
 90
        1
176
     1
 90
        1
176
     1
 40
1.0
176
     1
 90
        8
176
     1
 62
     7
176
     1
 40
1.0
176
     1
 90
        1
176
     1
 90
        6
176
     1
 90
        2
176
     1
 62
     7
176
     1
 90
        5
176
     1
 90
        0
176
     1
 90
        0
176
     1
290
     0
176
     1
 90
       13
176
     1
 40
0.0
176
     1
 90
        0
176
     1
290
     0
176
     1
290
     1
176
     1
290
     1
176
     1
290
     0
176
     1
290
     0
176
     1
290
     0
176
     1
290
     0
176
     1
290
     0
176
     1
290
     0
176
     1
 90
       50
176
     1
 40
0.0
176
     1
 40
1.0
176
     1
 90
        0
176
     1
 62
    18
176
     1
 90
       50
176
     1
 90
        3
176
     1
 62
     5
420
      255
176
     1
290
     0
176
     1
 90
       50
176
     1
 90
       50
176
     1
 90
       50
176
     1
290
     0
176
     1
 90
       50
176
     1
 62
   256
176
     0
 40
1.0
176
     0
 90
        2
176
     1
  1
strokes_ogs.tif
176
     1
290
     0
176
     1
 40
1.0
176
     1
 40
1.0
176
     1
1001
ACAD
1000
AcDbSavedByObjectVersion
1070
     0
  0
VISUALSTYLE
  5
2C
102
{ACAD_REACTORS
330
2A
102
}
330
2A
100
AcDbVisualStyle
  2
FlatWithEdges
 70
     1
177
     3
291
     1
 70
    58
 90
        2
176
     1
 90
        1
176
     1
 90
        1
176
     1
 90
        2
176
     1
 40
0.6
176
     1
 40
30.0
176
     1
 62
     7
420
 16777215
176
     1
 90
        1
176
     1
 90
        0
176
     1
 62
     7
176
     1
 62
   257
176
     1
 90
        1
176
     1
 90
        1
176
     1
 40
1.0
176
     1
 90
        0
176
     1
 62
   257
176
     1
 40
1.0
176
     1
 90
        1
176
     1
 90
        6
176
     1
 90
        2
176
     1
 62
     7
176
     1
 90
        5
176
     1
 90
        0
176
     1
 90
        0
176
     1
290
     0
176
     1
 90
       13
176
     1
 40
0.0
176
     1
 90
        0
176
     1
290
     0
176
     1
290
     1
176
     1
290
     1
176
     1
290
     0
176
     1
290
     0
176
     1
290
     0
176
     1
290
     0
176
     1
290
     0
176
     1
290
     0
176
     1
 90
       50
176
     1
 40
0.0
176
     1
 40
1.0
176
     1
 90
        0
176
     1
 62
    18
176
     1
 90
       50
176
     1
 90
        3
176
     1
 62
     5
420
      255
176
     1
290
     0
176
     1
 90
       50
176
     1
 90
       50
176
     1
 90
       50
176
     1
290
     0
176
     1
 90
       50
176
     1
 62
   256
176
     0
 40
1.0
176
     0
 90
        2
176
     1
  1
strokes_ogs.tif
176
     1
290
     0
176
     1
 40
1.0
176
     1
 40
1.0
176
     1
1001
ACAD
1000
AcDbSavedByObjectVersion
1070
     0
  0
VISUALSTYLE
  5
2D
102
{ACAD_REACTORS
330
2A
102
}
330
2A
100
AcDbVisualStyle
  2
Gouraud
 70
     2
177
     3
291
     1
 70
    58
 90
        2
176
     1
 90
        2
176
     1
 90
        1
176
     1
 90
        2
176
     1
 40
0.6
176
     1
 40
30.0
176
     1
 62
     7
420
 16777215
176
     1
 90
        0
176
     1
 90
        0
176
     1
 62
     7
176
     1
 62
   257
176
     1
 90
        1
176
     1
 90
        1
176
     1
 40
1.0
176
     1
 90
        0
176
     1
 62
     7
176
     1
 40
1.0
176
     1
 90
        1
176
     1
 90
        6
176
     1
 90
        2
176
     1
 62
     7
176
     1
 90
        5
176
     1
 90
        0
176
     1
 90
        0
176
     1
290
     0
176
     1
 90
       13
176
     1
 40
0.0
176
     1
 90
        0
176
     1
290
     0
176
     1
290
     1
176
     1
290
     1
176
     1
290
     0
176
     1
290
     0
176
     1
290
     0
176
     1
290
     0
176
     1
290
     0
176
     1
290
     0
176
     1
 90
       50
176
     1
 40
0.0
176
     1
 40
1.0
176
     1
 90
        0
176
     1
 62
    18
176
     1
 90
       50
176
     1
 90
        3
176
     1
 62
     5
420
      255
176
     1
290
     0
176
     1
 90
       50
176
     1
 90
       50
176
     1
 90
       50
176
     1
290
     0
176
     1
 90
       50
176
     1
 62
   256
176
     0
 40
1.0
176
     0
 90
        2
176
     1
  1
strokes_ogs.tif
176
     1
290
     0
176
     1
 40
1.0
176
     1
 40
1.0
176
     1
1001
ACAD
1000
AcDbSavedByObjectVersion
1070
     0
  0
VISUALSTYLE
  5
2E
102
{ACAD_REACTORS
330
2A
102
}
330
2A
100
AcDbVisualStyle
  2
GouraudWithEdges
 70
     3
177
     3
291
     1
 70
    58
 90
        2
176
     1
 90
        2
176
     1
 90
        1
176
     1
 90
        2
176
     1
 40
0.6
176
     1
 40
30.0
176
     1
 62
     7
420
 16777215
176
     1
 90
        1
176
     1
 90
        0
176
     1
 62
     7
176
     1
 62
   257
176
     1
 90
        1
176
     1
 90
        1
176
     1
 40
1.0
176
     1
 90
        0
176
     1
 62
   257
176
     1
 40
1.0
176
     1
 90
        1
176
     1
 90
        6
176
     1
 90
        2
176
     1
 62
     7
176
     1
 90
        5
176
     1
 90
        0
176
     1
 90
        0
176
     1
290
     0
176
     1
 90
       13
176
     1
 40
0.0
176
     1
 90
        0
176
     1
290
     0
176
     1
290
     1
176
     1
290
     1
176
     1
290
     0
176
     1
290
     0
176
     1
290
     0
176
     1
290
     0
176
     1
290
     0
176
     1
290
     0
176
     1
 90
       50
176
     1
 40
0.0
176
     1
 40
1.0
176
     1
 90
        0
176
     1
 62
    18
176
     1
 90
       50
176
     1
 90
        3
176
     1
 62
     5
420
      255
176
     1
290
     0
176
     1
 90
       50
176
     1
 90
       50
176
     1
 90
       50
176
     1
290
     0
176
     1
 90
       50
176
     1
 62
   256
176
     0
 40
1.0
176
     0
 90
        2
176
     1
  1
strokes_ogs.tif
176
     1
290
     0
176
     1
 40
1.0
176
     1
 40
1.0
176
     1
1001
ACAD
1000
AcDbSavedByObjectVersion
1070
     0
  0
VISUALSTYLE
  5
31
102
{ACAD_REACTORS
330
2A
102
}
330
2A
100
AcDbVisualStyle
  2
Hidden
 70
     6
177
     3
291
     0
 70
    58
 90
        1
176
     1
 90
        2
176
     1
 90
        2
176
     1
 90
        0
176
     1
 40
0.6
176
     1
 40
30.0
176
     1
 62
     7
420
 16777215
176
     1
 90
        2
176
     1
 90
        2
176
     1
 62
     7
176
     1
 62
   257
176
     1
 90
        2
176
     1
 90
        1
176
     1
 40
40.0
176
     1
 90
        0
176
     1
 62
   257
176
     1
 40
1.0
176
     1
 90
        1
176
     1
 90
        6
176
     1
 90
        2
176
     1
 62
     7
176
     1
 90
        3
176
     1
 90
        0
176
     1
 90
        0
176
     1
290
     0
176
     1
 90
        1
176
     1
 40
0.0
176
     1
 90
        0
176
     1
290
     0
176
     1
290
     1
176
     1
290
     1
176
     1
290
     0
176
     1
290
     0
176
     1
290
     0
176
     1
290
     0
176
     1
290
     0
176
     1
290
     0
176
     1
 90
       50
176
     1
 40
0.0
176
     1
 40
1.0
176
     1
 90
        0
176
     1
 62
    18
176
     1
 90
       50
176
     1
 90
        3
176
     1
 62
     5
420
      255
176
     1
290
     0
176
     1
 90
       50
176
     1
 90
       50
176
     1
 90
       50
176
     1
290
     0
176
     1
 90
       50
176
     1
 62
   256
176
     0
 40
1.0
176
     0
 90
        2
176
     1
  1
strokes_ogs.tif
176
     1
290
     0
176
     1
 40
1.0
176
     1
 40
1.0
176
     1
1001
ACAD
1000
AcDbSavedByObjectVersion
1070
     0
  0
VISUALSTYLE
  5
3B
102
{ACAD_REACTORS
330
2A
102
}
330
2A
100
AcDbVisualStyle
  2
JitterOff
 70
    20
177
     3
291
     1
 70
    58
 90
        2
176
     0
 90
        2
176
     0
 90
        0
176
     0
 90
        0
176
     0
 40
0.6
176
     0
 40
30.0
176
     0
 62
     7
420
 16777215
176
     0
 90
        1
176
     0
 90
        4
176
     0
 62
     7
176
     0
 62
   257
176
     0
 90
        1
176
     0
 90
        1
176
     0
 40
1.0
176
     0
 90
       10
176
     2
 62
     7
176
     0
 40
1.0
176
     0
 90
        1
176
     0
 90
        6
176
     0
 90
        2
176
     0
 62
     7
176
     0
 90
        5
176
     0
 90
        0
176
     0
 90
        0
176
     0
290
     0
176
     0
 90
        1
176
     0
 40
0.0
176
     0
 90
        0
176
     0
290
     0
176
     0
290
     1
176
     0
290
     1
176
     0
290
     0
176
     0
290
     0
176
     0
290
     0
176
     0
290
     0
176
     0
290
     0
176
     0
290
     0
176
     0
 90
       50
176
     0
 40
0.0
176
     0
 40
1.0
176
     0
 90
        0
176
     0
 62
    18
176
     0
 90
       50
176
     0
 90
        3
176
     0
 62
     5
420
      255
176
     0
290
     0
176
     0
 90
       50
176
     0
 90
       50
176
     0
 90
       50
176
     0
290
     0
176
     0
 90
       50
176
     0
 62
   256
176
     0
 40
1.0
176
     0
 90
        2
176
     0
  1
strokes_ogs.tif
176
     0
290
     0
176
     0
 40
1.0
176
     0
 40
1.0
176
     0
1001
ACAD
1000
AcDbSavedByObjectVersion
1070
     0
  0
VISUALSTYLE
  5
38
102
{ACAD_REACTORS
330
2A
102
}
330
2A
100
AcDbVisualStyle
  2
Linepattern
 70
    14
177
     3
291
     1
 70
    58
 90
        2
176
     1
 90
        2
176
     1
 90
        0
176
     1
 90
        0
176
     1
 40
0.6
176
     1
 40
30.0
176
     1
 62
     7
420
 16777215
176
     1
 90
        1
176
     1
 90
        4
176
     1
 62
     7
176
     1
 62
   257
176
     1
 90
        7
176
     1
 90
        7
176
     1
 40
1.0
176
     1
 90
        8
176
     1
 62
     7
176
     1
 40
1.0
176
     1
 90
        1
176
     1
 90
        6
176
     1
 90
        2
176
     1
 62
     7
176
     1
 90
        5
176
     1
 90
        0
176
     1
 90
        0
176
     1
290
     0
176
     1
 90
        1
176
     1
 40
0.0
176
     1
 90
        0
176
     1
290
     0
176
     1
290
     1
176
     1
290
     1
176
     1
290
     0
176
     1
290
     0
176
     1
290
     0
176
     1
290
     0
176
     1
290
     0
176
     1
290
     0
176
     1
 90
       50
176
     1
 40
0.0
176
     1
 40
1.0
176
     1
 90
        0
176
     1
 62
    18
176
     1
 90
       50
176
     1
 90
        3
176
     1
 62
     5
420
      255
176
     1
290
     0
176
     1
 90
       50
176
     1
 90
       50
176
     1
 90
       50
176
     1
290
     0
176
     1
 90
       50
176
     1
 62
   256
176
     0
 40
1.0
176
     0
 90
        2
176
     1
  1
strokes_ogs.tif
176
     1
290
     0
176
     1
 40
1.0
176
     1
 40
1.0
176
     1
1001
ACAD
1000
AcDbSavedByObjectVersion
1070
     0
  0
VISUALSTYLE
  5
3C
102
{ACAD_REACTORS
330
2A
102
}
330
2A
100
AcDbVisualStyle
  2
OverhangOff
 70
    21
177
     3
291
     1
 70
    58
 90
        2
176
     0
 90
        2
176
     0
 90
        0
176
     0
 90
        0
176
     0
 40
0.6
176
     0
 40
30.0
176
     0
 62
     7
420
 16777215
176
     0
 90
        1
176
     0
 90
        4
176
     0
 62
     7
176
     0
 62
   257
176
     0
 90
        1
176
     0
 90
        1
176
     0
 40
1.0
176
     0
 90
        9
176
     2
 62
     7
176
     0
 40
1.0
176
     0
 90
        1
176
     0
 90
        6
176
     0
 90
        2
176
     0
 62
     7
176
     0
 90
        5
176
     0
 90
        0
176
     0
 90
        0
176
     0
290
     0
176
     0
 90
        1
176
     0
 40
0.0
176
     0
 90
        0
176
     0
290
     0
176
     0
290
     1
176
     0
290
     1
176
     0
290
     0
176
     0
290
     0
176
     0
290
     0
176
     0
290
     0
176
     0
290
     0
176
     0
290
     0
176
     0
 90
       50
176
     0
 40
0.0
176
     0
 40
1.0
176
     0
 90
        0
176
     0
 62
    18
176
     0
 90
       50
176
     0
 90
        3
176
     0
 62
     5
420
      255
176
     0
290
     0
176
     0
 90
       50
176
     0
 90
       50
176
     0
 90
       50
176
     0
290
     0
176
     0
 90
       50
176
     0
 62
   256
176
     0
 40
1.0
176
     0
 90
        2
176
     0
  1
strokes_ogs.tif
176
     0
290
     0
176
     0
 40
1.0
176
     0
 40
1.0
176
     0
1001
ACAD
1000
AcDbSavedByObjectVersion
1070
     0
  0
VISUALSTYLE
  5
33
102
{ACAD_REACTORS
330
2A
102
}
330
2A
100
AcDbVisualStyle
  2
Realistic
 70
     8
177
     3
291
     0
 70
    58
 90
        2
176
     1
 90
        3
176
     1
 90
        0
176
     1
 90
        2
176
     1
 40
0.6
176
     1
 40
30.0
176
     1
 62
     7
420
 16777215
176
     1
 90
        0
176
     1
 90
        0
176
     1
 62
     7
176
     1
 62
   257
176
     1
 90
        1
176
     1
 90
        1
176
     1
 40
1.0
176
     1
 90
        8
176
     1
 62
   257
176
     1
 40
1.0
176
     1
 90
        1
176
     1
 90
        6
176
     1
 90
        2
176
     1
 62
     7
176
     1
 90
        3
176
     1
 90
        0
176
     1
 90
        0
176
     1
290
     0
176
     1
 90
       13
176
     1
 40
0.0
176
     1
 90
        0
176
     1
290
     0
176
     1
290
     1
176
     1
290
     1
176
     1
290
     0
176
     1
290
     0
176
     1
290
     0
176
     1
290
     0
176
     1
290
     0
176
     1
290
     0
176
     1
 90
       50
176
     1
 40
0.0
176
     1
 40
1.0
176
     1
 90
        0
176
     1
 62
    18
176
     1
 90
       50
176
     1
 90
        3
176
     1
 62
     5
420
      255
176
     1
290
     0
176
     1
 90
       50
176
     1
 90
       50
176
     1
 90
       50
176
     1
290
     0
176
     1
 90
       50
176
     1
 62
   256
176
     0
 40
1.0
176
     0
 90
        2
176
     1
  1
strokes_ogs.tif
176
     1
290
     0
176
     1
 40
1.0
176
     1
 40
1.0
176
     1
1001
ACAD
1000
AcDbSavedByObjectVersion
1070
     0
  0
VISUALSTYLE
  5
42
102
{ACAD_REACTORS
330
2A
102
}
330
2A
100
AcDbVisualStyle
  2
Shaded
 70
    27
177
     3
291
     0
 70
    58
 90
        2
176
     1
 90
        2
176
     1
 90
        1
176
     1
 90
        2
176
     1
 40
0.6
176
     1
 40
30.0
176
     1
 62
     7
420
 16777215
176
     1
 90
        0
176
     1
 90
        4
176
     1
 62
     7
176
     1
 62
   257
176
     1
 90
        1
176
     1
 90
        1
176
     1
 40
1.0
176
     1
 90
        8
176
     1
 62
   257
176
     1
 40
1.0
176
     1
 90
        1
176
     1
 90
        6
176
     1
 90
        2
176
     1
 62
     8
420
  7895160
176
     1
 90
        3
176
     1
 90
        0
176
     1
 90
        0
176
     1
290
     0
176
     1
 90
        5
176
     1
 40
0.0
176
     1
 90
        0
176
     1
290
     0
176
     1
290
     1
176
     1
290
     1
176
     1
290
     0
176
     1
290
     0
176
     1
290
     0
176
     1
290
     0
176
     1
290
     0
176
     1
290
     0
176
     1
 90
       50
176
     1
 40
0.0
176
     1
 40
1.0
176
     1
 90
        0
176
     1
 62
    18
176
     1
 90
       50
176
     1
 90
        3
176
     1
 62
     5
420
      255
176
     1
290
     0
176
     1
 90
       50
176
     1
 90
       50
176
     1
 90
       50
176
     1
290
     0
176
     1
 90
       50
176
     1
 62
   256
176
     0
 40
1.0
176
     0
 90
        2
176
     1
  1
strokes_ogs.tif
176
     1
290
     0
176
     1
 40
1.0
176
     1
 40
1.0
176
     1
1001
ACAD
1000
AcDbSavedByObjectVersion
1070
     0
  0
VISUALSTYLE
  5
41
102
{ACAD_REACTORS
330
2A
102
}
330
2A
100
AcDbVisualStyle
  2
Shaded with edges
 70
    26
177
     3
291
     0
 70
    58
 90
        2
176
     1
 90
        2
176
     1
 90
        1
176
     1
 90
        2
176
     1
 40
0.6
176
     1
 40
30.0
176
     1
 62
     7
420
 16777215
176
     1
 90
        1
176
     1
 90
       10
176
     1
 62
     7
176
     1
 62
   257
176
     1
 90
        2
176
     1
 90
        1
176
     1
 40
1.0
176
     1
 90
        8
176
     1
 62
   257
176
     1
 40
1.0
176
     1
 90
        1
176
     1
 90
        6
176
     1
 90
        2
176
     1
 62
     7
176
     1
 90
        3
176
     1
 90
        0
176
     1
 90
        0
176
     1
290
     0
176
     1
 90
        5
176
     1
 40
0.0
176
     1
 90
        0
176
     1
290
     0
176
     1
290
     1
176
     1
290
     1
176
     1
290
     0
176
     1
290
     0
176
     1
290
     0
176
     1
290
     0
176
     1
290
     0
176
     1
290
     0
176
     1
 90
       50
176
     1
 40
0.0
176
     1
 40
1.0
176
     1
 90
        0
176
     1
 62
    18
176
     1
 90
       50
176
     1
 90
        3
176
     1
 62
     5
420
      255
176
     1
290
     0
176
     1
 90
       50
176
     1
 90
       50
176
     1
 90
       50
176
     1
290
     0
176
     1
 90
       50
176
     1
 62
   256
176
     0
 40
1.0
176
     0
 90
        2
176
     1
  1
strokes_ogs.tif
176
     1
290
     0
176
     1
 40
1.0
176
     1
 40
1.0
176
     1
1001
ACAD
1000
AcDbSavedByObjectVersion
1070
     0
  0
VISUALSTYLE
  5
3E
102
{ACAD_REACTORS
330
2A
102
}
330
2A
100
AcDbVisualStyle
  2
Shades of Gray
 70
    23
177
     3
291
     0
 70
    58
 90
        2
176
     1
 90
        2
176
     1
 90
        3
176
     1
 90
        0
176
     1
 40
0.6
176
     1
 40
30.0
176
     1
 62
     7
420
 16777215
176
     1
 90
        2
176
     1
 90
        2
176
     1
 62
     7
176
     1
 62
     7
176
     1
 90
        1
176
     1
 90
        1
176
     1
 40
40.0
176
     1
 90
        8
176
     1
 62
     7
176
     1
 40
1.0
176
     1
 90
        1
176
     1
 90
        6
176
     1
 90
        2
176
     1
 62
     7
176
     1
 90
        3
176
     1
 90
        0
176
     1
 90
        0
176
     1
290
     0
176
     1
 90
        1
176
     1
 40
0.0
176
     1
 90
        0
176
     1
290
     0
176
     1
290
     1
176
     1
290
     1
176
     1
290
     0
176
     1
290
     0
176
     1
290
     0
176
     1
290
     0
176
     1
290
     0
176
     1
290
     0
176
     1
 90
       50
176
     1
 40
0.0
176
     1
 40
1.0
176
     1
 90
        0
176
     1
 62
    18
176
     1
 90
       50
176
     1
 90
        3
176
     1
 62
     5
420
      255
176
     1
290
     0
176
     1
 90
       50
176
     1
 90
       50
176
     1
 90
       50
176
     1
290
     0
176
     1
 90
       50
176
     1
 62
   256
176
     0
 40
1.0
176
     0
 90
        2
176
     1
  1
strokes_ogs.tif
176
     1
290
     0
176
     1
 40
1.0
176
     1
 40
1.0
176
     1
1001
ACAD
1000
AcDbSavedByObjectVersion
1070
     0
  0
VISUALSTYLE
  5
3F
102
{ACAD_REACTORS
330
2A
102
}
330
2A
100
AcDbVisualStyle
  2
Sketchy
 70
    24
177
     3
291
     0
 70
    58
 90
        1
176
     1
 90
        2
176
     1
 90
        2
176
     1
 90
        0
176
     1
 40
0.6
176
     1
 40
30.0
176
     1
 62
     7
420
 16777215
176
     1
 90
        2
176
     1
 90
        2
176
     1
 62
     7
176
     1
 62
     7
176
     1
 90
        1
176
     1
 90
        1
176
     1
 40
40.0
176
     1
 90
       11
176
     1
 62
     7
176
     1
 40
1.0
176
     1
 90
        1
176
     1
 90
        6
176
     1
 90
        2
176
     1
 62
     7
176
     1
 90
        6
176
     1
 90
        0
176
     1
 90
        0
176
     1
290
     0
176
     1
 90
        1
176
     1
 40
0.0
176
     1
 90
        0
176
     1
290
     0
176
     1
290
     1
176
     1
290
     1
176
     1
290
     0
176
     1
290
     0
176
     1
290
     0
176
     1
290
     0
176
     1
290
     0
176
     1
290
     0
176
     1
 90
       50
176
     1
 40
0.0
176
     1
 40
1.0
176
     1
 90
        0
176
     1
 62
    18
176
     1
 90
       50
176
     1
 90
        3
176
     1
 62
     5
420
      255
176
     1
290
     0
176
     1
 90
       50
176
     1
 90
       50
176
     1
 90
       50
176
     1
290
     0
176
     1
 90
       50
176
     1
 62
   256
176
     0
 40
1.0
176
     0
 90
        2
176
     1
  1
strokes_ogs.tif
176
     1
290
     0
176
     1
 40
1.0
176
     1
 40
1.0
176
     1
1001
ACAD
1000
AcDbSavedByObjectVersion
1070
     0
  0
VISUALSTYLE
  5
37
102
{ACAD_REACTORS
330
2A
102
}
330
2A
100
AcDbVisualStyle
  2
Thicken
 70
    13
177
     3
291
     1
 70
    58
 90
        2
176
     1
 90
        2
176
     1
 90
        0
176
     1
 90
        0
176
     1
 40
0.6
176
     1
 40
30.0
176
     1
 62
     7
420
 16777215
176
     1
 90
        1
176
     1
 90
        4
176
     1
 62
     7
176
     1
 62
   257
176
     1
 90
        1
176
     1
 90
        1
176
     1
 40
1.0
176
     1
 90
       12
176
     1
 62
     7
176
     1
 40
1.0
176
     1
 90
        1
176
     1
 90
        6
176
     1
 90
        2
176
     1
 62
     7
176
     1
 90
        5
176
     1
 90
        0
176
     1
 90
        0
176
     1
290
     0
176
     1
 90
        1
176
     1
 40
0.0
176
     1
 90
        0
176
     1
290
     0
176
     1
290
     1
176
     1
290
     1
176
     1
290
     0
176
     1
290
     0
176
     1
290
     0
176
     1
290
     0
176
     1
290
     0
176
     1
290
     0
176
     1
 90
       50
176
     1
 40
0.0
176
     1
 40
1.0
176
     1
 90
        0
176
     1
 62
    18
176
     1
 90
       50
176
     1
 90
        3
176
     1
 62
     5
420
      255
176
     1
290
     0
176
     1
 90
       50
176
     1
 90
       50
176
     1
 90
       50
176
     1
290
     0
176
     1
 90
       50
176
     1
 62
   256
176
     0
 40
1.0
176
     0
 90
        2
176
     1
  1
strokes_ogs.tif
176
     1
290
     0
176
     1
 40
1.0
176
     1
 40
1.0
176
     1
1001
ACAD
1000
AcDbSavedByObjectVersion
1070
     0
  0
VISUALSTYLE
  5
30
102
{ACAD_REACTORS
330
2A
102
}
330
2A
100
AcDbVisualStyle
  2
Wireframe
 70
     5
177
     3
291
     0
 70
    58
 90
        0
176
     1
 90
        2
176
     1
 90
        0
176
     1
 90
        0
176
     1
 40
0.6
176
     1
 40
30.0
176
     1
 62
     7
420
 16777215
176
     1
 90
        1
176
     1
 90
        4
176
     1
 62
     7
176
     1
 62
   257
176
     1
 90
        1
176
     1
 90
        1
176
     1
 40
1.0
176
     1
 90
        0
176
     1
 62
   257
176
     1
 40
1.0
176
     1
 90
        1
176
     1
 90
        6
176
     1
 90
        2
176
     1
 62
     7
176
     1
 90
        3
176
     1
 90
        0
176
     1
 90
        0
176
     1
290
     0
176
     1
 90
        1
176
     1
 40
0.0
176
     1
 90
        0
176
     1
290
     0
176
     1
290
     1
176
     1
290
     1
176
     1
290
     0
176
     1
290
     0
176
     1
290
     0
176
     1
290
     0
176
     1
290
     0
176
     1
290
     0
176
     1
 90
       50
176
     1
 40
0.0
176
     1
 40
1.0
176
     1
 90
        0
176
     1
 62
    18
176
     1
 90
       50
176
     1
 90
        3
176
     1
 62
     5
420
      255
176
     1
290
     0
176
     1
 90
       50
176
     1
 90
       50
176
     1
 90
       50
176
     1
290
     0
176
     1
 90
       50
176
     1
 62
   256
176
     0
 40
1.0
176
     0
 90
        2
176
     1
  1
strokes_ogs.tif
176
     1
290
     0
176
     1
 40
1.0
176
     1
 40
1.0
176
     1
1001
ACAD
1000
AcDbSavedByObjectVersion
1070
     0
  0
VISUALSTYLE
  5
40
102
{ACAD_REACTORS
330
2A
102
}
330
2A
100
AcDbVisualStyle
  2
X-Ray
 70
    25
177
     3
291
     0
 70
    58
 90
        2
176
     1
 90
        2
176
     1
 90
        1
176
     1
 90
        1
176
     1
 40
0.5
176
     1
 40
30.0
176
     1
 62
     7
420
 16777215
176
     1
 90
        1
176
     1
 90
        0
176
     1
 62
     7
176
     1
 62
   257
176
     1
 90
        1
176
     1
 90
        1
176
     1
 40
1.0
176
     1
 90
        8
176
     1
 62
     7
176
     1
 40
1.0
176
     1
 90
        1
176
     1
 90
        6
176
     1
 90
        2
176
     1
 62
     7
176
     1
 90
        3
176
     1
 90
        0
176
     1
 90
        0
176
     1
290
     0
176
     1
 90
       13
176
     1
 40
0.0
176
     1
 90
        0
176
     1
290
     0
176
     1
290
     1
176
     1
290
     1
176
     1
290
     0
176
     1
290
     0
176
     1
290
     0
176
     1
290
     0
176
     1
290
     0
176
     1
290
     0
176
     1
 90
       50
176
     1
 40
0.0
176
     1
 40
1.0
176
     1
 90
        0
176
     1
 62
    18
176
     1
 90
       50
176
     1
 90
        3
176
     1
 62
     5
420
      255
176
     1
290
     0
176
     1
 90
       50
176
     1
 90
       50
176
     1
 90
       50
176
     1
290
     0
176
     1
 90
       50
176
     1
 62
   256
176
     0
 40
1.0
176
     0
 90
        2
176
     1
  1
strokes_ogs.tif
176
     1
290
     0
176
     1
 40
1.0
176
     1
 40
1.0
176
     1
1001
ACAD
1000
AcDbSavedByObjectVersion
1070
     0
  0
DICTIONARYVAR
  5
108
102
{ACAD_REACTORS
330
107
102
}
330
107
100
DictionaryVariables
280
     0
  1
1:1
  0
DICTIONARYVAR
  5
110
102
{ACAD_REACTORS
330
107
102
}
330
107
100
DictionaryVariables
280
     0
  1
3.500000
  0
DICTIONARYVAR
  5
111
102
{ACAD_REACTORS
330
107
102
}
330
107
100
DictionaryVariables
280
     0
  1
acadiso.lin
  0
DICTIONARYVAR
  5
10D
102
{ACAD_REACTORS
330
107
102
}
330
107
100
DictionaryVariables
280
     0
  1
STANDARD
  0
DICTIONARYVAR
  5
10C
102
{ACAD_REACTORS
330
107
102
}
330
107
100
DictionaryVariables
280
     0
  1
STANDARD
  0
DICTIONARYVAR
  5
485
102
{ACAD_REACTORS
330
107
102
}
330
107
100
DictionaryVariables
280
     0
  1
Metric50
  0
DICTIONARYVAR
  5
486
102
{ACAD_REACTORS
330
107
102
}
330
107
100
DictionaryVariables
280
     0
  1
Metric50
  0
DICTIONARY
  5
2028
102
{ACAD_REACTORS
330
2026
102
}
330
2026
100
AcDbDictionary
281
     1
  0
DICTIONARY
  5
2027
102
{ACAD_REACTORS
330
2026
102
}
330
2026
100
AcDbDictionary
281
     1
  3
2658232954000
350
2021
  3
2658232954016
350
2022
  3
2658232954032
350
2023
  3
2658232954048
350
2024
  3
2658232954064
350
2025
  0
DICTIONARY
  5
202B
330
116
100
AcDbDictionary
280
     1
281
     1
  3
ACAD_XREC_ROUNDTRIP
360
202C
  0
DICTIONARY
  5
2029
330
115
100
AcDbDictionary
280
     1
281
     1
  3
ACAD_XREC_ROUNDTRIP
360
202A
  0
DICTIONARY
  5
109
330
6A
100
AcDbDictionary
280
     1
281
     1
  3
ACAD_ROUNDTRIP_2008_TABLESTYLE_CELLSTYLEMAP
360
201F
  0
XRECORD
  5
2021
102
{ACAD_REACTORS
330
2027
102
}
330
2027
100
AcDbXrecord
280
     1
  1
AcDb_Thumbnail_Schema
102
{ATTRRECORD
341
2022
  2
AcDbDs::TreatedAsObjectData
280
     1
291
     1
102
ATTRRECORD}
102
{ATTRRECORD
341
2023
  2
AcDbDs::Legacy
280
     1
291
     1
102
ATTRRECORD}
  2
AcDbDs::ID
280
    10
 91
        8
102
{ATTRRECORD
341
2024
  2
AcDs:Indexable
280
     1
291
     1
102
ATTRRECORD}
102
{ATTRRECORD
341
2025
  2
AcDbDs::HandleAttribute
280
     7
282
     1
102
ATTRRECORD}
  2
Thumbnail_Data
280
    15
 91
        0
  0
XRECORD
  5
2022
102
{ACAD_REACTORS
330
2027
102
}
330
2027
100
AcDbXrecord
280
     1
  1
AcDbDs::TreatedAsObjectDataSchema
  2
AcDbDs::TreatedAsObjectData
280
     1
 91
        0
  0
XRECORD
  5
2023
102
{ACAD_REACTORS
330
2027
102
}
330
2027
100
AcDbXrecord
280
     1
  1
AcDbDs::LegacySchema
  2
AcDbDs::Legacy
280
     1
 91
        0
  0
XRECORD
  5
2024
102
{ACAD_REACTORS
330
2027
102
}
330
2027
100
AcDbXrecord
280
     1
  1
AcDbDs::IndexedPropertySchema
  2
AcDs:Indexable
280
     1
 91
        0
  0
XRECORD
  5
2025
102
{ACAD_REACTORS
330
2027
102
}
330
2027
100
AcDbXrecord
280
     1
  1
AcDbDs::HandleAttributeSchema
  2
AcDbDs::HandleAttribute
280
     7
 91
        1
284
     1
  0
XRECORD
  5
202C
102
{ACAD_REACTORS
330
202B
102
}
330
202B
100
AcDbXrecord
280
     1
102
DISPLAYNAME
  1
Metric50
102
FLAGS
 90
        0
  0
XRECORD
  5
202A
102
{ACAD_REACTORS
330
2029
102
}
330
2029
100
AcDbXrecord
280
     1
102
DISPLAYNAME
  1
Metric50
102
FLAGS
 90
        0
  0
CELLSTYLEMAP
  5
201F
102
{ACAD_REACTORS
330
109
102
}
330
109
100
AcDbCellStyleMap
 90
        3
300
CELLSTYLE
  1
TABLEFORMAT_BEGIN
 90
        5
170
     1
 91
        0
 92
    32768
 62
   257
 93
        1
300
CONTENTFORMAT
  1
CONTENTFORMAT_BEGIN
 90
        0
 91
        0
 92
        4
 93
        0
300

 40
0.0
140
1.0
 94
        5
 62
     0
340
11
144
6.0
309
CONTENTFORMAT_END
171
     1
301
MARGIN
  1
CELLMARGIN_BEGIN
 40
1.5
 40
1.5
 40
1.5
 40
1.5
 40
0.18
 40
0.18
309
CELLMARGIN_END
 94
        6
 95
        1
302
GRIDFORMAT
  1
GRIDFORMAT_BEGIN
 90
        0
 91
        1
 62
     0
 92
       -2
340
14
 93
        0
 40
0.045
309
GRIDFORMAT_END
 95
        2
302
GRIDFORMAT
  1
GRIDFORMAT_BEGIN
 90
        0
 91
        1
 62
     0
 92
       -2
340
14
 93
        0
 40
0.045
309
GRIDFORMAT_END
 95
        4
302
GRIDFORMAT
  1
GRIDFORMAT_BEGIN
 90
        0
 91
        1
 62
     0
 92
       -2
340
14
 93
        0
 40
0.045
309
GRIDFORMAT_END
 95
        8
302
GRIDFORMAT
  1
GRIDFORMAT_BEGIN
 90
        0
 91
        1
 62
     0
 92
       -2
340
14
 93
        0
 40
0.045
309
GRIDFORMAT_END
 95
       16
302
GRIDFORMAT
  1
GRIDFORMAT_BEGIN
 90
        0
 91
        1
 62
     0
 92
       -2
340
14
 93
        0
 40
0.045
309
GRIDFORMAT_END
 95
       32
302
GRIDFORMAT
  1
GRIDFORMAT_BEGIN
 90
        0
 91
        1
 62
     0
 92
       -2
340
14
 93
        0
 40
0.045
309
GRIDFORMAT_END
309
TABLEFORMAT_END
  1
CELLSTYLE_BEGIN
 90
        1
 91
        1
300
_TITLE
309
CELLSTYLE_END
300
CELLSTYLE
  1
TABLEFORMAT_BEGIN
 90
        5
170
     1
 91
        0
 92
        0
 62
   257
 93
        1
300
CONTENTFORMAT
  1
CONTENTFORMAT_BEGIN
 90
        0
 91
        0
 92
        4
 93
        0
300

 40
0.0
140
1.0
 94
        5
 62
     0
340
11
144
4.5
309
CONTENTFORMAT_END
171
     1
301
MARGIN
  1
CELLMARGIN_BEGIN
 40
1.5
 40
1.5
 40
1.5
 40
1.5
 40
0.18
 40
0.18
309
CELLMARGIN_END
 94
        6
 95
        1
302
GRIDFORMAT
  1
GRIDFORMAT_BEGIN
 90
        0
 91
        1
 62
     0
 92
       -2
340
14
 93
        0
 40
0.045
309
GRIDFORMAT_END
 95
        2
302
GRIDFORMAT
  1
GRIDFORMAT_BEGIN
 90
        0
 91
        1
 62
     0
 92
       -2
340
14
 93
        0
 40
0.045
309
GRIDFORMAT_END
 95
        4
302
GRIDFORMAT
  1
GRIDFORMAT_BEGIN
 90
        0
 91
        1
 62
     0
 92
       -2
340
14
 93
        0
 40
0.045
309
GRIDFORMAT_END
 95
        8
302
GRIDFORMAT
  1
GRIDFORMAT_BEGIN
 90
        0
 91
        1
 62
     0
 92
       -2
340
14
 93
        0
 40
0.045
309
GRIDFORMAT_END
 95
       16
302
GRIDFORMAT
  1
GRIDFORMAT_BEGIN
 90
        0
 91
        1
 62
     0
 92
       -2
340
14
 93
        0
 40
0.045
309
GRIDFORMAT_END
 95
       32
302
GRIDFORMAT
  1
GRIDFORMAT_BEGIN
 90
        0
 91
        1
 62
     0
 92
       -2
340
14
 93
        0
 40
0.045
309
GRIDFORMAT_END
309
TABLEFORMAT_END
  1
CELLSTYLE_BEGIN
 90
        2
 91
        1
300
_HEADER
309
CELLSTYLE_END
300
CELLSTYLE
  1
TABLEFORMAT_BEGIN
 90
        5
170
     1
 91
        0
 92
        0
 62
   257
 93
        1
300
CONTENTFORMAT
  1
CONTENTFORMAT_BEGIN
 90
        0
 91
        0
 92
        4
 93
        0
300

 40
0.0
140
1.0
 94
        2
 62
     0
340
11
144
4.5
309
CONTENTFORMAT_END
171
     1
301
MARGIN
  1
CELLMARGIN_BEGIN
 40
1.5
 40
1.5
 40
1.5
 40
1.5
 40
0.18
 40
0.18
309
CELLMARGIN_END
 94
        6
 95
        1
302
GRIDFORMAT
  1
GRIDFORMAT_BEGIN
 90
        0
 91
        1
 62
     0
 92
       -2
340
14
 93
        0
 40
0.045
309
GRIDFORMAT_END
 95
        2
302
GRIDFORMAT
  1
GRIDFORMAT_BEGIN
 90
        0
 91
        1
 62
     0
 92
       -2
340
14
 93
        0
 40
0.045
309
GRIDFORMAT_END
 95
        4
302
GRIDFORMAT
  1
GRIDFORMAT_BEGIN
 90
        0
 91
        1
 62
     0
 92
       -2
340
14
 93
        0
 40
0.045
309
GRIDFORMAT_END
 95
        8
302
GRIDFORMAT
  1
GRIDFORMAT_BEGIN
 90
        0
 91
        1
 62
     0
 92
       -2
340
14
 93
        0
 40
0.045
309
GRIDFORMAT_END
 95
       16
302
GRIDFORMAT
  1
GRIDFORMAT_BEGIN
 90
        0
 91
        1
 62
     0
 92
       -2
340
14
 93
        0
 40
0.045
309
GRIDFORMAT_END
 95
       32
302
GRIDFORMAT
  1
GRIDFORMAT_BEGIN
 90
        0
 91
        1
 62
     0
 92
       -2
340
14
 93
        0
 40
0.045
309
GRIDFORMAT_END
309
TABLEFORMAT_END
  1
CELLSTYLE_BEGIN
 90
        3
 91
        2
300
_DATA
309
CELLSTYLE_END
  0
ENDSEC
  0
SECTION
  2
ACDSDATA
 70
     2
 71
     8
  0
ACDSSCHEMA
 90
        0
  1
AcDb_Thumbnail_Schema
  2
AcDbDs::ID
280
    10
 91
        8
  2
Thumbnail_Data
280
    15
 91
        0
101
ACDSRECORD
 95
        0
 90
        1
  2
AcDbDs::TreatedAsObjectData
280
     1
291
     1
101
ACDSRECORD
 95
        0
 90
        2
  2
AcDbDs::Legacy
280
     1
291
     1
101
ACDSRECORD
  1
AcDbDs::ID
 90
        3
  2
AcDs:Indexable
280
     1
291
     1
101
ACDSRECORD
  1
AcDbDs::ID
 90
        4
  2
AcDbDs::HandleAttribute
280
     7
282
     1
  0
ACDSSCHEMA
 90
        1
  1
AcDbDs::TreatedAsObjectDataSchema
  2
AcDbDs::TreatedAsObjectData
280
     1
 91
        0
  0
ACDSSCHEMA
 90
        2
  1
AcDbDs::LegacySchema
  2
AcDbDs::Legacy
280
     1
 91
        0
  0
ACDSSCHEMA
 90
        3
  1
AcDbDs::IndexedPropertySchema
  2
AcDs:Indexable
280
     1
 91
        0
  0
ACDSSCHEMA
 90
        4
  1
AcDbDs::HandleAttributeSchema
  2
AcDbDs::HandleAttribute
280
     7
 91
        1
284
     1
  0
ACDSRECORD
 90
        0
  2
AcDbDs::ID
280
    10
320
22
  2
Thumbnail_Data
280
    15
 94
     1167
310
89504E470D0A1A0A0000000D49484452000001000000007B0803000000AC3EAEE200000300504C5445FFFFFFFFFFFFFFFFFF0000000000000000000000000000000000000000000000000000330000660000990000CC0000FF0033000033330033660033990033CC0033FF0066000066330066660066990066CC0066FF0099
310
000099330099660099990099CC0099FF00CC0000CC3300CC6600CC9900CCCC00CCFF00FF0000FF3300FF6600FF9900FFCC00FFFF3300003300333300663300993300CC3300FF3333003333333333663333993333CC3333FF3366003366333366663366993366CC3366FF3399003399333399663399993399CC3399FF33CC00
310
33CC3333CC6633CC9933CCCC33CCFF33FF0033FF3333FF6633FF9933FFCC33FFFF6600006600336600666600996600CC6600FF6633006633336633666633996633CC6633FF6666006666336666666666996666CC6666FF6699006699336699666699996699CC6699FF66CC0066CC3366CC6666CC9966CCCC66CCFF66FF0066
310
FF3366FF6666FF9966FFCC66FFFF9900009900339900669900999900CC9900FF9933009933339933669933999933CC9933FF9966009966339966669966999966CC9966FF9999009999339999669999999999CC9999FF99CC0099CC3399CC6699CC9999CCCC99CCFF99FF0099FF3399FF6699FF9999FFCC99FFFFCC0000CC00
310
33CC0066CC0099CC00CCCC00FFCC3300CC3333CC3366CC3399CC33CCCC33FFCC6600CC6633CC6666CC6699CC66CCCC66FFCC9900CC9933CC9966CC9999CC99CCCC99FFCCCC00CCCC33CCCC66CCCC99CCCCCCCCCCFFCCFF00CCFF33CCFF66CCFF99CCFFCCCCFFFFFF0000FF0033FF0066FF0099FF00CCFF00FFFF3300FF3333
310
FF3366FF3399FF33CCFF33FFFF6600FF6633FF6666FF6699FF66CCFF66FFFF9900FF9933FF9966FF9999FF99CCFF99FFFFCC00FFCC33FFCC66FFCC99FFCCCCFFCCFFFFFF00FFFF33FFFF66FFFF99FFFFCCFFFFFF0000000D0D0D1A1A1A2828283535354343435050505D5D5D6B6B6B787878868686939393A1A1A1AEAEAEBB
310
BBBBC9C9C9D6D6D6E4E4E4F1F1F1FFFFFF000000000000000000000000000000000000000000000000000000000000AD4AB4E4000000CF4944415478DAEDDA310EC2400C0440FFFF997E090548244439AE4014DE9982004AE395B17C11550000000000000000F053FDB6B86772FD1B652ED31953FF22819E9B402F3E6574C0
310
6E00951C404F0EA0C30338D51C38023603281D508387407F1FF59303D858857B7207F4D9DDF702A8D1C7A1D52F202180D7FC5B9C869FF76476C0B10B000060D82A7CBC440610BEEBF7C7550784961F1AC1DD23B1A8042EEF224760EC1814C0E55500917B70EC36BCF7171901084000C38760E53E12B008859F850000000000
310
0000000000E05F1EFDC30AACF15B5EFF0000000049454E44AE42608257AD5BFD7901EC6F0920A4069C6A8B371AFD87EDB0F91F78299C7C3C9E3407D2AA4065AF80AF5E9AEA5B04051019C073316406504300916BA036BB02E135203480D0CB800004200001084000C10D81F87EC0D878676884C97E2E000000000000000000
310
C07FFA0184F1DA223CE535400000000049454E44AE426082
  0
ENDSEC
  0
EOF
