  0
SECTION
  2
HEADER
  9
$ACADVER
  1
AC1027
  9
$ACADMAINTVER
 70
   125
  9
$DWGCODEPAGE
  3
ANSI_1252
  9
$LASTSAVEDBY
  1
kaschu
  9
$REQUIREDVERSIONS
160
                 0
  9
$INSBASE
 10
0.0
 20
0.0
 30
0.0
  9
$EXTMIN
 10
70.1022125040563
 20
62.12810337727296
 30
0.0
  9
$EXTMAX
 10
3202.097232228564
 20
2088.881112827965
 30
0.0
  9
$LIMMIN
 10
0.0
 20
0.0
  9
$LIMMAX
 10
420.0
 20
297.0
  9
$ORTHOMODE
 70
     1
  9
$REGENMODE
 70
     1
  9
$FILLMODE
 70
     1
  9
$QTEXTMODE
 70
     0
  9
$MIRRTEXT
 70
     1
  9
$LTSCALE
 40
1.0
  9
$ATTMODE
 70
     1
  9
$TEXTSIZE
 40
2.5
  9
$TRACEWID
 40
1.0
  9
$TEXTSTYLE
  7
Standard
  9
$CLAYER
  8
0
  9
$CELTYPE
  6
ByLayer
  9
$CECOLOR
 62
   256
  9
$CELTSCALE
 40
1.0
  9
$DISPSILH
 70
     0
  9
$DIMSCALE
 40
1.0
  9
$DIMASZ
 40
2.5
  9
$DIMEXO
 40
0.625
  9
$DIMDLI
 40
3.75
  9
$DIMRND
 40
0.0
  9
$DIMDLE
 40
0.0
  9
$DIMEXE
 40
1.25
  9
$DIMTP
 40
0.0
  9
$DIMTM
 40
0.0
  9
$DIMTXT
 40
2.5
  9
$DIMCEN
 40
2.5
  9
$DIMTSZ
 40
0.0
  9
$DIMTOL
 70
     0
  9
$DIMLIM
 70
     0
  9
$DIMTIH
 70
     0
  9
$DIMTOH
 70
     0
  9
$DIMSE1
 70
     0
  9
$DIMSE2
 70
     0
  9
$DIMTAD
 70
     1
  9
$DIMZIN
 70
     8
  9
$DIMBLK
  1

  9
$DIMASO
 70
     1
  9
$DIMSHO
 70
     1
  9
$DIMPOST
  1

  9
$DIMAPOST
  1

  9
$DIMALT
 70
     0
  9
$DIMALTD
 70
     3
  9
$DIMALTF
 40
0.03937007874016
  9
$DIMLFAC
 40
1.0
  9
$DIMTOFL
 70
     1
  9
$DIMTVP
 40
0.0
  9
$DIMTIX
 70
     0
  9
$DIMSOXD
 70
     0
  9
$DIMSAH
 70
     0
  9
$DIMBLK1
  1

  9
$DIMBLK2
  1

  9
$DIMSTYLE
  2
ISO-25
  9
$DIMCLRD
 70
     0
  9
$DIMCLRE
 70
     0
  9
$DIMCLRT
 70
     0
  9
$DIMTFAC
 40
1.0
  9
$DIMGAP
 40
0.625
  9
$DIMJUST
 70
     0
  9
$DIMSD1
 70
     0
  9
$DIMSD2
 70
     0
  9
$DIMTOLJ
 70
     0
  9
$DIMTZIN
 70
     8
  9
$DIMALTZ
 70
     0
  9
$DIMALTTZ
 70
     0
  9
$DIMUPT
 70
     0
  9
$DIMDEC
 70
     2
  9
$DIMTDEC
 70
     2
  9
$DIMALTU
 70
     2
  9
$DIMALTTD
 70
     3
  9
$DIMTXSTY
  7
Standard
  9
$DIMAUNIT
 70
     0
  9
$DIMADEC
 70
     0
  9
$DIMALTRND
 40
0.0
  9
$DIMAZIN
 70
     0
  9
$DIMDSEP
 70
    44
  9
$DIMATFIT
 70
     3
  9
$DIMFRAC
 70
     0
  9
$DIMLDRBLK
  1

  9
$DIMLUNIT
 70
     2
  9
$DIMLWD
 70
    -2
  9
$DIMLWE
 70
    -2
  9
$DIMTMOVE
 70
     0
  9
$DIMFXL
 40
1.0
  9
$DIMFXLON
 70
     0
  9
$DIMJOGANG
 40
0.7853981633974483
  9
$DIMTFILL
 70
     0
  9
$DIMTFILLCLR
 70
     0
  9
$DIMARCSYM
 70
     0
  9
$DIMLTYPE
  6

  9
$DIMLTEX1
  6

  9
$DIMLTEX2
  6

  9
$DIMTXTDIRECTION
 70
     0
  9
$LUNITS
 70
     2
  9
$LUPREC
 70
     4
  9
$SKETCHINC
 40
1.0
  9
$FILLETRAD
 40
10.0
  9
$AUNITS
 70
     0
  9
$AUPREC
 70
     0
  9
$MENU
  1
.
  9
$ELEVATION
 40
0.0
  9
$PELEVATION
 40
0.0
  9
$THICKNESS
 40
0.0
  9
$LIMCHECK
 70
     0
  9
$CHAMFERA
 40
0.0
  9
$CHAMFERB
 40
0.0
  9
$CHAMFERC
 40
0.0
  9
$CHAMFERD
 40
0.0
  9
$SKPOLY
 70
     0
  9
$TDCREATE
 40
2459082.501111111
  9
$TDUCREATE
 40
2459082.417789201
  9
$TDUPDATE
 40
2459303.361400464
  9
$TDUUPDATE
 40
2459303.278067130
  9
$TDINDWG
 40
0.0125810301
  9
$TDUSRTIMER
 40
0.0125810301
  9
$USRTIMER
 70
     1
  9
$ANGBASE
 50
0.0
  9
$ANGDIR
 70
     0
  9
$PDMODE
 70
     0
  9
$PDSIZE
 40
0.0
  9
$PLINEWID
 40
0.0
  9
$SPLFRAME
 70
     0
  9
$SPLINETYPE
 70
     6
  9
$SPLINESEGS
 70
     8
  9
$HANDSEED
  5
D40
  9
$SURFTAB1
 70
     6
  9
$SURFTAB2
 70
     6
  9
$SURFTYPE
 70
     6
  9
$SURFU
 70
     6
  9
$SURFV
 70
     6
  9
$UCSBASE
  2

  9
$UCSNAME
  2

  9
$UCSORG
 10
0.0
 20
0.0
 30
0.0
  9
$UCSXDIR
 10
1.0
 20
0.0
 30
0.0
  9
$UCSYDIR
 10
0.0
 20
1.0
 30
0.0
  9
$UCSORTHOREF
  2

  9
$UCSORTHOVIEW
 70
     0
  9
$UCSORGTOP
 10
0.0
 20
0.0
 30
0.0
  9
$UCSORGBOTTOM
 10
0.0
 20
0.0
 30
0.0
  9
$UCSORGLEFT
 10
0.0
 20
0.0
 30
0.0
  9
$UCSORGRIGHT
 10
0.0
 20
0.0
 30
0.0
  9
$UCSORGFRONT
 10
0.0
 20
0.0
 30
0.0
  9
$UCSORGBACK
 10
0.0
 20
0.0
 30
0.0
  9
$PUCSBASE
  2

  9
$PUCSNAME
  2

  9
$PUCSORG
 10
0.0
 20
0.0
 30
0.0
  9
$PUCSXDIR
 10
1.0
 20
0.0
 30
0.0
  9
$PUCSYDIR
 10
0.0
 20
1.0
 30
0.0
  9
$PUCSORTHOREF
  2

  9
$PUCSORTHOVIEW
 70
     0
  9
$PUCSORGTOP
 10
0.0
 20
0.0
 30
0.0
  9
$PUCSORGBOTTOM
 10
0.0
 20
0.0
 30
0.0
  9
$PUCSORGLEFT
 10
0.0
 20
0.0
 30
0.0
  9
$PUCSORGRIGHT
 10
0.0
 20
0.0
 30
0.0
  9
$PUCSORGFRONT
 10
0.0
 20
0.0
 30
0.0
  9
$PUCSORGBACK
 10
0.0
 20
0.0
 30
0.0
  9
$USERI1
 70
     0
  9
$USERI2
 70
     0
  9
$USERI3
 70
     0
  9
$USERI4
 70
     0
  9
$USERI5
 70
     0
  9
$USERR1
 40
0.0
  9
$USERR2
 40
0.0
  9
$USERR3
 40
0.0
  9
$USERR4
 40
0.0
  9
$USERR5
 40
0.0
  9
$WORLDVIEW
 70
     1
  9
$SHADEDGE
 70
     3
  9
$SHADEDIF
 70
    70
  9
$TILEMODE
 70
     1
  9
$MAXACTVP
 70
    64
  9
$PINSBASE
 10
0.0
 20
0.0
 30
0.0
  9
$PLIMCHECK
 70
     0
  9
$PEXTMIN
 10
1.000000000000000E+20
 20
1.000000000000000E+20
 30
1.000000000000000E+20
  9
$PEXTMAX
 10
-1.000000000000000E+20
 20
-1.000000000000000E+20
 30
-1.000000000000000E+20
  9
$PLIMMIN
 10
0.0
 20
0.0
  9
$PLIMMAX
 10
420.0
 20
297.0
  9
$UNITMODE
 70
     0
  9
$VISRETAIN
 70
     1
  9
$PLINEGEN
 70
     0
  9
$PSLTSCALE
 70
     1
  9
$TREEDEPTH
 70
  3020
  9
$CMLSTYLE
  2
Standard
  9
$CMLJUST
 70
     0
  9
$CMLSCALE
 40
20.0
  9
$PROXYGRAPHICS
 70
     1
  9
$MEASUREMENT
 70
     1
  9
$CELWEIGHT
370
    -1
  9
$ENDCAPS
280
     0
  9
$JOINSTYLE
280
     0
  9
$LWDISPLAY
290
     0
  9
$INSUNITS
 70
     5
  9
$HYPERLINKBASE
  1

  9
$STYLESHEET
  1

  9
$XEDIT
290
     1
  9
$CEPSNTYPE
380
     0
  9
$PSTYLEMODE
290
     1
  9
$FINGERPRINTGUID
  2
{921A62D8-B26A-40CB-89FE-00D0C55F98C6}
  9
$VERSIONGUID
  2
{13B34ABF-12A3-4249-B43F-5FA954456C71}
  9
$EXTNAMES
290
     1
  9
$PSVPSCALE
 40
0.0
  9
$OLESTARTUP
290
     0
  9
$SORTENTS
280
   127
  9
$INDEXCTL
280
     0
  9
$HIDETEXT
280
     1
  9
$XCLIPFRAME
280
     2
  9
$HALOGAP
280
     0
  9
$OBSCOLOR
 70
   257
  9
$OBSLTYPE
280
     0
  9
$INTERSECTIONDISPLAY
280
     0
  9
$INTERSECTIONCOLOR
 70
   257
  9
$DIMASSOC
280
     2
  9
$PROJECTNAME
  1

  9
$CAMERADISPLAY
290
     0
  9
$LENSLENGTH
 40
50.0
  9
$CAMERAHEIGHT
 40
0.0
  9
$STEPSPERSEC
 40
2.0
  9
$STEPSIZE
 40
6.0
  9
$3DDWFPREC
 40
2.0
  9
$PSOLWIDTH
 40
5.0
  9
$PSOLHEIGHT
 40
80.0
  9
$LOFTANG1
 40
1.570796326794897
  9
$LOFTANG2
 40
1.570796326794897
  9
$LOFTMAG1
 40
0.0
  9
$LOFTMAG2
 40
0.0
  9
$LOFTPARAM
 70
     7
  9
$LOFTNORMALS
280
     1
  9
$LATITUDE
 40
37.795
  9
$LONGITUDE
 40
-122.394
  9
$NORTHDIRECTION
 40
0.0
  9
$TIMEZONE
 70
 -8000
  9
$LIGHTGLYPHDISPLAY
280
     1
  9
$TILEMODELIGHTSYNCH
280
     1
  9
$CMATERIAL
347
44
  9
$SOLIDHIST
280
     0
  9
$SHOWHIST
280
     1
  9
$DWFFRAME
280
     2
  9
$DGNFRAME
280
     2
  9
$REALWORLDSCALE
290
     1
  9
$INTERFERECOLOR
 62
   256
  9
$INTERFEREOBJVS
345
33
  9
$INTERFEREVPVS
346
30
  9
$CSHADOW
280
     0
  9
$SHADOWPLANELOCATION
 40
0.0
  0
ENDSEC
  0
SECTION
  2
CLASSES
  0
CLASS
  1
ACDBDICTIONARYWDFLT
  2
AcDbDictionaryWithDefault
  3
ObjectDBX Classes
 90
        0
 91
        1
280
     0
281
     0
  0
CLASS
  1
VISUALSTYLE
  2
AcDbVisualStyle
  3
ObjectDBX Classes
 90
     4095
 91
       24
280
     0
281
     0
  0
CLASS
  1
MATERIAL
  2
AcDbMaterial
  3
ObjectDBX Classes
 90
     1153
 91
        3
280
     0
281
     0
  0
CLASS
  1
SCALE
  2
AcDbScale
  3
ObjectDBX Classes
 90
     1153
 91
       33
280
     0
281
     0
  0
CLASS
  1
TABLESTYLE
  2
AcDbTableStyle
  3
ObjectDBX Classes
 90
     4095
 91
        1
280
     0
281
     0
  0
CLASS
  1
MLEADERSTYLE
  2
AcDbMLeaderStyle
  3
ACDB_MLEADERSTYLE_CLASS
 90
     4095
 91
        1
280
     0
281
     0
  0
CLASS
  1
SUN
  2
AcDbSun
  3
SCENEOE
 90
     1153
 91
        1
280
     0
281
     0
  0
CLASS
  1
DICTIONARYVAR
  2
AcDbDictionaryVar
  3
ObjectDBX Classes
 90
        0
 91
        7
280
     0
281
     0
  0
CLASS
  1
CELLSTYLEMAP
  2
AcDbCellStyleMap
  3
ObjectDBX Classes
 90
     1152
 91
        2
280
     0
281
     0
  0
CLASS
  1
ACDBSECTIONVIEWSTYLE
  2
AcDbSectionViewStyle
  3
ObjectDBX Classes
 90
     1025
 91
        1
280
     0
281
     0
  0
CLASS
  1
ACDBDETAILVIEWSTYLE
  2
AcDbDetailViewStyle
  3
ObjectDBX Classes
 90
     1025
 91
        1
280
     0
281
     0
  0
CLASS
  1
DIMASSOC
  2
AcDbDimAssoc
  3
"AcDbDimAssoc|Product Desc:     AcDim ARX App For Dimension|Company:          Autodesk, Inc.|WEB Address:      www.autodesk.com"
 90
        0
 91
        0
280
     0
281
     0
  0
CLASS
  1
SORTENTSTABLE
  2
AcDbSortentsTable
  3
ObjectDBX Classes
 90
        0
 91
        1
280
     0
281
     0
  0
ENDSEC
  0
SECTION
  2
TABLES
  0
TABLE
  2
VPORT
  5
8
330
0
100
AcDbSymbolTable
 70
     1
1001
ACAD
1000
DbSaveVer
1071
      224
  0
VPORT
  5
29
330
8
100
AcDbSymbolTableRecord
100
AcDbViewportTableRecord
  2
*Active
 70
     0
 10
0.0
 20
0.0
 11
1.0
 21
1.0
 12
104.7177994230023
 22
647.9794617223028
 13
0.0
 23
0.0
 14
10.0
 24
10.0
 15
10.0
 25
10.0
 16
0.0
 26
0.0
 36
1.0
 17
0.0
 27
0.0
 37
0.0
 40
4158.940528630142
 41
2.078193832599119
 42
50.0
 43
0.0
 44
0.0
 50
0.0
 51
0.0
 71
     0
 72
   100
 73
     1
 74
     3
 75
     0
 76
     0
 77
     0
 78
     0
281
     0
 65
     1
110
0.0
120
0.0
130
0.0
111
1.0
121
0.0
131
0.0
112
0.0
122
1.0
132
0.0
 79
     0
146
0.0
348
2F
 60
     3
 61
     5
292
     1
282
     1
141
0.0
142
0.0
 63
   250
421
  3355443
361
6D
1001
ACAD_NAV_VCDISPLAY
1070
     3
  0
ENDTAB
  0
TABLE
  2
LTYPE
  5
5
330
0
100
AcDbSymbolTable
 70
    11
  0
LTYPE
  5
14
330
5
100
AcDbSymbolTableRecord
100
AcDbLinetypeTableRecord
  2
ByBlock
 70
     0
  3

 72
    65
 73
     0
 40
0.0
  0
LTYPE
  5
15
330
5
100
AcDbSymbolTableRecord
100
AcDbLinetypeTableRecord
  2
ByLayer
 70
     0
  3

 72
    65
 73
     0
 40
0.0
  0
LTYPE
  5
16
330
5
100
AcDbSymbolTableRecord
100
AcDbLinetypeTableRecord
  2
Continuous
 70
     0
  3
Solid line
 72
    65
 73
     0
 40
0.0
  0
LTYPE
  5
6F
330
5
100
AcDbSymbolTableRecord
100
AcDbLinetypeTableRecord
  2
CUSTOM
 70
     0
  3

 72
    65
 73
     0
 40
0.0
  0
LTYPE
  5
70
330
5
100
AcDbSymbolTableRecord
100
AcDbLinetypeTableRecord
  2
SOLID
 70
     0
  3

 72
    65
 73
     0
 40
0.0
  0
LTYPE
  5
71
330
5
100
AcDbSymbolTableRecord
100
AcDbLinetypeTableRecord
  2
DASHED
 70
     0
  3

 72
    65
 73
     2
 40
2.27109725292296
 49
1.13554862646148
 74
     0
 49
-1.13554862646148
 74
     0
  0
LTYPE
  5
72
330
5
100
AcDbSymbolTableRecord
100
AcDbLinetypeTableRecord
  2
LONG_DASH
 70
     0
  3

 72
    65
 73
     2
 40
2.27109725292296
 49
1.703322939692224
 74
     0
 49
-0.5677743132307414
 74
     0
  0
LTYPE
  5
73
330
5
100
AcDbSymbolTableRecord
100
AcDbLinetypeTableRecord
  2
SHORT_DASH
 70
     0
  3

 72
    65
 73
     4
 40
2.27109725292296
 49
0.4542194505845931
 74
     0
 49
-0.6813291758768897
 74
     0
 49
0.4542194505845931
 74
     0
 49
-0.6813291758768897
 74
     0
  0
LTYPE
  5
74
330
5
100
AcDbSymbolTableRecord
100
AcDbLinetypeTableRecord
  2
DOTTED
 70
     0
  3

 72
    65
 73
     8
 40
2.27109725292296
 49
0.1135548626461483
 74
     0
 49
-0.4542194505845931
 74
     0
 49
0.1135548626461483
 74
     0
 49
-0.4542194505845931
 74
     0
 49
0.1135548626461483
 74
     0
 49
-0.4542194505845931
 74
     0
 49
0.1135548626461483
 74
     0
 49
-0.4542194505845931
 74
     0
  0
LTYPE
  5
75
330
5
100
AcDbSymbolTableRecord
100
AcDbLinetypeTableRecord
  2
DOTDASH
 70
     0
  3

 72
    65
 73
     4
 40
2.27109725292296
 49
0.1135548626461483
 74
     0
 49
-0.5677743132307414
 74
     0
 49
1.021993763815334
 74
     0
 49
-0.5677743132307414
 74
     0
  0
LTYPE
  5
76
330
5
100
AcDbSymbolTableRecord
100
AcDbLinetypeTableRecord
  2
DOTDOTDASH
 70
     0
  3

 72
    65
 73
     6
 40
2.27109725292296
 49
0.1135548626461483
 74
     0
 49
-0.3406645879384448
 74
     0
 49
0.1135548626461483
 74
     0
 49
-0.3406645879384448
 74
     0
 49
1.021993763815334
 74
     0
 49
-0.3406645879384448
 74
     0
  0
LTYPE
  5
77
330
5
100
AcDbSymbolTableRecord
100
AcDbLinetypeTableRecord
  2
DASHDASHDOT
 70
     0
  3

 72
    65
 73
     6
 40
2.27109725292296
 49
0.1135548626461483
 74
     0
 49
-0.3406645879384448
 74
     0
 49
0.1135548626461483
 74
     0
 49
-0.3406645879384448
 74
     0
 49
1.021993763815334
 74
     0
 49
-0.3406645879384448
 74
     0
  0
ENDTAB
  0
TABLE
  2
LAYER
  5
2
102
{ACAD_XDICTIONARY
360
490
102
}
330
0
100
AcDbSymbolTable
 70
     3
  0
LAYER
  5
10
330
2
100
AcDbSymbolTableRecord
100
AcDbLayerTableRecord
  2
0
 70
     0
 62
     7
  6
Continuous
370
    -3
390
F
347
46
348
0
  0
LAYER
  5
46D
330
2
100
AcDbSymbolTableRecord
100
AcDbLayerTableRecord
  2
Defpoints
 70
     0
 62
     7
  6
Continuous
290
     0
370
    -3
390
F
347
46
348
0
  0
LAYER
  5
48D
102
{ACAD_XDICTIONARY
360
48E
102
}
330
2
100
AcDbSymbolTableRecord
100
AcDbLayerTableRecord
  2
Hewi
 70
     0
 62
     7
  6
Continuous
370
    -3
390
F
347
46
348
0
1001
AcAecLayerStandard
1000

1000

  0
ENDTAB
  0
TABLE
  2
STYLE
  5
3
330
0
100
AcDbSymbolTable
 70
     1
  0
STYLE
  5
11
330
3
100
AcDbSymbolTableRecord
100
AcDbTextStyleTableRecord
  2
Standard
 70
     0
 40
0.0
 41
1.0
 50
0.0
 71
     0
 42
2.5
  3
txt
  4

  0
ENDTAB
  0
TABLE
  2
VIEW
  5
6
330
0
100
AcDbSymbolTable
 70
     0
  0
ENDTAB
  0
TABLE
  2
UCS
  5
7
330
0
100
AcDbSymbolTable
 70
     0
  0
ENDTAB
  0
TABLE
  2
APPID
  5
9
330
0
100
AcDbSymbolTable
 70
     4
  0
APPID
  5
12
330
9
100
AcDbSymbolTableRecord
100
AcDbRegAppTableRecord
  2
ACAD
 70
     0
  0
APPID
  5
11A
330
9
100
AcDbSymbolTableRecord
100
AcDbRegAppTableRecord
  2
ACAD_NAV_VCDISPLAY
 70
     0
  0
APPID
  5
463
330
9
100
AcDbSymbolTableRecord
100
AcDbRegAppTableRecord
  2
ACAD_EXEMPT_FROM_CAD_STANDARDS
 70
     0
  0
APPID
  5
48F
330
9
100
AcDbSymbolTableRecord
100
AcDbRegAppTableRecord
  2
AcAecLayerStandard
 70
     0
  0
ENDTAB
  0
TABLE
  2
DIMSTYLE
  5
A
330
0
100
AcDbSymbolTable
 70
     2
100
AcDbDimStyleTable
 71
     1
340
27
  0
DIMSTYLE
105
27
330
A
100
AcDbSymbolTableRecord
100
AcDbDimStyleTableRecord
  2
ISO-25
 70
     0
 41
2.5
 42
0.625
 43
3.75
 44
1.25
 73
     0
 74
     0
 77
     1
 78
     8
140
2.5
141
2.5
143
0.03937007874016
147
0.625
171
     3
172
     1
271
     2
272
     2
274
     3
278
    44
283
     0
284
     8
340
11
  0
ENDTAB
  0
TABLE
  2
BLOCK_RECORD
  5
1
330
0
100
AcDbSymbolTable
 70
     5
  0
BLOCK_RECORD
  5
1F
102
{ACAD_XDICTIONARY
360
6E5
102
}
330
1
100
AcDbSymbolTableRecord
100
AcDbBlockTableRecord
  2
*Model_Space
340
22
 70
     0
280
     1
281
     0
  0
BLOCK_RECORD
  5
1B
330
1
100
AcDbSymbolTableRecord
100
AcDbBlockTableRecord
  2
*Paper_Space
340
1E
 70
     0
280
     1
281
     0
  0
BLOCK_RECORD
  5
23
330
1
100
AcDbSymbolTableRecord
100
AcDbBlockTableRecord
  2
*Paper_Space0
340
26
 70
     0
280
     1
281
     0
  0
BLOCK_RECORD
  5
46E
330
1
100
AcDbSymbolTableRecord
100
AcDbBlockTableRecord
  2
*D1
340
0
 70
     0
280
     1
281
     0
  0
BLOCK_RECORD
  5
66A
330
1
100
AcDbSymbolTableRecord
100
AcDbBlockTableRecord
  2
*D2
340
0
 70
     0
280
     1
281
     0
  0
ENDTAB
  0
ENDSEC
  0
SECTION
  2
BLOCKS
  0
BLOCK
  5
20
330
1F
100
AcDbEntity
  8
0
100
AcDbBlockBegin
  2
*Model_Space
 70
     0
 10
0.0
 20
0.0
 30
0.0
  3
*Model_Space
  1

  0
ENDBLK
  5
21
330
1F
100
AcDbEntity
  8
0
100
AcDbBlockEnd
  0
BLOCK
  5
1C
330
1B
100
AcDbEntity
 67
     1
  8
0
100
AcDbBlockBegin
  2
*Paper_Space
 70
     0
 10
0.0
 20
0.0
 30
0.0
  3
*Paper_Space
  1

  0
ENDBLK
  5
1D
330
1B
100
AcDbEntity
 67
     1
  8
0
100
AcDbBlockEnd
  0
BLOCK
  5
24
330
23
100
AcDbEntity
 67
     1
  8
0
100
AcDbBlockBegin
  2
*Paper_Space0
 70
     0
 10
0.0
 20
0.0
 30
0.0
  3
*Paper_Space0
  1

  0
ENDBLK
  5
25
330
23
100
AcDbEntity
 67
     1
  8
0
100
AcDbBlockEnd
  0
BLOCK
  5
46F
330
46E
100
AcDbEntity
  8
0
100
AcDbBlockBegin
  2
*D1
 70
     1
 10
0.0
 20
0.0
 30
0.0
  3
*D1
  1

  0
LINE
  5
47B
330
46E
100
AcDbEntity
  8
0
 62
     0
440
 16777216
370
    -2
100
AcDbLine
 10
169.1949724005773
 20
163.8184210226795
 30
0.0
 11
169.1949724005773
 21
189.5873868086067
 31
0.0
  0
LINE
  5
47C
330
46E
100
AcDbEntity
  8
0
 62
     0
440
 16777216
370
    -2
100
AcDbLine
 10
209.1949715756394
 20
163.8184210226795
 30
0.0
 11
209.1949715756394
 21
189.5873868086067
 31
0.0
  0
LINE
  5
47D
330
46E
100
AcDbEntity
  8
0
 62
     0
440
 16777216
370
    -2
100
AcDbLine
 10
171.6949724005774
 20
188.3373868086066
 30
0.0
 11
206.6949715756394
 21
188.3373868086066
 31
0.0
  0
SOLID
  5
47E
330
46E
100
AcDbEntity
  8
0
 62
     0
440
 16777216
100
AcDbTrace
 10
171.6949724005774
 20
188.7540534752734
 30
0.0
 11
171.6949724005774
 21
187.9207201419401
 31
0.0
 12
169.1949724005773
 22
188.3373868086066
 32
0.0
 13
169.1949724005773
 23
188.3373868086066
 33
0.0
  0
SOLID
  5
47F
330
46E
100
AcDbEntity
  8
0
 62
     0
440
 16777216
100
AcDbTrace
 10
206.6949715756394
 20
188.7540534752734
 30
0.0
 11
206.6949715756394
 21
187.9207201419401
 31
0.0
 12
209.1949715756394
 22
188.3373868086066
 32
0.0
 13
209.1949715756394
 23
188.3373868086066
 33
0.0
  0
MTEXT
  5
480
330
46E
100
AcDbEntity
  8
0
 62
     0
440
 16777216
100
AcDbMText
 10
189.1949719881084
 20
190.2123868086068
 30
0.0
 40
2.5
 41
0.0
 46
0.0
 71
     5
 72
     1
  1
40
 73
     1
 44
1.0
  0
POINT
  5
481
330
46E
100
AcDbEntity
  8
Defpoints
 62
     0
440
 16777216
100
AcDbPoint
 10
169.1949724005773
 20
163.1934210226795
 30
0.0
  0
POINT
  5
482
330
46E
100
AcDbEntity
  8
Defpoints
 62
     0
440
 16777216
100
AcDbPoint
 10
209.1949715756394
 20
163.1934210226795
 30
0.0
  0
POINT
  5
483
330
46E
100
AcDbEntity
  8
Defpoints
 62
     0
440
 16777216
100
AcDbPoint
 10
209.1949715756394
 20
188.3373868086066
 30
0.0
  0
ENDBLK
  5
470
330
46E
100
AcDbEntity
  8
0
100
AcDbBlockEnd
  0
BLOCK
  5
66B
330
66A
100
AcDbEntity
  8
0
100
AcDbBlockBegin
  2
*D2
 70
     1
 10
0.0
 20
0.0
 30
0.0
  3
*D2
  1

  0
LINE
  5
677
330
66A
100
AcDbEntity
  8
0
 62
     0
440
 16777216
370
    -2
100
AcDbLine
 10
827.7595291992735
 20
1013.325643810532
 30
0.0
 11
827.7595291992735
 21
145.1276556228231
 31
0.0
  0
LINE
  5
678
330
66A
100
AcDbEntity
  8
0
 62
     0
440
 16777216
370
    -2
100
AcDbLine
 10
927.7595321341673
 20
1013.325643810532
 30
0.0
 11
927.7595321341673
 21
145.1276556228231
 31
0.0
  0
LINE
  5
679
330
66A
100
AcDbEntity
  8
0
 62
     0
440
 16777216
370
    -2
100
AcDbLine
 10
830.2595291992735
 20
146.377655622823
 30
0.0
 11
925.2595321341672
 21
146.377655622823
 31
0.0
  0
SOLID
  5
67A
330
66A
100
AcDbEntity
  8
0
 62
     0
440
 16777216
100
AcDbTrace
 10
830.2595291992735
 20
146.7943222894897
 30
0.0
 11
830.2595291992735
 21
145.9609889561564
 31
0.0
 12
827.7595291992735
 22
146.377655622823
 32
0.0
 13
827.7595291992735
 23
146.377655622823
 33
0.0
  0
SOLID
  5
67B
330
66A
100
AcDbEntity
  8
0
 62
     0
440
 16777216
100
AcDbTrace
 10
925.2595321341672
 20
146.7943222894897
 30
0.0
 11
925.2595321341672
 21
145.9609889561564
 31
0.0
 12
927.7595321341673
 22
146.377655622823
 32
0.0
 13
927.7595321341673
 23
146.377655622823
 33
0.0
  0
MTEXT
  5
67C
330
66A
100
AcDbEntity
  8
0
 62
     0
440
 16777216
100
AcDbMText
 10
877.7595306667203
 20
148.2526556228231
 30
0.0
 40
2.5
 41
0.0
 46
0.0
 71
     5
 72
     1
  1
100
 73
     1
 44
1.0
  0
POINT
  5
67D
330
66A
100
AcDbEntity
  8
Defpoints
 62
     0
440
 16777216
100
AcDbPoint
 10
827.7595291992735
 20
1013.950643810532
 30
0.0
  0
POINT
  5
67E
330
66A
100
AcDbEntity
  8
Defpoints
 62
     0
440
 16777216
100
AcDbPoint
 10
927.7595321341673
 20
1013.950643810532
 30
0.0
  0
POINT
  5
67F
330
66A
100
AcDbEntity
  8
Defpoints
 62
     0
440
 16777216
100
AcDbPoint
 10
927.7595321341673
 20
146.377655622823
 30
0.0
  0
ENDBLK
  5
66C
330
66A
100
AcDbEntity
  8
0
100
AcDbBlockEnd
  0
ENDSEC
  0
SECTION
  2
ENTITIES
  0
LWPOLYLINE
  5
B1F
330
1F
100
AcDbEntity
  8
Hewi
370
    13
100
AcDbPolyline
 90
       23
 70
     0
 43
0.0
 10
735.5614066808339
 20
558.6802297318309
 10
735.8853977286089
 20
558.0538478553274
 10
736.5820655078632
 20
557.5211667592725
 10
737.0200916210124
 20
557.4277692707998
 10
737.6148147799121
 20
557.3078724591923
 10
737.8195183129109
 20
557.2803682406802
 10
738.1225884741233
 20
557.2630054033025
 10
738.5064119273947
 20
557.256793012056
 10
738.9486822487606
 20
557.2620921085399
 10
739.4236962947334
 20
557.2785947285267
 10
739.9038479755654
 20
557.3053417997278
 10
740.3612326208467
 20
557.3407788795875
 10
740.7692686975206
 20
557.3828464938322
 10
741.1042426319591
 20
557.4290998256303
 10
741.3466869566755
 20
557.4768507994645
 10
741.9604181850709
 20
557.6002101608726
 10
742.3879921758744
 20
557.7837122343151
 10
742.736455492357
 20
558.0426012009818
 10
743.021065875615
 20
558.3765253679326
 10
743.2218180887812
 20
558.7604723663542
 10
743.331464682702
 20
559.1639982923859
 10
743.3971087130294
 20
559.6669356718873
 10
743.2314092482674
 20
563.0169300099021
  0
LWPOLYLINE
  5
B20
330
1F
100
AcDbEntity
  8
Hewi
370
    13
100
AcDbPolyline
 90
       30
 70
     0
 43
0.0
 10
749.6234601904725
 20
587.7673182569345
 10
750.1942619989185
 20
588.9946685823534
 10
750.2384840689365
 20
589.0613052444603
 10
751.7977798836182
 20
590.9920421630265
 10
753.7753870951692
 20
592.4827937265647
 10
756.0563743607636
 20
593.4469228728596
 10
758.3665095863798
 20
594.2365361947966
 10
760.7095945143456
 20
594.6010955985295
 10
763.3613135607374
 20
594.3679519704155
 10
765.3392333413957
 20
593.6086055748046
 10
766.5673345859931
 20
592.9987216008332
 10
767.130441379385
 20
592.5860582245036
 10
767.8460691863392
 20
591.8806457408286
 10
768.2373490120571
 20
591.4869556613007
 10
769.0149895349486
 20
590.5650565962696
 10
769.6783112786579
 20
589.5569822291827
 10
770.028594112604
 20
588.9574497486385
 10
770.4786046006866
 20
588.1016479014274
 10
770.6832413097436
 20
587.4860230312504
 10
770.8947916487232
 20
586.1676890551666
 10
771.092342821802
 20
584.0132872976346
 10
770.547999672528
 20
581.4238868611357
 10
769.5442118552218
 20
579.2655207067355
 10
768.0540594688118
 20
577.4203979278195
 10
766.1934288821266
 20
575.8505117555066
 10
764.2158216705766
 20
574.3597601919685
 10
761.9348344049821
 20
573.3956310456744
 10
759.4830297741691
 20
573.0141559981364
 10
759.4025222553309
 20
573.0105054503565
 10
757.8958772807372
 20
573.1461867918585
  0
LINE
  5
B21
330
1F
100
AcDbEntity
  8
Hewi
370
    13
100
AcDbLine
 10
763.1987903264253
 20
172.0732481612017
 30
0.0
 11
771.6944923637202
 21
168.0155469402023
 31
0.0
  0
LINE
  5
B22
330
1F
100
AcDbEntity
  8
Hewi
370
    13
100
AcDbLine
 10
757.185164858658
 20
592.0486654108844
 30
0.0
 11
748.8890982735929
 21
587.3515312824268
 31
0.0
  0
LINE
  5
B23
330
1F
100
AcDbEntity
  8
Hewi
370
    13
100
AcDbLine
 10
765.6091867851674
 20
577.5133708195605
 30
0.0
 11
757.1780531443883
 21
572.7397633322505
 31
0.0
  0
LINE
  5
B24
330
1F
100
AcDbEntity
  8
Hewi
370
    13
100
AcDbLine
 10
779.0742991541592
 20
183.1078482088182
 30
0.0
 11
770.4524765374717
 21
187.2257869036311
 31
0.0
  0
LWPOLYLINE
  5
B25
330
1F
100
AcDbEntity
  8
Hewi
370
    13
100
AcDbPolyline
 90
       18
 70
     0
 43
0.0
 10
330.9911730074491
 20
550.5815577545793
 10
319.1824006796423
 20
557.516991346439
 10
314.4227763525059
 20
560.3084062965751
 10
299.5120776388949
 20
569.0235864576127
 10
297.6233079159956
 20
570.4554484140783
 10
296.136050307452
 20
572.3067254028705
 10
295.1367388195122
 20
574.4698279345207
 10
294.683449803505
 20
576.8190443524447
 10
294.8025267694029
 20
579.2178467374871
 10
295.4870493967756
 20
581.5268254143245
 10
296.6972357186587
 20
583.6117909350514
 10
298.36275410487
 20
585.3515726821467
 10
300.3868106807195
 20
586.6450608643165
 10
302.6517746351637
 20
587.4170826500526
 10
305.0260144959784
 20
587.6227709393531
 10
307.371548072465
 20
587.2501718764913
 10
309.5520614788256
 20
586.3209395646556
 10
343.8277998500289
 20
566.2189731193584
  0
LWPOLYLINE
  5
B26
330
1F
100
AcDbEntity
  8
Hewi
370
    13
100
AcDbPolyline
 90
       17
 70
     0
 43
0.0
 10
314.7012364682778
 20
182.8593503397185
 10
294.9243578122296
 20
173.121541646153
 10
292.6835866927995
 20
172.3486304549292
 10
290.3175704186433
 20
172.1426398404521
 10
287.9638132554974
 20
172.515541228491
 10
285.7591070141234
 20
173.4456629458134
 10
283.8315812074916
 20
174.8789496990632
 10
282.2932566292093
 20
176.7321040719287
 10
281.2335351121837
 20
178.8974274681993
 10
280.7140038190573
 20
181.2490791627149
 10
280.7648560201624
 20
183.6503897068951
 10
281.383136370413
 20
185.9618036603228
 10
282.5329126632123
 20
188.0489900456712
 10
284.1473640796857
 20
189.7906491768383
 10
286.1326645718018
 20
191.0855621557928
 10
301.5241260885823
 20
198.6372021334137
 10
306.2459479951567
 20
200.9621493210361
  0
LWPOLYLINE
  5
B27
330
1F
100
AcDbEntity
  8
Hewi
370
    13
100
AcDbPolyline
 90
       23
 70
     0
 43
0.0
 10
755.7500153901037
 20
196.0094288651041
 10
755.6794372549748
 20
199.3617630440565
 10
755.6268882454997
 20
199.7784289996716
 10
755.2574875079608
 20
200.5492846230936
 10
754.5760457607102
 20
201.109697917766
 10
754.3387143448544
 20
201.2230517020287
 10
753.4800427167174
 20
201.4021653435461
 10
753.2348955177931
 20
201.4327772942843
 10
752.8975440058939
 20
201.4553728652184
 10
752.4875938246678
 20
201.4686388838975
 10
752.0288697885407
 20
201.4718043775363
 10
751.5480312710987
 20
201.4646853791498
 10
751.0730228591965
 20
201.4476956190481
 10
750.6314503151515
 20
201.4218224803342
 10
750.2489762301702
 20
201.3885696157834
 10
749.9478286078356
 20
201.3498695610149
 10
749.7455090533303
 20
201.307971422543
 10
748.8651224969544
 20
201.0853565348946
 10
748.4105494080158
 20
200.7033075834063
 10
748.2385807774817
 20
200.5193682876481
 10
748.1167595215902
 20
200.3687545863033
 10
747.9053266505971
 20
199.9842097101132
 10
747.8441574131339
 20
199.7799021238449
  0
LWPOLYLINE
  5
B28
330
1F
100
AcDbEntity
  8
Hewi
370
    13
100
AcDbPolyline
 90
       24
 70
     0
 43
0.0
 10
781.5465851319786
 20
183.3393463711058
 10
782.4030246065158
 20
182.5170821977451
 10
783.1537645630715
 20
181.5949938804065
 10
783.7878575225604
 20
180.5865275431167
 10
784.1756093394906
 20
179.8793523499139
 10
784.6768353460856
 20
178.5231129281344
 10
784.9070765047945
 20
177.1949135476518
 10
785.0574857605834
 20
175.0438522556794
 10
784.4261953041969
 20
172.4458353210054
 10
784.2145706076589
 20
171.6066877503476
 10
783.3622416480311
 20
170.2842316069891
 10
782.3472574913412
 20
169.0301826375987
 10
781.8212850490863
 20
168.4357157895949
 10
779.8928803037451
 20
167.0077168890489
 10
779.6120261754395
 20
166.7840172529281
 10
777.68909928634
 20
166.0832250108863
 10
775.3380177391854
 20
165.7159682626752
 10
772.9762719759665
 20
165.9272902716955
 10
770.6157243435909
 20
166.5543239149451
 10
768.2768587662113
 20
167.3680251455009
 10
766.2063853106783
 20
168.7270108478321
 10
764.5246323687842
 20
170.5523017129496
 10
764.4760180974881
 20
170.6155390122228
 10
763.8484860798253
 20
171.7629416747456
  0
LWPOLYLINE
  5
B29
330
1F
100
AcDbEntity
  8
Hewi
370
    13
100
AcDbPolyline
 90
       18
 70
     0
 43
0.0
 10
707.3639920211089
 20
565.6791060685064
 10
743.4865156542037
 20
586.1312488789926
 10
745.6654648550193
 20
587.0583679342766
 10
748.0090411119899
 20
587.4286968661226
 10
750.3810442916128
 20
587.2207135031028
 10
752.6436221909716
 20
586.4465050822875
 10
754.6652820066892
 20
585.1510657829614
 10
756.3285322187121
 20
583.4096818284706
 10
757.5367107703851
 20
581.3235561245776
 10
758.2196027158352
 20
579.0139267144343
 10
758.3375208574052
 20
576.6150208641977
 10
757.8836122213196
 20
574.2662542622135
 10
756.8842563276202
 20
572.1041286859697
 10
755.3975321083353
 20
570.2542990149536
 10
753.5098425710693
 20
568.8242706257849
 10
738.2010478300326
 20
560.1747631440548
 10
733.2764987319897
 20
557.3865420758522
 10
720.0182543794872
 20
549.8733537816167
  0
LWPOLYLINE
  5
B2A
330
1F
100
AcDbEntity
  8
Hewi
370
    13
100
AcDbPolyline
 90
       18
 70
     0
 43
0.0
 10
744.5208613197356
 20
201.3675810540146
 10
745.4492240980425
 20
200.9237656620614
 10
750.5537719972044
 20
198.4857410995057
 10
766.5269632443196
 20
190.8735863952518
 10
768.5085696571077
 20
189.5767485092187
 10
770.1190434862146
 20
187.8335217063761
 10
771.2647898465292
 20
185.7452159921333
 10
771.8792221242056
 20
183.4331961039204
 10
771.9266317486381
 20
181.0318282337891
 10
771.4042634447815
 20
178.6806711537344
 10
770.342475359721
 20
176.5163655671426
 10
768.8029747575228
 20
174.6646930477739
 10
766.8752318173256
 20
173.2332660718973
 10
764.6712799517572
 20
172.3052739723278
 10
762.3192048322007
 20
171.9346482767775
 10
759.9557005151618
 20
172.1429284035012
 10
757.7181252805585
 20
172.9180098686029
 10
736.1277055115333
 20
183.2299855327794
  0
LWPOLYLINE
  5
B2B
330
1F
100
AcDbEntity
  8
Hewi
370
    13
100
AcDbPolyline
 90
        7
 70
     0
 43
0.0
 10
771.081346154333
 20
186.9254273359374
 10
772.6223183101483
 20
187.1661388602626
 10
772.7030317201533
 20
187.1681179289701
 10
775.1743630534519
 20
186.9469905280266
 10
777.5132286308316
 20
186.1332892974708
 10
779.5837020863637
 20
184.7743035951387
 10
781.5465851319786
 20
183.3393463711058
  0
LINE
  5
B2C
330
1F
100
AcDbEntity
  8
Hewi
370
    13
100
AcDbLine
 10
274.0294009407735
 20
183.3426824565806
 30
0.0
 11
282.1403562290252
 21
187.3363829940974
 31
0.0
  0
LINE
  5
B2D
330
1F
100
AcDbEntity
  8
Hewi
370
    13
100
AcDbLine
 10
281.4144232627332
 20
168.2529052284833
 30
0.0
 11
289.5584750677608
 21
172.2629019447049
 31
0.0
  0
LWPOLYLINE
  5
B2E
330
1F
100
AcDbEntity
  8
Hewi
370
    13
100
AcDbPolyline
 90
        3
 70
     0
 43
0.0
 10
780.5496064195576
 20
184.0681833767348
 10
780.5786279485337
 20
184.0513357930388
 10
781.5465851319786
 20
183.3393463711058
  0
LWPOLYLINE
  5
B2F
330
1F
100
AcDbEntity
  8
Hewi
370
    13
100
AcDbPolyline
 90
       30
 70
     0
 43
0.0
 10
303.4478746960294
 20
587.4860513883755
 10
303.2996400329412
 20
587.8091789417355
 10
303.2581954863772
 20
587.8756600005885
 10
301.7080300164025
 20
589.8158818867584
 10
299.7368440604187
 20
591.3186009545848
 10
297.4591957816601
 20
592.2964846342904
 10
295.2195630068527
 20
593.0882652835596
 10
292.87653796833
 20
593.4669131770358
 10
290.5033071334174
 20
593.2676816738664
 10
288.5420183006354
 20
592.7051648050496
 10
288.2377940519009
 20
592.5021493848405
 10
286.2116621092718
 20
591.2148062639978
 10
285.661597961147
 20
590.6588812350066
 10
284.5426627293455
 20
589.4804680142215
 10
283.6052075674379
 20
588.2217844262807
 10
283.327792089517
 20
587.3999280705255
 10
282.524804011663
 20
584.8531100326757
 10
282.5123569412781
 20
582.6969897133069
 10
282.6567434910176
 20
581.3556068480754
 10
283.0592927796888
 20
579.9672013208726
 10
283.3902969568299
 20
579.2343713084266
 10
283.9521630299578
 20
578.1833776934315
 10
284.6365875065231
 20
577.2102539911716
 10
285.4335899364669
 20
576.3291905365115
 10
287.2191512128056
 20
574.7597847978807
 10
289.1903371687886
 20
573.2570657300555
 10
291.4679854475471
 20
572.2791820503494
 10
293.9197274100333
 20
571.8829648037663
 10
293.9978243005944
 20
571.8792544416707
 10
295.4055766167603
 20
571.997434521718
  0
LWPOLYLINE
  5
B30
330
1F
100
AcDbEntity
  8
Hewi
370
    13
100
AcDbPolyline
 90
       29
 70
     0
 43
0.0
 10
289.2455888503828
 20
172.1088419480995
 10
288.5249083617446
 20
170.8088022363647
 10
288.4787500149278
 20
170.7454547967049
 10
286.7855870906796
 20
168.9286841517294
 10
284.7058161337209
 20
167.5801237248954
 10
282.3603058724075
 20
166.7781469463937
 10
280.0728617548521
 20
166.1530759071736
 10
277.70767017671
 20
165.9535488553813
 10
275.0813590602138
 20
166.3719301031005
 10
273.1552492707606
 20
167.2679221998362
 10
271.9773895452026
 20
167.9623969654515
 10
271.4504363038268
 20
168.4135592477455
 10
270.4113733178128
 20
169.587389645995
 10
269.7000077445855
 20
170.5615037885727
 10
269.1088666908618
 20
171.6135736448757
 10
268.8174515206774
 20
172.2363401792872
 10
268.4239831586328
 20
173.1215206578986
 10
268.2569619477163
 20
173.7499075324165
 10
268.1334997916583
 20
175.0797737715722
 10
268.0931699319562
 20
177.2427822737138
 10
268.8145935055272
 20
179.7876509467862
 10
269.9691750611
 20
181.8704073087872
 10
271.5872585244133
 20
183.606617389443
 10
273.4809686160797
 20
185.0415369411644
 10
275.5607395730385
 20
186.3900973679983
 10
277.9062498343519
 20
187.1920741464998
 10
280.3811868692119
 20
187.4008593013695
 10
280.459128683
 20
187.3988331848807
 10
281.8213304692053
 20
187.179299983982
  0
LWPOLYLINE
  5
B31
330
1F
100
AcDbEntity
  8
Hewi
370
    13
100
AcDbPolyline
 90
       69
 70
     0
 43
0.0
 10
583.771747038194
 20
252.3198438431155
 10
589.0017686051533
 20
245.197102069061
 10
593.7202012652196
 20
235.8267936463244
 10
597.8747282042222
 20
223.1974143551608
 10
602.1936747756699
 20
204.6392944901079
 10
606.3685783142182
 20
186.1873826827397
 10
608.4383624373958
 20
176.2679130666326
 10
611.5860967490298
 20
166.73741372895
 10
614.4142036848215
 20
161.6758955798393
 10
615.5221977932423
 20
160.012854393545
 10
617.0098134888921
 20
158.0039570327028
 10
617.9381740657873
 20
156.8648262653776
 10
620.7767432478185
 20
153.8090105107776
 10
622.8353700568995
 20
151.9549944967946
 10
625.3119573369477
 20
150.0919245847033
 10
629.1439302911103
 20
147.8682385401073
 10
633.5116968896945
 20
146.1228623242202
 10
636.0894565192293
 20
145.4134299017119
 10
638.0437042215544
 20
145.0088077720497
 10
642.0314907203519
 20
144.4834860130334
 10
644.0569561691882
 20
144.3458040078423
 10
646.1008872921865
 20
144.2788356373341
 10
649.2046125704819
 20
144.2795639451162
 10
651.3132569555718
 20
144.335382817191
 10
654.4896214442997
 20
144.4870784561738
 10
657.2695722451726
 20
144.6696085832266
 10
659.1905347472702
 20
144.8056788570563
 10
664.3054761574931
 20
145.2149419035634
 10
668.5221854571063
 20
145.6287068136573
 10
673.7086917481056
 20
146.2659938406325
 10
677.0215519872444
 20
146.7636105289398
 10
680.3059850716799
 20
147.3391942361443
 10
684.543914216516
 20
148.2222143047513
 10
687.0218652430976
 20
148.8220686787631
 10
694.3342401828786
 20
150.9860316788731
 10
696.7234379150095
 20
151.830524855327
 10
699.0840959170646
 20
152.7389849193914
 10
703.7091603503249
 20
154.7562820983253
 10
708.1910014454715
 20
157.0388051956329
 10
709.038927941503
 20
157.5098174643622
 10
711.4472074588229
 20
158.9216794775152
 10
712.5148095093045
 20
159.5845727676985
 10
713.2911428049874
 20
160.0834667576478
 10
714.600880940472
 20
160.9524719834896
 10
717.6452236642653
 20
163.1299413609108
 10
718.633871937739
 20
163.8874477736269
 10
718.7742860583266
 20
163.9986008550568
 10
719.8682111603329
 20
164.8648133424474
 10
722.5818766332031
 20
167.1637655056772
 10
726.1644146259595
 20
170.5695386061932
 10
727.8654901731115
 20
172.3580293592783
 10
729.0490141208283
 20
173.6771084608592
 10
729.9054013425139
 20
174.6733998932859
 10
730.6915805775133
 20
175.6216535032097
 10
731.4661541789146
 20
176.5875547536302
 10
732.5943998504426
 20
178.0572317460301
 10
734.0425043451114
 20
180.0633102529202
 10
736.0062462761943
 20
183.032290760018
 10
736.7404217541352
 20
184.2272874711973
 10
739.1412360456615
 20
188.5251236443302
 10
740.2848117605563
 20
190.8190264704126
 10
740.8173879437245
 20
191.9520672186534
 10
741.2709615413159
 20
192.9531115686465
 10
741.8339217847533
 20
194.2477353458357
 10
742.7854897069255
 20
196.5746175639447
 10
743.4608757322348
 20
198.3444241156023
 10
743.8875913640059
 20
199.522581314379
 10
744.5025869864402
 20
201.3092305172006
 10
745.633569769654
 20
204.9204891606125
  0
LINE
  5
B32
330
1F
100
AcDbEntity
  8
Hewi
370
    13
100
AcDbLine
 10
302.4431172359828
 20
587.3459612880046
 30
0.0
 11
296.3592418066437
 21
590.9140203743905
 31
0.0
  0
LWPOLYLINE
  5
B33
330
1F
100
AcDbEntity
  8
Hewi
370
    13
100
AcDbPolyline
 90
       33
 70
     0
 43
0.0
 10
525.3067185316776
 20
456.2818482576169
 10
528.8578023543623
 20
455.8558601707402
 10
532.2172830367471
 20
454.5957964769993
 10
535.1973664511697
 20
452.5598850802063
 10
537.6209977804274
 20
449.8486652884987
 10
539.3321821777262
 20
446.6062117057879
 10
540.0632241942666
 20
443.9917398663237
 10
540.3113999217275
 20
441.2751608651681
 10
540.3124984513715
 20
419.0504097088494
 10
540.3120384561389
 20
405.1554021029748
 10
540.3108299980977
 20
391.2764560448652
 10
539.8622633233198
 20
387.6383168413054
 10
538.5531239011043
 20
384.234712679917
 10
536.4739804881837
 20
381.2626706763588
 10
533.7574401297988
 20
378.8865995736817
 10
530.5656508318488
 20
377.2331773795154
 10
527.9774202116686
 20
376.5215371701677
 10
525.306633595308
 20
376.2823734520873
 10
521.7499987134033
 20
376.7094281892835
 10
518.3900964327003
 20
377.9701065220595
 10
515.4165996415613
 20
380.0007948714431
 10
513.0034018728338
 20
382.6954664327557
 10
511.2988915284431
 20
385.9075735161571
 10
510.5559618258967
 20
388.5410727783542
 10
510.3042811876912
 20
391.2763925425854
 10
510.304181520265
 20
413.4912347074762
 10
510.3041413568544
 20
427.3891044507747
 10
510.3041212555171
 20
441.2750973613436
 10
510.727994739308
 20
444.817195466494
 10
511.9647903704926
 20
448.1380556031884
 10
513.9279335248793
 20
451.0556551222927
 10
516.4938923519202
 20
453.4201972862968
 10
519.5147603471514
 20
455.118912157414
  0
LINE
  5
B34
330
1F
100
AcDbEntity
  8
Hewi
370
    13
100
AcDbLine
 10
287.9256553811028
 20
576.3842437644735
 30
0.0
 11
297.2566928069609
 21
570.9117956087836
 31
0.0
  0
LWPOLYLINE
  5
B35
330
1F
100
AcDbEntity
  8
Hewi
370
    13
100
AcDbPolyline
 90
       11
 70
     0
 43
0.0
 10
750.9044921574822
 20
240.2012731068451
 10
750.1466549372562
 20
227.959008098044
 10
749.5917022223148
 20
223.3895853782974
 10
749.2888400639949
 20
221.3543531452888
 10
749.0915514566895
 20
220.1206385500589
 10
748.7698917185234
 20
218.2485347982135
 10
748.0546324527604
 20
214.5410936088258
 10
747.3286706926974
 20
211.2681745757579
 10
746.4057951206223
 20
207.6216113303283
 10
745.5980990523621
 20
204.7864219317996
 10
745.2616648453349
 20
203.7329866699172
  0
LWPOLYLINE
  5
B36
330
1F
100
AcDbEntity
  8
Hewi
370
    13
100
AcDbPolyline
 90
        4
 70
     0
 43
0.0
 10
527.9469645355911
 20
455.9651242954998
 10
525.3176706815511
 20
456.2121060047846
 10
521.7901522941292
 20
455.7944871440561
 10
518.6326869819086
 20
454.6228987140434
  0
LWPOLYLINE
  5
B37
330
1F
100
AcDbEntity
  8
Hewi
370
    13
100
AcDbPolyline
 90
       82
 70
     0
 43
0.0
 10
501.046450962217
 20
271.117957448063
 10
490.404533955163
 20
267.8049248079492
 10
481.0933432722777
 20
263.4370241241033
 10
472.8936967105637
 20
257.9086934612744
 10
466.1443923168554
 20
251.4324816862402
 10
461.3432666565731
 20
244.8130140256814
 10
456.8699361391536
 20
235.859276947376
 10
452.9616259884696
 20
224.166285693522
 10
451.8968348107755
 20
220.6182582446456
 10
451.2910532827381
 20
218.813055872243
 10
450.3143456655188
 20
213.4358815551377
 10
448.8154173561342
 20
207.9131310922583
 10
448.5854383352707
 20
206.1604783601531
 10
447.9489949358676
 20
202.718616095922
 10
447.0036258695609
 20
198.8490557279553
 10
446.146433157568
 20
194.6225445663065
 10
445.152382055543
 20
190.5599912407367
 10
444.2126280691791
 20
186.188677734782
 10
442.1348607463178
 20
176.2675611246179
 10
438.9251710640309
 20
166.6704841743042
 10
438.1245848589096
 20
165.0854060330041
 10
436.1132983458837
 20
161.5937168378725
 10
434.2055862797279
 20
158.8001949078209
 10
432.6045726248485
 20
156.7677706346478
 10
429.9214817639977
 20
153.8837727101993
 10
428.4737403972776
 20
152.5591178938123
 10
425.3654210308032
 20
150.1748659955503
 10
421.9862301120874
 20
148.1826689502622
 10
418.3687890732371
 20
146.6164101965771
 10
416.4857399260227
 20
145.9967127077691
 10
412.6043066309858
 20
145.0734140472325
 10
410.8958727598
 20
144.7975005562459
 10
408.6084888454388
 20
144.5336398691518
 10
404.5260895160408
 20
144.3119253101258
 10
402.4541488100239
 20
144.2975134103733
 10
400.3441142617357
 20
144.3203726980021
 10
398.2180857991152
 20
144.3917478041408
 10
393.9643496760646
 20
144.6395425307917
 10
392.6289806548711
 20
144.7319606676517
 10
388.7797515257125
 20
145.0189866588327
 10
383.6580554229522
 20
145.4786607514813
 10
378.5529368528605
 20
146.0614583963522
 10
373.4745086365328
 20
146.7998837783959
 10
370.9502143591417
 20
147.2372263476645
 10
365.9407666992574
 20
148.2691864150986
 10
358.5570202799272
 20
150.2599533699003
 10
356.4294277728895
 20
150.9468022186904
 10
353.748604153302
 20
151.8907560256716
 10
349.0554184314806
 20
153.77609052925
 10
346.7582068137499
 20
154.8188450917439
 10
343.0369455356867
 20
156.688355864034
 10
340.0911319938332
 20
158.3386845553923
 10
338.4829839259
 20
159.3096401836248
 10
337.4314209339946
 20
159.9741822706294
 10
336.5118052519692
 20
160.5745035113591
 10
333.8213537983438
 20
162.4420565041759
 10
332.2099136128909
 20
163.6454010454856
 10
330.8583931078056
 20
164.7069820446011
 10
328.0176504593437
 20
167.1102486526038
 10
326.1931173457833
 20
168.7898035556134
 10
323.3415267797582
 20
171.6580236012621
 10
321.8964568979473
 20
173.2403727165262
 10
321.0834365306109
 20
174.1733863696397
 10
320.2864131180177
 20
175.1203741427832
 10
319.5061110090737
 20
176.0803208308493
 10
318.7384307112643
 20
177.0569198430269
 10
316.5408385955006
 20
180.0584352543035
 10
315.1577457230869
 20
182.1250122099022
 10
313.8427370571871
 20
184.2403269502858
 10
312.5955216637376
 20
186.4035845337837
 10
310.3025083304783
 20
190.8581002463959
 10
309.7802678384069
 20
191.9751365108907
 10
309.3186103649377
 20
192.9997326247414
 10
308.7572052369023
 20
194.2986463497516
 10
308.2749573519631
 20
195.4622717420823
 10
307.3575205031875
 20
197.811906619019
 10
306.9204824875869
 20
199.0002542994171
 10
306.5033831069104
 20
200.1847128106435
 10
305.7096730267549
 20
202.5816632265667
 10
304.9744197336549
 20
204.9998687918112
 10
304.2091620715246
 20
207.7634587561022
 10
303.0997569295132
 20
212.3548902913451
  0
LWPOLYLINE
  5
B38
330
1F
100
AcDbEntity
  8
Hewi
370
    13
100
AcDbPolyline
 90
      217
 70
     0
 43
0.0
 10
303.4437753987413
 20
210.9311207556984
 10
303.1689179285513
 20
212.0146573025938
 10
302.6258333478963
 20
214.4609469425441
 10
301.900496676798
 20
218.150605550705
 10
301.573834382445
 20
220.0134531050742
 10
301.3729136659395
 20
221.2420503830228
 10
301.0642891649168
 20
223.2680818152705
 10
300.495917351699
 20
227.8263169229003
 10
300.2559007111495
 20
231.5366894634642
 10
299.6302999491072
 20
240.5337271535147
 10
299.6219823238334
 20
250.2116589639377
 10
299.0858506905406
 20
257.8069009558878
 10
298.9715382677996
 20
264.3713717892174
 10
298.8854167599975
 20
270.9323113779098
 10
298.8294468709519
 20
277.4832460766709
 10
298.8056525523388
 20
283.4248748998509
 10
298.8132013279383
 20
290.6176846717874
 10
298.8573862865205
 20
297.3441011864906
 10
299.0380885338154
 20
310.322643133743
 10
299.1791036030127
 20
316.9021566088047
 10
299.5713619424678
 20
330.0439947855937
 10
299.7471830611112
 20
334.6730573958712
 10
299.8409421991573
 20
336.9540597744428
 10
300.0412834860153
 20
341.5642765007858
 10
300.1925452513415
 20
344.8645576869324
 10
300.3229291988
 20
348.1682189799972
 10
300.4863495845784
 20
353.0976743688359
 10
300.7470309051269
 20
359.669160994403
 10
300.8815816272772
 20
362.9483880911857
 10
301.056122686201
 20
366.4450739400279
 10
301.2251321844078
 20
369.5780610756174
 10
301.5082371753178
 20
374.5918549419466
 10
301.7786677405502
 20
379.1537738119391
 10
301.95998752985
 20
382.1082093921404
 10
302.1177926601968
 20
384.6124089709361
 10
302.3324575079751
 20
387.9539890167355
 10
302.5552740771254
 20
391.286812592391
 10
302.7867404261942
 20
394.6216552739299
 10
303.0273499221057
 20
397.9480203886137
 10
303.4072583895822
 20
402.9499477944471
 10
303.8042337961469
 20
407.9529570585407
 10
304.0732007135421
 20
411.2910355140745
 10
304.3490909873453
 20
414.6215550410977
 10
304.7762583322938
 20
419.617910884382
 10
305.0690861067951
 20
422.9553542138234
 10
305.3653184027244
 20
426.3004842221027
 10
305.6606880529616
 20
429.6206485692858
 10
305.9847498121226
 20
433.1582487620393
 10
306.2729315299612
 20
436.2805701167051
 10
306.7655726271059
 20
441.5000852516868
 10
307.0756691034803
 20
444.694575223237
 10
307.4137886325334
 20
448.1315454864431
 10
307.7289721066827
 20
451.2441198956557
 10
308.0976833160394
 20
454.8344076328621
 10
308.5963092220745
 20
459.5161483233255
 10
309.5871810437566
 20
468.172774959337
 10
309.879945452979
 20
470.6622870797552
 10
310.1839612896383
 20
473.1566199550136
 10
310.6522120195441
 20
476.8933984839411
 10
311.6377504210904
 20
484.3444423615749
 10
312.4790718848853
 20
490.2080366694037
 10
313.9187877297772
 20
499.109255847909
 10
315.6290515487435
 20
507.9917760509397
 10
316.334708338456
 20
511.2041305943887
 10
316.6299440537969
 20
512.5049866856441
 10
317.7646964350188
 20
517.3380105457031
 10
318.3792173954298
 20
519.7350761866448
 10
319.7079025931762
 20
524.4851682797639
 10
320.4267770334354
 20
526.8341102024276
 10
321.9894877980496
 20
531.4701880961745
 10
323.7361326324044
 20
536.0119260542774
 10
324.6852964120581
 20
538.2411012101313
 10
325.3085047702698
 20
539.6401874009529
 10
327.3485752494744
 20
544.0665704005071
 10
329.4265118510911
 20
547.976818362506
 10
330.8664558321243
 20
550.3877198118064
 10
332.1724164032139
 20
552.417460056057
 10
334.0036562463684
 20
555.0509368208565
 10
334.5945327969602
 20
555.8637354636669
 10
336.5003217910962
 20
558.407876650843
 10
338.5325573209903
 20
560.8604160358618
 10
340.6867624562929
 20
563.2036595726974
 10
342.9665181209002
 20
565.4485538598773
 10
345.3579462173502
 20
567.5876995673345
 10
348.4667436034506
 20
570.1031820520061
 10
351.0530576317242
 20
572.0208690984154
 10
353.7445173181532
 20
573.8275604117234
 10
356.5949788847301
 20
575.5545741659114
 10
360.8722253238357
 20
577.8010112101297
 10
363.8752613475517
 20
579.1766275648654
 10
366.9359378671279
 20
580.4402733071833
 10
373.2499908225436
 20
582.6224079764203
 10
376.8028941744396
 20
583.6542010802065
 10
379.7348930034877
 20
584.4307941898416
 10
386.3441694823405
 20
585.8789898411485
 10
389.6844436825259
 20
586.4867278986515
 10
393.0409949476279
 20
587.0285122069356
 10
396.9968231852763
 20
587.5948155064854
 10
400.3616904671144
 20
588.0258048096104
 10
407.1132159338285
 20
588.7350584615456
 10
408.8391352627022
 20
588.9489952961405
 10
415.8307019609837
 20
589.5259675874406
 10
419.432593741124
 20
589.7851505441553
 10
423.4578014850676
 20
590.0225249597444
 10
425.0250014396224
 20
590.1105008242325
 10
428.1540392268361
 20
590.2764210920038
 10
437.5454280657468
 20
590.7200893527615
 10
448.81519363193
 20
591.1682677255673
 10
456.3391942042226
 20
591.4265408316498
 10
474.6279410988063
 20
591.9417566312106
 10
478.2160644251653
 20
592.0256309954122
 10
500.2198449610777
 20
592.4183772498874
 10
525.2554407140178
 20
592.5811169496764
 10
525.2746414994653
 20
592.5811136671518
 10
525.293842288851
 20
592.5811170309446
 10
550.3296628135967
 20
592.4184832963273
 10
562.8694475446336
 20
592.2207373665035
 10
575.9221950830124
 20
591.9419709982828
 10
589.0272085256611
 20
591.5883098911474
 10
600.4775305867624
 20
591.2138577149565
 10
613.0060942792369
 20
590.7204606767793
 10
622.3979253439938
 20
590.2768321665864
 10
625.5271219595751
 20
590.1109251429966
 10
627.0944042215842
 20
590.0229559119534
 10
631.1195114954061
 20
589.7855985330886
 10
634.7216582580431
 20
589.5264308221424
 10
641.7138575217578
 20
588.9494881244165
 10
647.0080803117926
 20
588.4471911445104
 10
652.0713386709712
 20
587.8590775517705
 10
657.1156310367787
 20
587.1557258374163
 10
660.4612096729534
 20
586.6124941433406
 10
662.9598167282575
 20
586.1621533661934
 10
667.0964686709176
 20
585.3187363090325
 10
667.4688440829923
 20
585.2368584288253
 10
672.3939831553907
 20
584.0558801711916
 10
675.635043481484
 20
583.1454739359776
 10
677.569396089043
 20
582.5596818738495
 10
683.5542741054132
 20
580.4778511088272
 10
686.6142610651504
 20
579.2130968519472
 10
689.6160570013781
 20
577.8363520169667
 10
693.9603284048853
 20
575.5485196954116
 10
696.7410979599662
 20
573.8591099356565
 10
697.1379043895722
 20
573.6054759035653
 10
699.8473977055909
 20
571.8064689903224
 10
702.4526948403854
 20
569.8965425138724
 10
704.8368099009067
 20
567.9612228919215
 10
707.3169382405085
 20
565.7259041753288
 10
709.5803541234199
 20
563.4748251119429
 10
711.7182727379286
 20
561.1257766418259
 10
714.5586944910538
 20
557.7226415061659
 10
716.5011391571797
 20
555.183024264694
 10
718.3286856277645
 20
552.5500311715193
 10
719.6323564218127
 20
550.5204507234711
 10
721.0702235010521
 20
548.1093446858551
 10
723.1483771729126
 20
544.1926545304425
 10
724.1966716595734
 20
541.9943825491568
 10
725.6399163980677
 20
538.6861708707662
 10
727.573199698967
 20
533.8974236493052
 10
728.7392385564271
 20
530.833410936187
 10
730.3107558060037
 20
526.226897972323
 10
731.0340227609621
 20
523.8926495963028
 10
731.7195226359472
 20
521.5399123192862
 10
732.685752739213
 20
517.9828459399778
 10
733.5781883358858
 20
514.3943951291787
 10
734.6650952361142
 20
509.5661269153618
 10
735.6487449977967
 20
504.6941999906517
 10
736.5435521355812
 20
499.7854262719681
 10
738.1211770498739
 20
489.8797817473166
 10
738.8289744398989
 20
484.8917259465227
 10
739.4979344968897
 20
479.8845729270949
 10
740.1373226506702
 20
474.8613105049844
 10
740.4475403240112
 20
472.3459275939172
 10
740.749796260724
 20
469.8274310348408
 10
741.522699974028
 20
463.2045183188927
 10
742.2480494353476
 20
456.5790836384264
 10
742.5940195492958
 20
453.2501427567729
 10
742.9343737954186
 20
449.9176434128855
 10
743.2647506311114
 20
446.582534931859
 10
743.7498622435978
 20
441.5877036003746
 10
744.2243615628995
 20
436.5518191152425
 10
744.5129502108994
 20
433.4148377328779
 10
744.8377050200579
 20
429.8608597459081
 10
745.1333042584483
 20
426.5265600805127
 10
745.4304292201231
 20
423.1642043597583
 10
745.724281959182
 20
419.8104976831512
 10
746.1527833400632
 20
414.7912298527237
 10
746.4294005339724
 20
411.445635257103
 10
746.6990330162316
 20
408.0914251536248
 10
747.0973591241418
 20
403.0649104538163
 10
747.478302098425
 20
398.0396777645797
 10
747.7191479743287
 20
394.6989585559913
 10
747.9506199893185
 20
391.3486547542364
 10
748.1732200312817
 20
388.0007719579771
 10
748.3875119505764
 20
384.642932022103
 10
748.5965247260383
 20
381.2878568998053
 10
748.8987777532583
 20
376.2509018984959
 10
749.0916735499904
 20
372.8925202409535
 10
749.3688945008653
 20
367.8582112357178
 10
749.5368644263107
 20
364.5260458927607
 10
749.6871146961511
 20
361.2453199284634
 10
749.8750703439473
 20
356.2947898982654
 10
750.1021085264783
 20
349.7206289318353
 10
750.2100934283789
 20
346.4227767087482
 10
750.3595452770532
 20
343.1060651781968
 10
750.5101291919145
 20
339.8025009734204
 10
750.7897220390587
 20
333.2103974941038
 10
750.9146984361741
 20
329.9083944370666
 10
751.1319852392652
 20
323.3148959835137
 10
751.4483185811477
 20
310.1444514766975
 10
751.6275914219004
 20
296.9754297890988
 10
751.6571112074943
 20
292.9489127900172
 10
751.6782335165635
 20
283.8172931191805
 10
751.6544173763877
 20
277.2350303598341
 10
751.5990101476236
 20
270.6711736590503
 10
751.5125269268528
 20
264.0990593893127
 10
751.3964602965316
 20
257.5225018664416
 10
750.9496261078793
 20
248.3865740128879
  0
LWPOLYLINE
  5
B39
330
1F
100
AcDbEntity
  8
Hewi
370
    13
100
AcDbPolyline
 90
        4
 70
     0
 43
0.0
 10
569.8336806220432
 20
263.2473866314688
 10
577.8638964796773
 20
257.7736144731154
 10
584.1185909420037
 20
251.8018073594337
 10
586.0204522782132
 20
249.2573427562063
  0
LWPOLYLINE
  5
B3A
330
1F
100
AcDbEntity
  8
Hewi
370
    13
100
AcDbPolyline
 90
        3
 70
     0
 43
0.0
 10
750.9505571498429
 20
250.2126141018812
 10
750.9456660302439
 20
240.6197021135847
 10
750.2809086405277
 20
233.8641128120341
  0
LWPOLYLINE
  5
B3B
330
1F
100
AcDbEntity
  8
Hewi
370
    13
100
AcDbPolyline
 90
        8
 70
     0
 43
0.0
 10
569.855619693867
 20
263.2324319306392
 10
560.5382282364335
 20
267.6065492712166
 10
549.502632181915
 20
271.0137523207254
 10
537.5305897966937
 20
273.1035922047965
 10
525.3021565149038
 20
273.8326510815252
 10
512.9263470815558
 20
273.1277069986779
 10
500.8065096084601
 20
271.0196165155173
 10
497.004446286337
 20
269.859603955799
  0
LINE
  5
B3C
330
1F
100
AcDbEntity
  8
Hewi
370
    13
100
AcDbLine
 10
536.9832109342151
 20
450.5621320150378
 30
0.0
 11
538.1559578729638
 21
448.8349912300736
 31
0.0
  0
LINE
  5
B3D
330
1F
100
AcDbEntity
  8
Hewi
370
    13
100
AcDbLine
 10
510.3348545528206
 20
390.9441145767019
 30
0.0
 11
510.6742942037945
 21
388.1216141806833
 31
0.0
  0
LINE
  5
B3E
330
1F
100
AcDbEntity
  8
Hewi
370
    13
100
AcDbLine
 10
515.0924186864431
 20
380.3627880834415
 30
0.0
 11
515.7389605684411
 21
379.7806451315735
 31
0.0
  0
LINE
  5
B3F
330
1F
100
AcDbEntity
  8
Hewi
370
    13
100
AcDbLine
 10
518.0572152116829
 20
378.1974408925385
 30
0.0
 11
518.6863620583299
 21
377.8589438670246
 31
0.0
  0
LINE
  5
B40
330
1F
100
AcDbEntity
  8
Hewi
370
    13
100
AcDbLine
 10
539.9524144430106
 20
444.3880357939779
 30
0.0
 11
540.2645426676963
 21
441.7880693281424
 31
0.0
  0
LINE
  5
B41
330
1F
100
AcDbEntity
  8
Hewi
370
    13
100
AcDbLine
 10
528.1657003719955
 20
455.9388847385991
 30
0.0
 11
530.2566664451205
 21
455.3311785269968
 31
0.0
  0
LINE
  5
B42
330
1F
100
AcDbEntity
  8
Hewi
370
    13
100
AcDbLine
 10
538.9285322801424
 20
447.3710714542849
 30
0.0
 11
539.6795906228926
 21
445.3637528817837
 31
0.0
  0
LINE
  5
B43
330
1F
100
AcDbEntity
  8
Hewi
370
    13
100
AcDbLine
 10
530.7918239030113
 20
377.3503403664336
 30
0.0
 11
530.2248366246276
 21
377.1394697028563
 31
0.0
  0
LINE
  5
B44
330
1F
100
AcDbEntity
  8
Hewi
370
    13
100
AcDbLine
 10
538.6857280263484
 20
384.579467371087
 30
0.0
 11
538.2933989699986
 21
383.863447586175
 31
0.0
  0
LINE
  5
B45
330
1F
100
AcDbEntity
  8
Hewi
370
    13
100
AcDbLine
 10
533.9591234846193
 20
379.0630055624317
 30
0.0
 11
533.5017727801496
 21
378.7541578525272
 31
0.0
  0
LINE
  5
B46
330
1F
100
AcDbEntity
  8
Hewi
370
    13
100
AcDbLine
 10
534.3331265178457
 20
453.1503101380537
 30
0.0
 11
536.0965430344813
 21
451.554012070507
 31
0.0
  0
LINE
  5
B47
330
1F
100
AcDbEntity
  8
Hewi
370
    13
100
AcDbLine
 10
539.8714126185441
 20
387.7125229928572
 30
0.0
 11
539.8076093689842
 21
387.4962231645966
 31
0.0
  0
LINE
  5
B48
330
1F
100
AcDbEntity
  8
Hewi
370
    13
100
AcDbLine
 10
518.1675556639802
 20
454.3613429309478
 30
0.0
 11
515.7472003138973
 21
452.732117355393
 31
0.0
  0
LINE
  5
B49
330
1F
100
AcDbEntity
  8
Hewi
370
    13
100
AcDbLine
 10
515.1889042473158
 20
452.2176450985236
 30
0.0
 11
513.3834598495732
 21
450.2464649399747
 31
0.0
  0
LINE
  5
B4A
330
1F
100
AcDbEntity
  8
Hewi
370
    13
100
AcDbLine
 10
531.1567614492414
 20
454.9935736576812
 30
0.0
 11
533.47456687069
 21
453.7368545807033
 31
0.0
  0
LINE
  5
B4B
330
1F
100
AcDbEntity
  8
Hewi
370
    13
100
AcDbLine
 10
512.8128425602426
 20
449.398420473858
 30
0.0
 11
511.6523080225451
 21
447.2990244039647
 31
0.0
  0
LINE
  5
B4C
330
1F
100
AcDbEntity
  8
Hewi
370
    13
100
AcDbLine
 10
511.0969472592969
 20
445.807852038306
 30
0.0
 11
510.6789799617363
 21
444.4076035584137
 31
0.0
  0
LINE
  5
B4D
330
1F
100
AcDbEntity
  8
Hewi
370
    13
100
AcDbLine
 10
510.3389937632737
 20
441.5665094088843
 30
0.0
 11
510.3041213468132
 21
441.2070299559229
 31
0.0
  0
LINE
  5
B4E
330
1F
100
AcDbEntity
  8
Hewi
370
    13
100
AcDbLine
 10
512.7274762180231
 20
383.2154414205358
 30
0.0
 11
513.3326393131429
 21
382.3278269417347
 31
0.0
  0
LINE
  5
B4F
330
1F
100
AcDbEntity
  8
Hewi
370
    13
100
AcDbLine
 10
511.038743021053
 20
386.8297346591273
 30
0.0
 11
511.5925377973872
 21
385.3542044691872
 31
0.0
  0
LWPOLYLINE
  5
B50
330
1F
100
AcDbEntity
  8
Hewi
370
    13
100
AcDbPolyline
 90
       23
 70
     0
 43
0.0
 10
304.5343567674517
 20
200.1193900208916
 10
304.2997298370746
 20
200.6641762578365
 10
303.6426393536403
 20
201.2443637712008
 10
303.2048654657911
 20
201.3681442404111
 10
302.6252354313365
 20
201.5294679895699
 10
302.4205533738586
 20
201.5712215365329
 10
302.1173755295204
 20
201.6097538802116
 10
301.7333214926284
 20
201.6428256608492
 10
301.2907110878268
 20
201.6685148667673
 10
300.815267223019
 20
201.6853285346928
 10
300.3346209674601
 20
201.6922895153623
 10
299.8767057344448
 20
201.6889932618822
 10
299.4681338928604
 20
201.6756313405208
 10
299.1326501530448
 20
201.6529802975804
 10
298.8897516105189
 20
201.6223565293444
 10
298.2709606926055
 20
201.5423208851757
 10
297.8310959239561
 20
201.3892212848812
 10
297.4648982812769
 20
201.1553777499232
 10
297.1571584564135
 20
200.842209950719
 10
296.9296162139053
 20
200.4732675148623
 10
296.791656652752
 20
200.0784119996033
 10
296.6960104795298
 20
199.5813622346102
 10
296.6251145577516
 20
196.2335597638714
  0
LINE
  5
B51
330
1F
100
AcDbEntity
  8
Hewi
370
    13
100
AcDbLine
 10
528.0090899967981
 20
376.53024485123
 30
0.0
 11
527.8071933762312
 21
376.5062936894576
 31
0.0
  0
LINE
  5
B52
330
1F
100
AcDbEntity
  8
Hewi
370
    13
100
AcDbLine
 10
536.6502986730656
 20
381.514709595258
 30
0.0
 11
536.2109670120371
 21
381.0326211995386
 31
0.0
  0
LWPOLYLINE
  5
B53
330
1F
100
AcDbEntity
  8
Hewi
370
    13
100
AcDbPolyline
 90
       25
 70
     0
 43
0.0
 10
309.6132577027875
 20
563.1195303439085
 10
309.3851052327309
 20
558.5234047608105
 10
309.4080622365473
 20
558.1040551648654
 10
309.7219772569188
 20
557.3088956263866
 10
310.3618763164859
 20
556.7014786561883
 10
310.5831708175492
 20
556.5716943000734
 10
311.4290141339507
 20
556.3319789477268
 10
311.6691325224219
 20
556.2840696797762
 10
312.0021692224691
 20
556.2375974083063
 10
312.408769351623
 20
556.1952629328145
 10
312.8653027883101
 20
556.1595265791381
 10
313.3452374686222
 20
556.1324652142555
 10
313.8206813334309
 20
556.1156515463296
 10
314.2640033134794
 20
556.1100627246253
 10
314.6494391466995
 20
556.1160235511453
 10
314.9545887034665
 20
556.1331876043189
 10
315.1617178007136
 20
556.1605573717649
 10
316.054032204609
 20
556.3200863147865
 10
316.5423229892913
 20
556.6687163439008
 10
316.7178182845219
 20
556.8401522816786
 10
316.8592626830141
 20
556.9815459266926
 10
317.0975077299809
 20
557.3500948934507
 10
317.2468158327247
 20
557.7445332002603
 10
317.3484020365795
 20
558.0743901567006
 10
317.3733979235676
 20
558.5779316508387
  0
LWPOLYLINE
  5
B54
330
1F
100
AcDbEntity
  8
Hewi
370
    13
100
AcDbPolyline
 90
       14
 70
     0
 43
0.0
 10
654.8761942668289
 20
1335.689452252392
 10
654.8725070936662
 20
1335.68945513339
 10
654.7247003686252
 20
1335.688664012198
 10
654.4413640813099
 20
1335.687124865903
 10
654.0389647068541
 20
1335.684927144096
 10
653.5408882342389
 20
1335.682198570378
 10
652.9760810576163
 20
1335.679097719535
 10
652.377367717102
 20
1335.67580480175
 10
651.7795432558168
 20
1335.67251118943
 10
651.2173510584407
 20
1335.669408295357
 10
650.723463692003
 20
1335.666676448452
 10
650.3265840950326
 20
1335.664474413729
 10
650.0497774671067
 20
1335.662930165442
 10
649.9091308032903
 20
1335.662133449687
  0
LWPOLYLINE
  5
B55
330
1F
100
AcDbEntity
  8
Hewi
370
    13
100
AcDbPolyline
 90
       14
 70
     0
 43
0.0
 10
663.8258911936818
 20
1335.73871726362
 10
663.8222040205173
 20
1335.738720144616
 10
663.6743972954763
 20
1335.737929023425
 10
663.3910610081612
 20
1335.73638987713
 10
662.9886616337053
 20
1335.734192155323
 10
662.4905851610901
 20
1335.731463581604
 10
661.9257779844674
 20
1335.728362730763
 10
661.327064643955
 20
1335.725069812976
 10
660.729240182668
 20
1335.721776200657
 10
660.1670479852919
 20
1335.718673306583
 10
659.6731606188541
 20
1335.715941459679
 10
659.2762810218837
 20
1335.713739424956
 10
658.9994743939578
 20
1335.712195176668
 10
658.8588277301414
 20
1335.711398460915
  0
LWPOLYLINE
  5
B56
330
1F
100
AcDbEntity
  8
Hewi
370
    13
100
AcDbPolyline
 90
       26
 70
     1
 43
0.0
 10
634.9430015808166
 20
1335.579514414674
 10
636.3799135980452
 20
1335.587417417361
 10
637.8146923051363
 20
1335.595322086925
 10
639.1639535788372
 20
1335.602769032703
 10
640.3492832582879
 20
1335.609325465274
 10
641.3017942910182
 20
1335.614610348609
 10
641.9661301980386
 20
1335.618316544499
 10
642.3036821911982
 20
1335.62022866231
 10
642.2948329756081
 20
1335.620235576703
 10
641.9400968355084
 20
1335.618336885843
 10
641.2600897459515
 20
1335.614642934738
 10
640.2943312472553
 20
1335.609368402398
 10
639.0989477129778
 20
1335.602819825474
 10
637.7434104890863
 20
1335.595377783453
 10
636.3064984718557
 20
1335.587474780766
 10
634.8717197647665
 20
1335.579570111201
 10
633.5224584910656
 20
1335.572123165423
 10
632.337128811615
 20
1335.565566732852
 10
631.3846177788846
 20
1335.560281849517
 10
630.7202818718642
 20
1335.556575653628
 10
630.3827298787028
 20
1335.554663535818
 10
630.3915790942946
 20
1335.554656621423
 10
630.7463152343943
 20
1335.556555312285
 10
631.4263223239513
 20
1335.56024926339
 10
632.3920808226457
 20
1335.565523795728
 10
633.5874643569249
 20
1335.572072372652
  0
LWPOLYLINE
  5
B57
330
1F
100
AcDbEntity
  8
Hewi
370
    13
100
AcDbPolyline
 90
       14
 70
     0
 43
0.0
 10
676.8754492825546
 20
1335.810550604011
 10
676.8717621093919
 20
1335.810553485008
 10
676.723955384351
 20
1335.809762363816
 10
676.4406190970357
 20
1335.808223217522
 10
676.0382197225781
 20
1335.806025495715
 10
675.5401432499629
 20
1335.803296921996
 10
674.9753360733402
 20
1335.800196071154
 10
674.3766227328278
 20
1335.796903153367
 10
673.7787982715408
 20
1335.793609541049
 10
673.2166060741665
 20
1335.790506646975
 10
672.7227187077287
 20
1335.787774800071
 10
672.3258391107565
 20
1335.785572765348
 10
672.0490324828324
 20
1335.784028517061
 10
671.9083858190161
 20
1335.783231801306
  0
LWPOLYLINE
  5
B58
330
1F
100
AcDbEntity
  8
Hewi
370
    13
100
AcDbPolyline
 90
        4
 70
     0
 43
0.0
 10
683.8304165812051
 20
1335.849231475513
 10
683.2543833854042
 20
1335.84529146291
 10
627.4546883799239
 20
1335.538133285
 10
627.3323298362729
 20
1335.538228890673
  0
LWPOLYLINE
  5
B59
330
1F
100
AcDbEntity
  8
Hewi
370
    13
100
AcDbPolyline
 90
       12
 70
     0
 43
0.0
 10
309.9813469510845
 20
1018.525931292488
 10
309.9924109864641
 20
1018.502720530287
 10
310.6027100993015
 20
1017.756920036657
 10
311.373581764864
 20
1017.177716645412
 10
312.2602257239523
 20
1016.798771552333
 10
313.2111134524848
 20
1016.642107668818
 10
314.1709828120147
 20
1016.716829730329
 10
315.0840496843502
 20
1017.018595162254
 10
315.8972499417332
 20
1017.529866454562
 10
316.5633233410672
 20
1018.220930378141
 10
317.0435601174622
 20
1019.051624809665
 10
317.3629253113786
 20
1019.609095212875
  0
LINE
  5
B5A
330
1F
100
AcDbEntity
  8
Hewi
370
    13
100
AcDbLine
 10
317.5466799599854
 20
1020.213739677837
 30
0.0
 11
317.4024637361153
 21
1019.714756555296
 31
0.0
  0
LWPOLYLINE
  5
B5B
330
1F
100
AcDbEntity
  8
Hewi
370
    13
100
AcDbPolyline
 90
       11
 70
     0
 43
0.0
 10
735.4283845572727
 20
1019.355297067058
 10
735.7433887796987
 20
1018.805234379081
 10
736.2282774285786
 20
1017.977210123212
 10
736.8982252966934
 20
1017.289842550934
 10
737.7142974491116
 20
1016.783078967066
 10
738.629066738632
 20
1016.486370629092
 10
739.589370099201
 20
1016.416961147126
 10
740.5393981900642
 20
1016.578884347965
 10
741.4239388317901
 20
1016.962729843744
 10
742.1915857374578
 20
1017.546189929469
 10
742.5506065505987
 20
1017.98992582926
  0
LINE
  5
B5C
330
1F
100
AcDbEntity
  8
Hewi
370
    13
100
AcDbLine
 10
764.2643988661157
 20
901.9961920540644
 30
0.0
 11
753.8553616018844
 21
962.0738555049504
 31
0.0
  0
LINE
  5
B5D
330
1F
100
AcDbEntity
  8
Hewi
370
    13
100
AcDbLine
 10
780.7549700482113
 20
904.8675246263265
 30
0.0
 11
770.3512076511042
 21
964.9147432162912
 31
0.0
  0
LWPOLYLINE
  5
B5E
330
1F
100
AcDbEntity
  8
Hewi
370
    13
100
AcDbPolyline
 90
        3
 70
     0
 43
0.0
 10
369.1747337129846
 20
1345.755307795968
 10
369.1747337129846
 20
1340.755307979185
 10
666.7541458391597
 20
1340.755307979185
  0
LWPOLYLINE
  5
B5F
330
1F
100
AcDbEntity
  8
Hewi
370
    13
100
AcDbPolyline
 90
       13
 70
     0
 43
0.0
 10
735.1309067988741
 20
1020.862375359095
 10
735.1709565692171
 20
1021.466375434789
 10
735.3973475605407
 20
1022.258368402365
 10
735.7810532671019
 20
1022.980796114683
 10
736.3091008683268
 20
1023.607553564257
 10
736.9629898340908
 20
1024.123150468909
 10
737.7159541153641
 20
1024.506385091423
 10
738.5410293517152
 20
1024.735738352625
 10
739.1781997254356
 20
1024.794768920026
 10
739.8063262676705
 20
1024.75723864942
 10
740.4627502797548
 20
1024.612339775734
 10
741.079000350829
 20
1024.364134073555
 10
741.4902212187999
 20
1024.110133842111
  0
LWPOLYLINE
  5
B60
330
1F
100
AcDbEntity
  8
Hewi
370
    13
100
AcDbPolyline
 90
        6
 70
     0
 43
0.0
 10
740.2268938388306
 20
990.7231461534635
 10
740.2371098364283
 20
990.7242346703535
 10
742.1378659037136
 20
990.9804593088665
 10
744.1303925716265
 20
991.2970399991216
 10
746.098891432769
 20
991.6555782221266
 10
747.0780913240351
 20
991.8587191208853
  0
LWPOLYLINE
  5
B61
330
1F
100
AcDbEntity
  8
Hewi
370
    13
100
AcDbPolyline
 90
       19
 70
     0
 43
0.0
 10
750.3628662645287
 20
901.4989633543894
 10
750.3544270981993
 20
901.4958353858252
 10
750.0150022909847
 20
901.3308449818614
 10
749.5905333924247
 20
901.0545958636935
 10
749.2200327720265
 20
900.7543394512424
 10
748.9327510066004
 20
900.3740816573536
 10
748.7452732862029
 20
899.9357753121062
 10
748.668422969632
 20
899.4647244720535
 10
748.7066367363431
 20
898.9881235805887
 10
751.3426308094358
 20
886.0196954475364
 10
751.9021754187024
 20
884.0999992339389
 10
752.909936745481
 20
882.2087422366639
 10
754.1906565604086
 20
880.8289392518574
 10
756.8496141925979
 20
878.8813803726974
 10
760.3623656283316
 20
878.0302966069802
 10
762.3942263938706
 20
878.1123744102673
 10
764.0668811986406
 20
878.5619236448146
 10
765.9722093505543
 20
879.2178274649954
 10
768.4926469337725
 20
881.2690072159725
  0
LWPOLYLINE
  5
B62
330
1F
100
AcDbEntity
  8
Hewi
370
    13
100
AcDbPolyline
 90
        6
 70
     0
 43
0.0
 10
747.0661390719333
 20
991.9277034884448
 10
745.9003962742108
 20
991.6858631433173
 10
744.0959389848313
 20
991.3572031055625
 10
742.2694562059104
 20
991.0670041394956
 10
740.5270964775673
 20
990.8321315541913
 10
740.1940157216586
 20
990.7966417231731
  0
LINE
  5
B63
330
1F
100
AcDbEntity
  8
Hewi
370
    13
100
AcDbLine
 10
753.1308512015775
 20
884.9393286113564
 30
0.0
 11
740.3251794548078
 21
961.5500225145124
 31
0.0
  0
LINE
  5
B64
330
1F
100
AcDbEntity
  8
Hewi
370
    13
100
AcDbLine
 10
423.3368317167669
 20
1335.632167351157
 30
0.0
 11
423.3368317167669
 21
1336.940447830809
 31
0.0
  0
LWPOLYLINE
  5
B65
330
1F
100
AcDbEntity
  8
Hewi
370
    13
100
AcDbPolyline
 90
        3
 70
     0
 43
0.0
 10
423.3368317167669
 20
1335.632167351157
 10
423.3464259832062
 20
1335.632167351157
 10
423.3464259832062
 20
1336.939710968416
  0
LINE
  5
B66
330
1F
100
AcDbEntity
  8
Hewi
370
    13
100
AcDbLine
 10
423.3327368781365
 20
1335.632167351157
 30
0.0
 11
423.3368317167669
 21
1335.632167351157
 31
0.0
  0
LWPOLYLINE
  5
B67
330
1F
100
AcDbEntity
  8
Hewi
370
    13
100
AcDbPolyline
 90
       12
 70
     0
 43
0.0
 10
326.7381462629319
 20
1078.20059890083
 10
326.3012353189179
 20
1077.543417312919
 10
325.7008023411972
 20
1076.945697227842
 10
324.9937236109754
 20
1076.485479468325
 10
324.2037060479806
 20
1076.177547792964
 10
323.3637314893267
 20
1076.037493366746
 10
322.5070698367099
 20
1076.081093840991
 10
321.896686311652
 20
1076.234136588543
 10
321.3254880336117
 20
1076.480748974273
 10
320.7510605852085
 20
1076.851323593311
 10
320.2483029733603
 20
1077.313204281281
 10
319.9115179283936
 20
1077.748628681663
  0
LWPOLYLINE
  5
B68
330
1F
100
AcDbEntity
  8
Hewi
370
    13
100
AcDbPolyline
 90
       14
 70
     0
 43
0.0
 10
326.7381462629319
 20
1078.20059890083
 10
327.0410448147968
 20
1079.010056312112
 10
327.1587740508048
 20
1079.862055985939
 10
327.0861915888172
 20
1080.71136683255
 10
326.8360128709601
 20
1081.520859261677
 10
326.4216123160704
 20
1082.254469576361
 10
325.8563371002156
 20
1082.882460894527
 10
325.1657199050433
 20
1083.386667045934
 10
324.4667970224218
 20
1083.716236989068
 10
323.7180767312875
 20
1083.913576736613
 10
322.8538201716592
 20
1083.963258764783
 10
322.0049565736599
 20
1083.834811036693
 10
321.2085837663353
 20
1083.536726977274
 10
320.8421415969251
 20
1083.298789249508
  0
LWPOLYLINE
  5
B69
330
1F
100
AcDbEntity
  8
Hewi
370
    13
100
AcDbPolyline
 90
       11
 70
     0
 43
0.0
 10
319.8782561841872
 20
1077.550258457486
 10
320.3793400487648
 20
1076.970636217307
 10
321.0699162930623
 20
1076.452062094846
 10
321.7246423939823
 20
1076.139315121024
 10
322.4329780962253
 20
1075.951762425956
 10
323.3026842819981
 20
1075.908406966329
 10
324.1559629104931
 20
1076.053685862448
 10
324.9575189493744
 20
1076.372505921714
 10
325.6724045177216
 20
1076.85000280823
 10
326.2737789911835
 20
1077.469527464308
 10
326.7381462629319
 20
1078.20059890083
  0
LINE
  5
B6A
330
1F
100
AcDbEntity
  8
Hewi
370
    13
100
AcDbLine
 10
681.5715288721885
 20
1340.836872639174
 30
0.0
 11
681.5715288721885
 21
1345.755307795968
 31
0.0
  0
LWPOLYLINE
  5
B6B
330
1F
100
AcDbEntity
  8
Hewi
370
    13
100
AcDbPolyline
 90
       25
 70
     0
 43
0.0
 10
314.9718185221928
 20
1048.288680462113
 10
315.0549163237593
 20
1048.135760992182
 10
315.6197157270554
 20
1047.482436631665
 10
316.3102919713538
 20
1046.963862509204
 10
316.965018072272
 20
1046.651115535385
 10
317.673353774514
 20
1046.463562840317
 10
318.5430599602869
 20
1046.42020738069
 10
319.3963385887792
 20
1046.56548627681
 10
320.1978946276622
 20
1046.884306336075
 10
320.9127801960085
 20
1047.361803222591
 10
321.5141546694704
 20
1047.981327878668
 10
321.9785219412188
 20
1048.71239931519
 10
322.2814204930846
 20
1049.521856726473
 10
322.3991497290926
 20
1050.373856400299
 10
322.3265672671041
 20
1051.22316724691
 10
322.076388549247
 20
1052.032659676037
 10
321.6619879943583
 20
1052.766269990722
 10
321.0967127785025
 20
1053.394261308888
 10
320.4060955833311
 20
1053.898467460294
 10
319.7071727007096
 20
1054.228037403429
 10
318.9584524095762
 20
1054.425377150973
 10
318.094195849947
 20
1054.475059179143
 10
317.2453322519477
 20
1054.346611451054
 10
316.4489594446213
 20
1054.048527391635
 10
315.8751254633417
 20
1053.675926296514
  0
LWPOLYLINE
  5
B6C
330
1F
100
AcDbEntity
  8
Hewi
370
    13
100
AcDbPolyline
 90
        3
 70
     0
 43
0.0
 10
316.6708452402827
 20
1018.406917471461
 10
316.7545303477591
 20
1018.493128293029
 10
317.2188976195057
 20
1019.224199729551
  0
LWPOLYLINE
  5
B6D
330
1F
100
AcDbEntity
  8
Hewi
370
    13
100
AcDbPolyline
 90
       15
 70
     0
 43
0.0
 10
317.2188976195057
 20
1019.224199729551
 10
317.5217961713715
 20
1020.033657140833
 10
317.6395254073786
 20
1020.885656814661
 10
317.566942945391
 20
1021.734967661271
 10
317.3167642275348
 20
1022.544460090398
 10
316.9023636726461
 20
1023.278070405083
 10
316.3370884567912
 20
1023.906061723249
 10
315.6464712616198
 20
1024.410267874655
 10
314.9475483789966
 20
1024.739837817791
 10
314.1988280878631
 20
1024.937177565334
 10
313.3345715282339
 20
1024.986859593505
 10
312.4857079302346
 20
1024.858411865414
 10
311.6893351229091
 20
1024.560327805995
 10
310.9824392892133
 20
1024.101327171033
 10
310.9024299729299
 20
1024.019192321816
  0
LWPOLYLINE
  5
B6E
330
1F
100
AcDbEntity
  8
Hewi
370
    13
100
AcDbPolyline
 90
       26
 70
     0
 43
0.0
 10
305.1701037916418
 20
989.8320852267113
 10
305.5356676803322
 20
989.1593618209046
 10
306.1004670836291
 20
988.5060374603877
 10
306.7910433279285
 20
987.9874633379277
 10
307.4457694288458
 20
987.6747163641075
 10
308.1541051310878
 20
987.4871636690398
 10
309.0238113168607
 20
987.4438082094133
 10
309.877089945353
 20
987.5890871055313
 10
310.678645984236
 20
987.9079071647975
 10
311.3935315525832
 20
988.3854040513144
 10
311.9949060260451
 20
989.0049287073905
 10
312.4592732977935
 20
989.7360001439137
 10
312.7621718496584
 20
990.5454575551953
 10
312.8799010856655
 20
991.3974572290227
 10
312.8073186236788
 20
992.2467680756335
 10
312.5571399058217
 20
993.0562605047603
 10
312.142739350933
 20
993.7898708194456
 10
311.5774641350772
 20
994.4178621376115
 10
310.8868469399058
 20
994.9220682890176
 10
310.1879240572844
 20
995.2516382321526
 10
309.4392037661501
 20
995.4489779796954
 10
308.5749472065208
 20
995.4986600078663
 10
307.7260836085216
 20
995.3702122797755
 10
306.9297108011951
 20
995.0721282203565
 10
306.222814967502
 20
994.6131275853945
 10
305.9195676491754
 20
994.3018241781992
  0
LWPOLYLINE
  5
B6F
330
1F
100
AcDbEntity
  8
Hewi
370
    13
100
AcDbPolyline
 90
       16
 70
     0
 43
0.0
 10
374.0629215475301
 20
1335.632167377614
 10
373.9098381252861
 20
1333.815906358804
 10
373.2363548955072
 20
1328.10954393615
 10
372.2481351514716
 20
1320.826171150896
 10
371.0001255366297
 20
1312.37075551149
 10
369.5617174386161
 20
1303.213432037145
 10
314.379594773497
 20
961.3332043718896
 10
314.2605178077338
 20
961.1253486462763
 10
313.5759951811424
 20
961.0172631336716
 10
312.365808860638
 20
961.0152293711896
 10
310.700290476324
 20
961.1193655537162
 10
308.67623390278
 20
961.3236196648413
 10
306.4112699509169
 20
961.6161211980598
 10
304.0370300928052
 20
961.9798710274606
 10
301.6914965189917
 20
962.3937293351366
 10
300.6060922644556
 20
962.6127077848936
  0
LWPOLYLINE
  5
B70
330
1F
100
AcDbEntity
  8
Hewi
370
    13
100
AcDbPolyline
 90
       14
 70
     0
 43
0.0
 10
300.3419240402491
 20
961.0372307509006
 10
300.2910718392022
 20
961.2440106637698
 10
299.6727914896546
 20
961.5385122315604
 10
298.5230151981659
 20
961.9036200936236
 10
296.9085637835333
 20
962.3181155081272
 10
294.9232632936773
 20
962.7579095082124
 10
292.6824921767993
 20
963.1974428651783
 10
290.316475905338
 20
963.6111714979575
 10
287.9627187448741
 20
963.9750510022555
 10
285.7580125060131
 20
964.2679340239306
 10
283.8304867015759
 20
964.4727992663483
 10
282.292162125047
 20
964.5777407062764
 10
281.2324406092293
 20
964.5766595286714
 10
280.7129093166932
 20
964.4696185676455
  0
LWPOLYLINE
  5
B71
330
1F
100
AcDbEntity
  8
Hewi
370
    13
100
AcDbPolyline
 90
        4
 70
     0
 43
0.0
 10
298.70805614027
 20
960.9328343450854
 10
298.762671231897
 20
960.9291086122695
 10
299.8223927477138
 20
960.9301897898744
 10
300.3419240402491
 20
961.0372307509006
  0
LWPOLYLINE
  5
B72
330
1F
100
AcDbEntity
  8
Hewi
370
    13
100
AcDbPolyline
 90
        8
 70
     0
 43
0.0
 10
300.3419240402491
 20
961.0372307509006
 10
357.6689981737682
 20
1302.931037992672
 10
358.6144446647941
 20
1308.478741098693
 10
359.5565232591535
 20
1313.826703986293
 10
360.9744163098412
 20
1321.514109615113
 10
362.2528506921217
 20
1327.988015215544
 10
363.3207433512416
 20
1332.888460986246
 10
364.1187176986032
 20
1335.942974080839
  0
LWPOLYLINE
  5
B73
330
1F
100
AcDbEntity
  8
Hewi
370
    13
100
AcDbPolyline
 90
       17
 70
     0
 43
0.0
 10
282.2545419502276
 20
964.0239315573904
 10
282.2283097918507
 20
964.0364265554504
 10
282.1850854209597
 20
964.2121894813895
 10
282.6266870196168
 20
964.3031742982614
 10
283.52745030806
 20
964.3040932992255
 10
284.8350261981104
 20
964.2148930752874
 10
286.4734231318816
 20
964.0407576192314
 10
288.3474234349142
 20
963.7918070508071
 10
290.3481170213081
 20
963.4825094721545
 10
292.3592308520501
 20
963.1308401342923
 10
294.2638863013963
 20
962.7572367808715
 10
295.9513917177728
 20
962.3834118807996
 10
297.3236754202126
 20
962.0310907784705
 10
298.3009852679779
 20
961.7207490957174
 10
298.8265235650924
 20
961.4704227630946
 10
298.8697479359826
 20
961.2946598371562
 10
298.7651103471935
 20
961.2731009662573
  0
LWPOLYLINE
  5
B74
330
1F
100
AcDbEntity
  8
Hewi
370
    13
100
AcDbPolyline
 90
        4
 70
     0
 43
0.0
 10
280.7129093166932
 20
964.4696185676455
 10
280.7637615177409
 20
964.2628386547764
 10
281.3820418672885
 20
963.9683370869855
 10
282.2015838655115
 20
963.7080940909713
  0
LWPOLYLINE
  5
B75
330
1F
100
AcDbEntity
  8
Hewi
370
    13
100
AcDbPolyline
 90
       15
 70
     0
 43
0.0
 10
280.7129093166932
 20
964.4696185676455
 10
338.0399834502123
 20
1306.363425809417
 10
339.0457353188776
 20
1312.264989587639
 10
340.0479044693275
 20
1317.954072702141
 10
341.5562379380471
 20
1326.131820094264
 10
342.9162173563973
 20
1333.018664264723
 10
344.0522256314698
 20
1338.231685348372
 10
344.9010988343689
 20
1341.481030797229
 10
345.8200715702369
 20
1343.632553746573
 10
346.3645664853893
 20
1344.801885714029
 10
347.8158790640855
 20
1346.726111232083
 10
349.6852309428878
 20
1348.246879220299
 10
351.8639821854176
 20
1349.275808170967
 10
354.2255116888982
 20
1349.753100473481
 10
358.5863415100484
 20
1349.780708660942
  0
LWPOLYLINE
  5
B76
330
1F
100
AcDbEntity
  8
Hewi
370
    13
100
AcDbPolyline
 90
        3
 70
     0
 43
0.0
 10
317.2188976195057
 20
1019.224199729551
 10
316.7819866754908
 20
1018.567018141641
 10
316.7382057901468
 20
1018.523435068286
  0
LINE
  5
B77
330
1F
100
AcDbEntity
  8
Hewi
370
    13
100
AcDbLine
 10
362.6603812211069
 20
1329.858129731851
 30
0.0
 11
364.9020841921547
 21
1329.872321837116
 31
0.0
  0
LINE
  5
B78
330
1F
100
AcDbEntity
  8
Hewi
370
    13
100
AcDbLine
 10
374.1071506399467
 20
1340.755307995806
 30
0.0
 11
374.1165139990517
 21
1340.632167149233
 31
0.0
  0
LWPOLYLINE
  5
B79
330
1F
100
AcDbEntity
  8
Hewi
370
    13
100
AcDbPolyline
 90
        3
 70
     0
 43
0.0
 10
423.3327371950881
 20
1335.632167351157
 10
423.3327371950881
 20
1340.63216716794
 10
423.3231429286479
 20
1340.63216716794
  0
LWPOLYLINE
  5
B7A
330
1F
100
AcDbEntity
  8
Hewi
370
    13
100
AcDbPolyline
 90
        4
 70
     0
 43
0.0
 10
423.3231429286479
 20
1340.63216716794
 10
366.8231493709555
 20
1340.63216716794
 10
366.8231493709555
 20
1335.632167351157
 10
423.3231429286479
 20
1335.632167351157
  0
LINE
  5
B7B
330
1F
100
AcDbEntity
  8
Hewi
370
    13
100
AcDbLine
 10
423.3231429286479
 20
1335.632167351157
 30
0.0
 11
423.3231429286479
 21
1340.63216716794
 31
0.0
  0
LINE
  5
B7C
330
1F
100
AcDbEntity
  8
Hewi
370
    13
100
AcDbLine
 10
423.3327371950881
 20
1335.632167351157
 30
0.0
 11
423.3231429286479
 21
1335.632167351157
 31
0.0
  0
LWPOLYLINE
  5
B7D
330
1F
100
AcDbEntity
  8
Hewi
370
    13
100
AcDbPolyline
 90
       43
 70
     1
 43
0.0
 10
762.6425823075578
 20
899.3619536878695
 10
765.3566322381093
 20
886.4030972954665
 10
765.5542501305963
 20
885.5807612241047
 10
766.3722040102484
 20
883.6278406522488
 10
767.5099849849494
 20
882.1755450959097
 10
768.3161921369455
 20
881.4290514839075
 10
769.9719030961887
 20
879.9273239689895
 10
773.3884010361516
 20
878.7054893667605
 10
775.4115243426322
 20
878.6855871123698
 10
777.128706784978
 20
878.8530750004824
 10
779.0814211163388
 20
879.4166708184812
 10
782.111978030186
 20
881.3932330739802
 10
783.9726059735503
 20
884.1280649354686
 10
784.7286483284106
 20
885.8393397682997
 10
785.0563906836259
 20
887.9489336566953
 10
784.9502178215653
 20
889.9429543319913
 10
783.1453149632825
 20
903.0660609402264
 10
783.0236106078873
 20
903.5289936086453
 10
782.7951301865368
 20
903.9487217127266
 10
782.4730642030108
 20
904.3010137445387
 10
782.0760059903723
 20
904.5655313777194
 10
781.6268782910711
 20
904.7270036283535
 10
781.1413576626264
 20
904.8226142499398
 10
780.766069123797
 20
904.8675808531754
 10
779.8230889873694
 20
904.8627387312695
 10
778.4573420345032
 20
904.7616853898986
 10
778.1845204822448
 20
904.7311405619623
 10
776.5523182449551
 20
904.5483646068223
 10
774.6870374651835
 20
904.2899392612211
 10
772.6970814818296
 20
903.9708832669086
 10
770.6980993034513
 20
903.6097389985513
 10
768.8062645082509
 20
903.2274948483214
 10
767.1315236579876
 20
902.8463654568295
 10
766.8833254274622
 20
902.7880651388304
 10
765.4588871405949
 20
902.4133341558854
 10
764.4464736670479
 20
902.0847367311896
 10
763.9049282060851
 20
901.8213784076255
 10
763.5516653865042
 20
901.6447887463462
 10
763.1859002290611
 20
901.3443596323245
 10
762.9033610575979
 20
900.9639559411414
 10
762.7203592653923
 20
900.5255389257404
 10
762.6749339441494
 20
900.3137250480515
 10
762.6013525238895
 20
899.8394252204363
  0
LWPOLYLINE
  5
B7E
330
1F
100
AcDbEntity
  8
Hewi
370
    13
100
AcDbPolyline
 90
        3
 70
     0
 43
0.0
 10
666.9076246153354
 20
1335.755308162308
 10
677.536802732041
 20
1335.755308162308
 10
677.536802732041
 20
1335.813818142355
  0
LWPOLYLINE
  5
B7F
330
1F
100
AcDbEntity
  8
Hewi
370
    13
100
AcDbPolyline
 90
       13
 70
     0
 43
0.0
 10
747.387181619536
 20
990.0747476232995
 10
747.3767726082924
 20
990.0525317835654
 10
746.8650127378833
 20
989.3754370591134
 10
746.2246040976906
 20
988.8213498452428
 10
745.4793732937933
 20
988.4133831861575
 10
744.6531164124544
 20
988.1746810630975
 10
744.0148909893787
 20
988.1206129538124
 10
743.3806817336399
 20
988.1707478708804
 10
742.7108706708176
 20
988.3362747518606
 10
742.0799594921763
 20
988.6093595695715
 10
741.5056153759951
 20
988.9817656621525
 10
740.9999607060263
 20
989.4464287239545
 10
740.522618612048
 20
990.0620837615266
  0
LWPOLYLINE
  5
B80
330
1F
100
AcDbEntity
  8
Hewi
370
    13
100
AcDbPolyline
 90
       12
 70
     0
 43
0.0
 10
737.2465300062331
 20
1048.603374195838
 10
737.0159145530188
 20
1048.298253541058
 10
736.3755059128261
 20
1047.744166327187
 10
735.6302751089287
 20
1047.336199668102
 10
734.8040182275881
 20
1047.09749754504
 10
734.1657928045142
 20
1047.043429435756
 10
733.5315835487754
 20
1047.093564352824
 10
732.8617724859514
 20
1047.259091233804
 10
732.2308613073101
 20
1047.532176051515
 10
731.6565171911307
 20
1047.904582144095
 10
731.1508625211618
 20
1048.369245205897
 10
730.6735204271817
 20
1048.984900243474
  0
LWPOLYLINE
  5
B81
330
1F
100
AcDbEntity
  8
Hewi
370
    13
100
AcDbPolyline
 90
       12
 70
     0
 43
0.0
 10
732.1756091041216
 20
1077.871122117053
 10
732.0913654605837
 20
1077.759661782029
 10
731.4509568203911
 20
1077.205574568158
 10
730.7057260164956
 20
1076.797607909073
 10
729.879469135155
 20
1076.558905786013
 10
729.2412437120811
 20
1076.504837676728
 10
728.6070344563422
 20
1076.554972593795
 10
727.93722339352
 20
1076.720499474776
 10
727.3063122148769
 20
1076.993584292486
 10
726.7319680986974
 20
1077.365990385067
 10
726.2263134287286
 20
1077.830653446868
 10
725.7489713347486
 20
1078.446308484442
  0
LINE
  5
B82
330
1F
100
AcDbEntity
  8
Hewi
370
    13
100
AcDbLine
 10
779.6109311046866
 20
888.1907941401484
 30
0.0
 11
779.4677265291348
 21
884.8686530899845
 31
0.0
  0
LINE
  5
B83
330
1F
100
AcDbEntity
  8
Hewi
370
    13
100
AcDbLine
 10
288.7569873409293
 20
901.5855043173823
 30
0.0
 11
298.80029122214
 21
961.4829167203865
 31
0.0
  0
LINE
  5
B84
330
1F
100
AcDbEntity
  8
Hewi
370
    13
100
AcDbLine
 10
272.251510706411
 20
904.3667016875714
 30
0.0
 11
282.2897229582468
 21
964.2337480448887
 31
0.0
  0
LWPOLYLINE
  5
B85
330
1F
100
AcDbEntity
  8
Hewi
370
    13
100
AcDbPolyline
 90
       13
 70
     0
 43
0.0
 10
741.3586161645116
 20
1024.869716440546
 10
740.7608523879816
 20
1025.200600183076
 10
739.9465942648921
 20
1025.445473979268
 10
739.2127632153906
 20
1025.519442115518
 10
738.4723096945135
 20
1025.461670883339
 10
737.6358395686775
 20
1025.226042523202
 10
736.8668906036064
 20
1024.826452769334
 10
736.1995759748215
 20
1024.284911189678
 10
735.667557221609
 20
1023.622925550619
 10
735.2928251367384
 20
1022.860068428892
 10
735.08847840836
 20
1022.030016150314
 10
735.0679684091674
 20
1021.169735002195
 10
735.2421521253427
 20
1020.319108754429
  0
LWPOLYLINE
  5
B86
330
1F
100
AcDbEntity
  8
Hewi
370
    13
100
AcDbPolyline
 90
       17
 70
     0
 43
0.0
 10
752.0541322683502
 20
963.1385882577625
 10
751.3297983317234
 20
962.9883463970022
 10
748.9862220774239
 20
962.5615638667136
 10
746.6142189005013
 20
962.1847610493336
 10
744.35164100372
 20
961.8798363549844
 10
742.3299811903062
 20
961.6645108985474
 10
740.6667309801787
 20
961.5512986128734
 10
739.4585524298827
 20
961.5467789844954
 10
738.775660485212
 20
961.6512146777873
 10
738.6577423437747
 20
961.8585362698645
 10
681.5635152113181
 20
1303.428150498459
 10
680.5937909541944
 20
1309.323978450368
 10
679.6907940172213
 20
1315.007250789693
 10
678.4588616052688
 20
1323.176060907643
 10
677.5088990845934
 20
1330.054604439453
 10
676.8937259340937
 20
1335.26042304914
 10
676.8561661748253
 20
1335.75530818607
  0
LWPOLYLINE
  5
B87
330
1F
100
AcDbEntity
  8
Hewi
370
    13
100
AcDbPolyline
 90
       11
 70
     0
 43
0.0
 10
730.6735204271817
 20
1048.984900243474
 10
731.1860304181236
 20
1048.278944701473
 10
731.8299433660476
 20
1047.696436595029
 10
732.5815420899589
 20
1047.264843999196
 10
733.4099666390893
 20
1046.999091215483
 10
734.1400617587196
 20
1046.915140274149
 10
734.8773889276026
 20
1046.968498477099
 10
735.7147247731145
 20
1047.211403796864
 10
736.4707268441462
 20
1047.627873128824
 10
737.1190040214542
 20
1048.19390246995
 10
737.2799632796532
 20
1048.410408040776
  0
LWPOLYLINE
  5
B88
330
1F
100
AcDbEntity
  8
Hewi
370
    13
100
AcDbPolyline
 90
       14
 70
     0
 43
0.0
 10
736.2350554452541
 20
1054.441284772303
 10
735.8363032955467
 20
1054.662008424049
 10
735.0220451724571
 20
1054.90688222024
 10
734.2882141229575
 20
1054.98085035649
 10
733.5477606020804
 20
1054.923079124311
 10
732.7112904762425
 20
1054.687450764174
 10
731.9423415111733
 20
1054.287861010304
 10
731.2750268823865
 20
1053.746319430648
 10
730.7430081291722
 20
1053.084333791588
 10
730.3682760443052
 20
1052.32147666986
 10
730.1639293159251
 20
1051.491424391282
 10
730.143419316736
 20
1050.631143243162
 10
730.3176030329132
 20
1049.780516995396
 10
730.6735204271817
 20
1048.984900243474
  0
LWPOLYLINE
  5
B89
330
1F
100
AcDbEntity
  8
Hewi
370
    13
100
AcDbPolyline
 90
       11
 70
     0
 43
0.0
 10
725.7489713347486
 20
1078.446308484442
 10
726.2614813256941
 20
1077.740352942442
 10
726.9053942736181
 20
1077.157844835998
 10
727.6569929975312
 20
1076.726252240166
 10
728.4854175466598
 20
1076.460499456454
 10
729.2155126662883
 20
1076.37654851512
 10
729.9528398351695
 20
1076.429906718071
 10
730.7901756806796
 20
1076.672812037836
 10
731.5461777517093
 20
1077.089281369795
 10
732.1944549290192
 20
1077.655310710919
 10
732.209495355265
 20
1077.675541520292
  0
LWPOLYLINE
  5
B8A
330
1F
100
AcDbEntity
  8
Hewi
370
    13
100
AcDbPolyline
 90
       14
 70
     0
 43
0.0
 10
731.1114947369905
 20
1084.012853097975
 10
730.911754203128
 20
1084.123416665016
 10
730.0974960800422
 20
1084.368290461209
 10
729.3636650305316
 20
1084.442258597462
 10
728.623211509649
 20
1084.384487365282
 10
727.7867413838111
 20
1084.148859005146
 10
727.01779241874
 20
1083.749269251276
 10
726.3504777899534
 20
1083.20772767162
 10
725.8184590367391
 20
1082.545742032559
 10
725.4437269518703
 20
1081.782884910831
 10
725.2393802234937
 20
1080.952832632252
 10
725.2188702243047
 20
1080.092551484131
 10
725.39305394048
 20
1079.241925236364
 10
725.7489713347486
 20
1078.446308484442
  0
LWPOLYLINE
  5
B8B
330
1F
100
AcDbEntity
  8
Hewi
370
    13
100
AcDbPolyline
 90
       11
 70
     0
 43
0.0
 10
740.522618612048
 20
990.0620837615266
 10
741.0351286029918
 20
989.3561282195264
 10
741.6790415509176
 20
988.7736201130826
 10
742.4306402748307
 20
988.3420275172507
 10
743.2590648239592
 20
988.0762747335396
 10
743.9891599435878
 20
987.9923237922053
 10
744.7264871124671
 20
988.0456819951556
 10
745.5638229579808
 20
988.2885873149207
 10
746.3198250290124
 20
988.7050566468804
 10
746.9681022063205
 20
989.2710859880052
 10
747.4208991035257
 20
989.8801410482427
  0
LWPOLYLINE
  5
B8C
330
1F
100
AcDbEntity
  8
Hewi
370
    13
100
AcDbPolyline
 90
       15
 70
     0
 43
0.0
 10
746.4863270059659
 20
995.2741950156703
 10
746.4222343453538
 20
995.3313284589984
 10
745.6854014804185
 20
995.7391919421036
 10
744.8711433573308
 20
995.9840657382956
 10
744.1373123078256
 20
996.0580338745465
 10
743.3968587869485
 20
996.0002626423674
 10
742.5603886611088
 20
995.7646342822304
 10
741.7914396960377
 20
995.3650445283606
 10
741.124125067251
 20
994.8235029487046
 10
740.5921063140385
 20
994.1615173096433
 10
740.2173742291697
 20
993.3986601879146
 10
740.0130275007914
 20
992.5686079093363
 10
739.9925175016023
 20
991.7083267612156
 10
740.1667012177776
 20
990.8577005134484
 10
740.522618612048
 20
990.0620837615266
  0
LWPOLYLINE
  5
B8D
330
1F
100
AcDbEntity
  8
Hewi
370
    13
100
AcDbPolyline
 90
       14
 70
     0
 43
0.0
 10
771.9255366866409
 20
965.1596073554946
 10
771.4031683833791
 20
965.2636648607986
 10
770.34138029953
 20
965.2588003416907
 10
768.8018796990846
 20
965.1452965063386
 10
766.8741367610846
 20
964.9297497850849
 10
764.6701848980273
 20
964.6246869698856
 10
762.3181097811493
 20
964.2478372027053
 10
759.9546054668035
 20
963.8211016222166
 10
757.7170302347504
 20
963.3692805492387
 10
755.7354238242196
 20
962.9186321822285
 10
754.1249499969481
 20
962.4953465662386
 10
752.9792036379376
 20
962.1240235226887
 10
752.3647713609616
 20
961.8262429971647
 10
752.3173617365837
 20
961.6193109114224
  0
LWPOLYLINE
  5
B8E
330
1F
100
AcDbEntity
  8
Hewi
370
    13
100
AcDbPolyline
 90
        8
 70
     0
 43
0.0
 10
752.3173617365837
 20
961.6193109114224
 10
693.1362648765489
 20
1303.193841730848
 10
691.6097906423938
 20
1311.794711961206
 10
690.126863773733
 20
1319.736976332342
 10
688.7699374439662
 20
1326.579031879721
 10
687.6144589892547
 20
1331.940449059316
 10
686.7246749125087
 20
1335.523124256093
 10
686.3190366609933
 20
1336.78398014973
  0
LWPOLYLINE
  5
B8F
330
1F
100
AcDbEntity
  8
Hewi
370
    13
100
AcDbPolyline
 90
        4
 70
     0
 43
0.0
 10
752.3173617365837
 20
961.6193109114224
 10
752.8397300398455
 20
961.5152534061188
 10
753.9015181236946
 20
961.5201179252265
 10
753.9506740847455
 20
961.5237420810775
  0
LWPOLYLINE
  5
B90
330
1F
100
AcDbEntity
  8
Hewi
370
    13
100
AcDbPolyline
 90
       17
 70
     0
 43
0.0
 10
753.8916912094037
 20
961.8641725021587
 10
753.7879748578371
 20
961.8848331447273
 10
753.8282730385589
 20
962.0607254176084
 10
754.350540473989
 20
962.3138388643038
 10
755.3244248791461
 20
962.6294634513214
 10
756.6933276323298
 20
962.9892562249137
 10
758.3776930812791
 20
963.3723073368715
 10
760.2796320285242
 20
963.7563552489023
 10
762.2886106957184
 20
964.1190804923171
 10
764.2878745450625
 20
964.4394027944215
 10
766.1612336286643
 20
964.6987061873403
 10
767.7998151259644
 20
964.8819209004063
 10
769.1083906363428
 20
964.9783991604554
 10
770.0109105076144
 20
964.9825340016972
 10
770.4549235653876
 20
964.8940851221887
 10
770.4146253846657
 20
964.7181928493086
 10
770.3875365345129
 20
964.7050644178486
  0
LWPOLYLINE
  5
B91
330
1F
100
AcDbEntity
  8
Hewi
370
    13
100
AcDbPolyline
 90
        4
 70
     0
 43
0.0
 10
770.4423487034464
 20
964.3887060502654
 10
771.2636947852852
 20
964.6548947442285
 10
771.878127062263
 20
964.9526752697525
 10
771.9255366866409
 20
965.1596073554946
  0
LWPOLYLINE
  5
B92
330
1F
100
AcDbEntity
  8
Hewi
370
    13
100
AcDbPolyline
 90
       15
 70
     0
 43
0.0
 10
771.9255366866409
 20
965.1596073554946
 10
712.7444398266079
 20
1306.734138174921
 10
711.1205993152261
 20
1315.883615578926
 10
709.5430838414167
 20
1324.33247789798
 10
708.0996058606315
 20
1331.610954488257
 10
706.8704251232129
 20
1337.314350077812
 10
705.9238861002332
 20
1341.125546489438
 10
705.4923741814336
 20
1342.466826173884
 10
704.5478040339739
 20
1344.6511746624
 10
704.2465523490363
 20
1345.128256451616
 10
702.7846205975393
 20
1347.044461271901
 10
700.906862842171
 20
1348.55491278482
 10
698.7224075383028
 20
1349.571829038709
 10
696.3582072880226
 20
1350.036110557234
 10
691.9518233804837
 20
1350.046491840951
  0
LINE
  5
B93
330
1F
100
AcDbEntity
  8
Hewi
370
    13
100
AcDbLine
 10
730.7138302627945
 20
1048.932910373664
 30
0.0
 11
730.6223620271639
 21
1049.099259590375
 31
0.0
  0
LINE
  5
B94
330
1F
100
AcDbEntity
  8
Hewi
370
    13
100
AcDbLine
 10
725.7892811703613
 20
1078.394318614636
 30
0.0
 11
725.6978129347325
 21
1078.560667831345
 31
0.0
  0
LWPOLYLINE
  5
B95
330
1F
100
AcDbEntity
  8
Hewi
370
    13
100
AcDbPolyline
 90
       21
 70
     0
 43
0.0
 10
285.2185456005436
 20
881.2009006211553
 10
285.4589249403862
 20
880.8699277691134
 10
286.9080934295043
 20
879.8781463459205
 10
288.5640867428965
 20
878.9099803146635
 10
290.3214463414624
 20
878.3561488839437
 10
292.275776317153
 20
878.1988385713363
 10
294.0997362284352
 20
878.2288737300623
 10
297.5699621862487
 20
879.4693431293826
 10
300.117377992945
 20
881.7311829668165
 10
301.150873159032
 20
883.1892163935394
 10
301.8987253215783
 20
885.1462866856754
 10
302.2001308143617
 20
886.1763013656796
 10
304.7637143937099
 20
899.1588555648222
 10
304.7992436272853
 20
899.6356833579763
 10
304.7196943465106
 20
900.1063874390823
 10
304.5296590459302
 20
900.5437933836397
 10
304.2401087371345
 20
900.9226491165245
 10
303.8677595764521
 20
901.2210827506574
 10
303.4546272467533
 20
901.4933664969564
 10
303.1135911438787
 20
901.6567561043665
 10
303.089373060192
 20
901.6656624933339
  0
LINE
  5
B96
330
1F
100
AcDbEntity
  8
Hewi
370
    13
100
AcDbLine
 10
297.4417149686615
 20
881.5917522937906
 30
0.0
 11
298.5625739670377
 21
884.5249521389714
 31
0.0
  0
LINE
  5
B97
330
1F
100
AcDbEntity
  8
Hewi
370
    13
100
AcDbLine
 10
688.0099073913943
 20
1330.105568467636
 30
0.0
 11
686.0380355285242
 21
1330.11021412759
 31
0.0
  0
LINE
  5
B98
330
1F
100
AcDbEntity
  8
Hewi
370
    13
100
AcDbLine
 10
740.562928447659
 20
990.0100938917214
 30
0.0
 11
740.4714602120302
 21
990.1764431084316
 31
0.0
  0
LWPOLYLINE
  5
B99
330
1F
100
AcDbEntity
  8
Hewi
370
    13
100
AcDbPolyline
 90
        6
 70
     0
 43
0.0
 10
305.551339270095
 20
992.1057414084925
 10
306.8432434447268
 20
991.8451019534575
 10
308.8134916467315
 20
991.4974609750107
 10
310.8078531275432
 20
991.1919111183125
 10
312.710422847108
 20
990.9462098304084
 10
312.8160745327386
 20
990.9355481762734
  0
LWPOLYLINE
  5
B9A
330
1F
100
AcDbEntity
  8
Hewi
370
    13
100
AcDbPolyline
 90
       43
 70
     1
 43
0.0
 10
274.9757367732109
 20
878.6699324707205
 10
276.88374882876
 20
878.2311252490215
 10
278.7203771524155
 20
878.1590490662095
 10
280.6055249844576
 20
878.5835683824025
 10
282.2913322108925
 20
879.0299576051186
 10
285.0412306320095
 20
880.9928464339463
 10
286.2226987672975
 20
882.3791332695504
 10
287.165758066013
 20
884.2755933064813
 10
287.7545781595336
 20
885.9905570087653
 10
290.3985065439156
 20
898.9642256874486
 10
290.4371254242396
 20
899.4419045814312
 10
290.3608973136315
 20
899.9157508812622
 10
290.3022481252929
 20
900.1290229475598
 10
290.1170493566142
 20
900.5663150417413
 10
289.8326912290031
 20
900.9450092531865
 10
289.4655901466949
 20
901.2432430196772
 10
289.1116396293865
 20
901.4177228321594
 10
288.558607707836
 20
901.6793552278045
 10
287.5353042335919
 20
902.0033395955262
 10
286.1011998850199
 20
902.3708471415083
 10
285.8541735779399
 20
902.4274830900164
 10
284.1719122712293
 20
902.7996139836323
 10
282.2747028002086
 20
903.1712851719635
 10
280.2728040832562
 20
903.5208964765125
 10
278.2825591971969
 20
903.8281297590435
 10
276.4196339405625
 20
904.0751297379253
 10
276.2219318295765
 20
904.0961610965064
 10
274.5178825996763
 20
904.2767002409746
 10
273.1595605488919
 20
904.3686452677224
 10
272.2258981082168
 20
904.3666463074066
 10
271.8502343020909
 20
904.3195862356306
 10
271.375852315633
 20
904.2196255243222
 10
270.9274057074808
 20
904.0555773331155
 10
270.53162033836
 20
903.7887900615737
 10
270.2113454676328
 20
903.4346657231067
 10
269.9850710248393
 20
903.0136484257754
 10
269.8658601594388
 20
902.5500441044965
 10
268.1324053036269
 20
889.4173704594855
 10
268.0920754439712
 20
888.3704903837038
 10
268.1717860323433
 20
886.2669338732246
 10
268.6809453199212
 20
884.5383188347836
 10
270.3718660036784
 20
881.5948141959015
 10
273.263111037908
 20
879.3165301642311
  0
LINE
  5
B9B
330
1F
100
AcDbEntity
  8
Hewi
370
    13
100
AcDbLine
 10
281.5381538713782
 20
886.3700067776125
 30
0.0
 11
280.369884565961
 21
883.2677933000795
 31
0.0
  0
LINE
  5
B9C
330
1F
100
AcDbEntity
  8
Hewi
370
    13
100
AcDbLine
 10
317.2394115841989
 20
1019.279020659699
 30
0.0
 11
317.2148843673167
 21
1019.218163177448
 31
0.0
  0
LWPOLYLINE
  5
B9D
330
1F
100
AcDbEntity
  8
Hewi
370
    13
100
AcDbPolyline
 90
        6
 70
     0
 43
0.0
 10
312.8265695091713
 20
991.0114995440363
 10
312.4202547259701
 20
991.0525020861413
 10
310.6762324830352
 20
991.2777282667196
 10
308.8480677922908
 20
991.5578156353586
 10
307.0420069404527
 20
991.8764865322696
 10
305.5629332842264
 20
992.1748871097156
  0
LINE
  5
B9E
330
1F
100
AcDbEntity
  8
Hewi
370
    13
100
AcDbLine
 10
316.7996113377549
 20
1018.59352835773
 30
0.0
 11
316.7468385211368
 21
1018.538367619786
 31
0.0
  0
LINE
  5
B9F
330
1F
100
AcDbEntity
  8
Hewi
370
    13
100
AcDbLine
 10
317.02027961767
 20
1018.911507693029
 30
0.0
 11
316.7299976623763
 21
1018.473956318217
 31
0.0
  0
LINE
  5
BA0
330
1F
100
AcDbEntity
  8
Hewi
370
    13
100
AcDbLine
 10
300.4141946635627
 20
885.0916244718858
 30
0.0
 11
312.6689358835374
 21
961.0157374982923
 31
0.0
  0
LWPOLYLINE
  5
BA1
330
1F
100
AcDbEntity
  8
Hewi
370
    13
100
AcDbPolyline
 90
        4
 70
     0
 43
0.0
 10
727.5380911255515
 20
1359.688960582225
 10
722.6595019071565
 20
1360.147009185487
 10
716.710314997309
 20
1360.244047097934
 10
714.3834596780388
 20
1360.186277202782
  0
LWPOLYLINE
  5
BA2
330
1F
100
AcDbEntity
  8
Hewi
370
    13
100
AcDbPolyline
 90
       16
 70
     0
 43
0.0
 10
627.7391155610994
 20
1360.752555166085
 10
629.4048611885346
 20
1360.18326914685
 10
631.4428945130084
 20
1359.556822642231
 10
634.5298220878458
 20
1358.754290903579
 10
635.161218259388
 20
1358.58906647793
 10
638.5300411768885
 20
1357.852139988515
 10
640.5043806425156
 20
1357.517602081517
 10
641.9995579401956
 20
1357.310791780398
 10
647.4302120103848
 20
1356.652121505853
 10
655.7768427770542
 20
1356.570469131798
 10
665.5781738970517
 20
1356.910659748403
 10
675.3383782566643
 20
1357.356411873418
 10
688.3444790970925
 20
1358.147299729064
 10
699.6212731199021
 20
1359.010269462481
 10
709.3884916767993
 20
1359.814137375718
 10
717.8778175999477
 20
1360.446617161529
  0
LWPOLYLINE
  5
BA3
330
1F
100
AcDbEntity
  8
Hewi
370
    13
100
AcDbPolyline
 90
        5
 70
     0
 43
0.0
 10
612.4759638879741
 20
1366.184855016356
 10
614.3805625455379
 20
1365.739022810986
 10
614.9146965754762
 20
1365.54493849324
 10
615.4674192228331
 20
1365.410699660961
 10
616.1059656268889
 20
1365.27607734481
  0
LWPOLYLINE
  5
BA4
330
1F
100
AcDbEntity
  8
Hewi
370
    13
100
AcDbPolyline
 90
        9
 70
     0
 43
0.0
 10
627.9295366415144
 20
1360.69414274003
 10
626.132253916804
 20
1361.24546637938
 10
623.7575998219426
 20
1362.062583712814
 10
622.9266480447086
 20
1362.371297005662
 10
621.5827928609224
 20
1362.89365462059
 10
620.5724606474987
 20
1363.303430971608
 10
617.9666697050388
 20
1364.409240440275
 10
616.3602020398911
 20
1365.168795301904
 10
613.0181033966664
 20
1366.579085600508
  0
LWPOLYLINE
  5
BA5
330
1F
100
AcDbEntity
  8
Hewi
370
    13
100
AcDbPolyline
 90
       15
 70
     0
 43
0.0
 10
543.2657916779716
 20
1334.790201825174
 10
540.3013688898863
 20
1335.123301352621
 10
536.4140239896223
 20
1335.400919160641
 10
532.3227660742759
 20
1335.578756722697
 10
528.876663114307
 20
1335.658711565565
 10
525.3216612586648
 20
1335.681665055231
 10
521.5210835761845
 20
1335.648691365912
 10
520.1555633366488
 20
1335.656355302754
 10
517.8532309771626
 20
1335.550980986546
 10
515.3048386069685
 20
1335.482210391454
 10
513.5608890082249
 20
1335.342528628454
 10
511.0649418497714
 20
1335.213878354656
 10
510.3961509396185
 20
1335.119844443941
 10
509.937798632799
 20
1335.060662186211
 10
507.6920345956787
 20
1334.880356194787
  0
LWPOLYLINE
  5
BA6
330
1F
100
AcDbEntity
  8
Hewi
370
    13
100
AcDbPolyline
 90
        3
 70
     0
 43
0.0
 10
544.098297017651
 20
1333.541316911601
 10
543.8851991829405
 20
1333.687228940509
 10
542.1056444949145
 20
1334.920562603902
  0
LWPOLYLINE
  5
BA7
330
1F
100
AcDbEntity
  8
Hewi
370
    13
100
AcDbPolyline
 90
        9
 70
     0
 43
0.0
 10
508.1615637433669
 20
1334.605932101223
 10
510.7718112175361
 20
1334.945607409176
 10
514.5332611009134
 20
1335.274925962247
 10
518.489060109724
 20
1335.496247196269
 10
521.8514265726189
 20
1335.601955461724
 10
525.3215185051103
 20
1335.619352097991
 10
529.0320908629691
 20
1335.602861871677
 10
532.6116809660079
 20
1335.488228490524
 10
534.0934921597318
 20
1335.448484516815
  0
LWPOLYLINE
  5
BA8
330
1F
100
AcDbEntity
  8
Hewi
370
    13
100
AcDbPolyline
 90
       35
 70
     0
 43
0.0
 10
596.996712180723
 20
1386.469759850927
 10
601.3425619893069
 20
1388.466576051307
 10
605.7895630466564
 20
1390.362923266817
 10
606.9274880379334
 20
1390.84338515558
 10
607.1838689700789
 20
1390.917765850554
 10
609.0027893584292
 20
1391.208420145116
 10
611.3636798575944
 20
1391.355120439942
 10
613.0965813476004
 20
1391.592916588771
 10
615.2329776098277
 20
1391.706170588875
 10
620.45292875223
 20
1391.813135059234
 10
624.9818263932857
 20
1391.910388967984
 10
632.8169946062107
 20
1392.088380633508
 10
637.757192859247
 20
1392.206936642816
 10
651.3127166632248
 20
1392.557300737776
 10
661.6195217528775
 20
1392.848183974898
 10
678.4293099138331
 20
1393.367656098441
 10
693.124507418187
 20
1393.867069949829
 10
703.9047892870158
 20
1394.260017346966
 10
713.4292031619325
 20
1394.625712940634
 10
720.5583028620158
 20
1394.910654173605
 10
726.4691228835681
 20
1395.154090528924
 10
732.0181046177976
 20
1395.406809129982
 10
736.5017008593759
 20
1395.219414507056
 10
739.226893586162
 20
1394.661044727153
 10
741.7630490374622
 20
1393.817585477756
 10
743.1009012642689
 20
1393.144055439138
 10
745.5591411657397
 20
1391.401918466277
 10
745.8389411811467
 20
1391.181882305475
 10
746.0106388778958
 20
1391.034548013512
 10
746.2705621946343
 20
1390.78991628368
 10
747.2518311529084
 20
1389.621252695446
 10
748.168375604816
 20
1388.374740382037
 10
749.5339576744709
 20
1385.639373139667
 10
750.2798136031915
 20
1382.656861989203
 10
750.9494621117437
 20
1380.544423362067
  0
LWPOLYLINE
  5
BA9
330
1F
100
AcDbEntity
  8
Hewi
370
    13
100
AcDbPolyline
 90
        3
 70
     0
 43
0.0
 10
749.866885608938
 20
1384.308068740277
 10
750.2000509433737
 20
1383.532198826732
 10
750.9494621117437
 20
1380.544423362067
  0
LINE
  5
BAA
330
1F
100
AcDbEntity
  8
Hewi
370
    13
100
AcDbLine
 10
439.0648256909489
 20
1366.579106263389
 30
0.0
 11
436.8899861228774
 21
1365.943658645998
 31
0.0
  0
LWPOLYLINE
  5
BAB
330
1F
100
AcDbEntity
  8
Hewi
370
    13
100
AcDbPolyline
 90
       24
 70
     0
 43
0.0
 10
436.8899861228774
 20
1365.943658645998
 10
434.4703976506471
 20
1365.181966890135
 10
432.8631880326656
 20
1364.335008162004
 10
432.4020988529709
 20
1364.126891923075
 10
430.5258193625349
 20
1363.347361320572
 10
428.7683506777366
 20
1362.655537745725
 10
427.3131950929864
 20
1362.118267893383
 10
424.9154639347279
 20
1361.311676257938
 10
422.9263134808579
 20
1360.605495086677
 10
421.7145196655837
 20
1360.183469288564
 10
419.162178237002
 20
1359.38225317769
 10
416.4464991280937
 20
1358.662167263512
 10
412.660592357206
 20
1357.776296966793
 10
411.2450066461041
 20
1357.487535738666
 10
408.3377859944039
 20
1357.012533848172
 10
407.0597864090569
 20
1356.852789585343
 10
405.3500772200496
 20
1356.684065992306
 10
400.8415385671169
 20
1356.324631189721
 10
394.8331681927357
 20
1356.355881587784
 10
376.0572468277705
 20
1357.071002358351
 10
363.7294148535029
 20
1357.780216638191
 10
352.1912245504745
 20
1358.627642571411
 10
342.5557930710938
 20
1359.405084985678
 10
334.4081781194391
 20
1360.018728588016
  0
LWPOLYLINE
  5
BAC
330
1F
100
AcDbEntity
  8
Hewi
370
    13
100
AcDbPolyline
 90
        5
 70
     0
 43
0.0
 10
436.8899861228774
 20
1365.943658645998
 10
436.2142489315693
 20
1365.592507392807
 10
435.6804337163002
 20
1365.397544844885
 10
435.1279314694847
 20
1365.262397128735
 10
434.3412603877677
 20
1365.113914813988
  0
LWPOLYLINE
  5
BAD
330
1F
100
AcDbEntity
  8
Hewi
370
    13
100
AcDbPolyline
 90
        3
 70
     0
 43
0.0
 10
542.0411998448262
 20
1334.927803976782
 10
542.1334575528444
 20
1334.8180680142
 10
544.098297017651
 20
1333.541316911601
  0
LWPOLYLINE
  5
BAE
330
1F
100
AcDbEntity
  8
Hewi
370
    13
100
AcDbPolyline
 90
        3
 70
     0
 43
0.0
 10
539.9752876934544
 20
1334.994425740696
 10
536.5344401905295
 20
1335.306638969183
 10
532.4653767157278
 20
1335.543095677097
  0
LWPOLYLINE
  5
BAF
330
1F
100
AcDbEntity
  8
Hewi
370
    13
100
AcDbPolyline
 90
        6
 70
     0
 43
0.0
 10
627.3238878457932
 20
1337.071925390312
 10
622.8394021384165
 20
1336.665022513908
 10
620.1900769261128
 20
1336.468343248229
 10
572.5931294557094
 20
1333.839893422732
 10
546.4406698628899
 20
1333.10238466166
 10
544.098297017651
 20
1333.541316911601
  0
LWPOLYLINE
  5
BB0
330
1F
100
AcDbEntity
  8
Hewi
370
    13
100
AcDbPolyline
 90
       11
 70
     0
 43
0.0
 10
308.2916171326851
 20
1393.164482926992
 10
305.7574313064206
 20
1391.594006279245
 10
305.1277473595328
 20
1391.170783614017
 10
304.8487927259748
 20
1390.949682129768
 10
304.6775435747522
 20
1390.801599905311
 10
304.1752039415287
 20
1390.318373990082
 10
303.1334753454976
 20
1389.001793100401
 10
302.2190878171177
 20
1387.752744241928
 10
301.0278008956166
 20
1385.269968105533
 10
300.1372373644053
 20
1382.456625883653
 10
299.6208877999279
 20
1380.173272421315
  0
LINE
  5
BB1
330
1F
100
AcDbEntity
  8
Hewi
370
    13
100
AcDbLine
 10
365.370141323866
 20
1345.763294906966
 30
0.0
 11
365.3780887123621
 21
1345.779172178943
 31
0.0
  0
LWPOLYLINE
  5
BB2
330
1F
100
AcDbEntity
  8
Hewi
370
    13
100
AcDbPolyline
 90
        3
 70
     0
 43
0.0
 10
439.7596307749308
 20
1366.839234104817
 10
438.0507278985269
 20
1366.013984329333
 10
437.225631181026
 20
1365.777052223724
  0
LWPOLYLINE
  5
BB3
330
1F
100
AcDbEntity
  8
Hewi
370
    13
100
AcDbPolyline
 90
        9
 70
     0
 43
0.0
 10
685.0710047184374
 20
1345.755307795968
 10
684.999248220708
 20
1345.893462532631
 10
685.0242173616471
 20
1345.845258442649
 10
685.0289668720733
 20
1345.836105139499
 10
685.0419711796466
 20
1345.811068727083
 10
685.0511677600634
 20
1345.793385854826
 10
685.0545978465316
 20
1345.786795454413
 10
685.0587143709899
 20
1345.77888960779
 10
685.0668041315302
 20
1345.763363076368
  0
LWPOLYLINE
  5
BB4
330
1F
100
AcDbEntity
  8
Hewi
370
    13
100
AcDbPolyline
 90
        3
 70
     0
 43
0.0
 10
336.0323402915583
 20
1359.8964036223
 10
329.5825569482813
 20
1359.886827341531
 10
324.1952762278497
 20
1359.51334303381
  0
LWPOLYLINE
  5
BB5
330
1F
100
AcDbEntity
  8
Hewi
370
    13
100
AcDbPolyline
 90
        3
 70
     0
 43
0.0
 10
685.0671388016299
 20
1345.762721070502
 10
685.070026928236
 20
1345.757182198593
 10
685.0710047184374
 20
1345.755307795968
  0
LINE
  5
BB6
330
1F
100
AcDbEntity
  8
Hewi
370
    13
100
AcDbLine
 10
365.369896971114
 20
1345.762806989214
 30
0.0
 11
365.370141323866
 21
1345.763294906966
 31
0.0
  0
LINE
  5
BB7
330
1F
100
AcDbEntity
  8
Hewi
370
    13
100
AcDbLine
 10
685.0710047184374
 20
1345.755307795968
 30
0.0
 11
365.3661397445194
 21
1345.755307795968
 31
0.0
  0
LWPOLYLINE
  5
BB8
330
1F
100
AcDbEntity
  8
Hewi
370
    13
100
AcDbPolyline
 90
        5
 70
     0
 43
0.0
 10
508.526365173373
 20
1334.947342219445
 10
508.150467507804
 20
1334.902534535167
 10
507.7239052418017
 20
1334.801613664763
 10
507.1892933107938
 20
1334.73254736345
 10
505.3888788123949
 20
1334.514641692011
  0
LWPOLYLINE
  5
BB9
330
1F
100
AcDbEntity
  8
Hewi
370
    13
100
AcDbPolyline
 90
        7
 70
     0
 43
0.0
 10
704.1187814379873
 20
1354.036053514949
 10
703.2334723388331
 20
1353.133601591538
 10
702.5637649573518
 20
1352.096597784939
 10
702.1778142921512
 20
1351.128948558182
 10
702.0542946741452
 20
1350.614043540547
 10
701.9830392267895
 20
1350.078353102492
 10
701.9670735227273
 20
1349.670769406564
  0
LWPOLYLINE
  5
BBA
330
1F
100
AcDbEntity
  8
Hewi
370
    13
100
AcDbPolyline
 90
        7
 70
     0
 43
0.0
 10
348.6537995816007
 20
1349.380153394005
 10
348.6371638106575
 20
1349.787706954012
 10
348.5650278428275
 20
1350.323279590359
 10
348.4406621362668
 20
1350.837980892871
 10
348.0531221853862
 20
1351.804994344043
 10
347.3817128669097
 20
1352.840895679641
 10
346.4949241666427
 20
1353.7418907094
  0
LINE
  5
BBB
330
1F
100
AcDbEntity
  8
Hewi
370
    13
100
AcDbLine
 10
685.0668041315302
 20
1345.763363076368
 30
0.0
 11
685.0671388016299
 21
1345.762721070502
 31
0.0
  0
LWPOLYLINE
  5
BBC
330
1F
100
AcDbEntity
  8
Hewi
370
    13
100
AcDbPolyline
 90
        3
 70
     0
 43
0.0
 10
365.3661397445194
 20
1345.755307795968
 10
365.3670899080534
 20
1345.75720347599
 10
365.369896971114
 20
1345.762806989214
  0
LWPOLYLINE
  5
BBD
330
1F
100
AcDbEntity
  8
Hewi
370
    13
100
AcDbPolyline
 90
        3
 70
     0
 43
0.0
 10
308.2877373747524
 20
1361.495717736526
 10
305.8999359615345
 20
1364.108787220785
 10
303.3623288380823
 20
1367.010627464469
  0
LWPOLYLINE
  5
BBE
330
1F
100
AcDbEntity
  8
Hewi
370
    13
100
AcDbPolyline
 90
        5
 70
     0
 43
0.0
 10
507.5130984138641
 20
1334.774379616301
 10
506.5129846358805
 20
1334.57328812741
 10
506.050872333567
 20
1334.465625681594
 10
505.4715663846227
 20
1334.386943306086
 10
504.5081408151681
 20
1334.264393344146
  0
LWPOLYLINE
  5
BBF
330
1F
100
AcDbEntity
  8
Hewi
370
    13
100
AcDbPolyline
 90
       12
 70
     0
 43
0.0
 10
701.718786602164
 20
1355.008071634654
 10
701.7192763643279
 20
1355.01015842412
 10
701.6791786140847
 20
1354.694881668627
 10
701.6429888402954
 20
1354.122089983768
 10
701.6124085177498
 20
1353.321054068888
 10
701.5892984270148
 20
1352.335490809993
 10
701.5748837656802
 20
1351.22479109512
 10
701.5699126340559
 20
1350.041736626645
 10
701.569899092724
 20
1348.021572383122
 10
701.569899092724
 20
1350.052871217305
 10
701.5748402528706
 20
1351.232418816393
 10
701.5891832488314
 20
1352.339785756385
  0
LWPOLYLINE
  5
BC0
330
1F
100
AcDbEntity
  8
Hewi
370
    13
100
AcDbPolyline
 90
        3
 70
     0
 43
0.0
 10
325.0488485123006
 20
1359.572518688996
 10
323.2585412446387
 20
1359.152755679107
 10
322.699190074588
 20
1358.967272382105
  0
LINE
  5
BC1
330
1F
100
AcDbEntity
  8
Hewi
370
    13
100
AcDbLine
 10
418.4160905913513
 20
1349.281847401707
 30
0.0
 11
416.6130246094098
 21
1349.885947039995
 31
0.0
  0
LWPOLYLINE
  5
BC2
330
1F
100
AcDbEntity
  8
Hewi
370
    13
100
AcDbPolyline
 90
       12
 70
     0
 43
0.0
 10
349.0378615633599
 20
1352.049920650813
 10
349.0522167774571
 20
1350.942213931612
 10
349.0571665684083
 20
1349.762495464559
 10
349.0571445340938
 20
1347.735914033325
 10
349.0571445340938
 20
1349.751398548436
 10
349.0521789417007
 20
1350.934125272833
 10
349.0377747045095
 20
1352.044315593455
 10
349.0146706324995
 20
1353.029729888774
 10
348.9840885934345
 20
1353.830927717633
 10
348.9478962343137
 20
1354.40378252499
 10
348.9078010339654
 20
1354.719025518493
 10
348.9082892523565
 20
1354.716945909748
  0
LINE
  5
BC3
330
1F
100
AcDbEntity
  8
Hewi
370
    13
100
AcDbLine
 10
702.5059481901744
 20
1351.697499542789
 30
0.0
 11
701.9670735227273
 21
1349.670769406564
 31
0.0
  0
LWPOLYLINE
  5
BC4
330
1F
100
AcDbEntity
  8
Hewi
370
    13
100
AcDbPolyline
 90
       11
 70
     0
 43
0.0
 10
580.8441792591702
 20
1382.043644400642
 10
572.3117794769905
 20
1380.646924122977
 10
562.2605240053935
 20
1379.446708661325
 10
550.6491063421099
 20
1378.499382341169
 10
538.087501464478
 20
1377.898778123468
 10
525.2873068146882
 20
1377.684445231927
 10
512.4086892136156
 20
1377.88010152233
 10
499.7726273486796
 20
1378.467205522574
 10
488.5127792371349
 20
1379.3661161582
 10
478.6147794171702
 20
1380.520267390472
 10
469.9037507044404
 20
1381.918554887397
  0
LWPOLYLINE
  5
BC5
330
1F
100
AcDbEntity
  8
Hewi
370
    13
100
AcDbPolyline
 90
        3
 70
     0
 43
0.0
 10
506.2901993962559
 20
1333.505902828465
 10
506.5479606746094
 20
1333.548989760543
 10
506.760709164253
 20
1333.595715588098
  0
LWPOLYLINE
  5
BC6
330
1F
100
AcDbEntity
  8
Hewi
370
    13
100
AcDbPolyline
 90
        4
 70
     0
 43
0.0
 10
597.2842256973681
 20
1386.601865580635
 10
593.0124061759243
 20
1385.037148291446
 10
587.3381213457077
 20
1383.445863088513
 10
580.703135640354
 20
1382.013189247904
  0
LWPOLYLINE
  5
BC7
330
1F
100
AcDbEntity
  8
Hewi
370
    13
100
AcDbPolyline
 90
        6
 70
     0
 43
0.0
 10
423.3327371950236
 20
1336.940762236015
 10
425.4787350113283
 20
1336.775959970482
 10
431.9391444642015
 20
1336.30117225775
 10
478.6231416176588
 20
1333.816239024915
 10
504.2072418770604
 20
1333.108299691158
 10
506.760709164253
 20
1333.595715588098
  0
LINE
  5
BC8
330
1F
100
AcDbEntity
  8
Hewi
370
    13
100
AcDbLine
 10
579.0726992458449
 20
1348.123720929288
 30
0.0
 11
578.7375544932847
 21
1346.08020738341
 31
0.0
  0
LWPOLYLINE
  5
BC9
330
1F
100
AcDbEntity
  8
Hewi
370
    13
100
AcDbPolyline
 90
        4
 70
     0
 43
0.0
 10
445.3028800810689
 20
1365.778740666565
 10
441.5099296815051
 20
1365.481763924477
 10
439.0200867720332
 20
1365.373829178483
 10
436.2758548326174
 20
1365.624521324044
  0
LINE
  5
BCA
330
1F
100
AcDbEntity
  8
Hewi
370
    13
100
AcDbLine
 10
441.5196176701019
 20
1366.813805069099
 30
0.0
 11
437.225631181026
 21
1365.777052223724
 31
0.0
  0
LWPOLYLINE
  5
BCB
330
1F
100
AcDbEntity
  8
Hewi
370
    13
100
AcDbPolyline
 90
        4
 70
     0
 43
0.0
 10
443.929190943576
 20
1390.606191306285
 10
444.07586694771
 20
1390.569073110577
 10
444.5844522939069
 20
1390.395389008908
 10
444.8668446612201
 20
1390.277264926918
  0
LWPOLYLINE
  5
BCC
330
1F
100
AcDbEntity
  8
Hewi
370
    13
100
AcDbPolyline
 90
       22
 70
     0
 43
0.0
 10
435.3190946874747
 20
1391.558218053402
 10
432.5332468369806
 20
1391.60841969221
 10
425.577430429118
 20
1391.722178085292
 10
414.7529850033997
 20
1391.956148645526
 10
408.73190611689
 20
1392.096573040238
 10
399.2646835300675
 20
1392.332176812093
 10
392.6700347221386
 20
1392.506959860462
 10
374.649568933568
 20
1393.028988066828
 10
360.6338563407771
 20
1393.479542786608
 10
348.265951054821
 20
1393.909136454563
 10
338.0195484997057
 20
1394.287543465982
 10
331.4365189444807
 20
1394.541272732143
 10
324.6756082513448
 20
1394.810386860431
 10
319.5378852840013
 20
1395.020610196206
 10
316.9736922110524
 20
1395.127251710235
 10
312.8640803462977
 20
1394.590202655874
 10
311.3204215219166
 20
1394.309154998251
 10
309.9492428997473
 20
1393.938615828318
 10
308.7856164107843
 20
1393.461525634461
 10
308.5252878731844
 20
1393.33017904387
 10
307.8147962529911
 20
1392.913482368022
 10
306.8258886242902
 20
1392.256146855346
  0
LWPOLYLINE
  5
BCD
330
1F
100
AcDbEntity
  8
Hewi
370
    13
100
AcDbPolyline
 90
        4
 70
     0
 43
0.0
 10
435.3190946874747
 20
1391.558218053402
 10
438.1399811814544
 20
1391.461362534423
 10
440.0931095216164
 20
1391.350078507079
 10
441.8851514424631
 20
1391.016375331292
  0
LWPOLYLINE
  5
BCE
330
1F
100
AcDbEntity
  8
Hewi
370
    13
100
AcDbPolyline
 90
        4
 70
     0
 43
0.0
 10
299.6208877999279
 20
1380.173272421315
 10
299.6292054251935
 20
1377.038837402126
 10
299.6666953695148
 20
1375.928463098819
 10
300.0127566865895
 20
1372.723014032332
  0
LWPOLYLINE
  5
BCF
330
1F
100
AcDbEntity
  8
Hewi
370
    13
100
AcDbPolyline
 90
       20
 70
     0
 43
0.0
 10
729.0530334869954
 20
1343.741595178772
 10
730.8679455969622
 20
1343.772253773734
 10
737.0454029390648
 20
1344.706351719219
 10
738.3988826604354
 20
1345.059262001127
 10
740.3487241521697
 20
1346.060223301437
 10
740.5642184490761
 20
1346.17919514286
 10
740.7720639840672
 20
1346.316133206963
 10
741.9813737823942
 20
1347.221106793743
 10
742.1835430670735
 20
1347.375139156359
 10
742.3800181451816
 20
1347.530754734195
 10
742.6628259803028
 20
1347.769846992936
 10
742.8426632388518
 20
1347.936151456923
 10
743.9880414683329
 20
1349.05865439013
 10
744.2483249325114
 20
1349.316876138756
 10
744.4113158942955
 20
1349.507308359475
 10
745.6181068199721
 20
1351.066472080071
 10
745.7551308488445
 20
1351.283555436666
 10
746.8337411610328
 20
1353.119604882853
 10
747.0003206104511
 20
1353.493821034999
 10
747.2202420641524
 20
1354.05114426788
  0
LWPOLYLINE
  5
BD0
330
1F
100
AcDbEntity
  8
Hewi
370
    13
100
AcDbPolyline
 90
       19
 70
     0
 43
0.0
 10
303.032548968421
 20
1354.373910732846
 10
303.0534990518745
 20
1354.328255720007
 10
303.1675942898019
 20
1354.081743890225
 10
304.7137905255522
 20
1351.120754994999
 10
304.8798373878344
 20
1350.904333383251
 10
306.9421060015684
 20
1348.371291286099
 10
307.0990017943895
 20
1348.207116320129
 10
307.3631424274963
 20
1347.954228501098
 10
307.6168566401502
 20
1347.731240932368
 10
308.6113807791207
 20
1346.878120633369
 10
308.7805996478119
 20
1346.739005259844
 10
308.9282517668789
 20
1346.62425558404
 10
309.1298821492756
 20
1346.470799740285
 10
310.3566826164051
 20
1345.655958034234
 10
310.563895604776
 20
1345.519689857525
 10
310.7785546529149
 20
1345.401441165413
 10
312.2129353611617
 20
1344.71795947704
 10
313.4803976193753
 20
1344.371618285281
 10
320.9033812834923
 20
1343.39123493275
  0
LINE
  5
BD1
330
1F
100
AcDbEntity
  8
Hewi
370
    13
100
AcDbLine
 10
332.0169305354621
 20
1348.456387999672
 30
0.0
 11
326.5209735489898
 21
1347.534999667741
 31
0.0
  0
LWPOLYLINE
  5
BD2
330
1F
100
AcDbEntity
  8
Hewi
370
    13
100
AcDbPolyline
 90
        3
 70
     0
 43
0.0
 10
681.5715288731908
 20
1344.173216603793
 10
681.6842983830511
 20
1344.295885585312
 10
681.9513310896627
 20
1344.611583482611
  0
LWPOLYLINE
  5
BD3
330
1F
100
AcDbEntity
  8
Hewi
370
    13
100
AcDbPolyline
 90
        5
 70
     0
 43
0.0
 10
750.9494621117437
 20
1380.544423362067
 10
750.944570992152
 20
1378.218383873596
 10
750.9182104577821
 20
1376.453782797912
 10
750.7838123264909
 20
1374.694331934518
 10
750.5460298762836
 20
1372.947676877005
  0
LINE
  5
BD4
330
1F
100
AcDbEntity
  8
Hewi
370
    13
100
AcDbLine
 10
685.0710047184374
 20
1345.755307795968
 30
0.0
 11
686.4303549437836
 21
1347.341691098235
 31
0.0
  0
LWPOLYLINE
  5
BD5
330
1F
100
AcDbEntity
  8
Hewi
370
    13
100
AcDbPolyline
 90
        8
 70
     0
 43
0.0
 10
684.9362563816985
 20
1346.015686889318
 10
686.4259795914541
 20
1347.346287550184
 10
684.8967152083941
 20
1346.092858379879
 10
686.4169728324895
 20
1347.355735188987
 10
684.8765912742155
 20
1346.132269365646
 10
686.405033994054
 20
1347.368250476965
 10
684.8569572326423
 20
1346.170807580561
 10
686.3644793441245
 20
1347.410742560216
  0
LWPOLYLINE
  5
BD6
330
1F
100
AcDbEntity
  8
Hewi
370
    13
100
AcDbPolyline
 90
       18
 70
     0
 43
0.0
 10
299.6208877999279
 20
1380.173272421315
 10
299.4176747395049
 20
1379.17951084407
 10
298.9704437446353
 20
1374.199091407641
 10
298.8843222369305
 20
1373.439792026979
 10
298.8283523479495
 20
1372.708343889151
 10
298.8045580293638
 20
1372.073653869271
 10
298.8121068049541
 20
1371.347306415474
 10
298.8562917634863
 20
1370.712525114371
 10
299.170752990246
 20
1366.44689063379
 10
299.3474657668084
 20
1365.336460596859
 10
300.2995304673977
 20
1360.967463025714
 10
300.4289483305156
 20
1360.46035319052
 10
301.5907351109518
 20
1357.31380751371
 10
301.9439911428008
 20
1356.400143888654
 10
303.6836299380266
 20
1353.161993629113
 10
303.7713926037859
 20
1353.019002512344
 10
303.9649168575752
 20
1352.732678463465
 10
304.1140791265598
 20
1352.530963269337
  0
LINE
  5
BD7
330
1F
100
AcDbEntity
  8
Hewi
370
    13
100
AcDbLine
 10
724.1749464577814
 20
1347.841705953221
 30
0.0
 11
718.6443242384894
 21
1348.772673166563
 31
0.0
  0
LWPOLYLINE
  5
BD8
330
1F
100
AcDbEntity
  8
Hewi
370
    13
100
AcDbPolyline
 90
        3
 70
     0
 43
0.0
 10
440.2624025683271
 20
1391.177767975223
 10
437.4556763197769
 20
1391.448477945073
 10
435.3190946874747
 20
1391.558218053402
  0
LWPOLYLINE
  5
BD9
330
1F
100
AcDbEntity
  8
Hewi
370
    13
100
AcDbPolyline
 90
        5
 70
     0
 43
0.0
 10
440.6836041698297
 20
1391.240120176514
 10
441.9645920358916
 20
1391.128700843839
 10
442.9324675313664
 20
1390.901717850105
 10
443.1889812385898
 20
1390.827198649017
 10
444.1487552133094
 20
1390.540635133725
  0
LWPOLYLINE
  5
BDA
330
1F
100
AcDbEntity
  8
Hewi
370
    13
100
AcDbPolyline
 90
        3
 70
     0
 43
0.0
 10
448.2002975441155
 20
1386.732427653756
 10
445.6840203050787
 20
1389.696612808757
 10
444.8668446612201
 20
1390.277264926918
  0
LWPOLYLINE
  5
BDB
330
1F
100
AcDbEntity
  8
Hewi
370
    13
100
AcDbPolyline
 90
        6
 70
     0
 43
0.0
 10
453.5127023974109
 20
1386.379647277398
 10
449.4207375743344
 20
1388.243269275336
 10
447.956261351107
 20
1388.956236639102
 10
447.3793155507219
 20
1389.233111195118
 10
447.0980856797395
 20
1389.347942716959
 10
445.6612521488141
 20
1389.882263980013
  0
LWPOLYLINE
  5
BDC
330
1F
100
AcDbEntity
  8
Hewi
370
    13
100
AcDbPolyline
 90
        5
 70
     0
 43
0.0
 10
750.9494621117437
 20
1380.544423362067
 10
751.1542750575545
 20
1379.550997325811
 10
751.268359878205
 20
1378.788873596883
 10
751.3559397972831
 20
1378.042335673086
 10
751.4155075954777
 20
1377.321628974593
  0
LWPOLYLINE
  5
BDD
330
1F
100
AcDbEntity
  8
Hewi
370
    13
100
AcDbPolyline
 90
        3
 70
     0
 43
0.0
 10
462.8846525247854
 20
1383.428082320134
 10
457.296864745107
 20
1385.006931050145
 10
453.3485505264561
 20
1386.4544077087
  0
LINE
  5
BDE
330
1F
100
AcDbEntity
  8
Hewi
370
    13
100
AcDbLine
 10
447.5052121681992
 20
1388.965397045283
 30
0.0
 11
444.8668446612201
 21
1390.277264926918
 31
0.0
  0
LWPOLYLINE
  5
BDF
330
1F
100
AcDbEntity
  8
Hewi
370
    13
100
AcDbPolyline
 90
        3
 70
     0
 43
0.0
 10
365.3654781670848
 20
1345.75627870465
 10
363.8059265222491
 20
1347.427183088091
 10
361.9203491712578
 20
1348.721898859514
  0
LWPOLYLINE
  5
BE0
330
1F
100
AcDbEntity
  8
Hewi
370
    13
100
AcDbPolyline
 90
       73
 70
     0
 43
0.0
 10
333.4857380515177
 20
1394.462289817586
 10
333.9461553769988
 20
1394.745221022791
 10
335.8696414532833
 20
1395.875051173543
 10
338.0353798753585
 20
1397.022896737618
 10
340.0833167558967
 20
1398.154368299685
 10
342.3718356055815
 20
1399.289520816431
 10
344.776896045345
 20
1400.41108216316
 10
347.2929750848389
 20
1401.511241224076
 10
349.9141349233232
 20
1402.582485776387
 10
352.6329276336228
 20
1403.618222541209
 10
354.6719112389374
 20
1404.324949003733
 10
358.4023060062091
 20
1405.581804186763
 10
362.7996315818691
 20
1406.883571418565
 10
365.1580995448594
 20
1407.500833939607
 10
368.9659439381176
 20
1408.455915608797
 10
375.3152680559188
 20
1409.79974370215
 10
377.2619365876135
 20
1410.142794354039
 10
381.7965754548677
 20
1410.918946367971
 10
388.3696643698359
 20
1411.827113209463
 10
391.6803052312644
 20
1412.208243171154
 10
395.0028490689028
 20
1412.544734800637
 10
398.334757405767
 20
1412.839862822811
 10
400.8208973389155
 20
1413.006038701721
 10
401.6735620677709
 20
1413.097119795375
 10
408.3649784576492
 20
1413.512768384347
 10
410.2513330283636
 20
1413.609424707438
 10
419.567129265949
 20
1413.989339056688
 10
423.5748146891537
 20
1414.119330026777
 10
425.135456474999
 20
1414.167161823503
 10
428.2631825444996
 20
1414.260648788309
 10
437.6481069182037
 20
1414.522927985647
 10
448.9075370689079
 20
1414.801633216506
 10
456.4236962632903
 20
1414.966031614072
 10
474.6906111806047
 20
1415.29397473601
 10
478.2743553600548
 20
1415.346453674528
 10
500.2531917986571
 20
1415.5836244582
 10
525.2554407140178
 20
1415.676899383537
 10
550.2578044361025
 20
1415.624762154473
 10
562.7826148413014
 20
1415.528033627581
 10
575.8208230569898
 20
1415.377159124538
 10
588.9098107217842
 20
1415.173996581978
 10
600.3476511241633
 20
1414.953855476573
 10
612.8645416371427
 20
1414.667045413928
 10
622.2498841654951
 20
1414.420204726396
 10
625.3777596357222
 20
1414.331863073314
 10
626.9384777966524
 20
1414.286598653367
 10
630.9396754823729
 20
1414.169983478941
 10
640.2651189676808
 20
1413.79698048418
 10
645.5364817900308
 20
1413.482188348437
 10
650.5565585394078
 20
1413.141375467275
 10
656.3244698477619
 20
1412.656856784426
 10
658.8922022533798
 20
1412.386252549621
 10
661.3807860610149
 20
1412.107395317221
 10
665.5104824188738
 20
1411.583060673569
 10
670.6179116017947
 20
1410.835984477116
 10
673.6766422493683
 20
1410.291916274772
 10
675.6187404701331
 20
1409.929712993481
 10
683.3223608914076
 20
1408.277052369345
 10
684.7735040580946
 20
1407.895787160023
 10
687.8390700900845
 20
1407.081919180463
 10
693.8377601740512
 20
1405.287181965757
 10
695.2195582423055
 20
1404.810483729519
 10
698.0373133637668
 20
1403.815552617916
 10
700.7652924714466
 20
1402.77844018755
 10
702.7004535426795
 20
1401.999349932414
 10
703.2851091592829
 20
1401.751967183879
 10
705.9202576694069
 20
1400.603197834168
 10
708.3339310827241
 20
1399.479182805774
 10
710.6307158119643
 20
1398.341331403626
 10
712.8070737084462
 20
1397.197563743866
 10
714.8602845768482
 20
1396.055828071756
 10
716.7902776437631
 20
1394.923262957854
 10
717.0398835963451
 20
1394.770027345526
  0
LWPOLYLINE
  5
BE1
330
1F
100
AcDbEntity
  8
Hewi
370
    13
100
AcDbPolyline
 90
        5
 70
     0
 43
0.0
 10
692.7453155414577
 20
1350.20641745179
 10
690.5025808179261
 20
1349.75440196805
 10
688.410921562855
 20
1348.827975969423
 10
686.5727874448066
 20
1347.474079022019
 10
685.0835907485297
 20
1345.769995893624
  0
LWPOLYLINE
  5
BE2
330
1F
100
AcDbEntity
  8
Hewi
370
    13
100
AcDbPolyline
 90
       15
 70
     0
 43
0.0
 10
746.2249510480696
 20
1352.461593265553
 10
746.3677784142519
 20
1352.674572001038
 10
746.5109269566701
 20
1352.87945199801
 10
746.766418425298
 20
1353.292655250875
 10
747.8617939037913
 20
1355.123389003054
 10
747.9762783832529
 20
1355.334237121098
 10
748.1661787245402
 20
1355.778277713554
 10
749.8728486132595
 20
1359.914858851656
 10
750.1652412345801
 20
1360.89287211529
 10
751.4472235424827
 20
1367.511589520425
 10
751.6264963830299
 20
1368.638800664225
 10
751.6560161685911
 20
1369.013502851083
 10
751.6771384776356
 20
1369.921932566016
 10
751.6533223374854
 20
1370.626079609888
 10
751.4155075954777
 20
1377.321628974593
  0
LWPOLYLINE
  5
BE3
330
1F
100
AcDbEntity
  8
Hewi
370
    13
100
AcDbPolyline
 90
        3
 70
     0
 43
0.0
 10
359.9933823422162
 20
1349.933835272959
 10
359.8119255033726
 20
1349.624054186151
 10
359.8213130342765
 20
1349.657406582886
  0
LWPOLYLINE
  5
BE4
330
1F
100
AcDbEntity
  8
Hewi
370
    13
100
AcDbPolyline
 90
        3
 70
     0
 43
0.0
 10
729.0530334869954
 20
1343.741595178772
 10
727.2155636086308
 20
1343.993188612717
 10
726.9174655655215
 20
1344.039971129628
  0
LWPOLYLINE
  5
BE5
330
1F
100
AcDbEntity
  8
Hewi
370
    13
100
AcDbPolyline
 90
        4
 70
     0
 43
0.0
 10
690.224544915186
 20
1350.091450704407
 10
690.5000921013497
 20
1349.76235976114
 10
690.4959953876232
 20
1349.775283991331
 10
690.4906542906164
 20
1349.792110296403
  0
LINE
  5
BE6
330
1F
100
AcDbEntity
  8
Hewi
370
    13
100
AcDbLine
 10
362.6240815417614
 20
1348.896632343724
 30
0.0
 11
361.9203491712578
 21
1348.721898859514
 31
0.0
  0
LWPOLYLINE
  5
BE7
330
1F
100
AcDbEntity
  8
Hewi
370
    13
100
AcDbPolyline
 90
        5
 70
     0
 43
0.0
 10
729.0530334869954
 20
1343.741595178772
 10
726.7175368990729
 20
1344.051578048622
 10
726.6157472013901
 20
1344.072883145125
 10
725.5055180975859
 20
1344.317676024468
 10
725.1984966934896
 20
1344.391673639707
  0
LWPOLYLINE
  5
BE8
330
1F
100
AcDbEntity
  8
Hewi
370
    13
100
AcDbPolyline
 90
        3
 70
     0
 43
0.0
 10
723.1424454705821
 20
1344.960762970269
 10
723.145411394059
 20
1344.959843849862
 10
723.241771796228
 20
1344.930063379617
  0
LINE
  5
BE9
330
1F
100
AcDbEntity
  8
Hewi
370
    13
100
AcDbLine
 10
364.6228471300192
 20
1346.846138930828
 30
0.0
 11
365.3661397445194
 21
1345.755307795968
 31
0.0
  0
LWPOLYLINE
  5
BEA
330
1F
100
AcDbEntity
  8
Hewi
370
    13
100
AcDbPolyline
 90
        3
 70
     0
 43
0.0
 10
352.5029027947394
 20
1349.504154245151
 10
352.4915480148766
 20
1349.529810982447
 10
352.6618755148056
 20
1349.43707160268
  0
LINE
  5
BEB
330
1F
100
AcDbEntity
  8
Hewi
370
    13
100
AcDbLine
 10
687.9975890391478
 20
1349.164203887554
 30
0.0
 11
688.3614540585941
 21
1348.913191360038
 31
0.0
  0
LWPOLYLINE
  5
BEC
330
1F
100
AcDbEntity
  8
Hewi
370
    13
100
AcDbPolyline
 90
        4
 70
     0
 43
0.0
 10
692.5769251261526
 20
1350.558072304111
 10
692.7444581331392
 20
1350.21648634892
 10
692.7432174223058
 20
1350.230262646706
 10
692.7416162468444
 20
1350.248038025847
  0
LWPOLYLINE
  5
BED
330
1F
100
AcDbEntity
  8
Hewi
370
    13
100
AcDbPolyline
 90
        3
 70
     0
 43
0.0
 10
695.3684083000707
 20
1350.383348126793
 10
695.3760515693875
 20
1350.43186266753
 10
695.3846097776104
 20
1350.486200435877
  0
LWPOLYLINE
  5
BEE
330
1F
100
AcDbEntity
  8
Hewi
370
    13
100
AcDbPolyline
 90
        5
 70
     0
 43
0.0
 10
361.9203491712578
 20
1348.721898859514
 10
359.7990476606073
 20
1349.578072553742
 10
357.5425930288975
 20
1349.955112921854
 10
357.2097354190819
 20
1350.318382435598
 10
357.2082428757158
 20
1350.256397432411
  0
LWPOLYLINE
  5
BEF
330
1F
100
AcDbEntity
  8
Hewi
370
    13
100
AcDbPolyline
 90
        5
 70
     0
 43
0.0
 10
704.1142703981194
 20
1345.301643007448
 10
704.3411256518511
 20
1345.33268017696
 10
706.3947785936789
 20
1345.617017806933
 10
709.0258932906936
 20
1346.061271551596
 10
712.8201530814449
 20
1346.470680960683
  0
LWPOLYLINE
  5
BF0
330
1F
100
AcDbEntity
  8
Hewi
370
    13
100
AcDbPolyline
 90
        3
 70
     0
 43
0.0
 10
751.634419936855
 20
1371.158266788183
 10
751.4454649787666
 20
1376.626887130963
 10
751.4155075954777
 20
1377.321628974593
  0
LWPOLYLINE
  5
BF1
330
1F
100
AcDbEntity
  8
Hewi
370
    13
100
AcDbPolyline
 90
        3
 70
     0
 43
0.0
 10
725.4176467278257
 20
1344.338854586105
 10
725.0894998195026
 20
1344.411484938156
 10
723.241771796228
 20
1344.930063379617
  0
LWPOLYLINE
  5
BF2
330
1F
100
AcDbEntity
  8
Hewi
370
    13
100
AcDbPolyline
 90
        3
 70
     0
 43
0.0
 10
723.241771796228
 20
1344.930063379617
 10
722.4516350056428
 20
1345.174277346783
 10
719.9133369384298
 20
1345.937685140841
  0
LINE
  5
BF3
330
1F
100
AcDbEntity
  8
Hewi
370
    13
100
AcDbLine
 10
355.2579639327396
 20
1349.835144456184
 30
0.0
 11
354.8176781680059
 21
1350.16874816877
 31
0.0
  0
LWPOLYLINE
  5
BF4
330
1F
100
AcDbEntity
  8
Hewi
370
    13
100
AcDbPolyline
 90
       12
 70
     0
 43
0.0
 10
329.7367758634609
 20
1345.312939230187
 10
328.3555689921505
 20
1344.90687301073
 10
326.8718664684702
 20
1344.450794168183
 10
326.7333418839071
 20
1344.410348862187
 10
325.9782600353274
 20
1344.200364387621
 10
325.6017727239732
 20
1344.103639367119
 10
325.507728263442
 20
1344.080440000359
 10
325.1977702854856
 20
1344.00515532545
 10
325.103518903682
 20
1343.98241104715
 10
324.915079701007
 20
1343.938183871517
 10
324.6093517861163
 20
1343.868064185535
 10
320.9033812834923
 20
1343.39123493275
  0
LWPOLYLINE
  5
BF5
330
1F
100
AcDbEntity
  8
Hewi
370
    13
100
AcDbPolyline
 90
        3
 70
     0
 43
0.0
 10
333.3794429842446
 20
1346.150588558817
 10
333.1459180845805
 20
1346.120564262181
 10
330.8270425159817
 20
1345.688494169903
  0
LWPOLYLINE
  5
BF6
330
1F
100
AcDbEntity
  8
Hewi
370
    13
100
AcDbPolyline
 90
        3
 70
     0
 43
0.0
 10
320.9033812834923
 20
1343.39123493275
 10
324.0165020287868
 20
1343.795555570568
 10
324.3110410077207
 20
1343.838210521478
  0
LWPOLYLINE
  5
BF7
330
1F
100
AcDbEntity
  8
Hewi
370
    13
100
AcDbPolyline
 90
        3
 70
     0
 43
0.0
 10
334.2195974486649
 20
1346.227510324921
 10
333.6377348512906
 20
1346.178880414654
 10
333.2553204688911
 20
1346.136992868162
  0
LWPOLYLINE
  5
BF8
330
1F
100
AcDbEntity
  8
Hewi
370
    13
100
AcDbPolyline
 90
        7
 70
     0
 43
0.0
 10
346.5269572448406
 20
1345.01719177997
 10
344.3699304964139
 20
1345.312373709764
 10
342.9172561493242
 20
1345.513381462069
 10
341.625813584079
 20
1345.693456005009
 10
341.1950436428533
 20
1345.753809350564
 10
338.9829141762539
 20
1346.034977528987
 10
337.0676111557841
 20
1346.222967161568
  0
LWPOLYLINE
  5
BF9
330
1F
100
AcDbEntity
  8
Hewi
370
    13
100
AcDbPolyline
 90
        3
 70
     0
 43
0.0
 10
534.7020794802546
 20
1335.413118994522
 10
536.7612310956637
 20
1335.246055987002
 10
537.6538099700128
 20
1335.205070370421
  0
LINE
  5
BFA
330
1F
100
AcDbEntity
  8
Hewi
370
    13
100
AcDbLine
 10
348.6537995816007
 20
1349.380153394005
 30
0.0
 11
348.0682498921751
 21
1351.577541630341
 31
0.0
  0
LINE
  5
BFB
330
1F
100
AcDbEntity
  8
Hewi
370
    13
100
AcDbLine
 10
614.0791795157065
 20
1365.809571141102
 30
0.0
 11
613.494726863938
 21
1365.900532743203
 31
0.0
  0
LINE
  5
BFC
330
1F
100
AcDbEntity
  8
Hewi
370
    13
100
AcDbLine
 10
348.6554204806389
 20
1347.409100728937
 30
0.0
 11
348.6537995816007
 21
1349.380153394005
 31
0.0
  0
LWPOLYLINE
  5
BFD
330
1F
100
AcDbEntity
  8
Hewi
370
    13
100
AcDbPolyline
 90
        3
 70
     0
 43
0.0
 10
346.2665464266511
 20
1349.385516355971
 10
348.4101237272298
 20
1348.720202483694
 10
348.654558379897
 20
1348.457441226506
  0
LWPOLYLINE
  5
BFE
330
1F
100
AcDbEntity
  8
Hewi
370
    13
100
AcDbPolyline
 90
        3
 70
     0
 43
0.0
 10
539.1278225713458
 20
1335.071322441498
 10
540.2670075007381
 20
1334.926892435205
 10
542.4067121037596
 20
1334.640507453426
  0
LINE
  5
BFF
330
1F
100
AcDbEntity
  8
Hewi
370
    13
100
AcDbLine
 10
701.9686935427189
 20
1347.70078568525
 30
0.0
 11
701.9670735227273
 21
1349.670769406564
 31
0.0
  0
LINE
  5
C00
330
1F
100
AcDbEntity
  8
Hewi
370
    13
100
AcDbLine
 10
520.3803864975371
 20
1335.655093491631
 30
0.0
 11
519.7803703437012
 21
1335.639183277469
 31
0.0
  0
LINE
  5
C01
330
1F
100
AcDbEntity
  8
Hewi
370
    13
100
AcDbLine
 10
506.760709164253
 20
1333.595715588098
 30
0.0
 11
508.6486018889727
 21
1334.957156265186
 31
0.0
  0
LINE
  5
C02
330
1F
100
AcDbEntity
  8
Hewi
370
    13
100
AcDbLine
 10
543.6907647439411
 20
1334.674892254217
 30
0.0
 11
543.7981570804795
 21
1334.617654132821
 31
0.0
  0
LWPOLYLINE
  5
C03
330
1F
100
AcDbEntity
  8
Hewi
370
    13
100
AcDbPolyline
 90
        4
 70
     0
 43
0.0
 10
367.233987253866
 20
1345.755307796562
 10
368.4148381131708
 20
1344.634816366878
 10
369.0019722599391
 20
1343.995532874296
 10
369.1747337146399
 20
1343.800672500367
  0
LINE
  5
C04
330
1F
100
AcDbEntity
  8
Hewi
370
    13
100
AcDbLine
 10
544.5465051900737
 20
1334.511120135966
 30
0.0
 11
542.8357715561005
 21
1334.838521346854
 31
0.0
  0
LINE
  5
C05
330
1F
100
AcDbEntity
  8
Hewi
370
    13
100
AcDbLine
 10
506.846853302839
 20
1334.587267155356
 30
0.0
 11
507.0004349165911
 21
1334.671299077348
 31
0.0
  0
LWPOLYLINE
  5
C06
330
1F
100
AcDbEntity
  8
Hewi
370
    13
100
AcDbPolyline
 90
        3
 70
     0
 43
0.0
 10
346.2730441263902
 20
1349.383499629207
 10
347.6611897820576
 20
1348.548358158895
 10
346.2665464266511
 20
1349.385516355971
  0
LINE
  5
C07
330
1F
100
AcDbEntity
  8
Hewi
370
    13
100
AcDbLine
 10
437.225631181026
 20
1365.777052223724
 30
0.0
 11
436.3590393248623
 21
1365.667748665476
 31
0.0
  0
LINE
  5
C08
330
1F
100
AcDbEntity
  8
Hewi
370
    13
100
AcDbLine
 10
324.0792903588836
 20
1359.345191968164
 30
0.0
 11
323.0695677900722
 21
1358.793797412154
 31
0.0
  0
LINE
  5
C09
330
1F
100
AcDbEntity
  8
Hewi
370
    13
100
AcDbLine
 10
701.967913473848
 20
1348.64938872659
 30
0.0
 11
702.6411361346626
 21
1350.019957674431
 31
0.0
  0
LWPOLYLINE
  5
C0A
330
1F
100
AcDbEntity
  8
Hewi
370
    13
100
AcDbPolyline
 90
        3
 70
     0
 43
0.0
 10
346.2665464266511
 20
1349.385516355971
 10
346.2697591757178
 20
1349.385475933728
 10
346.2709006274181
 20
1349.384789209213
  0
LINE
  5
C0B
330
1F
100
AcDbEntity
  8
Hewi
370
    13
100
AcDbLine
 10
714.7305520356176
 20
1346.58236143457
 30
0.0
 11
712.7322398499936
 21
1346.461194921423
 31
0.0
  0
LINE
  5
C0C
330
1F
100
AcDbEntity
  8
Hewi
370
    13
100
AcDbLine
 10
702.0890980500235
 20
1348.896100313452
 30
0.0
 11
702.2316075573626
 21
1349.04672789131
 31
0.0
  0
LINE
  5
C0D
330
1F
100
AcDbEntity
  8
Hewi
370
    13
100
AcDbLine
 10
719.0585613748017
 20
1346.171293158425
 30
0.0
 11
717.525885621887
 21
1346.425371840074
 31
0.0
  0
LINE
  5
C0E
330
1F
100
AcDbEntity
  8
Hewi
370
    13
100
AcDbLine
 10
470.0423146205166
 20
1381.888752462313
 30
0.0
 11
462.882501829421
 21
1383.428690016477
 31
0.0
  0
LINE
  5
C0F
330
1F
100
AcDbEntity
  8
Hewi
370
    13
100
AcDbLine
 10
337.2140055173377
 20
1346.208598353192
 30
0.0
 11
335.4542319378934
 21
1346.275625988921
 31
0.0
  0
LINE
  5
C10
330
1F
100
AcDbEntity
  8
Hewi
370
    13
100
AcDbLine
 10
614.3194027301115
 20
1365.753339229091
 30
0.0
 11
611.1672021669901
 21
1365.387286899921
 31
0.0
  0
LINE
  5
C11
330
1F
100
AcDbEntity
  8
Hewi
370
    13
100
AcDbLine
 10
717.8063616257577
 20
1346.40795420971
 30
0.0
 11
714.9660308000211
 21
1346.584339481306
 31
0.0
  0
LINE
  5
C12
330
1F
100
AcDbEntity
  8
Hewi
370
    13
100
AcDbLine
 10
586.9548234229669
 20
1383.36309864384
 30
0.0
 11
587.3397837784859
 21
1383.446329302653
 31
0.0
  0
LINE
  5
C13
330
1F
100
AcDbEntity
  8
Hewi
370
    13
100
AcDbLine
 10
698.1290674707861
 20
1349.814046676368
 30
0.0
 11
697.8247492041637
 21
1349.748111129783
 31
0.0
  0
LWPOLYLINE
  5
C14
330
1F
100
AcDbEntity
  8
Hewi
370
    13
100
AcDbPolyline
 90
        3
 70
     0
 43
0.0
 10
382.5158187402749
 20
1340.755307979766
 10
383.5493119410057
 20
1340.635030562099
 10
383.5759467552389
 20
1340.632167167938
  0
LWPOLYLINE
  5
C15
330
1F
100
AcDbEntity
  8
Hewi
370
    13
100
AcDbPolyline
 90
        4
 70
     0
 43
0.0
 10
683.8304165812051
 20
1335.849231475513
 10
683.8028948888231
 20
1340.849155543671
 10
627.3048081438946
 20
1340.538152958832
 10
627.3323298362729
 20
1335.538228890673
  0
LINE
  5
C16
330
1F
100
AcDbEntity
  8
Hewi
370
    13
100
AcDbLine
 10
715.081230187553
 20
1346.58572387955
 30
0.0
 11
714.7130317662695
 21
1346.581299102691
 31
0.0
  0
LINE
  5
C17
330
1F
100
AcDbEntity
  8
Hewi
370
    13
100
AcDbLine
 10
683.1409930793061
 20
1345.755307817722
 30
0.0
 11
681.8611074673271
 21
1344.504917105739
 31
0.0
  0
LINE
  5
C18
330
1F
100
AcDbEntity
  8
Hewi
370
    13
100
AcDbLine
 10
331.3938646585493
 20
1345.791906494161
 30
0.0
 11
328.0525535676861
 21
1344.826129261021
 31
0.0
  0
LINE
  5
C19
330
1F
100
AcDbEntity
  8
Hewi
370
    13
100
AcDbLine
 10
701.9672804205684
 20
1349.419162259521
 30
0.0
 11
702.2828853479595
 21
1350.511845288759
 31
0.0
  0
LINE
  5
C1A
330
1F
100
AcDbEntity
  8
Hewi
370
    13
100
AcDbLine
 10
335.5837001263326
 20
1346.270694703356
 30
0.0
 11
334.1440910660194
 21
1346.225119964935
 31
0.0
  0
LINE
  5
C1B
330
1F
100
AcDbEntity
  8
Hewi
370
    13
100
AcDbLine
 10
331.387841355835
 20
1345.790772688264
 30
0.0
 11
327.7545495458717
 21
1344.752962842997
 31
0.0
  0
LINE
  5
C1C
330
1F
100
AcDbEntity
  8
Hewi
370
    13
100
AcDbLine
 10
348.2715418459693
 20
1348.370915097806
 30
0.0
 11
348.6548628687051
 21
1348.087186151525
 31
0.0
  0
LINE
  5
C1D
330
1F
100
AcDbEntity
  8
Hewi
370
    13
100
AcDbLine
 10
720.0697828825714
 20
1345.900477461678
 30
0.0
 11
718.6514568372613
 21
1346.237799204664
 31
0.0
  0
LINE
  5
C1E
330
1F
100
AcDbEntity
  8
Hewi
370
    13
100
AcDbLine
 10
348.5169951844118
 20
1347.638004416463
 30
0.0
 11
348.6552698207179
 21
1347.592306743713
 31
0.0
  0
LINE
  5
C1F
330
1F
100
AcDbEntity
  8
Hewi
370
    13
100
AcDbLine
 10
718.9200936925653
 20
1346.193067907071
 30
0.0
 11
717.5244360535916
 21
1346.42546185519
 31
0.0
  0
LINE
  5
C20
330
1F
100
AcDbEntity
  8
Hewi
370
    13
100
AcDbLine
 10
683.8304165812051
 20
1335.849231475513
 30
0.0
 11
627.3323298362729
 21
1335.538228890673
 31
0.0
  0
LINE
  5
C21
330
1F
100
AcDbEntity
  8
Hewi
370
    13
100
AcDbLine
 10
348.2930183462913
 20
1350.383899981058
 30
0.0
 11
348.6540000213854
 21
1349.136422108253
 31
0.0
  0
LINE
  5
C22
330
1F
100
AcDbEntity
  8
Hewi
370
    13
100
AcDbLine
 10
332.5472352900988
 20
1346.009013244133
 30
0.0
 11
331.1072277114899
 21
1345.737950885521
 31
0.0
  0
LINE
  5
C23
330
1F
100
AcDbEntity
  8
Hewi
370
    13
100
AcDbLine
 10
727.4280270474601
 20
1359.368950218646
 30
0.0
 11
726.3165969597039
 21
1359.803646125806
 31
0.0
  0
LINE
  5
C24
330
1F
100
AcDbEntity
  8
Hewi
370
    13
100
AcDbLine
 10
702.0231118369966
 20
1347.883875580112
 30
0.0
 11
701.9685598514051
 21
1347.863355549516
 31
0.0
  0
LWPOLYLINE
  5
C25
330
1F
100
AcDbEntity
  8
Hewi
370
    13
100
AcDbPolyline
 90
       23
 70
     0
 43
0.0
 10
1193.662340091787
 20
1017.744952488666
 10
1196.241625402479
 20
1017.522103065776
 10
1196.662229511425
 20
1017.530145083242
 10
1197.46841580307
 20
1017.815349309543
 10
1198.095819021225
 20
1018.433983466404
 10
1198.403608596485
 20
1019.340231466655
 10
1198.420598356682
 20
1019.42112533769
 10
1198.446471495546
 20
1019.61298396068
 10
1198.479724360286
 20
1019.90465720983
 10
1198.518424415273
 20
1020.279194096092
 10
1198.560322553982
 20
1020.714827897023
 10
1198.602983808887
 20
1021.186241159574
 10
1198.643928862915
 20
1021.666037058444
 10
1198.680778138361
 20
1022.12633159998
 10
1198.711390089272
 20
1022.540374138529
 10
1198.733985660335
 20
1022.884102026734
 10
1198.747251679089
 20
1023.137539049132
 10
1198.750417172745
 20
1023.285956367189
 10
1198.603989476521
 20
1024.21553798297
 10
1198.092973490886
 20
1024.921064101143
 10
1197.34817013819
 20
1025.334225559489
 10
1196.921004558146
 20
1025.483097144173
 10
1194.137012859852
 20
1025.723633133239
  0
LINE
  5
C26
330
1F
100
AcDbEntity
  8
Hewi
370
    13
100
AcDbLine
 10
1557.145929827539
 20
1049.063669601632
 30
0.0
 11
1556.794262477821
 21
1052.786296928746
 31
0.0
  0
LINE
  5
C27
330
1F
100
AcDbEntity
  8
Hewi
370
    13
100
AcDbLine
 10
1562.703100797975
 20
992.1804692292289
 30
0.0
 11
1562.54814060043
 21
992.0083497201826
 31
0.0
  0
LWPOLYLINE
  5
C28
330
1F
100
AcDbEntity
  8
Hewi
370
    13
100
AcDbPolyline
 90
        3
 70
     0
 43
0.0
 10
1562.54814060043
 20
992.0083497201826
 10
1562.720918764424
 20
991.7027998490866
 10
1562.741703122097
 20
991.6949251273488
  0
LINE
  5
C29
330
1F
100
AcDbEntity
  8
Hewi
370
    13
100
AcDbLine
 10
1571.059666838801
 20
902.0935217994367
 30
0.0
 11
1565.383121351148
 21
962.0599245822337
 31
0.0
  0
LINE
  5
C2A
330
1F
100
AcDbEntity
  8
Hewi
370
    13
100
AcDbLine
 10
1588.8148135809
 20
904.4287662844796
 30
0.0
 11
1583.093429880207
 21
964.8830931730419
 31
0.0
  0
LINE
  5
C2B
330
1F
100
AcDbEntity
  8
Hewi
370
    13
100
AcDbLine
 10
1562.723594701662
 20
990.1548718739718
 30
0.0
 11
1562.54814060043
 21
992.0083497201826
 31
0.0
  0
LINE
  5
C2C
330
1F
100
AcDbEntity
  8
Hewi
370
    13
100
AcDbLine
 10
1572.112708656843
 20
902.8232709973757
 30
0.0
 11
1566.388652820009
 21
963.3058326976778
 31
0.0
  0
LWPOLYLINE
  5
C2D
330
1F
100
AcDbEntity
  8
Hewi
370
    13
100
AcDbPolyline
 90
       11
 70
     0
 43
0.0
 10
1561.660607042662
 20
996.2755232284777
 10
1561.765071440097
 20
995.8759334557788
 10
1561.93289347287
 20
995.3343918506048
 10
1562.14207764083
 20
994.6724061803495
 10
1562.359854993939
 20
993.9095490226746
 10
1562.55532912065
 20
993.0794967049825
 10
1562.700020337645
 20
992.2192155163235
 10
1562.767647883038
 20
991.3685892284744
 10
1562.760054226081
 20
990.5729724390619
 10
1562.698492970487
 20
989.8670168637966
 10
1562.655776955778
 20
989.6020041778738
  0
LWPOLYLINE
  5
C2E
330
1F
100
AcDbEntity
  8
Hewi
370
    13
100
AcDbPolyline
 90
       11
 70
     0
 43
0.0
 10
1553.295943790541
 20
1084.659752116179
 10
1553.400408187977
 20
1084.26016234348
 10
1553.568230220751
 20
1083.718620738306
 10
1553.777414388709
 20
1083.056635068052
 10
1553.995191741818
 20
1082.293777910376
 10
1554.190665868529
 20
1081.463725592684
 10
1554.335357085525
 20
1080.603444404025
 10
1554.402984630917
 20
1079.752818116177
 10
1554.395390973959
 20
1078.957201326764
 10
1554.333829718367
 20
1078.251245751498
 10
1554.291113703658
 20
1077.986233065575
  0
LWPOLYLINE
  5
C2F
330
1F
100
AcDbEntity
  8
Hewi
370
    13
100
AcDbPolyline
 90
       19
 70
     0
 43
0.0
 10
1558.872385958622
 20
1025.736932857711
 10
1556.814874376443
 20
1047.426031630678
 10
1556.817184107389
 20
1047.479389836144
 10
1556.877760601244
 20
1047.722295167353
 10
1556.986282733245
 20
1048.138764518938
 10
1557.122713193299
 20
1048.704793886737
 10
1557.266268526628
 20
1049.396406376246
 10
1557.385724303143
 20
1050.185467159952
 10
1557.455533725216
 20
1051.033731625742
 10
1557.453377976802
 20
1051.901627715164
 10
1557.359601632042
 20
1052.746829110085
 10
1557.184045155028
 20
1053.525035768378
 10
1556.954666044515
 20
1054.207105201841
 10
1556.699667442986
 20
1054.765036643299
 10
1556.45389493652
 20
1055.172900145622
 10
1556.250078718033
 20
1055.417773953352
 10
1556.12592224513
 20
1055.491742093086
 10
1556.064364374745
 20
1055.433970858185
 10
1556.084164874581
 20
1055.198342486945
  0
LWPOLYLINE
  5
C30
330
1F
100
AcDbEntity
  8
Hewi
370
    13
100
AcDbPolyline
 90
       10
 70
     0
 43
0.0
 10
1560.241599060842
 20
1022.440218085929
 10
1560.147822716082
 20
1023.285419480852
 10
1559.972266239068
 20
1024.063626139144
 10
1559.742887128556
 20
1024.745695572607
 10
1559.487888527026
 20
1025.303627014064
 10
1559.24211602056
 20
1025.711490516387
 10
1559.038299802074
 20
1025.956364324118
 10
1558.914143329172
 20
1026.030332463854
 10
1558.852585458786
 20
1025.972561228951
 10
1558.872385958622
 20
1025.736932857711
  0
LWPOLYLINE
  5
C31
330
1F
100
AcDbEntity
  8
Hewi
370
    13
100
AcDbPolyline
 90
       19
 70
     0
 43
0.0
 10
1564.805437513163
 20
963.0724512483865
 10
1562.391316544523
 20
988.5032123722105
 10
1562.393626275469
 20
988.5565705776759
 10
1562.454202769324
 20
988.7994759088869
 10
1562.562724901328
 20
989.2159452604708
 10
1562.69915536138
 20
989.7819746282678
 10
1562.842710694707
 20
990.4735871177756
 10
1562.962166471225
 20
991.2626479014818
 10
1563.031975893294
 20
992.1109123672717
 10
1563.029820144882
 20
992.9788084566927
 10
1562.936043800122
 20
993.8240098516146
 10
1562.760487323108
 20
994.6022165099078
 10
1562.531108212598
 20
995.2842859433715
 10
1562.276109611068
 20
995.8422173848287
 10
1562.030337104601
 20
996.2500808871519
 10
1561.826520886116
 20
996.4949546948826
 10
1561.702364413211
 20
996.5689228346198
 10
1561.640806542826
 20
996.5111515997175
 10
1561.660607042662
 20
996.2755232284777
  0
LWPOLYLINE
  5
C32
330
1F
100
AcDbEntity
  8
Hewi
370
    13
100
AcDbPolyline
 90
        4
 70
     0
 43
0.0
 10
1564.805437513163
 20
963.0724512483865
 10
1565.013420877364
 20
962.6956484132506
 10
1565.787629302578
 20
962.3907237045338
 10
1566.486248401936
 20
962.2746005617834
  0
LWPOLYLINE
  5
C33
330
1F
100
AcDbEntity
  8
Hewi
370
    13
100
AcDbPolyline
 90
       11
 70
     0
 43
0.0
 10
1502.841808453071
 20
1350.567850122559
 10
1503.417436865039
 20
1350.567896830504
 10
1514.824185962832
 20
1349.233881733315
 10
1525.612568853292
 20
1345.304160018297
 10
1535.182733700173
 20
1338.997230677434
 10
1543.002563594494
 20
1330.66376935735
 10
1543.15583809902
 20
1330.429693341742
 10
1548.824152104624
 20
1320.474014623361
 10
1551.142648671595
 20
1313.54756723844
 10
1552.381239988071
 20
1306.362069225814
 10
1584.707311853678
 20
964.7924389019905
  0
LWPOLYLINE
  5
C34
330
1F
100
AcDbEntity
  8
Hewi
370
    13
100
AcDbPolyline
 90
       11
 70
     0
 43
0.0
 10
1556.084164874581
 20
1055.198342486945
 10
1556.188629272016
 20
1054.798752714247
 10
1556.356451304789
 20
1054.257211109073
 10
1556.56563547275
 20
1053.595225438819
 10
1556.783412825859
 20
1052.832368281144
 10
1556.978886952569
 20
1052.002315963453
 10
1557.123578169565
 20
1051.142034774795
 10
1557.191205714958
 20
1050.291408486945
 10
1557.183612057999
 20
1049.495791697534
 10
1557.122050802407
 20
1048.789836122267
 10
1557.079334787698
 20
1048.524823436345
  0
LWPOLYLINE
  5
C35
330
1F
100
AcDbEntity
  8
Hewi
370
    13
100
AcDbPolyline
 90
        4
 70
     0
 43
0.0
 10
1583.191683561039
 20
963.8449076805956
 10
1583.409863859179
 20
963.9136971364667
 10
1584.336982919731
 20
964.3656563515907
 10
1584.707311853678
 20
964.7924389019905
  0
LWPOLYLINE
  5
C36
330
1F
100
AcDbEntity
  8
Hewi
370
    13
100
AcDbPolyline
 90
       19
 70
     0
 43
0.0
 10
1556.084164874581
 20
1055.198342486945
 10
1554.026653292403
 20
1076.887441259912
 10
1554.028963023348
 20
1076.940799465377
 10
1554.089539517204
 20
1077.183704796587
 10
1554.198061649205
 20
1077.600174148172
 10
1554.334492109257
 20
1078.166203515967
 10
1554.478047442587
 20
1078.857816005475
 10
1554.597503219103
 20
1079.64687678918
 10
1554.667312641175
 20
1080.495141254969
 10
1554.665156892762
 20
1081.363037344388
 10
1554.571380548003
 20
1082.208238739309
 10
1554.39582407099
 20
1082.986445397602
 10
1554.166444960479
 20
1083.668514831067
 10
1553.911446358949
 20
1084.226446272525
 10
1553.665673852483
 20
1084.63430977485
 10
1553.461857633995
 20
1084.879183582583
 10
1553.337701161092
 20
1084.95315172232
 10
1553.276143290705
 20
1084.895380487419
 10
1553.295943790541
 20
1084.659752116179
  0
LWPOLYLINE
  5
C37
330
1F
100
AcDbEntity
  8
Hewi
370
    13
100
AcDbPolyline
 90
        3
 70
     0
 43
0.0
 10
1558.872385958622
 20
1025.736932857711
 10
1558.976850356057
 20
1025.337343085014
 10
1559.04427987953
 20
1025.119756086606
  0
LWPOLYLINE
  5
C38
330
1F
100
AcDbEntity
  8
Hewi
370
    13
100
AcDbPolyline
 90
       17
 70
     0
 43
0.0
 10
1191.902718621892
 20
996.4811496939766
 10
1191.884339563022
 20
996.5365461794396
 10
1191.783354990104
 20
996.4132468999457
 10
1191.620767522932
 20
996.1213847105828
 10
1191.418309733222
 20
995.6709351784924
 10
1191.209112752098
 20
995.0754380574888
 10
1191.023337979641
 20
994.36221351047
 10
1190.888304724944
 20
993.5607998173606
 10
1190.82936952044
 20
992.7045019587106
 10
1190.845033286096
 20
991.8399479603166
 10
1190.914364470688
 20
991.0056578992705
 10
1191.016000065693
 20
990.2391102103456
 10
1191.121955630036
 20
989.5778675616478
 10
1191.205337792082
 20
989.0507083506838
 10
1191.245438759075
 20
988.7227566131778
 10
1191.244451951328
 20
988.5264541728135
 10
1189.135560727671
 20
963.0419684444476
  0
LWPOLYLINE
  5
C39
330
1F
100
AcDbEntity
  8
Hewi
370
    13
100
AcDbPolyline
 90
        7
 70
     0
 43
0.0
 10
1195.769114500951
 20
1052.512721213987
 10
1195.917390856281
 20
1053.053032780718
 10
1196.164195808718
 20
1053.78458715711
 10
1196.402014059673
 20
1054.409782819701
 10
1196.600382304846
 20
1054.909472581178
 10
1196.719161630544
 20
1055.216229523564
 10
1196.778767774701
 20
1055.404817094026
  0
LWPOLYLINE
  5
C3A
330
1F
100
AcDbEntity
  8
Hewi
370
    13
100
AcDbPolyline
 90
       14
 70
     0
 43
0.0
 10
1584.707311853678
 20
964.7924389019905
 10
1584.499328489477
 20
965.1692417371258
 10
1583.725120064265
 20
965.4741664458427
 10
1582.429680757581
 20
965.6894919124269
 10
1580.688296793199
 20
965.8027042034357
 10
1578.602171077456
 20
965.8072238320256
 10
1576.292541654194
 20
965.7027881338127
 10
1573.893635790329
 20
965.4954665319667
 10
1571.544869175004
 20
965.1973078044056
 10
1569.382743586478
 20
964.8256398526108
 10
1567.532913904954
 20
964.4020626669828
 10
1566.102885507664
 20
963.9511930139104
 10
1565.175766447113
 20
963.4992337987855
 10
1564.805437513163
 20
963.0724512483865
  0
LWPOLYLINE
  5
C3B
330
1F
100
AcDbEntity
  8
Hewi
370
    13
100
AcDbPolyline
 90
        7
 70
     0
 43
0.0
 10
1198.207139077355
 20
1081.97455491401
 10
1198.355415432685
 20
1082.514866480738
 10
1198.602220385121
 20
1083.246420857132
 10
1198.840038636077
 20
1083.871616519724
 10
1199.038406881249
 20
1084.371306281199
 10
1199.157186206948
 20
1084.678063223587
 10
1199.216792351108
 20
1084.86665079405
  0
LWPOLYLINE
  5
C3C
330
1F
100
AcDbEntity
  8
Hewi
370
    13
100
AcDbPolyline
 90
        7
 70
     0
 43
0.0
 10
1190.89306534814
 20
993.5890538139368
 10
1191.04134170347
 20
994.1293653806667
 10
1191.288146655907
 20
994.8609197570599
 10
1191.525964906862
 20
995.4861154196507
 10
1191.724333152035
 20
995.9858051811268
 10
1191.843112477733
 20
996.2925621235138
 10
1191.902718621892
 20
996.4811496939766
  0
LWPOLYLINE
  5
C3D
330
1F
100
AcDbEntity
  8
Hewi
370
    13
100
AcDbPolyline
 90
       17
 70
     0
 43
0.0
 10
1199.216792351108
 20
1084.86665079405
 10
1199.198413292236
 20
1084.922047279513
 10
1199.097428719318
 20
1084.798748000019
 10
1198.934841252146
 20
1084.506885810655
 10
1198.732383462437
 20
1084.056436278566
 10
1198.523186481313
 20
1083.460939157561
 10
1198.337411708856
 20
1082.747714610542
 10
1198.202378454159
 20
1081.946300917432
 10
1198.143443249656
 20
1081.090003058781
 10
1198.159107015311
 20
1080.225449060386
 10
1198.228438199905
 20
1079.391158999341
 10
1198.330073794908
 20
1078.624611310416
 10
1198.436029359252
 20
1077.963368661718
 10
1198.519411521298
 20
1077.436209450755
 10
1198.559512488291
 20
1077.10825771325
 10
1198.558525680543
 20
1076.911955272889
 10
1196.778767774701
 20
1055.404817094026
  0
LINE
  5
C3E
330
1F
100
AcDbEntity
  8
Hewi
370
    13
100
AcDbLine
 10
1193.682476527732
 20
1017.988287872839
 30
0.0
 11
1191.902718621892
 21
996.4811496939766
 31
0.0
  0
LWPOLYLINE
  5
C3F
330
1F
100
AcDbEntity
  8
Hewi
370
    13
100
AcDbPolyline
 90
       10
 70
     0
 43
0.0
 10
1194.340743198297
 20
1025.942983394001
 10
1194.322364139426
 20
1025.998379879464
 10
1194.221379566508
 20
1025.875080599969
 10
1194.058792099337
 20
1025.583218410607
 10
1193.856334309627
 20
1025.132768878517
 10
1193.647137328502
 20
1024.537271757512
 10
1193.461362556047
 20
1023.824047210494
 10
1193.326329301348
 20
1023.022633517384
 10
1193.267394096845
 20
1022.166335658734
 10
1193.283057862501
 20
1021.30178166034
  0
LWPOLYLINE
  5
C40
330
1F
100
AcDbEntity
  8
Hewi
370
    13
100
AcDbPolyline
 90
        6
 70
     0
 43
0.0
 10
1231.288346287107
 20
1326.67392389844
 10
1225.898428056578
 20
1322.560082032859
 10
1221.642249081507
 20
1317.310141734452
 10
1218.756464722941
 20
1311.21600328231
 10
1217.40152504381
 20
1304.616515359335
 10
1199.216792351108
 20
1084.86665079405
  0
LWPOLYLINE
  5
C41
330
1F
100
AcDbEntity
  8
Hewi
370
    13
100
AcDbPolyline
 90
       17
 70
     0
 43
0.0
 10
1196.778767774701
 20
1055.404817094026
 10
1196.760388715831
 20
1055.460213579489
 10
1196.659404142913
 20
1055.336914299994
 10
1196.496816675741
 20
1055.045052110632
 10
1196.294358886031
 20
1054.594602578541
 10
1196.085161904908
 20
1053.999105457537
 10
1195.899387132451
 20
1053.285880910519
 10
1195.764353877754
 20
1052.484467217409
 10
1195.705418673251
 20
1051.628169358759
 10
1195.721082438906
 20
1050.763615360364
 10
1195.7904136235
 20
1049.929325299319
 10
1195.892049218503
 20
1049.162777610394
 10
1195.998004782848
 20
1048.501534961695
 10
1196.081386944891
 20
1047.974375750733
 10
1196.121487911884
 20
1047.646424013227
 10
1196.120501104138
 20
1047.450121572864
 10
1194.340743198297
 20
1025.942983394001
  0
LWPOLYLINE
  5
C42
330
1F
100
AcDbEntity
  8
Hewi
370
    13
100
AcDbPolyline
 90
        4
 70
     0
 43
0.0
 10
1187.469168958884
 20
962.3046757950358
 10
1187.836942925175
 20
962.3600558299367
 10
1188.764935030016
 20
962.6651186595097
 10
1189.135560727671
 20
963.0419684444476
  0
LWPOLYLINE
  5
C43
330
1F
100
AcDbEntity
  8
Hewi
370
    13
100
AcDbPolyline
 90
        3
 70
     0
 43
0.0
 10
1194.26494547477
 20
1025.712579797472
 10
1194.281137054138
 20
1025.754395823537
 10
1194.340743198297
 20
1025.942983394001
  0
LWPOLYLINE
  5
C44
330
1F
100
AcDbEntity
  8
Hewi
370
    13
100
AcDbPolyline
 90
       14
 70
     0
 43
0.0
 10
1189.135560727671
 20
963.0419684444476
 10
1188.927280599765
 20
963.4687040450446
 10
1188.152199130261
 20
963.9205251393139
 10
1186.855361236861
 20
964.3711735275577
 10
1185.112134424116
 20
964.7944591634947
 10
1183.023828698012
 20
965.1657822245429
 10
1180.711808796665
 20
965.4635627640976
 10
1178.310440912894
 20
965.6704948595907
 10
1175.959283819485
 20
965.7745523697988
 10
1173.794978220598
 20
965.7696878504605
 10
1171.943305690712
 20
965.6561840097607
 10
1170.511878706704
 20
965.4406372783498
 10
1169.583886601864
 20
965.1355744487766
 10
1169.213260904208
 20
964.7587246638376
  0
LWPOLYLINE
  5
C45
330
1F
100
AcDbEntity
  8
Hewi
370
    13
100
AcDbPolyline
 90
        4
 70
     0
 43
0.0
 10
1169.213260904208
 20
964.7587246638376
 10
1169.421541032116
 20
964.3319890632406
 10
1170.196622501618
 20
963.8801679689725
 10
1170.73058327668
 20
963.6946177441599
  0
LWPOLYLINE
  5
C46
330
1F
100
AcDbEntity
  8
Hewi
370
    13
100
AcDbPolyline
 90
       16
 70
     0
 43
0.0
 10
1170.793408551153
 20
964.4538173852218
 10
1170.707433390967
 20
964.6299679473839
 10
1171.022465233975
 20
964.9502902645817
 10
1171.81125852309
 20
965.2095936697188
 10
1173.027971459496
 20
965.3928083914186
 10
1174.6018931099
 20
965.4892866560137
 10
1176.441552868953
 20
965.4934214974508
 10
1178.440036398351
 20
965.4049726137738
 10
1180.481199099556
 20
965.2290803326048
 10
1182.446416015701
 20
964.9759668739827
 10
1184.22147588289
 20
964.6603422720918
 10
1185.703218673723
 20
964.3005494815458
 10
1186.805530883112
 20
963.9174983515376
 10
1187.464350132191
 20
963.5334504214098
 10
1187.641388240912
 20
963.1707251609025
 10
1187.531598381335
 20
963.0590915498716
  0
LWPOLYLINE
  5
C47
330
1F
100
AcDbEntity
  8
Hewi
370
    13
100
AcDbPolyline
 90
       11
 70
     0
 43
0.0
 10
1169.213260904208
 20
964.7587246638376
 10
1197.479225220346
 20
1306.333271578725
 10
1199.768605089039
 20
1317.4841315155
 10
1204.644587647583
 20
1327.781121844544
 10
1211.836060244444
 20
1336.651712964399
 10
1220.943165172833
 20
1343.602685416149
 10
1221.174644043745
 20
1343.758518582371
 10
1231.628646692116
 20
1348.375841673028
 10
1238.77029650359
 20
1350.000822647278
 10
1246.084648799064
 20
1350.547016197239
 10
1295.965897635386
 20
1350.551063687928
  0
LWPOLYLINE
  5
C48
330
1F
100
AcDbEntity
  8
Hewi
370
    13
100
AcDbPolyline
 90
        9
 70
     0
 43
0.0
 10
1231.121681000134
 20
1326.546717081858
 10
1237.343204823855
 20
1329.294639248763
 10
1241.637714715665
 20
1330.271793975212
 10
1246.036076314782
 20
1330.600238195394
 10
1503.368864380756
 20
1330.621118828659
 10
1510.228119332629
 20
1329.818931493529
 10
1516.715530261865
 20
1327.455860043275
 10
1522.470386448619
 20
1323.663295137924
 10
1527.121845688058
 20
1318.706313185932
  0
LWPOLYLINE
  5
C49
330
1F
100
AcDbEntity
  8
Hewi
370
    13
100
AcDbPolyline
 90
        5
 70
     0
 43
0.0
 10
1553.295943790541
 20
1084.659752116179
 10
1532.479365647557
 20
1304.642081572209
 10
1531.746320817332
 20
1308.894722254409
 10
1530.374150421227
 20
1312.99404926475
 10
1527.019434236834
 20
1318.886186024243
  0
LWPOLYLINE
  5
C4A
330
1F
100
AcDbEntity
  8
Hewi
370
    13
100
AcDbPolyline
 90
       16
 70
     0
 43
0.0
 10
1566.419319409333
 20
962.981797786618
 10
1566.298078088704
 20
963.2014503224075
 10
1566.612857682559
 20
963.5642154902454
 10
1567.400908884028
 20
963.9483808231025
 10
1568.616433021725
 20
964.3316200282137
 10
1570.18878825102
 20
964.6916606359969
 10
1572.026595001267
 20
965.0075783950226
 10
1574.023046624294
 20
965.26101331345
 10
1576.062116608578
 20
965.4372366750187
 10
1578.025301618351
 20
965.5260070185006
 10
1579.798508476733
 20
965.5221653341989
 10
1581.278684846457
 20
965.4259348868405
 10
1582.379808257139
 20
965.2429082402447
 10
1583.037885418571
 20
964.9837222378355
 10
1583.21467127814
 20
964.6634398279696
 10
1583.124096525228
 20
964.5590576949368
  0
LINE
  5
C4B
330
1F
100
AcDbEntity
  8
Hewi
370
    13
100
AcDbLine
 10
1561.660607042662
 20
996.2755232284777
 30
0.0
 11
1559.680112142134
 21
1017.152756624863
 31
0.0
  0
LWPOLYLINE
  5
C4C
330
1F
100
AcDbEntity
  8
Hewi
370
    13
100
AcDbPolyline
 90
       15
 70
     0
 43
0.0
 10
1580.061835614625
 20
878.7362589427139
 10
1579.728042041563
 20
878.7397571378649
 10
1576.546386011891
 20
879.4800350041267
 10
1574.148529939448
 20
881.1870228013708
 10
1572.248860312042
 20
883.3905193877628
 10
1571.101820856699
 20
885.9853300496615
 10
1570.858551494266
 20
887.3405407528887
 10
1569.16157970302
 20
900.3534114206198
 10
1569.157869340904
 20
900.8275557808699
 10
1569.268808621411
 20
901.2881875165238
 10
1569.487992860107
 20
901.7087136940865
 10
1569.802768235225
 20
902.0648567316957
 10
1570.168647361185
 20
902.4649209649849
 10
1570.545057921005
 20
902.7188619982615
 10
1570.981048061656
 20
902.9240418862206
  0
LINE
  5
C4D
330
1F
100
AcDbEntity
  8
Hewi
370
    13
100
AcDbLine
 10
1182.866003942393
 20
903.3952990522577
 30
0.0
 11
1187.679523082812
 21
961.6982704271928
 31
0.0
  0
LWPOLYLINE
  5
C4E
330
1F
100
AcDbEntity
  8
Hewi
370
    13
100
AcDbPolyline
 90
        9
 70
     0
 43
0.0
 10
1196.318365062225
 20
1046.89361625777
 10
1196.316023130954
 20
1047.131318059445
 10
1196.260236205663
 20
1047.545255222229
 10
1196.168890584278
 20
1048.111697133448
 10
1196.060781456253
 20
1048.806563418573
 10
1195.966550400189
 20
1049.597473759044
 10
1195.911043037415
 20
1050.446316053395
 10
1195.915814912523
 20
1051.315309425075
 10
1195.99331686507
 20
1052.0974174585
  0
LWPOLYLINE
  5
C4F
330
1F
100
AcDbEntity
  8
Hewi
370
    13
100
AcDbPolyline
 90
        6
 70
     0
 43
0.0
 10
1551.999232590902
 20
1308.578226704227
 10
1552.538284840417
 20
1306.09542110522
 10
1584.901385928015
 20
964.2151773301018
 10
1584.528786863035
 20
963.8013190029239
 10
1583.599554545921
 20
963.3614041367716
 10
1583.247684716594
 20
963.2531777228118
  0
LWPOLYLINE
  5
C50
330
1F
100
AcDbEntity
  8
Hewi
370
    13
100
AcDbPolyline
 90
        9
 70
     0
 43
0.0
 10
1191.449053792527
 20
987.9148717485648
 10
1191.446711861255
 20
988.1525735502407
 10
1191.390924935964
 20
988.566510713024
 10
1191.29957931458
 20
989.1329526242438
 10
1191.191470186553
 20
989.8278189093696
 10
1191.097239130489
 20
990.6187292498419
 10
1191.041731767718
 20
991.4675715441957
 10
1191.046503642826
 20
992.3365649158768
 10
1191.124005595373
 20
993.1186729493006
  0
LWPOLYLINE
  5
C51
330
1F
100
AcDbEntity
  8
Hewi
370
    13
100
AcDbPolyline
 90
        9
 70
     0
 43
0.0
 10
1193.883593913972
 20
1017.402844865771
 10
1192.106410848821
 20
995.8770026798577
 10
1192.028626474151
 20
995.6462997573796
 10
1191.872164539185
 20
995.2541375554149
 10
1191.660469326986
 20
994.722324796897
 10
1191.417501824551
 20
994.0722395308446
 10
1191.176137566032
 20
993.3226469708976
 10
1190.967139140291
 20
992.5049098606939
 10
1190.847075547781
 20
991.8153726753667
  0
LWPOLYLINE
  5
C52
330
1F
100
AcDbEntity
  8
Hewi
370
    13
100
AcDbPolyline
 90
        4
 70
     0
 43
0.0
 10
1196.092533339775
 20
1047.112150545748
 10
1196.17083790467
 20
1046.95048579352
 10
1196.265533692498
 20
1046.846338473949
 10
1196.318365062225
 20
1046.89361625777
  0
LWPOLYLINE
  5
C53
330
1F
100
AcDbEntity
  8
Hewi
370
    13
100
AcDbPolyline
 90
        9
 70
     0
 43
0.0
 10
1198.753020697074
 20
1076.382988512374
 10
1196.97572211852
 20
1054.855747189064
 10
1196.897937743849
 20
1054.625044266586
 10
1196.741475808882
 20
1054.232882064621
 10
1196.529780596682
 20
1053.701069306102
 10
1196.286813094249
 20
1053.050984040049
 10
1196.045448835731
 20
1052.301391480102
 10
1195.83645040999
 20
1051.483654369895
 10
1195.720139354938
 20
1050.815668381432
  0
LWPOLYLINE
  5
C54
330
1F
100
AcDbEntity
  8
Hewi
370
    13
100
AcDbPolyline
 90
       14
 70
     0
 43
0.0
 10
1232.926741966714
 20
1327.166731723097
 10
1227.45481486732
 20
1323.526725331604
 10
1222.858828818192
 20
1318.55926792888
 10
1219.574920396399
 20
1312.660684742095
 10
1218.251979820174
 20
1308.557166437758
 10
1217.569982191728
 20
1304.30038852316
 10
1199.410377753368
 20
1084.345119443668
 10
1199.332593378698
 20
1084.11441652119
 10
1199.176131443731
 20
1083.722254319224
 10
1198.964436231533
 20
1083.190441560706
 10
1198.7214687291
 20
1082.540356294654
 10
1198.48010447058
 20
1081.790763734707
 10
1198.27110604484
 20
1080.973026624502
 10
1198.15739450949
 20
1080.319969936931
  0
LWPOLYLINE
  5
C55
330
1F
100
AcDbEntity
  8
Hewi
370
    13
100
AcDbPolyline
 90
        4
 70
     0
 43
0.0
 10
1198.532012669882
 20
1076.591563974835
 10
1198.605493539518
 20
1076.439858048126
 10
1198.700189327347
 20
1076.335710728554
 10
1198.753020697074
 20
1076.382988512374
  0
LWPOLYLINE
  5
C56
330
1F
100
AcDbEntity
  8
Hewi
370
    13
100
AcDbPolyline
 90
        9
 70
     0
 43
0.0
 10
1198.753020697074
 20
1076.382988512374
 10
1198.750678765803
 20
1076.620690314049
 10
1198.694891840511
 20
1077.034627476832
 10
1198.603546219128
 20
1077.601069388053
 10
1198.495437091102
 20
1078.295935673178
 10
1198.401206035038
 20
1079.086846013649
 10
1198.345698672265
 20
1079.935688308002
 10
1198.350470547372
 20
1080.804681679684
 10
1198.42797249992
 20
1081.586789713108
  0
LWPOLYLINE
  5
C57
330
1F
100
AcDbEntity
  8
Hewi
370
    13
100
AcDbPolyline
 90
        5
 70
     0
 43
0.0
 10
1170.687276177789
 20
963.1712810852695
 10
1170.400154280326
 20
963.2687968991376
 10
1169.627243084712
 20
963.7083302768147
 10
1169.421252469065
 20
964.1220589290893
 10
1169.437801807959
 20
964.3225101174506
  0
LWPOLYLINE
  5
C58
330
1F
100
AcDbEntity
  8
Hewi
370
    13
100
AcDbPolyline
 90
        5
 70
     0
 43
0.0
 10
1566.536240184078
 20
961.7463681782796
 10
1565.978080039123
 20
961.8345069881806
 10
1565.206058249001
 20
962.1270085351827
 10
1565.000369958531
 20
962.490758381724
 10
1564.974215597014
 20
962.7666765018137
  0
LWPOLYLINE
  5
C59
330
1F
100
AcDbEntity
  8
Hewi
370
    13
100
AcDbPolyline
 90
        5
 70
     0
 43
0.0
 10
1191.449053792527
 20
987.9148717485648
 10
1189.343076703267
 20
962.4065651708837
 10
1188.97017531311
 20
962.0426856494395
 10
1188.040053590504
 20
961.7498026139637
 10
1187.415869257435
 20
961.6605855192565
  0
LINE
  5
C5A
330
1F
100
AcDbEntity
  8
Hewi
370
    13
100
AcDbLine
 10
1165.867030400876
 20
904.921959069188
 30
0.0
 11
1170.817223492406
 21
964.7416044727288
 31
0.0
  0
LINE
  5
C5B
330
1F
100
AcDbEntity
  8
Hewi
370
    13
100
AcDbLine
 10
1182.606761331557
 20
903.5458563085287
 30
0.0
 11
1187.555412828712
 21
963.3468726147437
 31
0.0
  0
LWPOLYLINE
  5
C5C
330
1F
100
AcDbEntity
  8
Hewi
370
    13
100
AcDbPolyline
 90
        4
 70
     0
 43
0.0
 10
1191.213574671392
 20
988.1533237044346
 10
1191.301526634972
 20
987.9717412843167
 10
1191.396222422801
 20
987.8675939647436
 10
1191.449053792527
 20
987.9148717485648
  0
LWPOLYLINE
  5
C5D
330
1F
100
AcDbEntity
  8
Hewi
370
    13
100
AcDbPolyline
 90
        4
 70
     0
 43
0.0
 10
1193.653054005584
 20
1017.632737125087
 10
1193.736182269823
 20
1017.461113538917
 10
1193.83087805765
 20
1017.356966219346
 10
1193.882273041636
 20
1017.402958609
  0
LWPOLYLINE
  5
C5E
330
1F
100
AcDbEntity
  8
Hewi
370
    13
100
AcDbPolyline
 90
       23
 70
     0
 43
0.0
 10
1558.950362665158
 20
1025.438662657895
 10
1555.224850961131
 20
1025.115847833532
 10
1554.865868087961
 20
1024.961777498107
 10
1554.116955724546
 20
1024.548866823334
 10
1554.037934797581
 20
1024.475104808485
 10
1553.532932043887
 20
1023.783945419301
 10
1553.394266356019
 20
1022.874361434574
 10
1553.388677534282
 20
1022.684888879106
 10
1553.394638360836
 20
1022.395287169836
 10
1553.411802414109
 20
1022.02238690545
 10
1553.439172181709
 20
1021.587859693874
 10
1553.475157032233
 20
1021.116958677206
 10
1553.517665656966
 20
1020.637050910876
 10
1553.564227609152
 20
1020.17602688987
 10
1553.612136877374
 20
1019.760679654535
 10
1553.658609149109
 20
1019.415147676465
 10
1553.700943624841
 20
1019.159512018265
 10
1553.73667997872
 20
1019.008629295191
 10
1554.074314434736
 20
1018.064841330422
 10
1554.703311012843
 20
1017.446143583159
 10
1555.509851697176
 20
1017.16098258971
 10
1555.930173600564
 20
1017.15299759884
 10
1556.12758502189
 20
1017.170103257974
  0
LINE
  5
C5F
330
1F
100
AcDbEntity
  8
Hewi
370
    13
100
AcDbLine
 10
1532.097755941601
 20
1306.855928377484
 30
0.0
 11
1531.486724127066
 21
1309.670261260035
 31
0.0
  0
LWPOLYLINE
  5
C60
330
1F
100
AcDbEntity
  8
Hewi
370
    13
100
AcDbPolyline
 90
        3
 70
     0
 43
0.0
 10
1539.733024585143
 20
1334.148062114915
 10
1537.699798345015
 20
1336.621193561832
 10
1536.708169266515
 20
1337.371599635736
  0
LWPOLYLINE
  5
C61
330
1F
100
AcDbEntity
  8
Hewi
370
    13
100
AcDbPolyline
 90
        3
 70
     0
 43
0.0
 10
1550.509909045775
 20
1315.437860144047
 10
1550.115199143627
 20
1317.255843383926
 10
1549.425510799991
 20
1318.677471368084
  0
LWPOLYLINE
  5
C62
330
1F
100
AcDbEntity
  8
Hewi
370
    13
100
AcDbPolyline
 90
        3
 70
     0
 43
0.0
 10
1519.330181040087
 20
1347.592550769012
 10
1518.055072048119
 20
1348.152919583789
 10
1517.357214928772
 20
1348.3112134306
  0
LWPOLYLINE
  5
C63
330
1F
100
AcDbEntity
  8
Hewi
370
    13
100
AcDbPolyline
 90
        7
 70
     0
 43
0.0
 10
1232.890115223178
 20
1327.153307700226
 10
1239.348951095631
 20
1329.520534535938
 10
1246.198345202521
 20
1330.325554419038
 10
1503.522513586383
 20
1330.383226526974
 10
1507.924664152262
 20
1330.055823023265
 10
1512.23074962871
 20
1329.079080340749
 10
1518.29918089442
 20
1326.412202719039
  0
LWPOLYLINE
  5
C64
330
1F
100
AcDbEntity
  8
Hewi
370
    13
100
AcDbPolyline
 90
        4
 70
     0
 43
0.0
 10
1546.997295758471
 20
1323.682657386415
 10
1545.115844393347
 20
1327.56082052513
 10
1544.954172966074
 20
1327.797275372616
 10
1543.979885638831
 20
1328.98235777013
  0
LWPOLYLINE
  5
C65
330
1F
100
AcDbEntity
  8
Hewi
370
    13
100
AcDbPolyline
 90
        3
 70
     0
 43
0.0
 10
1199.049012514058
 20
1313.979219132085
 10
1198.800497085291
 20
1313.208370791157
 10
1198.479848822218
 20
1311.206999066236
  0
LWPOLYLINE
  5
C66
330
1F
100
AcDbEntity
  8
Hewi
370
    13
100
AcDbPolyline
 90
        3
 70
     0
 43
0.0
 10
1530.360095799435
 20
1342.17544513661
 10
1528.564111635769
 20
1343.53453943333
 10
1527.764736096251
 20
1343.88583891162
  0
LINE
  5
C67
330
1F
100
AcDbEntity
  8
Hewi
370
    13
100
AcDbLine
 10
1196.318365062225
 20
1046.89361625777
 30
0.0
 11
1194.567491184409
 21
1025.686439844526
 31
0.0
  0
LINE
  5
C68
330
1F
100
AcDbEntity
  8
Hewi
370
    13
100
AcDbLine
 10
1519.114115326278
 20
1325.875144689377
 30
0.0
 11
1523.531999449271
 21
1322.531952006168
 31
0.0
  0
LINE
  5
C69
330
1F
100
AcDbEntity
  8
Hewi
370
    13
100
AcDbLine
 10
1527.687903740953
 20
1317.712103456077
 30
0.0
 11
1525.093106209303
 21
1320.868306758618
 31
0.0
  0
LINE
  5
C6A
330
1F
100
AcDbEntity
  8
Hewi
370
    13
100
AcDbLine
 10
1529.360610783758
 20
1314.77420408839
 30
0.0
 11
1530.707784613648
 21
1311.997324880609
 31
0.0
  0
LWPOLYLINE
  5
C6B
330
1F
100
AcDbEntity
  8
Hewi
370
    13
100
AcDbPolyline
 90
       16
 70
     0
 43
0.0
 10
1164.509233928791
 20
883.8557181891337
 10
1164.549977230994
 20
883.7600207685797
 10
1166.396451569372
 20
881.2812553845057
 10
1168.73938652274
 20
879.6854187751849
 10
1171.906482792821
 20
878.6699324707205
 10
1174.763548445814
 20
878.7420086569296
 10
1177.659055707364
 20
879.6664546289676
 10
1179.973942193182
 20
881.1888728594114
 10
1181.796944070569
 20
883.4807827361728
 10
1182.91141629986
 20
886.2698143224326
 10
1183.139933669395
 20
887.3533253722305
 10
1184.679472016652
 20
900.3665223116206
 10
1184.677445900152
 20
900.8407023765496
 10
1184.560933340821
 20
901.3014157360379
 10
1184.356043661828
 20
901.7255740691615
 10
1184.233247142174
 20
901.9553310058839
  0
LWPOLYLINE
  5
C6C
330
1F
100
AcDbEntity
  8
Hewi
370
    13
100
AcDbPolyline
 90
        3
 70
     0
 43
0.0
 10
1163.776778297712
 20
885.5761019276698
 10
1163.479446994819
 20
886.2744704250198
 10
1163.464820272385
 20
886.4402003076579
  0
LWPOLYLINE
  5
C6D
330
1F
100
AcDbEntity
  8
Hewi
370
    13
100
AcDbPolyline
 90
       38
 70
     1
 43
0.0
 10
1573.394945414154
 20
883.3595218799358
 10
1575.167191401549
 20
881.0640148397185
 10
1577.395499640497
 20
879.5353081036537
 10
1580.43890751165
 20
878.6232578125789
 10
1583.160309322709
 20
878.5411800054248
 10
1586.448011295637
 20
879.5670122173399
 10
1588.653310341184
 20
881.1525951630587
 10
1590.643661483458
 20
883.6432419599448
 10
1591.622840459765
 20
886.1507930891187
 10
1591.879710626827
 20
888.9535675522566
 10
1591.107012944305
 20
902.0344235362628
 10
1591.021665129989
 20
902.5010727776189
 10
1590.826034819895
 20
902.9347699705265
 10
1590.606853030891
 20
903.3208522043549
 10
1590.317748711406
 20
903.6868458151404
 10
1589.948570244087
 20
903.9698027070039
 10
1589.520630833534
 20
904.153387371068
 10
1588.800330481568
 20
904.4344173764526
 10
1587.598941088623
 20
904.6325186330339
 10
1587.294787080133
 20
904.6819167309429
 10
1585.748922115936
 20
904.7812849601827
 10
1583.898666773349
 20
904.7843441293814
 10
1581.851545414112
 20
904.690922762953
 10
1579.726531246317
 20
904.5064480255048
 10
1577.647122369283
 20
904.2416409182397
 10
1575.734166468598
 20
903.9118910676986
 10
1574.098837587901
 20
903.5363623366015
 10
1572.836175097557
 20
903.1368790898088
 10
1572.515588381086
 20
903.0207216143617
 10
1571.663688610241
 20
902.6032072460646
 10
1571.286575558179
 20
902.3497351224616
 10
1570.984363249243
 20
902.0084940840495
 10
1570.619424279604
 20
901.5818959934646
 10
1570.400141280565
 20
901.1615764526139
 10
1570.289120356014
 20
900.7012585402506
 10
1570.292770903816
 20
900.2275170723956
 10
1571.988428834143
 20
887.226784248023
 10
1572.289374902026
 20
886.1490318015729
  0
LWPOLYLINE
  5
C6E
330
1F
100
AcDbEntity
  8
Hewi
370
    13
100
AcDbPolyline
 90
        3
 70
     0
 43
0.0
 10
1572.508229577193
 20
885.5968306810298
 10
1572.727762297281
 20
884.9084358586607
 10
1573.394945414154
 20
883.3595218799358
  0
LWPOLYLINE
  5
C6F
330
1F
100
AcDbEntity
  8
Hewi
370
    13
100
AcDbPolyline
 90
       40
 70
     1
 43
0.0
 10
1184.446730642931
 20
900.8295584873238
 10
1182.905625155192
 20
887.8282778931705
 10
1182.618320011308
 20
886.4696992808317
 10
1181.545350598284
 20
883.8803905870895
 10
1179.799361721526
 20
881.9548429923209
 10
1179.482284342194
 20
881.6643309566076
 10
1177.211496211091
 20
879.9667630399696
 10
1174.557278188777
 20
879.3639584376979
 10
1173.900074906853
 20
879.2163727970205
 10
1171.171009363619
 20
879.1964705416928
 10
1168.172873302085
 20
880.4035220268715
 10
1165.990729972252
 20
881.8746861895162
 10
1164.29394027622
 20
884.1436052975879
 10
1163.284150232879
 20
886.9406416308665
 10
1162.994580854782
 20
889.5395414870556
 10
1163.611809109614
 20
902.620225122558
 10
1163.691608475777
 20
903.0869130031547
 10
1163.882077711072
 20
903.5207362590888
 10
1164.172220752235
 20
903.8966496490116
 10
1164.539859874728
 20
904.2739985460215
 10
1164.900159336635
 20
904.5571958475605
 10
1165.319302884838
 20
904.7410665412737
 10
1166.174082625019
 20
905.0233662732649
 10
1166.515528019454
 20
905.0811783309937
 10
1167.781160784032
 20
905.272570047963
 10
1169.41949690841
 20
905.3736233940957
 10
1171.335322252147
 20
905.3784655162289
 10
1173.417296010009
 20
905.2868150078257
 10
1175.544421434853
 20
905.1039982632968
 10
1177.593077728777
 20
904.8406399273238
 10
1179.444204434536
 20
904.5120454291238
 10
1180.990220796567
 20
904.1373114865395
 10
1182.141277963447
 20
903.7382162742135
 10
1182.475004041894
 20
903.6223763027429
 10
1183.193986446389
 20
903.2048188804489
 10
1183.580695201438
 20
902.9516888506707
 10
1183.89245356005
 20
902.6107312396327
 10
1184.111263263194
 20
902.2016300212605
 10
1184.328264908854
 20
901.7634795699146
 10
1184.444751574212
 20
901.3032748520247
  0
LINE
  5
C70
330
1F
100
AcDbEntity
  8
Hewi
370
    13
100
AcDbLine
 10
1575.314655365479
 20
887.2049304855446
 30
0.0
 11
1576.564403354971
 21
884.0516405072127
 31
0.0
  0
LWPOLYLINE
  5
C71
330
1F
100
AcDbEntity
  8
Hewi
370
    13
100
AcDbPolyline
 90
       37
 70
     0
 43
0.0
 10
1578.29682110149
 20
1381.18841812391
 10
1575.097054693942
 20
1379.220111825583
 10
1570.995016949128
 20
1376.755060186737
 10
1565.980076372236
 20
1373.947972470709
 10
1559.473832092596
 20
1370.5299142313
 10
1551.326291407928
 20
1366.655709638967
 10
1542.153337938411
 20
1362.770888632327
 10
1534.567753852131
 20
1359.928865527629
 10
1526.674199532575
 20
1357.313318515835
 10
1519.699955011314
 20
1355.351536801116
 10
1510.331490268027
 20
1352.729247632932
 10
1500.36110853278
 20
1350.586630803594
 10
1493.54675502572
 20
1349.122888635177
 10
1480.722302755572
 20
1347.306992504439
 10
1472.213622590482
 20
1346.17545965785
 10
1451.380298087389
 20
1344.718611590029
 10
1429.47326324871
 20
1344.252500522171
 10
1406.816341675398
 20
1344.283159118577
 10
1389.005961316868
 20
1344.645044818298
 10
1363.029353111527
 20
1345.821452177087
 10
1334.161364007228
 20
1347.330187793739
 10
1293.506751860348
 20
1350.879286664752
 10
1252.952148620125
 20
1355.441994534841
 10
1235.381104290185
 20
1357.701464813898
 10
1221.309798621108
 20
1359.253242718206
 10
1209.574148845464
 20
1360.199866677084
 10
1199.848235520832
 20
1360.657915301931
 10
1191.618995436674
 20
1360.754953218951
 10
1184.80412180141
 20
1360.583095914433
 10
1178.787986913465
 20
1360.182345572752
 10
1174.314503477165
 20
1359.664693281648
 10
1171.237874237733
 20
1359.117350008418
 10
1169.520694556552
 20
1358.656863814841
 10
1168.58490323853
 20
1358.296467899114
 10
1165.45468963118
 20
1357.439065542163
 10
1162.495558758437
 20
1357.081375079712
 10
1157.908934453557
 20
1357.33363846023
  0
LWPOLYLINE
  5
C72
330
1F
100
AcDbEntity
  8
Hewi
370
    13
100
AcDbPolyline
 90
       22
 70
     0
 43
0.0
 10
1561.279410943986
 20
1017.290890682898
 10
1557.076200272705
 20
1016.927851066539
 10
1556.602956033941
 20
1017.004606197471
 10
1555.801134801733
 20
1017.283754598969
 10
1555.181115971111
 20
1017.890804380921
 10
1554.883012095131
 20
1018.780915532168
 10
1554.847575015071
 20
1018.929269708146
 10
1554.805507400588
 20
1019.182651512019
 10
1554.759254068525
 20
1019.526335314355
 10
1554.711503094422
 20
1019.940347461796
 10
1554.66502959132
 20
1020.400627073213
 10
1554.6225344303
 20
1020.880424370633
 10
1554.586487275654
 20
1021.351855279125
 10
1554.558983056986
 20
1021.787521947867
 10
1554.541620219509
 20
1022.162105013659
 10
1554.535407828228
 20
1022.453835070268
 10
1554.540706924742
 20
1022.6457578272
 10
1554.703731921276
 20
1023.672474665791
 10
1555.214414587564
 20
1024.389611673503
 10
1555.958571633117
 20
1024.80884294054
 10
1556.371101029381
 20
1024.888868350309
 10
1559.551887235403
 20
1025.163599144043
  0
LINE
  5
C73
330
1F
100
AcDbEntity
  8
Hewi
370
    13
100
AcDbLine
 10
1164.062629851101
 20
888.7016780173699
 30
0.0
 11
1164.75839814194
 21
885.3795368106604
 31
0.0
  0
LWPOLYLINE
  5
C74
330
1F
100
AcDbEntity
  8
Hewi
370
    13
100
AcDbPolyline
 90
       20
 70
     0
 43
0.0
 10
1158.46767922208
 20
1357.302907615661
 10
1157.889029935541
 20
1357.32407167497
 10
1156.276453778755
 20
1357.670260454179
 10
1153.012303453768
 20
1358.744610324027
 10
1150.08434809623
 20
1360.183228120701
 10
1147.6618374759
 20
1361.820084892996
 10
1144.875970045538
 20
1364.53277227473
 10
1142.954162272408
 20
1367.588839446116
 10
1141.899794163335
 20
1370.821616970987
 10
1141.627318960379
 20
1372.728483124392
 10
1141.557448107671
 20
1374.741905966585
 10
1141.657470592643
 20
1376.646699183556
 10
1141.918425986948
 20
1378.448555901969
 10
1142.257315878812
 20
1379.854299863686
 10
1142.725896116711
 20
1381.187575865006
 10
1143.395166422186
 20
1382.476050277421
 10
1143.774061702128
 20
1383.002698927487
 10
1144.208488441316
 20
1383.485430197424
 10
1145.043800207963
 20
1384.139415586819
 10
1146.016215468019
 20
1384.60834333317
  0
LWPOLYLINE
  5
C75
330
1F
100
AcDbEntity
  8
Hewi
370
    13
100
AcDbPolyline
 90
       17
 70
     0
 43
0.0
 10
1156.863961561144
 20
1357.355661968839
 10
1158.887705899484
 20
1356.963433702319
 10
1162.241897583702
 20
1356.83553712605
 10
1162.495006528376
 20
1356.866787525585
 10
1165.459247847784
 20
1357.225845920688
 10
1168.584352872109
 20
1358.082604524996
 10
1170.478738829222
 20
1358.690033642481
 10
1173.376612545141
 20
1359.252804389288
 10
1177.462862252151
 20
1359.76829992387
 10
1182.662395578951
 20
1360.17248519972
 10
1188.9682565129
 20
1360.407728197064
 10
1197.283677550456
 20
1360.397733445716
 10
1206.96271415055
 20
1360.024249120395
 10
1218.154083646529
 20
1359.206793461431
 10
1230.891892170823
 20
1357.89290179357
 10
1241.899238985563
 20
1356.538392268795
 10
1252.85306521062
 20
1355.110039634035
  0
LWPOLYLINE
  5
C76
330
1F
100
AcDbEntity
  8
Hewi
370
    13
100
AcDbPolyline
 90
        8
 70
     0
 43
0.0
 10
1296.013666205204
 20
1350.660436050018
 10
1296.017063192759
 20
1350.589258744486
 10
1296.016505624271
 20
1350.181675029355
 10
1296.01656660043
 20
1348.058468639393
 10
1296.016036022592
 20
1347.935700512163
 10
1296.014469716245
 20
1347.820422140386
 10
1296.011963558868
 20
1347.719689997542
 10
1296.00867095853
 20
1347.639670146559
  0
LWPOLYLINE
  5
C77
330
1F
100
AcDbEntity
  8
Hewi
370
    13
100
AcDbPolyline
 90
        3
 70
     0
 43
0.0
 10
1143.92089504484
 20
1365.648772874168
 10
1143.874710102967
 20
1365.725503025256
 10
1143.226525316292
 20
1367.155726542431
  0
LWPOLYLINE
  5
C78
330
1F
100
AcDbEntity
  8
Hewi
370
    13
100
AcDbPolyline
 90
        6
 70
     0
 43
0.0
 10
1143.92089504484
 20
1365.648772874168
 10
1145.300332488712
 20
1363.830660886128
 10
1148.470591996844
 20
1361.008058634865
 10
1152.086731531759
 20
1358.936792257015
 10
1156.288394586291
 20
1357.464634078189
 10
1158.880816291419
 20
1356.973810813692
  0
LWPOLYLINE
  5
C79
330
1F
100
AcDbEntity
  8
Hewi
370
    13
100
AcDbPolyline
 90
        3
 70
     0
 43
0.0
 10
1142.229136760988
 20
1369.324002911938
 10
1142.217051737654
 20
1369.383135888985
 10
1142.170939451877
 20
1369.673388402049
  0
LWPOLYLINE
  5
C7A
330
1F
100
AcDbEntity
  8
Hewi
370
    13
100
AcDbPolyline
 90
        3
 70
     0
 43
0.0
 10
1258.391127367761
 20
1354.639836288545
 10
1252.987244160522
 20
1355.087425339807
 10
1249.036743740522
 20
1355.753235989621
  0
LWPOLYLINE
  5
C7B
330
1F
100
AcDbEntity
  8
Hewi
370
    13
100
AcDbPolyline
 90
        4
 70
     0
 43
0.0
 10
1141.628288276211
 20
1376.090961358872
 10
1141.619841907586
 20
1376.026806648669
 10
1141.618843669212
 20
1376.006747831304
 10
1141.616747221658
 20
1375.871177549441
  0
LWPOLYLINE
  5
C7C
330
1F
100
AcDbEntity
  8
Hewi
370
    13
100
AcDbPolyline
 90
        5
 70
     0
 43
0.0
 10
1296.002247396816
 20
1347.938570496692
 10
1296.002245576598
 20
1348.731228410868
 10
1296.002243588495
 20
1349.428166827948
 10
1296.002240115023
 20
1350.324952305909
 10
1295.947386783921
 20
1350.666222155459
  0
LWPOLYLINE
  5
C7D
330
1F
100
AcDbEntity
  8
Hewi
370
    13
100
AcDbPolyline
 90
        3
 70
     0
 43
0.0
 10
1295.989018679644
 20
1350.662587750702
 10
1296.002247396816
 20
1350.552642266914
 10
1296.002247396816
 20
1347.938570496692
  0
LWPOLYLINE
  5
C7E
330
1F
100
AcDbEntity
  8
Hewi
370
    13
100
AcDbPolyline
 90
        3
 70
     0
 43
0.0
 10
1296.00867095853
 20
1347.639670146559
 10
1296.005400678235
 20
1347.770935430192
 10
1296.002635146295
 20
1347.910364023759
  0
LINE
  5
C7F
330
1F
100
AcDbEntity
  8
Hewi
370
    13
100
AcDbLine
 10
1296.002635146295
 20
1347.910364023759
 30
0.0
 11
1296.002247396816
 21
1347.938570496692
 31
0.0
  0
LWPOLYLINE
  5
C80
330
1F
100
AcDbEntity
  8
Hewi
370
    13
100
AcDbPolyline
 90
       17
 70
     0
 43
0.0
 10
1145.333191001152
 20
1384.244567556179
 10
1146.357638110922
 20
1384.790183507596
 10
1147.339445413827
 20
1385.259684338724
 10
1149.014202474891
 20
1386.006010876718
 10
1152.151263422565
 20
1387.328390692033
 10
1156.797534275085
 20
1389.125955954918
 10
1163.016848665336
 20
1391.25355487411
 10
1170.451347644958
 20
1393.360968368775
 10
1179.226113399848
 20
1395.076585199026
 10
1188.539013113895
 20
1395.917716907916
 10
1192.433911482767
 20
1395.858126326126
 10
1199.704064515763
 20
1395.73032227616
 10
1213.244709194593
 20
1394.416266322995
 10
1229.128105815269
 20
1392.344213178287
 10
1248.915254063888
 20
1389.736330787469
 10
1287.241794946902
 20
1385.243003005905
 10
1324.492581773266
 20
1381.729827691141
  0
LWPOLYLINE
  5
C81
330
1F
100
AcDbEntity
  8
Hewi
370
    13
100
AcDbPolyline
 90
        3
 70
     0
 43
0.0
 10
1296.002635146295
 20
1347.910364023759
 10
1296.002635146295
 20
1350.5637768581
 10
1295.990801364639
 20
1350.662432125551
  0
LINE
  5
C82
330
1F
100
AcDbEntity
  8
Hewi
370
    13
100
AcDbLine
 10
1492.571801837866
 20
1347.58396629829
 30
0.0
 11
1492.568007808342
 21
1347.560579363083
 31
0.0
  0
LWPOLYLINE
  5
C83
330
1F
100
AcDbEntity
  8
Hewi
370
    13
100
AcDbPolyline
 90
        6
 70
     0
 43
0.0
 10
1428.969956689543
 20
1377.614950044769
 10
1436.284189528707
 20
1377.792769998395
 10
1440.580641746848
 20
1377.941269350724
 10
1452.174164470035
 20
1378.522770818099
 10
1463.740592353562
 20
1379.404794457818
 10
1470.164664582386
 20
1380.035143529871
  0
LWPOLYLINE
  5
C84
330
1F
100
AcDbEntity
  8
Hewi
370
    13
100
AcDbPolyline
 90
        8
 70
     0
 43
0.0
 10
1296.00867095853
 20
1347.639670146559
 10
1296.023377992503
 20
1347.607712131021
 10
1296.031382990192
 20
1347.597228217265
 10
1296.036376072274
 20
1347.591898309091
 10
1296.051858257751
 20
1347.579339605
 10
1296.067379519258
 20
1347.570857419351
 10
1296.083951452781
 20
1347.564769243054
 10
1296.11349724112
 20
1347.55911424592
  0
LWPOLYLINE
  5
C85
330
1F
100
AcDbEntity
  8
Hewi
370
    13
100
AcDbPolyline
 90
        4
 70
     0
 43
0.0
 10
1417.347887199341
 20
1377.51048361095
 10
1409.442400416037
 20
1377.548480293089
 10
1405.718755757327
 20
1377.59313457643
 10
1394.086083637276
 20
1377.834460527552
  0
LWPOLYLINE
  5
C86
330
1F
100
AcDbEntity
  8
Hewi
370
    13
100
AcDbPolyline
 90
        3
 70
     0
 43
0.0
 10
1382.450323893628
 20
1378.214155016639
 10
1370.911444482487
 20
1378.710094207098
 10
1370.151631661053
 20
1378.694303183309
  0
LWPOLYLINE
  5
C87
330
1F
100
AcDbEntity
  8
Hewi
370
    13
100
AcDbPolyline
 90
        5
 70
     0
 43
0.0
 10
1492.572921332355
 20
1347.816932618802
 10
1492.589286785726
 20
1347.922611163433
 10
1492.58619789604
 20
1347.840521265099
 10
1492.582512308719
 20
1347.765150507144
 10
1492.578393174765
 20
1347.698764086193
  0
LWPOLYLINE
  5
C88
330
1F
100
AcDbEntity
  8
Hewi
370
    13
100
AcDbPolyline
 90
        3
 70
     0
 43
0.0
 10
1353.361099251128
 20
1379.667271069716
 10
1364.996133820026
 20
1379.006504830138
 10
1370.151631661053
 20
1378.694303183309
  0
LWPOLYLINE
  5
C89
330
1F
100
AcDbEntity
  8
Hewi
370
    13
100
AcDbPolyline
 90
        4
 70
     0
 43
0.0
 10
1501.855745557677
 20
1384.991260432242
 10
1497.205849679541
 20
1384.042764155434
 10
1495.610862442863
 20
1383.73685321519
 10
1489.305312067733
 20
1382.619964315008
  0
LWPOLYLINE
  5
C8A
330
1F
100
AcDbEntity
  8
Hewi
370
    13
100
AcDbPolyline
 90
        3
 70
     0
 43
0.0
 10
1508.021507677716
 20
1386.385424152285
 10
1512.569455124481
 20
1387.520464672504
 10
1514.092000642568
 20
1387.923208595962
  0
LWPOLYLINE
  5
C8B
330
1F
100
AcDbEntity
  8
Hewi
370
    13
100
AcDbPolyline
 90
        3
 70
     0
 43
0.0
 10
1482.954248237967
 20
1381.635626260821
 10
1480.454759961965
 20
1381.284411074142
 10
1476.570810646668
 20
1380.77682962687
  0
LINE
  5
C8C
330
1F
100
AcDbEntity
  8
Hewi
370
    13
100
AcDbLine
 10
1492.575321652158
 20
1347.630799943194
 30
0.0
 11
1492.571801837866
 21
1347.58396629829
 31
0.0
  0
LINE
  5
C8D
330
1F
100
AcDbEntity
  8
Hewi
370
    13
100
AcDbLine
 10
1492.578393174765
 20
1347.698764086193
 30
0.0
 11
1492.575321652158
 21
1347.630799943194
 31
0.0
  0
LWPOLYLINE
  5
C8E
330
1F
100
AcDbEntity
  8
Hewi
370
    13
100
AcDbPolyline
 90
        3
 70
     0
 43
0.0
 10
1526.212532707616
 20
1390.955981455688
 10
1523.668989721282
 20
1390.73748277643
 10
1523.231829732074
 20
1390.608435207323
  0
LWPOLYLINE
  5
C8F
330
1F
100
AcDbEntity
  8
Hewi
370
    13
100
AcDbPolyline
 90
        3
 70
     0
 43
0.0
 10
1318.473935398526
 20
1382.229732116932
 10
1325.68648247895
 20
1381.630663156684
 10
1330.098846848102
 20
1381.281678623665
  0
LWPOLYLINE
  5
C90
330
1F
100
AcDbEntity
  8
Hewi
370
    13
100
AcDbPolyline
 90
        3
 70
     0
 43
0.0
 10
1296.11349724112
 20
1347.55911424592
 10
1296.12330369044
 20
1347.558360480936
 10
1331.547265322381
 20
1347.558395458039
  0
LWPOLYLINE
  5
C91
330
1F
100
AcDbEntity
  8
Hewi
370
    13
100
AcDbPolyline
 90
        9
 70
     0
 43
0.0
 10
1523.231829732074
 20
1390.608435207323
 10
1533.511079208605
 20
1394.233492747757
 10
1540.898432081494
 20
1397.332637774584
 10
1547.416247043457
 20
1400.462971309932
 10
1552.343271953368
 20
1403.117407542707
 10
1557.433798603359
 20
1406.158412899795
 10
1561.471749430953
 20
1408.811647932965
 10
1564.650111941125
 20
1411.037895930553
 10
1566.638235376204
 20
1412.476550832021
  0
LWPOLYLINE
  5
C92
330
1F
100
AcDbEntity
  8
Hewi
370
    13
100
AcDbPolyline
 90
        9
 70
     0
 43
0.0
 10
1579.310166825067
 20
1381.595584314396
 10
1577.053881457534
 20
1380.184867860986
 10
1573.310898255053
 20
1377.864708406285
 10
1568.649683448799
 20
1375.13923751855
 10
1563.302587489454
 20
1372.222579235515
 10
1556.710884950196
 20
1368.88202228703
 10
1549.756863161176
 20
1365.660597238607
 10
1542.152550734229
 20
1362.464993985015
 10
1536.872711263043
 20
1360.53771123267
  0
LWPOLYLINE
  5
C93
330
1F
100
AcDbEntity
  8
Hewi
370
    13
100
AcDbPolyline
 90
        3
 70
     0
 43
0.0
 10
1285.675875316505
 20
1350.550228737624
 10
1276.581189276368
 20
1352.570160380471
 10
1275.969372656661
 20
1352.731757999306
  0
LWPOLYLINE
  5
C94
330
1F
100
AcDbEntity
  8
Hewi
370
    13
100
AcDbPolyline
 90
        4
 70
     0
 43
0.0
 10
1577.955801133932
 20
1380.851884393758
 10
1578.517377689716
 20
1381.169170410754
 10
1579.264737804417
 20
1381.573566742884
 10
1579.354950869559
 20
1381.617289294649
  0
LINE
  5
C95
330
1F
100
AcDbEntity
  8
Hewi
370
    13
100
AcDbLine
 10
1492.565781000737
 20
1347.556909888684
 30
0.0
 11
1492.564129419904
 21
1347.560455654592
 31
0.0
  0
LWPOLYLINE
  5
C96
330
1F
100
AcDbEntity
  8
Hewi
370
    13
100
AcDbPolyline
 90
       27
 70
     0
 43
0.0
 10
1568.96881351651
 20
1414.103891258812
 10
1569.769148557525
 20
1414.635660776142
 10
1570.310820091309
 20
1414.990140230123
 10
1570.601477433035
 20
1415.171732295366
 10
1571.77857596557
 20
1415.778537354341
 10
1572.877622154999
 20
1416.11929842443
 10
1573.70952276071
 20
1416.187808116626
 10
1574.539044888956
 20
1416.086594560239
 10
1575.60562406286
 20
1415.763475063346
 10
1577.103767982636
 20
1415.020639506308
 10
1579.150907342474
 20
1413.570442893475
 10
1581.879179777896
 20
1410.976272311194
 10
1584.569532371754
 20
1407.675440568882
 10
1585.364414923836
 20
1406.531067862951
 10
1586.861361510968
 20
1404.084401334558
 10
1588.387888711153
 20
1400.944653964593
 10
1588.943397751601
 20
1399.467546970147
 10
1589.692077010975
 20
1396.503039549732
 10
1589.819219171134
 20
1395.464155655048
 10
1589.859732047769
 20
1394.128918442765
 10
1589.729083366792
 20
1392.706821663155
 10
1589.545192272965
 20
1391.818852823731
 10
1589.345065617805
 20
1391.13265807844
 10
1588.725903626182
 20
1389.628680579306
 10
1587.664117282476
 20
1387.824970103596
 10
1586.343448326717
 20
1386.201287792342
 10
1584.793810252665
 20
1384.794411772845
  0
LWPOLYLINE
  5
C97
330
1F
100
AcDbEntity
  8
Hewi
370
    13
100
AcDbPolyline
 90
        3
 70
     0
 43
0.0
 10
1582.407791752148
 20
1383.428885095814
 10
1582.832732544263
 20
1383.591105677354
 10
1584.793810252665
 20
1384.794411772845
  0
LINE
  5
C98
330
1F
100
AcDbEntity
  8
Hewi
370
    13
100
AcDbLine
 10
1584.793810252665
 20
1384.794411772845
 30
0.0
 11
1584.153656663315
 21
1384.32841616297
 31
0.0
  0
LWPOLYLINE
  5
C99
330
1F
100
AcDbEntity
  8
Hewi
370
    13
100
AcDbPolyline
 90
        7
 70
     0
 43
0.0
 10
1580.838988934859
 20
1382.449716514369
 10
1579.542176851635
 20
1381.69378552108
 10
1579.363105031046
 20
1381.620472807727
 10
1579.272873627353
 20
1381.585245050743
 10
1579.182180620271
 20
1381.550972560466
 10
1578.814832672481
 20
1381.423445945047
 10
1578.634873031431
 20
1381.373558884457
  0
LWPOLYLINE
  5
C9A
330
1F
100
AcDbEntity
  8
Hewi
370
    13
100
AcDbPolyline
 90
        3
 70
     0
 43
0.0
 10
1512.841247298513
 20
1349.465785681386
 10
1513.959145706292
 20
1349.897405069117
 10
1518.235233344915
 20
1351.632349341113
  0
LWPOLYLINE
  5
C9B
330
1F
100
AcDbEntity
  8
Hewi
370
    13
100
AcDbPolyline
 90
        3
 70
     0
 43
0.0
 10
1502.841732876057
 20
1348.058457945206
 10
1502.841662459271
 20
1350.51038942893
 10
1502.843266955785
 20
1351.1200421183
  0
LINE
  5
C9C
330
1F
100
AcDbEntity
  8
Hewi
370
    13
100
AcDbLine
 10
1580.553005445205
 20
1382.294758463179
 30
0.0
 11
1583.188576219688
 21
1383.722823111405
 31
0.0
  0
LINE
  5
C9D
330
1F
100
AcDbEntity
  8
Hewi
370
    13
100
AcDbLine
 10
1502.841732881964
 20
1348.058041936704
 30
0.0
 11
1502.841732876057
 21
1348.058457945206
 31
0.0
  0
LWPOLYLINE
  5
C9E
330
1F
100
AcDbEntity
  8
Hewi
370
    13
100
AcDbPolyline
 90
       11
 70
     0
 43
0.0
 10
1492.568345240326
 20
1347.560348424492
 10
1492.591279842492
 20
1347.558046513472
 10
1502.324586710203
 20
1347.558046513472
 10
1502.458433225614
 20
1347.575083402855
 10
1502.583158428012
 20
1347.625033048617
 10
1502.690262599581
 20
1347.704491504434
 10
1502.765524697557
 20
1347.796794694199
 10
1502.808776090092
 20
1347.882408318846
 10
1502.832700955251
 20
1347.965007741797
 10
1502.83946972777
 20
1348.011320394673
 10
1502.841732881964
 20
1348.058041936704
  0
LINE
  5
C9F
330
1F
100
AcDbEntity
  8
Hewi
370
    13
100
AcDbLine
 10
1492.572325616723
 20
1347.588247216869
 30
0.0
 11
1492.571801837866
 21
1347.58396629829
 31
0.0
  0
LINE
  5
CA0
330
1F
100
AcDbEntity
  8
Hewi
370
    13
100
AcDbLine
 10
1492.572422438522
 20
1347.589296669615
 30
0.0
 11
1492.572325616723
 21
1347.588247216869
 31
0.0
  0
LWPOLYLINE
  5
CA1
330
1F
100
AcDbEntity
  8
Hewi
370
    13
100
AcDbPolyline
 90
        4
 70
     0
 43
0.0
 10
1492.396954505348
 20
1348.960081044918
 10
1492.429461576556
 20
1348.822141040245
 10
1492.583708023646
 20
1348.058468639391
 10
1492.391205040149
 20
1348.959266932284
  0
LWPOLYLINE
  5
CA2
330
1F
100
AcDbEntity
  8
Hewi
370
    13
100
AcDbPolyline
 90
        3
 70
     0
 43
0.0
 10
1492.569942251668
 20
1347.568071942842
 10
1492.569110507506
 20
1347.563494266659
 10
1492.568343938589
 20
1347.56034307326
  0
LINE
  5
CA3
330
1F
100
AcDbEntity
  8
Hewi
370
    13
100
AcDbLine
 10
1492.571801837866
 20
1347.58396629829
 30
0.0
 11
1492.569942251668
 21
1347.568071942842
 31
0.0
  0
LWPOLYLINE
  5
CA4
330
1F
100
AcDbEntity
  8
Hewi
370
    13
100
AcDbPolyline
 90
        3
 70
     0
 43
0.0
 10
1492.575321757818
 20
1347.630140426421
 10
1492.57390991678
 20
1347.607857931661
 10
1492.572422438522
 20
1347.589296669615
  0
LINE
  5
CA5
330
1F
100
AcDbEntity
  8
Hewi
370
    13
100
AcDbLine
 10
1583.188576219688
 20
1383.722823111405
 30
0.0
 11
1581.072024123863
 21
1382.594310396205
 31
0.0
  0
LINE
  5
CA6
330
1F
100
AcDbEntity
  8
Hewi
370
    13
100
AcDbLine
 10
1579.679262895219
 20
1381.77136912256
 30
0.0
 11
1579.673020834437
 21
1381.767824476364
 31
0.0
  0
LWPOLYLINE
  5
CA7
330
1F
100
AcDbEntity
  8
Hewi
370
    13
100
AcDbPolyline
 90
        3
 70
     0
 43
0.0
 10
1580.860932607766
 20
1382.461606534783
 10
1579.684125038617
 20
1381.774194037467
 10
1579.679262895219
 20
1381.77136912256
  0
LWPOLYLINE
  5
CA8
330
1F
100
AcDbEntity
  8
Hewi
370
    13
100
AcDbPolyline
 90
        3
 70
     0
 43
0.0
 10
1518.235233344915
 20
1351.632349341113
 10
1531.568342804676
 20
1357.822513144065
 10
1533.293842590958
 20
1358.632655593402
  0
LINE
  5
CA9
330
1F
100
AcDbEntity
  8
Hewi
370
    13
100
AcDbLine
 10
1492.566721666373
 20
1347.556916616803
 30
0.0
 11
1492.565781000737
 21
1347.556909888684
 31
0.0
  0
LINE
  5
CAA
330
1F
100
AcDbEntity
  8
Hewi
370
    13
100
AcDbLine
 10
1492.568343938589
 20
1347.56034307326
 30
0.0
 11
1492.566721666373
 21
1347.556916616803
 31
0.0
  0
LINE
  5
CAB
330
1F
100
AcDbEntity
  8
Hewi
370
    13
100
AcDbLine
 10
1492.571801837866
 20
1347.58396629829
 30
0.0
 11
1492.572422438522
 21
1347.589296669615
 31
0.0
  0
LINE
  5
CAC
330
1F
100
AcDbEntity
  8
Hewi
370
    13
100
AcDbLine
 10
1584.153656663315
 20
1384.32841616297
 30
0.0
 11
1583.188576219688
 21
1383.722823111405
 31
0.0
  0
LINE
  5
CAD
330
1F
100
AcDbEntity
  8
Hewi
370
    13
100
AcDbLine
 10
1492.575321652158
 20
1347.630799943194
 30
0.0
 11
1492.575321757818
 21
1347.630140426421
 31
0.0
  0
LWPOLYLINE
  5
CAE
330
1F
100
AcDbEntity
  8
Hewi
370
    13
100
AcDbPolyline
 90
        3
 70
     0
 43
0.0
 10
1579.673020834437
 20
1381.767824476364
 10
1579.657171186755
 20
1381.758980471355
 10
1579.601547215256
 20
1381.728393386377
  0
LINE
  5
CAF
330
1F
100
AcDbEntity
  8
Hewi
370
    13
100
AcDbLine
 10
1568.017443521039
 20
1413.418410096255
 30
0.0
 11
1566.638235376204
 21
1412.476550832021
 31
0.0
  0
LWPOLYLINE
  5
CB0
330
1F
100
AcDbEntity
  8
Hewi
370
    13
100
AcDbPolyline
 90
        3
 70
     0
 43
0.0
 10
1533.293842590958
 20
1358.632655593402
 10
1528.144163873212
 20
1356.081807327672
 10
1518.235233344915
 20
1351.632349341113
  0
LWPOLYLINE
  5
CB1
330
1F
100
AcDbEntity
  8
Hewi
370
    13
100
AcDbPolyline
 90
        3
 70
     0
 43
0.0
 10
1492.578393174765
 20
1347.698764086193
 10
1492.576924168987
 20
1347.661999548273
 10
1492.575325941162
 20
1347.630214018885
  0
LINE
  5
CB2
330
1F
100
AcDbEntity
  8
Hewi
370
    13
100
AcDbLine
 10
1492.572325616723
 20
1347.588247216869
 30
0.0
 11
1492.569942251668
 21
1347.568071942842
 31
0.0
  0
LWPOLYLINE
  5
CB3
330
1F
100
AcDbEntity
  8
Hewi
370
    13
100
AcDbPolyline
 90
        3
 70
     0
 43
0.0
 10
1584.793810252665
 20
1384.794411772845
 10
1583.993289785504
 20
1384.311205636317
 10
1582.88654210323
 20
1383.690274427325
  0
LWPOLYLINE
  5
CB4
330
1F
100
AcDbEntity
  8
Hewi
370
    13
100
AcDbPolyline
 90
        8
 70
     0
 43
0.0
 10
1580.185974062952
 20
1382.183895812225
 10
1580.149621443443
 20
1382.165460632885
 10
1580.1131501884
 20
1382.1471999745
 10
1579.966067521588
 20
1382.075919398113
 10
1579.928994805832
 20
1382.058543633755
 10
1579.891800288935
 20
1382.041347030352
 10
1579.817044054641
 20
1382.007493814868
 10
1579.724469707629
 20
1381.967316422764
  0
LWPOLYLINE
  5
CB5
330
1F
100
AcDbEntity
  8
Hewi
370
    13
100
AcDbPolyline
 90
        3
 70
     0
 43
0.0
 10
1566.638235376204
 20
1412.476550832021
 10
1567.663353653553
 20
1412.91129034106
 10
1568.749324182675
 20
1413.167765375206
  0
LWPOLYLINE
  5
CB6
330
1F
100
AcDbEntity
  8
Hewi
370
    13
100
AcDbPolyline
 90
        3
 70
     0
 43
0.0
 10
1568.017443521039
 20
1413.418410096255
 10
1568.897507545887
 20
1414.05343139764
 10
1568.96881351651
 20
1414.103891258812
  0
LWPOLYLINE
  5
CB7
330
1F
100
AcDbEntity
  8
Hewi
370
    13
100
AcDbPolyline
 90
        3
 70
     0
 43
0.0
 10
1570.935155895
 20
1414.801562552188
 10
1569.886331700973
 20
1414.522187184125
 10
1568.96881351651
 20
1414.103891258812
  0
LINE
  5
CB8
330
1F
100
AcDbEntity
  8
Hewi
370
    13
100
AcDbLine
 10
1580.235022592557
 20
1382.207029674237
 30
0.0
 11
1580.258325825098
 21
1382.221286043757
 31
0.0
  0
LINE
  5
CB9
330
1F
100
AcDbEntity
  8
Hewi
370
    13
100
AcDbLine
 10
1580.258325825098
 20
1382.221286043757
 30
0.0
 11
1580.160792357897
 21
1382.168757038375
 31
0.0
  0
LINE
  5
CBA
330
1F
100
AcDbEntity
  8
Hewi
370
    13
100
AcDbLine
 10
1581.601062453968
 20
1383.072397737517
 30
0.0
 11
1580.258325825098
 21
1382.221286043757
 31
0.0
  0
LINE
  5
CBB
330
1F
100
AcDbEntity
  8
Hewi
370
    13
100
AcDbLine
 10
1580.235022592557
 20
1382.207029674237
 30
0.0
 11
1580.160792357897
 21
1382.168757038375
 31
0.0
  0
LWPOLYLINE
  5
CBC
330
1F
100
AcDbEntity
  8
Hewi
370
    13
100
AcDbPolyline
 90
        3
 70
     0
 43
0.0
 10
1580.160792357897
 20
1382.168757038375
 10
1580.123507959662
 20
1382.149888256444
 10
1580.185974062952
 20
1382.183895812225
  0
LWPOLYLINE
  5
CBD
330
1F
100
AcDbEntity
  8
Hewi
370
    13
100
AcDbPolyline
 90
        4
 70
     0
 43
0.0
 10
1585.827376984034
 20
1387.878309881708
 10
1584.515248274672
 20
1386.009380699692
 10
1583.195681431724
 20
1384.456843670464
 10
1581.601062453968
 20
1383.072397737517
  0
LWPOLYLINE
  5
CBE
330
1F
100
AcDbEntity
  8
Hewi
370
    13
100
AcDbPolyline
 90
        3
 70
     0
 43
0.0
 10
1568.017443521039
 20
1413.418410096255
 10
1569.116075903833
 20
1413.995562262424
 10
1570.702460930762
 20
1414.636347370282
  0
LWPOLYLINE
  5
CBF
330
1F
100
AcDbEntity
  8
Hewi
370
    13
100
AcDbPolyline
 90
        4
 70
     0
 43
0.0
 10
1588.44929098403
 20
1389.439348312838
 10
1588.97105171642
 20
1390.866664578558
 10
1589.348037265678
 20
1392.355563274391
 10
1589.499352381281
 20
1393.861523151991
  0
LINE
  5
CC0
330
1F
100
AcDbEntity
  8
Hewi
370
    13
100
AcDbLine
 10
1580.160792357897
 20
1382.168757038375
 30
0.0
 11
1580.185974062952
 21
1382.183895812225
 31
0.0
  0
LWPOLYLINE
  5
CC1
330
1F
100
AcDbEntity
  8
Hewi
370
    13
100
AcDbPolyline
 90
        6
 70
     0
 43
0.0
 10
1579.84383867218
 20
1382.03100041341
 10
1579.261116267305
 20
1381.720114846002
 10
1579.091199686118
 20
1381.6305635259
 10
1578.91253426668
 20
1381.533339900241
 10
1578.09547768293
 20
1381.063162159475
 10
1578.004271545165
 20
1381.008459007857
  0
LINE
  5
CC2
330
1F
100
AcDbEntity
  8
Hewi
370
    13
100
AcDbLine
 10
1580.209108697097
 20
1382.19138643482
 30
0.0
 11
1580.235022592557
 21
1382.207029674237
 31
0.0
  0
LINE
  5
CC3
330
1F
100
AcDbEntity
  8
Hewi
370
    13
100
AcDbLine
 10
1580.258325825098
 20
1382.221286043757
 30
0.0
 11
1580.185974062952
 21
1382.183895812225
 31
0.0
  0
LWPOLYLINE
  5
CC4
330
1F
100
AcDbEntity
  8
Hewi
370
    13
100
AcDbPolyline
 90
        5
 70
     0
 43
0.0
 10
1580.132884126108
 20
1382.152177650741
 10
1580.094610499766
 20
1382.132848876772
 10
1580.056228910308
 20
1382.113705101552
 10
1579.875495772212
 20
1382.023796977665
 10
1579.835777160544
 20
1382.005234659792
  0
LWPOLYLINE
  5
CC5
330
1F
100
AcDbEntity
  8
Hewi
370
    13
100
AcDbPolyline
 90
        3
 70
     0
 43
0.0
 10
1580.802416104381
 20
1382.565399782887
 10
1580.853693274675
 20
1382.580374458894
 10
1582.88654210323
 20
1383.690274427325
  0
LINE
  5
CC6
330
1F
100
AcDbEntity
  8
Hewi
370
    13
100
AcDbLine
 10
1482.508691143503
 20
1347.559938709419
 30
0.0
 11
1492.568007808342
 21
1347.560579363083
 31
0.0
  0
LWPOLYLINE
  5
CC7
330
1F
100
AcDbEntity
  8
Hewi
370
    13
100
AcDbPolyline
 90
       10
 70
     0
 43
0.0
 10
1581.601062453968
 20
1383.072397737517
 10
1580.187847471119
 20
1382.175258364967
 10
1580.108590565788
 20
1382.134615120724
 10
1580.068812859994
 20
1382.114581484701
 10
1580.028935570051
 20
1382.094741111961
 10
1579.868429823724
 20
1382.017329655619
 10
1579.828054159212
 20
1381.998468286021
 10
1579.787578812538
 20
1381.979804964239
 10
1579.706329184434
 20
1381.943075038248
 10
1579.559844489542
 20
1381.879487974562
  0
LINE
  5
CC8
330
1F
100
AcDbEntity
  8
Hewi
370
    13
100
AcDbLine
 10
1579.835777160544
 20
1382.005234659792
 30
0.0
 11
1579.901617532394
 21
1382.038997139528
 31
0.0
  0
LWPOLYLINE
  5
CC9
330
1F
100
AcDbEntity
  8
Hewi
370
    13
100
AcDbPolyline
 90
        4
 70
     0
 43
0.0
 10
1579.835777160544
 20
1382.005234659792
 10
1579.795954456644
 20
1381.98686659431
 10
1579.715996502029
 20
1381.95071578016
 10
1579.594609187739
 20
1381.898035130403
  0
LINE
  5
CCA
330
1F
100
AcDbEntity
  8
Hewi
370
    13
100
AcDbLine
 10
1142.063062783793
 20
1370.321022179656
 30
0.0
 11
1142.229136760988
 21
1369.324002911938
 31
0.0
  0
LINE
  5
CCB
330
1F
100
AcDbEntity
  8
Hewi
370
    13
100
AcDbLine
 10
1142.229136760988
 20
1369.324002911938
 30
0.0
 11
1142.775014915396
 21
1368.138119674841
 31
0.0
  0
LINE
  5
CCC
330
1F
100
AcDbEntity
  8
Hewi
370
    13
100
AcDbLine
 10
1413.702128994624
 20
1377.528006466937
 30
0.0
 11
1431.526543492811
 21
1377.677104489724
 31
0.0
  0
LINE
  5
CCD
330
1F
100
AcDbEntity
  8
Hewi
370
    13
100
AcDbLine
 10
1326.651735256665
 20
1381.55431898749
 30
0.0
 11
1370.151631661053
 21
1378.694303183309
 31
0.0
  0
LINE
  5
CCE
330
1F
100
AcDbEntity
  8
Hewi
370
    13
100
AcDbLine
 10
1481.763815835254
 20
1381.468352845571
 30
0.0
 11
1495.937865533104
 21
1383.799570852928
 31
0.0
  0
LINE
  5
CCF
330
1F
100
AcDbEntity
  8
Hewi
370
    13
100
AcDbLine
 10
1497.269469395053
 20
1384.055741449485
 30
0.0
 11
1511.906811225247
 21
1387.355087282525
 31
0.0
  0
LWPOLYLINE
  5
CD0
330
1F
100
AcDbEntity
  8
Hewi
370
    13
100
AcDbPolyline
 90
        3
 70
     0
 43
0.0
 10
1141.5863881722
 20
1373.907958920275
 10
1141.576125880817
 20
1373.244330711366
 10
1141.618178873229
 20
1372.99186705386
  0
LINE
  5
CD1
330
1F
100
AcDbEntity
  8
Hewi
370
    13
100
AcDbLine
 10
1275.264308299177
 20
1352.931703262446
 30
0.0
 11
1275.969372656661
 21
1352.731757999306
 31
0.0
  0
LINE
  5
CD2
330
1F
100
AcDbEntity
  8
Hewi
370
    13
100
AcDbLine
 10
1512.403191138325
 20
1387.478969830122
 30
0.0
 11
1523.231829732074
 21
1390.608435207323
 31
0.0
  0
LINE
  5
CD3
330
1F
100
AcDbEntity
  8
Hewi
370
    13
100
AcDbLine
 10
1275.969372656661
 20
1352.731757999306
 30
0.0
 11
1275.155444986642
 21
1352.943951229814
 31
0.0
  0
LINE
  5
CD4
330
1F
100
AcDbEntity
  8
Hewi
370
    13
100
AcDbLine
 10
1253.166770338922
 20
1355.072555671562
 30
0.0
 11
1278.244563838039
 21
1352.200724548477
 31
0.0
  0
LINE
  5
CD5
330
1F
100
AcDbEntity
  8
Hewi
370
    13
100
AcDbLine
 10
1439.189090148018
 20
1377.893172804563
 30
0.0
 11
1459.861304349421
 21
1379.108970746135
 31
0.0
  0
LINE
  5
CD6
330
1F
100
AcDbEntity
  8
Hewi
370
    13
100
AcDbLine
 10
1143.229131616051
 20
1367.151581967396
 30
0.0
 11
1143.92089504484
 21
1365.648772874168
 31
0.0
  0
LINE
  5
CD7
330
1F
100
AcDbEntity
  8
Hewi
370
    13
100
AcDbLine
 10
1467.678125000605
 20
1379.791156870714
 30
0.0
 11
1477.974553060051
 21
1380.960280420768
 31
0.0
  0
LINE
  5
CD8
330
1F
100
AcDbEntity
  8
Hewi
370
    13
100
AcDbLine
 10
1275.337845640312
 20
1352.923429734421
 30
0.0
 11
1275.79120966134
 21
1352.801503512672
 31
0.0
  0
LINE
  5
CD9
330
1F
100
AcDbEntity
  8
Hewi
370
    13
100
AcDbLine
 10
1296.11349724112
 20
1347.55911424592
 30
0.0
 11
1331.545992418636
 21
1347.558506457606
 31
0.0
  0
LINE
  5
CDA
330
1F
100
AcDbEntity
  8
Hewi
370
    13
100
AcDbLine
 10
1374.332321213453
 20
1378.563065472899
 30
0.0
 11
1404.278449546496
 21
1377.623014491155
 31
0.0
  0
LINE
  5
CDB
330
1F
100
AcDbEntity
  8
Hewi
370
    13
100
AcDbLine
 10
1580.209108697097
 20
1382.19138643482
 30
0.0
 11
1580.132884126108
 21
1382.152177650741
 31
0.0
  0
LINE
  5
CDC
330
1F
100
AcDbEntity
  8
Hewi
370
    13
100
AcDbLine
 10
1580.235022592557
 20
1382.207029674237
 30
0.0
 11
1580.132884126108
 21
1382.152177650741
 31
0.0
  0
LINE
  5
CDD
330
1F
100
AcDbEntity
  8
Hewi
370
    13
100
AcDbLine
 10
1580.18951034195
 20
1382.179197223148
 30
0.0
 11
1580.209108697097
 21
1382.19138643482
 31
0.0
  0
LWPOLYLINE
  5
CDE
330
1F
100
AcDbEntity
  8
Hewi
370
    13
100
AcDbPolyline
 90
       22
 70
     0
 43
0.0
 10
1193.781141114466
 20
1017.411667207334
 10
1196.463157554846
 20
1017.180715342245
 10
1196.86999578101
 20
1017.262817946797
 10
1197.677376255225
 20
1017.541724664444
 10
1198.307023831513
 20
1018.148160023495
 10
1198.341860781359
 20
1018.208169777442
 10
1198.624873762549
 20
1018.999956041062
 10
1198.64168743057
 20
1019.078287986511
 10
1198.667376636634
 20
1019.267765046925
 10
1198.70044841746
 20
1019.557375504275
 10
1198.738980761357
 20
1019.930288251472
 10
1198.780734308559
 20
1020.36483095513
 10
1198.823282494668
 20
1020.835749572811
 10
1198.864152573764
 20
1021.315676026175
 10
1198.90096932541
 20
1021.776718734215
 10
1198.931593093819
 20
1022.192083570561
 10
1198.954244136888
 20
1022.537631040715
 10
1198.967606058325
 20
1022.793279181725
 10
1198.970902311825
 20
1022.944170652879
 10
1198.81405130285
 20
1023.927501030708
 10
1198.300529179324
 20
1024.64471898249
 10
1198.288055880475
 20
1024.651726692646
  0
LINE
  5
CDF
330
1F
100
AcDbEntity
  8
Hewi
370
    13
100
AcDbLine
 10
1579.673020834437
 20
1381.767824476364
 30
0.0
 11
1580.859871490655
 21
1382.461031575003
 31
0.0
  0
LINE
  5
CE0
330
1F
100
AcDbEntity
  8
Hewi
370
    13
100
AcDbLine
 10
1503.668183613899
 20
1351.297315199875
 30
0.0
 11
1503.450545621839
 21
1350.564024848179
 31
0.0
  0
LINE
  5
CE1
330
1F
100
AcDbEntity
  8
Hewi
370
    13
100
AcDbLine
 10
1580.648359840717
 20
1382.46760156441
 30
0.0
 11
1581.072024123863
 21
1382.594310396205
 31
0.0
  0
LINE
  5
CE2
330
1F
100
AcDbEntity
  8
Hewi
370
    13
100
AcDbLine
 10
1579.678690112739
 20
1381.771135746438
 30
0.0
 11
1579.679262895219
 21
1381.77136912256
 31
0.0
  0
LINE
  5
CE3
330
1F
100
AcDbEntity
  8
Hewi
370
    13
100
AcDbLine
 10
1533.293842590958
 20
1358.632655593402
 30
0.0
 11
1537.984258336977
 21
1361.208896758421
 31
0.0
  0
LWPOLYLINE
  5
CE4
330
1F
100
AcDbEntity
  8
Hewi
370
    13
100
AcDbPolyline
 90
        3
 70
     0
 43
0.0
 10
1579.767239476845
 20
1381.987654158487
 10
1579.829325600324
 20
1382.014598990565
 10
1579.737476661212
 20
1381.973737928877
  0
LINE
  5
CE5
330
1F
100
AcDbEntity
  8
Hewi
370
    13
100
AcDbLine
 10
1579.729623787833
 20
1381.970066152951
 30
0.0
 11
1579.884016105929
 21
1382.042255524255
 31
0.0
  0
LINE
  5
CE6
330
1F
100
AcDbEntity
  8
Hewi
370
    13
100
AcDbLine
 10
1579.634931962106
 20
1381.912082452638
 30
0.0
 11
1579.920590872819
 21
1381.952624044678
 31
0.0
  0
LINE
  5
CE7
330
1F
100
AcDbEntity
  8
Hewi
370
    13
100
AcDbLine
 10
1580.232116784877
 20
1382.203361463
 30
0.0
 11
1580.553005445205
 21
1382.294758463179
 31
0.0
  0
LINE
  5
CE8
330
1F
100
AcDbEntity
  8
Hewi
370
    13
100
AcDbLine
 10
1579.674614270625
 20
1381.770985257259
 30
0.0
 11
1579.687227841957
 21
1381.776122402821
 31
0.0
  0
LINE
  5
CE9
330
1F
100
AcDbEntity
  8
Hewi
370
    13
100
AcDbLine
 10
1584.153656663315
 20
1384.32841616297
 30
0.0
 11
1583.85878583787
 21
1384.220686126478
 31
0.0
  0
LINE
  5
CEA
330
1F
100
AcDbEntity
  8
Hewi
370
    13
100
AcDbLine
 10
1518.235233344915
 20
1351.632349341113
 30
0.0
 11
1512.711351123902
 21
1349.480976978481
 31
0.0
  0
LWPOLYLINE
  5
CEB
330
1F
100
AcDbEntity
  8
Hewi
370
    13
100
AcDbPolyline
 90
        3
 70
     0
 43
0.0
 10
1492.564129419904
 20
1347.560455654592
 10
1492.564129419904
 20
1347.560455654592
 10
1492.565781000737
 20
1347.556909888684
  0
LINE
  5
CEC
330
1F
100
AcDbEntity
  8
Hewi
370
    13
100
AcDbLine
 10
1582.88654210323
 20
1383.690274427325
 30
0.0
 11
1581.214235418867
 21
1382.826831589524
 31
0.0
  0
LINE
  5
CED
330
1F
100
AcDbEntity
  8
Hewi
370
    13
100
AcDbLine
 10
1581.072024123863
 20
1382.594310396205
 30
0.0
 11
1580.752087132663
 21
1382.533449877652
 31
0.0
  0
LINE
  5
CEE
330
1F
100
AcDbEntity
  8
Hewi
370
    13
100
AcDbLine
 10
1579.920590872819
 20
1381.952624044678
 30
0.0
 11
1580.551326373694
 21
1382.294280226236
 31
0.0
  0
LINE
  5
CEF
330
1F
100
AcDbEntity
  8
Hewi
370
    13
100
AcDbLine
 10
1579.660293873704
 20
1381.762637684263
 30
0.0
 11
1579.673020834437
 21
1381.767824476364
 31
0.0
  0
LINE
  5
CF0
330
1F
100
AcDbEntity
  8
Hewi
370
    13
100
AcDbLine
 10
1580.553005445205
 20
1382.294758463179
 30
0.0
 11
1580.303062522993
 21
1382.24839936411
 31
0.0
  0
LINE
  5
CF1
330
1F
100
AcDbEntity
  8
Hewi
370
    13
100
AcDbLine
 10
1579.173260986124
 20
1381.673812380176
 30
0.0
 11
1579.920590872819
 21
1381.952624044678
 31
0.0
  0
LINE
  5
CF2
330
1F
100
AcDbEntity
  8
Hewi
370
    13
100
AcDbLine
 10
1538.488564658116
 20
1361.397840727437
 30
0.0
 11
1533.293842590958
 21
1358.632655593402
 31
0.0
  0
LINE
  5
CF3
330
1F
100
AcDbEntity
  8
Hewi
370
    13
100
AcDbLine
 10
1579.666007871049
 20
1381.765968457825
 30
0.0
 11
1579.678690112739
 21
1381.771135746438
 31
0.0
  0
ENDSEC
  0
SECTION
  2
OBJECTS
  0
DICTIONARY
  5
C
330
0
100
AcDbDictionary
281
     1
  3
ACAD_CIP_PREVIOUS_PRODUCT_INFO
350
119
  3
ACAD_COLOR
350
114
  3
ACAD_DETAILVIEWSTYLE
350
10E
  3
ACAD_GROUP
350
D
  3
ACAD_IMAGE_DICT
350
6E
  3
ACAD_LAYOUT
350
1A
  3
ACAD_MATERIAL
350
43
  3
ACAD_MLEADERSTYLE
350
6B
  3
ACAD_MLINESTYLE
350
17
  3
ACAD_PLOTSETTINGS
350
19
  3
ACAD_PLOTSTYLENAME
350
E
  3
ACAD_SCALELIST
350
47
  3
ACAD_SECTIONVIEWSTYLE
350
10F
  3
ACAD_TABLESTYLE
350
69
  3
ACAD_VISUALSTYLE
350
2A
  3
ACDB_RECOMPOSE_DATA
350
D33
  3
AcDbVariableDictionary
350
107
  3
AcDsDecomposeData
350
D39
  0
SUN
  5
6D
330
29
100
AcDbSun
 90
        1
290
     1
 63
     7
421
 16777215
 40
1.0
291
     1
 91
  2455826
 92
 54000000
292
     0
 70
     0
 71
   256
280
     1
1001
ACAD
1000
AcDbSavedByObjectVersion
1070
     0
1000
AcDbSavedByObjectVersion
1070
     0
1000
AcDbSavedByObjectVersion
1070
     0
1000
AcDbSavedByObjectVersion
1070
     0
1000
AcDbSavedByObjectVersion
1070
     0
1000
AcDbSavedByObjectVersion
1070
     0
  0
DICTIONARY
  5
490
330
2
100
AcDbDictionary
280
     1
281
     1
  3
ACAD_LAYERSTATES
360
491
  0
DICTIONARY
  5
48E
330
48D
100
AcDbDictionary
280
     1
281
     1
  0
DICTIONARY
  5
6E5
330
1F
100
AcDbDictionary
280
     1
281
     1
  3
ACAD_SORTENTS
360
6E6
  0
XRECORD
  5
119
102
{ACAD_REACTORS
330
C
102
}
330
C
100
AcDbXrecord
280
     1
300
ACDLT
300
2021
300
ACDLT_F_S
  0
DICTIONARY
  5
114
102
{ACAD_REACTORS
330
C
102
}
330
C
100
AcDbDictionary
281
     1
  0
DICTIONARY
  5
10E
102
{ACAD_REACTORS
330
C
102
}
330
C
100
AcDbDictionary
281
     1
  3
Metric50
350
116
  0
DICTIONARY
  5
D
102
{ACAD_REACTORS
330
C
102
}
330
C
100
AcDbDictionary
281
     1
  0
DICTIONARY
  5
6E
102
{ACAD_REACTORS
330
C
102
}
330
C
100
AcDbDictionary
281
     1
  0
DICTIONARY
  5
1A
102
{ACAD_REACTORS
330
C
102
}
330
C
100
AcDbDictionary
281
     1
  3
Layout1
350
1E
  3
Layout2
350
26
  3
Model
350
22
  0
DICTIONARY
  5
43
102
{ACAD_REACTORS
330
C
102
}
330
C
100
AcDbDictionary
281
     1
  3
ByBlock
350
45
  3
ByLayer
350
44
  3
Global
350
46
  0
DICTIONARY
  5
6B
102
{ACAD_REACTORS
330
C
102
}
330
C
100
AcDbDictionary
281
     1
  3
Standard
350
6C
  0
DICTIONARY
  5
17
102
{ACAD_REACTORS
330
C
102
}
330
C
100
AcDbDictionary
281
     1
  3
Standard
350
18
  0
DICTIONARY
  5
19
102
{ACAD_REACTORS
330
C
102
}
330
C
100
AcDbDictionary
281
     1
  0
ACDBDICTIONARYWDFLT
  5
E
102
{ACAD_REACTORS
330
C
102
}
330
C
100
AcDbDictionary
281
     1
  3
Normal
350
F
100
AcDbDictionaryWithDefault
340
F
  0
DICTIONARY
  5
47
102
{ACAD_REACTORS
330
C
102
}
330
C
100
AcDbDictionary
281
     1
  3
A0
350
48
  3
A1
350
49
  3
A2
350
4A
  3
A3
350
4B
  3
A4
350
4C
  3
A5
350
4D
  3
A6
350
4E
  3
A7
350
4F
  3
A8
350
50
  3
A9
350
51
  3
B0
350
52
  3
B1
350
53
  3
B2
350
54
  3
B3
350
55
  3
B4
350
56
  3
B5
350
57
  3
B6
350
58
  3
B7
350
59
  3
B8
350
5A
  3
B9
350
5B
  3
C0
350
5C
  3
C1
350
5D
  3
C2
350
5E
  3
C3
350
5F
  3
C4
350
60
  3
C5
350
61
  3
C6
350
62
  3
C7
350
63
  3
C8
350
64
  3
C9
350
65
  3
D0
350
66
  3
D1
350
67
  3
D2
350
68
  0
DICTIONARY
  5
10F
102
{ACAD_REACTORS
330
C
102
}
330
C
100
AcDbDictionary
281
     1
  3
Metric50
350
115
  0
DICTIONARY
  5
69
102
{ACAD_REACTORS
330
C
102
}
330
C
100
AcDbDictionary
281
     1
  3
Standard
350
6A
  0
DICTIONARY
  5
2A
102
{ACAD_REACTORS
330
C
102
}
330
C
100
AcDbDictionary
281
     1
  3
2dWireframe
350
2F
  3
Basic
350
32
  3
Brighten
350
36
  3
ColorChange
350
3A
  3
Conceptual
350
34
  3
Dim
350
35
  3
EdgeColorOff
350
3D
  3
Facepattern
350
39
  3
Flat
350
2B
  3
FlatWithEdges
350
2C
  3
Gouraud
350
2D
  3
GouraudWithEdges
350
2E
  3
Hidden
350
31
  3
JitterOff
350
3B
  3
Linepattern
350
38
  3
OverhangOff
350
3C
  3
Realistic
350
33
  3
Shaded
350
42
  3
Shaded with edges
350
41
  3
Shades of Gray
350
3E
  3
Sketchy
350
3F
  3
Thicken
350
37
  3
Wireframe
350
30
  3
X-Ray
350
40
  0
XRECORD
  5
D33
102
{ACAD_REACTORS
330
C
102
}
330
C
100
AcDbXrecord
280
     1
 90
        1
330
6A
  0
DICTIONARY
  5
107
102
{ACAD_REACTORS
330
C
102
}
330
C
100
AcDbDictionary
281
     1
  3
CANNOSCALE
350
108
  3
CENTEREXE
350
110
  3
CENTERLTYPEFILE
350
111
  3
CMLEADERSTYLE
350
10D
  3
CTABLESTYLE
350
10C
  3
CVIEWDETAILSTYLE
350
485
  3
CVIEWSECTIONSTYLE
350
486
  0
DICTIONARY
  5
D39
102
{ACAD_REACTORS
330
C
102
}
330
C
100
AcDbDictionary
281
     1
  3
AcDsRecords
350
D3B
  3
AcDsSchemas
350
D3A
1001
ACAD
1070
     2
  0
DICTIONARY
  5
491
102
{ACAD_REACTORS
330
490
102
}
330
490
100
AcDbDictionary
281
     1
  0
SORTENTSTABLE
  5
6E6
102
{ACAD_REACTORS
330
6E5
102
}
330
6E5
100
AcDbSortentsTable
330
1F
  0
ACDBDETAILVIEWSTYLE
  5
116
102
{ACAD_XDICTIONARY
360
D3E
102
}
102
{ACAD_REACTORS
330
10E
102
}
330
10E
100
AcDbModelDocViewStyle
 70
     0
  3
Metric50
290
     0
100
AcDbDetailViewStyle
 70
     0
 71
     0
 90
        3
 71
     1
340
11
 62
   256
 40
5.0
340
0
 62
   256
 40
5.0
300

 40
0.0
280
     1
 71
     2
340
16
 90
       25
 62
   256
 71
     3
340
11
 62
   256
 40
5.0
 90
        0
 40
15.0
 90
        1
300
%<\AcVar ViewDetailId>% (%<\AcVar ViewScale \f "%sn">%)
 71
     4
340
16
 90
       25
 62
   256
340
16
 90
       25
 62
   256
280
     0
  0
LAYOUT
  5
1E
102
{ACAD_REACTORS
330
1A
102
}
330
1A
100
AcDbPlotSettings
  1

  2
none_device
  4

  6

 40
0.0
 41
0.0
 42
0.0
 43
0.0
 44
0.0
 45
0.0
 46
0.0
 47
0.0
 48
0.0
 49
0.0
140
0.0
141
0.0
142
1.0
143
1.0
 70
   688
 72
     1
 73
     0
 74
     5
  7

 75
    16
147
1.0
 76
     0
 77
     2
 78
   300
148
0.0
149
0.0
100
AcDbLayout
  1
Layout1
 70
     1
 71
     1
 10
0.0
 20
0.0
 11
420.0
 21
297.0
 12
0.0
 22
0.0
 32
0.0
 14
1.000000000000000E+20
 24
1.000000000000000E+20
 34
1.000000000000000E+20
 15
-1.000000000000000E+20
 25
-1.000000000000000E+20
 35
-1.000000000000000E+20
146
0.0
 13
0.0
 23
0.0
 33
0.0
 16
1.0
 26
0.0
 36
0.0
 17
0.0
 27
1.0
 37
0.0
 76
     0
330
1B
  0
LAYOUT
  5
26
102
{ACAD_REACTORS
330
1A
102
}
330
1A
100
AcDbPlotSettings
  1

  2
none_device
  4

  6

 40
0.0
 41
0.0
 42
0.0
 43
0.0
 44
0.0
 45
0.0
 46
0.0
 47
0.0
 48
0.0
 49
0.0
140
0.0
141
0.0
142
1.0
143
1.0
 70
   688
 72
     1
 73
     0
 74
     5
  7

 75
    16
147
1.0
 76
     0
 77
     2
 78
   300
148
0.0
149
0.0
100
AcDbLayout
  1
Layout2
 70
     1
 71
     2
 10
0.0
 20
0.0
 11
0.0
 21
0.0
 12
0.0
 22
0.0
 32
0.0
 14
0.0
 24
0.0
 34
0.0
 15
0.0
 25
0.0
 35
0.0
146
0.0
 13
0.0
 23
0.0
 33
0.0
 16
1.0
 26
0.0
 36
0.0
 17
0.0
 27
1.0
 37
0.0
 76
     0
330
23
  0
LAYOUT
  5
22
102
{ACAD_REACTORS
330
1A
102
}
330
1A
100
AcDbPlotSettings
  1

  2
none_device
  4
Letter_(8.50_x_11.00_Inches)
  6

 40
6.349999999999997
 41
6.349999999999997
 42
6.350005079999997
 43
6.350005079999997
 44
215.9
 45
279.4
 46
0.0
 47
0.0
 48
0.0
 49
0.0
140
0.0
141
0.0
142
1.0
143
1.0
 70
  1712
 72
     1
 73
     0
 74
     0
  7

 75
     0
147
1.0
 76
     0
 77
     2
 78
   300
148
0.0
149
0.0
100
AcDbLayout
  1
Model
 70
     1
 71
     0
 10
0.0
 20
0.0
 11
420.0
 21
297.0
 12
0.0
 22
0.0
 32
0.0
 14
-45.25316535320677
 24
93.29113539721936
 34
0.0
 15
0.1687797052525326
 25
133.2911345722814
 35
0.0
146
0.0
 13
0.0
 23
0.0
 33
0.0
 16
1.0
 26
0.0
 36
0.0
 17
0.0
 27
1.0
 37
0.0
 76
     0
330
1F
331
29
  0
MATERIAL
  5
45
102
{ACAD_REACTORS
330
43
102
}
330
43
100
AcDbMaterial
  1
ByBlock
  0
MATERIAL
  5
44
102
{ACAD_REACTORS
330
43
102
}
330
43
100
AcDbMaterial
  1
ByLayer
  0
MATERIAL
  5
46
102
{ACAD_REACTORS
330
43
102
}
330
43
100
AcDbMaterial
  1
Global
  0
MLEADERSTYLE
  5
6C
102
{ACAD_REACTORS
330
6B
102
}
330
6B
100
AcDbMLeaderStyle
179
     2
170
     2
171
     1
172
     0
 90
        2
 40
0.0
 41
0.0
173
     1
 91
-1056964608
340
14
 92
       -2
290
     1
 42
2.0
291
     1
 43
8.0
  3
Standard
 44
4.0
300

342
11
174
     1
178
     6
175
     1
176
     0
 93
-1056964608
 45
4.0
292
     0
297
     0
 46
4.0
 94
-1056964608
 47
1.0
 49
1.0
140
1.0
293
     1
141
0.0
294
     1
177
     0
142
1.0
295
     0
296
     0
143
3.75
271
     0
272
     9
273
     9
298
     0
  0
MLINESTYLE
  5
18
102
{ACAD_REACTORS
330
17
102
}
330
17
100
AcDbMlineStyle
  2
STANDARD
 70
     0
  3

 62
   256
 51
90.0
 52
90.0
 71
     2
 49
0.5
 62
   256
  6
BYLAYER
 49
-0.5
 62
   256
  6
BYLAYER
  0
ACDBPLACEHOLDER
  5
F
102
{ACAD_REACTORS
330
E
102
}
330
E
  0
SCALE
  5
48
102
{ACAD_REACTORS
330
47
102
}
330
47
100
AcDbScale
 70
     0
300
1:1
140
1.0
141
1.0
290
     1
  0
SCALE
  5
49
102
{ACAD_REACTORS
330
47
102
}
330
47
100
AcDbScale
 70
     0
300
1:2
140
1.0
141
2.0
290
     0
  0
SCALE
  5
4A
102
{ACAD_REACTORS
330
47
102
}
330
47
100
AcDbScale
 70
     0
300
1:4
140
1.0
141
4.0
290
     0
  0
SCALE
  5
4B
102
{ACAD_REACTORS
330
47
102
}
330
47
100
AcDbScale
 70
     0
300
1:5
140
1.0
141
5.0
290
     0
  0
SCALE
  5
4C
102
{ACAD_REACTORS
330
47
102
}
330
47
100
AcDbScale
 70
     0
300
1:8
140
1.0
141
8.0
290
     0
  0
SCALE
  5
4D
102
{ACAD_REACTORS
330
47
102
}
330
47
100
AcDbScale
 70
     0
300
1:10
140
1.0
141
10.0
290
     0
  0
SCALE
  5
4E
102
{ACAD_REACTORS
330
47
102
}
330
47
100
AcDbScale
 70
     0
300
1:16
140
1.0
141
16.0
290
     0
  0
SCALE
  5
4F
102
{ACAD_REACTORS
330
47
102
}
330
47
100
AcDbScale
 70
     0
300
1:20
140
1.0
141
20.0
290
     0
  0
SCALE
  5
50
102
{ACAD_REACTORS
330
47
102
}
330
47
100
AcDbScale
 70
     0
300
1:30
140
1.0
141
30.0
290
     0
  0
SCALE
  5
51
102
{ACAD_REACTORS
330
47
102
}
330
47
100
AcDbScale
 70
     0
300
1:40
140
1.0
141
40.0
290
     0
  0
SCALE
  5
52
102
{ACAD_REACTORS
330
47
102
}
330
47
100
AcDbScale
 70
     0
300
1:50
140
1.0
141
50.0
290
     0
  0
SCALE
  5
53
102
{ACAD_REACTORS
330
47
102
}
330
47
100
AcDbScale
 70
     0
300
1:100
140
1.0
141
100.0
290
     0
  0
SCALE
  5
54
102
{ACAD_REACTORS
330
47
102
}
330
47
100
AcDbScale
 70
     0
300
2:1
140
2.0
141
1.0
290
     0
  0
SCALE
  5
55
102
{ACAD_REACTORS
330
47
102
}
330
47
100
AcDbScale
 70
     0
300
4:1
140
4.0
141
1.0
290
     0
  0
SCALE
  5
56
102
{ACAD_REACTORS
330
47
102
}
330
47
100
AcDbScale
 70
     0
300
8:1
140
8.0
141
1.0
290
     0
  0
SCALE
  5
57
102
{ACAD_REACTORS
330
47
102
}
330
47
100
AcDbScale
 70
     0
300
10:1
140
10.0
141
1.0
290
     0
  0
SCALE
  5
58
102
{ACAD_REACTORS
330
47
102
}
330
47
100
AcDbScale
 70
     0
300
100:1
140
100.0
141
1.0
290
     0
  0
SCALE
  5
59
102
{ACAD_REACTORS
330
47
102
}
330
47
100
AcDbScale
 70
     0
300
1/128" = 1'-0"
140
0.0078125
141
12.0
290
     0
  0
SCALE
  5
5A
102
{ACAD_REACTORS
330
47
102
}
330
47
100
AcDbScale
 70
     0
300
1/64" = 1'-0"
140
0.015625
141
12.0
290
     0
  0
SCALE
  5
5B
102
{ACAD_REACTORS
330
47
102
}
330
47
100
AcDbScale
 70
     0
300
1/32" = 1'-0"
140
0.03125
141
12.0
290
     0
  0
SCALE
  5
5C
102
{ACAD_REACTORS
330
47
102
}
330
47
100
AcDbScale
 70
     0
300
1/16" = 1'-0"
140
0.0625
141
12.0
290
     0
  0
SCALE
  5
5D
102
{ACAD_REACTORS
330
47
102
}
330
47
100
AcDbScale
 70
     0
300
3/32" = 1'-0"
140
0.09375
141
12.0
290
     0
  0
SCALE
  5
5E
102
{ACAD_REACTORS
330
47
102
}
330
47
100
AcDbScale
 70
     0
300
1/8" = 1'-0"
140
0.125
141
12.0
290
     0
  0
SCALE
  5
5F
102
{ACAD_REACTORS
330
47
102
}
330
47
100
AcDbScale
 70
     0
300
3/16" = 1'-0"
140
0.1875
141
12.0
290
     0
  0
SCALE
  5
60
102
{ACAD_REACTORS
330
47
102
}
330
47
100
AcDbScale
 70
     0
300
1/4" = 1'-0"
140
0.25
141
12.0
290
     0
  0
SCALE
  5
61
102
{ACAD_REACTORS
330
47
102
}
330
47
100
AcDbScale
 70
     0
300
3/8" = 1'-0"
140
0.375
141
12.0
290
     0
  0
SCALE
  5
62
102
{ACAD_REACTORS
330
47
102
}
330
47
100
AcDbScale
 70
     0
300
1/2" = 1'-0"
140
0.5
141
12.0
290
     0
  0
SCALE
  5
63
102
{ACAD_REACTORS
330
47
102
}
330
47
100
AcDbScale
 70
     0
300
3/4" = 1'-0"
140
0.75
141
12.0
290
     0
  0
SCALE
  5
64
102
{ACAD_REACTORS
330
47
102
}
330
47
100
AcDbScale
 70
     0
300
1" = 1'-0"
140
1.0
141
12.0
290
     0
  0
SCALE
  5
65
102
{ACAD_REACTORS
330
47
102
}
330
47
100
AcDbScale
 70
     0
300
1-1/2" = 1'-0"
140
1.5
141
12.0
290
     0
  0
SCALE
  5
66
102
{ACAD_REACTORS
330
47
102
}
330
47
100
AcDbScale
 70
     0
300
3" = 1'-0"
140
3.0
141
12.0
290
     0
  0
SCALE
  5
67
102
{ACAD_REACTORS
330
47
102
}
330
47
100
AcDbScale
 70
     0
300
6" = 1'-0"
140
6.0
141
12.0
290
     0
  0
SCALE
  5
68
102
{ACAD_REACTORS
330
47
102
}
330
47
100
AcDbScale
 70
     0
300
1'-0" = 1'-0"
140
12.0
141
12.0
290
     0
  0
ACDBSECTIONVIEWSTYLE
  5
115
102
{ACAD_XDICTIONARY
360
D3C
102
}
102
{ACAD_REACTORS
330
10F
102
}
330
10F
100
AcDbModelDocViewStyle
 70
     0
  3
Metric50
290
     0
100
AcDbSectionViewStyle
 70
     0
 71
     0
 90
      102
 71
     1
340
11
 62
   256
 40
5.0
340
0
340
0
 62
   256
 40
5.0
300
I, O, Q, S, X, Z
 40
10.0
 90
        0
 40
2.5
 90
        0
 71
     2
340
16
 90
       25
 62
   256
340
16
 90
       50
 62
   256
 40
5.0
 40
2.5
 40
5.0
 71
     3
340
11
 62
   256
 40
5.0
 90
        0
 40
15.0
 90
        1
300
%<\AcVar ViewSectionStartId>%-%<\AcVar ViewSectionEndId>% (%<\AcVar ViewScale \f "%sn">%)
 71
     4
 62
   256
 62
   257
300
ANSI31
 40
1.0
 90
        0
290
     0
290
     0
 90
        6
 40
0.0
 40
1.570796326794896
 40
0.2617993877991494
 40
1.308996938995747
 40
-0.2617993877991494
 40
1.832595714594044
  0
TABLESTYLE
  5
6A
102
{ACAD_XDICTIONARY
360
109
102
}
102
{ACAD_REACTORS
330
69
102
}
330
69
100
AcDbTableStyle
280
     0
  3
Standard
 70
     0
 71
     0
 40
1.5
 41
1.5
280
     0
281
     0
  7
Standard
140
4.5
170
     2
 62
     0
 63
     7
283
     0
 90
        4
 91
        0
  1

274
    -2
284
     1
 64
     0
275
    -2
285
     1
 65
     0
276
    -2
286
     1
 66
     0
277
    -2
287
     1
 67
     0
278
    -2
288
     1
 68
     0
279
    -2
289
     1
 69
     0
  7
Standard
140
6.0
170
     5
 62
     0
 63
     7
283
     0
 90
        4
 91
        0
  1

274
    -2
284
     1
 64
     0
275
    -2
285
     1
 65
     0
276
    -2
286
     1
 66
     0
277
    -2
287
     1
 67
     0
278
    -2
288
     1
 68
     0
279
    -2
289
     1
 69
     0
  7
Standard
140
4.5
170
     5
 62
     0
 63
     7
283
     0
 90
        4
 91
        0
  1

274
    -2
284
     1
 64
     0
275
    -2
285
     1
 65
     0
276
    -2
286
     1
 66
     0
277
    -2
287
     1
 67
     0
278
    -2
288
     1
 68
     0
279
    -2
289
     1
 69
     0
  0
VISUALSTYLE
  5
2F
102
{ACAD_REACTORS
330
2A
102
}
330
2A
100
AcDbVisualStyle
  2
2dWireframe
 70
     4
177
     3
291
     0
 70
    58
 90
        0
176
     1
 90
        2
176
     1
 90
        0
176
     1
 90
        0
176
     1
 40
0.6
176
     1
 40
30.0
176
     1
 62
     7
420
 16777215
176
     1
 90
        1
176
     1
 90
        4
176
     1
 62
     7
176
     1
 62
   257
176
     1
 90
        1
176
     1
 90
        1
176
     1
 40
1.0
176
     1
 90
        0
176
     1
 62
   257
176
     1
 40
1.0
176
     1
 90
        1
176
     1
 90
        6
176
     1
 90
        2
176
     1
 62
     7
176
     1
 90
        5
176
     1
 90
        0
176
     1
 90
        0
176
     1
290
     0
176
     1
 90
        1
176
     1
 40
0.0
176
     1
 90
        0
176
     1
290
     1
176
     1
290
     1
176
     1
290
     0
176
     1
290
     0
176
     1
290
     0
176
     1
290
     0
176
     1
290
     0
176
     1
290
     0
176
     1
290
     0
176
     1
 90
       50
176
     1
 40
0.0
176
     1
 40
1.0
176
     1
 90
        0
176
     1
 62
    18
176
     1
 90
       50
176
     1
 90
        3
176
     1
 62
     5
420
      255
176
     1
290
     0
176
     1
 90
       50
176
     1
 90
       50
176
     1
 90
       50
176
     1
290
     0
176
     1
 90
       50
176
     1
 62
   256
176
     0
 40
1.0
176
     0
 90
        2
176
     1
  1
strokes_ogs.tif
176
     1
290
     0
176
     1
 40
1.0
176
     1
 40
1.0
176
     1
1001
ACAD
1000
AcDbSavedByObjectVersion
1070
     0
  0
VISUALSTYLE
  5
32
102
{ACAD_REACTORS
330
2A
102
}
330
2A
100
AcDbVisualStyle
  2
Basic
 70
     7
177
     3
291
     1
 70
    58
 90
        1
176
     1
 90
        0
176
     1
 90
        1
176
     1
 90
        0
176
     1
 40
0.6
176
     1
 40
30.0
176
     1
 62
     7
420
 16777215
176
     1
 90
        0
176
     1
 90
        4
176
     1
 62
     7
176
     1
 62
   257
176
     1
 90
        1
176
     1
 90
        1
176
     1
 40
1.0
176
     1
 90
        8
176
     1
 62
     7
176
     1
 40
1.0
176
     1
 90
        1
176
     1
 90
        6
176
     1
 90
        2
176
     1
 62
     7
176
     1
 90
        5
176
     1
 90
        0
176
     1
 90
        0
176
     1
290
     0
176
     1
 90
        1
176
     1
 40
0.0
176
     1
 90
        0
176
     1
290
     0
176
     1
290
     1
176
     1
290
     1
176
     1
290
     0
176
     1
290
     0
176
     1
290
     0
176
     1
290
     0
176
     1
290
     0
176
     1
290
     0
176
     1
 90
       50
176
     1
 40
0.0
176
     1
 40
1.0
176
     1
 90
        0
176
     1
 62
    18
176
     1
 90
       50
176
     1
 90
        3
176
     1
 62
     5
420
      255
176
     1
290
     0
176
     1
 90
       50
176
     1
 90
       50
176
     1
 90
       50
176
     1
290
     0
176
     1
 90
       50
176
     1
 62
   256
176
     0
 40
1.0
176
     0
 90
        2
176
     1
  1
strokes_ogs.tif
176
     1
290
     0
176
     1
 40
1.0
176
     1
 40
1.0
176
     1
1001
ACAD
1000
AcDbSavedByObjectVersion
1070
     0
  0
VISUALSTYLE
  5
36
102
{ACAD_REACTORS
330
2A
102
}
330
2A
100
AcDbVisualStyle
  2
Brighten
 70
    12
177
     3
291
     1
 70
    58
 90
        2
176
     1
 90
        2
176
     1
 90
        0
176
     1
 90
        0
176
     1
 40
0.6
176
     1
 40
30.0
176
     1
 62
     7
420
 16777215
176
     1
 90
        1
176
     1
 90
        4
176
     1
 62
     7
176
     1
 62
   257
176
     1
 90
        1
176
     1
 90
        1
176
     1
 40
1.0
176
     1
 90
        8
176
     1
 62
     7
176
     1
 40
1.0
176
     1
 90
        1
176
     1
 90
        6
176
     1
 90
        2
176
     1
 62
     7
176
     1
 90
        5
176
     1
 90
        0
176
     1
 90
        0
176
     1
290
     0
176
     1
 90
        1
176
     1
 40
50.0
176
     1
 90
        0
176
     1
290
     0
176
     1
290
     1
176
     1
290
     1
176
     1
290
     0
176
     1
290
     0
176
     1
290
     0
176
     1
290
     0
176
     1
290
     0
176
     1
290
     0
176
     1
 90
       50
176
     1
 40
0.0
176
     1
 40
1.0
176
     1
 90
        0
176
     1
 62
    18
176
     1
 90
       50
176
     1
 90
        3
176
     1
 62
     5
420
      255
176
     1
290
     0
176
     1
 90
       50
176
     1
 90
       50
176
     1
 90
       50
176
     1
290
     0
176
     1
 90
       50
176
     1
 62
   256
176
     0
 40
1.0
176
     0
 90
        2
176
     1
  1
strokes_ogs.tif
176
     1
290
     0
176
     1
 40
1.0
176
     1
 40
1.0
176
     1
1001
ACAD
1000
AcDbSavedByObjectVersion
1070
     0
  0
VISUALSTYLE
  5
3A
102
{ACAD_REACTORS
330
2A
102
}
330
2A
100
AcDbVisualStyle
  2
ColorChange
 70
    16
177
     3
291
     1
 70
    58
 90
        2
176
     1
 90
        2
176
     1
 90
        3
176
     1
 90
        0
176
     1
 40
0.6
176
     1
 40
30.0
176
     1
 62
     8
420
  8421504
176
     1
 90
        1
176
     1
 90
        4
176
     1
 62
     7
176
     1
 62
   257
176
     1
 90
        1
176
     1
 90
        1
176
     1
 40
1.0
176
     1
 90
        8
176
     1
 62
     8
420
  8421504
176
     1
 40
1.0
176
     1
 90
        1
176
     1
 90
        6
176
     1
 90
        2
176
     1
 62
     7
176
     1
 90
        5
176
     1
 90
        0
176
     1
 90
        0
176
     1
290
     0
176
     1
 90
        1
176
     1
 40
0.0
176
     1
 90
        0
176
     1
290
     0
176
     1
290
     1
176
     1
290
     1
176
     1
290
     0
176
     1
290
     0
176
     1
290
     0
176
     1
290
     0
176
     1
290
     0
176
     1
290
     0
176
     1
 90
       50
176
     1
 40
0.0
176
     1
 40
1.0
176
     1
 90
        0
176
     1
 62
    18
176
     1
 90
       50
176
     1
 90
        3
176
     1
 62
     5
420
      255
176
     1
290
     0
176
     1
 90
       50
176
     1
 90
       50
176
     1
 90
       50
176
     1
290
     0
176
     1
 90
       50
176
     1
 62
   256
176
     0
 40
1.0
176
     0
 90
        2
176
     1
  1
strokes_ogs.tif
176
     1
290
     0
176
     1
 40
1.0
176
     1
 40
1.0
176
     1
1001
ACAD
1000
AcDbSavedByObjectVersion
1070
     0
  0
VISUALSTYLE
  5
34
102
{ACAD_REACTORS
330
2A
102
}
330
2A
100
AcDbVisualStyle
  2
Conceptual
 70
     9
177
     3
291
     0
 70
    58
 90
        3
176
     1
 90
        2
176
     1
 90
        0
176
     1
 90
        0
176
     1
 40
0.6
176
     1
 40
30.0
176
     1
 62
     7
420
 16777215
176
     1
 90
        2
176
     1
 90
        2
176
     1
 62
     7
176
     1
 62
   257
176
     1
 90
        1
176
     1
 90
        1
176
     1
 40
179.0
176
     1
 90
        8
176
     1
 62
     7
176
     1
 40
1.0
176
     1
 90
        1
176
     1
 90
        6
176
     1
 90
        2
176
     1
 62
     7
176
     1
 90
        3
176
     1
 90
        0
176
     1
 90
        0
176
     1
290
     0
176
     1
 90
        1
176
     1
 40
0.0
176
     1
 90
        0
176
     1
290
     0
176
     1
290
     1
176
     1
290
     1
176
     1
290
     0
176
     1
290
     0
176
     1
290
     0
176
     1
290
     0
176
     1
290
     0
176
     1
290
     0
176
     1
 90
       50
176
     1
 40
0.0
176
     1
 40
1.0
176
     1
 90
        0
176
     1
 62
    18
176
     1
 90
       50
176
     1
 90
        3
176
     1
 62
     5
420
      255
176
     1
290
     0
176
     1
 90
       50
176
     1
 90
       50
176
     1
 90
       50
176
     1
290
     0
176
     1
 90
       50
176
     1
 62
   256
176
     0
 40
1.0
176
     0
 90
        2
176
     1
  1
strokes_ogs.tif
176
     1
290
     0
176
     1
 40
1.0
176
     1
 40
1.0
176
     1
1001
ACAD
1000
AcDbSavedByObjectVersion
1070
     0
  0
VISUALSTYLE
  5
35
102
{ACAD_REACTORS
330
2A
102
}
330
2A
100
AcDbVisualStyle
  2
Dim
 70
    11
177
     3
291
     1
 70
    58
 90
        2
176
     1
 90
        2
176
     1
 90
        0
176
     1
 90
        0
176
     1
 40
0.6
176
     1
 40
30.0
176
     1
 62
     7
420
 16777215
176
     1
 90
        1
176
     1
 90
        4
176
     1
 62
     7
176
     1
 62
   257
176
     1
 90
        1
176
     1
 90
        1
176
     1
 40
1.0
176
     1
 90
        8
176
     1
 62
     7
176
     1
 40
1.0
176
     1
 90
        1
176
     1
 90
        6
176
     1
 90
        2
176
     1
 62
     7
176
     1
 90
        5
176
     1
 90
        0
176
     1
 90
        0
176
     1
290
     0
176
     1
 90
        1
176
     1
 40
-50.0
176
     1
 90
        0
176
     1
290
     0
176
     1
290
     1
176
     1
290
     1
176
     1
290
     0
176
     1
290
     0
176
     1
290
     0
176
     1
290
     0
176
     1
290
     0
176
     1
290
     0
176
     1
 90
       50
176
     1
 40
0.0
176
     1
 40
1.0
176
     1
 90
        0
176
     1
 62
    18
176
     1
 90
       50
176
     1
 90
        3
176
     1
 62
     5
420
      255
176
     1
290
     0
176
     1
 90
       50
176
     1
 90
       50
176
     1
 90
       50
176
     1
290
     0
176
     1
 90
       50
176
     1
 62
   256
176
     0
 40
1.0
176
     0
 90
        2
176
     1
  1
strokes_ogs.tif
176
     1
290
     0
176
     1
 40
1.0
176
     1
 40
1.0
176
     1
1001
ACAD
1000
AcDbSavedByObjectVersion
1070
     0
  0
VISUALSTYLE
  5
3D
102
{ACAD_REACTORS
330
2A
102
}
330
2A
100
AcDbVisualStyle
  2
EdgeColorOff
 70
    22
177
     3
291
     1
 70
    58
 90
        2
176
     0
 90
        2
176
     0
 90
        0
176
     0
 90
        0
176
     0
 40
0.6
176
     0
 40
30.0
176
     0
 62
     7
420
 16777215
176
     0
 90
        1
176
     0
 90
        4
176
     0
 62
     7
176
     0
 62
   257
176
     0
 90
        1
176
     0
 90
        1
176
     0
 40
1.0
176
     0
 90
        8
176
     2
 62
     7
176
     0
 40
1.0
176
     0
 90
        1
176
     0
 90
        6
176
     0
 90
        2
176
     0
 62
     7
176
     0
 90
        5
176
     0
 90
        0
176
     0
 90
        0
176
     0
290
     0
176
     0
 90
        1
176
     0
 40
0.0
176
     0
 90
        0
176
     0
290
     0
176
     0
290
     1
176
     0
290
     1
176
     0
290
     0
176
     0
290
     0
176
     0
290
     0
176
     0
290
     0
176
     0
290
     0
176
     0
290
     0
176
     0
 90
       50
176
     0
 40
0.0
176
     0
 40
1.0
176
     0
 90
        0
176
     0
 62
    18
176
     0
 90
       50
176
     0
 90
        3
176
     0
 62
     5
420
      255
176
     0
290
     0
176
     0
 90
       50
176
     0
 90
       50
176
     0
 90
       50
176
     0
290
     0
176
     0
 90
       50
176
     0
 62
   256
176
     0
 40
1.0
176
     0
 90
        2
176
     0
  1
strokes_ogs.tif
176
     0
290
     0
176
     0
 40
1.0
176
     0
 40
1.0
176
     0
1001
ACAD
1000
AcDbSavedByObjectVersion
1070
     0
  0
VISUALSTYLE
  5
39
102
{ACAD_REACTORS
330
2A
102
}
330
2A
100
AcDbVisualStyle
  2
Facepattern
 70
    15
177
     3
291
     1
 70
    58
 90
        2
176
     1
 90
        2
176
     1
 90
        0
176
     1
 90
        0
176
     1
 40
0.6
176
     1
 40
30.0
176
     1
 62
     7
420
 16777215
176
     1
 90
        1
176
     1
 90
        4
176
     1
 62
     7
176
     1
 62
   257
176
     1
 90
        1
176
     1
 90
        1
176
     1
 40
1.0
176
     1
 90
        8
176
     1
 62
     7
176
     1
 40
1.0
176
     1
 90
        1
176
     1
 90
        6
176
     1
 90
        2
176
     1
 62
     7
176
     1
 90
        5
176
     1
 90
        0
176
     1
 90
        0
176
     1
290
     0
176
     1
 90
        1
176
     1
 40
0.0
176
     1
 90
        0
176
     1
290
     0
176
     1
290
     1
176
     1
290
     1
176
     1
290
     0
176
     1
290
     0
176
     1
290
     0
176
     1
290
     0
176
     1
290
     0
176
     1
290
     0
176
     1
 90
       50
176
     1
 40
0.0
176
     1
 40
1.0
176
     1
 90
        0
176
     1
 62
    18
176
     1
 90
       50
176
     1
 90
        3
176
     1
 62
     5
420
      255
176
     1
290
     0
176
     1
 90
       50
176
     1
 90
       50
176
     1
 90
       50
176
     1
290
     0
176
     1
 90
       50
176
     1
 62
   256
176
     0
 40
1.0
176
     0
 90
        2
176
     1
  1
strokes_ogs.tif
176
     1
290
     0
176
     1
 40
1.0
176
     1
 40
1.0
176
     1
1001
ACAD
1000
AcDbSavedByObjectVersion
1070
     0
  0
VISUALSTYLE
  5
2B
102
{ACAD_REACTORS
330
2A
102
}
330
2A
100
AcDbVisualStyle
  2
Flat
 70
     0
177
     3
291
     1
 70
    58
 90
        2
176
     1
 90
        1
176
     1
 90
        1
176
     1
 90
        2
176
     1
 40
0.6
176
     1
 40
30.0
176
     1
 62
     7
420
 16777215
176
     1
 90
        0
176
     1
 90
        0
176
     1
 62
     7
176
     1
 62
   257
176
     1
 90
        1
176
     1
 90
        1
176
     1
 40
1.0
176
     1
 90
        8
176
     1
 62
     7
176
     1
 40
1.0
176
     1
 90
        1
176
     1
 90
        6
176
     1
 90
        2
176
     1
 62
     7
176
     1
 90
        5
176
     1
 90
        0
176
     1
 90
        0
176
     1
290
     0
176
     1
 90
       13
176
     1
 40
0.0
176
     1
 90
        0
176
     1
290
     0
176
     1
290
     1
176
     1
290
     1
176
     1
290
     0
176
     1
290
     0
176
     1
290
     0
176
     1
290
     0
176
     1
290
     0
176
     1
290
     0
176
     1
 90
       50
176
     1
 40
0.0
176
     1
 40
1.0
176
     1
 90
        0
176
     1
 62
    18
176
     1
 90
       50
176
     1
 90
        3
176
     1
 62
     5
420
      255
176
     1
290
     0
176
     1
 90
       50
176
     1
 90
       50
176
     1
 90
       50
176
     1
290
     0
176
     1
 90
       50
176
     1
 62
   256
176
     0
 40
1.0
176
     0
 90
        2
176
     1
  1
strokes_ogs.tif
176
     1
290
     0
176
     1
 40
1.0
176
     1
 40
1.0
176
     1
1001
ACAD
1000
AcDbSavedByObjectVersion
1070
     0
  0
VISUALSTYLE
  5
2C
102
{ACAD_REACTORS
330
2A
102
}
330
2A
100
AcDbVisualStyle
  2
FlatWithEdges
 70
     1
177
     3
291
     1
 70
    58
 90
        2
176
     1
 90
        1
176
     1
 90
        1
176
     1
 90
        2
176
     1
 40
0.6
176
     1
 40
30.0
176
     1
 62
     7
420
 16777215
176
     1
 90
        1
176
     1
 90
        0
176
     1
 62
     7
176
     1
 62
   257
176
     1
 90
        1
176
     1
 90
        1
176
     1
 40
1.0
176
     1
 90
        0
176
     1
 62
   257
176
     1
 40
1.0
176
     1
 90
        1
176
     1
 90
        6
176
     1
 90
        2
176
     1
 62
     7
176
     1
 90
        5
176
     1
 90
        0
176
     1
 90
        0
176
     1
290
     0
176
     1
 90
       13
176
     1
 40
0.0
176
     1
 90
        0
176
     1
290
     0
176
     1
290
     1
176
     1
290
     1
176
     1
290
     0
176
     1
290
     0
176
     1
290
     0
176
     1
290
     0
176
     1
290
     0
176
     1
290
     0
176
     1
 90
       50
176
     1
 40
0.0
176
     1
 40
1.0
176
     1
 90
        0
176
     1
 62
    18
176
     1
 90
       50
176
     1
 90
        3
176
     1
 62
     5
420
      255
176
     1
290
     0
176
     1
 90
       50
176
     1
 90
       50
176
     1
 90
       50
176
     1
290
     0
176
     1
 90
       50
176
     1
 62
   256
176
     0
 40
1.0
176
     0
 90
        2
176
     1
  1
strokes_ogs.tif
176
     1
290
     0
176
     1
 40
1.0
176
     1
 40
1.0
176
     1
1001
ACAD
1000
AcDbSavedByObjectVersion
1070
     0
  0
VISUALSTYLE
  5
2D
102
{ACAD_REACTORS
330
2A
102
}
330
2A
100
AcDbVisualStyle
  2
Gouraud
 70
     2
177
     3
291
     1
 70
    58
 90
        2
176
     1
 90
        2
176
     1
 90
        1
176
     1
 90
        2
176
     1
 40
0.6
176
     1
 40
30.0
176
     1
 62
     7
420
 16777215
176
     1
 90
        0
176
     1
 90
        0
176
     1
 62
     7
176
     1
 62
   257
176
     1
 90
        1
176
     1
 90
        1
176
     1
 40
1.0
176
     1
 90
        0
176
     1
 62
     7
176
     1
 40
1.0
176
     1
 90
        1
176
     1
 90
        6
176
     1
 90
        2
176
     1
 62
     7
176
     1
 90
        5
176
     1
 90
        0
176
     1
 90
        0
176
     1
290
     0
176
     1
 90
       13
176
     1
 40
0.0
176
     1
 90
        0
176
     1
290
     0
176
     1
290
     1
176
     1
290
     1
176
     1
290
     0
176
     1
290
     0
176
     1
290
     0
176
     1
290
     0
176
     1
290
     0
176
     1
290
     0
176
     1
 90
       50
176
     1
 40
0.0
176
     1
 40
1.0
176
     1
 90
        0
176
     1
 62
    18
176
     1
 90
       50
176
     1
 90
        3
176
     1
 62
     5
420
      255
176
     1
290
     0
176
     1
 90
       50
176
     1
 90
       50
176
     1
 90
       50
176
     1
290
     0
176
     1
 90
       50
176
     1
 62
   256
176
     0
 40
1.0
176
     0
 90
        2
176
     1
  1
strokes_ogs.tif
176
     1
290
     0
176
     1
 40
1.0
176
     1
 40
1.0
176
     1
1001
ACAD
1000
AcDbSavedByObjectVersion
1070
     0
  0
VISUALSTYLE
  5
2E
102
{ACAD_REACTORS
330
2A
102
}
330
2A
100
AcDbVisualStyle
  2
GouraudWithEdges
 70
     3
177
     3
291
     1
 70
    58
 90
        2
176
     1
 90
        2
176
     1
 90
        1
176
     1
 90
        2
176
     1
 40
0.6
176
     1
 40
30.0
176
     1
 62
     7
420
 16777215
176
     1
 90
        1
176
     1
 90
        0
176
     1
 62
     7
176
     1
 62
   257
176
     1
 90
        1
176
     1
 90
        1
176
     1
 40
1.0
176
     1
 90
        0
176
     1
 62
   257
176
     1
 40
1.0
176
     1
 90
        1
176
     1
 90
        6
176
     1
 90
        2
176
     1
 62
     7
176
     1
 90
        5
176
     1
 90
        0
176
     1
 90
        0
176
     1
290
     0
176
     1
 90
       13
176
     1
 40
0.0
176
     1
 90
        0
176
     1
290
     0
176
     1
290
     1
176
     1
290
     1
176
     1
290
     0
176
     1
290
     0
176
     1
290
     0
176
     1
290
     0
176
     1
290
     0
176
     1
290
     0
176
     1
 90
       50
176
     1
 40
0.0
176
     1
 40
1.0
176
     1
 90
        0
176
     1
 62
    18
176
     1
 90
       50
176
     1
 90
        3
176
     1
 62
     5
420
      255
176
     1
290
     0
176
     1
 90
       50
176
     1
 90
       50
176
     1
 90
       50
176
     1
290
     0
176
     1
 90
       50
176
     1
 62
   256
176
     0
 40
1.0
176
     0
 90
        2
176
     1
  1
strokes_ogs.tif
176
     1
290
     0
176
     1
 40
1.0
176
     1
 40
1.0
176
     1
1001
ACAD
1000
AcDbSavedByObjectVersion
1070
     0
  0
VISUALSTYLE
  5
31
102
{ACAD_REACTORS
330
2A
102
}
330
2A
100
AcDbVisualStyle
  2
Hidden
 70
     6
177
     3
291
     0
 70
    58
 90
        1
176
     1
 90
        2
176
     1
 90
        2
176
     1
 90
        0
176
     1
 40
0.6
176
     1
 40
30.0
176
     1
 62
     7
420
 16777215
176
     1
 90
        2
176
     1
 90
        2
176
     1
 62
     7
176
     1
 62
   257
176
     1
 90
        2
176
     1
 90
        1
176
     1
 40
40.0
176
     1
 90
        0
176
     1
 62
   257
176
     1
 40
1.0
176
     1
 90
        1
176
     1
 90
        6
176
     1
 90
        2
176
     1
 62
     7
176
     1
 90
        3
176
     1
 90
        0
176
     1
 90
        0
176
     1
290
     0
176
     1
 90
        1
176
     1
 40
0.0
176
     1
 90
        0
176
     1
290
     0
176
     1
290
     1
176
     1
290
     1
176
     1
290
     0
176
     1
290
     0
176
     1
290
     0
176
     1
290
     0
176
     1
290
     0
176
     1
290
     0
176
     1
 90
       50
176
     1
 40
0.0
176
     1
 40
1.0
176
     1
 90
        0
176
     1
 62
    18
176
     1
 90
       50
176
     1
 90
        3
176
     1
 62
     5
420
      255
176
     1
290
     0
176
     1
 90
       50
176
     1
 90
       50
176
     1
 90
       50
176
     1
290
     0
176
     1
 90
       50
176
     1
 62
   256
176
     0
 40
1.0
176
     0
 90
        2
176
     1
  1
strokes_ogs.tif
176
     1
290
     0
176
     1
 40
1.0
176
     1
 40
1.0
176
     1
1001
ACAD
1000
AcDbSavedByObjectVersion
1070
     0
  0
VISUALSTYLE
  5
3B
102
{ACAD_REACTORS
330
2A
102
}
330
2A
100
AcDbVisualStyle
  2
JitterOff
 70
    20
177
     3
291
     1
 70
    58
 90
        2
176
     0
 90
        2
176
     0
 90
        0
176
     0
 90
        0
176
     0
 40
0.6
176
     0
 40
30.0
176
     0
 62
     7
420
 16777215
176
     0
 90
        1
176
     0
 90
        4
176
     0
 62
     7
176
     0
 62
   257
176
     0
 90
        1
176
     0
 90
        1
176
     0
 40
1.0
176
     0
 90
       10
176
     2
 62
     7
176
     0
 40
1.0
176
     0
 90
        1
176
     0
 90
        6
176
     0
 90
        2
176
     0
 62
     7
176
     0
 90
        5
176
     0
 90
        0
176
     0
 90
        0
176
     0
290
     0
176
     0
 90
        1
176
     0
 40
0.0
176
     0
 90
        0
176
     0
290
     0
176
     0
290
     1
176
     0
290
     1
176
     0
290
     0
176
     0
290
     0
176
     0
290
     0
176
     0
290
     0
176
     0
290
     0
176
     0
290
     0
176
     0
 90
       50
176
     0
 40
0.0
176
     0
 40
1.0
176
     0
 90
        0
176
     0
 62
    18
176
     0
 90
       50
176
     0
 90
        3
176
     0
 62
     5
420
      255
176
     0
290
     0
176
     0
 90
       50
176
     0
 90
       50
176
     0
 90
       50
176
     0
290
     0
176
     0
 90
       50
176
     0
 62
   256
176
     0
 40
1.0
176
     0
 90
        2
176
     0
  1
strokes_ogs.tif
176
     0
290
     0
176
     0
 40
1.0
176
     0
 40
1.0
176
     0
1001
ACAD
1000
AcDbSavedByObjectVersion
1070
     0
  0
VISUALSTYLE
  5
38
102
{ACAD_REACTORS
330
2A
102
}
330
2A
100
AcDbVisualStyle
  2
Linepattern
 70
    14
177
     3
291
     1
 70
    58
 90
        2
176
     1
 90
        2
176
     1
 90
        0
176
     1
 90
        0
176
     1
 40
0.6
176
     1
 40
30.0
176
     1
 62
     7
420
 16777215
176
     1
 90
        1
176
     1
 90
        4
176
     1
 62
     7
176
     1
 62
   257
176
     1
 90
        7
176
     1
 90
        7
176
     1
 40
1.0
176
     1
 90
        8
176
     1
 62
     7
176
     1
 40
1.0
176
     1
 90
        1
176
     1
 90
        6
176
     1
 90
        2
176
     1
 62
     7
176
     1
 90
        5
176
     1
 90
        0
176
     1
 90
        0
176
     1
290
     0
176
     1
 90
        1
176
     1
 40
0.0
176
     1
 90
        0
176
     1
290
     0
176
     1
290
     1
176
     1
290
     1
176
     1
290
     0
176
     1
290
     0
176
     1
290
     0
176
     1
290
     0
176
     1
290
     0
176
     1
290
     0
176
     1
 90
       50
176
     1
 40
0.0
176
     1
 40
1.0
176
     1
 90
        0
176
     1
 62
    18
176
     1
 90
       50
176
     1
 90
        3
176
     1
 62
     5
420
      255
176
     1
290
     0
176
     1
 90
       50
176
     1
 90
       50
176
     1
 90
       50
176
     1
290
     0
176
     1
 90
       50
176
     1
 62
   256
176
     0
 40
1.0
176
     0
 90
        2
176
     1
  1
strokes_ogs.tif
176
     1
290
     0
176
     1
 40
1.0
176
     1
 40
1.0
176
     1
1001
ACAD
1000
AcDbSavedByObjectVersion
1070
     0
  0
VISUALSTYLE
  5
3C
102
{ACAD_REACTORS
330
2A
102
}
330
2A
100
AcDbVisualStyle
  2
OverhangOff
 70
    21
177
     3
291
     1
 70
    58
 90
        2
176
     0
 90
        2
176
     0
 90
        0
176
     0
 90
        0
176
     0
 40
0.6
176
     0
 40
30.0
176
     0
 62
     7
420
 16777215
176
     0
 90
        1
176
     0
 90
        4
176
     0
 62
     7
176
     0
 62
   257
176
     0
 90
        1
176
     0
 90
        1
176
     0
 40
1.0
176
     0
 90
        9
176
     2
 62
     7
176
     0
 40
1.0
176
     0
 90
        1
176
     0
 90
        6
176
     0
 90
        2
176
     0
 62
     7
176
     0
 90
        5
176
     0
 90
        0
176
     0
 90
        0
176
     0
290
     0
176
     0
 90
        1
176
     0
 40
0.0
176
     0
 90
        0
176
     0
290
     0
176
     0
290
     1
176
     0
290
     1
176
     0
290
     0
176
     0
290
     0
176
     0
290
     0
176
     0
290
     0
176
     0
290
     0
176
     0
290
     0
176
     0
 90
       50
176
     0
 40
0.0
176
     0
 40
1.0
176
     0
 90
        0
176
     0
 62
    18
176
     0
 90
       50
176
     0
 90
        3
176
     0
 62
     5
420
      255
176
     0
290
     0
176
     0
 90
       50
176
     0
 90
       50
176
     0
 90
       50
176
     0
290
     0
176
     0
 90
       50
176
     0
 62
   256
176
     0
 40
1.0
176
     0
 90
        2
176
     0
  1
strokes_ogs.tif
176
     0
290
     0
176
     0
 40
1.0
176
     0
 40
1.0
176
     0
1001
ACAD
1000
AcDbSavedByObjectVersion
1070
     0
  0
VISUALSTYLE
  5
33
102
{ACAD_REACTORS
330
2A
102
}
330
2A
100
AcDbVisualStyle
  2
Realistic
 70
     8
177
     3
291
     0
 70
    58
 90
        2
176
     1
 90
        3
176
     1
 90
        0
176
     1
 90
        2
176
     1
 40
0.6
176
     1
 40
30.0
176
     1
 62
     7
420
 16777215
176
     1
 90
        0
176
     1
 90
        0
176
     1
 62
     7
176
     1
 62
   257
176
     1
 90
        1
176
     1
 90
        1
176
     1
 40
1.0
176
     1
 90
        8
176
     1
 62
   257
176
     1
 40
1.0
176
     1
 90
        1
176
     1
 90
        6
176
     1
 90
        2
176
     1
 62
     7
176
     1
 90
        3
176
     1
 90
        0
176
     1
 90
        0
176
     1
290
     0
176
     1
 90
       13
176
     1
 40
0.0
176
     1
 90
        0
176
     1
290
     0
176
     1
290
     1
176
     1
290
     1
176
     1
290
     0
176
     1
290
     0
176
     1
290
     0
176
     1
290
     0
176
     1
290
     0
176
     1
290
     0
176
     1
 90
       50
176
     1
 40
0.0
176
     1
 40
1.0
176
     1
 90
        0
176
     1
 62
    18
176
     1
 90
       50
176
     1
 90
        3
176
     1
 62
     5
420
      255
176
     1
290
     0
176
     1
 90
       50
176
     1
 90
       50
176
     1
 90
       50
176
     1
290
     0
176
     1
 90
       50
176
     1
 62
   256
176
     0
 40
1.0
176
     0
 90
        2
176
     1
  1
strokes_ogs.tif
176
     1
290
     0
176
     1
 40
1.0
176
     1
 40
1.0
176
     1
1001
ACAD
1000
AcDbSavedByObjectVersion
1070
     0
  0
VISUALSTYLE
  5
42
102
{ACAD_REACTORS
330
2A
102
}
330
2A
100
AcDbVisualStyle
  2
Shaded
 70
    27
177
     3
291
     0
 70
    58
 90
        2
176
     1
 90
        2
176
     1
 90
        1
176
     1
 90
        2
176
     1
 40
0.6
176
     1
 40
30.0
176
     1
 62
     7
420
 16777215
176
     1
 90
        0
176
     1
 90
        4
176
     1
 62
     7
176
     1
 62
   257
176
     1
 90
        1
176
     1
 90
        1
176
     1
 40
1.0
176
     1
 90
        8
176
     1
 62
   257
176
     1
 40
1.0
176
     1
 90
        1
176
     1
 90
        6
176
     1
 90
        2
176
     1
 62
     8
420
  7895160
176
     1
 90
        3
176
     1
 90
        0
176
     1
 90
        0
176
     1
290
     0
176
     1
 90
        5
176
     1
 40
0.0
176
     1
 90
        0
176
     1
290
     0
176
     1
290
     1
176
     1
290
     1
176
     1
290
     0
176
     1
290
     0
176
     1
290
     0
176
     1
290
     0
176
     1
290
     0
176
     1
290
     0
176
     1
 90
       50
176
     1
 40
0.0
176
     1
 40
1.0
176
     1
 90
        0
176
     1
 62
    18
176
     1
 90
       50
176
     1
 90
        3
176
     1
 62
     5
420
      255
176
     1
290
     0
176
     1
 90
       50
176
     1
 90
       50
176
     1
 90
       50
176
     1
290
     0
176
     1
 90
       50
176
     1
 62
   256
176
     0
 40
1.0
176
     0
 90
        2
176
     1
  1
strokes_ogs.tif
176
     1
290
     0
176
     1
 40
1.0
176
     1
 40
1.0
176
     1
1001
ACAD
1000
AcDbSavedByObjectVersion
1070
     0
  0
VISUALSTYLE
  5
41
102
{ACAD_REACTORS
330
2A
102
}
330
2A
100
AcDbVisualStyle
  2
Shaded with edges
 70
    26
177
     3
291
     0
 70
    58
 90
        2
176
     1
 90
        2
176
     1
 90
        1
176
     1
 90
        2
176
     1
 40
0.6
176
     1
 40
30.0
176
     1
 62
     7
420
 16777215
176
     1
 90
        1
176
     1
 90
       10
176
     1
 62
     7
176
     1
 62
   257
176
     1
 90
        2
176
     1
 90
        1
176
     1
 40
1.0
176
     1
 90
        8
176
     1
 62
   257
176
     1
 40
1.0
176
     1
 90
        1
176
     1
 90
        6
176
     1
 90
        2
176
     1
 62
     7
176
     1
 90
        3
176
     1
 90
        0
176
     1
 90
        0
176
     1
290
     0
176
     1
 90
        5
176
     1
 40
0.0
176
     1
 90
        0
176
     1
290
     0
176
     1
290
     1
176
     1
290
     1
176
     1
290
     0
176
     1
290
     0
176
     1
290
     0
176
     1
290
     0
176
     1
290
     0
176
     1
290
     0
176
     1
 90
       50
176
     1
 40
0.0
176
     1
 40
1.0
176
     1
 90
        0
176
     1
 62
    18
176
     1
 90
       50
176
     1
 90
        3
176
     1
 62
     5
420
      255
176
     1
290
     0
176
     1
 90
       50
176
     1
 90
       50
176
     1
 90
       50
176
     1
290
     0
176
     1
 90
       50
176
     1
 62
   256
176
     0
 40
1.0
176
     0
 90
        2
176
     1
  1
strokes_ogs.tif
176
     1
290
     0
176
     1
 40
1.0
176
     1
 40
1.0
176
     1
1001
ACAD
1000
AcDbSavedByObjectVersion
1070
     0
  0
VISUALSTYLE
  5
3E
102
{ACAD_REACTORS
330
2A
102
}
330
2A
100
AcDbVisualStyle
  2
Shades of Gray
 70
    23
177
     3
291
     0
 70
    58
 90
        2
176
     1
 90
        2
176
     1
 90
        3
176
     1
 90
        0
176
     1
 40
0.6
176
     1
 40
30.0
176
     1
 62
     7
420
 16777215
176
     1
 90
        2
176
     1
 90
        2
176
     1
 62
     7
176
     1
 62
     7
176
     1
 90
        1
176
     1
 90
        1
176
     1
 40
40.0
176
     1
 90
        8
176
     1
 62
     7
176
     1
 40
1.0
176
     1
 90
        1
176
     1
 90
        6
176
     1
 90
        2
176
     1
 62
     7
176
     1
 90
        3
176
     1
 90
        0
176
     1
 90
        0
176
     1
290
     0
176
     1
 90
        1
176
     1
 40
0.0
176
     1
 90
        0
176
     1
290
     0
176
     1
290
     1
176
     1
290
     1
176
     1
290
     0
176
     1
290
     0
176
     1
290
     0
176
     1
290
     0
176
     1
290
     0
176
     1
290
     0
176
     1
 90
       50
176
     1
 40
0.0
176
     1
 40
1.0
176
     1
 90
        0
176
     1
 62
    18
176
     1
 90
       50
176
     1
 90
        3
176
     1
 62
     5
420
      255
176
     1
290
     0
176
     1
 90
       50
176
     1
 90
       50
176
     1
 90
       50
176
     1
290
     0
176
     1
 90
       50
176
     1
 62
   256
176
     0
 40
1.0
176
     0
 90
        2
176
     1
  1
strokes_ogs.tif
176
     1
290
     0
176
     1
 40
1.0
176
     1
 40
1.0
176
     1
1001
ACAD
1000
AcDbSavedByObjectVersion
1070
     0
  0
VISUALSTYLE
  5
3F
102
{ACAD_REACTORS
330
2A
102
}
330
2A
100
AcDbVisualStyle
  2
Sketchy
 70
    24
177
     3
291
     0
 70
    58
 90
        1
176
     1
 90
        2
176
     1
 90
        2
176
     1
 90
        0
176
     1
 40
0.6
176
     1
 40
30.0
176
     1
 62
     7
420
 16777215
176
     1
 90
        2
176
     1
 90
        2
176
     1
 62
     7
176
     1
 62
     7
176
     1
 90
        1
176
     1
 90
        1
176
     1
 40
40.0
176
     1
 90
       11
176
     1
 62
     7
176
     1
 40
1.0
176
     1
 90
        1
176
     1
 90
        6
176
     1
 90
        2
176
     1
 62
     7
176
     1
 90
        6
176
     1
 90
        0
176
     1
 90
        0
176
     1
290
     0
176
     1
 90
        1
176
     1
 40
0.0
176
     1
 90
        0
176
     1
290
     0
176
     1
290
     1
176
     1
290
     1
176
     1
290
     0
176
     1
290
     0
176
     1
290
     0
176
     1
290
     0
176
     1
290
     0
176
     1
290
     0
176
     1
 90
       50
176
     1
 40
0.0
176
     1
 40
1.0
176
     1
 90
        0
176
     1
 62
    18
176
     1
 90
       50
176
     1
 90
        3
176
     1
 62
     5
420
      255
176
     1
290
     0
176
     1
 90
       50
176
     1
 90
       50
176
     1
 90
       50
176
     1
290
     0
176
     1
 90
       50
176
     1
 62
   256
176
     0
 40
1.0
176
     0
 90
        2
176
     1
  1
strokes_ogs.tif
176
     1
290
     0
176
     1
 40
1.0
176
     1
 40
1.0
176
     1
1001
ACAD
1000
AcDbSavedByObjectVersion
1070
     0
  0
VISUALSTYLE
  5
37
102
{ACAD_REACTORS
330
2A
102
}
330
2A
100
AcDbVisualStyle
  2
Thicken
 70
    13
177
     3
291
     1
 70
    58
 90
        2
176
     1
 90
        2
176
     1
 90
        0
176
     1
 90
        0
176
     1
 40
0.6
176
     1
 40
30.0
176
     1
 62
     7
420
 16777215
176
     1
 90
        1
176
     1
 90
        4
176
     1
 62
     7
176
     1
 62
   257
176
     1
 90
        1
176
     1
 90
        1
176
     1
 40
1.0
176
     1
 90
       12
176
     1
 62
     7
176
     1
 40
1.0
176
     1
 90
        1
176
     1
 90
        6
176
     1
 90
        2
176
     1
 62
     7
176
     1
 90
        5
176
     1
 90
        0
176
     1
 90
        0
176
     1
290
     0
176
     1
 90
        1
176
     1
 40
0.0
176
     1
 90
        0
176
     1
290
     0
176
     1
290
     1
176
     1
290
     1
176
     1
290
     0
176
     1
290
     0
176
     1
290
     0
176
     1
290
     0
176
     1
290
     0
176
     1
290
     0
176
     1
 90
       50
176
     1
 40
0.0
176
     1
 40
1.0
176
     1
 90
        0
176
     1
 62
    18
176
     1
 90
       50
176
     1
 90
        3
176
     1
 62
     5
420
      255
176
     1
290
     0
176
     1
 90
       50
176
     1
 90
       50
176
     1
 90
       50
176
     1
290
     0
176
     1
 90
       50
176
     1
 62
   256
176
     0
 40
1.0
176
     0
 90
        2
176
     1
  1
strokes_ogs.tif
176
     1
290
     0
176
     1
 40
1.0
176
     1
 40
1.0
176
     1
1001
ACAD
1000
AcDbSavedByObjectVersion
1070
     0
  0
VISUALSTYLE
  5
30
102
{ACAD_REACTORS
330
2A
102
}
330
2A
100
AcDbVisualStyle
  2
Wireframe
 70
     5
177
     3
291
     0
 70
    58
 90
        0
176
     1
 90
        2
176
     1
 90
        0
176
     1
 90
        0
176
     1
 40
0.6
176
     1
 40
30.0
176
     1
 62
     7
420
 16777215
176
     1
 90
        1
176
     1
 90
        4
176
     1
 62
     7
176
     1
 62
   257
176
     1
 90
        1
176
     1
 90
        1
176
     1
 40
1.0
176
     1
 90
        0
176
     1
 62
   257
176
     1
 40
1.0
176
     1
 90
        1
176
     1
 90
        6
176
     1
 90
        2
176
     1
 62
     7
176
     1
 90
        3
176
     1
 90
        0
176
     1
 90
        0
176
     1
290
     0
176
     1
 90
        1
176
     1
 40
0.0
176
     1
 90
        0
176
     1
290
     0
176
     1
290
     1
176
     1
290
     1
176
     1
290
     0
176
     1
290
     0
176
     1
290
     0
176
     1
290
     0
176
     1
290
     0
176
     1
290
     0
176
     1
 90
       50
176
     1
 40
0.0
176
     1
 40
1.0
176
     1
 90
        0
176
     1
 62
    18
176
     1
 90
       50
176
     1
 90
        3
176
     1
 62
     5
420
      255
176
     1
290
     0
176
     1
 90
       50
176
     1
 90
       50
176
     1
 90
       50
176
     1
290
     0
176
     1
 90
       50
176
     1
 62
   256
176
     0
 40
1.0
176
     0
 90
        2
176
     1
  1
strokes_ogs.tif
176
     1
290
     0
176
     1
 40
1.0
176
     1
 40
1.0
176
     1
1001
ACAD
1000
AcDbSavedByObjectVersion
1070
     0
  0
VISUALSTYLE
  5
40
102
{ACAD_REACTORS
330
2A
102
}
330
2A
100
AcDbVisualStyle
  2
X-Ray
 70
    25
177
     3
291
     0
 70
    58
 90
        2
176
     1
 90
        2
176
     1
 90
        1
176
     1
 90
        1
176
     1
 40
0.5
176
     1
 40
30.0
176
     1
 62
     7
420
 16777215
176
     1
 90
        1
176
     1
 90
        0
176
     1
 62
     7
176
     1
 62
   257
176
     1
 90
        1
176
     1
 90
        1
176
     1
 40
1.0
176
     1
 90
        8
176
     1
 62
     7
176
     1
 40
1.0
176
     1
 90
        1
176
     1
 90
        6
176
     1
 90
        2
176
     1
 62
     7
176
     1
 90
        3
176
     1
 90
        0
176
     1
 90
        0
176
     1
290
     0
176
     1
 90
       13
176
     1
 40
0.0
176
     1
 90
        0
176
     1
290
     0
176
     1
290
     1
176
     1
290
     1
176
     1
290
     0
176
     1
290
     0
176
     1
290
     0
176
     1
290
     0
176
     1
290
     0
176
     1
290
     0
176
     1
 90
       50
176
     1
 40
0.0
176
     1
 40
1.0
176
     1
 90
        0
176
     1
 62
    18
176
     1
 90
       50
176
     1
 90
        3
176
     1
 62
     5
420
      255
176
     1
290
     0
176
     1
 90
       50
176
     1
 90
       50
176
     1
 90
       50
176
     1
290
     0
176
     1
 90
       50
176
     1
 62
   256
176
     0
 40
1.0
176
     0
 90
        2
176
     1
  1
strokes_ogs.tif
176
     1
290
     0
176
     1
 40
1.0
176
     1
 40
1.0
176
     1
1001
ACAD
1000
AcDbSavedByObjectVersion
1070
     0
  0
DICTIONARYVAR
  5
108
102
{ACAD_REACTORS
330
107
102
}
330
107
100
DictionaryVariables
280
     0
  1
1:1
  0
DICTIONARYVAR
  5
110
102
{ACAD_REACTORS
330
107
102
}
330
107
100
DictionaryVariables
280
     0
  1
3.500000
  0
DICTIONARYVAR
  5
111
102
{ACAD_REACTORS
330
107
102
}
330
107
100
DictionaryVariables
280
     0
  1
acadiso.lin
  0
DICTIONARYVAR
  5
10D
102
{ACAD_REACTORS
330
107
102
}
330
107
100
DictionaryVariables
280
     0
  1
STANDARD
  0
DICTIONARYVAR
  5
10C
102
{ACAD_REACTORS
330
107
102
}
330
107
100
DictionaryVariables
280
     0
  1
STANDARD
  0
DICTIONARYVAR
  5
485
102
{ACAD_REACTORS
330
107
102
}
330
107
100
DictionaryVariables
280
     0
  1
Metric50
  0
DICTIONARYVAR
  5
486
102
{ACAD_REACTORS
330
107
102
}
330
107
100
DictionaryVariables
280
     0
  1
Metric50
  0
DICTIONARY
  5
D3B
102
{ACAD_REACTORS
330
D39
102
}
330
D39
100
AcDbDictionary
281
     1
  0
DICTIONARY
  5
D3A
102
{ACAD_REACTORS
330
D39
102
}
330
D39
100
AcDbDictionary
281
     1
  3
2107415174976
350
D34
  3
2107415174992
350
D35
  3
2107415175008
350
D36
  3
2107415175024
350
D37
  3
2107415193600
350
D38
  0
DICTIONARY
  5
D3E
330
116
100
AcDbDictionary
280
     1
281
     1
  3
ACAD_XREC_ROUNDTRIP
360
D3F
  0
DICTIONARY
  5
D3C
330
115
100
AcDbDictionary
280
     1
281
     1
  3
ACAD_XREC_ROUNDTRIP
360
D3D
  0
DICTIONARY
  5
109
330
6A
100
AcDbDictionary
280
     1
281
     1
  3
ACAD_ROUNDTRIP_2008_TABLESTYLE_CELLSTYLEMAP
360
D32
  0
XRECORD
  5
D34
102
{ACAD_REACTORS
330
D3A
102
}
330
D3A
100
AcDbXrecord
280
     1
  1
AcDb_Thumbnail_Schema
102
{ATTRRECORD
341
D35
  2
AcDbDs::TreatedAsObjectData
280
     1
291
     1
102
ATTRRECORD}
102
{ATTRRECORD
341
D36
  2
AcDbDs::Legacy
280
     1
291
     1
102
ATTRRECORD}
  2
AcDbDs::ID
280
    10
 91
        8
102
{ATTRRECORD
341
D37
  2
AcDs:Indexable
280
     1
291
     1
102
ATTRRECORD}
102
{ATTRRECORD
341
D38
  2
AcDbDs::HandleAttribute
280
     7
282
     1
102
ATTRRECORD}
  2
Thumbnail_Data
280
    15
 91
        0
  0
XRECORD
  5
D35
102
{ACAD_REACTORS
330
D3A
102
}
330
D3A
100
AcDbXrecord
280
     1
  1
AcDbDs::TreatedAsObjectDataSchema
  2
AcDbDs::TreatedAsObjectData
280
     1
 91
        0
  0
XRECORD
  5
D36
102
{ACAD_REACTORS
330
D3A
102
}
330
D3A
100
AcDbXrecord
280
     1
  1
AcDbDs::LegacySchema
  2
AcDbDs::Legacy
280
     1
 91
        0
  0
XRECORD
  5
D37
102
{ACAD_REACTORS
330
D3A
102
}
330
D3A
100
AcDbXrecord
280
     1
  1
AcDbDs::IndexedPropertySchema
  2
AcDs:Indexable
280
     1
 91
        0
  0
XRECORD
  5
D38
102
{ACAD_REACTORS
330
D3A
102
}
330
D3A
100
AcDbXrecord
280
     1
  1
AcDbDs::HandleAttributeSchema
  2
AcDbDs::HandleAttribute
280
     7
 91
        1
284
     1
  0
XRECORD
  5
D3F
102
{ACAD_REACTORS
330
D3E
102
}
330
D3E
100
AcDbXrecord
280
     1
102
DISPLAYNAME
  1
Metric50
102
FLAGS
 90
        0
  0
XRECORD
  5
D3D
102
{ACAD_REACTORS
330
D3C
102
}
330
D3C
100
AcDbXrecord
280
     1
102
DISPLAYNAME
  1
Metric50
102
FLAGS
 90
        0
  0
CELLSTYLEMAP
  5
D32
102
{ACAD_REACTORS
330
109
102
}
330
109
100
AcDbCellStyleMap
 90
        3
300
CELLSTYLE
  1
TABLEFORMAT_BEGIN
 90
        5
170
     1
 91
        0
 92
    32768
 62
   257
 93
        1
300
CONTENTFORMAT
  1
CONTENTFORMAT_BEGIN
 90
        0
 91
        0
 92
        4
 93
        0
300

 40
0.0
140
1.0
 94
        5
 62
     0
340
11
144
6.0
309
CONTENTFORMAT_END
171
     1
301
MARGIN
  1
CELLMARGIN_BEGIN
 40
1.5
 40
1.5
 40
1.5
 40
1.5
 40
0.18
 40
0.18
309
CELLMARGIN_END
 94
        6
 95
        1
302
GRIDFORMAT
  1
GRIDFORMAT_BEGIN
 90
        0
 91
        1
 62
     0
 92
       -2
340
14
 93
        0
 40
0.045
309
GRIDFORMAT_END
 95
        2
302
GRIDFORMAT
  1
GRIDFORMAT_BEGIN
 90
        0
 91
        1
 62
     0
 92
       -2
340
14
 93
        0
 40
0.045
309
GRIDFORMAT_END
 95
        4
302
GRIDFORMAT
  1
GRIDFORMAT_BEGIN
 90
        0
 91
        1
 62
     0
 92
       -2
340
14
 93
        0
 40
0.045
309
GRIDFORMAT_END
 95
        8
302
GRIDFORMAT
  1
GRIDFORMAT_BEGIN
 90
        0
 91
        1
 62
     0
 92
       -2
340
14
 93
        0
 40
0.045
309
GRIDFORMAT_END
 95
       16
302
GRIDFORMAT
  1
GRIDFORMAT_BEGIN
 90
        0
 91
        1
 62
     0
 92
       -2
340
14
 93
        0
 40
0.045
309
GRIDFORMAT_END
 95
       32
302
GRIDFORMAT
  1
GRIDFORMAT_BEGIN
 90
        0
 91
        1
 62
     0
 92
       -2
340
14
 93
        0
 40
0.045
309
GRIDFORMAT_END
309
TABLEFORMAT_END
  1
CELLSTYLE_BEGIN
 90
        1
 91
        1
300
_TITLE
309
CELLSTYLE_END
300
CELLSTYLE
  1
TABLEFORMAT_BEGIN
 90
        5
170
     1
 91
        0
 92
        0
 62
   257
 93
        1
300
CONTENTFORMAT
  1
CONTENTFORMAT_BEGIN
 90
        0
 91
        0
 92
        4
 93
        0
300

 40
0.0
140
1.0
 94
        5
 62
     0
340
11
144
4.5
309
CONTENTFORMAT_END
171
     1
301
MARGIN
  1
CELLMARGIN_BEGIN
 40
1.5
 40
1.5
 40
1.5
 40
1.5
 40
0.18
 40
0.18
309
CELLMARGIN_END
 94
        6
 95
        1
302
GRIDFORMAT
  1
GRIDFORMAT_BEGIN
 90
        0
 91
        1
 62
     0
 92
       -2
340
14
 93
        0
 40
0.045
309
GRIDFORMAT_END
 95
        2
302
GRIDFORMAT
  1
GRIDFORMAT_BEGIN
 90
        0
 91
        1
 62
     0
 92
       -2
340
14
 93
        0
 40
0.045
309
GRIDFORMAT_END
 95
        4
302
GRIDFORMAT
  1
GRIDFORMAT_BEGIN
 90
        0
 91
        1
 62
     0
 92
       -2
340
14
 93
        0
 40
0.045
309
GRIDFORMAT_END
 95
        8
302
GRIDFORMAT
  1
GRIDFORMAT_BEGIN
 90
        0
 91
        1
 62
     0
 92
       -2
340
14
 93
        0
 40
0.045
309
GRIDFORMAT_END
 95
       16
302
GRIDFORMAT
  1
GRIDFORMAT_BEGIN
 90
        0
 91
        1
 62
     0
 92
       -2
340
14
 93
        0
 40
0.045
309
GRIDFORMAT_END
 95
       32
302
GRIDFORMAT
  1
GRIDFORMAT_BEGIN
 90
        0
 91
        1
 62
     0
 92
       -2
340
14
 93
        0
 40
0.045
309
GRIDFORMAT_END
309
TABLEFORMAT_END
  1
CELLSTYLE_BEGIN
 90
        2
 91
        1
300
_HEADER
309
CELLSTYLE_END
300
CELLSTYLE
  1
TABLEFORMAT_BEGIN
 90
        5
170
     1
 91
        0
 92
        0
 62
   257
 93
        1
300
CONTENTFORMAT
  1
CONTENTFORMAT_BEGIN
 90
        0
 91
        0
 92
        4
 93
        0
300

 40
0.0
140
1.0
 94
        2
 62
     0
340
11
144
4.5
309
CONTENTFORMAT_END
171
     1
301
MARGIN
  1
CELLMARGIN_BEGIN
 40
1.5
 40
1.5
 40
1.5
 40
1.5
 40
0.18
 40
0.18
309
CELLMARGIN_END
 94
        6
 95
        1
302
GRIDFORMAT
  1
GRIDFORMAT_BEGIN
 90
        0
 91
        1
 62
     0
 92
       -2
340
14
 93
        0
 40
0.045
309
GRIDFORMAT_END
 95
        2
302
GRIDFORMAT
  1
GRIDFORMAT_BEGIN
 90
        0
 91
        1
 62
     0
 92
       -2
340
14
 93
        0
 40
0.045
309
GRIDFORMAT_END
 95
        4
302
GRIDFORMAT
  1
GRIDFORMAT_BEGIN
 90
        0
 91
        1
 62
     0
 92
       -2
340
14
 93
        0
 40
0.045
309
GRIDFORMAT_END
 95
        8
302
GRIDFORMAT
  1
GRIDFORMAT_BEGIN
 90
        0
 91
        1
 62
     0
 92
       -2
340
14
 93
        0
 40
0.045
309
GRIDFORMAT_END
 95
       16
302
GRIDFORMAT
  1
GRIDFORMAT_BEGIN
 90
        0
 91
        1
 62
     0
 92
       -2
340
14
 93
        0
 40
0.045
309
GRIDFORMAT_END
 95
       32
302
GRIDFORMAT
  1
GRIDFORMAT_BEGIN
 90
        0
 91
        1
 62
     0
 92
       -2
340
14
 93
        0
 40
0.045
309
GRIDFORMAT_END
309
TABLEFORMAT_END
  1
CELLSTYLE_BEGIN
 90
        3
 91
        2
300
_DATA
309
CELLSTYLE_END
  0
ENDSEC
  0
SECTION
  2
ACDSDATA
 70
     2
 71
     8
  0
ACDSSCHEMA
 90
        0
  1
AcDb_Thumbnail_Schema
  2
AcDbDs::ID
280
    10
 91
        8
  2
Thumbnail_Data
280
    15
 91
        0
101
ACDSRECORD
 95
        0
 90
        1
  2
AcDbDs::TreatedAsObjectData
280
     1
291
     1
101
ACDSRECORD
 95
        0
 90
        2
  2
AcDbDs::Legacy
280
     1
291
     1
101
ACDSRECORD
  1
AcDbDs::ID
 90
        3
  2
AcDs:Indexable
280
     1
291
     1
101
ACDSRECORD
  1
AcDbDs::ID
 90
        4
  2
AcDbDs::HandleAttribute
280
     7
282
     1
  0
ACDSSCHEMA
 90
        1
  1
AcDbDs::TreatedAsObjectDataSchema
  2
AcDbDs::TreatedAsObjectData
280
     1
 91
        0
  0
ACDSSCHEMA
 90
        2
  1
AcDbDs::LegacySchema
  2
AcDbDs::Legacy
280
     1
 91
        0
  0
ACDSSCHEMA
 90
        3
  1
AcDbDs::IndexedPropertySchema
  2
AcDs:Indexable
280
     1
 91
        0
  0
ACDSSCHEMA
 90
        4
  1
AcDbDs::HandleAttributeSchema
  2
AcDbDs::HandleAttribute
280
     7
 91
        1
284
     1
  0
ACDSRECORD
 90
        0
  2
AcDbDs::ID
280
    10
320
22
  2
Thumbnail_Data
280
    15
 94
     1030
310
89504E470D0A1A0A0000000D49484452000001000000007C0803000000B13B9E5A00000300504C5445FFFFFFFFFFFFFFFFFF0000000000000000000000000000000000000000000000000000330000660000990000CC0000FF0033000033330033660033990033CC0033FF0066000066330066660066990066CC0066FF0099
310
000099330099660099990099CC0099FF00CC0000CC3300CC6600CC9900CCCC00CCFF00FF0000FF3300FF6600FF9900FFCC00FFFF3300003300333300663300993300CC3300FF3333003333333333663333993333CC3333FF3366003366333366663366993366CC3366FF3399003399333399663399993399CC3399FF33CC00
310
33CC3333CC6633CC9933CCCC33CCFF33FF0033FF3333FF6633FF9933FFCC33FFFF6600006600336600666600996600CC6600FF6633006633336633666633996633CC6633FF6666006666336666666666996666CC6666FF6699006699336699666699996699CC6699FF66CC0066CC3366CC6666CC9966CCCC66CCFF66FF0066
310
FF3366FF6666FF9966FFCC66FFFF9900009900339900669900999900CC9900FF9933009933339933669933999933CC9933FF9966009966339966669966999966CC9966FF9999009999339999669999999999CC9999FF99CC0099CC3399CC6699CC9999CCCC99CCFF99FF0099FF3399FF6699FF9999FFCC99FFFFCC0000CC00
310
33CC0066CC0099CC00CCCC00FFCC3300CC3333CC3366CC3399CC33CCCC33FFCC6600CC6633CC6666CC6699CC66CCCC66FFCC9900CC9933CC9966CC9999CC99CCCC99FFCCCC00CCCC33CCCC66CCCC99CCCCCCCCCCFFCCFF00CCFF33CCFF66CCFF99CCFFCCCCFFFFFF0000FF0033FF0066FF0099FF00CCFF00FFFF3300FF3333
310
FF3366FF3399FF33CCFF33FFFF6600FF6633FF6666FF6699FF66CCFF66FFFF9900FF9933FF9966FF9999FF99CCFF99FFFFCC00FFCC33FFCC66FFCC99FFCCCCFFCCFFFFFF00FFFF33FFFF66FFFF99FFFFCCFFFFFF0000000D0D0D1A1A1A2828283535354343435050505D5D5D6B6B6B787878868686939393A1A1A1AEAEAEBB
310
BBBBC9C9C9D6D6D6E4E4E4F1F1F1FFFFFF000000000000000000000000000000000000000000000000000000000000AD4AB4E4000000C14944415478DAEDD7410E44501045D1DAFF32FF4A440C84A43030E0BF7327DD52264E74D1559224499224499224497AB7B1D64FDA690AC0FA3939407B89DB640000000040324001C8
310
0618002AF74DF0721AB4030A00000096A03B000000000000000000000000000000000000000000000000000000000000000000000000000080FF5DFAB90793D904BAA3D19F2649D33F0552006E8E01000000200060DFFFA900876F0000D80179778025E827100D90FC2294FE77589224499224499224E91B2D8D8953F2D6A8
310
C9FD0000000049454E44AE426082
  0
ENDSEC
  0
EOF
