  0
SECTION
  2
HEADER
  9
$ACADVER
  1
AC1015
  9
$ACADMAINTVER
 70
    20
  9
$DWGCODEPAGE
  3
ANSI_1252
  9
$INSBASE
 10
0.0
 20
0.0
 30
0.0
  9
$EXTMIN
 10
-239.8597820000001
 20
20.975048
 30
0.0
  9
$EXTMAX
 10
670.125346
 20
751.6703129999998
 30
0.0
  9
$LIMMIN
 10
-0.5
 20
-0.5
  9
$LIMMAX
 10
5.0
 20
5.0
  9
$ORTHOMODE
 70
     0
  9
$REGENMODE
 70
     1
  9
$FILLMODE
 70
     1
  9
$QTEXTMODE
 70
     0
  9
$MIRRTEXT
 70
     1
  9
$LTSCALE
 40
1.0
  9
$ATTMODE
 70
     1
  9
$TEXTSIZE
 40
0.2
  9
$TRACEWID
 40
0.05
  9
$TEXTSTYLE
  7
Standard
  9
$CLAYER
  8
0
  9
$CELTYPE
  6
ByLayer
  9
$CECOLOR
 62
   256
  9
$CELTSCALE
 40
1.0
  9
$DISPSILH
 70
     0
  9
$DIMSCALE
 40
1.0
  9
$DIMASZ
 40
0.18
  9
$DIMEXO
 40
0.0625
  9
$DIMDLI
 40
0.38
  9
$DIMRND
 40
0.0
  9
$DIMDLE
 40
0.0
  9
$DIMEXE
 40
0.18
  9
$DIMTP
 40
0.0
  9
$DIMTM
 40
0.0
  9
$DIMTXT
 40
0.18
  9
$DIMCEN
 40
0.09
  9
$DIMTSZ
 40
0.0
  9
$DIMTOL
 70
     0
  9
$DIMLIM
 70
     0
  9
$DIMTIH
 70
     1
  9
$DIMTOH
 70
     1
  9
$DIMSE1
 70
     0
  9
$DIMSE2
 70
     0
  9
$DIMTAD
 70
     0
  9
$DIMZIN
 70
     0
  9
$DIMBLK
  1

  9
$DIMASO
 70
     1
  9
$DIMSHO
 70
     1
  9
$DIMPOST
  1

  9
$DIMAPOST
  1

  9
$DIMALT
 70
     0
  9
$DIMALTD
 70
     2
  9
$DIMALTF
 40
25.4
  9
$DIMLFAC
 40
1.0
  9
$DIMTOFL
 70
     0
  9
$DIMTVP
 40
0.0
  9
$DIMTIX
 70
     0
  9
$DIMSOXD
 70
     0
  9
$DIMSAH
 70
     0
  9
$DIMBLK1
  1

  9
$DIMBLK2
  1

  9
$DIMSTYLE
  2
Standard
  9
$DIMCLRD
 70
     0
  9
$DIMCLRE
 70
     0
  9
$DIMCLRT
 70
     0
  9
$DIMTFAC
 40
1.0
  9
$DIMGAP
 40
0.09
  9
$DIMJUST
 70
     0
  9
$DIMSD1
 70
     0
  9
$DIMSD2
 70
     0
  9
$DIMTOLJ
 70
     1
  9
$DIMTZIN
 70
     0
  9
$DIMALTZ
 70
     0
  9
$DIMALTTZ
 70
     0
  9
$DIMUPT
 70
     0
  9
$DIMDEC
 70
     4
  9
$DIMTDEC
 70
     4
  9
$DIMALTU
 70
     2
  9
$DIMALTTD
 70
     2
  9
$DIMTXSTY
  7
Standard
  9
$DIMAUNIT
 70
     0
  9
$DIMADEC
 70
     0
  9
$DIMALTRND
 40
0.0
  9
$DIMAZIN
 70
     0
  9
$DIMDSEP
 70
    46
  9
$DIMATFIT
 70
     3
  9
$DIMFRAC
 70
     0
  9
$DIMLDRBLK
  1

  9
$DIMLUNIT
 70
     2
  9
$DIMLWD
 70
    -2
  9
$DIMLWE
 70
    -2
  9
$DIMTMOVE
 70
     0
  9
$LUNITS
 70
     2
  9
$LUPREC
 70
     4
  9
$SKETCHINC
 40
0.1
  9
$FILLETRAD
 40
0.5
  9
$AUNITS
 70
     0
  9
$AUPREC
 70
     0
  9
$MENU
  1
.
  9
$ELEVATION
 40
0.0
  9
$PELEVATION
 40
0.0
  9
$THICKNESS
 40
0.0
  9
$LIMCHECK
 70
     0
  9
$CHAMFERA
 40
0.5
  9
$CHAMFERB
 40
0.5
  9
$CHAMFERC
 40
1.0
  9
$CHAMFERD
 40
0.0
  9
$SKPOLY
 70
     0
  9
$TDCREATE
 40
2454358.331147836
  9
$TDUCREATE
 40
2454358.247814502
  9
$TDUPDATE
 40
2455058.402234861
  9
$TDUUPDATE
 40
2455058.318901528
  9
$TDINDWG
 40
0.0063071181
  9
$TDUSRTIMER
 40
0.0063060301
  9
$USRTIMER
 70
     1
  9
$ANGBASE
 50
0.0
  9
$ANGDIR
 70
     0
  9
$PDMODE
 70
     0
  9
$PDSIZE
 40
0.0
  9
$PLINEWID
 40
0.0
  9
$SPLFRAME
 70
     0
  9
$SPLINETYPE
 70
     6
  9
$SPLINESEGS
 70
     8
  9
$HANDSEED
  5
1E6
  9
$SURFTAB1
 70
     6
  9
$SURFTAB2
 70
     6
  9
$SURFTYPE
 70
     6
  9
$SURFU
 70
     6
  9
$SURFV
 70
     6
  9
$UCSBASE
  2

  9
$UCSNAME
  2

  9
$UCSORG
 10
0.0
 20
0.0
 30
0.0
  9
$UCSXDIR
 10
1.0
 20
0.0
 30
0.0
  9
$UCSYDIR
 10
0.0
 20
1.0
 30
0.0
  9
$UCSORTHOREF
  2

  9
$UCSORTHOVIEW
 70
     0
  9
$UCSORGTOP
 10
0.0
 20
0.0
 30
0.0
  9
$UCSORGBOTTOM
 10
0.0
 20
0.0
 30
0.0
  9
$UCSORGLEFT
 10
0.0
 20
0.0
 30
0.0
  9
$UCSORGRIGHT
 10
0.0
 20
0.0
 30
0.0
  9
$UCSORGFRONT
 10
0.0
 20
0.0
 30
0.0
  9
$UCSORGBACK
 10
0.0
 20
0.0
 30
0.0
  9
$PUCSBASE
  2

  9
$PUCSNAME
  2

  9
$PUCSORG
 10
0.0
 20
0.0
 30
0.0
  9
$PUCSXDIR
 10
1.0
 20
0.0
 30
0.0
  9
$PUCSYDIR
 10
0.0
 20
1.0
 30
0.0
  9
$PUCSORTHOREF
  2

  9
$PUCSORTHOVIEW
 70
     0
  9
$PUCSORGTOP
 10
0.0
 20
0.0
 30
0.0
  9
$PUCSORGBOTTOM
 10
0.0
 20
0.0
 30
0.0
  9
$PUCSORGLEFT
 10
0.0
 20
0.0
 30
0.0
  9
$PUCSORGRIGHT
 10
0.0
 20
0.0
 30
0.0
  9
$PUCSORGFRONT
 10
0.0
 20
0.0
 30
0.0
  9
$PUCSORGBACK
 10
0.0
 20
0.0
 30
0.0
  9
$USERI1
 70
     0
  9
$USERI2
 70
     0
  9
$USERI3
 70
     0
  9
$USERI4
 70
     0
  9
$USERI5
 70
     0
  9
$USERR1
 40
0.0
  9
$USERR2
 40
0.0
  9
$USERR3
 40
0.0
  9
$USERR4
 40
0.0
  9
$USERR5
 40
0.0
  9
$WORLDVIEW
 70
     1
  9
$SHADEDGE
 70
     3
  9
$SHADEDIF
 70
    70
  9
$TILEMODE
 70
     1
  9
$MAXACTVP
 70
    64
  9
$PINSBASE
 10
0.0
 20
0.0
 30
0.0
  9
$PLIMCHECK
 70
     0
  9
$PEXTMIN
 10
-0.5
 20
-0.5
 30
-0.5
  9
$PEXTMAX
 10
5.0
 20
5.0
 30
5.0
  9
$PLIMMIN
 10
-0.5
 20
-0.5
  9
$PLIMMAX
 10
5.0
 20
5.0
  9
$UNITMODE
 70
     0
  9
$VISRETAIN
 70
     1
  9
$PLINEGEN
 70
     0
  9
$PSLTSCALE
 70
     1
  9
$TREEDEPTH
 70
  3020
  9
$CMLSTYLE
  2
Standard
  9
$CMLJUST
 70
     0
  9
$CMLSCALE
 40
1.0
  9
$PROXYGRAPHICS
 70
     1
  9
$MEASUREMENT
 70
     1
  9
$CELWEIGHT
370
    -1
  9
$ENDCAPS
280
     0
  9
$JOINSTYLE
280
     0
  9
$LWDISPLAY
290
     0
  9
$INSUNITS
 70
     1
  9
$HYPERLINKBASE
  1

  9
$STYLESHEET
  1

  9
$XEDIT
290
     1
  9
$CEPSNTYPE
380
     0
  9
$PSTYLEMODE
290
     1
  9
$FINGERPRINTGUID
  2
{72345E11-71F7-0D0E-5B7C-1D5C09D26A6C}
  9
$VERSIONGUID
  2
{DCB3F572-1F7F-4CCE-9354-3B3498AFD327}
  9
$EXTNAMES
290
     1
  9
$PSVPSCALE
 40
0.0
  9
$OLESTARTUP
290
     0
  0
ENDSEC
  0
SECTION
  2
CLASSES
  0
CLASS
  1
ACDBDICTIONARYWDFLT
  2
AcDbDictionaryWithDefault
  3
ObjectDBX Classes
 90
        0
280
     0
281
     0
  0
CLASS
  1
ACDBPLACEHOLDER
  2
AcDbPlaceHolder
  3
ObjectDBX Classes
 90
        0
280
     0
281
     0
  0
CLASS
  1
LAYOUT
  2
AcDbLayout
  3
ObjectDBX Classes
 90
        0
280
     0
281
     0
  0
CLASS
  1
MATERIAL
  2
AcDbMaterial
  3
ObjectDBX Classes
 90
     1024
280
     0
281
     0
  0
CLASS
  1
VISUALSTYLE
  2
AcDbVisualStyle
  3
ObjectDBX Classes
 90
     4095
280
     0
281
     0
  0
CLASS
  1
TABLESTYLE
  2
AcDbTableStyle
  3
ObjectDBX Classes
 90
     4095
280
     0
281
     0
  0
CLASS
  1
DICTIONARYVAR
  2
AcDbDictionaryVar
  3
ObjectDBX Classes
 90
        0
280
     0
281
     0
  0
ENDSEC
  0
SECTION
  2
TABLES
  0
TABLE
  2
VPORT
  5
8
330
0
100
AcDbSymbolTable
 70
    17
  0
VPORT
  5
29
330
8
100
AcDbSymbolTableRecord
100
AcDbViewportTableRecord
  2
DUMMY
 70
     0
 10
0.0
 20
0.0
 11
1.0
 21
1.0
 12
10.429907
 22
4.5
 13
0.0
 23
0.0
 14
0.5
 24
0.5
 15
0.5
 25
0.5
 16
0.0
 26
0.0
 36
1.0
 17
0.0
 27
0.0
 37
0.0
 40
9.0
 41
1.972972999999999
 42
50.0
 43
0.0
 44
0.0
 50
0.0
 51
0.0
 71
     0
 72
   100
 73
     1
 74
     3
 75
     0
 76
     0
 77
     0
 78
     0
281
     0
 65
     1
110
0.0
120
0.0
130
0.0
111
1.0
121
0.0
131
0.0
112
0.0
122
1.0
132
0.0
 79
     0
146
0.0
  0
VPORT
  5
12A
330
8
100
AcDbSymbolTableRecord
100
AcDbViewportTableRecord
  2
*ACTIVE
 70
     0
 10
0.0
 20
0.0
 11
1.0
 21
1.0
 12
176.090300671422
 22
425.9854352342173
 13
0.0
 23
0.0
 14
0.5
 24
0.5
 15
0.5
 25
0.5
 16
0.0
 26
0.0
 36
1.0
 17
0.0
 27
0.0
 37
0.0
 40
929.9235231767841
 41
1.611036339165545
 42
50.0
 43
1495.008748
 44
-1495.008748
 50
0.0
 51
0.0
 71
     0
 72
   100
 73
     1
 74
     3
 75
     0
 76
     0
 77
     0
 78
     0
281
     0
 65
     1
110
0.0
120
0.0
130
0.0
111
1.0
121
0.0
131
0.0
112
0.0
122
1.0
132
0.0
 79
     0
146
0.0
  0
VPORT
  5
12B
330
8
100
AcDbSymbolTableRecord
100
AcDbViewportTableRecord
  2
L1
 70
     0
 10
0.0
 20
0.0
 11
1.0
 21
1.0
 12
367.629064
 22
386.32268
 13
0.0
 23
0.0
 14
0.5
 24
0.5
 15
0.5
 25
0.5
 16
0.0
 26
0.0
 36
1.0
 17
0.0
 27
0.0
 37
0.0
 40
254.0
 41
0.069908
 42
50.0
 43
1495.008748
 44
-1495.008748
 50
0.0
 51
0.0
 71
     0
 72
   100
 73
     1
 74
     3
 75
     0
 76
     0
 77
     0
 78
     0
281
     0
 65
     1
110
0.0
120
0.0
130
0.0
111
1.0
121
0.0
131
0.0
112
0.0
122
1.0
132
0.0
 79
     0
146
0.0
  0
VPORT
  5
12C
330
8
100
AcDbSymbolTableRecord
100
AcDbViewportTableRecord
  2
L2
 70
     0
 10
0.0
 20
0.0
 11
0.5
 21
1.0
 12
0.0
 22
0.0
 13
0.0
 23
0.0
 14
0.5
 24
0.5
 15
0.5
 25
0.5
 16
0.0
 26
-1.0
 36
0.0
 17
0.0
 27
0.0
 37
0.0
 40
1319.822715
 41
0.013454
 42
50.0
 43
672.020833
 44
-672.020833
 50
0.0
 51
0.0
 71
     0
 72
   100
 73
     1
 74
     3
 75
     0
 76
     0
 77
     0
 78
     0
281
     0
 65
     1
110
0.0
120
0.0
130
0.0
111
1.0
121
0.0
131
0.0
112
0.0
122
1.0
132
0.0
 79
     0
146
0.0
  0
VPORT
  5
12D
330
8
100
AcDbSymbolTableRecord
100
AcDbViewportTableRecord
  2
L2
 70
     0
 10
0.5
 20
0.0
 11
1.0
 21
1.0
 12
0.0
 22
0.0
 13
0.0
 23
0.0
 14
0.5
 24
0.5
 15
0.5
 25
0.5
 16
1.0
 26
0.0
 36
0.0
 17
0.0
 27
0.0
 37
0.0
 40
1319.822715
 41
0.013454
 42
50.0
 43
672.020833
 44
-672.020833
 50
0.0
 51
0.0
 71
     0
 72
   100
 73
     1
 74
     3
 75
     0
 76
     0
 77
     0
 78
     0
281
     0
 65
     1
110
0.0
120
0.0
130
0.0
111
1.0
121
0.0
131
0.0
112
0.0
122
1.0
132
0.0
 79
     0
146
0.0
  0
VPORT
  5
12E
330
8
100
AcDbSymbolTableRecord
100
AcDbViewportTableRecord
  2
L3
 70
     0
 10
0.0
 20
0.5
 11
1.0
 21
1.0
 12
367.629064
 22
386.32268
 13
0.0
 23
0.0
 14
0.5
 24
0.5
 15
0.5
 25
0.5
 16
0.0
 26
0.0
 36
1.0
 17
0.0
 27
0.0
 37
0.0
 40
254.0
 41
0.069908
 42
50.0
 43
1495.008748
 44
-1495.008748
 50
0.0
 51
0.0
 71
     0
 72
   100
 73
     1
 74
     3
 75
     0
 76
     0
 77
     0
 78
     0
281
     0
 65
     1
110
0.0
120
0.0
130
0.0
111
1.0
121
0.0
131
0.0
112
0.0
122
1.0
132
0.0
 79
     0
146
0.0
  0
VPORT
  5
12F
330
8
100
AcDbSymbolTableRecord
100
AcDbViewportTableRecord
  2
L3
 70
     0
 10
0.0
 20
0.0
 11
1.0
 21
0.5
 12
0.0
 22
0.0
 13
0.0
 23
0.0
 14
0.5
 24
0.5
 15
0.5
 25
0.5
 16
0.0
 26
-1.0
 36
0.0
 17
0.0
 27
0.0
 37
0.0
 40
1319.822715
 41
0.013454
 42
50.0
 43
672.020833
 44
-672.020833
 50
0.0
 51
0.0
 71
     0
 72
   100
 73
     1
 74
     3
 75
     0
 76
     0
 77
     0
 78
     0
281
     0
 65
     1
110
0.0
120
0.0
130
0.0
111
1.0
121
0.0
131
0.0
112
0.0
122
1.0
132
0.0
 79
     0
146
0.0
  0
VPORT
  5
130
330
8
100
AcDbSymbolTableRecord
100
AcDbViewportTableRecord
  2
L4
 70
     0
 10
0.0
 20
0.5
 11
0.5
 21
1.0
 12
367.629064
 22
386.32268
 13
0.0
 23
0.0
 14
0.5
 24
0.5
 15
0.5
 25
0.5
 16
0.0
 26
0.0
 36
1.0
 17
0.0
 27
0.0
 37
0.0
 40
254.0
 41
0.069908
 42
50.0
 43
1495.008748
 44
-1495.008748
 50
0.0
 51
0.0
 71
     0
 72
   100
 73
     1
 74
     3
 75
     0
 76
     0
 77
     0
 78
     0
281
     0
 65
     1
110
0.0
120
0.0
130
0.0
111
1.0
121
0.0
131
0.0
112
0.0
122
1.0
132
0.0
 79
     0
146
0.0
  0
VPORT
  5
131
330
8
100
AcDbSymbolTableRecord
100
AcDbViewportTableRecord
  2
L4
 70
     0
 10
0.0
 20
0.0
 11
0.5
 21
0.5
 12
0.0
 22
0.0
 13
0.0
 23
0.0
 14
0.5
 24
0.5
 15
0.5
 25
0.5
 16
0.0
 26
-1.0
 36
0.0
 17
0.0
 27
0.0
 37
0.0
 40
1319.822715
 41
0.013454
 42
50.0
 43
672.020833
 44
-672.020833
 50
0.0
 51
0.0
 71
     0
 72
   100
 73
     1
 74
     3
 75
     0
 76
     0
 77
     0
 78
     0
281
     0
 65
     1
110
0.0
120
0.0
130
0.0
111
1.0
121
0.0
131
0.0
112
0.0
122
1.0
132
0.0
 79
     0
146
0.0
  0
VPORT
  5
132
330
8
100
AcDbSymbolTableRecord
100
AcDbViewportTableRecord
  2
L4
 70
     0
 10
0.5
 20
0.0
 11
1.0
 21
0.5
 12
0.0
 22
0.0
 13
0.0
 23
0.0
 14
0.5
 24
0.5
 15
0.5
 25
0.5
 16
1.0
 26
0.0
 36
0.0
 17
0.0
 27
0.0
 37
0.0
 40
1319.822715
 41
0.013454
 42
50.0
 43
672.020833
 44
-672.020833
 50
0.0
 51
0.0
 71
     0
 72
   100
 73
     1
 74
     3
 75
     0
 76
     0
 77
     0
 78
     0
281
     0
 65
     1
110
0.0
120
0.0
130
0.0
111
1.0
121
0.0
131
0.0
112
0.0
122
1.0
132
0.0
 79
     0
146
0.0
  0
VPORT
  5
133
330
8
100
AcDbSymbolTableRecord
100
AcDbViewportTableRecord
  2
L4
 70
     0
 10
0.5
 20
0.5
 11
1.0
 21
1.0
 12
0.0
 22
0.0
 13
0.0
 23
0.0
 14
0.5
 24
0.5
 15
0.5
 25
0.5
 16
0.577350269189626
 26
-0.577350269189626
 36
0.577350269189626
 17
0.0
 27
0.0
 37
0.0
 40
1285.020866
 41
0.013818
 42
50.0
 43
667.141407
 44
-667.141407
 50
0.0
 51
0.0
 71
     0
 72
   100
 73
     1
 74
     3
 75
     0
 76
     0
 77
     0
 78
     0
281
     0
 65
     1
110
0.0
120
0.0
130
0.0
111
1.0
121
0.0
131
0.0
112
0.0
122
1.0
132
0.0
 79
     0
146
0.0
  0
VPORT
  5
134
330
8
100
AcDbSymbolTableRecord
100
AcDbViewportTableRecord
  2
L6
 70
     0
 10
0.0
 20
0.5
 11
0.333333
 21
1.0
 12
0.0
 22
0.0
 13
0.0
 23
0.0
 14
0.5
 24
0.5
 15
0.5
 25
0.5
 16
0.7188730927569436
 26
-0.5850486126764432
 36
0.3754192287502549
 17
0.0
 27
0.0
 37
0.0
 40
1357.434192
 41
0.013081
 42
50.0
 43
701.839477
 44
-701.839477
 50
0.0
 51
0.0
 71
     0
 72
   100
 73
     1
 74
     3
 75
     0
 76
     0
 77
     0
 78
     0
281
     0
 65
     1
110
0.0
120
0.0
130
0.0
111
1.0
121
0.0
131
0.0
112
0.0
122
1.0
132
0.0
 79
     0
146
0.0
  0
VPORT
  5
135
330
8
100
AcDbSymbolTableRecord
100
AcDbViewportTableRecord
  2
L6
 70
     0
 10
0.0
 20
0.0
 11
0.333333
 21
0.5
 12
0.0
 22
0.0
 13
0.0
 23
0.0
 14
0.5
 24
0.5
 15
0.5
 25
0.5
 16
-1.0
 26
0.0
 36
0.0
 17
0.0
 27
0.0
 37
0.0
 40
1319.822715
 41
0.013454
 42
50.0
 43
672.020833
 44
-672.020833
 50
0.0
 51
0.0
 71
     0
 72
   100
 73
     1
 74
     3
 75
     0
 76
     0
 77
     0
 78
     0
281
     0
 65
     1
110
0.0
120
0.0
130
0.0
111
1.0
121
0.0
131
0.0
112
0.0
122
1.0
132
0.0
 79
     0
146
0.0
  0
VPORT
  5
136
330
8
100
AcDbSymbolTableRecord
100
AcDbViewportTableRecord
  2
L6
 70
     0
 10
0.333333
 20
0.5
 11
0.666667
 21
1.0
 12
367.629064
 22
386.32268
 13
0.0
 23
0.0
 14
0.5
 24
0.5
 15
0.5
 25
0.5
 16
0.0
 26
0.0
 36
1.0
 17
0.0
 27
0.0
 37
0.0
 40
254.0
 41
0.069908
 42
50.0
 43
1495.008748
 44
-1495.008748
 50
0.0
 51
0.0
 71
     0
 72
   100
 73
     1
 74
     3
 75
     0
 76
     0
 77
     0
 78
     0
281
     0
 65
     1
110
0.0
120
0.0
130
0.0
111
1.0
121
0.0
131
0.0
112
0.0
122
1.0
132
0.0
 79
     0
146
0.0
  0
VPORT
  5
137
330
8
100
AcDbSymbolTableRecord
100
AcDbViewportTableRecord
  2
L6
 70
     0
 10
0.333333
 20
0.0
 11
0.666667
 21
0.5
 12
0.0
 22
0.0
 13
0.0
 23
0.0
 14
0.5
 24
0.5
 15
0.5
 25
0.5
 16
0.0
 26
-1.0
 36
0.0
 17
0.0
 27
0.0
 37
0.0
 40
1319.822715
 41
0.013454
 42
50.0
 43
672.020833
 44
-672.020833
 50
0.0
 51
0.0
 71
     0
 72
   100
 73
     1
 74
     3
 75
     0
 76
     0
 77
     0
 78
     0
281
     0
 65
     1
110
0.0
120
0.0
130
0.0
111
1.0
121
0.0
131
0.0
112
0.0
122
1.0
132
0.0
 79
     0
146
0.0
  0
VPORT
  5
138
330
8
100
AcDbSymbolTableRecord
100
AcDbViewportTableRecord
  2
L6
 70
     0
 10
0.666667
 20
0.5
 11
1.0
 21
1.0
 12
0.0
 22
0.0
 13
0.0
 23
0.0
 14
0.5
 24
0.5
 15
0.5
 25
0.5
 16
0.577350269189626
 26
-0.577350269189626
 36
0.577350269189626
 17
0.0
 27
0.0
 37
0.0
 40
1285.020866
 41
0.013818
 42
50.0
 43
667.141407
 44
-667.141407
 50
0.0
 51
0.0
 71
     0
 72
   100
 73
     1
 74
     3
 75
     0
 76
     0
 77
     0
 78
     0
281
     0
 65
     1
110
0.0
120
0.0
130
0.0
111
1.0
121
0.0
131
0.0
112
0.0
122
1.0
132
0.0
 79
     0
146
0.0
  0
VPORT
  5
139
330
8
100
AcDbSymbolTableRecord
100
AcDbViewportTableRecord
  2
L6
 70
     0
 10
0.666667
 20
0.0
 11
1.0
 21
0.5
 12
0.0
 22
0.0
 13
0.0
 23
0.0
 14
0.5
 24
0.5
 15
0.5
 25
0.5
 16
1.0
 26
0.0
 36
0.0
 17
0.0
 27
0.0
 37
0.0
 40
1319.822715
 41
0.013454
 42
50.0
 43
672.020833
 44
-672.020833
 50
0.0
 51
0.0
 71
     0
 72
   100
 73
     1
 74
     3
 75
     0
 76
     0
 77
     0
 78
     0
281
     0
 65
     1
110
0.0
120
0.0
130
0.0
111
1.0
121
0.0
131
0.0
112
0.0
122
1.0
132
0.0
 79
     0
146
0.0
  0
ENDTAB
  0
TABLE
  2
LTYPE
  5
5
330
0
100
AcDbSymbolTable
 70
     1
  0
LTYPE
  5
14
330
5
100
AcDbSymbolTableRecord
100
AcDbLinetypeTableRecord
  2
ByBlock
 70
     0
  3

 72
    65
 73
     0
 40
0.0
  0
LTYPE
  5
15
330
5
100
AcDbSymbolTableRecord
100
AcDbLinetypeTableRecord
  2
ByLayer
 70
     0
  3

 72
    65
 73
     0
 40
0.0
  0
LTYPE
  5
16
330
5
100
AcDbSymbolTableRecord
100
AcDbLinetypeTableRecord
  2
Continuous
 70
     0
  3
Solid line
 72
    65
 73
     0
 40
0.0
  0
ENDTAB
  0
TABLE
  2
LAYER
  5
2
102
{ACAD_XDICTIONARY
360
19A
102
}
330
0
100
AcDbSymbolTable
 70
     5
  0
LAYER
  5
10
330
2
100
AcDbSymbolTableRecord
100
AcDbLayerTableRecord
  2
0
 70
     0
 62
     7
  6
Continuous
370
    -3
390
F
  0
LAYER
  5
31
330
2
100
AcDbSymbolTableRecord
100
AcDbLayerTableRecord
  2
1
 70
     0
 62
     7
  6
Continuous
370
    -3
390
F
  0
LAYER
  5
197
330
2
100
AcDbSymbolTableRecord
100
AcDbLayerTableRecord
  2
HEWI
 70
     0
 62
     7
  6
Continuous
370
    -3
390
F
1001
AcAecLayerStandard
1000

1000

  0
LAYER
  5
199
330
2
100
AcDbSymbolTableRecord
100
AcDbLayerTableRecord
  2
Polyamid
 70
     0
 62
   141
  6
Continuous
370
    -3
390
F
1001
AcAecLayerStandard
1000

1000

  0
LAYER
  5
1A0
330
2
100
AcDbSymbolTableRecord
100
AcDbLayerTableRecord
  2
Defpoints
 70
     0
 62
     7
  6
Continuous
290
     0
370
    -3
390
F
  0
ENDTAB
  0
TABLE
  2
STYLE
  5
3
330
0
100
AcDbSymbolTable
 70
     1
  0
STYLE
  5
11
330
3
100
AcDbSymbolTableRecord
100
AcDbTextStyleTableRecord
  2
Standard
 70
     0
 40
0.0
 41
1.0
 50
0.0
 71
     0
 42
0.2
  3
txt
  4

  0
ENDTAB
  0
TABLE
  2
VIEW
  5
6
330
0
100
AcDbSymbolTable
 70
     8
  0
VIEW
  5
122
330
6
100
AcDbSymbolTableRecord
100
AcDbViewTableRecord
  2
TOP
 70
     0
 40
254.0
 10
367.629064
 20
386.32268
 41
254.0
 11
0.0
 21
0.0
 31
1.0
 12
0.0
 22
0.0
 32
0.0
 42
50.0
 43
1495.008748
 44
-1495.008748
 50
0.0
 71
     0
281
     0
 72
     0
  0
VIEW
  5
123
330
6
100
AcDbSymbolTableRecord
100
AcDbViewTableRecord
  2
FRONT
 70
     0
 40
1319.822715
 10
0.0
 20
0.0
 41
254.0
 11
0.0
 21
-1.0
 31
0.0
 12
0.0
 22
0.0
 32
0.0
 42
50.0
 43
672.020833
 44
-672.020833
 50
0.0
 71
     0
281
     0
 72
     0
  0
VIEW
  5
124
330
6
100
AcDbSymbolTableRecord
100
AcDbViewTableRecord
  2
RIGHT
 70
     0
 40
1319.822715
 10
0.0
 20
0.0
 41
254.0
 11
1.0
 21
0.0
 31
0.0
 12
0.0
 22
0.0
 32
0.0
 42
50.0
 43
672.020833
 44
-672.020833
 50
0.0
 71
     0
281
     0
 72
     0
  0
VIEW
  5
125
330
6
100
AcDbSymbolTableRecord
100
AcDbViewTableRecord
  2
BACK
 70
     0
 40
1319.822715
 10
0.0
 20
0.0
 41
254.0
 11
0.0
 21
1.0
 31
0.0
 12
0.0
 22
0.0
 32
0.0
 42
50.0
 43
672.020833
 44
-672.020833
 50
0.0
 71
     0
281
     0
 72
     0
  0
VIEW
  5
126
330
6
100
AcDbSymbolTableRecord
100
AcDbViewTableRecord
  2
BOTTOM
 70
     0
 40
254.0
 10
0.0
 20
0.0
 41
254.0
 11
0.0
 21
0.0
 31
-1.0
 12
0.0
 22
0.0
 32
0.0
 42
50.0
 43
659.911358
 44
-659.911358
 50
180.0
 71
     0
281
     0
 72
     0
  0
VIEW
  5
127
330
6
100
AcDbSymbolTableRecord
100
AcDbViewTableRecord
  2
LEFT
 70
     0
 40
1319.822715
 10
0.0
 20
0.0
 41
254.0
 11
-1.0
 21
0.0
 31
0.0
 12
0.0
 22
0.0
 32
0.0
 42
50.0
 43
672.020833
 44
-672.020833
 50
0.0
 71
     0
281
     0
 72
     0
  0
VIEW
  5
128
330
6
100
AcDbSymbolTableRecord
100
AcDbViewTableRecord
  2
TFR-ISO
 70
     0
 40
1285.020866
 10
0.0
 20
0.0
 41
359.210245
 11
0.577350269189626
 21
-0.577350269189626
 31
0.577350269189626
 12
0.0
 22
0.0
 32
0.0
 42
50.0
 43
667.141407
 44
-667.141407
 50
0.0
 71
     0
281
     0
 72
     0
  0
VIEW
  5
129
330
6
100
AcDbSymbolTableRecord
100
AcDbViewTableRecord
  2
TFR-TRI
 70
     0
 40
1357.434192
 10
0.0
 20
0.0
 41
357.33321
 11
0.7188730927569436
 21
-0.5850486126764432
 31
0.3754192287502549
 12
0.0
 22
0.0
 32
0.0
 42
50.0
 43
701.839477
 44
-701.839477
 50
0.0
 71
     0
281
     0
 72
     0
  0
ENDTAB
  0
TABLE
  2
UCS
  5
7
330
0
100
AcDbSymbolTable
 70
     0
  0
ENDTAB
  0
TABLE
  2
APPID
  5
9
330
0
100
AcDbSymbolTable
 70
     2
  0
APPID
  5
12
330
9
100
AcDbSymbolTableRecord
100
AcDbRegAppTableRecord
  2
ACAD
 70
     0
  0
APPID
  5
198
330
9
100
AcDbSymbolTableRecord
100
AcDbRegAppTableRecord
  2
AcAecLayerStandard
 70
     0
  0
ENDTAB
  0
TABLE
  2
DIMSTYLE
  5
A
330
0
100
AcDbSymbolTable
 70
     1
100
AcDbDimStyleTable
 71
     1
340
27
  0
DIMSTYLE
105
27
330
A
100
AcDbSymbolTableRecord
100
AcDbDimStyleTableRecord
  2
Standard
 70
     0
340
11
  0
ENDTAB
  0
TABLE
  2
BLOCK_RECORD
  5
1
330
0
100
AcDbSymbolTable
 70
     2
  0
BLOCK_RECORD
  5
1F
330
1
100
AcDbSymbolTableRecord
100
AcDbBlockTableRecord
  2
*Model_Space
340
22
  0
BLOCK_RECORD
  5
1B
330
1
100
AcDbSymbolTableRecord
100
AcDbBlockTableRecord
  2
*Paper_Space
340
1E
  0
BLOCK_RECORD
  5
23
330
1
100
AcDbSymbolTableRecord
100
AcDbBlockTableRecord
  2
*Paper_Space0
340
26
  0
BLOCK_RECORD
  5
1D0
330
1
100
AcDbSymbolTableRecord
100
AcDbBlockTableRecord
  2
*D1
340
0
  0
ENDTAB
  0
ENDSEC
  0
SECTION
  2
BLOCKS
  0
BLOCK
  5
20
330
1F
100
AcDbEntity
  8
0
100
AcDbBlockBegin
  2
*Model_Space
 70
     0
 10
0.0
 20
0.0
 30
0.0
  3
*Model_Space
  1

  0
ENDBLK
  5
21
330
1F
100
AcDbEntity
  8
0
100
AcDbBlockEnd
  0
BLOCK
  5
1C
330
1B
100
AcDbEntity
 67
     1
  8
0
100
AcDbBlockBegin
  2
*Paper_Space
 70
     0
 10
0.0
 20
0.0
 30
0.0
  3
*Paper_Space
  1

  0
ENDBLK
  5
1D
330
1B
100
AcDbEntity
 67
     1
  8
0
100
AcDbBlockEnd
  0
BLOCK
  5
24
330
23
100
AcDbEntity
 67
     1
  8
0
100
AcDbBlockBegin
  2
*Paper_Space0
 70
     0
 10
0.0
 20
0.0
 30
0.0
  3
*Paper_Space0
  1

  0
ENDBLK
  5
25
330
23
100
AcDbEntity
 67
     1
  8
0
100
AcDbBlockEnd
  0
BLOCK
  5
1DB
330
1D0
100
AcDbEntity
  8
0
100
AcDbBlockBegin
  2
*D1
 70
     1
 10
0.0
 20
0.0
 30
0.0
  3
*D1
  1

  0
LINE
  5
1D1
330
1D0
100
AcDbEntity
  8
0
 62
     0
370
    -2
100
AcDbLine
 10
96.632782
 20
206.037548
 30
0.0
 11
96.632782
 21
281.8023075946129
 31
0.0
  0
LINE
  5
1D2
330
1D0
100
AcDbEntity
  8
0
 62
     0
370
    -2
100
AcDbLine
 10
333.632782
 20
206.037548
 30
0.0
 11
333.632782
 21
281.8023075946129
 31
0.0
  0
LINE
  5
1D3
330
1D0
100
AcDbEntity
  8
0
 62
     0
370
    -2
100
AcDbLine
 10
96.81278200000001
 20
281.622307594613
 30
0.0
 11
214.4727819999999
 21
281.622307594613
 31
0.0
  0
LINE
  5
1D4
330
1D0
100
AcDbEntity
  8
0
 62
     0
370
    -2
100
AcDbLine
 10
333.4527819999999
 20
281.622307594613
 30
0.0
 11
215.792782
 21
281.622307594613
 31
0.0
  0
SOLID
  5
1D5
330
1D0
100
AcDbEntity
  8
0
 62
     0
100
AcDbTrace
 10
96.81278200000001
 20
281.6523075946129
 30
0.0
 11
96.81278200000001
 21
281.592307594613
 31
0.0
 12
96.632782
 22
281.622307594613
 32
0.0
 13
96.632782
 23
281.622307594613
 33
0.0
  0
SOLID
  5
1D6
330
1D0
100
AcDbEntity
  8
0
 62
     0
100
AcDbTrace
 10
333.4527819999999
 20
281.6523075946129
 30
0.0
 11
333.4527819999999
 21
281.592307594613
 31
0.0
 12
333.632782
 22
281.622307594613
 32
0.0
 13
333.632782
 23
281.622307594613
 33
0.0
  0
MTEXT
  5
1D7
330
1D0
100
AcDbEntity
  8
0
 62
     0
100
AcDbMText
 10
215.132782
 20
281.622307594613
 30
0.0
 40
0.18
 41
0.0
 71
     5
 72
     1
  1
\A1;237.0000
 73
     1
 44
1.0
1001
ACAD
1000
MTEXTBEGIN
1070
    73
1070
     1
1070
    44
1040
1.0
1070
    74
1070
     0
1000
MTEXTEND
  0
POINT
  5
1D8
330
1D0
100
AcDbEntity
  8
Defpoints
 62
     0
100
AcDbPoint
 10
96.632782
 20
205.975048
 30
0.0
  0
POINT
  5
1D9
330
1D0
100
AcDbEntity
  8
Defpoints
 62
     0
100
AcDbPoint
 10
333.632782
 20
205.975048
 30
0.0
  0
POINT
  5
1DA
330
1D0
100
AcDbEntity
  8
Defpoints
 62
     0
100
AcDbPoint
 10
333.632782
 20
281.622307594613
 30
0.0
  0
ENDBLK
  5
1DC
330
1D0
100
AcDbEntity
  8
0
100
AcDbBlockEnd
  0
ENDSEC
  0
SECTION
  2
ENTITIES
  0
LINE
  5
32
330
1F
100
AcDbEntity
  8
Polyamid
100
AcDbLine
 10
364.966807
 20
751.1790389999998
 30
0.0
 11
350.132782
 21
751.1790389999998
 31
0.0
  0
LINE
  5
33
330
1F
100
AcDbEntity
  8
Polyamid
100
AcDbLine
 10
364.966807
 20
751.1790389999998
 30
0.0
 11
365.132782
 21
741.670313
 31
0.0
  0
LINE
  5
34
330
1F
100
AcDbEntity
  8
Polyamid
100
AcDbLine
 10
365.132782
 20
741.670313
 30
0.0
 11
350.132782
 21
741.670313
 31
0.0
  0
LINE
  5
35
330
1F
100
AcDbEntity
  8
Polyamid
100
AcDbLine
 10
65.13278199999999
 20
741.670313
 30
0.0
 11
65.29875699999999
 21
751.1790389999998
 31
0.0
  0
LINE
  5
36
330
1F
100
AcDbEntity
  8
Polyamid
100
AcDbLine
 10
80.132782
 20
751.1790389999998
 30
0.0
 11
65.29875699999999
 21
751.1790389999998
 31
0.0
  0
LINE
  5
38
330
1F
100
AcDbEntity
  8
Polyamid
100
AcDbLine
 10
80.132782
 20
741.670313
 30
0.0
 11
65.13278199999999
 21
741.670313
 31
0.0
  0
LINE
  5
39
330
1F
100
AcDbEntity
  8
Polyamid
100
AcDbLine
 10
350.132782
 20
751.1790389999998
 30
0.0
 11
80.132782
 21
751.1790389999998
 31
0.0
  0
LINE
  5
3A
330
1F
100
AcDbEntity
  8
Polyamid
100
AcDbLine
 10
80.132782
 20
741.670313
 30
0.0
 11
350.132782
 21
741.670313
 31
0.0
  0
LINE
  5
3B
330
1F
100
AcDbEntity
  8
Polyamid
100
AcDbLine
 10
350.132782
 20
751.6703129999998
 30
0.0
 11
364.466883
 21
751.6703129999998
 31
0.0
  0
LINE
  5
3D
330
1F
100
AcDbEntity
  8
Polyamid
100
AcDbLine
 10
65.798681
 20
751.6703129999998
 30
0.0
 11
80.132782
 21
751.6703129999998
 31
0.0
  0
LINE
  5
3F
330
1F
100
AcDbEntity
  8
Polyamid
100
AcDbLine
 10
80.132782
 20
751.6703129999998
 30
0.0
 11
350.132782
 21
751.6703129999998
 31
0.0
  0
LINE
  5
40
330
1F
100
AcDbEntity
  8
Polyamid
100
AcDbLine
 10
365.091669
 20
745.1716519999998
 30
0.0
 11
365.039312
 21
748.171195
 31
0.0
  0
LINE
  5
41
330
1F
100
AcDbEntity
  8
Polyamid
100
AcDbLine
 10
365.091669
 20
745.1716519999998
 30
0.0
 11
365.0716720000001
 21
745.1713019999998
 31
0.0
  0
LINE
  5
42
330
1F
100
AcDbEntity
  8
Polyamid
100
AcDbLine
 10
365.039312
 20
748.171195
 30
0.0
 11
365.019315
 21
748.170846
 31
0.0
  0
LINE
  5
43
330
1F
100
AcDbEntity
  8
HEWI
100
AcDbLine
 10
65.13278199999999
 20
241.670312
 30
0.0
 11
65.13278199999999
 21
741.670313
 31
0.0
  0
LINE
  5
44
330
1F
100
AcDbEntity
  8
Polyamid
100
AcDbLine
 10
65.13278199999999
 20
741.670313
 30
0.0
 11
80.132782
 21
741.670313
 31
0.0
  0
LINE
  5
46
330
1F
100
AcDbEntity
  8
HEWI
100
AcDbLine
 10
80.132782
 20
241.670312
 30
0.0
 11
65.13278199999999
 21
241.670312
 31
0.0
  0
LINE
  5
48
330
1F
100
AcDbEntity
  8
HEWI
100
AcDbLine
 10
365.132782
 20
741.670313
 30
0.0
 11
365.132782
 21
241.670312
 31
0.0
  0
LINE
  5
49
330
1F
100
AcDbEntity
  8
HEWI
100
AcDbLine
 10
365.132782
 20
241.670312
 30
0.0
 11
350.132782
 21
241.670312
 31
0.0
  0
LINE
  5
4A
330
1F
100
AcDbEntity
  8
Polyamid
100
AcDbLine
 10
350.132782
 20
741.670313
 30
0.0
 11
365.132782
 21
741.670313
 31
0.0
  0
LINE
  5
4B
330
1F
100
AcDbEntity
  8
HEWI
100
AcDbLine
 10
80.132782
 20
241.670312
 30
0.0
 11
350.132782
 21
241.670312
 31
0.0
  0
LINE
  5
4C
330
1F
100
AcDbEntity
  8
Polyamid
100
AcDbLine
 10
350.132782
 20
741.670313
 30
0.0
 11
80.132782
 21
741.670313
 31
0.0
  0
LINE
  5
4D
330
1F
100
AcDbEntity
  8
HEWI
100
AcDbLine
 10
485.1253459999998
 20
271.6703129999999
 30
0.0
 11
498.6253459999998
 21
271.6703129999999
 31
0.0
  0
LINE
  5
50
330
1F
100
AcDbEntity
  8
HEWI
100
AcDbLine
 10
485.1253459999998
 20
271.6703129999999
 30
0.0
 11
485.1253459999998
 21
720.1703129999998
 31
0.0
  0
LINE
  5
51
330
1F
100
AcDbEntity
  8
HEWI
100
AcDbLine
 10
485.1253459999998
 20
721.6703129999999
 30
0.0
 11
498.6253459999998
 21
721.6703129999999
 31
0.0
  0
LINE
  5
53
330
1F
100
AcDbEntity
  8
HEWI
100
AcDbLine
 10
485.1253459999998
 20
720.1703129999998
 30
0.0
 11
485.1253459999998
 21
721.6703129999999
 31
0.0
  0
LINE
  5
54
330
1F
100
AcDbEntity
  8
HEWI
100
AcDbLine
 10
500.125346
 20
718.6703129999998
 30
0.0
 11
500.0395599999998
 21
718.6703129999998
 31
0.0
  0
LINE
  5
55
330
1F
100
AcDbEntity
  8
HEWI
100
AcDbLine
 10
500.125346
 20
271.6703129999999
 30
0.0
 11
498.6253459999998
 21
271.6703129999999
 31
0.0
  0
LINE
  5
57
330
1F
100
AcDbEntity
  8
HEWI
100
AcDbLine
 10
500.0395599999998
 20
720.1703129999998
 30
0.0
 11
500.0395599999998
 21
718.6703129999998
 31
0.0
  0
LINE
  5
58
330
1F
100
AcDbEntity
  8
HEWI
100
AcDbLine
 10
500.0395599999998
 20
720.1703129999998
 30
0.0
 11
500.0395599999998
 21
720.670313
 31
0.0
  0
LINE
  5
59
330
1F
100
AcDbEntity
  8
Polyamid
100
AcDbLine
 10
500.125346
 20
741.670313
 30
0.0
 11
500.2913219999999
 21
751.1790389999998
 31
0.0
  0
LINE
  5
5A
330
1F
100
AcDbEntity
  8
Polyamid
100
AcDbLine
 10
500.2913219999999
 20
751.1790389999998
 30
0.0
 11
515.125346
 21
751.1790389999998
 31
0.0
  0
LINE
  5
5C
330
1F
100
AcDbEntity
  8
Polyamid
100
AcDbLine
 10
515.125346
 20
741.670313
 30
0.0
 11
500.125346
 21
741.670313
 31
0.0
  0
LINE
  5
5E
330
1F
100
AcDbEntity
  8
Polyamid
100
AcDbLine
 10
669.959371
 20
751.1790389999998
 30
0.0
 11
655.125346
 21
751.1790389999998
 31
0.0
  0
LINE
  5
5F
330
1F
100
AcDbEntity
  8
Polyamid
100
AcDbLine
 10
669.959371
 20
751.1790389999998
 30
0.0
 11
670.125346
 21
741.670313
 31
0.0
  0
LINE
  5
60
330
1F
100
AcDbEntity
  8
Polyamid
100
AcDbLine
 10
670.125346
 20
741.670313
 30
0.0
 11
655.125346
 21
741.670313
 31
0.0
  0
LINE
  5
61
330
1F
100
AcDbEntity
  8
Polyamid
100
AcDbLine
 10
655.125346
 20
751.1790389999998
 30
0.0
 11
515.125346
 21
751.1790389999998
 31
0.0
  0
LINE
  5
62
330
1F
100
AcDbEntity
  8
Polyamid
100
AcDbLine
 10
515.125346
 20
741.670313
 30
0.0
 11
655.125346
 21
741.670313
 31
0.0
  0
LINE
  5
63
330
1F
100
AcDbEntity
  8
Polyamid
100
AcDbLine
 10
655.125346
 20
751.6703129999998
 30
0.0
 11
669.4594469999998
 21
751.6703129999998
 31
0.0
  0
LINE
  5
65
330
1F
100
AcDbEntity
  8
Polyamid
100
AcDbLine
 10
500.791245
 20
751.6703129999998
 30
0.0
 11
515.125346
 21
751.6703129999998
 31
0.0
  0
LINE
  5
67
330
1F
100
AcDbEntity
  8
Polyamid
100
AcDbLine
 10
515.125346
 20
751.6703129999998
 30
0.0
 11
655.125346
 21
751.6703129999998
 31
0.0
  0
LINE
  5
68
330
1F
100
AcDbEntity
  8
HEWI
100
AcDbLine
 10
500.125346
 20
241.670312
 30
0.0
 11
500.125346
 21
741.670313
 31
0.0
  0
LINE
  5
6A
330
1F
100
AcDbEntity
  8
Polyamid
100
AcDbLine
 10
500.125346
 20
741.670313
 30
0.0
 11
515.125346
 21
741.670313
 31
0.0
  0
LINE
  5
6B
330
1F
100
AcDbEntity
  8
HEWI
100
AcDbLine
 10
500.125346
 20
241.670312
 30
0.0
 11
515.125346
 21
241.670312
 31
0.0
  0
LINE
  5
6D
330
1F
100
AcDbEntity
  8
Polyamid
100
AcDbLine
 10
655.125346
 20
741.670313
 30
0.0
 11
515.125346
 21
741.670313
 31
0.0
  0
LINE
  5
6E
330
1F
100
AcDbEntity
  8
HEWI
100
AcDbLine
 10
515.125346
 20
241.670312
 30
0.0
 11
655.125346
 21
241.670312
 31
0.0
  0
LINE
  5
6F
330
1F
100
AcDbEntity
  8
HEWI
100
AcDbLine
 10
670.125346
 20
741.670313
 30
0.0
 11
670.125346
 21
241.670312
 31
0.0
  0
LINE
  5
70
330
1F
100
AcDbEntity
  8
Polyamid
100
AcDbLine
 10
670.125346
 20
741.670313
 30
0.0
 11
655.125346
 21
741.670313
 31
0.0
  0
LINE
  5
71
330
1F
100
AcDbEntity
  8
HEWI
100
AcDbLine
 10
670.125346
 20
241.670312
 30
0.0
 11
655.125346
 21
241.670312
 31
0.0
  0
LINE
  5
72
330
1F
100
AcDbEntity
  8
1
 62
    15
100
AcDbLine
 10
365.019315
 20
169.527548
 30
0.0
 11
365.055834
 21
168.991308
 31
0.0
  0
LINE
  5
73
330
1F
100
AcDbEntity
  8
1
 62
    15
100
AcDbLine
 10
365.039312
 20
166.940048
 30
0.0
 11
365.039312
 21
166.302548
 31
0.0
  0
LINE
  5
74
330
1F
100
AcDbEntity
  8
1
 62
    15
100
AcDbLine
 10
365.039312
 20
166.302548
 30
0.0
 11
365.019315
 21
166.302548
 31
0.0
  0
LINE
  5
75
330
1F
100
AcDbEntity
  8
1
 62
    15
100
AcDbLine
 10
365.019315
 20
166.940048
 30
0.0
 11
365.019315
 21
166.302548
 31
0.0
  0
LINE
  5
76
330
1F
100
AcDbEntity
  8
1
 62
    15
100
AcDbLine
 10
365.075831
 20
168.991308
 30
0.0
 11
365.039312
 21
168.533788
 31
0.0
  0
LINE
  5
77
330
1F
100
AcDbEntity
  8
1
 62
    15
100
AcDbLine
 10
365.039312
 20
168.533788
 30
0.0
 11
365.019315
 21
168.533788
 31
0.0
  0
LINE
  5
78
330
1F
100
AcDbEntity
  8
1
 62
    15
100
AcDbLine
 10
365.055834
 20
168.991308
 30
0.0
 11
365.019315
 21
168.533788
 31
0.0
  0
LINE
  5
79
330
1F
100
AcDbEntity
  8
1
 62
    15
100
AcDbLine
 10
365.039312
 20
167.922548
 30
0.0
 11
365.075569
 21
167.461288
 31
0.0
  0
LINE
  5
7A
330
1F
100
AcDbEntity
  8
1
 62
    15
100
AcDbLine
 10
365.039312
 20
168.533788
 30
0.0
 11
365.039312
 21
167.922548
 31
0.0
  0
LINE
  5
7B
330
1F
100
AcDbEntity
  8
1
 62
    15
100
AcDbLine
 10
365.091669
 20
168.702548
 30
0.0
 11
365.091669
 21
169.291308
 31
0.0
  0
LINE
  5
7C
330
1F
100
AcDbEntity
  8
1
 62
    15
100
AcDbLine
 10
365.055935
 20
168.222548
 30
0.0
 11
365.091669
 21
168.702548
 31
0.0
  0
LINE
  5
7D
330
1F
100
AcDbEntity
  8
1
 62
    15
100
AcDbLine
 10
365.039312
 20
170.975048
 30
0.0
 11
365.039312
 21
170.352548
 31
0.0
  0
LINE
  5
7E
330
1F
100
AcDbEntity
  8
1
 62
    15
100
AcDbLine
 10
365.019315
 20
170.975048
 30
0.0
 11
365.019315
 21
170.352548
 31
0.0
  0
LINE
  5
7F
330
1F
100
AcDbEntity
  8
1
 62
    15
100
AcDbLine
 10
365.039312
 20
170.975048
 30
0.0
 11
365.019315
 21
170.975048
 31
0.0
  0
LINE
  5
80
330
1F
100
AcDbEntity
  8
1
 62
    15
100
AcDbLine
 10
365.039312
 20
170.352548
 30
0.0
 11
365.019315
 21
170.352548
 31
0.0
  0
LINE
  5
81
330
1F
100
AcDbEntity
  8
1
 62
    15
100
AcDbLine
 10
365.091669
 20
170.352548
 30
0.0
 11
365.091669
 21
170.975048
 31
0.0
  0
LINE
  5
82
330
1F
100
AcDbEntity
  8
1
 62
    15
100
AcDbLine
 10
365.091669
 20
170.975048
 30
0.0
 11
365.039312
 21
170.975048
 31
0.0
  0
LINE
  5
83
330
1F
100
AcDbEntity
  8
1
 62
    15
100
AcDbLine
 10
365.039312
 20
170.352548
 30
0.0
 11
365.091669
 21
170.352548
 31
0.0
  0
LINE
  5
84
330
1F
100
AcDbEntity
  8
1
 62
    15
100
AcDbLine
 10
365.075569
 20
167.461288
 30
0.0
 11
365.055572
 21
167.461288
 31
0.0
  0
LINE
  5
85
330
1F
100
AcDbEntity
  8
1
 62
    15
100
AcDbLine
 10
365.075569
 20
167.461288
 30
0.0
 11
365.039312
 21
166.940048
 31
0.0
  0
LINE
  5
86
330
1F
100
AcDbEntity
  8
1
 62
    15
100
AcDbLine
 10
365.039312
 20
166.940048
 30
0.0
 11
365.019315
 21
166.940048
 31
0.0
  0
LINE
  5
87
330
1F
100
AcDbEntity
  8
1
 62
    15
100
AcDbLine
 10
365.055572
 20
167.461288
 30
0.0
 11
365.019315
 21
166.940048
 31
0.0
  0
LINE
  5
88
330
1F
100
AcDbEntity
  8
1
 62
    15
100
AcDbLine
 10
365.039312
 20
170.191308
 30
0.0
 11
365.019315
 21
170.191308
 31
0.0
  0
LINE
  5
89
330
1F
100
AcDbEntity
  8
1
 62
    15
100
AcDbLine
 10
365.039312
 20
170.191308
 30
0.0
 11
365.039312
 21
169.527548
 31
0.0
  0
LINE
  5
8A
330
1F
100
AcDbEntity
  8
1
 62
    15
100
AcDbLine
 10
365.039312
 20
169.527548
 30
0.0
 11
365.019315
 21
169.527548
 31
0.0
  0
LINE
  5
8B
330
1F
100
AcDbEntity
  8
1
 62
    15
100
AcDbLine
 10
365.019315
 20
170.191308
 30
0.0
 11
365.019315
 21
169.527548
 31
0.0
  0
LINE
  5
8C
330
1F
100
AcDbEntity
  8
1
 62
    15
100
AcDbLine
 10
365.039312
 20
169.527548
 30
0.0
 11
365.075831
 21
168.991308
 31
0.0
  0
LINE
  5
8D
330
1F
100
AcDbEntity
  8
1
 62
    15
100
AcDbLine
 10
365.075831
 20
168.991308
 30
0.0
 11
365.055834
 21
168.991308
 31
0.0
  0
LINE
  5
8E
330
1F
100
AcDbEntity
  8
1
 62
    15
100
AcDbLine
 10
365.091669
 20
167.735048
 30
0.0
 11
365.055935
 21
168.222548
 31
0.0
  0
LINE
  5
8F
330
1F
100
AcDbEntity
  8
1
 62
    15
100
AcDbLine
 10
365.091669
 20
167.146288
 30
0.0
 11
365.091669
 21
167.735048
 31
0.0
  0
LINE
  5
90
330
1F
100
AcDbEntity
  8
1
 62
    15
100
AcDbLine
 10
365.091669
 20
169.291308
 30
0.0
 11
365.039312
 21
170.191308
 31
0.0
  0
LINE
  5
91
330
1F
100
AcDbEntity
  8
1
 62
    15
100
AcDbLine
 10
365.039312
 20
166.302548
 30
0.0
 11
365.091669
 21
167.146288
 31
0.0
  0
LINE
  5
92
330
1F
100
AcDbEntity
  8
1
 62
    15
100
AcDbLine
 10
365.039312
 20
167.922548
 30
0.0
 11
365.019315
 21
167.922548
 31
0.0
  0
LINE
  5
93
330
1F
100
AcDbEntity
  8
1
 62
    15
100
AcDbLine
 10
365.019315
 20
168.533788
 30
0.0
 11
365.019315
 21
167.922548
 31
0.0
  0
LINE
  5
94
330
1F
100
AcDbEntity
  8
1
 62
    15
100
AcDbLine
 10
365.019315
 20
167.922548
 30
0.0
 11
365.055572
 21
167.461288
 31
0.0
  0
LINE
  5
9B
330
1F
100
AcDbEntity
  8
1
 62
   252
100
AcDbLine
 10
107.132782
 20
190.9750479999999
 30
0.0
 11
107.132782
 21
191.060835
 31
0.0
  0
LINE
  5
A2
330
1F
100
AcDbEntity
  8
HEWI
100
AcDbLine
 10
96.632782
 20
205.975048
 30
0.0
 11
333.632782
 21
205.975048
 31
0.0
  0
LINE
  5
A3
330
1F
100
AcDbEntity
  8
HEWI
100
AcDbLine
 10
335.132782
 20
205.975048
 30
0.0
 11
335.132782
 21
192.475048
 31
0.0
  0
LINE
  5
A4
330
1F
100
AcDbEntity
  8
HEWI
100
AcDbLine
 10
333.632782
 20
205.975048
 30
0.0
 11
335.132782
 21
205.975048
 31
0.0
  0
LINE
  5
A5
330
1F
100
AcDbEntity
  8
HEWI
100
AcDbLine
 10
95.132782
 20
192.475048
 30
0.0
 11
95.132782
 21
205.975048
 31
0.0
  0
LINE
  5
A6
330
1F
100
AcDbEntity
  8
HEWI
100
AcDbLine
 10
95.132782
 20
205.975048
 30
0.0
 11
96.632782
 21
205.975048
 31
0.0
  0
LINE
  5
A8
330
1F
100
AcDbEntity
  8
1
 62
   252
100
AcDbLine
 10
105.132782
 20
191.060845
 30
0.0
 11
105.132782
 21
190.9750479999999
 31
0.0
  0
LINE
  5
A9
330
1F
100
AcDbEntity
  8
1
 62
    15
100
AcDbLine
 10
365.039312
 20
166.212548
 30
0.0
 11
365.019315
 21
166.212548
 31
0.0
  0
LINE
  5
AA
330
1F
100
AcDbEntity
  8
1
 62
    15
100
AcDbLine
 10
365.039312
 20
166.212548
 30
0.0
 11
365.039312
 21
164.337548
 31
0.0
  0
LINE
  5
AB
330
1F
100
AcDbEntity
  8
1
 62
    15
100
AcDbLine
 10
365.039312
 20
164.337548
 30
0.0
 11
365.019315
 21
164.337548
 31
0.0
  0
LINE
  5
AC
330
1F
100
AcDbEntity
  8
1
 62
    15
100
AcDbLine
 10
365.019315
 20
166.212548
 30
0.0
 11
365.019315
 21
164.337548
 31
0.0
  0
LINE
  5
AD
330
1F
100
AcDbEntity
  8
1
 62
    15
100
AcDbLine
 10
365.091669
 20
166.212548
 30
0.0
 11
365.082899
 21
166.212548
 31
0.0
  0
LINE
  5
AE
330
1F
100
AcDbEntity
  8
1
 62
    15
100
AcDbLine
 10
365.091669
 20
164.337548
 30
0.0
 11
365.091669
 21
166.212548
 31
0.0
  0
LINE
  5
AF
330
1F
100
AcDbEntity
  8
1
 62
    15
100
AcDbLine
 10
365.039312
 20
164.337548
 30
0.0
 11
365.091669
 21
164.337548
 31
0.0
  0
LINE
  5
B0
330
1F
100
AcDbEntity
  8
1
 62
    15
100
AcDbLine
 10
365.048474
 20
166.212548
 30
0.0
 11
365.039312
 21
166.212548
 31
0.0
  0
LINE
  5
B1
330
1F
100
AcDbEntity
  8
1
 62
    15
100
AcDbLine
 10
365.048474
 20
164.941308
 30
0.0
 11
365.048474
 21
166.212548
 31
0.0
  0
LINE
  5
B2
330
1F
100
AcDbEntity
  8
1
 62
    15
100
AcDbLine
 10
365.060189
 20
164.941308
 30
0.0
 11
365.048474
 21
164.941308
 31
0.0
  0
LINE
  5
B3
330
1F
100
AcDbEntity
  8
1
 62
    15
100
AcDbLine
 10
365.060189
 20
166.111308
 30
0.0
 11
365.060189
 21
164.941308
 31
0.0
  0
LINE
  5
B4
330
1F
100
AcDbEntity
  8
1
 62
    15
100
AcDbLine
 10
365.068501
 20
166.111308
 30
0.0
 11
365.060189
 21
166.111308
 31
0.0
  0
LINE
  5
B5
330
1F
100
AcDbEntity
  8
1
 62
    15
100
AcDbLine
 10
365.068501
 20
164.941308
 30
0.0
 11
365.068501
 21
166.111308
 31
0.0
  0
LINE
  5
B6
330
1F
100
AcDbEntity
  8
1
 62
    15
100
AcDbLine
 10
365.082899
 20
164.941308
 30
0.0
 11
365.068501
 21
164.941308
 31
0.0
  0
LINE
  5
B7
330
1F
100
AcDbEntity
  8
1
 62
    15
100
AcDbLine
 10
365.082899
 20
166.212548
 30
0.0
 11
365.082899
 21
164.941308
 31
0.0
  0
LINE
  5
B8
330
1F
100
AcDbEntity
  8
1
 62
    15
100
AcDbLine
 10
365.060189
 20
166.111308
 30
0.0
 11
365.048475
 21
166.111308
 31
0.0
  0
LINE
  5
B9
330
1F
100
AcDbEntity
  8
1
 62
    15
100
AcDbLine
 10
365.082899
 20
166.212548
 30
0.0
 11
365.062902
 21
166.212548
 31
0.0
  0
LINE
  5
BA
330
1F
100
AcDbEntity
  8
1
 62
    15
100
AcDbLine
 10
365.062902
 20
166.212548
 30
0.0
 11
365.062902
 21
166.111306
 31
0.0
  0
LINE
  5
BB
330
1F
100
AcDbEntity
  8
Polyamid
100
AcDbLine
 10
343.1415859999999
 20
167.984004
 30
0.0
 11
342.641586
 21
167.984004
 31
0.0
  0
LINE
  5
BC
330
1F
100
AcDbEntity
  8
Polyamid
100
AcDbLine
 10
342.141738
 20
168.983852
 30
0.0
 11
342.141738
 21
168.483852
 31
0.0
  0
LINE
  5
BD
330
1F
100
AcDbEntity
  8
Polyamid
100
AcDbLine
 10
88.12382599999997
 20
43.466244
 30
0.0
 11
88.12382599999997
 21
42.966244
 31
0.0
  0
LINE
  5
BE
330
1F
100
AcDbEntity
  8
Polyamid
100
AcDbLine
 10
87.623978
 20
43.96609199999999
 30
0.0
 11
87.12397800000003
 21
43.96609199999999
 31
0.0
  0
LINE
  5
BF
330
1F
100
AcDbEntity
  8
Polyamid
100
AcDbLine
 10
343.1415859999999
 20
167.984004
 30
0.0
 11
343.1415859999999
 21
43.96609199999999
 31
0.0
  0
LINE
  5
C0
330
1F
100
AcDbEntity
  8
Polyamid
100
AcDbLine
 10
343.1415859999999
 20
43.96609199999999
 30
0.0
 11
342.641586
 21
43.96609199999999
 31
0.0
  0
LINE
  5
C1
330
1F
100
AcDbEntity
  8
Polyamid
100
AcDbLine
 10
342.641662
 20
43.96609199999999
 30
0.0
 11
342.641662
 21
167.984004
 31
0.0
  0
LINE
  5
C2
330
1F
100
AcDbEntity
  8
Polyamid
100
AcDbLine
 10
88.12382599999997
 20
43.46616799999998
 30
0.0
 11
342.141738
 21
43.46616799999998
 31
0.0
  0
LINE
  5
C3
330
1F
100
AcDbEntity
  8
Polyamid
100
AcDbLine
 10
342.141738
 20
43.466244
 30
0.0
 11
342.141738
 21
42.966244
 31
0.0
  0
LINE
  5
C4
330
1F
100
AcDbEntity
  8
Polyamid
100
AcDbLine
 10
342.141738
 20
42.966244
 30
0.0
 11
88.12382599999997
 21
42.966244
 31
0.0
  0
LINE
  5
C5
330
1F
100
AcDbEntity
  8
Polyamid
100
AcDbLine
 10
88.12382599999997
 20
168.983852
 30
0.0
 11
342.141738
 21
168.983852
 31
0.0
  0
LINE
  5
C6
330
1F
100
AcDbEntity
  8
Polyamid
100
AcDbLine
 10
87.12397800000003
 20
43.96609199999999
 30
0.0
 11
87.12397800000003
 21
167.984004
 31
0.0
  0
LINE
  5
C7
330
1F
100
AcDbEntity
  8
Polyamid
100
AcDbLine
 10
80.132782
 20
21.640947
 30
0.0
 11
350.132782
 21
21.640947
 31
0.0
  0
LINE
  5
C8
330
1F
100
AcDbEntity
  8
Polyamid
100
AcDbLine
 10
65.798681
 20
175.975048
 30
0.0
 11
65.798681
 21
35.975048
 31
0.0
  0
LINE
  5
C9
330
1F
100
AcDbEntity
  8
Polyamid
100
AcDbLine
 10
350.132782
 20
190.309149
 30
0.0
 11
80.132782
 21
190.309149
 31
0.0
  0
LINE
  5
CA
330
1F
100
AcDbEntity
  8
Polyamid
100
AcDbLine
 10
364.466883
 20
35.975048
 30
0.0
 11
364.466883
 21
175.975048
 31
0.0
  0
LINE
  5
D7
330
1F
100
AcDbEntity
  8
Polyamid
100
AcDbLine
 10
88.12382599999997
 20
168.983852
 30
0.0
 11
88.12382599999997
 21
168.483852
 31
0.0
  0
LINE
  5
D8
330
1F
100
AcDbEntity
  8
Polyamid
100
AcDbLine
 10
87.623978
 20
167.984004
 30
0.0
 11
87.12397800000003
 21
167.984004
 31
0.0
  0
LINE
  5
D9
330
1F
100
AcDbEntity
  8
Polyamid
100
AcDbLine
 10
87.623902
 20
167.984004
 30
0.0
 11
87.623902
 21
43.96609199999999
 31
0.0
  0
LINE
  5
DA
330
1F
100
AcDbEntity
  8
Polyamid
100
AcDbLine
 10
342.141738
 20
168.483928
 30
0.0
 11
88.12382599999997
 21
168.483928
 31
0.0
  0
LINE
  5
DB
330
1F
100
AcDbEntity
  8
Polyamid
100
AcDbLine
 10
365.132782
 20
35.975048
 30
0.0
 11
365.132782
 21
175.975048
 31
0.0
  0
LINE
  5
DE
330
1F
100
AcDbEntity
  8
1
 62
    15
100
AcDbLine
 10
65.13278199999999
 20
35.975048
 30
0.0
 11
65.29875699999999
 21
35.975048
 31
0.0
  0
LINE
  5
E4
330
1F
100
AcDbEntity
  8
Polyamid
100
AcDbLine
 10
65.13278199999999
 20
175.975048
 30
0.0
 11
65.13278199999999
 21
35.975048
 31
0.0
  0
LINE
  5
E5
330
1F
100
AcDbEntity
  8
Polyamid
100
AcDbLine
 10
80.132782
 20
20.975048
 30
0.0
 11
350.132782
 21
20.975048
 31
0.0
  0
LINE
  5
E6
330
1F
100
AcDbEntity
  8
Polyamid
100
AcDbLine
 10
350.132782
 20
190.9750479999999
 30
0.0
 11
80.132782
 21
190.9750479999999
 31
0.0
  0
LINE
  5
E7
330
1F
100
AcDbEntity
  8
1
 62
    15
100
AcDbLine
 10
365.039312
 20
162.117548
 30
0.0
 11
365.019315
 21
162.117548
 31
0.0
  0
LINE
  5
E8
330
1F
100
AcDbEntity
  8
1
 62
    15
100
AcDbLine
 10
365.039312
 20
161.5137879999999
 30
0.0
 11
365.039312
 21
162.117548
 31
0.0
  0
LINE
  5
E9
330
1F
100
AcDbEntity
  8
1
 62
    15
100
AcDbLine
 10
365.019315
 20
161.5137879999999
 30
0.0
 11
365.019315
 21
162.117548
 31
0.0
  0
LINE
  5
EA
330
1F
100
AcDbEntity
  8
1
 62
    15
100
AcDbLine
 10
365.039312
 20
161.5137879999999
 30
0.0
 11
365.019315
 21
161.5137879999999
 31
0.0
  0
LINE
  5
EB
330
1F
100
AcDbEntity
  8
1
 62
    15
100
AcDbLine
 10
365.039312
 20
163.328788
 30
0.0
 11
365.039312
 21
163.932548
 31
0.0
  0
LINE
  5
EC
330
1F
100
AcDbEntity
  8
1
 62
    15
100
AcDbLine
 10
365.091669
 20
163.932548
 30
0.0
 11
365.091669
 21
163.328788
 31
0.0
  0
LINE
  5
ED
330
1F
100
AcDbEntity
  8
1
 62
    15
100
AcDbLine
 10
365.091669
 20
163.328788
 30
0.0
 11
365.068501
 21
163.328788
 31
0.0
  0
LINE
  5
EE
330
1F
100
AcDbEntity
  8
1
 62
    15
100
AcDbLine
 10
365.068501
 20
163.328788
 30
0.0
 11
365.068501
 21
162.117548
 31
0.0
  0
LINE
  5
EF
330
1F
100
AcDbEntity
  8
1
 62
    15
100
AcDbLine
 10
365.068501
 20
162.117548
 30
0.0
 11
365.091669
 21
162.117548
 31
0.0
  0
LINE
  5
F0
330
1F
100
AcDbEntity
  8
1
 62
    15
100
AcDbLine
 10
365.091669
 20
162.117548
 30
0.0
 11
365.091669
 21
161.5137879999999
 31
0.0
  0
LINE
  5
F1
330
1F
100
AcDbEntity
  8
1
 62
    15
100
AcDbLine
 10
365.060189
 20
162.117548
 30
0.0
 11
365.060189
 21
163.328788
 31
0.0
  0
LINE
  5
F2
330
1F
100
AcDbEntity
  8
1
 62
    15
100
AcDbLine
 10
365.060189
 20
163.328788
 30
0.0
 11
365.039312
 21
163.328788
 31
0.0
  0
LINE
  5
F3
330
1F
100
AcDbEntity
  8
1
 62
    15
100
AcDbLine
 10
365.039312
 20
163.932548
 30
0.0
 11
365.091669
 21
163.932548
 31
0.0
  0
LINE
  5
F4
330
1F
100
AcDbEntity
  8
1
 62
    15
100
AcDbLine
 10
365.039312
 20
162.117548
 30
0.0
 11
365.060189
 21
162.117548
 31
0.0
  0
LINE
  5
F5
330
1F
100
AcDbEntity
  8
1
 62
    15
100
AcDbLine
 10
365.091669
 20
161.5137879999999
 30
0.0
 11
365.039312
 21
161.5137879999999
 31
0.0
  0
LINE
  5
F6
330
1F
100
AcDbEntity
  8
1
 62
    15
100
AcDbLine
 10
365.019315
 20
163.328788
 30
0.0
 11
365.019315
 21
163.932548
 31
0.0
  0
LINE
  5
F7
330
1F
100
AcDbEntity
  8
1
 62
    15
100
AcDbLine
 10
365.039312
 20
163.328788
 30
0.0
 11
365.019315
 21
163.328788
 31
0.0
  0
LINE
  5
F8
330
1F
100
AcDbEntity
  8
1
 62
    15
100
AcDbLine
 10
365.039312
 20
163.932548
 30
0.0
 11
365.019315
 21
163.932548
 31
0.0
  0
LINE
  5
F9
330
1F
100
AcDbEntity
  8
1
 62
    15
100
AcDbLine
 10
365.040192
 20
162.117548
 30
0.0
 11
365.040192
 21
163.328788
 31
0.0
  0
LINE
  5
FA
330
1F
100
AcDbEntity
  8
HEWI
100
AcDbLine
 10
96.364833
 20
190.9750479999999
 30
0.0
 11
333.900731
 21
190.9750479999999
 31
0.0
  0
LINE
  5
FB
330
1F
100
AcDbEntity
  8
Polyamid
100
AcDbLine
 10
335.132782
 20
190.9750479999999
 30
0.0
 11
350.132782
 21
190.9750479999999
 31
0.0
  0
LINE
  5
FC
330
1F
100
AcDbEntity
  8
Polyamid
100
AcDbLine
 10
365.132782
 20
175.975048
 30
0.0
 11
365.132782
 21
35.975048
 31
0.0
  0
LINE
  5
FD
330
1F
100
AcDbEntity
  8
Polyamid
100
AcDbLine
 10
350.132782
 20
20.975048
 30
0.0
 11
80.132782
 21
20.975048
 31
0.0
  0
LINE
  5
FE
330
1F
100
AcDbEntity
  8
Polyamid
100
AcDbLine
 10
65.13278199999999
 20
35.975048
 30
0.0
 11
65.13278199999999
 21
175.975048
 31
0.0
  0
LINE
  5
FF
330
1F
100
AcDbEntity
  8
Polyamid
100
AcDbLine
 10
80.132782
 20
190.9750479999999
 30
0.0
 11
95.132782
 21
190.9750479999999
 31
0.0
  0
ARC
  5
100
330
1F
100
AcDbEntity
  8
Polyamid
100
AcDbCircle
 10
364.466883
 20
751.1703129999999
 30
0.0
 40
0.5
100
AcDbArc
 50
1.0
 51
90.0
  0
ARC
  5
101
330
1F
100
AcDbEntity
  8
Polyamid
100
AcDbCircle
 10
65.798681
 20
751.1703129999999
 30
0.0
 40
0.5
100
AcDbArc
 50
90.0
 51
179.0
  0
ARC
  5
102
330
1F
100
AcDbEntity
  8
HEWI
100
AcDbCircle
 10
-498.6253459999998
 20
720.1703129999998
 30
0.0
 40
1.5
210
0.0
220
0.0
230
-1.0
100
AcDbArc
 50
90.0
 51
160.528779
  0
ARC
  5
103
330
1F
100
AcDbEntity
  8
HEWI
100
AcDbCircle
 10
498.6253459999998
 20
720.1703129999998
 30
0.0
 40
1.5
100
AcDbArc
 50
0.0
 51
19.471221
  0
ARC
  5
104
330
1F
100
AcDbEntity
  8
Polyamid
100
AcDbCircle
 10
-669.4594469999998
 20
751.1703129999999
 30
0.0
 40
0.5
210
0.0
220
0.0
230
-1.0
100
AcDbArc
 50
90.0
 51
179.0
  0
ARC
  5
105
330
1F
100
AcDbEntity
  8
Polyamid
100
AcDbCircle
 10
-500.791245
 20
751.1703129999999
 30
0.0
 40
0.5
210
0.0
220
0.0
230
-1.0
100
AcDbArc
 50
1.0
 51
90.0
  0
ARC
  5
106
330
1F
100
AcDbEntity
  8
HEWI
100
AcDbCircle
 10
-333.632782
 20
192.475048
 30
0.0
 40
1.5
210
0.0
220
0.0
230
-1.0
100
AcDbArc
 50
180.0
 51
250.528779
  0
ARC
  5
107
330
1F
100
AcDbEntity
  8
HEWI
100
AcDbCircle
 10
-96.632782
 20
192.475048
 30
0.0
 40
1.5
210
0.0
220
0.0
230
-1.0
100
AcDbArc
 50
-70.528779
 51
0.0
  0
ARC
  5
108
330
1F
100
AcDbEntity
  8
HEWI
100
AcDbCircle
 10
333.632782
 20
192.475048
 30
0.0
 40
1.5
100
AcDbArc
 50
270.0
 51
289.471221
  0
ARC
  5
109
330
1F
100
AcDbEntity
  8
HEWI
100
AcDbCircle
 10
96.632782
 20
192.475048
 30
0.0
 40
1.5
100
AcDbArc
 50
250.528779
 51
270.0
  0
ARC
  5
10A
330
1F
100
AcDbEntity
  8
Polyamid
100
AcDbCircle
 10
80.132782
 20
35.975048
 30
0.0
 40
14.33410071915998
100
AcDbArc
 50
180.0
 51
270.0
  0
ARC
  5
10B
330
1F
100
AcDbEntity
  8
Polyamid
100
AcDbCircle
 10
80.132782
 20
175.975048
 30
0.0
 40
14.33410071915998
100
AcDbArc
 50
90.0
 51
180.0
  0
ARC
  5
10C
330
1F
100
AcDbEntity
  8
Polyamid
100
AcDbCircle
 10
350.132782
 20
175.975048
 30
0.0
 40
14.33410071915998
100
AcDbArc
 50
0.0
 51
90.0
  0
ARC
  5
10D
330
1F
100
AcDbEntity
  8
Polyamid
100
AcDbCircle
 10
350.132782
 20
35.975048
 30
0.0
 40
14.33410071915998
100
AcDbArc
 50
-90.0
 51
0.0
  0
ARC
  5
112
330
1F
100
AcDbEntity
  8
Polyamid
100
AcDbCircle
 10
-80.132782
 20
35.975048
 30
0.0
 40
15.0
210
0.0
220
0.0
230
-1.0
100
AcDbArc
 50
-90.0
 51
0.0
  0
ARC
  5
115
330
1F
100
AcDbEntity
  8
Polyamid
100
AcDbCircle
 10
-80.132782
 20
175.975048
 30
0.0
 40
15.0
210
0.0
220
0.0
230
-1.0
100
AcDbArc
 50
0.0
 51
90.0
  0
ARC
  5
116
330
1F
100
AcDbEntity
  8
Polyamid
100
AcDbCircle
 10
350.132782
 20
175.975048
 30
0.0
 40
15.0
100
AcDbArc
 50
0.0
 51
90.0
  0
ARC
  5
117
330
1F
100
AcDbEntity
  8
Polyamid
100
AcDbCircle
 10
350.132782
 20
35.975048
 30
0.0
 40
15.0
100
AcDbArc
 50
-90.0
 51
0.0
  0
ARC
  5
118
330
1F
100
AcDbEntity
  8
Polyamid
100
AcDbCircle
 10
80.132782
 20
35.975048
 30
0.0
 40
15.0
100
AcDbArc
 50
180.0
 51
270.0
  0
ARC
  5
119
330
1F
100
AcDbEntity
  8
Polyamid
100
AcDbCircle
 10
80.132782
 20
175.975048
 30
0.0
 40
15.0
100
AcDbArc
 50
90.0
 51
180.0
  0
ELLIPSE
  5
11A
330
1F
100
AcDbEntity
  8
Polyamid
100
AcDbEllipse
 10
342.141433
 20
167.983699
 30
0.0
 11
-0.7073221891695809
 21
-0.7073221891695809
 31
0.0
210
0.0
220
0.0
230
-1.0
 40
0.999695
 41
2.356194490192345
 42
3.926990816987231
  0
ELLIPSE
  5
11B
330
1F
100
AcDbEntity
  8
Polyamid
100
AcDbEllipse
 10
342.141433
 20
167.983699
 30
0.0
 11
0.3538764697661717
 21
0.3538764697661716
 31
0.0
210
0.0
220
0.0
230
1.0
 40
0.9990869999999999
 41
5.497482742733713
 42
7.06888787162544
  0
ELLIPSE
  5
11C
330
1F
100
AcDbEntity
  8
Polyamid
100
AcDbEllipse
 10
88.124131
 20
43.966397
 30
0.0
 11
0.3538764697662765
 21
0.3538764697662764
 31
0.0
210
0.0
220
0.0
230
1.0
 40
0.9990869999999999
 41
2.355890089143826
 42
3.927295218035821
  0
ELLIPSE
  5
11D
330
1F
100
AcDbEntity
  8
Polyamid
100
AcDbEllipse
 10
88.124131
 20
43.966397
 30
0.0
 11
0.7073221891695809
 21
0.7073221891695809
 31
0.0
210
0.0
220
0.0
230
-1.0
 40
0.999695
 41
2.356194490192299
 42
3.926990816987241
  0
ELLIPSE
  5
11E
330
1F
100
AcDbEntity
  8
Polyamid
100
AcDbEllipse
 10
342.141433
 20
43.966397
 30
0.0
 11
-0.7073221891695809
 21
0.7073221891695809
 31
0.0
210
0.0
220
0.0
230
-1.0
 40
0.999695
 41
2.356194490192351
 42
3.926990816987241
  0
ELLIPSE
  5
11F
330
1F
100
AcDbEntity
  8
Polyamid
100
AcDbEllipse
 10
342.141433
 20
43.966397
 30
0.0
 11
0.3538764697697678
 21
-0.3538764697697678
 31
0.0
210
0.0
220
0.0
230
0.9999999999999998
 40
0.9990869999999999
 41
5.497482742734566
 42
7.068887871624597
  0
ELLIPSE
  5
120
330
1F
100
AcDbEntity
  8
Polyamid
100
AcDbEllipse
 10
88.124131
 20
167.983699
 30
0.0
 11
0.7073221891695809
 21
-0.7073221891695809
 31
0.0
210
0.0
220
0.0
230
-1.0
 40
0.999695
 41
2.356194490192355
 42
3.926990816987231
  0
ELLIPSE
  5
121
330
1F
100
AcDbEntity
  8
Polyamid
100
AcDbEllipse
 10
88.124131
 20
167.983699
 30
0.0
 11
0.3538764697676713
 21
-0.3538764697676713
 31
0.0
210
0.0
220
0.0
230
0.9999999999999998
 40
0.9990869999999999
 41
2.355890089144231
 42
3.927295218035356
  0
LINE
  5
156
330
1F
100
AcDbEntity
  8
HEWI
100
AcDbLine
 10
-54.85978200000005
 20
271.6703129999999
 30
0.0
 11
-68.35978200000005
 21
271.6703129999999
 31
0.0
  0
LINE
  5
159
330
1F
100
AcDbEntity
  8
HEWI
100
AcDbLine
 10
-54.85978200000005
 20
271.6703129999999
 30
0.0
 11
-54.85978200000005
 21
720.1703129999998
 31
0.0
  0
LINE
  5
15A
330
1F
100
AcDbEntity
  8
HEWI
100
AcDbLine
 10
-54.85978200000005
 20
721.6703129999999
 30
0.0
 11
-68.35978200000005
 21
721.6703129999999
 31
0.0
  0
LINE
  5
15C
330
1F
100
AcDbEntity
  8
HEWI
100
AcDbLine
 10
-54.85978200000005
 20
720.1703129999998
 30
0.0
 11
-54.85978200000005
 21
721.6703129999999
 31
0.0
  0
LINE
  5
15D
330
1F
100
AcDbEntity
  8
HEWI
100
AcDbLine
 10
-69.85978200000005
 20
718.6703129999998
 30
0.0
 11
-69.77399600000001
 21
718.6703129999998
 31
0.0
  0
LINE
  5
15E
330
1F
100
AcDbEntity
  8
HEWI
100
AcDbLine
 10
-69.85978200000005
 20
271.6703129999999
 30
0.0
 11
-68.35978200000005
 21
271.6703129999999
 31
0.0
  0
LINE
  5
160
330
1F
100
AcDbEntity
  8
HEWI
100
AcDbLine
 10
-69.77399600000001
 20
720.1703129999998
 30
0.0
 11
-69.77399600000001
 21
718.6703129999998
 31
0.0
  0
LINE
  5
161
330
1F
100
AcDbEntity
  8
HEWI
100
AcDbLine
 10
-69.77399600000001
 20
720.1703129999998
 30
0.0
 11
-69.77399600000001
 21
720.670313
 31
0.0
  0
LINE
  5
162
330
1F
100
AcDbEntity
  8
Polyamid
100
AcDbLine
 10
-69.85978200000005
 20
741.670313
 30
0.0
 11
-70.02575800000006
 21
751.1790389999998
 31
0.0
  0
LINE
  5
163
330
1F
100
AcDbEntity
  8
Polyamid
100
AcDbLine
 10
-70.02575800000006
 20
751.1790389999998
 30
0.0
 11
-84.8597820000001
 21
751.1790389999998
 31
0.0
  0
LINE
  5
165
330
1F
100
AcDbEntity
  8
Polyamid
100
AcDbLine
 10
-84.8597820000001
 20
741.670313
 30
0.0
 11
-69.85978200000005
 21
741.670313
 31
0.0
  0
LINE
  5
167
330
1F
100
AcDbEntity
  8
Polyamid
100
AcDbLine
 10
-239.6938070000001
 20
751.1790389999998
 30
0.0
 11
-224.8597820000001
 21
751.1790389999998
 31
0.0
  0
LINE
  5
168
330
1F
100
AcDbEntity
  8
Polyamid
100
AcDbLine
 10
-239.6938070000001
 20
751.1790389999998
 30
0.0
 11
-239.8597820000001
 21
741.670313
 31
0.0
  0
LINE
  5
169
330
1F
100
AcDbEntity
  8
Polyamid
100
AcDbLine
 10
-239.8597820000001
 20
741.670313
 30
0.0
 11
-224.8597820000001
 21
741.670313
 31
0.0
  0
LINE
  5
16A
330
1F
100
AcDbEntity
  8
Polyamid
100
AcDbLine
 10
-224.8597820000001
 20
751.1790389999998
 30
0.0
 11
-84.8597820000001
 21
751.1790389999998
 31
0.0
  0
LINE
  5
16B
330
1F
100
AcDbEntity
  8
Polyamid
100
AcDbLine
 10
-84.8597820000001
 20
741.670313
 30
0.0
 11
-224.8597820000001
 21
741.670313
 31
0.0
  0
LINE
  5
16C
330
1F
100
AcDbEntity
  8
Polyamid
100
AcDbLine
 10
-224.8597820000001
 20
751.6703129999998
 30
0.0
 11
-239.193883
 21
751.6703129999998
 31
0.0
  0
LINE
  5
16E
330
1F
100
AcDbEntity
  8
Polyamid
100
AcDbLine
 10
-70.52568100000008
 20
751.6703129999998
 30
0.0
 11
-84.8597820000001
 21
751.6703129999998
 31
0.0
  0
LINE
  5
170
330
1F
100
AcDbEntity
  8
Polyamid
100
AcDbLine
 10
-84.8597820000001
 20
751.6703129999998
 30
0.0
 11
-224.8597820000001
 21
751.6703129999998
 31
0.0
  0
LINE
  5
171
330
1F
100
AcDbEntity
  8
HEWI
100
AcDbLine
 10
-69.85978200000005
 20
241.670312
 30
0.0
 11
-69.85978200000005
 21
741.670313
 31
0.0
  0
LINE
  5
173
330
1F
100
AcDbEntity
  8
Polyamid
100
AcDbLine
 10
-69.85978200000005
 20
741.670313
 30
0.0
 11
-84.8597820000001
 21
741.670313
 31
0.0
  0
LINE
  5
174
330
1F
100
AcDbEntity
  8
HEWI
100
AcDbLine
 10
-69.85978200000005
 20
241.670312
 30
0.0
 11
-84.8597820000001
 21
241.670312
 31
0.0
  0
LINE
  5
176
330
1F
100
AcDbEntity
  8
Polyamid
100
AcDbLine
 10
-224.8597820000001
 20
741.670313
 30
0.0
 11
-84.8597820000001
 21
741.670313
 31
0.0
  0
LINE
  5
177
330
1F
100
AcDbEntity
  8
HEWI
100
AcDbLine
 10
-84.8597820000001
 20
241.670312
 30
0.0
 11
-224.8597820000001
 21
241.670312
 31
0.0
  0
LINE
  5
178
330
1F
100
AcDbEntity
  8
HEWI
100
AcDbLine
 10
-239.8597820000001
 20
741.670313
 30
0.0
 11
-239.8597820000001
 21
241.670312
 31
0.0
  0
LINE
  5
179
330
1F
100
AcDbEntity
  8
Polyamid
100
AcDbLine
 10
-239.8597820000001
 20
741.670313
 30
0.0
 11
-224.8597820000001
 21
741.670313
 31
0.0
  0
LINE
  5
17A
330
1F
100
AcDbEntity
  8
HEWI
100
AcDbLine
 10
-239.8597820000001
 20
241.670312
 30
0.0
 11
-224.8597820000001
 21
241.670312
 31
0.0
  0
ARC
  5
17B
330
1F
100
AcDbEntity
  8
HEWI
100
AcDbCircle
 10
68.35978200000005
 20
720.1703129999998
 30
0.0
 40
1.5
210
0.0
220
0.0
230
-1.0
100
AcDbArc
 50
19.47122100000036
 51
90.0
  0
ARC
  5
17C
330
1F
100
AcDbEntity
  8
HEWI
100
AcDbCircle
 10
-68.35978200000005
 20
720.1703129999998
 30
0.0
 40
1.5
100
AcDbArc
 50
160.5287789999996
 51
180.0
  0
ARC
  5
17D
330
1F
100
AcDbEntity
  8
Polyamid
100
AcDbCircle
 10
239.193883
 20
751.1703129999999
 30
0.0
 40
0.5
210
0.0
220
0.0
230
-1.0
100
AcDbArc
 50
0.9999999999999824
 51
90.0
  0
ARC
  5
17E
330
1F
100
AcDbEntity
  8
Polyamid
100
AcDbCircle
 10
70.52568100000008
 20
751.1703129999999
 30
0.0
 40
0.5
210
0.0
220
0.0
230
-1.0
100
AcDbArc
 50
90.0
 51
179.0
  0
ENDSEC
  0
SECTION
  2
OBJECTS
  0
DICTIONARY
  5
C
330
0
100
AcDbDictionary
281
     1
  3
ACAD_COLOR
350
151
  3
ACAD_GROUP
350
D
  3
ACAD_LAYOUT
350
1A
  3
ACAD_MATERIAL
350
13C
  3
ACAD_MLINESTYLE
350
17
  3
ACAD_PLOTSETTINGS
350
19
  3
ACAD_PLOTSTYLENAME
350
E
  3
ACAD_TABLESTYLE
350
152
  3
ACAD_VISUALSTYLE
350
140
  3
AcDbVariableDictionary
350
17F
  3
DWGPROPS
350
1DD
  0
DICTIONARY
  5
19A
330
2
100
AcDbDictionary
280
     1
281
     1
  3
ACAD_LAYERFILTERS
360
19E
  3
ACLYDICTIONARY
360
19D
  0
DICTIONARY
  5
151
102
{ACAD_REACTORS
330
C
102
}
330
C
100
AcDbDictionary
281
     1
  0
DICTIONARY
  5
D
102
{ACAD_REACTORS
330
C
102
}
330
C
100
AcDbDictionary
281
     1
  0
DICTIONARY
  5
1A
102
{ACAD_REACTORS
330
C
102
}
330
C
100
AcDbDictionary
281
     1
  3
Layout1
350
1E
  3
Layout2
350
26
  3
Model
350
22
  0
DICTIONARY
  5
13C
102
{ACAD_REACTORS
330
C
102
}
330
C
100
AcDbDictionary
281
     1
  3
ByBlock
350
13E
  3
ByLayer
350
13D
  3
Global
350
13F
  0
DICTIONARY
  5
17
102
{ACAD_REACTORS
330
C
102
}
330
C
100
AcDbDictionary
281
     1
  3
Standard
350
18
  0
DICTIONARY
  5
19
102
{ACAD_REACTORS
330
C
102
}
330
C
100
AcDbDictionary
281
     1
  0
ACDBDICTIONARYWDFLT
  5
E
102
{ACAD_REACTORS
330
C
102
}
330
C
100
AcDbDictionary
281
     1
  3
Normal
350
F
100
AcDbDictionaryWithDefault
340
F
  0
DICTIONARY
  5
152
102
{ACAD_REACTORS
330
C
102
}
330
C
100
AcDbDictionary
281
     1
  3
Standard
350
153
  0
DICTIONARY
  5
140
102
{ACAD_REACTORS
330
C
102
}
330
C
100
AcDbDictionary
281
     1
  3
2dWireframe
350
146
  3
3D Hidden
350
148
  3
3dWireframe
350
147
  3
Basic
350
145
  3
Brighten
350
14C
  3
ColorChange
350
150
  3
Conceptual
350
149
  3
Dim
350
14B
  3
Facepattern
350
14F
  3
Flat
350
141
  3
FlatWithEdges
350
142
  3
Gouraud
350
143
  3
GouraudWithEdges
350
144
  3
Linepattern
350
14E
  3
Realistic
350
14A
  3
Thicken
350
14D
  0
DICTIONARY
  5
17F
102
{ACAD_REACTORS
330
C
102
}
330
C
100
AcDbDictionary
281
     1
  3
CTABLESTYLE
350
180
  3
DIMASSOC
350
183
  3
INDEXCTL
350
182
  3
SORTENTS
350
181
  0
XRECORD
  5
1DD
102
{ACAD_REACTORS
330
C
102
}
330
C
100
AcDbXrecord
280
     1
  1
DWGPROPS COOKIE
  2

  3

  4

  6

  7

  8
kaschu
  9

300
=
301
=
302
=
303
=
304
=
305
=
306
=
307
=
308
=
309
=
 40
0.0063069444444444
 41
2454358.331147836
 42
2455058.402234861
  1

 90
        0
  0
DICTIONARY
  5
19E
102
{ACAD_REACTORS
330
19A
102
}
330
19A
100
AcDbDictionary
281
     1
  0
DICTIONARY
  5
19D
102
{ACAD_REACTORS
330
19A
102
}
330
19A
100
AcDbDictionary
281
     1
1001
ACAD
1000
<All
  0
LAYOUT
  5
1E
102
{ACAD_XDICTIONARY
360
1DE
102
}
102
{ACAD_REACTORS
330
1A
102
}
330
1A
100
AcDbPlotSettings
  1

  2

  4

  6

 40
0.0
 41
0.0
 42
0.0
 43
0.0
 44
0.0
 45
0.0
 46
0.0
 47
0.0
 48
0.0
 49
0.0
140
0.0
141
0.0
142
1.0
143
1.0
 70
   688
 72
     0
 73
     0
 74
     5
  7

 75
    16
147
1.0
148
0.0
149
0.0
100
AcDbLayout
  1
Layout1
 70
     1
 71
     1
 10
-0.5
 20
-0.5
 11
5.0
 21
5.0
 12
0.0
 22
0.0
 32
0.0
 14
-0.5
 24
-0.5
 34
-0.5
 15
5.0
 25
5.0
 35
5.0
146
0.0
 13
0.0
 23
0.0
 33
0.0
 16
1.0
 26
0.0
 36
0.0
 17
0.0
 27
1.0
 37
0.0
 76
     0
330
1B
  0
LAYOUT
  5
26
102
{ACAD_XDICTIONARY
360
1E2
102
}
102
{ACAD_REACTORS
330
1A
102
}
330
1A
100
AcDbPlotSettings
  1

  2

  4

  6

 40
0.0
 41
0.0
 42
0.0
 43
0.0
 44
0.0
 45
0.0
 46
0.0
 47
0.0
 48
0.0
 49
0.0
140
0.0
141
0.0
142
1.0
143
1.0
 70
   688
 72
     0
 73
     0
 74
     5
  7

 75
    16
147
1.0
148
0.0
149
0.0
100
AcDbLayout
  1
Layout2
 70
     1
 71
     2
 10
0.0
 20
0.0
 11
0.0
 21
0.0
 12
0.0
 22
0.0
 32
0.0
 14
0.0
 24
0.0
 34
0.0
 15
0.0
 25
0.0
 35
0.0
146
0.0
 13
0.0
 23
0.0
 33
0.0
 16
1.0
 26
0.0
 36
0.0
 17
0.0
 27
1.0
 37
0.0
 76
     0
330
23
  0
LAYOUT
  5
22
102
{ACAD_XDICTIONARY
360
1E0
102
}
102
{ACAD_REACTORS
330
1A
102
}
330
1A
100
AcDbPlotSettings
  1

  2

  4

  6

 40
0.0
 41
0.0
 42
0.0
 43
0.0
 44
0.0
 45
0.0
 46
0.0
 47
0.0
 48
0.0
 49
0.0
140
0.0
141
0.0
142
1.0
143
1.0
 70
  1712
 72
     0
 73
     0
 74
     0
  7

 75
     0
147
1.0
148
0.0
149
0.0
100
AcDbLayout
  1
Model
 70
     1
 71
     0
 10
-0.5
 20
-0.5
 11
5.0
 21
5.0
 12
0.0
 22
0.0
 32
0.0
 14
-0.5
 24
-0.5
 34
-0.5
 15
5.0
 25
5.0
 35
5.0
146
0.0
 13
0.0
 23
0.0
 33
0.0
 16
1.0
 26
0.0
 36
0.0
 17
0.0
 27
1.0
 37
0.0
 76
     0
330
1F
331
12A
  0
MATERIAL
  5
13E
102
{ACAD_XDICTIONARY
360
1C5
102
}
102
{ACAD_REACTORS
330
13C
102
}
330
13C
100
AcDbMaterial
  1
ByBlock
  0
MATERIAL
  5
13D
102
{ACAD_XDICTIONARY
360
1C3
102
}
102
{ACAD_REACTORS
330
13C
102
}
330
13C
100
AcDbMaterial
  1
ByLayer
  0
MATERIAL
  5
13F
102
{ACAD_XDICTIONARY
360
1C7
102
}
102
{ACAD_REACTORS
330
13C
102
}
330
13C
100
AcDbMaterial
  1
Global
  0
MLINESTYLE
  5
18
102
{ACAD_REACTORS
330
17
102
}
330
17
100
AcDbMlineStyle
  2
STANDARD
 70
     0
  3

 62
   256
 51
90.0
 52
90.0
 71
     2
 49
0.5
 62
   256
  6
BYLAYER
 49
-0.5
 62
   256
  6
BYLAYER
  0
ACDBPLACEHOLDER
  5
F
102
{ACAD_REACTORS
330
E
102
}
330
E
  0
TABLESTYLE
  5
153
102
{ACAD_XDICTIONARY
360
1E4
102
}
102
{ACAD_REACTORS
330
152
102
}
330
152
100
AcDbTableStyle
  3
Standard
 70
     0
 71
     0
 40
1.5
 41
1.5
280
     0
281
     0
  7
Standard
140
4.5
170
     2
 62
     0
 63
     7
283
     0
274
    -2
284
     1
 64
     0
275
    -2
285
     1
 65
     0
276
    -2
286
     1
 66
     0
277
    -2
287
     1
 67
     0
278
    -2
288
     1
 68
     0
279
    -2
289
     1
 69
     0
  7
Standard
140
6.0
170
     5
 62
     0
 63
     7
283
     0
274
    -2
284
     1
 64
     0
275
    -2
285
     1
 65
     0
276
    -2
286
     1
 66
     0
277
    -2
287
     1
 67
     0
278
    -2
288
     1
 68
     0
279
    -2
289
     1
 69
     0
  7
Standard
140
4.5
170
     5
 62
     0
 63
     7
283
     0
274
    -2
284
     1
 64
     0
275
    -2
285
     1
 65
     0
276
    -2
286
     1
 66
     0
277
    -2
287
     1
 67
     0
278
    -2
288
     1
 68
     0
279
    -2
289
     1
 69
     0
  0
VISUALSTYLE
  5
146
102
{ACAD_REACTORS
330
140
102
}
330
140
100
AcDbVisualStyle
  2
2dWireframe
 70
     4
 71
     0
 72
     2
 73
     0
 90
        0
 40
-0.6
 41
-30.0
 62
     5
 63
     7
 74
     1
 91
        4
 64
     7
 65
   257
 75
     1
175
     1
 42
1.0
 92
        0
 66
   257
 43
1.0
 76
     1
 77
     6
 78
     2
 67
     7
 79
     5
170
     0
171
     0
290
     0
174
     0
 93
        1
 44
0.0
173
     0
291
     0
 45
0.0
1001
ACAD
1000
AcDbSavedByObjectVersion
1070
     0
1000
AcDbSavedByObjectVersion
1070
     0
  0
VISUALSTYLE
  5
148
102
{ACAD_REACTORS
330
140
102
}
330
140
100
AcDbVisualStyle
  2
3D Hidden
 70
     6
 71
     1
 72
     2
 73
     2
 90
        0
 40
-0.6
 41
-30.0
 62
     5
 63
     7
 74
     2
 91
        2
 64
     7
 65
   257
 75
     2
175
     1
 42
40.0
 92
        0
 66
   257
 43
1.0
 76
     1
 77
     6
 78
     2
 67
     7
 79
     3
170
     0
171
     0
290
     0
174
     0
 93
        1
 44
0.0
173
     0
291
     0
 45
0.0
1001
ACAD
1000
AcDbSavedByObjectVersion
1070
     0
1000
AcDbSavedByObjectVersion
1070
     0
  0
VISUALSTYLE
  5
147
102
{ACAD_REACTORS
330
140
102
}
330
140
100
AcDbVisualStyle
  2
3dWireframe
 70
     5
 71
     0
 72
     2
 73
     0
 90
        0
 40
-0.6
 41
-30.0
 62
     5
 63
     7
 74
     1
 91
        4
 64
     7
 65
   257
 75
     1
175
     1
 42
1.0
 92
        0
 66
   257
 43
1.0
 76
     1
 77
     6
 78
     2
 67
     7
 79
     5
170
     0
171
     0
290
     0
174
     0
 93
        1
 44
0.0
173
     0
291
     0
 45
0.0
1001
ACAD
1000
AcDbSavedByObjectVersion
1070
     0
1000
AcDbSavedByObjectVersion
1070
     0
  0
VISUALSTYLE
  5
145
102
{ACAD_REACTORS
330
140
102
}
330
140
100
AcDbVisualStyle
  2
Basic
 70
     7
 71
     1
 72
     0
 73
     1
 90
        0
 40
-0.6
 41
-30.0
 62
     5
 63
     7
 74
     0
 91
        4
 64
     7
 65
   257
 75
     1
175
     1
 42
1.0
 92
        8
 66
     7
 43
1.0
 76
     1
 77
     6
 78
     2
 67
     7
 79
     5
170
     0
171
     0
290
     0
174
     0
 93
        1
 44
0.0
173
     0
291
     1
 45
0.0
1001
ACAD
1000
AcDbSavedByObjectVersion
1070
     0
1000
AcDbSavedByObjectVersion
1070
     0
  0
VISUALSTYLE
  5
14C
102
{ACAD_REACTORS
330
140
102
}
330
140
100
AcDbVisualStyle
  2
Brighten
 70
    12
 71
     2
 72
     2
 73
     0
 90
        0
 40
-0.6
 41
-30.0
 62
     5
 63
     7
 74
     1
 91
        4
 64
     7
 65
   257
 75
     1
175
     1
 42
1.0
 92
        8
 66
     7
 43
1.0
 76
     1
 77
     6
 78
     2
 67
     7
 79
     5
170
     0
171
     0
290
     0
174
     0
 93
        1
 44
50.0
173
     0
291
     1
 45
0.0
1001
ACAD
1000
AcDbSavedByObjectVersion
1070
     0
1000
AcDbSavedByObjectVersion
1070
     0
  0
VISUALSTYLE
  5
150
102
{ACAD_REACTORS
330
140
102
}
330
140
100
AcDbVisualStyle
  2
ColorChange
 70
    16
 71
     2
 72
     2
 73
     3
 90
        0
 40
-0.6
 41
-30.0
 62
     5
 63
     8
 74
     1
 91
        4
 64
     7
 65
   257
 75
     1
175
     1
 42
1.0
 92
        8
 66
     8
 43
1.0
 76
     1
 77
     6
 78
     2
 67
     7
 79
     5
170
     0
171
     0
290
     0
174
     0
 93
        1
 44
0.0
173
     0
291
     1
 45
0.0
1001
ACAD
1000
AcDbSavedByObjectVersion
1070
     0
1000
AcDbSavedByObjectVersion
1070
     0
  0
VISUALSTYLE
  5
149
102
{ACAD_REACTORS
330
140
102
}
330
140
100
AcDbVisualStyle
  2
Conceptual
 70
     9
 71
     3
 72
     2
 73
     0
 90
        0
 40
-0.6
 41
-30.0
 62
     5
 63
     7
 74
     2
 91
        2
 64
     7
 65
   257
 75
     1
175
     1
 42
40.0
 92
        8
 66
     7
 43
1.0
 76
     1
 77
     6
 78
     2
 67
     7
 79
     3
170
     0
171
     0
290
     0
174
     0
 93
        1
 44
0.0
173
     0
291
     0
 45
0.0
1001
ACAD
1000
AcDbSavedByObjectVersion
1070
     0
1000
AcDbSavedByObjectVersion
1070
     0
  0
VISUALSTYLE
  5
14B
102
{ACAD_REACTORS
330
140
102
}
330
140
100
AcDbVisualStyle
  2
Dim
 70
    11
 71
     2
 72
     2
 73
     0
 90
        0
 40
-0.6
 41
-30.0
 62
     5
 63
     7
 74
     1
 91
        4
 64
     7
 65
   257
 75
     1
175
     1
 42
1.0
 92
        8
 66
     7
 43
1.0
 76
     1
 77
     6
 78
     2
 67
     7
 79
     5
170
     0
171
     0
290
     0
174
     0
 93
        1
 44
-50.0
173
     0
291
     1
 45
0.0
1001
ACAD
1000
AcDbSavedByObjectVersion
1070
     0
1000
AcDbSavedByObjectVersion
1070
     0
  0
VISUALSTYLE
  5
14F
102
{ACAD_REACTORS
330
140
102
}
330
140
100
AcDbVisualStyle
  2
Facepattern
 70
    15
 71
     2
 72
     2
 73
     0
 90
        0
 40
-0.6
 41
-30.0
 62
     5
 63
     7
 74
     1
 91
        4
 64
     7
 65
   257
 75
     1
175
     1
 42
1.0
 92
        8
 66
     7
 43
1.0
 76
     1
 77
     6
 78
     2
 67
     7
 79
     5
170
     0
171
     0
290
     0
174
     0
 93
        1
 44
0.0
173
     0
291
     1
 45
0.0
1001
ACAD
1000
AcDbSavedByObjectVersion
1070
     0
1000
AcDbSavedByObjectVersion
1070
     0
  0
VISUALSTYLE
  5
141
102
{ACAD_REACTORS
330
140
102
}
330
140
100
AcDbVisualStyle
  2
Flat
 70
     0
 71
     2
 72
     1
 73
     1
 90
        2
 40
-0.6
 41
30.0
 62
     5
 63
     7
 74
     0
 91
        4
 64
     7
 65
   257
 75
     1
175
     1
 42
1.0
 92
        8
 66
     7
 43
1.0
 76
     1
 77
     6
 78
     2
 67
     7
 79
     5
170
     0
171
     0
290
     0
174
     0
 93
       13
 44
0.0
173
     0
291
     1
 45
0.0
1001
ACAD
1000
AcDbSavedByObjectVersion
1070
     0
1000
AcDbSavedByObjectVersion
1070
     0
  0
VISUALSTYLE
  5
142
102
{ACAD_REACTORS
330
140
102
}
330
140
100
AcDbVisualStyle
  2
FlatWithEdges
 70
     1
 71
     2
 72
     1
 73
     1
 90
        2
 40
-0.6
 41
30.0
 62
     5
 63
     7
 74
     1
 91
        4
 64
     7
 65
   257
 75
     1
175
     1
 42
1.0
 92
        0
 66
   257
 43
1.0
 76
     1
 77
     6
 78
     2
 67
     7
 79
     5
170
     0
171
     0
290
     0
174
     0
 93
       13
 44
0.0
173
     0
291
     1
 45
0.0
1001
ACAD
1000
AcDbSavedByObjectVersion
1070
     0
1000
AcDbSavedByObjectVersion
1070
     0
  0
VISUALSTYLE
  5
143
102
{ACAD_REACTORS
330
140
102
}
330
140
100
AcDbVisualStyle
  2
Gouraud
 70
     2
 71
     2
 72
     2
 73
     1
 90
        2
 40
-0.6
 41
30.0
 62
     5
 63
     7
 74
     0
 91
        4
 64
     7
 65
   257
 75
     1
175
     1
 42
1.0
 92
        0
 66
     7
 43
1.0
 76
     1
 77
     6
 78
     2
 67
     7
 79
     5
170
     0
171
     0
290
     0
174
     0
 93
       13
 44
0.0
173
     0
291
     1
 45
0.0
1001
ACAD
1000
AcDbSavedByObjectVersion
1070
     0
1000
AcDbSavedByObjectVersion
1070
     0
  0
VISUALSTYLE
  5
144
102
{ACAD_REACTORS
330
140
102
}
330
140
100
AcDbVisualStyle
  2
GouraudWithEdges
 70
     3
 71
     2
 72
     2
 73
     1
 90
        2
 40
-0.6
 41
30.0
 62
     5
 63
     7
 74
     1
 91
        4
 64
     7
 65
   257
 75
     1
175
     1
 42
1.0
 92
        0
 66
   257
 43
1.0
 76
     1
 77
     6
 78
     2
 67
     7
 79
     5
170
     0
171
     0
290
     0
174
     0
 93
       13
 44
0.0
173
     0
291
     1
 45
0.0
1001
ACAD
1000
AcDbSavedByObjectVersion
1070
     0
1000
AcDbSavedByObjectVersion
1070
     0
  0
VISUALSTYLE
  5
14E
102
{ACAD_REACTORS
330
140
102
}
330
140
100
AcDbVisualStyle
  2
Linepattern
 70
    14
 71
     2
 72
     2
 73
     0
 90
        0
 40
-0.6
 41
-30.0
 62
     5
 63
     7
 74
     1
 91
        4
 64
     7
 65
   257
 75
     7
175
     7
 42
1.0
 92
        8
 66
     7
 43
1.0
 76
     1
 77
     6
 78
     2
 67
     7
 79
     5
170
     0
171
     0
290
     0
174
     0
 93
        1
 44
0.0
173
     0
291
     1
 45
0.0
1001
ACAD
1000
AcDbSavedByObjectVersion
1070
     0
1000
AcDbSavedByObjectVersion
1070
     0
  0
VISUALSTYLE
  5
14A
102
{ACAD_REACTORS
330
140
102
}
330
140
100
AcDbVisualStyle
  2
Realistic
 70
     8
 71
     2
 72
     2
 73
     0
 90
        0
 40
-0.6
 41
-30.0
 62
     5
 63
     7
 74
     1
 91
        0
 64
     7
 65
   257
 75
     1
175
     1
 42
1.0
 92
        8
 66
     8
 43
1.0
 76
     1
 77
     6
 78
     2
 67
     7
 79
     5
170
     0
171
     0
290
     0
174
     0
 93
       13
 44
0.0
173
     0
291
     0
 45
0.0
1001
ACAD
1000
AcDbSavedByObjectVersion
1070
     0
1000
AcDbSavedByObjectVersion
1070
     0
  0
VISUALSTYLE
  5
14D
102
{ACAD_REACTORS
330
140
102
}
330
140
100
AcDbVisualStyle
  2
Thicken
 70
    13
 71
     2
 72
     2
 73
     0
 90
        0
 40
-0.6
 41
-30.0
 62
     5
 63
     7
 74
     1
 91
        4
 64
     7
 65
   257
 75
     1
175
     1
 42
1.0
 92
       12
 66
     7
 43
1.0
 76
     1
 77
     6
 78
     2
 67
     7
 79
     5
170
     0
171
     0
290
     0
174
     0
 93
        1
 44
0.0
173
     0
291
     1
 45
0.0
1001
ACAD
1000
AcDbSavedByObjectVersion
1070
     0
1000
AcDbSavedByObjectVersion
1070
     0
  0
DICTIONARYVAR
  5
180
102
{ACAD_REACTORS
330
17F
102
}
330
17F
100
DictionaryVariables
280
     0
  1
STANDARD
  0
DICTIONARYVAR
  5
183
102
{ACAD_REACTORS
330
17F
102
}
330
17F
100
DictionaryVariables
280
     0
  1
1
  0
DICTIONARYVAR
  5
182
102
{ACAD_REACTORS
330
17F
102
}
330
17F
100
DictionaryVariables
280
     0
  1
0
  0
DICTIONARYVAR
  5
181
102
{ACAD_REACTORS
330
17F
102
}
330
17F
100
DictionaryVariables
280
     0
  1
127
  0
DICTIONARY
  5
1DE
330
1E
100
AcDbDictionary
280
     1
281
     1
  3
ACAD_XREC_ROUNDTRIP
360
1DF
  0
DICTIONARY
  5
1E2
330
26
100
AcDbDictionary
280
     1
281
     1
  3
ACAD_XREC_ROUNDTRIP
360
1E3
  0
DICTIONARY
  5
1E0
330
22
100
AcDbDictionary
280
     1
281
     1
  3
ACAD_XREC_ROUNDTRIP
360
1E1
  0
DICTIONARY
  5
1C5
330
13E
100
AcDbDictionary
280
     1
281
     1
  3
ACAD_XREC_ROUNDTRIP
360
1C6
  0
DICTIONARY
  5
1C3
330
13D
100
AcDbDictionary
280
     1
281
     1
  3
ACAD_XREC_ROUNDTRIP
360
1C4
  0
DICTIONARY
  5
1C7
330
13F
100
AcDbDictionary
280
     1
281
     1
  3
ACAD_XREC_ROUNDTRIP
360
1C8
  0
DICTIONARY
  5
1E4
330
153
100
AcDbDictionary
280
     1
281
     1
  3
ACAD_XREC_ROUNDTRIP
360
1E5
  0
XRECORD
  5
1DF
102
{ACAD_REACTORS
330
1DE
102
}
330
1DE
100
AcDbXrecord
280
     1
102
SHADEPLOT
 70
     0
102
SHADEPLOTRESLEVEL
 70
     2
102
SHADEPLOTCUSTOMDPI
 70
   300
  0
XRECORD
  5
1E3
102
{ACAD_REACTORS
330
1E2
102
}
330
1E2
100
AcDbXrecord
280
     1
102
SHADEPLOT
 70
     0
102
SHADEPLOTRESLEVEL
 70
     2
102
SHADEPLOTCUSTOMDPI
 70
   300
  0
XRECORD
  5
1E1
102
{ACAD_REACTORS
330
1E0
102
}
330
1E0
100
AcDbXrecord
280
     1
102
SHADEPLOT
 70
     0
102
SHADEPLOTRESLEVEL
 70
     2
102
SHADEPLOTCUSTOMDPI
 70
   300
  0
XRECORD
  5
1C6
102
{ACAD_REACTORS
330
1C5
102
}
330
1C5
100
AcDbXrecord
280
     1
102
MATERIAL
148
0.0
149
0.0
149
0.0
 93
        0
 94
       63
282
     0
 72
     1
 77
     1
171
     1
175
     1
179
     1
273
     0
  0
XRECORD
  5
1C4
102
{ACAD_REACTORS
330
1C3
102
}
330
1C3
100
AcDbXrecord
280
     1
102
MATERIAL
148
0.0
149
0.0
149
0.0
 93
        0
 94
       63
282
     0
 72
     1
 77
     1
171
     1
175
     1
179
     1
273
     0
  0
XRECORD
  5
1C8
102
{ACAD_REACTORS
330
1C7
102
}
330
1C7
100
AcDbXrecord
280
     1
102
MATERIAL
148
0.0
149
0.0
149
0.0
 93
        0
 94
       63
282
     0
 72
     1
 77
     1
171
     1
175
     1
179
     1
273
     0
  0
XRECORD
  5
1E5
102
{ACAD_REACTORS
330
1E4
102
}
330
1E4
100
AcDbXrecord
280
     1
102
ACAD_ROUNDTRIP_PRE2007_TABLESTYLE
 90
      512
 91
        0
  1

 92
      512
 93
        0
  2

 94
      512
 95
        0
  3

  0
ENDSEC
  0
EOF
