  0
SECTION
  2
HEADER
  9
$ACADVER
  1
AC1015
  9
$ACADMAINTVER
 70
    20
  9
$DWGCODEPAGE
  3
ANSI_1252
  9
$INSBASE
 10
0.0
 20
0.0
 30
0.0
  9
$EXTMIN
 10
-132.7806739999999
 20
98.122416
 30
0.0
  9
$EXTMAX
 10
660.89484
 20
748.0615915701093
 30
0.0
  9
$LIMMIN
 10
-0.5
 20
-0.5
  9
$LIMMAX
 10
5.0
 20
5.0
  9
$ORTHOMODE
 70
     0
  9
$REGENMODE
 70
     1
  9
$FILLMODE
 70
     1
  9
$QTEXTMODE
 70
     0
  9
$MIRRTEXT
 70
     1
  9
$LTSCALE
 40
1.0
  9
$ATTMODE
 70
     1
  9
$TEXTSIZE
 40
0.2
  9
$TRACEWID
 40
0.05
  9
$TEXTSTYLE
  7
Standard
  9
$CLAYER
  8
0
  9
$CELTYPE
  6
ByLayer
  9
$CECOLOR
 62
   256
  9
$CELTSCALE
 40
1.0
  9
$DISPSILH
 70
     0
  9
$DIMSCALE
 40
1.0
  9
$DIMASZ
 40
0.18
  9
$DIMEXO
 40
0.0625
  9
$DIMDLI
 40
0.38
  9
$DIMRND
 40
0.0
  9
$DIMDLE
 40
0.0
  9
$DIMEXE
 40
0.18
  9
$DIMTP
 40
0.0
  9
$DIMTM
 40
0.0
  9
$DIMTXT
 40
0.18
  9
$DIMCEN
 40
0.09
  9
$DIMTSZ
 40
0.0
  9
$DIMTOL
 70
     0
  9
$DIMLIM
 70
     0
  9
$DIMTIH
 70
     1
  9
$DIMTOH
 70
     1
  9
$DIMSE1
 70
     0
  9
$DIMSE2
 70
     0
  9
$DIMTAD
 70
     0
  9
$DIMZIN
 70
     0
  9
$DIMBLK
  1

  9
$DIMASO
 70
     1
  9
$DIMSHO
 70
     1
  9
$DIMPOST
  1

  9
$DIMAPOST
  1

  9
$DIMALT
 70
     0
  9
$DIMALTD
 70
     2
  9
$DIMALTF
 40
25.4
  9
$DIMLFAC
 40
1.0
  9
$DIMTOFL
 70
     0
  9
$DIMTVP
 40
0.0
  9
$DIMTIX
 70
     0
  9
$DIMSOXD
 70
     0
  9
$DIMSAH
 70
     0
  9
$DIMBLK1
  1

  9
$DIMBLK2
  1

  9
$DIMSTYLE
  2
Standard
  9
$DIMCLRD
 70
     0
  9
$DIMCLRE
 70
     0
  9
$DIMCLRT
 70
     0
  9
$DIMTFAC
 40
1.0
  9
$DIMGAP
 40
0.09
  9
$DIMJUST
 70
     0
  9
$DIMSD1
 70
     0
  9
$DIMSD2
 70
     0
  9
$DIMTOLJ
 70
     1
  9
$DIMTZIN
 70
     0
  9
$DIMALTZ
 70
     0
  9
$DIMALTTZ
 70
     0
  9
$DIMUPT
 70
     0
  9
$DIMDEC
 70
     4
  9
$DIMTDEC
 70
     4
  9
$DIMALTU
 70
     2
  9
$DIMALTTD
 70
     2
  9
$DIMTXSTY
  7
Standard
  9
$DIMAUNIT
 70
     0
  9
$DIMADEC
 70
     0
  9
$DIMALTRND
 40
0.0
  9
$DIMAZIN
 70
     0
  9
$DIMDSEP
 70
    46
  9
$DIMATFIT
 70
     3
  9
$DIMFRAC
 70
     0
  9
$DIMLDRBLK
  1

  9
$DIMLUNIT
 70
     2
  9
$DIMLWD
 70
    -2
  9
$DIMLWE
 70
    -2
  9
$DIMTMOVE
 70
     0
  9
$LUNITS
 70
     2
  9
$LUPREC
 70
     4
  9
$SKETCHINC
 40
0.1
  9
$FILLETRAD
 40
0.5
  9
$AUNITS
 70
     0
  9
$AUPREC
 70
     0
  9
$MENU
  1
.
  9
$ELEVATION
 40
0.0
  9
$PELEVATION
 40
0.0
  9
$THICKNESS
 40
0.0
  9
$LIMCHECK
 70
     0
  9
$CHAMFERA
 40
0.5
  9
$CHAMFERB
 40
0.5
  9
$CHAMFERC
 40
1.0
  9
$CHAMFERD
 40
0.0
  9
$SKPOLY
 70
     0
  9
$TDCREATE
 40
2454358.333720151
  9
$TDUCREATE
 40
2454358.250386817
  9
$TDUPDATE
 40
2455058.401409734
  9
$TDUUPDATE
 40
2455058.318076401
  9
$TDINDWG
 40
0.0033541551
  9
$TDUSRTIMER
 40
0.0033528935
  9
$USRTIMER
 70
     1
  9
$ANGBASE
 50
0.0
  9
$ANGDIR
 70
     0
  9
$PDMODE
 70
     0
  9
$PDSIZE
 40
0.0
  9
$PLINEWID
 40
0.0
  9
$SPLFRAME
 70
     0
  9
$SPLINETYPE
 70
     6
  9
$SPLINESEGS
 70
     8
  9
$HANDSEED
  5
184
  9
$SURFTAB1
 70
     6
  9
$SURFTAB2
 70
     6
  9
$SURFTYPE
 70
     6
  9
$SURFU
 70
     6
  9
$SURFV
 70
     6
  9
$UCSBASE
  2

  9
$UCSNAME
  2

  9
$UCSORG
 10
0.0
 20
0.0
 30
0.0
  9
$UCSXDIR
 10
1.0
 20
0.0
 30
0.0
  9
$UCSYDIR
 10
0.0
 20
1.0
 30
0.0
  9
$UCSORTHOREF
  2

  9
$UCSORTHOVIEW
 70
     0
  9
$UCSORGTOP
 10
0.0
 20
0.0
 30
0.0
  9
$UCSORGBOTTOM
 10
0.0
 20
0.0
 30
0.0
  9
$UCSORGLEFT
 10
0.0
 20
0.0
 30
0.0
  9
$UCSORGRIGHT
 10
0.0
 20
0.0
 30
0.0
  9
$UCSORGFRONT
 10
0.0
 20
0.0
 30
0.0
  9
$UCSORGBACK
 10
0.0
 20
0.0
 30
0.0
  9
$PUCSBASE
  2

  9
$PUCSNAME
  2

  9
$PUCSORG
 10
0.0
 20
0.0
 30
0.0
  9
$PUCSXDIR
 10
1.0
 20
0.0
 30
0.0
  9
$PUCSYDIR
 10
0.0
 20
1.0
 30
0.0
  9
$PUCSORTHOREF
  2

  9
$PUCSORTHOVIEW
 70
     0
  9
$PUCSORGTOP
 10
0.0
 20
0.0
 30
0.0
  9
$PUCSORGBOTTOM
 10
0.0
 20
0.0
 30
0.0
  9
$PUCSORGLEFT
 10
0.0
 20
0.0
 30
0.0
  9
$PUCSORGRIGHT
 10
0.0
 20
0.0
 30
0.0
  9
$PUCSORGFRONT
 10
0.0
 20
0.0
 30
0.0
  9
$PUCSORGBACK
 10
0.0
 20
0.0
 30
0.0
  9
$USERI1
 70
     0
  9
$USERI2
 70
     0
  9
$USERI3
 70
     0
  9
$USERI4
 70
     0
  9
$USERI5
 70
     0
  9
$USERR1
 40
0.0
  9
$USERR2
 40
0.0
  9
$USERR3
 40
0.0
  9
$USERR4
 40
0.0
  9
$USERR5
 40
0.0
  9
$WORLDVIEW
 70
     1
  9
$SHADEDGE
 70
     3
  9
$SHADEDIF
 70
    70
  9
$TILEMODE
 70
     1
  9
$MAXACTVP
 70
    64
  9
$PINSBASE
 10
0.0
 20
0.0
 30
0.0
  9
$PLIMCHECK
 70
     0
  9
$PEXTMIN
 10
-0.5
 20
-0.5
 30
-0.5
  9
$PEXTMAX
 10
5.0
 20
5.0
 30
5.0
  9
$PLIMMIN
 10
-0.5
 20
-0.5
  9
$PLIMMAX
 10
5.0
 20
5.0
  9
$UNITMODE
 70
     0
  9
$VISRETAIN
 70
     1
  9
$PLINEGEN
 70
     0
  9
$PSLTSCALE
 70
     1
  9
$TREEDEPTH
 70
  3020
  9
$CMLSTYLE
  2
Standard
  9
$CMLJUST
 70
     0
  9
$CMLSCALE
 40
1.0
  9
$PROXYGRAPHICS
 70
     1
  9
$MEASUREMENT
 70
     1
  9
$CELWEIGHT
370
    -1
  9
$ENDCAPS
280
     0
  9
$JOINSTYLE
280
     0
  9
$LWDISPLAY
290
     0
  9
$INSUNITS
 70
     1
  9
$HYPERLINKBASE
  1

  9
$STYLESHEET
  1

  9
$XEDIT
290
     1
  9
$CEPSNTYPE
380
     0
  9
$PSTYLEMODE
290
     1
  9
$FINGERPRINTGUID
  2
{2612328C-29B9-6441-1B9C-1F4B3407490D}
  9
$VERSIONGUID
  2
{218ED0A2-BBEA-46C3-8780-CC0EC61DAF72}
  9
$EXTNAMES
290
     1
  9
$PSVPSCALE
 40
0.0
  9
$OLESTARTUP
290
     0
  0
ENDSEC
  0
SECTION
  2
CLASSES
  0
CLASS
  1
ACDBDICTIONARYWDFLT
  2
AcDbDictionaryWithDefault
  3
ObjectDBX Classes
 90
        0
280
     0
281
     0
  0
CLASS
  1
ACDBPLACEHOLDER
  2
AcDbPlaceHolder
  3
ObjectDBX Classes
 90
        0
280
     0
281
     0
  0
CLASS
  1
LAYOUT
  2
AcDbLayout
  3
ObjectDBX Classes
 90
        0
280
     0
281
     0
  0
CLASS
  1
MATERIAL
  2
AcDbMaterial
  3
ObjectDBX Classes
 90
     1024
280
     0
281
     0
  0
CLASS
  1
VISUALSTYLE
  2
AcDbVisualStyle
  3
ObjectDBX Classes
 90
     4095
280
     0
281
     0
  0
CLASS
  1
TABLESTYLE
  2
AcDbTableStyle
  3
ObjectDBX Classes
 90
     4095
280
     0
281
     0
  0
CLASS
  1
DICTIONARYVAR
  2
AcDbDictionaryVar
  3
ObjectDBX Classes
 90
        0
280
     0
281
     0
  0
ENDSEC
  0
SECTION
  2
TABLES
  0
TABLE
  2
VPORT
  5
8
330
0
100
AcDbSymbolTable
 70
    17
  0
VPORT
  5
29
330
8
100
AcDbSymbolTableRecord
100
AcDbViewportTableRecord
  2
DUMMY
 70
     0
 10
0.0
 20
0.0
 11
1.0
 21
1.0
 12
10.429907
 22
4.5
 13
0.0
 23
0.0
 14
0.5
 24
0.5
 15
0.5
 25
0.5
 16
0.0
 26
0.0
 36
1.0
 17
0.0
 27
0.0
 37
0.0
 40
9.0
 41
1.972972999999999
 42
50.0
 43
0.0
 44
0.0
 50
0.0
 51
0.0
 71
     0
 72
   100
 73
     1
 74
     3
 75
     0
 76
     0
 77
     0
 78
     0
281
     0
 65
     1
110
0.0
120
0.0
130
0.0
111
1.0
121
0.0
131
0.0
112
0.0
122
1.0
132
0.0
 79
     0
146
0.0
  0
VPORT
  5
B2
330
8
100
AcDbSymbolTableRecord
100
AcDbViewportTableRecord
  2
*ACTIVE
 70
     0
 10
0.0
 20
0.0
 11
1.0
 21
1.0
 12
725.5758572570892
 22
199.1752666957894
 13
0.0
 23
0.0
 14
0.5
 24
0.5
 15
0.5
 25
0.5
 16
0.0
 26
0.0
 36
1.0
 17
0.0
 27
0.0
 37
0.0
 40
1203.550346776626
 41
1.611036339165545
 42
50.0
 43
1252.778848
 44
-1252.778848
 50
0.0
 51
0.0
 71
     0
 72
   100
 73
     1
 74
     3
 75
     0
 76
     0
 77
     0
 78
     0
281
     0
 65
     1
110
0.0
120
0.0
130
0.0
111
1.0
121
0.0
131
0.0
112
0.0
122
1.0
132
0.0
 79
     0
146
0.0
  0
VPORT
  5
B3
330
8
100
AcDbSymbolTableRecord
100
AcDbViewportTableRecord
  2
L1
 70
     0
 10
0.0
 20
0.0
 11
1.0
 21
1.0
 12
387.475962
 22
386.610367
 13
0.0
 23
0.0
 14
0.5
 24
0.5
 15
0.5
 25
0.5
 16
0.0
 26
0.0
 36
1.0
 17
0.0
 27
0.0
 37
0.0
 40
254.0
 41
0.069908
 42
50.0
 43
1252.778848
 44
-1252.778848
 50
0.0
 51
0.0
 71
     0
 72
   100
 73
     1
 74
     3
 75
     0
 76
     0
 77
     0
 78
     0
281
     0
 65
     1
110
0.0
120
0.0
130
0.0
111
1.0
121
0.0
131
0.0
112
0.0
122
1.0
132
0.0
 79
     0
146
0.0
  0
VPORT
  5
B4
330
8
100
AcDbSymbolTableRecord
100
AcDbViewportTableRecord
  2
L2
 70
     0
 10
0.0
 20
0.0
 11
0.5
 21
1.0
 12
0.0
 22
0.0
 13
0.0
 23
0.0
 14
0.5
 24
0.5
 15
0.5
 25
0.5
 16
0.0
 26
-1.0
 36
0.0
 17
0.0
 27
0.0
 37
0.0
 40
1319.822715
 41
0.013454
 42
50.0
 43
672.020833
 44
-672.020833
 50
0.0
 51
0.0
 71
     0
 72
   100
 73
     1
 74
     3
 75
     0
 76
     0
 77
     0
 78
     0
281
     0
 65
     1
110
0.0
120
0.0
130
0.0
111
1.0
121
0.0
131
0.0
112
0.0
122
1.0
132
0.0
 79
     0
146
0.0
  0
VPORT
  5
B5
330
8
100
AcDbSymbolTableRecord
100
AcDbViewportTableRecord
  2
L2
 70
     0
 10
0.5
 20
0.0
 11
1.0
 21
1.0
 12
0.0
 22
0.0
 13
0.0
 23
0.0
 14
0.5
 24
0.5
 15
0.5
 25
0.5
 16
1.0
 26
0.0
 36
0.0
 17
0.0
 27
0.0
 37
0.0
 40
1319.822715
 41
0.013454
 42
50.0
 43
672.020833
 44
-672.020833
 50
0.0
 51
0.0
 71
     0
 72
   100
 73
     1
 74
     3
 75
     0
 76
     0
 77
     0
 78
     0
281
     0
 65
     1
110
0.0
120
0.0
130
0.0
111
1.0
121
0.0
131
0.0
112
0.0
122
1.0
132
0.0
 79
     0
146
0.0
  0
VPORT
  5
B6
330
8
100
AcDbSymbolTableRecord
100
AcDbViewportTableRecord
  2
L3
 70
     0
 10
0.0
 20
0.5
 11
1.0
 21
1.0
 12
387.475962
 22
386.610367
 13
0.0
 23
0.0
 14
0.5
 24
0.5
 15
0.5
 25
0.5
 16
0.0
 26
0.0
 36
1.0
 17
0.0
 27
0.0
 37
0.0
 40
254.0
 41
0.069908
 42
50.0
 43
1252.778848
 44
-1252.778848
 50
0.0
 51
0.0
 71
     0
 72
   100
 73
     1
 74
     3
 75
     0
 76
     0
 77
     0
 78
     0
281
     0
 65
     1
110
0.0
120
0.0
130
0.0
111
1.0
121
0.0
131
0.0
112
0.0
122
1.0
132
0.0
 79
     0
146
0.0
  0
VPORT
  5
B7
330
8
100
AcDbSymbolTableRecord
100
AcDbViewportTableRecord
  2
L3
 70
     0
 10
0.0
 20
0.0
 11
1.0
 21
0.5
 12
0.0
 22
0.0
 13
0.0
 23
0.0
 14
0.5
 24
0.5
 15
0.5
 25
0.5
 16
0.0
 26
-1.0
 36
0.0
 17
0.0
 27
0.0
 37
0.0
 40
1319.822715
 41
0.013454
 42
50.0
 43
672.020833
 44
-672.020833
 50
0.0
 51
0.0
 71
     0
 72
   100
 73
     1
 74
     3
 75
     0
 76
     0
 77
     0
 78
     0
281
     0
 65
     1
110
0.0
120
0.0
130
0.0
111
1.0
121
0.0
131
0.0
112
0.0
122
1.0
132
0.0
 79
     0
146
0.0
  0
VPORT
  5
B8
330
8
100
AcDbSymbolTableRecord
100
AcDbViewportTableRecord
  2
L4
 70
     0
 10
0.0
 20
0.5
 11
0.5
 21
1.0
 12
387.475962
 22
386.610367
 13
0.0
 23
0.0
 14
0.5
 24
0.5
 15
0.5
 25
0.5
 16
0.0
 26
0.0
 36
1.0
 17
0.0
 27
0.0
 37
0.0
 40
254.0
 41
0.069908
 42
50.0
 43
1252.778848
 44
-1252.778848
 50
0.0
 51
0.0
 71
     0
 72
   100
 73
     1
 74
     3
 75
     0
 76
     0
 77
     0
 78
     0
281
     0
 65
     1
110
0.0
120
0.0
130
0.0
111
1.0
121
0.0
131
0.0
112
0.0
122
1.0
132
0.0
 79
     0
146
0.0
  0
VPORT
  5
B9
330
8
100
AcDbSymbolTableRecord
100
AcDbViewportTableRecord
  2
L4
 70
     0
 10
0.0
 20
0.0
 11
0.5
 21
0.5
 12
0.0
 22
0.0
 13
0.0
 23
0.0
 14
0.5
 24
0.5
 15
0.5
 25
0.5
 16
0.0
 26
-1.0
 36
0.0
 17
0.0
 27
0.0
 37
0.0
 40
1319.822715
 41
0.013454
 42
50.0
 43
672.020833
 44
-672.020833
 50
0.0
 51
0.0
 71
     0
 72
   100
 73
     1
 74
     3
 75
     0
 76
     0
 77
     0
 78
     0
281
     0
 65
     1
110
0.0
120
0.0
130
0.0
111
1.0
121
0.0
131
0.0
112
0.0
122
1.0
132
0.0
 79
     0
146
0.0
  0
VPORT
  5
BA
330
8
100
AcDbSymbolTableRecord
100
AcDbViewportTableRecord
  2
L4
 70
     0
 10
0.5
 20
0.0
 11
1.0
 21
0.5
 12
0.0
 22
0.0
 13
0.0
 23
0.0
 14
0.5
 24
0.5
 15
0.5
 25
0.5
 16
1.0
 26
0.0
 36
0.0
 17
0.0
 27
0.0
 37
0.0
 40
1319.822715
 41
0.013454
 42
50.0
 43
672.020833
 44
-672.020833
 50
0.0
 51
0.0
 71
     0
 72
   100
 73
     1
 74
     3
 75
     0
 76
     0
 77
     0
 78
     0
281
     0
 65
     1
110
0.0
120
0.0
130
0.0
111
1.0
121
0.0
131
0.0
112
0.0
122
1.0
132
0.0
 79
     0
146
0.0
  0
VPORT
  5
BB
330
8
100
AcDbSymbolTableRecord
100
AcDbViewportTableRecord
  2
L4
 70
     0
 10
0.5
 20
0.5
 11
1.0
 21
1.0
 12
0.0
 22
0.0
 13
0.0
 23
0.0
 14
0.5
 24
0.5
 15
0.5
 25
0.5
 16
0.577350269189626
 26
-0.577350269189626
 36
0.577350269189626
 17
0.0
 27
0.0
 37
0.0
 40
1285.020866
 41
0.013818
 42
50.0
 43
667.141407
 44
-667.141407
 50
0.0
 51
0.0
 71
     0
 72
   100
 73
     1
 74
     3
 75
     0
 76
     0
 77
     0
 78
     0
281
     0
 65
     1
110
0.0
120
0.0
130
0.0
111
1.0
121
0.0
131
0.0
112
0.0
122
1.0
132
0.0
 79
     0
146
0.0
  0
VPORT
  5
BC
330
8
100
AcDbSymbolTableRecord
100
AcDbViewportTableRecord
  2
L6
 70
     0
 10
0.0
 20
0.5
 11
0.333333
 21
1.0
 12
0.0
 22
0.0
 13
0.0
 23
0.0
 14
0.5
 24
0.5
 15
0.5
 25
0.5
 16
0.7188730927569436
 26
-0.5850486126764432
 36
0.3754192287502549
 17
0.0
 27
0.0
 37
0.0
 40
1357.434192
 41
0.013081
 42
50.0
 43
701.839477
 44
-701.839477
 50
0.0
 51
0.0
 71
     0
 72
   100
 73
     1
 74
     3
 75
     0
 76
     0
 77
     0
 78
     0
281
     0
 65
     1
110
0.0
120
0.0
130
0.0
111
1.0
121
0.0
131
0.0
112
0.0
122
1.0
132
0.0
 79
     0
146
0.0
  0
VPORT
  5
BD
330
8
100
AcDbSymbolTableRecord
100
AcDbViewportTableRecord
  2
L6
 70
     0
 10
0.0
 20
0.0
 11
0.333333
 21
0.5
 12
0.0
 22
0.0
 13
0.0
 23
0.0
 14
0.5
 24
0.5
 15
0.5
 25
0.5
 16
-1.0
 26
0.0
 36
0.0
 17
0.0
 27
0.0
 37
0.0
 40
1319.822715
 41
0.013454
 42
50.0
 43
672.020833
 44
-672.020833
 50
0.0
 51
0.0
 71
     0
 72
   100
 73
     1
 74
     3
 75
     0
 76
     0
 77
     0
 78
     0
281
     0
 65
     1
110
0.0
120
0.0
130
0.0
111
1.0
121
0.0
131
0.0
112
0.0
122
1.0
132
0.0
 79
     0
146
0.0
  0
VPORT
  5
BE
330
8
100
AcDbSymbolTableRecord
100
AcDbViewportTableRecord
  2
L6
 70
     0
 10
0.333333
 20
0.5
 11
0.666667
 21
1.0
 12
387.475962
 22
386.610367
 13
0.0
 23
0.0
 14
0.5
 24
0.5
 15
0.5
 25
0.5
 16
0.0
 26
0.0
 36
1.0
 17
0.0
 27
0.0
 37
0.0
 40
254.0
 41
0.069908
 42
50.0
 43
1252.778848
 44
-1252.778848
 50
0.0
 51
0.0
 71
     0
 72
   100
 73
     1
 74
     3
 75
     0
 76
     0
 77
     0
 78
     0
281
     0
 65
     1
110
0.0
120
0.0
130
0.0
111
1.0
121
0.0
131
0.0
112
0.0
122
1.0
132
0.0
 79
     0
146
0.0
  0
VPORT
  5
BF
330
8
100
AcDbSymbolTableRecord
100
AcDbViewportTableRecord
  2
L6
 70
     0
 10
0.333333
 20
0.0
 11
0.666667
 21
0.5
 12
0.0
 22
0.0
 13
0.0
 23
0.0
 14
0.5
 24
0.5
 15
0.5
 25
0.5
 16
0.0
 26
-1.0
 36
0.0
 17
0.0
 27
0.0
 37
0.0
 40
1319.822715
 41
0.013454
 42
50.0
 43
672.020833
 44
-672.020833
 50
0.0
 51
0.0
 71
     0
 72
   100
 73
     1
 74
     3
 75
     0
 76
     0
 77
     0
 78
     0
281
     0
 65
     1
110
0.0
120
0.0
130
0.0
111
1.0
121
0.0
131
0.0
112
0.0
122
1.0
132
0.0
 79
     0
146
0.0
  0
VPORT
  5
C0
330
8
100
AcDbSymbolTableRecord
100
AcDbViewportTableRecord
  2
L6
 70
     0
 10
0.666667
 20
0.5
 11
1.0
 21
1.0
 12
0.0
 22
0.0
 13
0.0
 23
0.0
 14
0.5
 24
0.5
 15
0.5
 25
0.5
 16
0.577350269189626
 26
-0.577350269189626
 36
0.577350269189626
 17
0.0
 27
0.0
 37
0.0
 40
1285.020866
 41
0.013818
 42
50.0
 43
667.141407
 44
-667.141407
 50
0.0
 51
0.0
 71
     0
 72
   100
 73
     1
 74
     3
 75
     0
 76
     0
 77
     0
 78
     0
281
     0
 65
     1
110
0.0
120
0.0
130
0.0
111
1.0
121
0.0
131
0.0
112
0.0
122
1.0
132
0.0
 79
     0
146
0.0
  0
VPORT
  5
C1
330
8
100
AcDbSymbolTableRecord
100
AcDbViewportTableRecord
  2
L6
 70
     0
 10
0.666667
 20
0.0
 11
1.0
 21
0.5
 12
0.0
 22
0.0
 13
0.0
 23
0.0
 14
0.5
 24
0.5
 15
0.5
 25
0.5
 16
1.0
 26
0.0
 36
0.0
 17
0.0
 27
0.0
 37
0.0
 40
1319.822715
 41
0.013454
 42
50.0
 43
672.020833
 44
-672.020833
 50
0.0
 51
0.0
 71
     0
 72
   100
 73
     1
 74
     3
 75
     0
 76
     0
 77
     0
 78
     0
281
     0
 65
     1
110
0.0
120
0.0
130
0.0
111
1.0
121
0.0
131
0.0
112
0.0
122
1.0
132
0.0
 79
     0
146
0.0
  0
ENDTAB
  0
TABLE
  2
LTYPE
  5
5
330
0
100
AcDbSymbolTable
 70
     7
  0
LTYPE
  5
14
330
5
100
AcDbSymbolTableRecord
100
AcDbLinetypeTableRecord
  2
ByBlock
 70
     0
  3

 72
    65
 73
     0
 40
0.0
  0
LTYPE
  5
15
330
5
100
AcDbSymbolTableRecord
100
AcDbLinetypeTableRecord
  2
ByLayer
 70
     0
  3

 72
    65
 73
     0
 40
0.0
  0
LTYPE
  5
16
330
5
100
AcDbSymbolTableRecord
100
AcDbLinetypeTableRecord
  2
Continuous
 70
     0
  3
Solid line
 72
    65
 73
     0
 40
0.0
  0
LTYPE
  5
2A
330
5
100
AcDbSymbolTableRecord
100
AcDbLinetypeTableRecord
  2
DASHED
 70
     0
  3
__ __ __ __ __ __ __ __ __
 72
    65
 73
     2
 40
25.72
 49
12.86
 74
     4
 75
     0
340
0
 46
0.0
 50
0.0
 44
0.0
 45
0.0
 49
-12.86
 74
     4
 75
     0
340
0
 46
0.0
 50
0.0
 44
0.0
 45
0.0
  0
LTYPE
  5
2B
330
5
100
AcDbSymbolTableRecord
100
AcDbLinetypeTableRecord
  2
HIDDEN
 70
     0
  3
_ _ _ _ _ _ _ _ _ _ _ _ _ _ _
 72
    65
 73
     2
 40
0.5
 49
0.25
 74
     4
 75
     0
340
0
 46
0.0
 50
0.0
 44
0.0
 45
0.0
 49
-0.25
 74
     4
 75
     0
340
0
 46
0.0
 50
0.0
 44
0.0
 45
0.0
  0
LTYPE
  5
2C
330
5
100
AcDbSymbolTableRecord
100
AcDbLinetypeTableRecord
  2
PHANTOM
 70
     0
  3
____ _ _ ____ _ _ _____ _ _ ____
 72
    65
 73
     6
 40
50.5
 49
18.0
 74
     4
 75
     0
340
0
 46
0.0
 50
0.0
 44
0.0
 45
0.0
 49
-6.5
 74
     4
 75
     0
340
0
 46
0.0
 50
0.0
 44
0.0
 45
0.0
 49
6.5
 74
     4
 75
     0
340
0
 46
0.0
 50
0.0
 44
0.0
 45
0.0
 49
-6.5
 74
     4
 75
     0
340
0
 46
0.0
 50
0.0
 44
0.0
 45
0.0
 49
6.5
 74
     4
 75
     0
340
0
 46
0.0
 50
0.0
 44
0.0
 45
0.0
 49
-6.5
 74
     4
 75
     0
340
0
 46
0.0
 50
0.0
 44
0.0
 45
0.0
  0
LTYPE
  5
2D
330
5
100
AcDbSymbolTableRecord
100
AcDbLinetypeTableRecord
  2
CENTER
 70
     0
  3
____ _ ____ _ ____ _ ____
 72
    65
 73
     4
 40
47.4
 49
22.0
 74
     4
 75
     0
340
0
 46
0.0
 50
0.0
 44
0.0
 45
0.0
 49
-8.5
 74
     4
 75
     0
340
0
 46
0.0
 50
0.0
 44
0.0
 45
0.0
 49
8.5
 74
     4
 75
     0
340
0
 46
0.0
 50
0.0
 44
0.0
 45
0.0
 49
-8.5
 74
     4
 75
     0
340
0
 46
0.0
 50
0.0
 44
0.0
 45
0.0
  0
LTYPE
  5
2E
330
5
100
AcDbSymbolTableRecord
100
AcDbLinetypeTableRecord
  2
DOT
 70
     0
  3
.........................
 72
    65
 73
     2
 40
10.0
 49
0.0
 74
     4
 75
     0
340
0
 46
0.0
 50
0.0
 44
0.0
 45
0.0
 49
-10.0
 74
     4
 75
     0
340
0
 46
0.0
 50
0.0
 44
0.0
 45
0.0
  0
LTYPE
  5
2F
330
5
100
AcDbSymbolTableRecord
100
AcDbLinetypeTableRecord
  2
DASHDOT
 70
     0
  3
_._._._._._._._._._._._._._._._.
 72
    65
 73
     4
 40
70.0
 49
31.0
 74
     4
 75
     0
340
0
 46
0.0
 50
0.0
 44
0.0
 45
0.0
 49
-13.0
 74
     4
 75
     0
340
0
 46
0.0
 50
0.0
 44
0.0
 45
0.0
 49
13.0
 74
     4
 75
     0
340
0
 46
0.0
 50
0.0
 44
0.0
 45
0.0
 49
-13.0
 74
     4
 75
     0
340
0
 46
0.0
 50
0.0
 44
0.0
 45
0.0
  0
ENDTAB
  0
TABLE
  2
LAYER
  5
2
102
{ACAD_XDICTIONARY
360
10E
102
}
330
0
100
AcDbSymbolTable
 70
     5
  0
LAYER
  5
10
330
2
100
AcDbSymbolTableRecord
100
AcDbLayerTableRecord
  2
0
 70
     0
 62
     7
  6
Continuous
370
    -3
390
F
  0
LAYER
  5
31
330
2
100
AcDbSymbolTableRecord
100
AcDbLayerTableRecord
  2
1
 70
     0
 62
     7
  6
Continuous
370
    -3
390
F
  0
LAYER
  5
10B
330
2
100
AcDbSymbolTableRecord
100
AcDbLayerTableRecord
  2
HEWI
 70
     0
 62
     7
  6
Continuous
370
    -3
390
F
1001
AcAecLayerStandard
1000

1000

  0
LAYER
  5
10D
330
2
100
AcDbSymbolTableRecord
100
AcDbLayerTableRecord
  2
Polyamid
 70
     0
 62
   141
  6
Continuous
370
    -3
390
F
1001
AcAecLayerStandard
1000

1000

  0
LAYER
  5
131
330
2
100
AcDbSymbolTableRecord
100
AcDbLayerTableRecord
  2
Defpoints
 70
     0
 62
     7
  6
Continuous
290
     0
370
    -3
390
F
  0
ENDTAB
  0
TABLE
  2
STYLE
  5
3
330
0
100
AcDbSymbolTable
 70
     1
  0
STYLE
  5
11
330
3
100
AcDbSymbolTableRecord
100
AcDbTextStyleTableRecord
  2
Standard
 70
     0
 40
0.0
 41
1.0
 50
0.0
 71
     0
 42
0.2
  3
txt
  4

  0
ENDTAB
  0
TABLE
  2
VIEW
  5
6
330
0
100
AcDbSymbolTable
 70
     8
  0
VIEW
  5
AA
330
6
100
AcDbSymbolTableRecord
100
AcDbViewTableRecord
  2
TOP
 70
     0
 40
254.0
 10
387.475962
 20
386.610367
 41
254.0
 11
0.0
 21
0.0
 31
1.0
 12
0.0
 22
0.0
 32
0.0
 42
50.0
 43
1252.778848
 44
-1252.778848
 50
0.0
 71
     0
281
     0
 72
     0
  0
VIEW
  5
AB
330
6
100
AcDbSymbolTableRecord
100
AcDbViewTableRecord
  2
FRONT
 70
     0
 40
1319.822715
 10
0.0
 20
0.0
 41
254.0
 11
0.0
 21
-1.0
 31
0.0
 12
0.0
 22
0.0
 32
0.0
 42
50.0
 43
672.020833
 44
-672.020833
 50
0.0
 71
     0
281
     0
 72
     0
  0
VIEW
  5
AC
330
6
100
AcDbSymbolTableRecord
100
AcDbViewTableRecord
  2
RIGHT
 70
     0
 40
1319.822715
 10
0.0
 20
0.0
 41
254.0
 11
1.0
 21
0.0
 31
0.0
 12
0.0
 22
0.0
 32
0.0
 42
50.0
 43
672.020833
 44
-672.020833
 50
0.0
 71
     0
281
     0
 72
     0
  0
VIEW
  5
AD
330
6
100
AcDbSymbolTableRecord
100
AcDbViewTableRecord
  2
BACK
 70
     0
 40
1319.822715
 10
0.0
 20
0.0
 41
254.0
 11
0.0
 21
1.0
 31
0.0
 12
0.0
 22
0.0
 32
0.0
 42
50.0
 43
672.020833
 44
-672.020833
 50
0.0
 71
     0
281
     0
 72
     0
  0
VIEW
  5
AE
330
6
100
AcDbSymbolTableRecord
100
AcDbViewTableRecord
  2
BOTTOM
 70
     0
 40
254.0
 10
0.0
 20
0.0
 41
254.0
 11
0.0
 21
0.0
 31
-1.0
 12
0.0
 22
0.0
 32
0.0
 42
50.0
 43
659.911358
 44
-659.911358
 50
180.0
 71
     0
281
     0
 72
     0
  0
VIEW
  5
AF
330
6
100
AcDbSymbolTableRecord
100
AcDbViewTableRecord
  2
LEFT
 70
     0
 40
1319.822715
 10
0.0
 20
0.0
 41
254.0
 11
-1.0
 21
0.0
 31
0.0
 12
0.0
 22
0.0
 32
0.0
 42
50.0
 43
672.020833
 44
-672.020833
 50
0.0
 71
     0
281
     0
 72
     0
  0
VIEW
  5
B0
330
6
100
AcDbSymbolTableRecord
100
AcDbViewTableRecord
  2
TFR-ISO
 70
     0
 40
1285.020866
 10
0.0
 20
0.0
 41
359.210245
 11
0.577350269189626
 21
-0.577350269189626
 31
0.577350269189626
 12
0.0
 22
0.0
 32
0.0
 42
50.0
 43
667.141407
 44
-667.141407
 50
0.0
 71
     0
281
     0
 72
     0
  0
VIEW
  5
B1
330
6
100
AcDbSymbolTableRecord
100
AcDbViewTableRecord
  2
TFR-TRI
 70
     0
 40
1357.434192
 10
0.0
 20
0.0
 41
357.33321
 11
0.7188730927569436
 21
-0.5850486126764432
 31
0.3754192287502549
 12
0.0
 22
0.0
 32
0.0
 42
50.0
 43
701.839477
 44
-701.839477
 50
0.0
 71
     0
281
     0
 72
     0
  0
ENDTAB
  0
TABLE
  2
UCS
  5
7
330
0
100
AcDbSymbolTable
 70
     0
  0
ENDTAB
  0
TABLE
  2
APPID
  5
9
330
0
100
AcDbSymbolTable
 70
     3
  0
APPID
  5
12
330
9
100
AcDbSymbolTableRecord
100
AcDbRegAppTableRecord
  2
ACAD
 70
     0
  0
APPID
  5
10C
330
9
100
AcDbSymbolTableRecord
100
AcDbRegAppTableRecord
  2
AcAecLayerStandard
 70
     0
  0
APPID
  5
112
330
9
100
AcDbSymbolTableRecord
100
AcDbRegAppTableRecord
  2
ACAD_EXEMPT_FROM_CAD_STANDARDS
 70
     0
  0
ENDTAB
  0
TABLE
  2
DIMSTYLE
  5
A
330
0
100
AcDbSymbolTable
 70
     1
100
AcDbDimStyleTable
 71
     1
340
27
  0
DIMSTYLE
105
27
330
A
100
AcDbSymbolTableRecord
100
AcDbDimStyleTableRecord
  2
Standard
 70
     0
340
11
  0
ENDTAB
  0
TABLE
  2
BLOCK_RECORD
  5
1
330
0
100
AcDbSymbolTable
 70
     7
  0
BLOCK_RECORD
  5
1F
330
1
100
AcDbSymbolTableRecord
100
AcDbBlockTableRecord
  2
*Model_Space
340
22
  0
BLOCK_RECORD
  5
1B
330
1
100
AcDbSymbolTableRecord
100
AcDbBlockTableRecord
  2
*Paper_Space
340
1E
  0
BLOCK_RECORD
  5
23
330
1
100
AcDbSymbolTableRecord
100
AcDbBlockTableRecord
  2
*Paper_Space0
340
26
  0
BLOCK_RECORD
  5
132
330
1
100
AcDbSymbolTableRecord
100
AcDbBlockTableRecord
  2
*D1
340
0
  0
BLOCK_RECORD
  5
13B
330
1
100
AcDbSymbolTableRecord
100
AcDbBlockTableRecord
  2
*D2
340
0
  0
BLOCK_RECORD
  5
149
330
1
100
AcDbSymbolTableRecord
100
AcDbBlockTableRecord
  2
*D3
340
0
  0
BLOCK_RECORD
  5
157
330
1
100
AcDbSymbolTableRecord
100
AcDbBlockTableRecord
  2
*D4
340
0
  0
BLOCK_RECORD
  5
165
330
1
100
AcDbSymbolTableRecord
100
AcDbBlockTableRecord
  2
*D5
340
0
  0
BLOCK_RECORD
  5
173
330
1
100
AcDbSymbolTableRecord
100
AcDbBlockTableRecord
  2
*D6
340
0
  0
ENDTAB
  0
ENDSEC
  0
SECTION
  2
BLOCKS
  0
BLOCK
  5
20
330
1F
100
AcDbEntity
  8
0
100
AcDbBlockBegin
  2
*Model_Space
 70
     0
 10
0.0
 20
0.0
 30
0.0
  3
*Model_Space
  1

  0
ENDBLK
  5
21
330
1F
100
AcDbEntity
  8
0
100
AcDbBlockEnd
  0
BLOCK
  5
1C
330
1B
100
AcDbEntity
 67
     1
  8
0
100
AcDbBlockBegin
  2
*Paper_Space
 70
     0
 10
0.0
 20
0.0
 30
0.0
  3
*Paper_Space
  1

  0
ENDBLK
  5
1D
330
1B
100
AcDbEntity
 67
     1
  8
0
100
AcDbBlockEnd
  0
BLOCK
  5
24
330
23
100
AcDbEntity
 67
     1
  8
0
100
AcDbBlockBegin
  2
*Paper_Space0
 70
     0
 10
0.0
 20
0.0
 30
0.0
  3
*Paper_Space0
  1

  0
ENDBLK
  5
25
330
23
100
AcDbEntity
 67
     1
  8
0
100
AcDbBlockEnd
  0
BLOCK
  5
138
330
132
100
AcDbEntity
  8
0
100
AcDbBlockBegin
  2
*D1
 70
     1
 10
0.0
 20
0.0
 30
0.0
  3
*D1
  1

  0
LINE
  5
133
330
132
100
AcDbEntity
  8
0
 62
     0
370
    -2
100
AcDbLine
 10
129.687083
 20
113.122416
 30
0.0
 11
143.877083
 21
113.122416
 31
0.0
  0
MTEXT
  5
134
330
132
100
AcDbEntity
  8
0
 62
     0
100
AcDbMText
 10
129.057083
 20
113.122416
 30
0.0
 40
0.18
 41
0.0
 71
     5
 72
     1
  1
\A1;R15.0000
 73
     1
 44
1.0
1001
ACAD
1000
MTEXTBEGIN
1070
    73
1070
     1
1070
    44
1040
1.0
1070
    74
1070
     0
1000
MTEXTEND
  0
SOLID
  5
135
330
132
100
AcDbEntity
  8
0
 62
     0
100
AcDbTrace
 10
143.877083
 20
113.152416
 30
0.0
 11
143.877083
 21
113.092416
 31
0.0
 12
144.057083
 22
113.122416
 32
0.0
 13
144.057083
 23
113.122416
 33
0.0
  0
POINT
  5
136
330
132
100
AcDbEntity
  8
Defpoints
 62
     0
100
AcDbPoint
 10
144.057083
 20
113.122416
 30
0.0
  0
POINT
  5
137
330
132
100
AcDbEntity
  8
Defpoints
 62
     0
100
AcDbPoint
 10
129.0570830000001
 20
113.122416
 30
0.0
  0
ENDBLK
  5
139
330
132
100
AcDbEntity
  8
0
100
AcDbBlockEnd
  0
BLOCK
  5
146
330
13B
100
AcDbEntity
  8
0
100
AcDbBlockBegin
  2
*D2
 70
     1
 10
0.0
 20
0.0
 30
0.0
  3
*D2
  1

  0
LINE
  5
13C
330
13B
100
AcDbEntity
  8
0
 62
     0
370
    -2
100
AcDbLine
 10
264.119583
 20
675.0983169999998
 30
0.0
 11
315.8474452011553
 21
675.0983169999998
 31
0.0
  0
LINE
  5
13D
330
13B
100
AcDbEntity
  8
0
 62
     0
370
    -2
100
AcDbLine
 10
264.119583
 20
315.098317
 30
0.0
 11
315.8474452011552
 21
315.098317
 31
0.0
  0
LINE
  5
13E
330
13B
100
AcDbEntity
  8
0
 62
     0
370
    -2
100
AcDbLine
 10
315.6674452011553
 20
674.9183169999999
 30
0.0
 11
315.6674452011553
 21
495.278317
 31
0.0
  0
LINE
  5
13F
330
13B
100
AcDbEntity
  8
0
 62
     0
370
    -2
100
AcDbLine
 10
315.6674452011552
 20
315.278317
 30
0.0
 11
315.6674452011553
 21
494.918317
 31
0.0
  0
SOLID
  5
140
330
13B
100
AcDbEntity
  8
0
 62
     0
100
AcDbTrace
 10
315.6374452011553
 20
674.9183169999999
 30
0.0
 11
315.6974452011553
 21
674.9183169999999
 31
0.0
 12
315.6674452011553
 22
675.0983169999998
 32
0.0
 13
315.6674452011553
 23
675.0983169999998
 33
0.0
  0
SOLID
  5
141
330
13B
100
AcDbEntity
  8
0
 62
     0
100
AcDbTrace
 10
315.6374452011552
 20
315.278317
 30
0.0
 11
315.6974452011552
 21
315.278317
 31
0.0
 12
315.6674452011552
 22
315.098317
 32
0.0
 13
315.6674452011552
 23
315.098317
 33
0.0
  0
MTEXT
  5
142
330
13B
100
AcDbEntity
  8
0
 62
     0
100
AcDbMText
 10
315.6674452011552
 20
495.098317
 30
0.0
 40
0.18
 41
0.0
 71
     5
 72
     1
  1
\A1;360.0000
 73
     1
 44
1.0
1001
ACAD
1000
MTEXTBEGIN
1070
    73
1070
     1
1070
    44
1040
1.0
1070
    74
1070
     0
1000
MTEXTEND
  0
POINT
  5
143
330
13B
100
AcDbEntity
  8
Defpoints
 62
     0
100
AcDbPoint
 10
264.0570830000001
 20
675.0983169999998
 30
0.0
  0
POINT
  5
144
330
13B
100
AcDbEntity
  8
Defpoints
 62
     0
100
AcDbPoint
 10
264.0570830000001
 20
315.098317
 30
0.0
  0
POINT
  5
145
330
13B
100
AcDbEntity
  8
Defpoints
 62
     0
100
AcDbPoint
 10
315.6674452011552
 20
315.098317
 30
0.0
  0
ENDBLK
  5
147
330
13B
100
AcDbEntity
  8
0
100
AcDbBlockEnd
  0
BLOCK
  5
154
330
149
100
AcDbEntity
  8
0
100
AcDbBlockBegin
  2
*D3
 70
     1
 10
0.0
 20
0.0
 30
0.0
  3
*D3
  1

  0
LINE
  5
14A
330
149
100
AcDbEntity
  8
0
 62
     0
370
    -2
100
AcDbLine
 10
114.057083
 20
442.5188601843911
 30
0.0
 11
114.057083
 21
533.5367280676726
 31
0.0
  0
LINE
  5
14B
330
149
100
AcDbEntity
  8
0
 62
     0
370
    -2
100
AcDbLine
 10
414.057083
 20
442.5188601843911
 30
0.0
 11
414.057083
 21
533.5367280676726
 31
0.0
  0
LINE
  5
14C
330
149
100
AcDbEntity
  8
0
 62
     0
370
    -2
100
AcDbLine
 10
114.237083
 20
533.3567280676724
 30
0.0
 11
263.4270830000001
 21
533.3567280676724
 31
0.0
  0
LINE
  5
14D
330
149
100
AcDbEntity
  8
0
 62
     0
370
    -2
100
AcDbLine
 10
413.8770830000001
 20
533.3567280676724
 30
0.0
 11
264.6870830000001
 21
533.3567280676724
 31
0.0
  0
SOLID
  5
14E
330
149
100
AcDbEntity
  8
0
 62
     0
100
AcDbTrace
 10
114.237083
 20
533.3867280676725
 30
0.0
 11
114.237083
 21
533.3267280676725
 31
0.0
 12
114.057083
 22
533.3567280676724
 32
0.0
 13
114.057083
 23
533.3567280676724
 33
0.0
  0
SOLID
  5
14F
330
149
100
AcDbEntity
  8
0
 62
     0
100
AcDbTrace
 10
413.8770830000001
 20
533.3867280676725
 30
0.0
 11
413.8770830000001
 21
533.3267280676725
 31
0.0
 12
414.057083
 22
533.3567280676724
 32
0.0
 13
414.057083
 23
533.3567280676724
 33
0.0
  0
MTEXT
  5
150
330
149
100
AcDbEntity
  8
0
 62
     0
100
AcDbMText
 10
264.0570830000001
 20
533.3567280676724
 30
0.0
 40
0.18
 41
0.0
 71
     5
 72
     1
  1
\A1;300.0000
 73
     1
 44
1.0
1001
ACAD
1000
MTEXTBEGIN
1070
    73
1070
     1
1070
    44
1040
1.0
1070
    74
1070
     0
1000
MTEXTEND
  0
POINT
  5
151
330
149
100
AcDbEntity
  8
Defpoints
 62
     0
100
AcDbPoint
 10
114.057083
 20
442.456360184391
 30
0.0
  0
POINT
  5
152
330
149
100
AcDbEntity
  8
Defpoints
 62
     0
100
AcDbPoint
 10
414.057083
 20
442.456360184391
 30
0.0
  0
POINT
  5
153
330
149
100
AcDbEntity
  8
Defpoints
 62
     0
100
AcDbPoint
 10
414.057083
 20
533.3567280676724
 30
0.0
  0
ENDBLK
  5
155
330
149
100
AcDbEntity
  8
0
100
AcDbBlockEnd
  0
BLOCK
  5
162
330
157
100
AcDbEntity
  8
0
100
AcDbBlockBegin
  2
*D4
 70
     1
 10
0.0
 20
0.0
 30
0.0
  3
*D4
  1

  0
LINE
  5
158
330
157
100
AcDbEntity
  8
0
 62
     0
370
    -2
100
AcDbLine
 10
-12.78067399999997
 20
546.7512799527208
 30
0.0
 11
-12.78067399999996
 21
726.2455036139865
 31
0.0
  0
LINE
  5
159
330
157
100
AcDbEntity
  8
0
 62
     0
370
    -2
100
AcDbLine
 10
2.219326000000022
 20
546.7512799527208
 30
0.0
 11
2.219326000000033
 21
726.2455036139865
 31
0.0
  0
LINE
  5
15A
330
157
100
AcDbEntity
  8
0
 62
     0
370
    -2
100
AcDbLine
 10
-12.60067399999996
 20
726.0655036139865
 30
0.0
 11
-5.820673999999963
 21
726.0655036139865
 31
0.0
  0
LINE
  5
15B
330
157
100
AcDbEntity
  8
0
 62
     0
370
    -2
100
AcDbLine
 10
2.039326000000033
 20
726.0655036139865
 30
0.0
 11
-4.740673999999963
 21
726.0655036139865
 31
0.0
  0
SOLID
  5
15C
330
157
100
AcDbEntity
  8
0
 62
     0
100
AcDbTrace
 10
-12.60067399999996
 20
726.0955036139864
 30
0.0
 11
-12.60067399999996
 21
726.0355036139864
 31
0.0
 12
-12.78067399999996
 22
726.0655036139865
 32
0.0
 13
-12.78067399999996
 23
726.0655036139865
 33
0.0
  0
SOLID
  5
15D
330
157
100
AcDbEntity
  8
0
 62
     0
100
AcDbTrace
 10
2.039326000000033
 20
726.0955036139864
 30
0.0
 11
2.039326000000033
 21
726.0355036139864
 31
0.0
 12
2.219326000000033
 22
726.0655036139865
 32
0.0
 13
2.219326000000033
 23
726.0655036139865
 33
0.0
  0
MTEXT
  5
15E
330
157
100
AcDbEntity
  8
0
 62
     0
100
AcDbMText
 10
-5.280673999999963
 20
726.0655036139865
 30
0.0
 40
0.18
 41
0.0
 71
     5
 72
     1
  1
\A1;15.0000
 73
     1
 44
1.0
1001
ACAD
1000
MTEXTBEGIN
1070
    73
1070
     1
1070
    44
1040
1.0
1070
    74
1070
     0
1000
MTEXTEND
  0
POINT
  5
15F
330
157
100
AcDbEntity
  8
Defpoints
 62
     0
100
AcDbPoint
 10
-12.78067399999997
 20
546.6887799527207
 30
0.0
  0
POINT
  5
160
330
157
100
AcDbEntity
  8
Defpoints
 62
     0
100
AcDbPoint
 10
2.219326000000022
 20
546.6887799527207
 30
0.0
  0
POINT
  5
161
330
157
100
AcDbEntity
  8
Defpoints
 62
     0
100
AcDbPoint
 10
2.219326000000033
 20
726.0655036139865
 30
0.0
  0
ENDBLK
  5
163
330
157
100
AcDbEntity
  8
0
100
AcDbBlockEnd
  0
BLOCK
  5
170
330
165
100
AcDbEntity
  8
0
100
AcDbBlockBegin
  2
*D5
 70
     1
 10
0.0
 20
0.0
 30
0.0
  3
*D5
  1

  0
LINE
  5
166
330
165
100
AcDbEntity
  8
0
 62
     0
370
    -2
100
AcDbLine
 10
-12.78067399999996
 20
636.5608917833537
 30
0.0
 11
-12.78067399999996
 21
748.0615915701093
 31
0.0
  0
LINE
  5
167
330
165
100
AcDbEntity
  8
0
 62
     0
370
    -2
100
AcDbLine
 10
-132.7806739999999
 20
636.5608917833537
 30
0.0
 11
-132.7806739999999
 21
748.0615915701093
 31
0.0
  0
LINE
  5
168
330
165
100
AcDbEntity
  8
0
 62
     0
370
    -2
100
AcDbLine
 10
-12.96067399999996
 20
747.8815915701093
 30
0.0
 11
-72.16567399999992
 21
747.8815915701093
 31
0.0
  0
LINE
  5
169
330
165
100
AcDbEntity
  8
0
 62
     0
370
    -2
100
AcDbLine
 10
-132.6006739999999
 20
747.8815915701093
 30
0.0
 11
-73.39567399999991
 21
747.8815915701093
 31
0.0
  0
SOLID
  5
16A
330
165
100
AcDbEntity
  8
0
 62
     0
100
AcDbTrace
 10
-12.96067399999996
 20
747.9115915701092
 30
0.0
 11
-12.96067399999996
 21
747.8515915701093
 31
0.0
 12
-12.78067399999996
 22
747.8815915701093
 32
0.0
 13
-12.78067399999996
 23
747.8815915701093
 33
0.0
  0
SOLID
  5
16B
330
165
100
AcDbEntity
  8
0
 62
     0
100
AcDbTrace
 10
-132.6006739999999
 20
747.9115915701092
 30
0.0
 11
-132.6006739999999
 21
747.8515915701093
 31
0.0
 12
-132.7806739999999
 22
747.8815915701093
 32
0.0
 13
-132.7806739999999
 23
747.8815915701093
 33
0.0
  0
MTEXT
  5
16C
330
165
100
AcDbEntity
  8
0
 62
     0
100
AcDbMText
 10
-72.78067399999992
 20
747.8815915701093
 30
0.0
 40
0.18
 41
0.0
 71
     5
 72
     1
  1
\A1;120.0000
 73
     1
 44
1.0
1001
ACAD
1000
MTEXTBEGIN
1070
    73
1070
     1
1070
    44
1040
1.0
1070
    74
1070
     0
1000
MTEXTEND
  0
POINT
  5
16D
330
165
100
AcDbEntity
  8
Defpoints
 62
     0
100
AcDbPoint
 10
-12.78067399999996
 20
636.4983917833536
 30
0.0
  0
POINT
  5
16E
330
165
100
AcDbEntity
  8
Defpoints
 62
     0
100
AcDbPoint
 10
-132.7806739999999
 20
636.4983917833536
 30
0.0
  0
POINT
  5
16F
330
165
100
AcDbEntity
  8
Defpoints
 62
     0
100
AcDbPoint
 10
-132.7806739999999
 20
747.8815915701093
 30
0.0
  0
ENDBLK
  5
171
330
165
100
AcDbEntity
  8
0
100
AcDbBlockEnd
  0
BLOCK
  5
179
330
173
100
AcDbEntity
  8
0
100
AcDbBlockBegin
  2
*D6
 70
     1
 10
0.0
 20
0.0
 30
0.0
  3
*D6
  1

  0
LINE
  5
174
330
173
100
AcDbEntity
  8
0
 62
     0
370
    -2
100
AcDbLine
 10
129.057083
 20
113.1224160000001
 30
0.0
 11
142.877083
 21
113.122416
 31
0.0
  0
MTEXT
  5
175
330
173
100
AcDbEntity
  8
0
 62
     0
100
AcDbMText
 10
128.427083
 20
113.1224160000001
 30
0.0
 40
0.18
 41
0.0
 71
     5
 72
     1
  1
\A1;R14.0000
 73
     1
 44
1.0
1001
ACAD
1000
MTEXTBEGIN
1070
    73
1070
     1
1070
    44
1040
1.0
1070
    74
1070
     0
1000
MTEXTEND
  0
SOLID
  5
176
330
173
100
AcDbEntity
  8
0
 62
     0
100
AcDbTrace
 10
142.877083
 20
113.152416
 30
0.0
 11
142.877083
 21
113.092416
 31
0.0
 12
143.057083
 22
113.122416
 32
0.0
 13
143.057083
 23
113.122416
 33
0.0
  0
POINT
  5
177
330
173
100
AcDbEntity
  8
Defpoints
 62
     0
100
AcDbPoint
 10
143.057083
 20
113.122416
 30
0.0
  0
POINT
  5
178
330
173
100
AcDbEntity
  8
Defpoints
 62
     0
100
AcDbPoint
 10
129.0570829999998
 20
113.1224160000001
 30
0.0
  0
ENDBLK
  5
17A
330
173
100
AcDbEntity
  8
0
100
AcDbBlockEnd
  0
ENDSEC
  0
SECTION
  2
ENTITIES
  0
LINE
  5
30
330
1F
100
AcDbEntity
  8
HEWI
100
AcDbLine
 10
114.057083
 20
325.098317
 30
0.0
 11
114.057083
 21
675.0983169999998
 31
0.0
  0
LINE
  5
32
330
1F
100
AcDbEntity
  8
HEWI
100
AcDbLine
 10
114.057083
 20
675.0983169999998
 30
0.0
 11
129.057083
 21
675.0983169999998
 31
0.0
  0
LINE
  5
34
330
1F
100
AcDbEntity
  8
Polyamid
100
AcDbLine
 10
129.057083
 20
325.098317
 30
0.0
 11
114.057083
 21
325.098317
 31
0.0
  0
LINE
  5
36
330
1F
100
AcDbEntity
  8
HEWI
100
AcDbLine
 10
399.057083
 20
675.0983169999998
 30
0.0
 11
414.057083
 21
675.0983169999998
 31
0.0
  0
LINE
  5
37
330
1F
100
AcDbEntity
  8
HEWI
100
AcDbLine
 10
414.057083
 20
675.0983169999998
 30
0.0
 11
414.057083
 21
325.098317
 31
0.0
  0
LINE
  5
38
330
1F
100
AcDbEntity
  8
Polyamid
100
AcDbLine
 10
414.057083
 20
325.098317
 30
0.0
 11
399.057083
 21
325.098317
 31
0.0
  0
LINE
  5
39
330
1F
100
AcDbEntity
  8
HEWI
100
AcDbLine
 10
399.057083
 20
675.0983169999998
 30
0.0
 11
129.057083
 21
675.0983169999998
 31
0.0
  0
LINE
  5
3A
330
1F
100
AcDbEntity
  8
1
 62
   252
100
AcDbLine
 10
129.057083
 20
325.098317
 30
0.0
 11
399.057083
 21
325.098317
 31
0.0
  0
LINE
  5
3B
330
1F
100
AcDbEntity
  8
Polyamid
100
AcDbLine
 10
399.057083
 20
325.098317
 30
0.0
 11
414.057083
 21
325.098317
 31
0.0
  0
LINE
  5
3C
330
1F
100
AcDbEntity
  8
Polyamid
100
AcDbLine
 10
414.057083
 20
325.098317
 30
0.0
 11
413.891108
 21
315.589591
 31
0.0
  0
LINE
  5
3D
330
1F
100
AcDbEntity
  8
Polyamid
100
AcDbLine
 10
399.057083
 20
315.589591
 30
0.0
 11
413.891108
 21
315.589591
 31
0.0
  0
LINE
  5
3F
330
1F
100
AcDbEntity
  8
Polyamid
100
AcDbLine
 10
399.057083
 20
325.098317
 30
0.0
 11
129.057083
 21
325.098317
 31
0.0
  0
LINE
  5
40
330
1F
100
AcDbEntity
  8
Polyamid
100
AcDbLine
 10
129.057083
 20
315.589591
 30
0.0
 11
399.057083
 21
315.589591
 31
0.0
  0
LINE
  5
42
330
1F
100
AcDbEntity
  8
Polyamid
100
AcDbLine
 10
114.057083
 20
325.098317
 30
0.0
 11
129.057083
 21
325.098317
 31
0.0
  0
LINE
  5
43
330
1F
100
AcDbEntity
  8
Polyamid
100
AcDbLine
 10
114.223059
 20
315.589591
 30
0.0
 11
129.057083
 21
315.589591
 31
0.0
  0
LINE
  5
44
330
1F
100
AcDbEntity
  8
Polyamid
100
AcDbLine
 10
114.223059
 20
315.589591
 30
0.0
 11
114.057083
 21
325.098317
 31
0.0
  0
LINE
  5
46
330
1F
100
AcDbEntity
  8
Polyamid
100
AcDbLine
 10
399.057083
 20
315.098317
 30
0.0
 11
129.057083
 21
315.098317
 31
0.0
  0
LINE
  5
48
330
1F
100
AcDbEntity
  8
Polyamid
100
AcDbLine
 10
413.391184
 20
315.098317
 30
0.0
 11
399.057083
 21
315.098317
 31
0.0
  0
LINE
  5
49
330
1F
100
AcDbEntity
  8
Polyamid
100
AcDbLine
 10
129.057083
 20
315.098317
 30
0.0
 11
114.722983
 21
315.098317
 31
0.0
  0
LINE
  5
4A
330
1F
100
AcDbEntity
  8
Polyamid
100
AcDbLine
 10
413.963613
 20
318.597435
 30
0.0
 11
413.943616
 21
318.597784
 31
0.0
  0
LINE
  5
4B
330
1F
100
AcDbEntity
  8
Polyamid
100
AcDbLine
 10
413.963613
 20
318.597435
 30
0.0
 11
414.01597
 21
321.596978
 31
0.0
  0
LINE
  5
4C
330
1F
100
AcDbEntity
  8
1
 62
    13
100
AcDbLine
 10
414.01597
 20
321.596978
 30
0.0
 11
413.995973
 21
321.597327
 31
0.0
  0
LINE
  5
4D
330
1F
100
AcDbEntity
  8
HEWI
100
AcDbLine
 10
603.89484
 20
625.0983169999998
 30
0.0
 11
597.89484
 21
625.0983169999998
 31
0.0
  0
LINE
  5
4E
330
1F
100
AcDbEntity
  8
Polyamid
100
AcDbLine
 10
540.89484
 20
325.098317
 30
0.0
 11
555.89484
 21
325.098317
 31
0.0
  0
LINE
  5
50
330
1F
100
AcDbEntity
  8
HEWI
100
AcDbLine
 10
604.89484
 20
624.0983169999998
 30
0.0
 11
604.89484
 21
366.098317
 31
0.0
  0
LINE
  5
51
330
1F
100
AcDbEntity
  8
HEWI
100
AcDbLine
 10
596.89484
 20
624.0983169999998
 30
0.0
 11
596.89484
 21
366.098317
 31
0.0
  0
LINE
  5
52
330
1F
100
AcDbEntity
  8
Polyamid
100
AcDbLine
 10
660.89484
 20
325.098317
 30
0.0
 11
660.7288639999998
 21
315.589591
 31
0.0
  0
LINE
  5
53
330
1F
100
AcDbEntity
  8
Polyamid
100
AcDbLine
 10
541.060815
 20
315.589591
 30
0.0
 11
540.89484
 21
325.098317
 31
0.0
  0
LINE
  5
54
330
1F
100
AcDbEntity
  8
Polyamid
100
AcDbLine
 10
540.89484
 20
325.098317
 30
0.0
 11
555.89484
 21
325.098317
 31
0.0
  0
LINE
  5
55
330
1F
100
AcDbEntity
  8
Polyamid
100
AcDbLine
 10
541.060815
 20
315.589591
 30
0.0
 11
555.89484
 21
315.589591
 31
0.0
  0
LINE
  5
57
330
1F
100
AcDbEntity
  8
HEWI
100
AcDbLine
 10
660.89484
 20
675.0983169999998
 30
0.0
 11
645.89484
 21
675.0983169999998
 31
0.0
  0
LINE
  5
58
330
1F
100
AcDbEntity
  8
Polyamid
100
AcDbLine
 10
660.89484
 20
325.098317
 30
0.0
 11
645.89484
 21
325.098317
 31
0.0
  0
LINE
  5
59
330
1F
100
AcDbEntity
  8
1
 62
   252
100
AcDbLine
 10
555.89484
 20
325.098317
 30
0.0
 11
645.89484
 21
325.098317
 31
0.0
  0
LINE
  5
5A
330
1F
100
AcDbEntity
  8
HEWI
100
AcDbLine
 10
660.89484
 20
675.0983169999998
 30
0.0
 11
660.89484
 21
325.098317
 31
0.0
  0
LINE
  5
5B
330
1F
100
AcDbEntity
  8
HEWI
100
AcDbLine
 10
603.89484
 20
365.098317
 30
0.0
 11
597.89484
 21
365.098317
 31
0.0
  0
LINE
  5
5C
330
1F
100
AcDbEntity
  8
HEWI
100
AcDbLine
 10
645.89484
 20
675.0983169999998
 30
0.0
 11
555.89484
 21
675.0983169999998
 31
0.0
  0
LINE
  5
5E
330
1F
100
AcDbEntity
  8
Polyamid
100
AcDbLine
 10
645.89484
 20
315.589591
 30
0.0
 11
660.7288639999998
 21
315.589591
 31
0.0
  0
LINE
  5
5F
330
1F
100
AcDbEntity
  8
HEWI
100
AcDbLine
 10
540.89484
 20
675.0983169999998
 30
0.0
 11
555.89484
 21
675.0983169999998
 31
0.0
  0
LINE
  5
60
330
1F
100
AcDbEntity
  8
HEWI
100
AcDbLine
 10
540.89484
 20
325.098317
 30
0.0
 11
540.89484
 21
675.0983169999998
 31
0.0
  0
LINE
  5
62
330
1F
100
AcDbEntity
  8
Polyamid
100
AcDbLine
 10
660.89484
 20
325.098317
 30
0.0
 11
645.89484
 21
325.098317
 31
0.0
  0
LINE
  5
63
330
1F
100
AcDbEntity
  8
Polyamid
100
AcDbLine
 10
555.89484
 20
315.589591
 30
0.0
 11
645.89484
 21
315.589591
 31
0.0
  0
LINE
  5
64
330
1F
100
AcDbEntity
  8
Polyamid
100
AcDbLine
 10
645.89484
 20
325.098317
 30
0.0
 11
555.89484
 21
325.098317
 31
0.0
  0
LINE
  5
65
330
1F
100
AcDbEntity
  8
Polyamid
100
AcDbLine
 10
541.5607389999999
 20
315.098317
 30
0.0
 11
555.89484
 21
315.098317
 31
0.0
  0
LINE
  5
67
330
1F
100
AcDbEntity
  8
Polyamid
100
AcDbLine
 10
660.22894
 20
315.098317
 30
0.0
 11
645.89484
 21
315.098317
 31
0.0
  0
LINE
  5
69
330
1F
100
AcDbEntity
  8
Polyamid
100
AcDbLine
 10
645.89484
 20
315.098317
 30
0.0
 11
555.89484
 21
315.098317
 31
0.0
  0
LINE
  5
6A
330
1F
100
AcDbEntity
  8
Polyamid
100
AcDbLine
 10
540.9821149999998
 20
320.098317
 30
0.0
 11
540.89484
 21
325.098317
 31
0.0
  0
LINE
  5
6B
330
1F
100
AcDbEntity
  8
HEWI
100
AcDbLine
 10
540.89484
 20
345.098317
 30
0.0
 11
525.89484
 21
345.098317
 31
0.0
  0
LINE
  5
6C
330
1F
100
AcDbEntity
  8
HEWI
100
AcDbLine
 10
540.89484
 20
645.0983169999998
 30
0.0
 11
525.89484
 21
645.0983169999998
 31
0.0
  0
LINE
  5
6D
330
1F
100
AcDbEntity
  8
HEWI
100
AcDbLine
 10
525.89484
 20
345.098317
 30
0.0
 11
525.89484
 21
645.0983169999998
 31
0.0
  0
LINE
  5
6E
330
1F
100
AcDbEntity
  8
HEWI
100
AcDbLine
 10
115.057083
 20
113.122416
 30
0.0
 11
115.057083
 21
203.122416
 31
0.0
  0
LINE
  5
6F
330
1F
100
AcDbEntity
  8
HEWI
100
AcDbLine
 10
399.057083
 20
99.12241600000001
 30
0.0
 11
129.057083
 21
99.12241600000001
 31
0.0
  0
LINE
  5
70
330
1F
100
AcDbEntity
  8
HEWI
100
AcDbLine
 10
129.057083
 20
217.122416
 30
0.0
 11
399.057083
 21
217.122416
 31
0.0
  0
LINE
  5
71
330
1F
100
AcDbEntity
  8
HEWI
100
AcDbLine
 10
413.057083
 20
203.122416
 30
0.0
 11
413.057083
 21
113.122416
 31
0.0
  0
LINE
  5
72
330
1F
100
AcDbEntity
  8
HEWI
100
AcDbLine
 10
129.057083
 20
217.122416
 30
0.0
 11
134.557083
 21
217.122416
 31
0.0
  0
LINE
  5
74
330
1F
100
AcDbEntity
  8
HEWI
100
AcDbLine
 10
115.057083
 20
113.122416
 30
0.0
 11
115.057083
 21
203.122416
 31
0.0
  0
LINE
  5
75
330
1F
100
AcDbEntity
  8
HEWI
100
AcDbLine
 10
114.057083
 20
113.122416
 30
0.0
 11
114.057083
 21
203.122416
 31
0.0
  0
LINE
  5
76
330
1F
100
AcDbEntity
  8
HEWI
100
AcDbLine
 10
393.5570830000001
 20
217.122416
 30
0.0
 11
399.057083
 21
217.122416
 31
0.0
  0
LINE
  5
77
330
1F
100
AcDbEntity
  8
HEWI
100
AcDbLine
 10
390.957083
 20
218.122416
 30
0.0
 11
399.057083
 21
218.122416
 31
0.0
  0
LINE
  5
79
330
1F
100
AcDbEntity
  8
HEWI
100
AcDbLine
 10
399.057083
 20
99.12241600000001
 30
0.0
 11
129.057083
 21
99.12241600000001
 31
0.0
  0
LINE
  5
7A
330
1F
100
AcDbEntity
  8
HEWI
100
AcDbLine
 10
414.057083
 20
203.122416
 30
0.0
 11
414.057083
 21
113.122416
 31
0.0
  0
LINE
  5
7B
330
1F
100
AcDbEntity
  8
HEWI
100
AcDbLine
 10
413.057083
 20
203.122416
 30
0.0
 11
413.057083
 21
113.122416
 31
0.0
  0
LINE
  5
7C
330
1F
100
AcDbEntity
  8
HEWI
100
AcDbLine
 10
129.057083
 20
218.122416
 30
0.0
 11
134.557083
 21
218.122416
 31
0.0
  0
LINE
  5
7D
330
1F
100
AcDbEntity
  8
HEWI
100
AcDbLine
 10
399.057083
 20
98.122416
 30
0.0
 11
129.057083
 21
98.122416
 31
0.0
  0
LINE
  5
81
330
1F
100
AcDbEntity
  8
HEWI
100
AcDbLine
 10
258.057083
 20
217.122416
 30
0.0
 11
137.057083
 21
217.122416
 31
0.0
  0
LINE
  5
83
330
1F
100
AcDbEntity
  8
HEWI
100
AcDbLine
 10
134.557083
 20
218.122416
 30
0.0
 11
258.057083
 21
218.122416
 31
0.0
  0
LINE
  5
86
330
1F
100
AcDbEntity
  8
HEWI
100
AcDbLine
 10
391.0570830000001
 20
217.122416
 30
0.0
 11
270.057083
 21
217.122416
 31
0.0
  0
LINE
  5
87
330
1F
100
AcDbEntity
  8
HEWI
100
AcDbLine
 10
258.057083
 20
218.122416
 30
0.0
 11
390.957083
 21
218.122416
 31
0.0
  0
LINE
  5
8D
330
1F
100
AcDbEntity
  8
HEWI
100
AcDbLine
 10
384.057083
 20
233.122416
 30
0.0
 11
144.057083
 21
233.122416
 31
0.0
  0
LINE
  5
8E
330
1F
100
AcDbEntity
  8
HEWI
100
AcDbLine
 10
384.057083
 20
218.122416
 30
0.0
 11
384.057083
 21
233.122416
 31
0.0
  0
LINE
  5
8F
330
1F
100
AcDbEntity
  8
HEWI
100
AcDbLine
 10
144.057083
 20
218.122416
 30
0.0
 11
144.057083
 21
233.122416
 31
0.0
  0
ARC
  5
90
330
1F
100
AcDbEntity
  8
Polyamid
100
AcDbCircle
 10
-413.391184
 20
315.598317
 30
0.0
 40
0.5
210
0.0
220
0.0
230
-1.0
100
AcDbArc
 50
181.0
 51
270.0
  0
ARC
  5
91
330
1F
100
AcDbEntity
  8
Polyamid
100
AcDbCircle
 10
-114.722983
 20
315.598317
 30
0.0
 40
0.5
210
0.0
220
0.0
230
-1.0
100
AcDbArc
 50
270.0
 51
359.0
  0
ARC
  5
92
330
1F
100
AcDbEntity
  8
HEWI
100
AcDbCircle
 10
-597.89484
 20
624.0983169999998
 30
0.0
 40
1.0
210
0.0
220
0.0
230
-1.0
100
AcDbArc
 50
0.0
 51
90.0
  0
ARC
  5
93
330
1F
100
AcDbEntity
  8
HEWI
100
AcDbCircle
 10
-603.89484
 20
624.0983169999998
 30
0.0
 40
1.0
210
0.0
220
0.0
230
-1.0
100
AcDbArc
 50
90.0
 51
180.0
  0
ARC
  5
94
330
1F
100
AcDbEntity
  8
HEWI
100
AcDbCircle
 10
-597.89484
 20
366.098317
 30
0.0
 40
1.0
210
0.0
220
0.0
230
-1.0
100
AcDbArc
 50
-90.0
 51
0.0
  0
ARC
  5
95
330
1F
100
AcDbEntity
  8
HEWI
100
AcDbCircle
 10
-603.89484
 20
366.098317
 30
0.0
 40
1.0
210
0.0
220
0.0
230
-1.0
100
AcDbArc
 50
180.0
 51
270.0
  0
ARC
  5
96
330
1F
100
AcDbEntity
  8
Polyamid
100
AcDbCircle
 10
-541.5607389999999
 20
315.598317
 30
0.0
 40
0.5
210
0.0
220
0.0
230
-1.0
100
AcDbArc
 50
270.0
 51
359.0
  0
ARC
  5
97
330
1F
100
AcDbEntity
  8
Polyamid
100
AcDbCircle
 10
-660.22894
 20
315.598317
 30
0.0
 40
0.5
210
0.0
220
0.0
230
-1.0
100
AcDbArc
 50
181.0
 51
270.0
  0
ARC
  5
98
330
1F
100
AcDbEntity
  8
HEWI
100
AcDbCircle
 10
129.057083
 20
113.122416
 30
0.0
 40
14.0
100
AcDbArc
 50
180.0
 51
270.0
  0
ARC
  5
99
330
1F
100
AcDbEntity
  8
HEWI
100
AcDbCircle
 10
399.057083
 20
113.122416
 30
0.0
 40
14.0
100
AcDbArc
 50
-90.0
 51
0.0
  0
CIRCLE
  5
9A
330
1F
100
AcDbEntity
  8
HEWI
100
AcDbCircle
 10
-264.0570830000001
 20
213.622416
 30
0.0
 40
0.9000000000000003
210
0.0
220
0.0
230
-1.0
  0
ARC
  5
9B
330
1F
100
AcDbEntity
  8
HEWI
100
AcDbCircle
 10
129.057083
 20
203.122416
 30
0.0
 40
14.0
100
AcDbArc
 50
90.0
 51
180.0
  0
ARC
  5
9C
330
1F
100
AcDbEntity
  8
HEWI
100
AcDbCircle
 10
399.057083
 20
203.122416
 30
0.0
 40
14.0
100
AcDbArc
 50
0.0
 51
90.0
  0
CIRCLE
  5
9D
330
1F
100
AcDbEntity
  8
HEWI
100
AcDbCircle
 10
-264.0570830000001
 20
213.622416
 30
0.0
 40
1.0
210
0.0
220
0.0
230
-1.0
  0
ARC
  5
9E
330
1F
100
AcDbEntity
  8
HEWI
100
AcDbCircle
 10
399.057083
 20
113.122416
 30
0.0
 40
14.0
100
AcDbArc
 50
-90.0
 51
0.0
  0
ARC
  5
9F
330
1F
100
AcDbEntity
  8
HEWI
100
AcDbCircle
 10
129.057083
 20
203.122416
 30
0.0
 40
15.0
100
AcDbArc
 50
90.0
 51
180.0
  0
ARC
  5
A0
330
1F
100
AcDbEntity
  8
HEWI
100
AcDbCircle
 10
129.057083
 20
203.122416
 30
0.0
 40
14.0
100
AcDbArc
 50
90.0
 51
180.0
  0
ARC
  5
A1
330
1F
100
AcDbEntity
  8
HEWI
100
AcDbCircle
 10
129.057083
 20
113.122416
 30
0.0
 40
15.0
100
AcDbArc
 50
180.0
 51
270.0
  0
ARC
  5
A2
330
1F
100
AcDbEntity
  8
HEWI
100
AcDbCircle
 10
129.057083
 20
113.122416
 30
0.0
 40
14.0
100
AcDbArc
 50
180.0
 51
270.0
  0
ARC
  5
A3
330
1F
100
AcDbEntity
  8
HEWI
100
AcDbCircle
 10
399.057083
 20
203.122416
 30
0.0
 40
14.0
100
AcDbArc
 50
0.0
 51
90.0
  0
ARC
  5
A4
330
1F
100
AcDbEntity
  8
HEWI
100
AcDbCircle
 10
399.057083
 20
113.122416
 30
0.0
 40
15.0
100
AcDbArc
 50
-90.0
 51
0.0
  0
ARC
  5
A5
330
1F
100
AcDbEntity
  8
HEWI
100
AcDbCircle
 10
399.057083
 20
203.122416
 30
0.0
 40
15.0
100
AcDbArc
 50
0.0
 51
90.0
  0
LINE
  5
DE
330
1F
100
AcDbEntity
  8
HEWI
100
AcDbLine
 10
-75.78067399999998
 20
625.0983169999998
 30
0.0
 11
-69.78067399999997
 21
625.0983169999998
 31
0.0
  0
LINE
  5
DF
330
1F
100
AcDbEntity
  8
Polyamid
100
AcDbLine
 10
-12.78067399999997
 20
325.098317
 30
0.0
 11
-27.78067399999998
 21
325.098317
 31
0.0
  0
LINE
  5
E1
330
1F
100
AcDbEntity
  8
HEWI
100
AcDbLine
 10
-76.78067399999997
 20
624.0983169999998
 30
0.0
 11
-76.78067399999997
 21
366.098317
 31
0.0
  0
LINE
  5
E2
330
1F
100
AcDbEntity
  8
HEWI
100
AcDbLine
 10
-68.78067399999998
 20
624.0983169999998
 30
0.0
 11
-68.78067399999998
 21
366.098317
 31
0.0
  0
LINE
  5
E3
330
1F
100
AcDbEntity
  8
Polyamid
100
AcDbLine
 10
-132.7806739999999
 20
325.098317
 30
0.0
 11
-132.6146979999998
 21
315.589591
 31
0.0
  0
LINE
  5
E4
330
1F
100
AcDbEntity
  8
Polyamid
100
AcDbLine
 10
-12.94664899999998
 20
315.589591
 30
0.0
 11
-12.78067399999997
 21
325.098317
 31
0.0
  0
LINE
  5
E5
330
1F
100
AcDbEntity
  8
Polyamid
100
AcDbLine
 10
-12.78067399999997
 20
325.098317
 30
0.0
 11
-27.78067399999998
 21
325.098317
 31
0.0
  0
LINE
  5
E6
330
1F
100
AcDbEntity
  8
Polyamid
100
AcDbLine
 10
-12.94664899999998
 20
315.589591
 30
0.0
 11
-27.78067399999998
 21
315.589591
 31
0.0
  0
LINE
  5
E8
330
1F
100
AcDbEntity
  8
HEWI
100
AcDbLine
 10
-132.7806739999999
 20
675.0983169999998
 30
0.0
 11
-117.780674
 21
675.0983169999998
 31
0.0
  0
LINE
  5
E9
330
1F
100
AcDbEntity
  8
Polyamid
100
AcDbLine
 10
-132.7806739999999
 20
325.098317
 30
0.0
 11
-117.780674
 21
325.098317
 31
0.0
  0
LINE
  5
EA
330
1F
100
AcDbEntity
  8
1
 62
   252
100
AcDbLine
 10
-27.78067399999998
 20
325.098317
 30
0.0
 11
-117.780674
 21
325.098317
 31
0.0
  0
LINE
  5
EB
330
1F
100
AcDbEntity
  8
HEWI
100
AcDbLine
 10
-132.7806739999999
 20
675.0983169999998
 30
0.0
 11
-132.7806739999999
 21
325.098317
 31
0.0
  0
LINE
  5
EC
330
1F
100
AcDbEntity
  8
HEWI
100
AcDbLine
 10
-75.78067399999998
 20
365.098317
 30
0.0
 11
-69.78067399999997
 21
365.098317
 31
0.0
  0
LINE
  5
ED
330
1F
100
AcDbEntity
  8
HEWI
100
AcDbLine
 10
-117.780674
 20
675.0983169999998
 30
0.0
 11
-27.78067399999998
 21
675.0983169999998
 31
0.0
  0
LINE
  5
EF
330
1F
100
AcDbEntity
  8
Polyamid
100
AcDbLine
 10
-117.780674
 20
315.589591
 30
0.0
 11
-132.6146979999998
 21
315.589591
 31
0.0
  0
LINE
  5
F0
330
1F
100
AcDbEntity
  8
HEWI
100
AcDbLine
 10
-12.78067399999997
 20
675.0983169999998
 30
0.0
 11
-27.78067399999998
 21
675.0983169999998
 31
0.0
  0
LINE
  5
F1
330
1F
100
AcDbEntity
  8
HEWI
100
AcDbLine
 10
-12.78067399999997
 20
325.098317
 30
0.0
 11
-12.78067399999997
 21
675.0983169999998
 31
0.0
  0
LINE
  5
F3
330
1F
100
AcDbEntity
  8
Polyamid
100
AcDbLine
 10
-132.7806739999999
 20
325.098317
 30
0.0
 11
-117.780674
 21
325.098317
 31
0.0
  0
LINE
  5
F4
330
1F
100
AcDbEntity
  8
Polyamid
100
AcDbLine
 10
-27.78067399999998
 20
315.589591
 30
0.0
 11
-117.780674
 21
315.589591
 31
0.0
  0
LINE
  5
F5
330
1F
100
AcDbEntity
  8
Polyamid
100
AcDbLine
 10
-117.780674
 20
325.098317
 30
0.0
 11
-27.78067399999998
 21
325.098317
 31
0.0
  0
LINE
  5
F6
330
1F
100
AcDbEntity
  8
Polyamid
100
AcDbLine
 10
-13.44657299999994
 20
315.098317
 30
0.0
 11
-27.78067399999998
 21
315.098317
 31
0.0
  0
LINE
  5
F8
330
1F
100
AcDbEntity
  8
Polyamid
100
AcDbLine
 10
-132.114774
 20
315.098317
 30
0.0
 11
-117.780674
 21
315.098317
 31
0.0
  0
LINE
  5
FA
330
1F
100
AcDbEntity
  8
Polyamid
100
AcDbLine
 10
-117.780674
 20
315.098317
 30
0.0
 11
-27.78067399999998
 21
315.098317
 31
0.0
  0
LINE
  5
FB
330
1F
100
AcDbEntity
  8
Polyamid
100
AcDbLine
 10
-12.86794899999995
 20
320.098317
 30
0.0
 11
-12.78067399999997
 21
325.098317
 31
0.0
  0
LINE
  5
FC
330
1F
100
AcDbEntity
  8
HEWI
100
AcDbLine
 10
-12.78067399999997
 20
345.098317
 30
0.0
 11
2.219326000000022
 21
345.098317
 31
0.0
  0
LINE
  5
FD
330
1F
100
AcDbEntity
  8
HEWI
100
AcDbLine
 10
-12.78067399999997
 20
645.0983169999998
 30
0.0
 11
2.219326000000022
 21
645.0983169999998
 31
0.0
  0
LINE
  5
FE
330
1F
100
AcDbEntity
  8
HEWI
100
AcDbLine
 10
2.219326000000022
 20
345.098317
 30
0.0
 11
2.219326000000022
 21
645.0983169999998
 31
0.0
  0
ARC
  5
FF
330
1F
100
AcDbEntity
  8
HEWI
100
AcDbCircle
 10
69.78067399999997
 20
624.0983169999998
 30
0.0
 40
1.0
210
0.0
220
0.0
230
-1.0
100
AcDbArc
 50
90.0
 51
180.0
  0
ARC
  5
100
330
1F
100
AcDbEntity
  8
HEWI
100
AcDbCircle
 10
75.78067399999998
 20
624.0983169999998
 30
0.0
 40
1.0
210
0.0
220
0.0
230
-1.0
100
AcDbArc
 50
0.000000000000007
 51
90.0
  0
ARC
  5
101
330
1F
100
AcDbEntity
  8
HEWI
100
AcDbCircle
 10
69.78067399999997
 20
366.098317
 30
0.0
 40
1.0
210
0.0
220
0.0
230
-1.0
100
AcDbArc
 50
180.0
 51
270.0
  0
ARC
  5
102
330
1F
100
AcDbEntity
  8
HEWI
100
AcDbCircle
 10
75.78067399999998
 20
366.098317
 30
0.0
 40
1.0
210
0.0
220
0.0
230
-1.0
100
AcDbArc
 50
270.0
 51
0.000000000000007
  0
ARC
  5
103
330
1F
100
AcDbEntity
  8
Polyamid
100
AcDbCircle
 10
13.44657299999994
 20
315.598317
 30
0.0
 40
0.5
210
0.0
220
0.0
230
-1.0
100
AcDbArc
 50
181.0
 51
270.0
  0
ARC
  5
104
330
1F
100
AcDbEntity
  8
Polyamid
100
AcDbCircle
 10
132.114774
 20
315.598317
 30
0.0
 40
0.5
210
0.0
220
0.0
230
-1.0
100
AcDbArc
 50
270.0
 51
359.0
  0
ENDSEC
  0
SECTION
  2
OBJECTS
  0
DICTIONARY
  5
C
330
0
100
AcDbDictionary
281
     1
  3
ACAD_COLOR
350
D9
  3
ACAD_GROUP
350
D
  3
ACAD_LAYOUT
350
1A
  3
ACAD_MATERIAL
350
C4
  3
ACAD_MLINESTYLE
350
17
  3
ACAD_PLOTSETTINGS
350
19
  3
ACAD_PLOTSTYLENAME
350
E
  3
ACAD_TABLESTYLE
350
DA
  3
ACAD_VISUALSTYLE
350
C8
  3
AcDbVariableDictionary
350
105
  3
DWGPROPS
350
17B
  0
DICTIONARY
  5
10E
330
2
100
AcDbDictionary
280
     1
281
     1
  3
ACAD_LAYERFILTERS
360
119
  3
ACLYDICTIONARY
360
118
  0
DICTIONARY
  5
D9
102
{ACAD_REACTORS
330
C
102
}
330
C
100
AcDbDictionary
281
     1
  0
DICTIONARY
  5
D
102
{ACAD_REACTORS
330
C
102
}
330
C
100
AcDbDictionary
281
     1
  0
DICTIONARY
  5
1A
102
{ACAD_REACTORS
330
C
102
}
330
C
100
AcDbDictionary
281
     1
  3
Layout1
350
1E
  3
Layout2
350
26
  3
Model
350
22
  0
DICTIONARY
  5
C4
102
{ACAD_REACTORS
330
C
102
}
330
C
100
AcDbDictionary
281
     1
  3
ByBlock
350
C6
  3
ByLayer
350
C5
  3
Global
350
C7
  0
DICTIONARY
  5
17
102
{ACAD_REACTORS
330
C
102
}
330
C
100
AcDbDictionary
281
     1
  3
Standard
350
18
  0
DICTIONARY
  5
19
102
{ACAD_REACTORS
330
C
102
}
330
C
100
AcDbDictionary
281
     1
  0
ACDBDICTIONARYWDFLT
  5
E
102
{ACAD_REACTORS
330
C
102
}
330
C
100
AcDbDictionary
281
     1
  3
Normal
350
F
100
AcDbDictionaryWithDefault
340
F
  0
DICTIONARY
  5
DA
102
{ACAD_REACTORS
330
C
102
}
330
C
100
AcDbDictionary
281
     1
  3
Standard
350
DB
  0
DICTIONARY
  5
C8
102
{ACAD_REACTORS
330
C
102
}
330
C
100
AcDbDictionary
281
     1
  3
2dWireframe
350
CE
  3
3D Hidden
350
D0
  3
3dWireframe
350
CF
  3
Basic
350
CD
  3
Brighten
350
D4
  3
ColorChange
350
D8
  3
Conceptual
350
D1
  3
Dim
350
D3
  3
Facepattern
350
D7
  3
Flat
350
C9
  3
FlatWithEdges
350
CA
  3
Gouraud
350
CB
  3
GouraudWithEdges
350
CC
  3
Linepattern
350
D6
  3
Realistic
350
D2
  3
Thicken
350
D5
  0
DICTIONARY
  5
105
102
{ACAD_REACTORS
330
C
102
}
330
C
100
AcDbDictionary
281
     1
  3
CTABLESTYLE
350
106
  3
DIMASSOC
350
11C
  3
INDEXCTL
350
11B
  3
SORTENTS
350
11A
  0
XRECORD
  5
17B
102
{ACAD_REACTORS
330
C
102
}
330
C
100
AcDbXrecord
280
     1
  1
DWGPROPS COOKIE
  2

  3

  4

  6

  7

  8
kaschu
  9

300
=
301
=
302
=
303
=
304
=
305
=
306
=
307
=
308
=
309
=
 40
0.0033541550925926
 41
2454358.333720151
 42
2455058.401409734
  1

 90
        0
  0
DICTIONARY
  5
119
102
{ACAD_REACTORS
330
10E
102
}
330
10E
100
AcDbDictionary
281
     1
  0
DICTIONARY
  5
118
102
{ACAD_REACTORS
330
10E
102
}
330
10E
100
AcDbDictionary
281
     1
1001
ACAD
1000
<All
  0
LAYOUT
  5
1E
102
{ACAD_XDICTIONARY
360
17C
102
}
102
{ACAD_REACTORS
330
1A
102
}
330
1A
100
AcDbPlotSettings
  1

  2

  4

  6

 40
0.0
 41
0.0
 42
0.0
 43
0.0
 44
0.0
 45
0.0
 46
0.0
 47
0.0
 48
0.0
 49
0.0
140
0.0
141
0.0
142
1.0
143
1.0
 70
   688
 72
     0
 73
     0
 74
     5
  7

 75
    16
147
1.0
148
0.0
149
0.0
100
AcDbLayout
  1
Layout1
 70
     1
 71
     1
 10
-0.5
 20
-0.5
 11
5.0
 21
5.0
 12
0.0
 22
0.0
 32
0.0
 14
-0.5
 24
-0.5
 34
-0.5
 15
5.0
 25
5.0
 35
5.0
146
0.0
 13
0.0
 23
0.0
 33
0.0
 16
1.0
 26
0.0
 36
0.0
 17
0.0
 27
1.0
 37
0.0
 76
     0
330
1B
  0
LAYOUT
  5
26
102
{ACAD_XDICTIONARY
360
180
102
}
102
{ACAD_REACTORS
330
1A
102
}
330
1A
100
AcDbPlotSettings
  1

  2

  4

  6

 40
0.0
 41
0.0
 42
0.0
 43
0.0
 44
0.0
 45
0.0
 46
0.0
 47
0.0
 48
0.0
 49
0.0
140
0.0
141
0.0
142
1.0
143
1.0
 70
   688
 72
     0
 73
     0
 74
     5
  7

 75
    16
147
1.0
148
0.0
149
0.0
100
AcDbLayout
  1
Layout2
 70
     1
 71
     2
 10
0.0
 20
0.0
 11
0.0
 21
0.0
 12
0.0
 22
0.0
 32
0.0
 14
0.0
 24
0.0
 34
0.0
 15
0.0
 25
0.0
 35
0.0
146
0.0
 13
0.0
 23
0.0
 33
0.0
 16
1.0
 26
0.0
 36
0.0
 17
0.0
 27
1.0
 37
0.0
 76
     0
330
23
  0
LAYOUT
  5
22
102
{ACAD_XDICTIONARY
360
17E
102
}
102
{ACAD_REACTORS
330
1A
102
}
330
1A
100
AcDbPlotSettings
  1

  2

  4

  6

 40
0.0
 41
0.0
 42
0.0
 43
0.0
 44
0.0
 45
0.0
 46
0.0
 47
0.0
 48
0.0
 49
0.0
140
0.0
141
0.0
142
1.0
143
1.0
 70
  1712
 72
     0
 73
     0
 74
     0
  7

 75
     0
147
1.0
148
0.0
149
0.0
100
AcDbLayout
  1
Model
 70
     1
 71
     0
 10
-0.5
 20
-0.5
 11
5.0
 21
5.0
 12
0.0
 22
0.0
 32
0.0
 14
-0.5
 24
-0.5
 34
-0.5
 15
5.0
 25
5.0
 35
5.0
146
0.0
 13
0.0
 23
0.0
 33
0.0
 16
1.0
 26
0.0
 36
0.0
 17
0.0
 27
1.0
 37
0.0
 76
     0
330
1F
331
B2
  0
MATERIAL
  5
C6
102
{ACAD_XDICTIONARY
360
126
102
}
102
{ACAD_REACTORS
330
C4
102
}
330
C4
100
AcDbMaterial
  1
ByBlock
  0
MATERIAL
  5
C5
102
{ACAD_XDICTIONARY
360
124
102
}
102
{ACAD_REACTORS
330
C4
102
}
330
C4
100
AcDbMaterial
  1
ByLayer
  0
MATERIAL
  5
C7
102
{ACAD_XDICTIONARY
360
128
102
}
102
{ACAD_REACTORS
330
C4
102
}
330
C4
100
AcDbMaterial
  1
Global
  0
MLINESTYLE
  5
18
102
{ACAD_REACTORS
330
17
102
}
330
17
100
AcDbMlineStyle
  2
STANDARD
 70
     0
  3

 62
   256
 51
90.0
 52
90.0
 71
     2
 49
0.5
 62
   256
  6
BYLAYER
 49
-0.5
 62
   256
  6
BYLAYER
  0
ACDBPLACEHOLDER
  5
F
102
{ACAD_REACTORS
330
E
102
}
330
E
  0
TABLESTYLE
  5
DB
102
{ACAD_XDICTIONARY
360
182
102
}
102
{ACAD_REACTORS
330
DA
102
}
330
DA
100
AcDbTableStyle
  3
Standard
 70
     0
 71
     0
 40
1.5
 41
1.5
280
     0
281
     0
  7
Standard
140
4.5
170
     2
 62
     0
 63
     7
283
     0
274
    -2
284
     1
 64
     0
275
    -2
285
     1
 65
     0
276
    -2
286
     1
 66
     0
277
    -2
287
     1
 67
     0
278
    -2
288
     1
 68
     0
279
    -2
289
     1
 69
     0
  7
Standard
140
6.0
170
     5
 62
     0
 63
     7
283
     0
274
    -2
284
     1
 64
     0
275
    -2
285
     1
 65
     0
276
    -2
286
     1
 66
     0
277
    -2
287
     1
 67
     0
278
    -2
288
     1
 68
     0
279
    -2
289
     1
 69
     0
  7
Standard
140
4.5
170
     5
 62
     0
 63
     7
283
     0
274
    -2
284
     1
 64
     0
275
    -2
285
     1
 65
     0
276
    -2
286
     1
 66
     0
277
    -2
287
     1
 67
     0
278
    -2
288
     1
 68
     0
279
    -2
289
     1
 69
     0
  0
VISUALSTYLE
  5
CE
102
{ACAD_REACTORS
330
C8
102
}
330
C8
100
AcDbVisualStyle
  2
2dWireframe
 70
     4
 71
     0
 72
     2
 73
     0
 90
        0
 40
-0.6
 41
-30.0
 62
     5
 63
     7
 74
     1
 91
        4
 64
     7
 65
   257
 75
     1
175
     1
 42
1.0
 92
        0
 66
   257
 43
1.0
 76
     1
 77
     6
 78
     2
 67
     7
 79
     5
170
     0
171
     0
290
     0
174
     0
 93
        1
 44
0.0
173
     0
291
     0
 45
0.0
1001
ACAD
1000
AcDbSavedByObjectVersion
1070
     0
1000
AcDbSavedByObjectVersion
1070
     0
  0
VISUALSTYLE
  5
D0
102
{ACAD_REACTORS
330
C8
102
}
330
C8
100
AcDbVisualStyle
  2
3D Hidden
 70
     6
 71
     1
 72
     2
 73
     2
 90
        0
 40
-0.6
 41
-30.0
 62
     5
 63
     7
 74
     2
 91
        2
 64
     7
 65
   257
 75
     2
175
     1
 42
40.0
 92
        0
 66
   257
 43
1.0
 76
     1
 77
     6
 78
     2
 67
     7
 79
     3
170
     0
171
     0
290
     0
174
     0
 93
        1
 44
0.0
173
     0
291
     0
 45
0.0
1001
ACAD
1000
AcDbSavedByObjectVersion
1070
     0
1000
AcDbSavedByObjectVersion
1070
     0
  0
VISUALSTYLE
  5
CF
102
{ACAD_REACTORS
330
C8
102
}
330
C8
100
AcDbVisualStyle
  2
3dWireframe
 70
     5
 71
     0
 72
     2
 73
     0
 90
        0
 40
-0.6
 41
-30.0
 62
     5
 63
     7
 74
     1
 91
        4
 64
     7
 65
   257
 75
     1
175
     1
 42
1.0
 92
        0
 66
   257
 43
1.0
 76
     1
 77
     6
 78
     2
 67
     7
 79
     5
170
     0
171
     0
290
     0
174
     0
 93
        1
 44
0.0
173
     0
291
     0
 45
0.0
1001
ACAD
1000
AcDbSavedByObjectVersion
1070
     0
1000
AcDbSavedByObjectVersion
1070
     0
  0
VISUALSTYLE
  5
CD
102
{ACAD_REACTORS
330
C8
102
}
330
C8
100
AcDbVisualStyle
  2
Basic
 70
     7
 71
     1
 72
     0
 73
     1
 90
        0
 40
-0.6
 41
-30.0
 62
     5
 63
     7
 74
     0
 91
        4
 64
     7
 65
   257
 75
     1
175
     1
 42
1.0
 92
        8
 66
     7
 43
1.0
 76
     1
 77
     6
 78
     2
 67
     7
 79
     5
170
     0
171
     0
290
     0
174
     0
 93
        1
 44
0.0
173
     0
291
     1
 45
0.0
1001
ACAD
1000
AcDbSavedByObjectVersion
1070
     0
1000
AcDbSavedByObjectVersion
1070
     0
  0
VISUALSTYLE
  5
D4
102
{ACAD_REACTORS
330
C8
102
}
330
C8
100
AcDbVisualStyle
  2
Brighten
 70
    12
 71
     2
 72
     2
 73
     0
 90
        0
 40
-0.6
 41
-30.0
 62
     5
 63
     7
 74
     1
 91
        4
 64
     7
 65
   257
 75
     1
175
     1
 42
1.0
 92
        8
 66
     7
 43
1.0
 76
     1
 77
     6
 78
     2
 67
     7
 79
     5
170
     0
171
     0
290
     0
174
     0
 93
        1
 44
50.0
173
     0
291
     1
 45
0.0
1001
ACAD
1000
AcDbSavedByObjectVersion
1070
     0
1000
AcDbSavedByObjectVersion
1070
     0
  0
VISUALSTYLE
  5
D8
102
{ACAD_REACTORS
330
C8
102
}
330
C8
100
AcDbVisualStyle
  2
ColorChange
 70
    16
 71
     2
 72
     2
 73
     3
 90
        0
 40
-0.6
 41
-30.0
 62
     5
 63
     8
 74
     1
 91
        4
 64
     7
 65
   257
 75
     1
175
     1
 42
1.0
 92
        8
 66
     8
 43
1.0
 76
     1
 77
     6
 78
     2
 67
     7
 79
     5
170
     0
171
     0
290
     0
174
     0
 93
        1
 44
0.0
173
     0
291
     1
 45
0.0
1001
ACAD
1000
AcDbSavedByObjectVersion
1070
     0
1000
AcDbSavedByObjectVersion
1070
     0
  0
VISUALSTYLE
  5
D1
102
{ACAD_REACTORS
330
C8
102
}
330
C8
100
AcDbVisualStyle
  2
Conceptual
 70
     9
 71
     3
 72
     2
 73
     0
 90
        0
 40
-0.6
 41
-30.0
 62
     5
 63
     7
 74
     2
 91
        2
 64
     7
 65
   257
 75
     1
175
     1
 42
40.0
 92
        8
 66
     7
 43
1.0
 76
     1
 77
     6
 78
     2
 67
     7
 79
     3
170
     0
171
     0
290
     0
174
     0
 93
        1
 44
0.0
173
     0
291
     0
 45
0.0
1001
ACAD
1000
AcDbSavedByObjectVersion
1070
     0
1000
AcDbSavedByObjectVersion
1070
     0
  0
VISUALSTYLE
  5
D3
102
{ACAD_REACTORS
330
C8
102
}
330
C8
100
AcDbVisualStyle
  2
Dim
 70
    11
 71
     2
 72
     2
 73
     0
 90
        0
 40
-0.6
 41
-30.0
 62
     5
 63
     7
 74
     1
 91
        4
 64
     7
 65
   257
 75
     1
175
     1
 42
1.0
 92
        8
 66
     7
 43
1.0
 76
     1
 77
     6
 78
     2
 67
     7
 79
     5
170
     0
171
     0
290
     0
174
     0
 93
        1
 44
-50.0
173
     0
291
     1
 45
0.0
1001
ACAD
1000
AcDbSavedByObjectVersion
1070
     0
1000
AcDbSavedByObjectVersion
1070
     0
  0
VISUALSTYLE
  5
D7
102
{ACAD_REACTORS
330
C8
102
}
330
C8
100
AcDbVisualStyle
  2
Facepattern
 70
    15
 71
     2
 72
     2
 73
     0
 90
        0
 40
-0.6
 41
-30.0
 62
     5
 63
     7
 74
     1
 91
        4
 64
     7
 65
   257
 75
     1
175
     1
 42
1.0
 92
        8
 66
     7
 43
1.0
 76
     1
 77
     6
 78
     2
 67
     7
 79
     5
170
     0
171
     0
290
     0
174
     0
 93
        1
 44
0.0
173
     0
291
     1
 45
0.0
1001
ACAD
1000
AcDbSavedByObjectVersion
1070
     0
1000
AcDbSavedByObjectVersion
1070
     0
  0
VISUALSTYLE
  5
C9
102
{ACAD_REACTORS
330
C8
102
}
330
C8
100
AcDbVisualStyle
  2
Flat
 70
     0
 71
     2
 72
     1
 73
     1
 90
        2
 40
-0.6
 41
30.0
 62
     5
 63
     7
 74
     0
 91
        4
 64
     7
 65
   257
 75
     1
175
     1
 42
1.0
 92
        8
 66
     7
 43
1.0
 76
     1
 77
     6
 78
     2
 67
     7
 79
     5
170
     0
171
     0
290
     0
174
     0
 93
       13
 44
0.0
173
     0
291
     1
 45
0.0
1001
ACAD
1000
AcDbSavedByObjectVersion
1070
     0
1000
AcDbSavedByObjectVersion
1070
     0
  0
VISUALSTYLE
  5
CA
102
{ACAD_REACTORS
330
C8
102
}
330
C8
100
AcDbVisualStyle
  2
FlatWithEdges
 70
     1
 71
     2
 72
     1
 73
     1
 90
        2
 40
-0.6
 41
30.0
 62
     5
 63
     7
 74
     1
 91
        4
 64
     7
 65
   257
 75
     1
175
     1
 42
1.0
 92
        0
 66
   257
 43
1.0
 76
     1
 77
     6
 78
     2
 67
     7
 79
     5
170
     0
171
     0
290
     0
174
     0
 93
       13
 44
0.0
173
     0
291
     1
 45
0.0
1001
ACAD
1000
AcDbSavedByObjectVersion
1070
     0
1000
AcDbSavedByObjectVersion
1070
     0
  0
VISUALSTYLE
  5
CB
102
{ACAD_REACTORS
330
C8
102
}
330
C8
100
AcDbVisualStyle
  2
Gouraud
 70
     2
 71
     2
 72
     2
 73
     1
 90
        2
 40
-0.6
 41
30.0
 62
     5
 63
     7
 74
     0
 91
        4
 64
     7
 65
   257
 75
     1
175
     1
 42
1.0
 92
        0
 66
     7
 43
1.0
 76
     1
 77
     6
 78
     2
 67
     7
 79
     5
170
     0
171
     0
290
     0
174
     0
 93
       13
 44
0.0
173
     0
291
     1
 45
0.0
1001
ACAD
1000
AcDbSavedByObjectVersion
1070
     0
1000
AcDbSavedByObjectVersion
1070
     0
  0
VISUALSTYLE
  5
CC
102
{ACAD_REACTORS
330
C8
102
}
330
C8
100
AcDbVisualStyle
  2
GouraudWithEdges
 70
     3
 71
     2
 72
     2
 73
     1
 90
        2
 40
-0.6
 41
30.0
 62
     5
 63
     7
 74
     1
 91
        4
 64
     7
 65
   257
 75
     1
175
     1
 42
1.0
 92
        0
 66
   257
 43
1.0
 76
     1
 77
     6
 78
     2
 67
     7
 79
     5
170
     0
171
     0
290
     0
174
     0
 93
       13
 44
0.0
173
     0
291
     1
 45
0.0
1001
ACAD
1000
AcDbSavedByObjectVersion
1070
     0
1000
AcDbSavedByObjectVersion
1070
     0
  0
VISUALSTYLE
  5
D6
102
{ACAD_REACTORS
330
C8
102
}
330
C8
100
AcDbVisualStyle
  2
Linepattern
 70
    14
 71
     2
 72
     2
 73
     0
 90
        0
 40
-0.6
 41
-30.0
 62
     5
 63
     7
 74
     1
 91
        4
 64
     7
 65
   257
 75
     7
175
     7
 42
1.0
 92
        8
 66
     7
 43
1.0
 76
     1
 77
     6
 78
     2
 67
     7
 79
     5
170
     0
171
     0
290
     0
174
     0
 93
        1
 44
0.0
173
     0
291
     1
 45
0.0
1001
ACAD
1000
AcDbSavedByObjectVersion
1070
     0
1000
AcDbSavedByObjectVersion
1070
     0
  0
VISUALSTYLE
  5
D2
102
{ACAD_REACTORS
330
C8
102
}
330
C8
100
AcDbVisualStyle
  2
Realistic
 70
     8
 71
     2
 72
     2
 73
     0
 90
        0
 40
-0.6
 41
-30.0
 62
     5
 63
     7
 74
     1
 91
        0
 64
     7
 65
   257
 75
     1
175
     1
 42
1.0
 92
        8
 66
     8
 43
1.0
 76
     1
 77
     6
 78
     2
 67
     7
 79
     5
170
     0
171
     0
290
     0
174
     0
 93
       13
 44
0.0
173
     0
291
     0
 45
0.0
1001
ACAD
1000
AcDbSavedByObjectVersion
1070
     0
1000
AcDbSavedByObjectVersion
1070
     0
  0
VISUALSTYLE
  5
D5
102
{ACAD_REACTORS
330
C8
102
}
330
C8
100
AcDbVisualStyle
  2
Thicken
 70
    13
 71
     2
 72
     2
 73
     0
 90
        0
 40
-0.6
 41
-30.0
 62
     5
 63
     7
 74
     1
 91
        4
 64
     7
 65
   257
 75
     1
175
     1
 42
1.0
 92
       12
 66
     7
 43
1.0
 76
     1
 77
     6
 78
     2
 67
     7
 79
     5
170
     0
171
     0
290
     0
174
     0
 93
        1
 44
0.0
173
     0
291
     1
 45
0.0
1001
ACAD
1000
AcDbSavedByObjectVersion
1070
     0
1000
AcDbSavedByObjectVersion
1070
     0
  0
DICTIONARYVAR
  5
106
102
{ACAD_REACTORS
330
105
102
}
330
105
100
DictionaryVariables
280
     0
  1
STANDARD
  0
DICTIONARYVAR
  5
11C
102
{ACAD_REACTORS
330
105
102
}
330
105
100
DictionaryVariables
280
     0
  1
1
  0
DICTIONARYVAR
  5
11B
102
{ACAD_REACTORS
330
105
102
}
330
105
100
DictionaryVariables
280
     0
  1
0
  0
DICTIONARYVAR
  5
11A
102
{ACAD_REACTORS
330
105
102
}
330
105
100
DictionaryVariables
280
     0
  1
127
  0
DICTIONARY
  5
17C
330
1E
100
AcDbDictionary
280
     1
281
     1
  3
ACAD_XREC_ROUNDTRIP
360
17D
  0
DICTIONARY
  5
180
330
26
100
AcDbDictionary
280
     1
281
     1
  3
ACAD_XREC_ROUNDTRIP
360
181
  0
DICTIONARY
  5
17E
330
22
100
AcDbDictionary
280
     1
281
     1
  3
ACAD_XREC_ROUNDTRIP
360
17F
  0
DICTIONARY
  5
126
330
C6
100
AcDbDictionary
280
     1
281
     1
  3
ACAD_XREC_ROUNDTRIP
360
127
  0
DICTIONARY
  5
124
330
C5
100
AcDbDictionary
280
     1
281
     1
  3
ACAD_XREC_ROUNDTRIP
360
125
  0
DICTIONARY
  5
128
330
C7
100
AcDbDictionary
280
     1
281
     1
  3
ACAD_XREC_ROUNDTRIP
360
129
  0
DICTIONARY
  5
182
330
DB
100
AcDbDictionary
280
     1
281
     1
  3
ACAD_XREC_ROUNDTRIP
360
183
  0
XRECORD
  5
17D
102
{ACAD_REACTORS
330
17C
102
}
330
17C
100
AcDbXrecord
280
     1
102
SHADEPLOT
 70
     0
102
SHADEPLOTRESLEVEL
 70
     2
102
SHADEPLOTCUSTOMDPI
 70
   300
  0
XRECORD
  5
181
102
{ACAD_REACTORS
330
180
102
}
330
180
100
AcDbXrecord
280
     1
102
SHADEPLOT
 70
     0
102
SHADEPLOTRESLEVEL
 70
     2
102
SHADEPLOTCUSTOMDPI
 70
   300
  0
XRECORD
  5
17F
102
{ACAD_REACTORS
330
17E
102
}
330
17E
100
AcDbXrecord
280
     1
102
SHADEPLOT
 70
     0
102
SHADEPLOTRESLEVEL
 70
     2
102
SHADEPLOTCUSTOMDPI
 70
   300
  0
XRECORD
  5
127
102
{ACAD_REACTORS
330
126
102
}
330
126
100
AcDbXrecord
280
     1
102
MATERIAL
148
0.0
149
0.0
149
0.0
 93
        0
 94
       63
282
     0
 72
     1
 77
     1
171
     1
175
     1
179
     1
273
     0
  0
XRECORD
  5
125
102
{ACAD_REACTORS
330
124
102
}
330
124
100
AcDbXrecord
280
     1
102
MATERIAL
148
0.0
149
0.0
149
0.0
 93
        0
 94
       63
282
     0
 72
     1
 77
     1
171
     1
175
     1
179
     1
273
     0
  0
XRECORD
  5
129
102
{ACAD_REACTORS
330
128
102
}
330
128
100
AcDbXrecord
280
     1
102
MATERIAL
148
0.0
149
0.0
149
0.0
 93
        0
 94
       63
282
     0
 72
     1
 77
     1
171
     1
175
     1
179
     1
273
     0
  0
XRECORD
  5
183
102
{ACAD_REACTORS
330
182
102
}
330
182
100
AcDbXrecord
280
     1
102
ACAD_ROUNDTRIP_PRE2007_TABLESTYLE
 90
      512
 91
        0
  1

 92
      512
 93
        0
  2

 94
      512
 95
        0
  3

  0
ENDSEC
  0
EOF
