  0
SECTION
  2
HEADER
  9
$ACADVER
  1
AC1014
  9
$ACADMAINTVER
 70
     9
  9
$DWGCODEPAGE
  3
ANSI_1252
  9
$INSBASE
 10
0.0
 20
0.0
 30
0.0
  9
$EXTMIN
 10
39.1391709619347
 20
55.98520825192185
 30
-0.0000000000000074
  9
$EXTMAX
 10
396.8391709859348
 20
270.2494218262949
 30
0.0000000000000221
  9
$LIMMIN
 10
0.0
 20
0.0
  9
$LIMMAX
 10
420.0
 20
297.0
  9
$ORTHOMODE
 70
     0
  9
$REGENMODE
 70
     1
  9
$FILLMODE
 70
     1
  9
$QTEXTMODE
 70
     0
  9
$MIRRTEXT
 70
     0
  9
$DRAGMODE
 70
     2
  9
$LTSCALE
 40
1.0
  9
$OSMODE
 70
  2223
  9
$ATTMODE
 70
     1
  9
$TEXTSIZE
 40
2.5
  9
$TRACEWID
 40
1.0
  9
$TEXTSTYLE
  7
STANDARD
  9
$CLAYER
  8
0
  9
$CELTYPE
  6
BYLAYER
  9
$CECOLOR
 62
   256
  9
$CELTSCALE
 40
1.0
  9
$DELOBJ
 70
     1
  9
$DISPSILH
 70
     0
  9
$DIMSCALE
 40
1.0
  9
$DIMASZ
 40
2.5
  9
$DIMEXO
 40
0.625
  9
$DIMDLI
 40
3.75
  9
$DIMRND
 40
0.0
  9
$DIMDLE
 40
0.0
  9
$DIMEXE
 40
1.25
  9
$DIMTP
 40
0.0
  9
$DIMTM
 40
0.0
  9
$DIMTXT
 40
2.5
  9
$DIMCEN
 40
2.5
  9
$DIMTSZ
 40
0.0
  9
$DIMTOL
 70
     0
  9
$DIMLIM
 70
     0
  9
$DIMTIH
 70
     0
  9
$DIMTOH
 70
     0
  9
$DIMSE1
 70
     0
  9
$DIMSE2
 70
     0
  9
$DIMTAD
 70
     1
  9
$DIMZIN
 70
     8
  9
$DIMBLK
  1

  9
$DIMASO
 70
     1
  9
$DIMSHO
 70
     1
  9
$DIMPOST
  1

  9
$DIMAPOST
  1

  9
$DIMALT
 70
     0
  9
$DIMALTD
 70
     3
  9
$DIMALTF
 40
0.03937007874016
  9
$DIMLFAC
 40
1.0
  9
$DIMTOFL
 70
     1
  9
$DIMTVP
 40
0.0
  9
$DIMTIX
 70
     0
  9
$DIMSOXD
 70
     0
  9
$DIMSAH
 70
     0
  9
$DIMBLK1
  1

  9
$DIMBLK2
  1

  9
$DIMSTYLE
  2
ISO-25
  9
$DIMCLRD
 70
     0
  9
$DIMCLRE
 70
     0
  9
$DIMCLRT
 70
     0
  9
$DIMTFAC
 40
1.0
  9
$DIMGAP
 40
0.625
  9
$DIMJUST
 70
     0
  9
$DIMSD1
 70
     0
  9
$DIMSD2
 70
     0
  9
$DIMTOLJ
 70
     0
  9
$DIMTZIN
 70
     8
  9
$DIMALTZ
 70
     0
  9
$DIMALTTZ
 70
     0
  9
$DIMFIT
 70
     3
  9
$DIMUPT
 70
     0
  9
$DIMUNIT
 70
     2
  9
$DIMDEC
 70
     2
  9
$DIMTDEC
 70
     2
  9
$DIMALTU
 70
     2
  9
$DIMALTTD
 70
     3
  9
$DIMTXSTY
  7
STANDARD
  9
$DIMAUNIT
 70
     0
  9
$LUNITS
 70
     2
  9
$LUPREC
 70
     4
  9
$SKETCHINC
 40
1.0
  9
$FILLETRAD
 40
10.0
  9
$AUNITS
 70
     0
  9
$AUPREC
 70
     0
  9
$MENU
  1
.
  9
$ELEVATION
 40
0.0
  9
$PELEVATION
 40
0.0
  9
$THICKNESS
 40
0.0
  9
$LIMCHECK
 70
     0
  9
$BLIPMODE
 70
     0
  9
$CHAMFERA
 40
10.0
  9
$CHAMFERB
 40
10.0
  9
$CHAMFERC
 40
20.0
  9
$CHAMFERD
 40
0.0
  9
$SKPOLY
 70
     0
  9
$TDCREATE
 40
2453586.352102685
  9
$TDUPDATE
 40
2453615.606687072
  9
$TDINDWG
 40
0.0089920023
  9
$TDUSRTIMER
 40
0.0089886458
  9
$USRTIMER
 70
     1
  9
$ANGBASE
 50
0.0
  9
$ANGDIR
 70
     0
  9
$PDMODE
 70
     0
  9
$PDSIZE
 40
0.0
  9
$PLINEWID
 40
0.0
  9
$COORDS
 70
     1
  9
$SPLFRAME
 70
     0
  9
$SPLINETYPE
 70
     6
  9
$SPLINESEGS
 70
     8
  9
$ATTDIA
 70
     0
  9
$ATTREQ
 70
     1
  9
$HANDLING
 70
 10241
  9
$HANDSEED
  5
191
  9
$SURFTAB1
 70
     6
  9
$SURFTAB2
 70
     6
  9
$SURFTYPE
 70
     6
  9
$SURFU
 70
     6
  9
$SURFV
 70
     6
  9
$UCSNAME
  2

  9
$UCSORG
 10
0.0
 20
0.0
 30
0.0
  9
$UCSXDIR
 10
1.0
 20
0.0
 30
0.0
  9
$UCSYDIR
 10
0.0
 20
1.0
 30
0.0
  9
$PUCSNAME
  2

  9
$PUCSORG
 10
0.0
 20
0.0
 30
0.0
  9
$PUCSXDIR
 10
1.0
 20
0.0
 30
0.0
  9
$PUCSYDIR
 10
0.0
 20
1.0
 30
0.0
  9
$USERI1
 70
     0
  9
$USERI2
 70
     0
  9
$USERI3
 70
     0
  9
$USERI4
 70
     0
  9
$USERI5
 70
     0
  9
$USERR1
 40
0.0
  9
$USERR2
 40
0.0
  9
$USERR3
 40
0.0
  9
$USERR4
 40
0.0
  9
$USERR5
 40
0.0
  9
$WORLDVIEW
 70
     1
  9
$SHADEDGE
 70
     3
  9
$SHADEDIF
 70
    70
  9
$TILEMODE
 70
     1
  9
$MAXACTVP
 70
    64
  9
$PINSBASE
 10
0.0
 20
0.0
 30
0.0
  9
$PLIMCHECK
 70
     0
  9
$PEXTMIN
 10
0.0
 20
0.0
 30
0.0
  9
$PEXTMAX
 10
0.0
 20
0.0
 30
0.0
  9
$PLIMMIN
 10
0.0
 20
0.0
  9
$PLIMMAX
 10
12.0
 20
9.0
  9
$UNITMODE
 70
     0
  9
$VISRETAIN
 70
     1
  9
$PLINEGEN
 70
     0
  9
$PSLTSCALE
 70
     1
  9
$TREEDEPTH
 70
  3020
  9
$PICKSTYLE
 70
     1
  9
$CMLSTYLE
  2
STANDARD
  9
$CMLJUST
 70
     0
  9
$CMLSCALE
 40
20.0
  9
$PROXYGRAPHICS
 70
     1
  9
$MEASUREMENT
 70
     1
  0
ENDSEC
  0
SECTION
  2
CLASSES
  0
CLASS
  1
ACDBDICTIONARYWDFLT
  2
AcDbDictionaryWithDefault
  3
AutoCAD 2000
 90
        0
280
     0
281
     0
  0
CLASS
  1
DICTIONARYVAR
  2
AcDbDictionaryVar
  3
AutoCAD 2000
 90
        0
280
     0
281
     0
  0
CLASS
  1
DIMASSOC
  2
AcDbDimAssoc
  3
"AcDbDimAssoc|Product Desc:     AcDim ARX App For Dimension|Company:          Autodesk, Inc.|WEB Address:      www.autodesk.com"
 90
        0
280
     0
281
     0
  0
CLASS
  1
ACDBPLACEHOLDER
  2
AcDbPlaceHolder
  3
AutoCAD 2000
 90
        0
280
     0
281
     0
  0
CLASS
  1
LAYOUT
  2
AcDbLayout
  3
AutoCAD 2000
 90
        0
280
     0
281
     0
  0
CLASS
  1
LONG_TRANSACTION
  2
AcDbLongTransaction
  3
AutoCAD 2000
 90
        0
280
     0
281
     0
  0
CLASS
  1
LWPOLYLINE
  2
AcDbPolyline
  3
AutoCAD 2000
 90
        0
280
     0
281
     1
  0
CLASS
  1
HATCH
  2
AcDbHatch
  3
AutoCAD 2000
 90
        0
280
     0
281
     1
  0
CLASS
  1
XRECORD
  2
AcDbXrecord
  3
AutoCAD 2000
 90
        0
280
     0
281
     0
  0
ENDSEC
  0
SECTION
  2
TABLES
  0
TABLE
  2
VPORT
  5
8
330
0
100
AcDbSymbolTable
 70
     2
  0
VPORT
  5
169
330
8
100
AcDbSymbolTableRecord
100
AcDbViewportTableRecord
  2
*ACTIVE
 70
     0
 10
0.0
 20
0.0
 11
1.0
 21
1.0
 12
237.702025728068
 22
177.0549701354056
 13
0.0
 23
0.0
 14
10.0
 24
10.0
 15
10.0
 25
10.0
 16
0.0
 26
0.0
 36
1.0
 17
0.0
 27
0.0
 37
0.0
 40
721.8748336613911
 41
1.525316455696202
 42
50.0
 43
0.0
 44
0.0
 50
0.0
 51
0.0
 71
     0
 72
  1000
 73
     1
 74
     3
 75
     0
 76
     0
 77
     0
 78
     0
  0
ENDTAB
  0
TABLE
  2
LTYPE
  5
5
330
0
100
AcDbSymbolTable
 70
     1
  0
LTYPE
  5
14
330
5
100
AcDbSymbolTableRecord
100
AcDbLinetypeTableRecord
  2
BYBLOCK
 70
     0
  3

 72
    65
 73
     0
 40
0.0
  0
LTYPE
  5
15
330
5
100
AcDbSymbolTableRecord
100
AcDbLinetypeTableRecord
  2
BYLAYER
 70
     0
  3

 72
    65
 73
     0
 40
0.0
  0
LTYPE
  5
16
330
5
100
AcDbSymbolTableRecord
100
AcDbLinetypeTableRecord
  2
CONTINUOUS
 70
     0
  3
Solid line
 72
    65
 73
     0
 40
0.0
  0
ENDTAB
  0
TABLE
  2
LAYER
  5
2
330
0
100
AcDbSymbolTable
 70
     4
  0
LAYER
  5
10
330
2
100
AcDbSymbolTableRecord
100
AcDbLayerTableRecord
  2
0
 70
     0
 62
     7
  6
CONTINUOUS
  0
LAYER
  5
B2
330
2
100
AcDbSymbolTableRecord
100
AcDbLayerTableRecord
  2
PV-A9
 70
     2
 62
     7
  6
CONTINUOUS
  0
LAYER
  5
104
330
2
100
AcDbSymbolTableRecord
100
AcDbLayerTableRecord
  2
DEFPOINTS
 70
     0
 62
     7
  6
CONTINUOUS
  0
LAYER
  5
139
330
2
100
AcDbSymbolTableRecord
100
AcDbLayerTableRecord
  2
PV-CB
 70
     2
 62
     7
  6
CONTINUOUS
  0
ENDTAB
  0
TABLE
  2
STYLE
  5
3
330
0
100
AcDbSymbolTable
 70
     1
  0
STYLE
  5
11
330
3
100
AcDbSymbolTableRecord
100
AcDbTextStyleTableRecord
  2
STANDARD
 70
     0
 40
0.0
 41
1.0
 50
0.0
 71
     0
 42
2.5
  3
txt
  4

  0
ENDTAB
  0
TABLE
  2
VIEW
  5
6
330
0
100
AcDbSymbolTable
 70
     0
  0
ENDTAB
  0
TABLE
  2
UCS
  5
7
330
0
100
AcDbSymbolTable
 70
     0
  0
ENDTAB
  0
TABLE
  2
APPID
  5
9
330
0
100
AcDbSymbolTable
 70
     1
  0
APPID
  5
12
330
9
100
AcDbSymbolTableRecord
100
AcDbRegAppTableRecord
  2
ACAD
 70
     0
  0
ENDTAB
  0
TABLE
  2
DIMSTYLE
  5
A
330
0
100
AcDbSymbolTable
 70
     2
  0
DIMSTYLE
105
27
330
A
100
AcDbSymbolTableRecord
100
AcDbDimStyleTableRecord
  2
ISO-25
 70
     0
  3

  4

  5

  6

  7

 40
1.0
 41
2.5
 42
0.625
 43
3.75
 44
1.25
 45
0.0
 46
0.0
 47
0.0
 48
0.0
140
2.5
141
2.5
142
0.0
143
0.03937007874016
144
1.0
145
0.0
146
1.0
147
0.625
 71
     0
 72
     0
 73
     0
 74
     0
 75
     0
 76
     0
 77
     1
 78
     8
170
     0
171
     3
172
     1
173
     0
174
     0
175
     0
176
     0
177
     0
178
     0
270
     2
271
     2
272
     2
273
     2
274
     3
340
11
275
     0
280
     0
281
     0
282
     0
283
     0
284
     8
285
     0
286
     0
287
     3
288
     0
  0
DIMSTYLE
105
B3
330
A
100
AcDbSymbolTableRecord
100
AcDbDimStyleTableRecord
  2
STANDARD
 70
     0
  3

  4

  5

  6

  7

 40
1.0
 41
0.18
 42
0.0625
 43
0.38
 44
0.18
 45
0.0
 46
0.0
 47
0.0
 48
0.0
140
0.18
141
0.09
142
0.0
143
25.4
144
1.0
145
0.0
146
1.0
147
0.09
 71
     0
 72
     0
 73
     1
 74
     1
 75
     0
 76
     0
 77
     0
 78
     0
170
     0
171
     2
172
     0
173
     0
174
     0
175
     0
176
     0
177
     0
178
     0
270
     2
271
     4
272
     4
273
     2
274
     2
340
11
275
     0
280
     0
281
     0
282
     0
283
     1
284
     0
285
     0
286
     0
287
     3
288
     0
  0
ENDTAB
  0
TABLE
  2
BLOCK_RECORD
  5
1
330
0
100
AcDbSymbolTable
 70
     2
  0
BLOCK_RECORD
  5
1F
102
{ACAD_XDICTIONARY
360
18B
102
}
330
1
100
AcDbSymbolTableRecord
100
AcDbBlockTableRecord
  2
*MODEL_SPACE
  0
BLOCK_RECORD
  5
50
102
{ACAD_XDICTIONARY
360
18D
102
}
330
1
100
AcDbSymbolTableRecord
100
AcDbBlockTableRecord
  2
*PAPER_SPACE
  0
BLOCK_RECORD
  5
122
330
1
100
AcDbSymbolTableRecord
100
AcDbBlockTableRecord
  2
*D1
  0
ENDTAB
  0
ENDSEC
  0
SECTION
  2
BLOCKS
  0
BLOCK
  5
20
330
1F
100
AcDbEntity
  8
0
100
AcDbBlockBegin
  2
*MODEL_SPACE
 70
     0
 10
0.0
 20
0.0
 30
0.0
  3
*MODEL_SPACE
  1

  0
ENDBLK
  5
21
330
1F
100
AcDbEntity
  8
0
100
AcDbBlockEnd
  0
BLOCK
  5
52
330
50
100
AcDbEntity
 67
     1
  8
0
100
AcDbBlockBegin
  2
*PAPER_SPACE
 70
     0
 10
0.0
 20
0.0
 30
0.0
  3
*PAPER_SPACE
  1

  0
ENDBLK
  5
53
330
50
100
AcDbEntity
 67
     1
  8
0
100
AcDbBlockEnd
  0
BLOCK
  5
12C
330
122
100
AcDbEntity
  8
0
100
AcDbBlockBegin
  2
*D1
 70
     1
 10
0.0
 20
0.0
 30
0.0
  3
*D1
  1

  0
LINE
  5
12F
330
122
100
AcDbEntity
  8
0
 62
     0
100
AcDbLine
 10
162.7641709619346
 20
266.0852082639217
 30
0.0
 11
173.6530914118093
 21
266.0852082639217
 31
0.0
  0
LINE
  5
130
330
122
100
AcDbEntity
  8
0
 62
     0
100
AcDbLine
 10
162.7641709619346
 20
203.5852082639218
 30
0.0
 11
173.6530914118093
 21
203.5852082639218
 31
0.0
  0
LINE
  5
131
330
122
100
AcDbEntity
  8
0
 62
     0
100
AcDbLine
 10
172.4030914118092
 20
263.5852082639217
 30
0.0
 11
172.4030914118092
 21
206.0852082639218
 31
0.0
  0
SOLID
  5
132
330
122
100
AcDbEntity
  8
0
 62
     0
100
AcDbTrace
 10
171.9864247451425
 20
263.5852082639217
 30
0.0
 11
172.8197580784759
 21
263.5852082639217
 31
0.0
 12
172.4030914118092
 22
266.0852082639217
 32
0.0
 13
172.4030914118092
 23
266.0852082639217
 33
0.0
  0
SOLID
  5
133
330
122
100
AcDbEntity
  8
0
 62
     0
100
AcDbTrace
 10
171.9864247451425
 20
206.0852082639218
 30
0.0
 11
172.8197580784759
 21
206.0852082639218
 31
0.0
 12
172.4030914118092
 22
203.5852082639218
 32
0.0
 13
172.4030914118092
 23
203.5852082639218
 33
0.0
  0
MTEXT
  5
134
330
122
100
AcDbEntity
  8
0
 62
     0
100
AcDbMText
 10
170.3197580784759
 20
234.8352082639218
 30
0.0
 40
2.5
 41
0.0
 71
     5
 72
     1
  1
62,5
 11
0.0000000000000001
 21
1.0
 31
0.0
1001
ACAD
1000
MTEXTBEGIN
1070
    73
1070
     1
1070
    44
1040
1.0
1070
    74
1070
     0
1000
MTEXTEND
1000
MTEXTBEGIN
1070
    73
1070
     1
1070
    44
1040
1.0
1070
    74
1070
     0
1000
MTEXTEND
  0
POINT
  5
135
330
122
100
AcDbEntity
  8
DEFPOINTS
 62
     0
100
AcDbPoint
 10
162.1391709619346
 20
266.0852082639217
 30
0.0
  0
POINT
  5
136
330
122
100
AcDbEntity
  8
DEFPOINTS
 62
     0
100
AcDbPoint
 10
162.1391709619346
 20
203.5852082639218
 30
0.0
  0
POINT
  5
137
330
122
100
AcDbEntity
  8
DEFPOINTS
 62
     0
100
AcDbPoint
 10
172.4030914118092
 20
203.5852082639218
 30
0.0
  0
ENDBLK
  5
12D
330
122
100
AcDbEntity
  8
0
100
AcDbBlockEnd
  0
ENDSEC
  0
SECTION
  2
ENTITIES
  0
ARC
  5
DE
330
1F
100
AcDbEntity
  8
PV-A9
100
AcDbCircle
 10
202.7391709739347
 20
58.6915421309563
 30
0.0
 40
1.0
100
AcDbArc
 50
180.0
 51
257.2313739873511
  0
ARC
  5
DF
330
1F
100
AcDbEntity
  8
PV-A9
100
AcDbCircle
 10
233.2391709739346
 20
58.6915421309563
 30
0.0
 40
1.0
100
AcDbArc
 50
282.7686260126489
 51
0.0
  0
ARC
  5
E2
330
1F
100
AcDbEntity
  8
PV-A9
100
AcDbCircle
 10
217.9891709739346
 20
125.9852082519218
 30
0.0
 40
69.99999999999996
100
AcDbArc
 50
257.2313739873511
 51
282.7686260126489
  0
LINE
  5
E3
330
1F
100
AcDbEntity
  8
PV-A9
100
AcDbLine
 10
234.2391709739346
 20
168.9852082519218
 30
0.0
 11
234.2391709739346
 21
58.6915421309563
 31
0.0
  0
LINE
  5
E4
330
1F
100
AcDbEntity
  8
PV-A9
100
AcDbLine
 10
201.7391709739346
 20
168.9852082519218
 30
0.0
 11
201.7391709739346
 21
58.6915421309563
 31
0.0
  0
LINE
  5
E9
330
1F
100
AcDbEntity
  8
PV-A9
100
AcDbLine
 10
245.408688567655
 20
168.9852082519218
 30
0.0
 11
217.9891709739343
 21
168.9852082519218
 31
0.0
  0
LINE
  5
EA
330
1F
100
AcDbEntity
  8
PV-A9
100
AcDbLine
 10
217.9891709739346
 20
168.9852082519218
 30
0.0
 11
190.5696533802144
 21
168.9852082519218
 31
0.0
  0
ARC
  5
EB
330
1F
100
AcDbEntity
  8
PV-A9
100
AcDbCircle
 10
394.1328371069003
 20
219.5852082639218
 30
0.0000000000000221
 40
1.0
100
AcDbArc
 50
270.0
 51
347.2313739873511
  0
ARC
  5
EC
330
1F
100
AcDbEntity
  8
PV-A9
100
AcDbCircle
 10
394.1328371069003
 20
250.0852082639218
 30
0.0000000000000221
 40
1.0
100
AcDbArc
 50
12.76862601264886
 51
90.0
  0
ARC
  5
EF
330
1F
100
AcDbEntity
  8
PV-A9
100
AcDbCircle
 10
326.8391709859348
 20
234.8352082639218
 30
0.0000000000000097
 40
69.99999999999997
100
AcDbArc
 50
347.2313739873511
 51
12.76862601264886
  0
LINE
  5
F0
330
1F
100
AcDbEntity
  8
PV-A9
100
AcDbLine
 10
283.8391709859346
 20
251.0852082639218
 30
0.0000000000000018
 11
394.1328371069003
 21
251.0852082639218
 31
0.0000000000000221
210
0.0
220
1.0
230
0.0
  0
LINE
  5
F1
330
1F
100
AcDbEntity
  8
PV-A9
100
AcDbLine
 10
283.8391709859346
 20
218.5852082639218
 30
0.0000000000000018
 11
394.1328371069003
 21
218.5852082639218
 31
0.0000000000000221
210
0.0
220
1.0
230
0.0
  0
LINE
  5
F5
330
1F
100
AcDbEntity
  8
PV-A9
100
AcDbLine
 10
283.8391709859346
 20
262.2547258576422
 30
0.0000000000000018
 11
283.8391709859346
 21
207.4156906702014
 31
0.0000000000000018
210
0.0
220
1.0
230
0.0
  0
CIRCLE
  5
F7
330
1F
100
AcDbEntity
  8
PV-A9
100
AcDbCircle
 10
217.9891709739346
 20
234.8352082639218
 30
0.0
 40
16.25
  0
ARC
  5
F8
330
1F
100
AcDbEntity
  8
PV-A9
100
AcDbCircle
 10
41.84550484096923
 20
250.0852082639218
 30
-0.0000000000000074
 40
1.0
100
AcDbArc
 50
90.00000000000161
 51
167.2313739873511
  0
ARC
  5
F9
330
1F
100
AcDbEntity
  8
PV-A9
100
AcDbCircle
 10
41.84550484096923
 20
219.5852082639218
 30
-0.0000000000000074
 40
1.0
100
AcDbArc
 50
192.7686260126488
 51
270.0
  0
ARC
  5
FC
330
1F
100
AcDbEntity
  8
PV-A9
100
AcDbCircle
 10
109.1391709619347
 20
234.8352082639218
 30
-0.0000000000000032
 40
69.99999999999997
100
AcDbArc
 50
167.2313739873511
 51
192.7686260126488
  0
LINE
  5
FD
330
1F
100
AcDbEntity
  8
PV-A9
100
AcDbLine
 10
152.1391709619346
 20
218.5852082639218
 30
-0.0000000000000006
 11
41.84550484096923
 21
218.5852082639218
 31
-0.0000000000000074
210
0.0
220
1.0
230
0.0
  0
LINE
  5
FE
330
1F
100
AcDbEntity
  8
PV-A9
100
AcDbLine
 10
152.1391709619346
 20
251.0852082639218
 30
-0.0000000000000006
 11
41.84550484096923
 21
251.0852082639218
 31
-0.0000000000000074
210
0.0
220
1.0
230
0.0
  0
LINE
  5
102
330
1F
100
AcDbEntity
  8
PV-A9
100
AcDbLine
 10
152.1391709619346
 20
207.4156906702014
 30
-0.0000000000000006
 11
152.1391709619346
 21
262.2547258576422
 31
-0.0000000000000006
210
0.0
220
1.0
230
0.0
  0
LINE
  5
144
330
1F
100
AcDbEntity
  8
PV-CB
100
AcDbLine
 10
164.1391709619346
 20
269.8352082639217
 30
0.0000000000000001
 11
164.1391709619346
 21
199.8352082639218
 31
0.0000000000000001
210
0.0
220
1.0
230
0.0
  0
LINE
  5
145
330
1F
100
AcDbEntity
  8
PV-CB
100
AcDbLine
 10
152.1391709619346
 20
267.8352082639217
 30
-0.0000000000000006
 11
152.1391709619346
 21
201.8352082639218
 31
-0.0000000000000006
210
0.0
220
1.0
230
0.0
  0
LINE
  5
146
330
1F
100
AcDbEntity
  8
PV-CB
100
AcDbLine
 10
154.1391709619346
 20
199.8352082639218
 30
-0.0000000000000005
 11
164.1391709619346
 21
199.8352082639218
 31
0.0000000000000001
210
0.0
220
1.0
230
0.0
  0
LINE
  5
147
330
1F
100
AcDbEntity
  8
PV-CB
100
AcDbLine
 10
154.1391709619346
 20
269.8352082639217
 30
-0.0000000000000005
 11
164.1391709619346
 21
269.8352082639217
 31
0.0000000000000001
210
0.0
220
1.0
230
0.0
  0
ARC
  5
148
330
1F
100
AcDbEntity
  8
PV-CB
100
AcDbCircle
 10
154.1391709619346
 20
267.8352082639217
 30
-0.0000000000000005
 40
2.0
100
AcDbArc
 50
90.0
 51
180.0
  0
ARC
  5
149
330
1F
100
AcDbEntity
  8
PV-CB
100
AcDbCircle
 10
154.1391709619346
 20
201.8352082639218
 30
-0.0000000000000005
 40
2.0
100
AcDbArc
 50
179.9999999999966
 51
270.0
  0
CIRCLE
  5
14A
330
1F
100
AcDbEntity
  8
0
100
AcDbCircle
 10
217.9891709739346
 20
234.8352082639218
 30
0.0
 40
35.0
  0
ARC
  5
14B
330
1F
100
AcDbEntity
  8
PV-CB
100
AcDbCircle
 10
281.8391709859346
 20
201.8352082639218
 30
-0.0000000000000005
 40
2.0
100
AcDbArc
 50
270.0
 51
0.0000000000032639
  0
ARC
  5
14C
330
1F
100
AcDbEntity
  8
PV-CB
100
AcDbCircle
 10
281.8391709859346
 20
267.8352082639217
 30
-0.0000000000000005
 40
2.0
100
AcDbArc
 50
0.000000000000007
 51
90.0
  0
LINE
  5
14D
330
1F
100
AcDbEntity
  8
PV-CB
100
AcDbLine
 10
281.8391709859346
 20
269.8352082639217
 30
-0.0000000000000005
 11
271.8391709859346
 21
269.8352082639217
 31
0.0000000000000001
210
0.0
220
1.0
230
0.0
  0
LINE
  5
14E
330
1F
100
AcDbEntity
  8
PV-CB
100
AcDbLine
 10
281.8391709859346
 20
199.8352082639218
 30
-0.0000000000000005
 11
271.8391709859346
 21
199.8352082639218
 31
0.0000000000000001
210
0.0
220
1.0
230
0.0
  0
LINE
  5
14F
330
1F
100
AcDbEntity
  8
PV-CB
100
AcDbLine
 10
283.8391709859346
 20
267.8352082639217
 30
-0.0000000000000006
 11
283.8391709859346
 21
201.8352082639218
 31
-0.0000000000000006
210
0.0
220
1.0
230
0.0
  0
LINE
  5
150
330
1F
100
AcDbEntity
  8
PV-CB
100
AcDbLine
 10
271.8391709859346
 20
269.8352082639217
 30
0.0000000000000001
 11
271.8391709859346
 21
199.8352082639218
 31
0.0000000000000001
210
0.0
220
1.0
230
0.0
  0
LINE
  5
151
330
1F
100
AcDbEntity
  8
PV-A9
100
AcDbLine
 10
283.8391709859346
 20
207.4156906702014
 30
-0.0000000000000006
 11
283.8391709859346
 21
262.2547258576422
 31
-0.0000000000000006
210
0.0
220
1.0
230
0.0
  0
ARC
  5
152
330
1F
100
AcDbEntity
  8
PV-CB
100
AcDbCircle
 10
250.9891709739343
 20
170.9852082519218
 30
0.0000000000000001
 40
2.0
100
AcDbArc
 50
269.9999999999968
 51
0.0
  0
ARC
  5
153
330
1F
100
AcDbEntity
  8
PV-CB
100
AcDbCircle
 10
184.9891709739343
 20
170.9852082519218
 30
0.0000000000000001
 40
2.0
100
AcDbArc
 50
180.0
 51
270.0
  0
LINE
  5
154
330
1F
100
AcDbEntity
  8
PV-CB
100
AcDbLine
 10
182.9891709739343
 20
170.9852082519218
 30
0.0000000000000001
 11
182.9891709739343
 21
180.9852082519218
 31
0.0000000000000007
210
-1.0
220
0.0000000000000001
230
0.0
  0
LINE
  5
155
330
1F
100
AcDbEntity
  8
PV-CB
100
AcDbLine
 10
252.9891709739343
 20
170.9852082519218
 30
0.0000000000000001
 11
252.9891709739343
 21
180.9852082519218
 31
0.0000000000000007
210
-1.0
220
0.0000000000000001
230
0.0
  0
LINE
  5
156
330
1F
100
AcDbEntity
  8
PV-CB
100
AcDbLine
 10
184.9891709739343
 20
168.9852082519218
 30
0.0
 11
250.9891709739343
 21
168.9852082519218
 31
0.0
210
-1.0
220
0.0000000000000001
230
0.0
  0
LINE
  5
157
330
1F
100
AcDbEntity
  8
PV-CB
100
AcDbLine
 10
182.9891709739343
 20
180.9852082519218
 30
0.0000000000000007
 11
252.9891709739343
 21
180.9852082519218
 31
0.0000000000000007
210
-1.0
220
0.0000000000000001
230
0.0
  0
LINE
  5
158
330
1F
100
AcDbEntity
  8
PV-A9
100
AcDbLine
 10
245.4086885676546
 20
168.9852082519218
 30
0.0
 11
190.5696533802139
 21
168.9852082519218
 31
0.0
210
-1.0
220
0.0000000000000001
230
0.0
  0
ENDSEC
  0
SECTION
  2
OBJECTS
  0
DICTIONARY
  5
C
330
0
100
AcDbDictionary
  3
ACAD_COLOR
350
6B
  3
ACAD_GROUP
350
D
  3
ACAD_LAYOUT
350
1A
  3
ACAD_MATERIAL
350
6A
  3
ACAD_MLINESTYLE
350
17
  3
ACAD_PLOTSETTINGS
350
19
  3
ACAD_PLOTSTYLENAME
350
E
  3
ACDBVARIABLEDICTIONARY
350
5E
  3
DWGPROPS
350
15B
  3
ACDBHEADERROUNDTRIPXREC
350
16A
  0
DICTIONARY
  5
18B
330
1F
100
AcDbDictionary
280
     1
  3
ACAD_LAYOUTSELFREF
360
18C
  0
DICTIONARY
  5
18D
330
50
100
AcDbDictionary
280
     1
  3
ACAD_LAYOUTSELFREF
360
18E
  0
DICTIONARY
  5
6B
102
{ACAD_REACTORS
330
C
102
}
330
C
100
AcDbDictionary
  0
DICTIONARY
  5
D
102
{ACAD_REACTORS
330
C
102
}
330
C
100
AcDbDictionary
  0
DICTIONARY
  5
1A
102
{ACAD_REACTORS
330
C
102
}
330
C
100
AcDbDictionary
  0
DICTIONARY
  5
6A
102
{ACAD_REACTORS
330
C
102
}
330
C
100
AcDbDictionary
  0
DICTIONARY
  5
17
102
{ACAD_REACTORS
330
C
102
}
330
C
100
AcDbDictionary
  3
STANDARD
350
18
  0
DICTIONARY
  5
19
102
{ACAD_REACTORS
330
C
102
}
330
C
100
AcDbDictionary
  0
ACDBDICTIONARYWDFLT
  5
E
102
{ACAD_REACTORS
330
C
102
}
330
C
100
AcDbDictionary
281
     1
  3
Normal
350
F
100
AcDbDictionaryWithDefault
340
F
  0
DICTIONARY
  5
5E
102
{ACAD_REACTORS
330
C
102
}
330
C
100
AcDbDictionary
  3
DIMASSOC
350
5F
  3
HIDETEXT
350
63
  3
PROJECTNAME
350
159
  0
XRECORD
  5
15B
102
{ACAD_REACTORS
330
C
102
}
330
C
100
AcDbXrecord
  1
DWGPROPS COOKIE
  2

  3

  4

  6

  7

  8

  9

300
=
301
=
302
=
303
=
304
=
305
=
306
=
307
=
308
=
309
=
 40
0.0088692592592593
 41
2453586.352102685
 42
2453607.480599502
  1

 90
        0
  0
DICTIONARY
  5
16A
102
{ACAD_REACTORS
330
C
102
}
330
C
100
AcDbDictionary
  3
TSTACKALIGN
350
16B
  3
TSTACKSIZE
350
16C
  3
HYPERLINKBASE
350
16D
  3
STYLESHEET
350
16E
  3
LAYOUTDICT
350
16F
  3
PLOTSETDICT
350
170
  3
PLOTSTYLNAMDICT
350
171
  3
LWETCUNION
350
172
  3
INSUNITS
350
173
  3
CEPSNTYPE
350
174
  3
FINGERPRINTGUID
350
175
  3
VERSIONGUID
350
176
  3
PSVPSCALE
350
177
  3
DIMSTYLEDATA
350
178
  3
PUCSORTHOREF
350
179
  3
PUCSORTHOVIEW
350
17A
  3
PUCSBASE
350
17B
  3
PUCSORGTOP
350
17C
  3
PUCSORGBOTTOM
350
17D
  3
PUCSORGLEFT
350
17E
  3
PUCSORGRIGHT
350
17F
  3
PUCSORGFRONT
350
180
  3
PUCSORGBACK
350
181
  3
UCSORTHOREF
350
182
  3
UCSORTHOVIEW
350
183
  3
UCSBASE
350
184
  3
UCSORGTOP
350
185
  3
UCSORGBOTTOM
350
186
  3
UCSORGLEFT
350
187
  3
UCSORGRIGHT
350
188
  3
UCSORGFRONT
350
189
  3
UCSORGBACK
350
18A
  0
XRECORD
  5
18C
102
{ACAD_REACTORS
330
18B
102
}
330
18B
100
AcDbXrecord
340
1F
  0
XRECORD
  5
18E
102
{ACAD_REACTORS
330
18D
102
}
330
18D
100
AcDbXrecord
340
50
  0
MLINESTYLE
  5
18
102
{ACAD_REACTORS
330
17
102
}
330
17
100
AcDbMlineStyle
  2
STANDARD
 70
     0
  3

 62
   256
 51
90.0
 52
90.0
 71
     2
 49
0.5
 62
   256
  6
BYLAYER
 49
-0.5
 62
   256
  6
BYLAYER
  0
ACDBPLACEHOLDER
  5
F
102
{ACAD_REACTORS
330
E
102
}
330
E
100
AcDbPlaceHolder
280
     0
  0
DICTIONARYVAR
  5
5F
102
{ACAD_REACTORS
330
5E
102
}
330
5E
100
DictionaryVariables
280
     0
  1
2
  0
DICTIONARYVAR
  5
63
102
{ACAD_REACTORS
330
5E
102
}
330
5E
100
DictionaryVariables
280
     0
  1
1
  0
DICTIONARYVAR
  5
159
102
{ACAD_REACTORS
330
5E
102
}
330
5E
100
DictionaryVariables
280
     0
  1

  0
XRECORD
  5
16B
102
{ACAD_REACTORS
330
16A
102
}
330
16A
100
AcDbXrecord
 90
        1
  0
XRECORD
  5
16C
102
{ACAD_REACTORS
330
16A
102
}
330
16A
100
AcDbXrecord
 90
       70
  0
XRECORD
  5
16D
102
{ACAD_REACTORS
330
16A
102
}
330
16A
100
AcDbXrecord
  1

  0
XRECORD
  5
16E
102
{ACAD_REACTORS
330
16A
102
}
330
16A
100
AcDbXrecord
  1

  0
XRECORD
  5
16F
102
{ACAD_REACTORS
330
16A
102
}
330
16A
100
AcDbXrecord
340
1A
  0
XRECORD
  5
170
102
{ACAD_REACTORS
330
16A
102
}
330
16A
100
AcDbXrecord
340
19
  0
XRECORD
  5
171
102
{ACAD_REACTORS
330
16A
102
}
330
16A
100
AcDbXrecord
340
E
  0
XRECORD
  5
172
102
{ACAD_REACTORS
330
16A
102
}
330
16A
100
AcDbXrecord
 90
    10781
  0
XRECORD
  5
173
102
{ACAD_REACTORS
330
16A
102
}
330
16A
100
AcDbXrecord
 90
        4
  0
XRECORD
  5
174
102
{ACAD_REACTORS
330
16A
102
}
330
16A
100
AcDbXrecord
 90
        0
  0
XRECORD
  5
175
102
{ACAD_REACTORS
330
16A
102
}
330
16A
100
AcDbXrecord
  1
{FDEAD578-A652-11D2-9A35-0060089B3A3F}
  0
XRECORD
  5
176
102
{ACAD_REACTORS
330
16A
102
}
330
16A
100
AcDbXrecord
  1
{82191E6C-5336-4299-B795-205AB20B68BE}
  0
XRECORD
  5
177
102
{ACAD_REACTORS
330
16A
102
}
330
16A
100
AcDbXrecord
 40
0.0
  0
XRECORD
  5
178
102
{ACAD_REACTORS
330
16A
102
}
330
16A
100
AcDbXrecord
1000
DSTYLE
1002
{
1070
   278
 70
    44
1002
}
  0
XRECORD
  5
179
102
{ACAD_REACTORS
330
16A
102
}
330
16A
100
AcDbXrecord
340
0
  0
XRECORD
  5
17A
102
{ACAD_REACTORS
330
16A
102
}
330
16A
100
AcDbXrecord
 70
     0
  0
XRECORD
  5
17B
102
{ACAD_REACTORS
330
16A
102
}
330
16A
100
AcDbXrecord
340
0
  0
XRECORD
  5
17C
102
{ACAD_REACTORS
330
16A
102
}
330
16A
100
AcDbXrecord
 10
0.0
 20
0.0
 30
0.0
  0
XRECORD
  5
17D
102
{ACAD_REACTORS
330
16A
102
}
330
16A
100
AcDbXrecord
 10
0.0
 20
0.0
 30
0.0
  0
XRECORD
  5
17E
102
{ACAD_REACTORS
330
16A
102
}
330
16A
100
AcDbXrecord
 10
0.0
 20
0.0
 30
0.0
  0
XRECORD
  5
17F
102
{ACAD_REACTORS
330
16A
102
}
330
16A
100
AcDbXrecord
 10
0.0
 20
0.0
 30
0.0
  0
XRECORD
  5
180
102
{ACAD_REACTORS
330
16A
102
}
330
16A
100
AcDbXrecord
 10
0.0
 20
0.0
 30
0.0
  0
XRECORD
  5
181
102
{ACAD_REACTORS
330
16A
102
}
330
16A
100
AcDbXrecord
 10
0.0
 20
0.0
 30
0.0
  0
XRECORD
  5
182
102
{ACAD_REACTORS
330
16A
102
}
330
16A
100
AcDbXrecord
340
0
  0
XRECORD
  5
183
102
{ACAD_REACTORS
330
16A
102
}
330
16A
100
AcDbXrecord
 70
     0
  0
XRECORD
  5
184
102
{ACAD_REACTORS
330
16A
102
}
330
16A
100
AcDbXrecord
340
0
  0
XRECORD
  5
185
102
{ACAD_REACTORS
330
16A
102
}
330
16A
100
AcDbXrecord
 10
0.0
 20
0.0
 30
0.0
  0
XRECORD
  5
186
102
{ACAD_REACTORS
330
16A
102
}
330
16A
100
AcDbXrecord
 10
0.0
 20
0.0
 30
0.0
  0
XRECORD
  5
187
102
{ACAD_REACTORS
330
16A
102
}
330
16A
100
AcDbXrecord
 10
0.0
 20
0.0
 30
0.0
  0
XRECORD
  5
188
102
{ACAD_REACTORS
330
16A
102
}
330
16A
100
AcDbXrecord
 10
0.0
 20
0.0
 30
0.0
  0
XRECORD
  5
189
102
{ACAD_REACTORS
330
16A
102
}
330
16A
100
AcDbXrecord
 10
0.0
 20
0.0
 30
0.0
  0
XRECORD
  5
18A
102
{ACAD_REACTORS
330
16A
102
}
330
16A
100
AcDbXrecord
 10
0.0
 20
0.0
 30
0.0
  0
ENDSEC
  0
EOF
