  0
SECTION
  2
HEADER
  9
$ACADVER
  1
AC1018
  9
$ACADMAINTVER
 70
   104
  9
$DWGCODEPAGE
  3
ANSI_1252
  9
$LASTSAVEDBY
  1
kaschu
  9
$INSBASE
 10
0.0
 20
0.0
 30
0.0
  9
$EXTMIN
 10
73.45224983730189
 20
-120.2797038620988
 30
-0.0000000000000552
  9
$EXTMAX
 10
1651.237462374619
 20
1570.402538443012
 30
0.0000000000000165
  9
$LIMMIN
 10
0.0
 20
0.0
  9
$LIMMAX
 10
420.0
 20
297.0
  9
$ORTHOMODE
 70
     1
  9
$REGENMODE
 70
     1
  9
$FILLMODE
 70
     1
  9
$QTEXTMODE
 70
     0
  9
$MIRRTEXT
 70
     0
  9
$LTSCALE
 40
1.0
  9
$ATTMODE
 70
     1
  9
$TEXTSIZE
 40
2.5
  9
$TRACEWID
 40
1.0
  9
$TEXTSTYLE
  7
STANDARD
  9
$CLAYER
  8
0
  9
$CELTYPE
  6
BYLAYER
  9
$CECOLOR
 62
   256
  9
$CELTSCALE
 40
1.0
  9
$DISPSILH
 70
     0
  9
$DIMSCALE
 40
1.0
  9
$DIMASZ
 40
2.5
  9
$DIMEXO
 40
0.625
  9
$DIMDLI
 40
3.75
  9
$DIMRND
 40
0.0
  9
$DIMDLE
 40
0.0
  9
$DIMEXE
 40
1.25
  9
$DIMTP
 40
0.0
  9
$DIMTM
 40
0.0
  9
$DIMTXT
 40
2.5
  9
$DIMCEN
 40
2.5
  9
$DIMTSZ
 40
0.0
  9
$DIMTOL
 70
     0
  9
$DIMLIM
 70
     0
  9
$DIMTIH
 70
     0
  9
$DIMTOH
 70
     0
  9
$DIMSE1
 70
     0
  9
$DIMSE2
 70
     0
  9
$DIMTAD
 70
     1
  9
$DIMZIN
 70
     8
  9
$DIMBLK
  1

  9
$DIMASO
 70
     1
  9
$DIMSHO
 70
     1
  9
$DIMPOST
  1

  9
$DIMAPOST
  1

  9
$DIMALT
 70
     0
  9
$DIMALTD
 70
     3
  9
$DIMALTF
 40
0.03937007874016
  9
$DIMLFAC
 40
1.0
  9
$DIMTOFL
 70
     1
  9
$DIMTVP
 40
0.0
  9
$DIMTIX
 70
     0
  9
$DIMSOXD
 70
     0
  9
$DIMSAH
 70
     0
  9
$DIMBLK1
  1

  9
$DIMBLK2
  1

  9
$DIMSTYLE
  2
ISO-25
  9
$DIMCLRD
 70
     0
  9
$DIMCLRE
 70
     0
  9
$DIMCLRT
 70
     0
  9
$DIMTFAC
 40
1.0
  9
$DIMGAP
 40
0.625
  9
$DIMJUST
 70
     0
  9
$DIMSD1
 70
     0
  9
$DIMSD2
 70
     0
  9
$DIMTOLJ
 70
     0
  9
$DIMTZIN
 70
     8
  9
$DIMALTZ
 70
     0
  9
$DIMALTTZ
 70
     0
  9
$DIMUPT
 70
     0
  9
$DIMDEC
 70
     2
  9
$DIMTDEC
 70
     2
  9
$DIMALTU
 70
     2
  9
$DIMALTTD
 70
     3
  9
$DIMTXSTY
  7
STANDARD
  9
$DIMAUNIT
 70
     0
  9
$DIMADEC
 70
     0
  9
$DIMALTRND
 40
0.0
  9
$DIMAZIN
 70
     0
  9
$DIMDSEP
 70
    44
  9
$DIMATFIT
 70
     3
  9
$DIMFRAC
 70
     0
  9
$DIMLDRBLK
  1

  9
$DIMLUNIT
 70
     2
  9
$DIMLWD
 70
    -2
  9
$DIMLWE
 70
    -2
  9
$DIMTMOVE
 70
     0
  9
$LUNITS
 70
     2
  9
$LUPREC
 70
     4
  9
$SKETCHINC
 40
1.0
  9
$FILLETRAD
 40
10.0
  9
$AUNITS
 70
     0
  9
$AUPREC
 70
     0
  9
$MENU
  1
.
  9
$ELEVATION
 40
0.0
  9
$PELEVATION
 40
0.0
  9
$THICKNESS
 40
0.0
  9
$LIMCHECK
 70
     0
  9
$CHAMFERA
 40
10.0
  9
$CHAMFERB
 40
10.0
  9
$CHAMFERC
 40
20.0
  9
$CHAMFERD
 40
0.0
  9
$SKPOLY
 70
     0
  9
$TDCREATE
 40
2453586.352102686
  9
$TDUCREATE
 40
2453586.310436019
  9
$TDUPDATE
 40
2456255.676917084
  9
$TDUUPDATE
 40
2456255.635250417
  9
$TDINDWG
 40
0.0064003241
  9
$TDUSRTIMER
 40
0.0063964236
  9
$USRTIMER
 70
     1
  9
$ANGBASE
 50
0.0
  9
$ANGDIR
 70
     0
  9
$PDMODE
 70
     0
  9
$PDSIZE
 40
0.0
  9
$PLINEWID
 40
0.0
  9
$SPLFRAME
 70
     0
  9
$SPLINETYPE
 70
     6
  9
$SPLINESEGS
 70
     8
  9
$HANDSEED
  5
2C7
  9
$SURFTAB1
 70
     6
  9
$SURFTAB2
 70
     6
  9
$SURFTYPE
 70
     6
  9
$SURFU
 70
     6
  9
$SURFV
 70
     6
  9
$UCSBASE
  2

  9
$UCSNAME
  2

  9
$UCSORG
 10
0.0
 20
0.0
 30
0.0
  9
$UCSXDIR
 10
1.0
 20
0.0
 30
0.0
  9
$UCSYDIR
 10
0.0
 20
1.0
 30
0.0
  9
$UCSORTHOREF
  2

  9
$UCSORTHOVIEW
 70
     0
  9
$UCSORGTOP
 10
0.0
 20
0.0
 30
0.0
  9
$UCSORGBOTTOM
 10
0.0
 20
0.0
 30
0.0
  9
$UCSORGLEFT
 10
0.0
 20
0.0
 30
0.0
  9
$UCSORGRIGHT
 10
0.0
 20
0.0
 30
0.0
  9
$UCSORGFRONT
 10
0.0
 20
0.0
 30
0.0
  9
$UCSORGBACK
 10
0.0
 20
0.0
 30
0.0
  9
$PUCSBASE
  2

  9
$PUCSNAME
  2

  9
$PUCSORG
 10
0.0
 20
0.0
 30
0.0
  9
$PUCSXDIR
 10
1.0
 20
0.0
 30
0.0
  9
$PUCSYDIR
 10
0.0
 20
1.0
 30
0.0
  9
$PUCSORTHOREF
  2

  9
$PUCSORTHOVIEW
 70
     0
  9
$PUCSORGTOP
 10
0.0
 20
0.0
 30
0.0
  9
$PUCSORGBOTTOM
 10
0.0
 20
0.0
 30
0.0
  9
$PUCSORGLEFT
 10
0.0
 20
0.0
 30
0.0
  9
$PUCSORGRIGHT
 10
0.0
 20
0.0
 30
0.0
  9
$PUCSORGFRONT
 10
0.0
 20
0.0
 30
0.0
  9
$PUCSORGBACK
 10
0.0
 20
0.0
 30
0.0
  9
$USERI1
 70
     0
  9
$USERI2
 70
     0
  9
$USERI3
 70
     0
  9
$USERI4
 70
     0
  9
$USERI5
 70
     0
  9
$USERR1
 40
0.0
  9
$USERR2
 40
0.0
  9
$USERR3
 40
0.0
  9
$USERR4
 40
0.0
  9
$USERR5
 40
0.0
  9
$WORLDVIEW
 70
     1
  9
$SHADEDGE
 70
     3
  9
$SHADEDIF
 70
    70
  9
$TILEMODE
 70
     1
  9
$MAXACTVP
 70
    64
  9
$PINSBASE
 10
0.0
 20
0.0
 30
0.0
  9
$PLIMCHECK
 70
     0
  9
$PEXTMIN
 10
0.0
 20
0.0
 30
0.0
  9
$PEXTMAX
 10
0.0
 20
0.0
 30
0.0
  9
$PLIMMIN
 10
0.0
 20
0.0
  9
$PLIMMAX
 10
12.0
 20
9.0
  9
$UNITMODE
 70
     0
  9
$VISRETAIN
 70
     1
  9
$PLINEGEN
 70
     0
  9
$PSLTSCALE
 70
     1
  9
$TREEDEPTH
 70
  3020
  9
$CMLSTYLE
  2
STANDARD
  9
$CMLJUST
 70
     0
  9
$CMLSCALE
 40
20.0
  9
$PROXYGRAPHICS
 70
     1
  9
$MEASUREMENT
 70
     1
  9
$CELWEIGHT
370
    -1
  9
$ENDCAPS
280
     0
  9
$JOINSTYLE
280
     0
  9
$LWDISPLAY
290
     0
  9
$INSUNITS
 70
     4
  9
$HYPERLINKBASE
  1

  9
$STYLESHEET
  1

  9
$XEDIT
290
     1
  9
$CEPSNTYPE
380
     0
  9
$PSTYLEMODE
290
     1
  9
$FINGERPRINTGUID
  2
{FDEAD578-A652-11D2-9A35-0060089B3A3F}
  9
$VERSIONGUID
  2
{D09D4F4C-4CBB-4FA8-BC4A-42FE227D1B3A}
  9
$EXTNAMES
290
     1
  9
$PSVPSCALE
 40
0.0
  9
$OLESTARTUP
290
     0
  9
$SORTENTS
280
   127
  9
$INDEXCTL
280
     0
  9
$HIDETEXT
280
     1
  9
$XCLIPFRAME
290
     0
  9
$HALOGAP
280
     0
  9
$OBSCOLOR
 70
   257
  9
$OBSLTYPE
280
     0
  9
$INTERSECTIONDISPLAY
280
     0
  9
$INTERSECTIONCOLOR
 70
   257
  9
$DIMASSOC
280
     2
  9
$PROJECTNAME
  1

  0
ENDSEC
  0
SECTION
  2
CLASSES
  0
CLASS
  1
ACDBDICTIONARYWDFLT
  2
AcDbDictionaryWithDefault
  3
ObjectDBX Classes
 90
        0
 91
        1
280
     0
281
     0
  0
CLASS
  1
DICTIONARYVAR
  2
AcDbDictionaryVar
  3
ObjectDBX Classes
 90
        0
 91
        4
280
     0
281
     0
  0
CLASS
  1
DIMASSOC
  2
AcDbDimAssoc
  3
"AcDbDimAssoc|Product Desc:     AcDim ARX App For Dimension|Company:          Autodesk, Inc.|WEB Address:      www.autodesk.com"
 90
        0
 91
        4
280
     0
281
     0
  0
CLASS
  1
MATERIAL
  2
AcDbMaterial
  3
ObjectDBX Classes
 90
     1024
 91
        3
280
     0
281
     0
  0
CLASS
  1
VISUALSTYLE
  2
AcDbVisualStyle
  3
ObjectDBX Classes
 90
     4095
 91
       16
280
     0
281
     0
  0
CLASS
  1
TABLESTYLE
  2
AcDbTableStyle
  3
ObjectDBX Classes
 90
     4095
 91
        1
280
     0
281
     0
  0
ENDSEC
  0
SECTION
  2
TABLES
  0
TABLE
  2
VPORT
  5
8
330
0
100
AcDbSymbolTable
 70
     1
  0
VPORT
  5
209
330
8
100
AcDbSymbolTableRecord
100
AcDbViewportTableRecord
  2
*ACTIVE
 70
     0
 10
0.0
 20
0.0
 11
1.0
 21
1.0
 12
878.2493103581682
 22
508.0723617682338
 13
0.0
 23
0.0
 14
10.0
 24
10.0
 15
10.0
 25
10.0
 16
0.0
 26
0.0
 36
1.0
 17
0.0
 27
0.0
 37
0.0
 40
2141.643607480653
 41
1.872894333843797
 42
50.0
 43
0.0
 44
0.0
 50
0.0
 51
0.0
 71
     0
 72
  1000
 73
     1
 74
     3
 75
     0
 76
     0
 77
     0
 78
     0
281
     0
 65
     1
110
0.0
120
0.0
130
0.0
111
1.0
121
0.0
131
0.0
112
0.0
122
1.0
132
0.0
 79
     0
146
0.0
  0
ENDTAB
  0
TABLE
  2
LTYPE
  5
5
330
0
100
AcDbSymbolTable
 70
     1
  0
LTYPE
  5
14
330
5
100
AcDbSymbolTableRecord
100
AcDbLinetypeTableRecord
  2
BYBLOCK
 70
     0
  3

 72
    65
 73
     0
 40
0.0
  0
LTYPE
  5
15
330
5
100
AcDbSymbolTableRecord
100
AcDbLinetypeTableRecord
  2
BYLAYER
 70
     0
  3

 72
    65
 73
     0
 40
0.0
  0
LTYPE
  5
16
330
5
100
AcDbSymbolTableRecord
100
AcDbLinetypeTableRecord
  2
CONTINUOUS
 70
     0
  3
Solid line
 72
    65
 73
     0
 40
0.0
  0
ENDTAB
  0
TABLE
  2
LAYER
  5
2
330
0
100
AcDbSymbolTable
 70
     2
  0
LAYER
  5
10
330
2
100
AcDbSymbolTableRecord
100
AcDbLayerTableRecord
  2
0
 70
     0
 62
     7
  6
CONTINUOUS
370
    -3
390
F
  0
LAYER
  5
1A0
330
2
100
AcDbSymbolTableRecord
100
AcDbLayerTableRecord
  2
DEFPOINTS
 70
     0
 62
     7
  6
CONTINUOUS
290
     0
370
    -3
390
F
  0
ENDTAB
  0
TABLE
  2
STYLE
  5
3
330
0
100
AcDbSymbolTable
 70
     1
  0
STYLE
  5
11
330
3
100
AcDbSymbolTableRecord
100
AcDbTextStyleTableRecord
  2
STANDARD
 70
     0
 40
0.0
 41
1.0
 50
0.0
 71
     0
 42
2.5
  3
txt
  4

  0
ENDTAB
  0
TABLE
  2
VIEW
  5
6
330
0
100
AcDbSymbolTable
 70
     0
  0
ENDTAB
  0
TABLE
  2
UCS
  5
7
330
0
100
AcDbSymbolTable
 70
     0
  0
ENDTAB
  0
TABLE
  2
APPID
  5
9
330
0
100
AcDbSymbolTable
 70
     1
  0
APPID
  5
12
330
9
100
AcDbSymbolTableRecord
100
AcDbRegAppTableRecord
  2
ACAD
 70
     0
  0
ENDTAB
  0
TABLE
  2
DIMSTYLE
  5
A
330
0
100
AcDbSymbolTable
 70
     1
100
AcDbDimStyleTable
 71
     1
340
27
  0
DIMSTYLE
105
27
330
A
100
AcDbSymbolTableRecord
100
AcDbDimStyleTableRecord
  2
ISO-25
 70
     0
 41
2.5
 42
0.625
 43
3.75
 44
1.25
 73
     0
 74
     0
 77
     1
 78
     8
140
2.5
141
2.5
143
0.03937007874016
147
0.625
171
     3
172
     1
271
     2
272
     2
274
     3
283
     0
284
     8
340
11
  0
ENDTAB
  0
TABLE
  2
BLOCK_RECORD
  5
1
330
0
100
AcDbSymbolTable
 70
     8
  0
BLOCK_RECORD
  5
1F
102
{ACAD_XDICTIONARY
360
22B
102
}
330
1
100
AcDbSymbolTableRecord
100
AcDbBlockTableRecord
  2
*MODEL_SPACE
340
24A
  0
BLOCK_RECORD
  5
50
102
{ACAD_XDICTIONARY
360
22D
102
}
330
1
100
AcDbSymbolTableRecord
100
AcDbBlockTableRecord
  2
*PAPER_SPACE
340
24B
  0
BLOCK_RECORD
  5
1A1
330
1
100
AcDbSymbolTableRecord
100
AcDbBlockTableRecord
  2
*D0
340
0
  0
BLOCK_RECORD
  5
1B9
330
1
100
AcDbSymbolTableRecord
100
AcDbBlockTableRecord
  2
*D1
340
0
  0
BLOCK_RECORD
  5
1D1
330
1
100
AcDbSymbolTableRecord
100
AcDbBlockTableRecord
  2
*D2
340
0
  0
BLOCK_RECORD
  5
1FA
330
1
100
AcDbSymbolTableRecord
100
AcDbBlockTableRecord
  2
*D3
340
0
  0
BLOCK_RECORD
  5
24F
330
1
100
AcDbSymbolTableRecord
100
AcDbBlockTableRecord
  2
*D4
340
0
  0
BLOCK_RECORD
  5
270
330
1
100
AcDbSymbolTableRecord
100
AcDbBlockTableRecord
  2
*D5
340
0
  0
BLOCK_RECORD
  5
290
330
1
100
AcDbSymbolTableRecord
100
AcDbBlockTableRecord
  2
*D6
340
0
  0
BLOCK_RECORD
  5
2A8
330
1
100
AcDbSymbolTableRecord
100
AcDbBlockTableRecord
  2
*D7
340
0
  0
ENDTAB
  0
ENDSEC
  0
SECTION
  2
BLOCKS
  0
BLOCK
  5
20
330
1F
100
AcDbEntity
  8
0
100
AcDbBlockBegin
  2
*MODEL_SPACE
 70
     0
 10
0.0
 20
0.0
 30
0.0
  3
*MODEL_SPACE
  1

  0
ENDBLK
  5
21
330
1F
100
AcDbEntity
  8
0
100
AcDbBlockEnd
  0
BLOCK
  5
52
330
50
100
AcDbEntity
 67
     1
  8
0
100
AcDbBlockBegin
  2
*PAPER_SPACE
 70
     0
 10
0.0
 20
0.0
 30
0.0
  3
*PAPER_SPACE
  1

  0
ENDBLK
  5
53
330
50
100
AcDbEntity
 67
     1
  8
0
100
AcDbBlockEnd
  0
BLOCK
  5
1AB
330
1A1
100
AcDbEntity
  8
0
100
AcDbBlockBegin
  2
*D0
 70
     1
 10
0.0
 20
0.0
 30
0.0
  3
*D0
  1

  0
LINE
  5
1AE
330
1A1
100
AcDbEntity
  8
0
 62
     0
100
AcDbLine
 10
292.4522498513019
 20
313.275236904163
 30
0.0
 11
292.4522498513019
 21
239.9357956454915
 31
0.0
  0
LINE
  5
1AF
330
1A1
100
AcDbEntity
  8
0
 62
     0
100
AcDbLine
 10
607.452249851302
 20
313.275236904163
 30
0.0
 11
607.452249851302
 21
239.9357956454915
 31
0.0
  0
LINE
  5
1B0
330
1A1
100
AcDbEntity
  8
0
 62
     0
100
AcDbLine
 10
294.9522498513019
 20
241.1857956454914
 30
0.0
 11
604.9522498513018
 21
241.1857956454914
 31
0.0
  0
SOLID
  5
1B1
330
1A1
100
AcDbEntity
  8
0
 62
     0
100
AcDbTrace
 10
294.9522498513019
 20
241.602462312158
 30
0.0
 11
294.9522498513019
 21
240.7691289788247
 31
0.0
 12
292.4522498513019
 22
241.1857956454914
 32
0.0
 13
292.4522498513019
 23
241.1857956454914
 33
0.0
  0
SOLID
  5
1B2
330
1A1
100
AcDbEntity
  8
0
 62
     0
100
AcDbTrace
 10
604.9522498513018
 20
241.602462312158
 30
0.0
 11
604.9522498513018
 21
240.7691289788247
 31
0.0
 12
607.452249851302
 22
241.1857956454914
 32
0.0
 13
607.452249851302
 23
241.1857956454914
 33
0.0
  0
MTEXT
  5
1B3
330
1A1
100
AcDbEntity
  8
0
 62
     0
100
AcDbMText
 10
449.9522498513019
 20
243.0607956454915
 30
0.0
 40
2.5
 41
0.0
 71
     5
 72
     1
  1
315
 73
     1
 44
1.0
  0
POINT
  5
1B4
330
1A1
100
AcDbEntity
  8
DEFPOINTS
 62
     0
100
AcDbPoint
 10
292.4522498513019
 20
313.900236904163
 30
0.0
  0
POINT
  5
1B5
330
1A1
100
AcDbEntity
  8
DEFPOINTS
 62
     0
100
AcDbPoint
 10
607.452249851302
 20
313.900236904163
 30
-0.0000000000000262
  0
POINT
  5
1B6
330
1A1
100
AcDbEntity
  8
DEFPOINTS
 62
     0
100
AcDbPoint
 10
607.452249851302
 20
241.1857956454914
 30
0.0
  0
ENDBLK
  5
1AC
330
1A1
100
AcDbEntity
  8
0
100
AcDbBlockEnd
  0
BLOCK
  5
1C3
330
1B9
100
AcDbEntity
  8
0
100
AcDbBlockBegin
  2
*D1
 70
     1
 10
0.0
 20
0.0
 30
0.0
  3
*D1
  1

  0
LINE
  5
1C6
330
1B9
100
AcDbEntity
  8
0
 62
     0
100
AcDbLine
 10
292.4522498513019
 20
313.275236904163
 30
0.0
 11
292.4522498513019
 21
245.5819473022156
 31
0.0
  0
LINE
  5
1C7
330
1B9
100
AcDbEntity
  8
0
 62
     0
100
AcDbLine
 10
692.4522498513018
 20
428.2752369041629
 30
0.0
 11
692.4522498513018
 21
245.5819473022156
 31
0.0
  0
LINE
  5
1C8
330
1B9
100
AcDbEntity
  8
0
 62
     0
100
AcDbLine
 10
294.9522498513019
 20
246.8319473022157
 30
0.0
 11
689.952249851302
 21
246.8319473022157
 31
0.0
  0
SOLID
  5
1C9
330
1B9
100
AcDbEntity
  8
0
 62
     0
100
AcDbTrace
 10
294.9522498513019
 20
247.2486139688823
 30
0.0
 11
294.9522498513019
 21
246.415280635549
 31
0.0
 12
292.4522498513019
 22
246.8319473022157
 32
0.0
 13
292.4522498513019
 23
246.8319473022157
 33
0.0
  0
SOLID
  5
1CA
330
1B9
100
AcDbEntity
  8
0
 62
     0
100
AcDbTrace
 10
689.952249851302
 20
247.2486139688823
 30
0.0
 11
689.952249851302
 21
246.415280635549
 31
0.0
 12
692.4522498513018
 22
246.8319473022157
 32
0.0
 13
692.4522498513018
 23
246.8319473022157
 33
0.0
  0
MTEXT
  5
1CB
330
1B9
100
AcDbEntity
  8
0
 62
     0
100
AcDbMText
 10
492.4522498513018
 20
248.7069473022156
 30
0.0
 40
2.5
 41
0.0
 71
     5
 72
     1
  1
400
 73
     1
 44
1.0
  0
POINT
  5
1CC
330
1B9
100
AcDbEntity
  8
DEFPOINTS
 62
     0
100
AcDbPoint
 10
292.4522498513019
 20
313.900236904163
 30
0.0
  0
POINT
  5
1CD
330
1B9
100
AcDbEntity
  8
DEFPOINTS
 62
     0
100
AcDbPoint
 10
692.4522498513018
 20
428.900236904163
 30
-0.000000000000049
  0
POINT
  5
1CE
330
1B9
100
AcDbEntity
  8
DEFPOINTS
 62
     0
100
AcDbPoint
 10
692.4522498513018
 20
246.8319473022157
 30
0.0
  0
ENDBLK
  5
1C4
330
1B9
100
AcDbEntity
  8
0
100
AcDbBlockEnd
  0
BLOCK
  5
1DB
330
1D1
100
AcDbEntity
  8
0
100
AcDbBlockBegin
  2
*D2
 70
     1
 10
0.0
 20
0.0
 30
0.0
  3
*D2
  1

  0
LINE
  5
1DE
330
1D1
100
AcDbEntity
  8
0
 62
     0
100
AcDbLine
 10
607.452249851302
 20
313.2752369041631
 30
0.0
 11
607.452249851302
 21
255.6195455573151
 31
0.0
  0
LINE
  5
1DF
330
1D1
100
AcDbEntity
  8
0
 62
     0
100
AcDbLine
 10
692.4522498513018
 20
428.2752369041629
 30
0.0
 11
692.4522498513018
 21
255.6195455573151
 31
0.0
  0
LINE
  5
1E0
330
1D1
100
AcDbEntity
  8
0
 62
     0
100
AcDbLine
 10
609.9522498513017
 20
256.8695455573152
 30
0.0
 11
689.952249851302
 21
256.8695455573152
 31
0.0
  0
SOLID
  5
1E1
330
1D1
100
AcDbEntity
  8
0
 62
     0
100
AcDbTrace
 10
609.9522498513017
 20
257.2862122239818
 30
0.0
 11
609.9522498513017
 21
256.4528788906485
 31
0.0
 12
607.452249851302
 22
256.8695455573152
 32
0.0
 13
607.452249851302
 23
256.8695455573152
 33
0.0
  0
SOLID
  5
1E2
330
1D1
100
AcDbEntity
  8
0
 62
     0
100
AcDbTrace
 10
689.952249851302
 20
257.2862122239818
 30
0.0
 11
689.952249851302
 21
256.4528788906485
 31
0.0
 12
692.4522498513018
 22
256.8695455573152
 32
0.0
 13
692.4522498513018
 23
256.8695455573152
 33
0.0
  0
MTEXT
  5
1E3
330
1D1
100
AcDbEntity
  8
0
 62
     0
100
AcDbMText
 10
649.9522498513019
 20
258.7445455573151
 30
0.0
 40
2.5
 41
0.0
 71
     5
 72
     1
  1
85
 73
     1
 44
1.0
  0
POINT
  5
1E4
330
1D1
100
AcDbEntity
  8
DEFPOINTS
 62
     0
100
AcDbPoint
 10
607.452249851302
 20
313.9002369041631
 30
-0.0000000000000262
  0
POINT
  5
1E5
330
1D1
100
AcDbEntity
  8
DEFPOINTS
 62
     0
100
AcDbPoint
 10
692.4522498513018
 20
428.900236904163
 30
-0.000000000000049
  0
POINT
  5
1E6
330
1D1
100
AcDbEntity
  8
DEFPOINTS
 62
     0
100
AcDbPoint
 10
692.4522498513018
 20
256.8695455573152
 30
0.0
  0
ENDBLK
  5
1DC
330
1D1
100
AcDbEntity
  8
0
100
AcDbBlockEnd
  0
BLOCK
  5
204
330
1FA
100
AcDbEntity
  8
0
100
AcDbBlockBegin
  2
*D3
 70
     1
 10
0.0
 20
0.0
 30
0.0
  3
*D3
  1

  0
LINE
  5
1FB
330
1FA
100
AcDbEntity
  8
0
 62
     0
100
AcDbLine
 10
292.4522498513019
 20
314.525236904163
 30
0.0
 11
292.4522498513019
 21
407.5437606021678
 31
0.0
  0
LINE
  5
1FC
330
1FA
100
AcDbEntity
  8
0
 62
     0
100
AcDbLine
 10
607.452249851302
 20
314.525236904163
 30
0.0
 11
607.452249851302
 21
407.5437606021678
 31
0.0
  0
LINE
  5
1FD
330
1FA
100
AcDbEntity
  8
0
 62
     0
100
AcDbLine
 10
294.9522498513019
 20
406.2937606021676
 30
0.0
 11
604.9522498513018
 21
406.2937606021676
 31
0.0
  0
SOLID
  5
1FE
330
1FA
100
AcDbEntity
  8
0
 62
     0
100
AcDbTrace
 10
294.9522498513019
 20
406.7104272688345
 30
0.0
 11
294.9522498513019
 21
405.877093935501
 31
0.0
 12
292.4522498513019
 22
406.2937606021676
 32
0.0
 13
292.4522498513019
 23
406.2937606021676
 33
0.0
  0
SOLID
  5
1FF
330
1FA
100
AcDbEntity
  8
0
 62
     0
100
AcDbTrace
 10
604.9522498513018
 20
406.7104272688345
 30
0.0
 11
604.9522498513018
 21
405.877093935501
 31
0.0
 12
607.452249851302
 22
406.2937606021676
 32
0.0
 13
607.452249851302
 23
406.2937606021676
 33
0.0
  0
MTEXT
  5
200
330
1FA
100
AcDbEntity
  8
0
 62
     0
100
AcDbMText
 10
449.9522498513019
 20
408.1687606021678
 30
0.0
 40
2.5
 41
0.0
 71
     5
 72
     1
  1
315
 73
     1
 44
1.0
  0
POINT
  5
201
330
1FA
100
AcDbEntity
  8
DEFPOINTS
 62
     0
100
AcDbPoint
 10
292.4522498513019
 20
313.900236904163
 30
0.0
  0
POINT
  5
202
330
1FA
100
AcDbEntity
  8
DEFPOINTS
 62
     0
100
AcDbPoint
 10
607.452249851302
 20
313.900236904163
 30
-0.0000000000000262
  0
POINT
  5
203
330
1FA
100
AcDbEntity
  8
DEFPOINTS
 62
     0
100
AcDbPoint
 10
607.452249851302
 20
406.2937606021676
 30
0.0
  0
ENDBLK
  5
205
330
1FA
100
AcDbEntity
  8
0
100
AcDbBlockEnd
  0
BLOCK
  5
259
330
24F
100
AcDbEntity
  8
0
100
AcDbBlockBegin
  2
*D4
 70
     1
 10
0.0
 20
0.0
 30
0.0
  3
*D4
  1

  0
LINE
  5
25C
330
24F
100
AcDbEntity
  8
0
 62
     0
370
    -2
100
AcDbLine
 10
292.4522498513019
 20
314.525236904163
 30
0.0
 11
292.4522498513019
 21
1568.527538443012
 31
0.0
  0
LINE
  5
25D
330
24F
100
AcDbEntity
  8
0
 62
     0
370
    -2
100
AcDbLine
 10
692.4522498513018
 20
429.5252369041629
 30
0.0
 11
692.4522498513018
 21
1568.527538443012
 31
0.0
  0
LINE
  5
25E
330
24F
100
AcDbEntity
  8
0
 62
     0
370
    -2
100
AcDbLine
 10
294.9522498513019
 20
1567.277538443012
 30
0.0
 11
689.9522498513018
 21
1567.277538443012
 31
0.0
  0
SOLID
  5
25F
330
24F
100
AcDbEntity
  8
0
 62
     0
100
AcDbTrace
 10
294.9522498513019
 20
1567.694205109679
 30
0.0
 11
294.9522498513019
 21
1566.860871776345
 31
0.0
 12
292.4522498513019
 22
1567.277538443012
 32
0.0
 13
292.4522498513019
 23
1567.277538443012
 33
0.0
  0
SOLID
  5
260
330
24F
100
AcDbEntity
  8
0
 62
     0
100
AcDbTrace
 10
689.9522498513018
 20
1567.694205109679
 30
0.0
 11
689.9522498513018
 21
1566.860871776345
 31
0.0
 12
692.4522498513018
 22
1567.277538443012
 32
0.0
 13
692.4522498513018
 23
1567.277538443012
 33
0.0
  0
MTEXT
  5
261
330
24F
100
AcDbEntity
  8
0
 62
     0
100
AcDbMText
 10
492.4522498513018
 20
1569.152538443012
 30
0.0
 40
2.5
 41
0.0
 71
     5
 72
     1
  1
400
 73
     1
 44
1.0
  0
POINT
  5
262
330
24F
100
AcDbEntity
  8
DEFPOINTS
 62
     0
100
AcDbPoint
 10
292.4522498513019
 20
313.900236904163
 30
0.0
  0
POINT
  5
263
330
24F
100
AcDbEntity
  8
DEFPOINTS
 62
     0
100
AcDbPoint
 10
692.4522498513018
 20
428.900236904163
 30
-0.000000000000049
  0
POINT
  5
264
330
24F
100
AcDbEntity
  8
DEFPOINTS
 62
     0
100
AcDbPoint
 10
692.4522498513018
 20
1567.277538443012
 30
0.0
  0
ENDBLK
  5
25A
330
24F
100
AcDbEntity
  8
0
100
AcDbBlockEnd
  0
BLOCK
  5
27A
330
270
100
AcDbEntity
  8
0
100
AcDbBlockBegin
  2
*D5
 70
     1
 10
0.0
 20
0.0
 30
0.0
  3
*D5
  1

  0
LINE
  5
27D
330
270
100
AcDbEntity
  8
0
 62
     0
370
    -2
100
AcDbLine
 10
793.0772498513017
 20
1063.900236904163
 30
0.0
 11
1436.673036464777
 21
1063.900236904163
 31
0.0
  0
LINE
  5
27E
330
270
100
AcDbEntity
  8
0
 62
     0
370
    -2
100
AcDbLine
 10
293.0772498513018
 20
313.900236904163
 30
0.0
 11
1436.673036464776
 21
313.9002369041627
 31
0.0
  0
LINE
  5
27F
330
270
100
AcDbEntity
  8
0
 62
     0
370
    -2
100
AcDbLine
 10
1435.423036464777
 20
1061.400236904163
 30
0.0
 11
1435.423036464776
 21
316.4002369041627
 31
0.0
  0
SOLID
  5
280
330
270
100
AcDbEntity
  8
0
 62
     0
100
AcDbTrace
 10
1435.00636979811
 20
1061.400236904163
 30
0.0
 11
1435.839703131443
 21
1061.400236904163
 31
0.0
 12
1435.423036464777
 22
1063.900236904163
 32
0.0
 13
1435.423036464777
 23
1063.900236904163
 33
0.0
  0
SOLID
  5
281
330
270
100
AcDbEntity
  8
0
 62
     0
100
AcDbTrace
 10
1435.00636979811
 20
316.4002369041627
 30
0.0
 11
1435.839703131443
 21
316.4002369041627
 31
0.0
 12
1435.423036464776
 22
313.9002369041627
 32
0.0
 13
1435.423036464776
 23
313.9002369041627
 33
0.0
  0
MTEXT
  5
282
330
270
100
AcDbEntity
  8
0
 62
     0
100
AcDbMText
 10
1433.548036464776
 20
688.9002369041629
 30
0.0
 40
2.5
 41
0.0
 71
     5
 72
     1
  1
750
 11
0.0000000000000001
 21
1.0
 31
0.0
 73
     1
 44
1.0
  0
POINT
  5
283
330
270
100
AcDbEntity
  8
DEFPOINTS
 62
     0
100
AcDbPoint
 10
792.4522498513018
 20
1063.900236904163
 30
-0.000000000000049
  0
POINT
  5
284
330
270
100
AcDbEntity
  8
DEFPOINTS
 62
     0
100
AcDbPoint
 10
292.4522498513019
 20
313.900236904163
 30
0.0
  0
POINT
  5
285
330
270
100
AcDbEntity
  8
DEFPOINTS
 62
     0
100
AcDbPoint
 10
1435.423036464776
 20
313.9002369041627
 30
0.0
  0
ENDBLK
  5
27B
330
270
100
AcDbEntity
  8
0
100
AcDbBlockEnd
  0
BLOCK
  5
29A
330
290
100
AcDbEntity
  8
0
100
AcDbBlockBegin
  2
*D6
 70
     1
 10
0.0
 20
0.0
 30
0.0
  3
*D6
  1

  0
LINE
  5
29D
330
290
100
AcDbEntity
  8
0
 62
     0
370
    -2
100
AcDbLine
 10
292.4522498513019
 20
184.2752368901629
 30
0.0
 11
292.4522498513019
 21
-120.2797038620988
 31
0.0
  0
LINE
  5
29E
330
290
100
AcDbEntity
  8
0
 62
     0
370
    -2
100
AcDbLine
 10
792.4522498513019
 20
184.2752368901629
 30
0.0
 11
792.4522498513019
 21
-120.2797038620988
 31
0.0
  0
LINE
  5
29F
330
290
100
AcDbEntity
  8
0
 62
     0
370
    -2
100
AcDbLine
 10
294.9522498513019
 20
-119.0297038620988
 30
0.0
 11
789.952249851302
 21
-119.0297038620988
 31
0.0
  0
SOLID
  5
2A0
330
290
100
AcDbEntity
  8
0
 62
     0
100
AcDbTrace
 10
294.9522498513019
 20
-118.6130371954321
 30
0.0
 11
294.9522498513019
 21
-119.4463705287654
 31
0.0
 12
292.4522498513019
 22
-119.0297038620988
 32
0.0
 13
292.4522498513019
 23
-119.0297038620988
 33
0.0
  0
SOLID
  5
2A1
330
290
100
AcDbEntity
  8
0
 62
     0
100
AcDbTrace
 10
789.952249851302
 20
-118.6130371954321
 30
0.0
 11
789.952249851302
 21
-119.4463705287654
 31
0.0
 12
792.4522498513019
 22
-119.0297038620988
 32
0.0
 13
792.4522498513019
 23
-119.0297038620988
 33
0.0
  0
MTEXT
  5
2A2
330
290
100
AcDbEntity
  8
0
 62
     0
100
AcDbMText
 10
542.4522498513019
 20
-117.1547038620988
 30
0.0
 40
2.5
 41
0.0
 71
     5
 72
     1
  1
500
 73
     1
 44
1.0
  0
POINT
  5
2A3
330
290
100
AcDbEntity
  8
DEFPOINTS
 62
     0
100
AcDbPoint
 10
292.4522498513019
 20
184.9002368901629
 30
0.0
  0
POINT
  5
2A4
330
290
100
AcDbEntity
  8
DEFPOINTS
 62
     0
100
AcDbPoint
 10
792.4522498513019
 20
184.9002368901629
 30
0.0
  0
POINT
  5
2A5
330
290
100
AcDbEntity
  8
DEFPOINTS
 62
     0
100
AcDbPoint
 10
792.4522498513019
 20
-119.0297038620988
 30
0.0
  0
ENDBLK
  5
29B
330
290
100
AcDbEntity
  8
0
100
AcDbBlockEnd
  0
BLOCK
  5
2B2
330
2A8
100
AcDbEntity
  8
0
100
AcDbBlockBegin
  2
*D7
 70
     1
 10
0.0
 20
0.0
 30
0.0
  3
*D7
  1

  0
LINE
  5
2B5
330
2A8
100
AcDbEntity
  8
0
 62
     0
370
    -2
100
AcDbLine
 10
922.0772498653021
 20
313.900236904163
 30
0.0
 11
1651.237462374619
 21
313.9002369041628
 31
0.0
  0
LINE
  5
2B6
330
2A8
100
AcDbEntity
  8
0
 62
     0
370
    -2
100
AcDbLine
 10
922.0772498653021
 20
1063.900236904163
 30
0.0
 11
1651.237462374619
 21
1063.900236904163
 31
0.0
  0
LINE
  5
2B7
330
2A8
100
AcDbEntity
  8
0
 62
     0
370
    -2
100
AcDbLine
 10
1649.987462374619
 20
316.4002369041628
 30
0.0
 11
1649.987462374619
 21
1061.400236904162
 31
0.0
  0
SOLID
  5
2B8
330
2A8
100
AcDbEntity
  8
0
 62
     0
100
AcDbTrace
 10
1649.570795707952
 20
316.4002369041628
 30
0.0
 11
1650.404129041286
 21
316.4002369041628
 31
0.0
 12
1649.987462374619
 22
313.9002369041628
 32
0.0
 13
1649.987462374619
 23
313.9002369041628
 33
0.0
  0
SOLID
  5
2B9
330
2A8
100
AcDbEntity
  8
0
 62
     0
100
AcDbTrace
 10
1649.570795707952
 20
1061.400236904162
 30
0.0
 11
1650.404129041286
 21
1061.400236904162
 31
0.0
 12
1649.987462374619
 22
1063.900236904163
 32
0.0
 13
1649.987462374619
 23
1063.900236904163
 33
0.0
  0
MTEXT
  5
2BA
330
2A8
100
AcDbEntity
  8
0
 62
     0
100
AcDbMText
 10
1648.112462374619
 20
688.900236904163
 30
0.0
 40
2.5
 41
0.0
 71
     5
 72
     1
  1
750
 11
0.0000000000000001
 21
1.0
 31
0.0
 73
     1
 44
1.0
  0
POINT
  5
2BB
330
2A8
100
AcDbEntity
  8
DEFPOINTS
 62
     0
100
AcDbPoint
 10
921.4522498653021
 20
313.900236904163
 30
0.0
  0
POINT
  5
2BC
330
2A8
100
AcDbEntity
  8
DEFPOINTS
 62
     0
100
AcDbPoint
 10
921.4522498653021
 20
1063.900236904163
 30
0.0
  0
POINT
  5
2BD
330
2A8
100
AcDbEntity
  8
DEFPOINTS
 62
     0
100
AcDbPoint
 10
1649.987462374619
 20
1063.900236904163
 30
0.0
  0
ENDBLK
  5
2B3
330
2A8
100
AcDbEntity
  8
0
100
AcDbBlockEnd
  0
ENDSEC
  0
SECTION
  2
ENTITIES
  0
LINE
  5
115
330
1F
100
AcDbEntity
  8
0
100
AcDbLine
 10
808.9522498513018
 20
159.9002368901631
 30
0.0
 11
808.9522498513018
 21
111.400236890163
 31
0.0
  0
LINE
  5
116
330
1F
100
AcDbEntity
  8
0
100
AcDbLine
 10
775.9522498513018
 20
111.400236890163
 30
0.0
 11
775.9522498513018
 21
159.9002368901629
 31
0.0
  0
ARC
  5
117
330
1F
100
AcDbEntity
  8
0
100
AcDbCircle
 10
340.952249851302
 20
159.9002368901629
 30
0.0
 40
65.0
100
AcDbArc
 50
180.0
 51
270.0
  0
ARC
  5
118
330
1F
100
AcDbEntity
  8
0
100
AcDbCircle
 10
340.952249851302
 20
159.9002368901629
 30
0.0
 40
32.0
100
AcDbArc
 50
180.0
 51
270.0
  0
LINE
  5
119
330
1F
100
AcDbEntity
  8
0
100
AcDbLine
 10
792.4522498513018
 20
94.90023689016311
 30
0.0
 11
743.9522498513021
 21
94.90023689016311
 31
0.0
  0
LINE
  5
11A
330
1F
100
AcDbEntity
  8
0
100
AcDbLine
 10
743.9522498513021
 20
127.900236890163
 30
0.0
 11
775.9522498513018
 21
127.900236890163
 31
0.0
  0
ARC
  5
11B
330
1F
100
AcDbEntity
  8
0
100
AcDbCircle
 10
759.4522498513017
 20
174.900236890163
 30
0.0
 40
2.0
100
AcDbArc
 50
180.0
 51
270.0
  0
ARC
  5
11C
330
1F
100
AcDbEntity
  8
0
100
AcDbCircle
 10
825.4522498513019
 20
174.900236890163
 30
0.0
 40
2.0
100
AcDbArc
 50
270.0
 51
0.000000000000007
  0
ARC
  5
11D
330
1F
100
AcDbEntity
  8
0
100
AcDbCircle
 10
259.4522498513019
 20
174.900236890163
 30
0.0
 40
2.0
100
AcDbArc
 50
180.0
 51
270.0000000000033
  0
ARC
  5
11E
330
1F
100
AcDbEntity
  8
0
100
AcDbCircle
 10
325.4522498513019
 20
174.900236890163
 30
0.0
 40
2.0
100
AcDbArc
 50
270.0
 51
0.000000000000007
  0
LINE
  5
11F
330
1F
100
AcDbEntity
  8
0
100
AcDbLine
 10
775.9522498513018
 20
172.900236890163
 30
0.0
 11
775.9522498513018
 21
159.9002368901629
 31
0.0
  0
LINE
  5
120
330
1F
100
AcDbEntity
  8
0
100
AcDbLine
 10
808.9522498513018
 20
172.900236890163
 30
0.0
 11
808.9522498513018
 21
159.9002368901629
 31
0.0
  0
LINE
  5
121
330
1F
100
AcDbEntity
  8
0
100
AcDbLine
 10
275.9522498513019
 20
172.900236890163
 30
0.0
 11
275.9522498513019
 21
159.9002368901629
 31
0.0
  0
LINE
  5
122
330
1F
100
AcDbEntity
  8
0
100
AcDbLine
 10
308.9522498513021
 20
172.900236890163
 30
0.0
 11
308.9522498513021
 21
159.9002368901629
 31
0.0
  0
LINE
  5
123
330
1F
100
AcDbEntity
  8
0
100
AcDbLine
 10
340.952249851302
 20
94.90023689016311
 30
0.0
 11
792.4522498513018
 21
94.90023689016311
 31
0.0
  0
LINE
  5
124
330
1F
100
AcDbEntity
  8
0
100
AcDbLine
 10
340.952249851302
 20
127.900236890163
 30
0.0
 11
775.9522498513018
 21
127.900236890163
 31
0.0
  0
LINE
  5
125
330
1F
100
AcDbEntity
  8
0
100
AcDbLine
 10
827.452249851302
 20
174.900236890163
 30
0.0
 11
827.452249851302
 21
184.9002368901629
 31
0.0
  0
LINE
  5
126
330
1F
100
AcDbEntity
  8
0
100
AcDbLine
 10
757.452249851302
 20
174.900236890163
 30
0.0
 11
757.452249851302
 21
184.9002368901629
 31
0.0
  0
LINE
  5
127
330
1F
100
AcDbEntity
  8
0
100
AcDbLine
 10
327.4522498513019
 20
174.900236890163
 30
0.0
 11
327.4522498513019
 21
184.9002368901629
 31
0.0
  0
LINE
  5
128
330
1F
100
AcDbEntity
  8
0
100
AcDbLine
 10
257.4522498513019
 20
174.900236890163
 30
0.0
 11
257.4522498513019
 21
184.9002368901629
 31
0.0
  0
LINE
  5
129
330
1F
100
AcDbEntity
  8
0
100
AcDbLine
 10
325.4522498513019
 20
172.900236890163
 30
0.0
 11
259.4522498513019
 21
172.900236890163
 31
0.0
  0
LINE
  5
12A
330
1F
100
AcDbEntity
  8
0
100
AcDbLine
 10
327.4522498513019
 20
184.9002368901629
 30
0.0
 11
257.4522498513019
 21
184.9002368901629
 31
0.0
  0
LINE
  5
12B
330
1F
100
AcDbEntity
  8
0
100
AcDbLine
 10
825.4522498513019
 20
172.900236890163
 30
0.0
 11
759.4522498513017
 21
172.900236890163
 31
0.0
  0
LINE
  5
12C
330
1F
100
AcDbEntity
  8
0
100
AcDbLine
 10
827.452249851302
 20
184.9002368901629
 30
0.0
 11
757.452249851302
 21
184.9002368901629
 31
0.0
  0
ARC
  5
12D
330
1F
100
AcDbEntity
  8
0
100
AcDbCircle
 10
792.4522498513018
 20
111.400236890163
 30
0.0
 40
16.5
100
AcDbArc
 50
180.0
 51
0.000000000000007
  0
ARC
  5
12E
330
1F
100
AcDbEntity
  8
0
100
AcDbCircle
 10
138.4522498373019
 20
1015.400236904162
 30
0.0000000000000046
 40
65.0
100
AcDbArc
 50
90.0
 51
180.0
  0
ARC
  5
12F
330
1F
100
AcDbEntity
  8
0
100
AcDbCircle
 10
138.4522498373019
 20
1015.400236904162
 30
0.0000000000000046
 40
32.0
100
AcDbArc
 50
90.0
 51
180.0
  0
LINE
  5
130
330
1F
100
AcDbEntity
  8
0
100
AcDbLine
 10
106.4522498373019
 20
330.4002369041632
 30
0.0000000000000105
 11
138.4522498373019
 21
330.4002369041632
 31
0.0000000000000046
210
0.0
220
1.0
230
0.0
  0
LINE
  5
131
330
1F
100
AcDbEntity
  8
0
100
AcDbLine
 10
138.4522498373019
 20
297.400236904163
 30
0.0000000000000046
 11
89.9522498373019
 21
297.400236904163
 31
0.0000000000000135
210
0.0
220
1.0
230
0.0
  0
LINE
  5
132
330
1F
100
AcDbEntity
  8
0
100
AcDbLine
 10
73.4522498373019
 20
313.900236904163
 30
0.0000000000000165
 11
73.4522498373019
 21
362.4002369041629
 31
0.0000000000000165
210
0.0
220
1.0
230
0.0
  0
LINE
  5
133
330
1F
100
AcDbEntity
  8
0
100
AcDbLine
 10
106.4522498373019
 20
362.4002369041629
 30
0.0000000000000105
 11
106.4522498373019
 21
313.900236904163
 31
0.0000000000000105
210
0.0
220
1.0
230
0.0
  0
ARC
  5
134
330
1F
100
AcDbEntity
  8
0
100
AcDbCircle
 10
153.4522498373019
 20
1096.900236904163
 30
0.0000000000000018
 40
2.0
100
AcDbArc
 50
90.0
 51
180.0
  0
ARC
  5
135
330
1F
100
AcDbEntity
  8
0
100
AcDbCircle
 10
153.4522498373019
 20
1030.900236904163
 30
0.0000000000000018
 40
2.0
100
AcDbArc
 50
180.0
 51
270.0
  0
ARC
  5
136
330
1F
100
AcDbEntity
  8
0
100
AcDbCircle
 10
153.4522498373019
 20
461.900236904163
 30
0.0000000000000018
 40
2.0
100
AcDbArc
 50
90.0
 51
180.0
  0
ARC
  5
137
330
1F
100
AcDbEntity
  8
0
100
AcDbCircle
 10
153.4522498373019
 20
395.9002369041629
 30
0.0000000000000018
 40
2.0
100
AcDbArc
 50
180.0
 51
270.0
  0
ARC
  5
138
330
1F
100
AcDbEntity
  8
0
100
AcDbCircle
 10
153.4522498373019
 20
346.9002369041629
 30
0.0000000000000018
 40
2.0
100
AcDbArc
 50
90.0
 51
180.0000000000064
  0
ARC
  5
139
330
1F
100
AcDbEntity
  8
0
100
AcDbCircle
 10
153.4522498373019
 20
280.900236904163
 30
0.0000000000000018
 40
2.0
100
AcDbArc
 50
180.0
 51
270.0
  0
LINE
  5
13A
330
1F
100
AcDbEntity
  8
0
100
AcDbLine
 10
151.4522498373018
 20
1080.400236904163
 30
0.0000000000000022
 11
138.4522498373019
 21
1080.400236904163
 31
0.0000000000000046
210
0.0
220
1.0
230
0.0
  0
LINE
  5
13B
330
1F
100
AcDbEntity
  8
0
100
AcDbLine
 10
151.4522498373018
 20
1047.400236904162
 30
0.0000000000000022
 11
138.4522498373019
 21
1047.400236904162
 31
0.0000000000000046
210
0.0
220
1.0
230
0.0
  0
LINE
  5
13C
330
1F
100
AcDbEntity
  8
0
100
AcDbLine
 10
106.4522498373019
 20
362.4002369041631
 30
0.0000000000000105
 11
106.4522498373019
 21
412.400236904163
 31
0.0000000000000105
210
0.0
220
1.0
230
0.0
  0
LINE
  5
13D
330
1F
100
AcDbEntity
  8
0
100
AcDbLine
 10
106.4522498373019
 20
445.4002369041628
 30
0.0000000000000105
 11
106.4522498373019
 21
1015.400236904162
 31
0.0000000000000105
210
0.0
220
1.0
230
0.0
  0
LINE
  5
13E
330
1F
100
AcDbEntity
  8
0
100
AcDbLine
 10
73.4522498373019
 20
362.4002369041631
 30
0.0000000000000165
 11
73.45224983730189
 21
1015.400236904162
 31
0.0000000000000165
210
0.0
220
1.0
230
0.0
  0
LINE
  5
13F
330
1F
100
AcDbEntity
  8
0
100
AcDbLine
 10
151.4522498373018
 20
445.4002369041628
 30
0.0000000000000022
 11
106.4522498373019
 21
445.4002369041628
 31
0.0000000000000105
210
0.0
220
1.0
230
0.0
  0
LINE
  5
140
330
1F
100
AcDbEntity
  8
0
100
AcDbLine
 10
151.4522498373018
 20
412.400236904163
 30
0.0000000000000022
 11
106.4522498373019
 21
412.400236904163
 31
0.0000000000000105
210
0.0
220
1.0
230
0.0
  0
LINE
  5
141
330
1F
100
AcDbEntity
  8
0
100
AcDbLine
 10
151.4522498373018
 20
330.4002369041632
 30
0.0000000000000022
 11
138.4522498373019
 21
330.4002369041632
 31
0.0000000000000046
210
0.0
220
1.0
230
0.0
  0
LINE
  5
142
330
1F
100
AcDbEntity
  8
0
100
AcDbLine
 10
151.4522498373018
 20
297.400236904163
 30
0.0000000000000022
 11
138.4522498373019
 21
297.400236904163
 31
0.0000000000000046
210
0.0
220
1.0
230
0.0
  0
LINE
  5
143
330
1F
100
AcDbEntity
  8
0
100
AcDbLine
 10
153.4522498373019
 20
1028.900236904163
 30
0.0000000000000018
 11
163.4522498373019
 21
1028.900236904163
 31
0.0
210
0.0
220
1.0
230
0.0
  0
LINE
  5
144
330
1F
100
AcDbEntity
  8
0
100
AcDbLine
 10
153.4522498373019
 20
1098.900236904163
 30
0.0000000000000018
 11
163.4522498373019
 21
1098.900236904163
 31
0.0
210
0.0
220
1.0
230
0.0
  0
LINE
  5
145
330
1F
100
AcDbEntity
  8
0
100
AcDbLine
 10
153.4522498373019
 20
393.9002369041629
 30
0.0000000000000018
 11
163.4522498373019
 21
393.9002369041629
 31
0.0
210
0.0
220
1.0
230
0.0
  0
LINE
  5
146
330
1F
100
AcDbEntity
  8
0
100
AcDbLine
 10
153.4522498373019
 20
463.9002369041628
 30
0.0000000000000018
 11
163.4522498373019
 21
463.9002369041628
 31
0.0
210
0.0
220
1.0
230
0.0
  0
LINE
  5
147
330
1F
100
AcDbEntity
  8
0
100
AcDbLine
 10
153.4522498373019
 20
278.900236904163
 30
0.0000000000000018
 11
163.4522498373019
 21
278.900236904163
 31
0.0
210
0.0
220
1.0
230
0.0
  0
LINE
  5
148
330
1F
100
AcDbEntity
  8
0
100
AcDbLine
 10
153.4522498373019
 20
348.9002369041629
 30
0.0000000000000018
 11
163.4522498373019
 21
348.9002369041629
 31
0.0
210
0.0
220
1.0
230
0.0
  0
LINE
  5
149
330
1F
100
AcDbEntity
  8
0
100
AcDbLine
 10
151.4522498373018
 20
280.900236904163
 30
0.0000000000000022
 11
151.4522498373018
 21
313.9002369041635
 31
0.0000000000000022
210
0.0
220
1.0
230
0.0
  0
LINE
  5
14A
330
1F
100
AcDbEntity
  8
0
100
AcDbLine
 10
151.4522498373018
 20
313.900236904163
 30
0.0000000000000022
 11
151.4522498373018
 21
346.9002369041629
 31
0.0000000000000022
210
0.0
220
1.0
230
0.0
  0
LINE
  5
14B
330
1F
100
AcDbEntity
  8
0
100
AcDbLine
 10
163.4522498373019
 20
278.900236904163
 30
0.0
 11
163.4522498373019
 21
313.9002369041636
 31
0.0
210
0.0
220
1.0
230
0.0
  0
LINE
  5
14C
330
1F
100
AcDbEntity
  8
0
100
AcDbLine
 10
163.4522498373019
 20
313.900236904163
 30
0.0
 11
163.4522498373019
 21
348.9002369041629
 31
0.0
210
0.0
220
1.0
230
0.0
  0
LINE
  5
14D
330
1F
100
AcDbEntity
  8
0
100
AcDbLine
 10
151.4522498373018
 20
395.9002369041629
 30
0.0000000000000022
 11
151.4522498373018
 21
428.9002369041631
 31
0.0000000000000022
210
0.0
220
1.0
230
0.0
  0
LINE
  5
14E
330
1F
100
AcDbEntity
  8
0
100
AcDbLine
 10
151.4522498373018
 20
428.900236904163
 30
0.0000000000000022
 11
151.4522498373018
 21
461.900236904163
 31
0.0000000000000022
210
0.0
220
1.0
230
0.0
  0
LINE
  5
14F
330
1F
100
AcDbEntity
  8
0
100
AcDbLine
 10
163.4522498373019
 20
393.9002369041629
 30
0.0
 11
163.4522498373019
 21
428.9002369041631
 31
0.0
210
0.0
220
1.0
230
0.0
  0
LINE
  5
150
330
1F
100
AcDbEntity
  8
0
100
AcDbLine
 10
163.4522498373019
 20
428.900236904163
 30
0.0
 11
163.4522498373019
 21
463.9002369041628
 31
0.0
210
0.0
220
1.0
230
0.0
  0
LINE
  5
151
330
1F
100
AcDbEntity
  8
0
100
AcDbLine
 10
151.4522498373018
 20
1030.900236904163
 30
0.0000000000000022
 11
151.4522498373018
 21
1063.900236904163
 31
0.0000000000000022
210
0.0
220
1.0
230
0.0
  0
LINE
  5
152
330
1F
100
AcDbEntity
  8
0
100
AcDbLine
 10
151.4522498373018
 20
1063.900236904163
 30
0.0000000000000022
 11
151.4522498373018
 21
1096.900236904163
 31
0.0000000000000022
210
0.0
220
1.0
230
0.0
  0
LINE
  5
153
330
1F
100
AcDbEntity
  8
0
100
AcDbLine
 10
163.4522498373019
 20
1028.900236904163
 30
0.0
 11
163.4522498373019
 21
1063.900236904163
 31
0.0
210
0.0
220
1.0
230
0.0
  0
LINE
  5
154
330
1F
100
AcDbEntity
  8
0
100
AcDbLine
 10
163.4522498373019
 20
1063.900236904163
 30
0.0
 11
163.4522498373019
 21
1098.900236904163
 31
0.0
210
0.0
220
1.0
230
0.0
  0
ARC
  5
155
330
1F
100
AcDbEntity
  8
0
100
AcDbCircle
 10
89.9522498373019
 20
313.900236904163
 30
0.0000000000000135
 40
16.5
100
AcDbArc
 50
179.9999999999935
 51
0.000000000000007
  0
LINE
  5
156
330
1F
100
AcDbEntity
  8
0
100
AcDbLine
 10
106.4522498373019
 20
445.4002369041628
 30
0.0000000000000105
 11
89.9522498373019
 21
428.9002369041628
 31
0.0000000000000135
210
0.0
220
1.0
230
0.0
  0
LINE
  5
157
330
1F
100
AcDbEntity
  8
0
100
AcDbLine
 10
89.95224983730214
 20
428.9002369041628
 30
0.0000000000000135
 11
106.4522498373019
 21
412.400236904163
 31
0.0000000000000105
210
0.0
220
1.0
230
0.0
  0
LINE
  5
158
330
1F
100
AcDbEntity
  8
0
100
AcDbLine
 10
808.9522498513018
 20
1063.900236904163
 30
-0.000000000000051
 11
808.9522498513018
 21
1015.400236904162
 31
-0.000000000000051
210
0.0
220
1.0
230
0.0
  0
LINE
  5
159
330
1F
100
AcDbEntity
  8
0
100
AcDbLine
 10
775.9522498513018
 20
1015.400236904162
 30
-0.000000000000047
 11
775.9522498513018
 21
1063.900236904163
 31
-0.000000000000047
210
0.0
220
1.0
230
0.0
  0
LINE
  5
15A
330
1F
100
AcDbEntity
  8
0
100
AcDbLine
 10
292.4522498513019
 20
330.4002369041632
 30
0.0
 11
340.9522498513018
 21
330.4002369041632
 31
-0.0000000000000059
210
0.0
220
1.0
230
0.0
  0
LINE
  5
15B
330
1F
100
AcDbEntity
  8
0
100
AcDbLine
 10
340.9522498513018
 20
297.400236904163
 30
-0.0000000000000059
 11
292.4522498513019
 21
297.400236904163
 31
0.0
210
0.0
220
1.0
230
0.0
  0
ARC
  5
15C
330
1F
100
AcDbEntity
  8
0
100
AcDbCircle
 10
743.952249851302
 20
362.4002369041631
 30
-0.000000000000043
 40
65.0
100
AcDbArc
 50
270.0
 51
0.000000000000007
  0
ARC
  5
15D
330
1F
100
AcDbEntity
  8
0
100
AcDbCircle
 10
743.952249851302
 20
362.4002369041631
 30
-0.000000000000043
 40
32.0
100
AcDbArc
 50
270.0
 51
0.000000000000007
  0
LINE
  5
15E
330
1F
100
AcDbEntity
  8
0
100
AcDbLine
 10
808.9522498513018
 20
362.4002369041631
 30
-0.000000000000051
 11
808.9522498513018
 21
1067.060933030019
 31
-0.000000000000051
210
0.0
220
1.0
230
0.0
  0
LINE
  5
15F
330
1F
100
AcDbEntity
  8
0
100
AcDbLine
 10
775.9522498513018
 20
362.4002369041631
 30
-0.000000000000047
 11
775.9522498513018
 21
1067.060933030019
 31
-0.000000000000047
210
0.0
220
1.0
230
0.0
  0
LINE
  5
160
330
1F
100
AcDbEntity
  8
0
100
AcDbLine
 10
340.952249851302
 20
297.400236904163
 30
-0.0000000000000059
 11
743.952249851302
 21
297.400236904163
 31
-0.0000000000000552
210
0.0
220
1.0
230
0.0
  0
LINE
  5
161
330
1F
100
AcDbEntity
  8
0
100
AcDbLine
 10
340.952249851302
 20
330.4002369041632
 30
-0.0000000000000059
 11
743.952249851302
 21
330.4002369041632
 31
-0.0000000000000552
210
0.0
220
1.0
230
0.0
  0
ARC
  5
162
330
1F
100
AcDbEntity
  8
0
100
AcDbCircle
 10
292.4522498513019
 20
313.900236904163
 30
0.0
 40
16.8
100
AcDbArc
 50
79.15593743630227
 51
280.8440625636978
  0
ARC
  5
163
330
1F
100
AcDbEntity
  8
0
100
AcDbCircle
 10
292.4522498513019
 20
313.900236904163
 30
0.0
 40
35.0
100
AcDbArc
 50
28.12706821860331
 51
331.8729317813966
  0
ARC
  5
164
330
1F
100
AcDbEntity
  8
0
100
AcDbCircle
 10
792.4522498513018
 20
428.900236904163
 30
-0.000000000000049
 40
16.8
100
AcDbArc
 50
349.1559374363053
 51
0.000000000000007
  0
ARC
  5
165
330
1F
100
AcDbEntity
  8
0
100
AcDbCircle
 10
792.4522498513018
 20
428.900236904163
 30
-0.000000000000049
 40
16.8
100
AcDbArc
 50
169.1559374363053
 51
190.8440625636946
  0
ARC
  5
166
330
1F
100
AcDbEntity
  8
0
100
AcDbCircle
 10
792.4522498513018
 20
428.900236904163
 30
-0.000000000000049
 40
16.8
100
AcDbArc
 50
0.000000000000007
 51
10.8440625636946
  0
ARC
  5
167
330
1F
100
AcDbEntity
  8
0
100
AcDbCircle
 10
792.4522498513018
 20
428.900236904163
 30
-0.000000000000049
 40
35.0
100
AcDbArc
 50
298.1270682186059
 51
0.000000000000007
  0
ARC
  5
168
330
1F
100
AcDbEntity
  8
0
100
AcDbCircle
 10
792.4522498513018
 20
428.900236904163
 30
-0.000000000000049
 40
35.0
100
AcDbArc
 50
118.1270682186059
 51
241.8729317813941
  0
ARC
  5
169
330
1F
100
AcDbEntity
  8
0
100
AcDbCircle
 10
792.4522498513018
 20
428.900236904163
 30
-0.000000000000049
 40
35.0
100
AcDbArc
 50
0.000000000000007
 51
61.87293178139409
  0
ARC
  5
16A
330
1F
100
AcDbEntity
  8
0
100
AcDbCircle
 10
792.4522498513018
 20
1063.900236904163
 30
-0.000000000000049
 40
16.8
100
AcDbArc
 50
349.1559374363055
 51
0.0
  0
ARC
  5
16C
330
1F
100
AcDbEntity
  8
0
100
AcDbCircle
 10
792.4522498513018
 20
1063.900236904163
 30
-0.000000000000049
 40
35.0
100
AcDbArc
 50
298.1270682186058
 51
0.0
  0
ARC
  5
16D
330
1F
100
AcDbEntity
  8
0
100
AcDbCircle
 10
792.4522498513018
 20
1063.900236904163
 30
-0.000000000000049
 40
35.0
100
AcDbArc
 50
0.0
 51
241.8729317813942
  0
ARC
  5
16E
330
1F
100
AcDbEntity
  8
0
100
AcDbCircle
 10
292.4522498513019
 20
313.900236904163
 30
0.0
 40
16.5
100
AcDbArc
 50
90.0
 51
180.0
  0
ARC
  5
16F
330
1F
100
AcDbEntity
  8
0
100
AcDbCircle
 10
292.4522498513019
 20
313.900236904163
 30
0.0
 40
16.5
100
AcDbArc
 50
180.0
 51
270.0
  0
ARC
  5
170
330
1F
100
AcDbEntity
  8
0
100
AcDbCircle
 10
792.4522498513018
 20
1063.900236904163
 30
-0.000000000000049
 40
16.5
100
AcDbArc
 50
0.0
 51
180.0
  0
ARC
  5
171
330
1F
100
AcDbEntity
  8
0
100
AcDbCircle
 10
946.4522498653021
 20
1015.400236904162
 30
-0.0000000000000015
 40
32.0
100
AcDbArc
 50
0.0
 51
90.00000000000323
  0
ARC
  5
172
330
1F
100
AcDbEntity
  8
0
100
AcDbCircle
 10
946.4522498653021
 20
1015.400236904162
 30
-0.0000000000000015
 40
65.0
100
AcDbArc
 50
0.0
 51
90.00000000000323
  0
LINE
  5
173
330
1F
100
AcDbEntity
  8
0
100
AcDbLine
 10
946.4522498653021
 20
330.4002369041632
 30
-0.0000000000000015
 11
994.9522498653022
 21
330.4002369041632
 31
-0.0000000000000045
210
0.0
220
1.0
230
0.0
  0
LINE
  5
174
330
1F
100
AcDbEntity
  8
0
100
AcDbLine
 10
994.9522498653022
 20
297.400236904163
 30
-0.0000000000000045
 11
946.4522498653021
 21
297.400236904163
 31
-0.0000000000000015
210
0.0
220
1.0
230
0.0
  0
LINE
  5
175
330
1F
100
AcDbEntity
  8
0
100
AcDbLine
 10
1011.452249865302
 20
362.4002369041631
 30
-0.0000000000000055
 11
1011.452249865302
 21
313.900236904163
 31
-0.0000000000000055
210
0.0
220
1.0
230
0.0
  0
LINE
  5
176
330
1F
100
AcDbEntity
  8
0
100
AcDbLine
 10
978.452249865302
 20
330.4002369041632
 30
-0.0000000000000035
 11
978.452249865302
 21
362.4002369041631
 31
-0.0000000000000035
210
0.0
220
1.0
230
0.0
  0
ARC
  5
177
330
1F
100
AcDbEntity
  8
0
100
AcDbCircle
 10
931.4522498653021
 20
1030.900236904163
 30
-0.0000000000000006
 40
2.0
100
AcDbArc
 50
270.0
 51
0.0
  0
ARC
  5
178
330
1F
100
AcDbEntity
  8
0
100
AcDbCircle
 10
931.4522498653021
 20
1096.900236904163
 30
-0.0000000000000006
 40
2.0
100
AcDbArc
 50
0.0
 51
90.0
  0
ARC
  5
179
330
1F
100
AcDbEntity
  8
0
100
AcDbCircle
 10
931.4522498653021
 20
395.9002369041629
 30
-0.0000000000000006
 40
2.0
100
AcDbArc
 50
270.0
 51
0.0000000000065208
  0
ARC
  5
17A
330
1F
100
AcDbEntity
  8
0
100
AcDbCircle
 10
931.4522498653021
 20
461.900236904163
 30
-0.0000000000000006
 40
2.0
100
AcDbArc
 50
0.000000000000007
 51
90.0
  0
ARC
  5
17B
330
1F
100
AcDbEntity
  8
0
100
AcDbCircle
 10
931.4522498653021
 20
280.900236904163
 30
-0.0000000000000006
 40
2.0
100
AcDbArc
 50
270.0
 51
0.0000000000065208
  0
ARC
  5
17C
330
1F
100
AcDbEntity
  8
0
100
AcDbCircle
 10
931.4522498653021
 20
346.9002369041629
 30
-0.0000000000000006
 40
2.0
100
AcDbArc
 50
0.000000000000007
 51
90.0
  0
LINE
  5
17D
330
1F
100
AcDbEntity
  8
0
100
AcDbLine
 10
933.4522498653019
 20
1047.400236904162
 30
-0.0000000000000007
 11
946.4522498653021
 21
1047.400236904162
 31
-0.0000000000000015
210
0.0
220
1.0
230
0.0
  0
LINE
  5
17E
330
1F
100
AcDbEntity
  8
0
100
AcDbLine
 10
933.4522498653019
 20
1080.400236904163
 30
-0.0000000000000007
 11
946.4522498653021
 21
1080.400236904163
 31
-0.0000000000000015
210
0.0
220
1.0
230
0.0
  0
LINE
  5
17F
330
1F
100
AcDbEntity
  8
0
100
AcDbLine
 10
1011.452249865302
 20
362.4002369041631
 30
-0.0000000000000055
 11
1011.452249865302
 21
1015.400236904162
 31
-0.0000000000000055
210
0.0
220
1.0
230
0.0
  0
LINE
  5
180
330
1F
100
AcDbEntity
  8
0
100
AcDbLine
 10
978.452249865302
 20
362.4002369041631
 30
-0.0000000000000035
 11
978.452249865302
 21
412.400236904163
 31
-0.0000000000000035
210
0.0
220
1.0
230
0.0
  0
LINE
  5
181
330
1F
100
AcDbEntity
  8
0
100
AcDbLine
 10
978.452249865302
 20
445.4002369041628
 30
-0.0000000000000035
 11
978.4522498653016
 21
1015.400236904162
 31
-0.0000000000000035
210
0.0
220
1.0
230
0.0
  0
LINE
  5
182
330
1F
100
AcDbEntity
  8
0
100
AcDbLine
 10
933.4522498653019
 20
412.400236904163
 30
-0.0000000000000007
 11
978.452249865302
 21
412.400236904163
 31
-0.0000000000000035
210
0.0
220
1.0
230
0.0
  0
LINE
  5
183
330
1F
100
AcDbEntity
  8
0
100
AcDbLine
 10
933.4522498653019
 20
445.4002369041628
 30
-0.0000000000000007
 11
978.452249865302
 21
445.4002369041628
 31
-0.0000000000000035
210
0.0
220
1.0
230
0.0
  0
LINE
  5
184
330
1F
100
AcDbEntity
  8
0
100
AcDbLine
 10
933.4522498653019
 20
297.400236904163
 30
-0.0000000000000007
 11
946.4522498653021
 21
297.400236904163
 31
-0.0000000000000015
210
0.0
220
1.0
230
0.0
  0
LINE
  5
185
330
1F
100
AcDbEntity
  8
0
100
AcDbLine
 10
933.4522498653019
 20
330.4002369041632
 30
-0.0000000000000007
 11
946.4522498653021
 21
330.4002369041632
 31
-0.0000000000000015
210
0.0
220
1.0
230
0.0
  0
LINE
  5
186
330
1F
100
AcDbEntity
  8
0
100
AcDbLine
 10
931.4522498653021
 20
1098.900236904163
 30
-0.0000000000000006
 11
921.4522498653021
 21
1098.900236904163
 31
0.0
210
0.0
220
1.0
230
0.0
  0
LINE
  5
187
330
1F
100
AcDbEntity
  8
0
100
AcDbLine
 10
931.4522498653021
 20
1028.900236904163
 30
-0.0000000000000006
 11
921.4522498653021
 21
1028.900236904163
 31
0.0
210
0.0
220
1.0
230
0.0
  0
LINE
  5
188
330
1F
100
AcDbEntity
  8
0
100
AcDbLine
 10
931.4522498653021
 20
463.9002369041628
 30
-0.0000000000000006
 11
921.4522498653021
 21
463.9002369041628
 31
0.0
210
0.0
220
1.0
230
0.0
  0
LINE
  5
189
330
1F
100
AcDbEntity
  8
0
100
AcDbLine
 10
931.4522498653021
 20
393.9002369041629
 30
-0.0000000000000006
 11
921.4522498653021
 21
393.9002369041629
 31
0.0
210
0.0
220
1.0
230
0.0
  0
LINE
  5
18A
330
1F
100
AcDbEntity
  8
0
100
AcDbLine
 10
931.4522498653021
 20
348.9002369041629
 30
-0.0000000000000006
 11
921.4522498653021
 21
348.9002369041629
 31
0.0
210
0.0
220
1.0
230
0.0
  0
LINE
  5
18B
330
1F
100
AcDbEntity
  8
0
100
AcDbLine
 10
931.4522498653021
 20
278.900236904163
 30
-0.0000000000000006
 11
921.4522498653021
 21
278.900236904163
 31
0.0
210
0.0
220
1.0
230
0.0
  0
LINE
  5
18C
330
1F
100
AcDbEntity
  8
0
100
AcDbLine
 10
933.4522498653019
 20
346.9002369041629
 30
-0.0000000000000007
 11
933.4522498653019
 21
280.900236904163
 31
-0.0000000000000007
210
0.0
220
1.0
230
0.0
  0
LINE
  5
18D
330
1F
100
AcDbEntity
  8
0
100
AcDbLine
 10
921.4522498653021
 20
348.9002369041629
 30
0.0
 11
921.4522498653021
 21
278.900236904163
 31
0.0
210
0.0
220
1.0
230
0.0
  0
LINE
  5
18E
330
1F
100
AcDbEntity
  8
0
100
AcDbLine
 10
933.4522498653019
 20
461.900236904163
 30
-0.0000000000000007
 11
933.4522498653019
 21
395.9002369041629
 31
-0.0000000000000007
210
0.0
220
1.0
230
0.0
  0
LINE
  5
18F
330
1F
100
AcDbEntity
  8
0
100
AcDbLine
 10
921.4522498653021
 20
463.9002369041628
 30
0.0
 11
921.4522498653021
 21
393.9002369041629
 31
0.0
210
0.0
220
1.0
230
0.0
  0
LINE
  5
190
330
1F
100
AcDbEntity
  8
0
100
AcDbLine
 10
933.4522498653019
 20
1096.900236904163
 30
-0.0000000000000007
 11
933.4522498653019
 21
1030.900236904163
 31
-0.0000000000000007
210
0.0
220
1.0
230
0.0
  0
LINE
  5
191
330
1F
100
AcDbEntity
  8
0
100
AcDbLine
 10
921.4522498653021
 20
1098.900236904163
 30
0.0
 11
921.4522498653021
 21
1028.900236904163
 31
0.0
210
0.0
220
1.0
230
0.0
  0
ARC
  5
192
330
1F
100
AcDbEntity
  8
0
100
AcDbCircle
 10
994.9522498653022
 20
313.900236904163
 30
-0.0000000000000045
 40
16.5
100
AcDbArc
 50
0.000000000000007
 51
90.0
  0
ARC
  5
193
330
1F
100
AcDbEntity
  8
0
100
AcDbCircle
 10
994.9522498653022
 20
313.900236904163
 30
-0.0000000000000045
 40
16.5
100
AcDbArc
 50
270.0
 51
0.000000000000007
  0
LINE
  5
194
330
1F
100
AcDbEntity
  8
0
100
AcDbLine
 10
994.9522498653022
 20
428.9002369041628
 30
-0.0000000000000045
 11
978.452249865302
 21
445.4002369041628
 31
-0.0000000000000035
210
0.0
220
1.0
230
0.0
  0
LINE
  5
195
330
1F
100
AcDbEntity
  8
0
100
AcDbLine
 10
978.452249865302
 20
412.400236904163
 30
-0.0000000000000035
 11
994.9522498653022
 21
428.9002369041631
 31
-0.0000000000000045
210
0.0
220
1.0
230
0.0
  0
ENDSEC
  0
SECTION
  2
OBJECTS
  0
DICTIONARY
  5
C
330
0
100
AcDbDictionary
281
     1
  3
ACAD_COLOR
350
6B
  3
ACAD_GROUP
350
D
  3
ACAD_LAYOUT
350
249
  3
ACAD_MATERIAL
350
6A
  3
ACAD_MLINESTYLE
350
17
  3
ACAD_PLOTSETTINGS
350
19
  3
ACAD_PLOTSTYLENAME
350
E
  3
ACAD_TABLESTYLE
350
247
  3
ACAD_VISUALSTYLE
350
236
  3
ACDBVARIABLEDICTIONARY
350
5E
  0
DICTIONARY
  5
22B
330
1F
100
AcDbDictionary
280
     1
281
     1
  3
ACAD_LAYOUTSELFREF
360
22C
  0
DICTIONARY
  5
22D
330
50
100
AcDbDictionary
280
     1
281
     1
  3
ACAD_LAYOUTSELFREF
360
22E
  0
DICTIONARY
  5
6B
102
{ACAD_REACTORS
330
C
102
}
330
C
100
AcDbDictionary
281
     1
  0
DICTIONARY
  5
D
102
{ACAD_REACTORS
330
C
102
}
330
C
100
AcDbDictionary
281
     1
  0
DICTIONARY
  5
249
102
{ACAD_REACTORS
330
C
102
}
330
C
100
AcDbDictionary
281
     1
  3
Layout1
350
24B
  3
Model
350
24A
  0
DICTIONARY
  5
6A
102
{ACAD_REACTORS
330
C
102
}
330
C
100
AcDbDictionary
281
     1
  3
ByBlock
350
234
  3
ByLayer
350
233
  3
Global
350
235
  0
DICTIONARY
  5
17
102
{ACAD_REACTORS
330
C
102
}
330
C
100
AcDbDictionary
281
     1
  3
STANDARD
350
18
  0
DICTIONARY
  5
19
102
{ACAD_REACTORS
330
C
102
}
330
C
100
AcDbDictionary
281
     1
  0
ACDBDICTIONARYWDFLT
  5
E
102
{ACAD_REACTORS
330
C
102
}
330
C
100
AcDbDictionary
281
     1
  3
Normal
350
F
100
AcDbDictionaryWithDefault
340
F
  0
DICTIONARY
  5
247
102
{ACAD_REACTORS
330
C
102
}
330
C
100
AcDbDictionary
281
     1
  3
Standard
350
248
  0
DICTIONARY
  5
236
102
{ACAD_REACTORS
330
C
102
}
330
C
100
AcDbDictionary
281
     1
  3
2dWireframe
350
23C
  3
3D Hidden
350
23E
  3
3dWireframe
350
23D
  3
Basic
350
23B
  3
Brighten
350
242
  3
ColorChange
350
246
  3
Conceptual
350
23F
  3
Dim
350
241
  3
Facepattern
350
245
  3
Flat
350
237
  3
FlatWithEdges
350
238
  3
Gouraud
350
239
  3
GouraudWithEdges
350
23A
  3
Linepattern
350
244
  3
Realistic
350
240
  3
Thicken
350
243
  0
DICTIONARY
  5
5E
102
{ACAD_REACTORS
330
C
102
}
330
C
100
AcDbDictionary
281
     1
  3
CTABLESTYLE
350
266
  3
DIMASSOC
350
5F
  3
HIDETEXT
350
63
  3
PROJECTNAME
350
1E9
  0
XRECORD
  5
22C
102
{ACAD_REACTORS
330
22B
102
}
330
22B
100
AcDbXrecord
280
     1
340
1F
  0
XRECORD
  5
22E
102
{ACAD_REACTORS
330
22D
102
}
330
22D
100
AcDbXrecord
280
     1
340
50
  0
LAYOUT
  5
24B
102
{ACAD_REACTORS
330
249
102
}
330
249
100
AcDbPlotSettings
  1

  2
\\druckserv1\AROBBE04
  4

  6

 40
0.0
 41
0.0
 42
0.0
 43
0.0
 44
0.0
 45
0.0
 46
0.0
 47
0.0
 48
0.0
 49
0.0
140
0.0
141
0.0
142
1.0
143
1.0
 70
   688
 72
     0
 73
     0
 74
     5
  7

 75
    16
147
1.0
 76
     0
 77
     2
 78
   300
148
0.0
149
0.0
100
AcDbLayout
  1
Layout1
 70
     1
 71
     1
 10
0.0
 20
0.0
 11
12.0
 21
9.0
 12
0.0
 22
0.0
 32
0.0
 14
0.0
 24
0.0
 34
0.0
 15
0.0
 25
0.0
 35
0.0
146
0.0
 13
0.0
 23
0.0
 33
0.0
 16
1.0
 26
0.0
 36
0.0
 17
0.0
 27
1.0
 37
0.0
 76
     0
330
50
  0
LAYOUT
  5
24A
102
{ACAD_REACTORS
330
249
102
}
330
249
100
AcDbPlotSettings
  1

  2
\\druckserv1\AROBBE04
  4

  6

 40
0.0
 41
0.0
 42
0.0
 43
0.0
 44
0.0
 45
0.0
 46
0.0
 47
0.0
 48
0.0
 49
0.0
140
0.0
141
0.0
142
1.0
143
1.0
 70
  1712
 72
     0
 73
     0
 74
     0
  7

 75
     0
147
1.0
 76
     0
 77
     2
 78
   300
148
0.0
149
0.0
100
AcDbLayout
  1
Model
 70
     1
 71
     0
 10
0.0
 20
0.0
 11
12.0
 21
9.0
 12
0.0
 22
0.0
 32
0.0
 14
0.0
 24
0.0
 34
0.0
 15
0.0
 25
0.0
 35
0.0
146
0.0
 13
0.0
 23
0.0
 33
0.0
 16
1.0
 26
0.0
 36
0.0
 17
0.0
 27
1.0
 37
0.0
 76
     0
330
1F
331
209
  0
MATERIAL
  5
234
102
{ACAD_XDICTIONARY
360
2C1
102
}
102
{ACAD_REACTORS
330
6A
102
}
330
6A
100
AcDbMaterial
  1
ByBlock
  0
MATERIAL
  5
233
102
{ACAD_XDICTIONARY
360
2BF
102
}
102
{ACAD_REACTORS
330
6A
102
}
330
6A
100
AcDbMaterial
  1
ByLayer
  0
MATERIAL
  5
235
102
{ACAD_XDICTIONARY
360
2C3
102
}
102
{ACAD_REACTORS
330
6A
102
}
330
6A
100
AcDbMaterial
  1
Global
  0
MLINESTYLE
  5
18
102
{ACAD_REACTORS
330
17
102
}
330
17
100
AcDbMlineStyle
  2
STANDARD
 70
     0
  3

 62
   256
 51
90.0
 52
90.0
 71
     2
 49
0.5
 62
   256
  6
BYLAYER
 49
-0.5
 62
   256
  6
BYLAYER
  0
ACDBPLACEHOLDER
  5
F
102
{ACAD_REACTORS
330
E
102
}
330
E
  0
TABLESTYLE
  5
248
102
{ACAD_XDICTIONARY
360
2C5
102
}
102
{ACAD_REACTORS
330
247
102
}
330
247
100
AcDbTableStyle
  3
Standard
 70
     0
 71
     0
 40
1.5
 41
1.5
280
     0
281
     0
  7
STANDARD
140
4.5
170
     2
 62
     0
 63
     7
283
     0
274
    -2
284
     1
 64
     0
275
    -2
285
     1
 65
     0
276
    -2
286
     1
 66
     0
277
    -2
287
     1
 67
     0
278
    -2
288
     1
 68
     0
279
    -2
289
     1
 69
     0
  7
STANDARD
140
6.0
170
     5
 62
     0
 63
     7
283
     0
274
    -2
284
     1
 64
     0
275
    -2
285
     1
 65
     0
276
    -2
286
     1
 66
     0
277
    -2
287
     1
 67
     0
278
    -2
288
     1
 68
     0
279
    -2
289
     1
 69
     0
  7
STANDARD
140
4.5
170
     5
 62
     0
 63
     7
283
     0
274
    -2
284
     1
 64
     0
275
    -2
285
     1
 65
     0
276
    -2
286
     1
 66
     0
277
    -2
287
     1
 67
     0
278
    -2
288
     1
 68
     0
279
    -2
289
     1
 69
     0
  0
VISUALSTYLE
  5
23C
102
{ACAD_REACTORS
330
236
102
}
330
236
100
AcDbVisualStyle
  2
2dWireframe
 70
     4
 71
     0
 72
     2
 73
     0
 90
        0
 40
-0.6
 41
-30.0
 62
     5
 63
     7
421
 16777215
 74
     1
 91
        4
 64
     7
 65
   257
 75
     1
175
     1
 42
1.0
 92
        0
 66
   257
 43
1.0
 76
     1
 77
     6
 78
     2
 67
     7
 79
     5
170
     0
171
     0
290
     0
174
     0
 93
        1
 44
0.0
173
     0
291
     0
 45
0.0
1001
ACAD
1000
AcDbSavedByObjectVersion
1070
     0
  0
VISUALSTYLE
  5
23E
102
{ACAD_REACTORS
330
236
102
}
330
236
100
AcDbVisualStyle
  2
3D Hidden
 70
     6
 71
     1
 72
     2
 73
     2
 90
        0
 40
-0.6
 41
-30.0
 62
     5
 63
     7
421
 16777215
 74
     2
 91
        2
 64
     7
 65
   257
 75
     2
175
     1
 42
40.0
 92
        0
 66
   257
 43
1.0
 76
     1
 77
     6
 78
     2
 67
     7
 79
     3
170
     0
171
     0
290
     0
174
     0
 93
        1
 44
0.0
173
     0
291
     0
 45
0.0
1001
ACAD
1000
AcDbSavedByObjectVersion
1070
     0
  0
VISUALSTYLE
  5
23D
102
{ACAD_REACTORS
330
236
102
}
330
236
100
AcDbVisualStyle
  2
3dWireframe
 70
     5
 71
     0
 72
     2
 73
     0
 90
        0
 40
-0.6
 41
-30.0
 62
     5
 63
     7
421
 16777215
 74
     1
 91
        4
 64
     7
 65
   257
 75
     1
175
     1
 42
1.0
 92
        0
 66
   257
 43
1.0
 76
     1
 77
     6
 78
     2
 67
     7
 79
     5
170
     0
171
     0
290
     0
174
     0
 93
        1
 44
0.0
173
     0
291
     0
 45
0.0
1001
ACAD
1000
AcDbSavedByObjectVersion
1070
     0
  0
VISUALSTYLE
  5
23B
102
{ACAD_REACTORS
330
236
102
}
330
236
100
AcDbVisualStyle
  2
Basic
 70
     7
 71
     1
 72
     0
 73
     1
 90
        0
 40
-0.6
 41
-30.0
 62
     5
 63
     7
421
 16777215
 74
     0
 91
        4
 64
     7
 65
   257
 75
     1
175
     1
 42
1.0
 92
        8
 66
     7
 43
1.0
 76
     1
 77
     6
 78
     2
 67
     7
 79
     5
170
     0
171
     0
290
     0
174
     0
 93
        1
 44
0.0
173
     0
291
     1
 45
0.0
1001
ACAD
1000
AcDbSavedByObjectVersion
1070
     0
  0
VISUALSTYLE
  5
242
102
{ACAD_REACTORS
330
236
102
}
330
236
100
AcDbVisualStyle
  2
Brighten
 70
    12
 71
     2
 72
     2
 73
     0
 90
        0
 40
-0.6
 41
-30.0
 62
     5
 63
     7
421
 16777215
 74
     1
 91
        4
 64
     7
 65
   257
 75
     1
175
     1
 42
1.0
 92
        8
 66
     7
 43
1.0
 76
     1
 77
     6
 78
     2
 67
     7
 79
     5
170
     0
171
     0
290
     0
174
     0
 93
        1
 44
50.0
173
     0
291
     1
 45
0.0
1001
ACAD
1000
AcDbSavedByObjectVersion
1070
     0
  0
VISUALSTYLE
  5
246
102
{ACAD_REACTORS
330
236
102
}
330
236
100
AcDbVisualStyle
  2
ColorChange
 70
    16
 71
     2
 72
     2
 73
     3
 90
        0
 40
-0.6
 41
-30.0
 62
     5
 63
     8
421
  8421504
 74
     1
 91
        4
 64
     7
 65
   257
 75
     1
175
     1
 42
1.0
 92
        8
 66
     8
424
  8421504
 43
1.0
 76
     1
 77
     6
 78
     2
 67
     7
 79
     5
170
     0
171
     0
290
     0
174
     0
 93
        1
 44
0.0
173
     0
291
     1
 45
0.0
1001
ACAD
1000
AcDbSavedByObjectVersion
1070
     0
  0
VISUALSTYLE
  5
23F
102
{ACAD_REACTORS
330
236
102
}
330
236
100
AcDbVisualStyle
  2
Conceptual
 70
     9
 71
     3
 72
     2
 73
     0
 90
        0
 40
-0.6
 41
-30.0
 62
     5
 63
     7
421
 16777215
 74
     2
 91
        2
 64
     7
 65
   257
 75
     1
175
     1
 42
40.0
 92
        8
 66
     7
 43
1.0
 76
     1
 77
     6
 78
     2
 67
     7
 79
     3
170
     0
171
     0
290
     0
174
     0
 93
        1
 44
0.0
173
     0
291
     0
 45
0.0
1001
ACAD
1000
AcDbSavedByObjectVersion
1070
     0
  0
VISUALSTYLE
  5
241
102
{ACAD_REACTORS
330
236
102
}
330
236
100
AcDbVisualStyle
  2
Dim
 70
    11
 71
     2
 72
     2
 73
     0
 90
        0
 40
-0.6
 41
-30.0
 62
     5
 63
     7
421
 16777215
 74
     1
 91
        4
 64
     7
 65
   257
 75
     1
175
     1
 42
1.0
 92
        8
 66
     7
 43
1.0
 76
     1
 77
     6
 78
     2
 67
     7
 79
     5
170
     0
171
     0
290
     0
174
     0
 93
        1
 44
-50.0
173
     0
291
     1
 45
0.0
1001
ACAD
1000
AcDbSavedByObjectVersion
1070
     0
  0
VISUALSTYLE
  5
245
102
{ACAD_REACTORS
330
236
102
}
330
236
100
AcDbVisualStyle
  2
Facepattern
 70
    15
 71
     2
 72
     2
 73
     0
 90
        0
 40
-0.6
 41
-30.0
 62
     5
 63
     7
421
 16777215
 74
     1
 91
        4
 64
     7
 65
   257
 75
     1
175
     1
 42
1.0
 92
        8
 66
     7
 43
1.0
 76
     1
 77
     6
 78
     2
 67
     7
 79
     5
170
     0
171
     0
290
     0
174
     0
 93
        1
 44
0.0
173
     0
291
     1
 45
0.0
1001
ACAD
1000
AcDbSavedByObjectVersion
1070
     0
  0
VISUALSTYLE
  5
237
102
{ACAD_REACTORS
330
236
102
}
330
236
100
AcDbVisualStyle
  2
Flat
 70
     0
 71
     2
 72
     1
 73
     1
 90
        2
 40
-0.6
 41
30.0
 62
     5
 63
     7
421
 16777215
 74
     0
 91
        4
 64
     7
 65
   257
 75
     1
175
     1
 42
1.0
 92
        8
 66
     7
 43
1.0
 76
     1
 77
     6
 78
     2
 67
     7
 79
     5
170
     0
171
     0
290
     0
174
     0
 93
       13
 44
0.0
173
     0
291
     1
 45
0.0
1001
ACAD
1000
AcDbSavedByObjectVersion
1070
     0
  0
VISUALSTYLE
  5
238
102
{ACAD_REACTORS
330
236
102
}
330
236
100
AcDbVisualStyle
  2
FlatWithEdges
 70
     1
 71
     2
 72
     1
 73
     1
 90
        2
 40
-0.6
 41
30.0
 62
     5
 63
     7
421
 16777215
 74
     1
 91
        4
 64
     7
 65
   257
 75
     1
175
     1
 42
1.0
 92
        0
 66
   257
 43
1.0
 76
     1
 77
     6
 78
     2
 67
     7
 79
     5
170
     0
171
     0
290
     0
174
     0
 93
       13
 44
0.0
173
     0
291
     1
 45
0.0
1001
ACAD
1000
AcDbSavedByObjectVersion
1070
     0
  0
VISUALSTYLE
  5
239
102
{ACAD_REACTORS
330
236
102
}
330
236
100
AcDbVisualStyle
  2
Gouraud
 70
     2
 71
     2
 72
     2
 73
     1
 90
        2
 40
-0.6
 41
30.0
 62
     5
 63
     7
421
 16777215
 74
     0
 91
        4
 64
     7
 65
   257
 75
     1
175
     1
 42
1.0
 92
        0
 66
     7
 43
1.0
 76
     1
 77
     6
 78
     2
 67
     7
 79
     5
170
     0
171
     0
290
     0
174
     0
 93
       13
 44
0.0
173
     0
291
     1
 45
0.0
1001
ACAD
1000
AcDbSavedByObjectVersion
1070
     0
  0
VISUALSTYLE
  5
23A
102
{ACAD_REACTORS
330
236
102
}
330
236
100
AcDbVisualStyle
  2
GouraudWithEdges
 70
     3
 71
     2
 72
     2
 73
     1
 90
        2
 40
-0.6
 41
30.0
 62
     5
 63
     7
421
 16777215
 74
     1
 91
        4
 64
     7
 65
   257
 75
     1
175
     1
 42
1.0
 92
        0
 66
   257
 43
1.0
 76
     1
 77
     6
 78
     2
 67
     7
 79
     5
170
     0
171
     0
290
     0
174
     0
 93
       13
 44
0.0
173
     0
291
     1
 45
0.0
1001
ACAD
1000
AcDbSavedByObjectVersion
1070
     0
  0
VISUALSTYLE
  5
244
102
{ACAD_REACTORS
330
236
102
}
330
236
100
AcDbVisualStyle
  2
Linepattern
 70
    14
 71
     2
 72
     2
 73
     0
 90
        0
 40
-0.6
 41
-30.0
 62
     5
 63
     7
421
 16777215
 74
     1
 91
        4
 64
     7
 65
   257
 75
     7
175
     7
 42
1.0
 92
        8
 66
     7
 43
1.0
 76
     1
 77
     6
 78
     2
 67
     7
 79
     5
170
     0
171
     0
290
     0
174
     0
 93
        1
 44
0.0
173
     0
291
     1
 45
0.0
1001
ACAD
1000
AcDbSavedByObjectVersion
1070
     0
  0
VISUALSTYLE
  5
240
102
{ACAD_REACTORS
330
236
102
}
330
236
100
AcDbVisualStyle
  2
Realistic
 70
     8
 71
     2
 72
     2
 73
     0
 90
        0
 40
-0.6
 41
-30.0
 62
     5
 63
     7
421
 16777215
 74
     1
 91
        0
 64
     7
 65
   257
 75
     1
175
     1
 42
1.0
 92
        8
 66
     8
424
  7895160
 43
1.0
 76
     1
 77
     6
 78
     2
 67
     7
 79
     5
170
     0
171
     0
290
     0
174
     0
 93
       13
 44
0.0
173
     0
291
     0
 45
0.0
1001
ACAD
1000
AcDbSavedByObjectVersion
1070
     0
  0
VISUALSTYLE
  5
243
102
{ACAD_REACTORS
330
236
102
}
330
236
100
AcDbVisualStyle
  2
Thicken
 70
    13
 71
     2
 72
     2
 73
     0
 90
        0
 40
-0.6
 41
-30.0
 62
     5
 63
     7
421
 16777215
 74
     1
 91
        4
 64
     7
 65
   257
 75
     1
175
     1
 42
1.0
 92
       12
 66
     7
 43
1.0
 76
     1
 77
     6
 78
     2
 67
     7
 79
     5
170
     0
171
     0
290
     0
174
     0
 93
        1
 44
0.0
173
     0
291
     1
 45
0.0
1001
ACAD
1000
AcDbSavedByObjectVersion
1070
     0
  0
DICTIONARYVAR
  5
266
102
{ACAD_REACTORS
330
5E
102
}
330
5E
100
DictionaryVariables
280
     0
  1
STANDARD
  0
DICTIONARYVAR
  5
5F
102
{ACAD_REACTORS
330
5E
102
}
330
5E
100
DictionaryVariables
280
     0
  1
2
  0
DICTIONARYVAR
  5
63
102
{ACAD_REACTORS
330
5E
102
}
330
5E
100
DictionaryVariables
280
     0
  1
1
  0
DICTIONARYVAR
  5
1E9
102
{ACAD_REACTORS
330
5E
102
}
330
5E
100
DictionaryVariables
280
     0
  1

  0
DICTIONARY
  5
2C1
330
234
100
AcDbDictionary
280
     1
281
     1
  3
ACAD_XREC_ROUNDTRIP
360
2C2
  0
DICTIONARY
  5
2BF
330
233
100
AcDbDictionary
280
     1
281
     1
  3
ACAD_XREC_ROUNDTRIP
360
2C0
  0
DICTIONARY
  5
2C3
330
235
100
AcDbDictionary
280
     1
281
     1
  3
ACAD_XREC_ROUNDTRIP
360
2C4
  0
DICTIONARY
  5
2C5
330
248
100
AcDbDictionary
280
     1
281
     1
  3
ACAD_XREC_ROUNDTRIP
360
2C6
  0
XRECORD
  5
2C2
102
{ACAD_REACTORS
330
2C1
102
}
330
2C1
100
AcDbXrecord
280
     1
102
MATERIAL
148
0.0
149
0.0
149
0.0
 93
        0
 94
       63
282
     0
 72
     1
 77
     1
171
     1
175
     1
179
     1
273
     0
  0
XRECORD
  5
2C0
102
{ACAD_REACTORS
330
2BF
102
}
330
2BF
100
AcDbXrecord
280
     1
102
MATERIAL
148
0.0
149
0.0
149
0.0
 93
        0
 94
       63
282
     0
 72
     1
 77
     1
171
     1
175
     1
179
     1
273
     0
  0
XRECORD
  5
2C4
102
{ACAD_REACTORS
330
2C3
102
}
330
2C3
100
AcDbXrecord
280
     1
102
MATERIAL
148
0.0
149
0.0
149
0.0
 93
        0
 94
       63
282
     0
 72
     1
 77
     1
171
     1
175
     1
179
     1
273
     0
  0
XRECORD
  5
2C6
102
{ACAD_REACTORS
330
2C5
102
}
330
2C5
100
AcDbXrecord
280
     1
102
ACAD_ROUNDTRIP_PRE2007_TABLESTYLE
 90
      512
 91
        0
  1

 92
      512
 93
        0
  2

 94
      512
 95
        0
  3

  0
ENDSEC
  0
EOF
