  0
SECTION
  2
HEADER
  9
$ACADVER
  1
AC1014
  9
$ACADMAINTVER
 70
     9
  9
$DWGCODEPAGE
  3
ANSI_1252
  9
$INSBASE
 10
0.0
 20
0.0
 30
0.0
  9
$EXTMIN
 10
3.638928934055456
 20
91.2208301523967
 30
-0.0000000000000675
  9
$EXTMAX
 10
1534.262346635992
 20
1623.88726224414
 30
0.0000000000000171
  9
$LIMMIN
 10
0.0
 20
0.0
  9
$LIMMAX
 10
420.0
 20
297.0
  9
$ORTHOMODE
 70
     0
  9
$REGENMODE
 70
     1
  9
$FILLMODE
 70
     1
  9
$QTEXTMODE
 70
     0
  9
$MIRRTEXT
 70
     0
  9
$DRAGMODE
 70
     2
  9
$LTSCALE
 40
1.0
  9
$OSMODE
 70
  2223
  9
$ATTMODE
 70
     1
  9
$TEXTSIZE
 40
2.5
  9
$TRACEWID
 40
1.0
  9
$TEXTSTYLE
  7
STANDARD
  9
$CLAYER
  8
0
  9
$CELTYPE
  6
BYLAYER
  9
$CECOLOR
 62
   256
  9
$CELTSCALE
 40
1.0
  9
$DELOBJ
 70
     1
  9
$DISPSILH
 70
     0
  9
$DIMSCALE
 40
1.0
  9
$DIMASZ
 40
2.5
  9
$DIMEXO
 40
0.625
  9
$DIMDLI
 40
3.75
  9
$DIMRND
 40
0.0
  9
$DIMDLE
 40
0.0
  9
$DIMEXE
 40
1.25
  9
$DIMTP
 40
0.0
  9
$DIMTM
 40
0.0
  9
$DIMTXT
 40
2.5
  9
$DIMCEN
 40
2.5
  9
$DIMTSZ
 40
0.0
  9
$DIMTOL
 70
     0
  9
$DIMLIM
 70
     0
  9
$DIMTIH
 70
     0
  9
$DIMTOH
 70
     0
  9
$DIMSE1
 70
     0
  9
$DIMSE2
 70
     0
  9
$DIMTAD
 70
     1
  9
$DIMZIN
 70
     8
  9
$DIMBLK
  1

  9
$DIMASO
 70
     1
  9
$DIMSHO
 70
     1
  9
$DIMPOST
  1

  9
$DIMAPOST
  1

  9
$DIMALT
 70
     0
  9
$DIMALTD
 70
     3
  9
$DIMALTF
 40
0.03937007874016
  9
$DIMLFAC
 40
1.0
  9
$DIMTOFL
 70
     1
  9
$DIMTVP
 40
0.0
  9
$DIMTIX
 70
     0
  9
$DIMSOXD
 70
     0
  9
$DIMSAH
 70
     0
  9
$DIMBLK1
  1

  9
$DIMBLK2
  1

  9
$DIMSTYLE
  2
ISO-25
  9
$DIMCLRD
 70
     0
  9
$DIMCLRE
 70
     0
  9
$DIMCLRT
 70
     0
  9
$DIMTFAC
 40
1.0
  9
$DIMGAP
 40
0.625
  9
$DIMJUST
 70
     0
  9
$DIMSD1
 70
     0
  9
$DIMSD2
 70
     0
  9
$DIMTOLJ
 70
     0
  9
$DIMTZIN
 70
     8
  9
$DIMALTZ
 70
     0
  9
$DIMALTTZ
 70
     0
  9
$DIMFIT
 70
     3
  9
$DIMUPT
 70
     0
  9
$DIMUNIT
 70
     2
  9
$DIMDEC
 70
     2
  9
$DIMTDEC
 70
     2
  9
$DIMALTU
 70
     2
  9
$DIMALTTD
 70
     3
  9
$DIMTXSTY
  7
STANDARD
  9
$DIMAUNIT
 70
     0
  9
$LUNITS
 70
     2
  9
$LUPREC
 70
     4
  9
$SKETCHINC
 40
1.0
  9
$FILLETRAD
 40
10.0
  9
$AUNITS
 70
     0
  9
$AUPREC
 70
     0
  9
$MENU
  1
.
  9
$ELEVATION
 40
0.0
  9
$PELEVATION
 40
0.0
  9
$THICKNESS
 40
0.0
  9
$LIMCHECK
 70
     0
  9
$BLIPMODE
 70
     0
  9
$CHAMFERA
 40
10.0
  9
$CHAMFERB
 40
10.0
  9
$CHAMFERC
 40
20.0
  9
$CHAMFERD
 40
0.0
  9
$SKPOLY
 70
     0
  9
$TDCREATE
 40
2453586.352102685
  9
$TDUPDATE
 40
2453615.617196446
  9
$TDINDWG
 40
0.0054588542
  9
$TDUSRTIMER
 40
0.0054554977
  9
$USRTIMER
 70
     1
  9
$ANGBASE
 50
0.0
  9
$ANGDIR
 70
     0
  9
$PDMODE
 70
     0
  9
$PDSIZE
 40
0.0
  9
$PLINEWID
 40
0.0
  9
$COORDS
 70
     1
  9
$SPLFRAME
 70
     0
  9
$SPLINETYPE
 70
     6
  9
$SPLINESEGS
 70
     8
  9
$ATTDIA
 70
     0
  9
$ATTREQ
 70
     1
  9
$HANDLING
 70
 10241
  9
$HANDSEED
  5
54F
  9
$SURFTAB1
 70
     6
  9
$SURFTAB2
 70
     6
  9
$SURFTYPE
 70
     6
  9
$SURFU
 70
     6
  9
$SURFV
 70
     6
  9
$UCSNAME
  2

  9
$UCSORG
 10
0.0
 20
0.0
 30
0.0
  9
$UCSXDIR
 10
1.0
 20
0.0
 30
0.0
  9
$UCSYDIR
 10
0.0
 20
1.0
 30
0.0
  9
$PUCSNAME
  2

  9
$PUCSORG
 10
0.0
 20
0.0
 30
0.0
  9
$PUCSXDIR
 10
1.0
 20
0.0
 30
0.0
  9
$PUCSYDIR
 10
0.0
 20
1.0
 30
0.0
  9
$USERI1
 70
     0
  9
$USERI2
 70
     0
  9
$USERI3
 70
     0
  9
$USERI4
 70
     0
  9
$USERI5
 70
     0
  9
$USERR1
 40
0.0
  9
$USERR2
 40
0.0
  9
$USERR3
 40
0.0
  9
$USERR4
 40
0.0
  9
$USERR5
 40
0.0
  9
$WORLDVIEW
 70
     1
  9
$SHADEDGE
 70
     3
  9
$SHADEDIF
 70
    70
  9
$TILEMODE
 70
     1
  9
$MAXACTVP
 70
    64
  9
$PINSBASE
 10
0.0
 20
0.0
 30
0.0
  9
$PLIMCHECK
 70
     0
  9
$PEXTMIN
 10
0.0
 20
0.0
 30
0.0
  9
$PEXTMAX
 10
0.0
 20
0.0
 30
0.0
  9
$PLIMMIN
 10
0.0
 20
0.0
  9
$PLIMMAX
 10
12.0
 20
9.0
  9
$UNITMODE
 70
     0
  9
$VISRETAIN
 70
     1
  9
$PLINEGEN
 70
     0
  9
$PSLTSCALE
 70
     1
  9
$TREEDEPTH
 70
  3020
  9
$PICKSTYLE
 70
     1
  9
$CMLSTYLE
  2
STANDARD
  9
$CMLJUST
 70
     0
  9
$CMLSCALE
 40
20.0
  9
$PROXYGRAPHICS
 70
     1
  9
$MEASUREMENT
 70
     1
  0
ENDSEC
  0
SECTION
  2
CLASSES
  0
CLASS
  1
ACDBDICTIONARYWDFLT
  2
AcDbDictionaryWithDefault
  3
AutoCAD 2000
 90
        0
280
     0
281
     0
  0
CLASS
  1
DICTIONARYVAR
  2
AcDbDictionaryVar
  3
AutoCAD 2000
 90
        0
280
     0
281
     0
  0
CLASS
  1
ACDBPLACEHOLDER
  2
AcDbPlaceHolder
  3
AutoCAD 2000
 90
        0
280
     0
281
     0
  0
CLASS
  1
LAYOUT
  2
AcDbLayout
  3
AutoCAD 2000
 90
        0
280
     0
281
     0
  0
CLASS
  1
LONG_TRANSACTION
  2
AcDbLongTransaction
  3
AutoCAD 2000
 90
        0
280
     0
281
     0
  0
CLASS
  1
LWPOLYLINE
  2
AcDbPolyline
  3
AutoCAD 2000
 90
        0
280
     0
281
     1
  0
CLASS
  1
HATCH
  2
AcDbHatch
  3
AutoCAD 2000
 90
        0
280
     0
281
     1
  0
CLASS
  1
XRECORD
  2
AcDbXrecord
  3
AutoCAD 2000
 90
        0
280
     0
281
     0
  0
CLASS
  1
LONG_TRANSACTION
  2
AcDbLongTransaction
  3
AutoCAD 2000
 90
        0
280
     0
281
     0
  0
CLASS
  1
LWPOLYLINE
  2
AcDbPolyline
  3
AutoCAD 2000
 90
        0
280
     0
281
     1
  0
CLASS
  1
HATCH
  2
AcDbHatch
  3
AutoCAD 2000
 90
        0
280
     0
281
     1
  0
CLASS
  1
XRECORD
  2
AcDbXrecord
  3
AutoCAD 2000
 90
        0
280
     0
281
     0
  0
ENDSEC
  0
SECTION
  2
TABLES
  0
TABLE
  2
VPORT
  5
8
330
0
100
AcDbSymbolTable
 70
     3
  0
VPORT
  5
52B
330
8
100
AcDbSymbolTableRecord
100
AcDbViewportTableRecord
  2
*ACTIVE
 70
     0
 10
0.0
 20
0.0
 11
1.0
 21
1.0
 12
1403.285522862649
 22
482.1692129862087
 13
0.0
 23
0.0
 14
10.0
 24
10.0
 15
10.0
 25
10.0
 16
0.0
 26
0.0
 36
1.0
 17
0.0
 27
0.0
 37
0.0
 40
3053.556409302025
 41
1.525316455696202
 42
50.0
 43
0.0
 44
0.0
 50
0.0
 51
0.0
 71
     0
 72
  1000
 73
     1
 74
     3
 75
     0
 76
     0
 77
     0
 78
     0
  0
ENDTAB
  0
TABLE
  2
LTYPE
  5
5
330
0
100
AcDbSymbolTable
 70
     1
  0
LTYPE
  5
14
330
5
100
AcDbSymbolTableRecord
100
AcDbLinetypeTableRecord
  2
BYBLOCK
 70
     0
  3

 72
    65
 73
     0
 40
0.0
  0
LTYPE
  5
15
330
5
100
AcDbSymbolTableRecord
100
AcDbLinetypeTableRecord
  2
BYLAYER
 70
     0
  3

 72
    65
 73
     0
 40
0.0
  0
LTYPE
  5
16
330
5
100
AcDbSymbolTableRecord
100
AcDbLinetypeTableRecord
  2
CONTINUOUS
 70
     0
  3
Solid line
 72
    65
 73
     0
 40
0.0
  0
ENDTAB
  0
TABLE
  2
LAYER
  5
2
330
0
100
AcDbSymbolTable
 70
     3
  0
LAYER
  5
10
330
2
100
AcDbSymbolTableRecord
100
AcDbLayerTableRecord
  2
0
 70
     0
 62
     7
  6
CONTINUOUS
  0
ENDTAB
  0
TABLE
  2
STYLE
  5
3
330
0
100
AcDbSymbolTable
 70
     1
  0
STYLE
  5
11
330
3
100
AcDbSymbolTableRecord
100
AcDbTextStyleTableRecord
  2
STANDARD
 70
     0
 40
0.0
 41
1.0
 50
0.0
 71
     0
 42
2.5
  3
txt
  4

  0
ENDTAB
  0
TABLE
  2
VIEW
  5
6
330
0
100
AcDbSymbolTable
 70
     0
  0
ENDTAB
  0
TABLE
  2
UCS
  5
7
330
0
100
AcDbSymbolTable
 70
     0
  0
ENDTAB
  0
TABLE
  2
APPID
  5
9
330
0
100
AcDbSymbolTable
 70
     1
  0
APPID
  5
12
330
9
100
AcDbSymbolTableRecord
100
AcDbRegAppTableRecord
  2
ACAD
 70
     0
  0
ENDTAB
  0
TABLE
  2
DIMSTYLE
  5
A
330
0
100
AcDbSymbolTable
 70
     1
  0
DIMSTYLE
105
27
330
A
100
AcDbSymbolTableRecord
100
AcDbDimStyleTableRecord
  2
ISO-25
 70
     0
  3

  4

  5

  6

  7

 40
1.0
 41
2.5
 42
0.625
 43
3.75
 44
1.25
 45
0.0
 46
0.0
 47
0.0
 48
0.0
140
2.5
141
2.5
142
0.0
143
0.03937007874016
144
1.0
145
0.0
146
1.0
147
0.625
 71
     0
 72
     0
 73
     0
 74
     0
 75
     0
 76
     0
 77
     1
 78
     8
170
     0
171
     3
172
     1
173
     0
174
     0
175
     0
176
     0
177
     0
178
     0
270
     2
271
     2
272
     2
273
     2
274
     3
340
11
275
     0
280
     0
281
     0
282
     0
283
     0
284
     8
285
     0
286
     0
287
     3
288
     0
  0
ENDTAB
  0
TABLE
  2
BLOCK_RECORD
  5
1
330
0
100
AcDbSymbolTable
 70
     0
  0
BLOCK_RECORD
  5
1F
102
{ACAD_XDICTIONARY
360
51E
102
}
330
1
100
AcDbSymbolTableRecord
100
AcDbBlockTableRecord
  2
*MODEL_SPACE
  0
BLOCK_RECORD
  5
50
102
{ACAD_XDICTIONARY
360
520
102
}
330
1
100
AcDbSymbolTableRecord
100
AcDbBlockTableRecord
  2
*PAPER_SPACE
  0
ENDTAB
  0
ENDSEC
  0
SECTION
  2
BLOCKS
  0
BLOCK
  5
20
330
1F
100
AcDbEntity
  8
0
100
AcDbBlockBegin
  2
*MODEL_SPACE
 70
     0
 10
0.0
 20
0.0
 30
0.0
  3
*MODEL_SPACE
  1

  0
ENDBLK
  5
21
330
1F
100
AcDbEntity
  8
0
100
AcDbBlockEnd
  0
BLOCK
  5
52
330
50
100
AcDbEntity
 67
     1
  8
0
100
AcDbBlockBegin
  2
*PAPER_SPACE
 70
     0
 10
0.0
 20
0.0
 30
0.0
  3
*PAPER_SPACE
  1

  0
ENDBLK
  5
53
330
50
100
AcDbEntity
 67
     1
  8
0
100
AcDbBlockEnd
  0
ENDSEC
  0
SECTION
  2
ENTITIES
  0
LINE
  5
217
330
1F
100
AcDbEntity
  8
0
100
AcDbLine
 10
1433.233815323049
 20
504.973048681768
 30
0.0000000000000105
 11
1449.733815323051
 21
504.973048681768
 31
0.0000000000000135
  0
LINE
  5
21A
330
1F
100
AcDbEntity
  8
0
100
AcDbLine
 10
1461.648398470338
 20
1539.973048681767
 30
0.0000000000000157
 11
1466.733815323051
 21
1539.973048681767
 31
0.0000000000000166
210
0.0
220
1.0
230
0.0
  0
LINE
  5
21B
330
1F
100
AcDbEntity
  8
0
100
AcDbLine
 10
1433.233815323049
 20
1539.973048681767
 30
0.0000000000000105
 11
1461.648398470338
 21
1539.973048681767
 31
0.0000000000000157
210
0.0
220
1.0
230
0.0
  0
LINE
  5
21C
330
1F
100
AcDbEntity
  8
0
100
AcDbLine
 10
1388.233815323051
 20
1588.473048681768
 30
0.0000000000000022
 11
1388.233815323051
 21
1621.473048681767
 31
0.0000000000000022
210
0.0
220
1.0
230
0.0
  0
LINE
  5
21D
330
1F
100
AcDbEntity
  8
0
100
AcDbLine
 10
1388.233815323051
 20
1555.473048681768
 30
0.0000000000000022
 11
1388.233815323051
 21
1588.473048681768
 31
0.0000000000000022
210
0.0
220
1.0
230
0.0
  0
LINE
  5
21E
330
1F
100
AcDbEntity
  8
0
100
AcDbLine
 10
1388.233815323051
 20
1572.473048681768
 30
0.0000000000000022
 11
1401.233815323049
 21
1572.473048681768
 31
0.0000000000000046
210
0.0
220
1.0
230
0.0
  0
LINE
  5
21F
330
1F
100
AcDbEntity
  8
0
100
AcDbLine
 10
1388.233815323051
 20
1605.473048681767
 30
0.0000000000000022
 11
1401.233815323049
 21
1605.473048681767
 31
0.0000000000000046
210
0.0
220
1.0
230
0.0
  0
ARC
  5
220
330
1F
100
AcDbEntity
  8
0
100
AcDbCircle
 10
1386.233815323051
 20
1555.473048681768
 30
0.0000000000000018
 40
2.0
100
AcDbArc
 50
270.0
 51
0.000000000000007
  0
ARC
  5
221
330
1F
100
AcDbEntity
  8
0
100
AcDbCircle
 10
1386.233815323051
 20
1621.473048681767
 30
0.0000000000000018
 40
2.0
100
AcDbArc
 50
0.000000000000007
 51
90.0
  0
ARC
  5
222
330
1F
100
AcDbEntity
  8
0
100
AcDbCircle
 10
1401.233815323049
 20
1539.973048681767
 30
0.0000000000000046
 40
32.5
100
AcDbArc
 50
0.000000000000007
 51
90.0
  0
ARC
  5
223
330
1F
100
AcDbEntity
  8
0
100
AcDbCircle
 10
1401.233815323049
 20
1539.973048681767
 30
0.0000000000000046
 40
65.5
100
AcDbArc
 50
0.000000000000007
 51
90.0
  0
LINE
  5
224
330
1F
100
AcDbEntity
  8
0
100
AcDbLine
 10
1376.233815323051
 20
1588.473048681768
 30
0.0
 11
1376.233815323051
 21
1623.473048681767
 31
0.0
210
0.0
220
1.0
230
0.0
  0
LINE
  5
225
330
1F
100
AcDbEntity
  8
0
100
AcDbLine
 10
1376.233815323051
 20
1553.473048681768
 30
0.0
 11
1376.233815323051
 21
1588.473048681768
 31
0.0
210
0.0
220
1.0
230
0.0
  0
LINE
  5
226
330
1F
100
AcDbEntity
  8
0
100
AcDbLine
 10
1386.233815323051
 20
1623.473048681767
 30
0.0000000000000018
 11
1376.233815323051
 21
1623.473048681767
 31
0.0
210
0.0
220
1.0
230
0.0
  0
LINE
  5
227
330
1F
100
AcDbEntity
  8
0
100
AcDbLine
 10
1386.233815323051
 20
1553.473048681768
 30
0.0000000000000018
 11
1376.233815323051
 21
1553.473048681768
 31
0.0
210
0.0
220
1.0
230
0.0
  0
LINE
  5
240
330
1F
100
AcDbEntity
  8
0
100
AcDbLine
 10
1469.233815323049
 20
1133.97304868179
 30
0.0000000000000171
 11
1431.233815323049
 21
1133.97304868179
 31
0.0000000000000101
210
0.0
220
1.0
230
0.0
  0
ARC
  5
24C
330
1F
100
AcDbEntity
  8
0
100
AcDbCircle
 10
1431.233815323049
 20
1134.67304868179
 30
0.0000000000000101
 40
0.6999999999999319
100
AcDbArc
 50
180.0
 51
270.0
  0
ARC
  5
24D
330
1F
100
AcDbEntity
  8
0
100
AcDbCircle
 10
1469.233815323049
 20
1134.67304868179
 30
0.0000000000000171
 40
0.6999999999999319
100
AcDbArc
 50
270.0
 51
0.000000000000007
  0
LINE
  5
24F
330
1F
100
AcDbEntity
  8
0
100
AcDbLine
 10
1449.733815323051
 20
603.4730486817683
 30
0.0000000000000135
 11
1433.233815323049
 21
586.973048681768
 31
0.0000000000000105
210
0.0
220
1.0
230
0.0
  0
LINE
  5
250
330
1F
100
AcDbEntity
  8
0
100
AcDbLine
 10
1433.233815323049
 20
619.9730486817681
 30
0.0000000000000105
 11
1449.733815323051
 21
603.473048681768
 31
0.0000000000000135
210
0.0
220
1.0
230
0.0
  0
LINE
  5
251
330
1F
100
AcDbEntity
  8
0
100
AcDbLine
 10
1388.233815323051
 20
603.473048681768
 30
0.0000000000000022
 11
1388.233815323051
 21
636.4730486817681
 31
0.0000000000000022
210
0.0
220
1.0
230
0.0
  0
LINE
  5
252
330
1F
100
AcDbEntity
  8
0
100
AcDbLine
 10
1388.233815323051
 20
570.473048681768
 30
0.0000000000000022
 11
1388.233815323051
 21
603.4730486817685
 31
0.0000000000000022
210
0.0
220
1.0
230
0.0
  0
LINE
  5
253
330
1F
100
AcDbEntity
  8
0
100
AcDbLine
 10
1388.233815323051
 20
488.473048681768
 30
0.0000000000000022
 11
1388.233815323051
 21
521.473048681768
 31
0.0000000000000022
210
0.0
220
1.0
230
0.0
  0
LINE
  5
254
330
1F
100
AcDbEntity
  8
0
100
AcDbLine
 10
1388.233815323051
 20
504.973048681768
 30
0.0000000000000022
 11
1401.233815323049
 21
504.973048681768
 31
0.0000000000000046
210
0.0
220
1.0
230
0.0
  0
LINE
  5
255
330
1F
100
AcDbEntity
  8
0
100
AcDbLine
 10
1388.233815323051
 20
586.973048681768
 30
0.0000000000000022
 11
1433.233815323049
 21
586.973048681768
 31
0.0000000000000105
210
0.0
220
1.0
230
0.0
  0
LINE
  5
256
330
1F
100
AcDbEntity
  8
0
100
AcDbLine
 10
1388.233815323051
 20
619.9730486817681
 30
0.0000000000000022
 11
1433.233815323049
 21
619.9730486817681
 31
0.0000000000000105
210
0.0
220
1.0
230
0.0
  0
LINE
  5
257
330
1F
100
AcDbEntity
  8
0
100
AcDbLine
 10
1433.233815323049
 20
536.973048681768
 30
0.0000000000000105
 11
1433.233815323049
 21
586.973048681768
 31
0.0000000000000105
210
0.0
220
1.0
230
0.0
  0
ARC
  5
258
330
1F
100
AcDbEntity
  8
0
100
AcDbCircle
 10
1386.233815323051
 20
521.473048681768
 30
0.0000000000000018
 40
2.0
100
AcDbArc
 50
0.000000000000007
 51
90.0
  0
ARC
  5
259
330
1F
100
AcDbEntity
  8
0
100
AcDbCircle
 10
1386.233815323051
 20
570.473048681768
 30
0.0000000000000018
 40
2.0
100
AcDbArc
 50
270.0
 51
0.000000000000007
  0
ARC
  5
25A
330
1F
100
AcDbEntity
  8
0
100
AcDbCircle
 10
1386.233815323051
 20
636.4730486817681
 30
0.0000000000000018
 40
2.0
100
AcDbArc
 50
0.000000000000007
 51
90.0
  0
LINE
  5
25B
330
1F
100
AcDbEntity
  8
0
100
AcDbLine
 10
1433.233815323049
 20
536.9730486817679
 30
0.0000000000000105
 11
1433.233815323049
 21
504.973048681768
 31
0.0000000000000105
210
0.0
220
1.0
230
0.0
  0
LINE
  5
25C
330
1F
100
AcDbEntity
  8
0
100
AcDbLine
 10
1466.233815323048
 20
488.473048681768
 30
0.0000000000000165
 11
1466.233815323048
 21
536.9730486817679
 31
0.0000000000000165
210
0.0
220
1.0
230
0.0
  0
LINE
  5
25D
330
1F
100
AcDbEntity
  8
0
100
AcDbLine
 10
1433.233815323049
 20
504.973048681768
 30
0.0000000000000105
 11
1401.233815323049
 21
504.973048681768
 31
0.0000000000000046
210
0.0
220
1.0
230
0.0
  0
LINE
  5
25E
330
1F
100
AcDbEntity
  8
0
100
AcDbLine
 10
1376.233815323051
 20
603.473048681768
 30
0.0
 11
1376.233815323051
 21
638.473048681768
 31
0.0
210
0.0
220
1.0
230
0.0
  0
LINE
  5
25F
330
1F
100
AcDbEntity
  8
0
100
AcDbLine
 10
1376.233815323051
 20
568.4730486817681
 30
0.0
 11
1376.233815323051
 21
603.4730486817685
 31
0.0
210
0.0
220
1.0
230
0.0
  0
LINE
  5
260
330
1F
100
AcDbEntity
  8
0
100
AcDbLine
 10
1376.233815323051
 20
488.473048681768
 30
0.0
 11
1376.233815323051
 21
523.4730486817681
 31
0.0
210
0.0
220
1.0
230
0.0
  0
LINE
  5
261
330
1F
100
AcDbEntity
  8
0
100
AcDbLine
 10
1386.233815323051
 20
523.4730486817681
 30
0.0000000000000018
 11
1376.233815323051
 21
523.4730486817681
 31
0.0
210
0.0
220
1.0
230
0.0
  0
LINE
  5
262
330
1F
100
AcDbEntity
  8
0
100
AcDbLine
 10
1386.233815323051
 20
638.473048681768
 30
0.0000000000000018
 11
1376.233815323051
 21
638.473048681768
 31
0.0
210
0.0
220
1.0
230
0.0
  0
LINE
  5
263
330
1F
100
AcDbEntity
  8
0
100
AcDbLine
 10
1386.233815323051
 20
568.4730486817681
 30
0.0000000000000018
 11
1376.233815323051
 21
568.4730486817681
 31
0.0
210
0.0
220
1.0
230
0.0
  0
LINE
  5
264
330
1F
100
AcDbEntity
  8
0
100
AcDbLine
 10
1388.233815323051
 20
471.973048681768
 30
0.0000000000000022
 11
1401.233815323049
 21
471.973048681768
 31
0.0000000000000046
210
0.0
220
1.0
230
0.0
  0
ARC
  5
265
330
1F
100
AcDbEntity
  8
0
100
AcDbCircle
 10
1386.233815323051
 20
455.4730486817681
 30
0.0000000000000018
 40
2.0
100
AcDbArc
 50
270.0
 51
0.000000000000007
  0
LINE
  5
266
330
1F
100
AcDbEntity
  8
0
100
AcDbLine
 10
1401.233815323049
 20
471.973048681768
 30
0.0000000000000046
 11
1449.733815323051
 21
471.973048681768
 31
0.0000000000000135
210
0.0
220
1.0
230
0.0
  0
LINE
  5
267
330
1F
100
AcDbEntity
  8
0
100
AcDbLine
 10
1386.233815323051
 20
453.473048681768
 30
0.0000000000000018
 11
1376.233815323051
 21
453.473048681768
 31
0.0
210
0.0
220
1.0
230
0.0
  0
ARC
  5
268
330
1F
100
AcDbEntity
  8
0
100
AcDbCircle
 10
1449.733815323051
 20
488.473048681768
 30
0.0000000000000135
 40
16.5
100
AcDbArc
 50
270.0
 51
90.0
  0
LINE
  5
269
330
1F
100
AcDbEntity
  8
0
100
AcDbLine
 10
1376.233815323051
 20
453.473048681768
 30
0.0
 11
1376.233815323051
 21
488.4730486817685
 31
0.0
210
0.0
220
1.0
230
0.0
  0
LINE
  5
26A
330
1F
100
AcDbEntity
  8
0
100
AcDbLine
 10
1388.233815323051
 20
455.4730486817681
 30
0.0000000000000022
 11
1388.233815323051
 21
488.4730486817685
 31
0.0000000000000022
210
0.0
220
1.0
230
0.0
  0
LINE
  5
26B
330
1F
100
AcDbEntity
  8
0
100
AcDbLine
 10
1466.233815323048
 20
536.973048681768
 30
0.0000000000000165
 11
1466.233815323048
 21
1133.97304868179
 31
0.0000000000000165
210
0.0
220
1.0
230
0.0
  0
LINE
  5
26C
330
1F
100
AcDbEntity
  8
0
100
AcDbLine
 10
1433.233815323049
 20
619.9730486817681
 30
0.0000000000000105
 11
1433.233815323049
 21
1133.97304868179
 31
0.0000000000000105
210
0.0
220
1.0
230
0.0
  0
LINE
  5
26D
330
1F
100
AcDbEntity
  8
0
100
AcDbLine
 10
1466.233815323048
 20
1239.973048681767
 30
0.0000000000000165
 11
1466.233815323048
 21
1539.973048681767
 31
0.0000000000000165
210
0.0
220
1.0
230
0.0
  0
LINE
  5
26E
330
1F
100
AcDbEntity
  8
0
100
AcDbLine
 10
1433.233815323049
 20
1239.973048681767
 30
0.0000000000000105
 11
1433.233815323049
 21
1539.973048681767
 31
0.0000000000000105
210
0.0
220
1.0
230
0.0
  0
LINE
  5
26F
330
1F
100
AcDbEntity
  8
0
100
AcDbLine
 10
710.1674578628117
 20
138.7493679358933
 30
0.0
 11
1013.167457862812
 21
138.7493679358933
 31
0.0
  0
LINE
  5
270
330
1F
100
AcDbEntity
  8
0
100
AcDbLine
 10
710.1674578628117
 20
171.7493679358937
 30
0.0
 11
1013.167457862812
 21
171.7493679358937
 31
0.0
  0
LINE
  5
272
330
1F
100
AcDbEntity
  8
0
100
AcDbLine
 10
1094.667457862811
 20
216.7493679358936
 30
0.0
 11
1028.66745786281
 21
216.7493679358936
 31
0.0
  0
LINE
  5
273
330
1F
100
AcDbEntity
  8
0
100
AcDbLine
 10
1096.667457862811
 20
228.7493679358935
 30
0.0
 11
1026.667457862812
 21
228.7493679358935
 31
0.0
  0
ARC
  5
282
330
1F
100
AcDbEntity
  8
0
100
AcDbCircle
 10
1094.667457862811
 20
218.7493679358936
 30
0.0
 40
2.0
100
AcDbArc
 50
270.0
 51
0.000000000000007
  0
LINE
  5
283
330
1F
100
AcDbEntity
  8
0
100
AcDbLine
 10
1044.667457862811
 20
216.7493679358936
 30
0.0
 11
1044.667457862811
 21
203.7493679358935
 31
0.0
  0
LINE
  5
284
330
1F
100
AcDbEntity
  8
0
100
AcDbLine
 10
1077.667457862812
 20
216.7493679358936
 30
0.0
 11
1077.667457862812
 21
203.7493679358935
 31
0.0
  0
LINE
  5
285
330
1F
100
AcDbEntity
  8
0
100
AcDbLine
 10
1078.167457862811
 20
216.7493679358936
 30
0.0
 11
1078.167457862811
 21
175.3379570084833
 31
0.0
  0
LINE
  5
291
330
1F
100
AcDbEntity
  8
0
100
AcDbLine
 10
1096.667457862811
 20
218.7493679358936
 30
0.0
 11
1096.667457862811
 21
228.7493679358935
 31
0.0
  0
LINE
  5
2AE
330
1F
100
AcDbEntity
  8
0
100
AcDbLine
 10
1023.414355778117
 20
138.7493679358934
 30
0.0
 11
1013.167457862812
 21
138.7493679358933
 31
0.0
  0
LINE
  5
2AF
330
1F
100
AcDbEntity
  8
0
100
AcDbLine
 10
1013.167457862812
 20
171.7493679358937
 30
0.0
 11
1040.57886879022
 21
171.7493679358937
 31
0.0
  0
ARC
  5
2B2
330
1F
100
AcDbEntity
  8
0
100
AcDbCircle
 10
1028.66745786281
 20
218.7493679358936
 30
0.0
 40
2.0
100
AcDbArc
 50
180.0
 51
270.0
  0
LINE
  5
2B9
330
1F
100
AcDbEntity
  8
0
100
AcDbLine
 10
1026.667457862812
 20
218.7493679358936
 30
0.0
 11
1026.667457862812
 21
228.7493679358935
 31
0.0
  0
ARC
  5
2C4
330
1F
100
AcDbEntity
  8
0
100
AcDbCircle
 10
510.1674578628117
 20
203.7493679358935
 30
0.0
 40
65.0
100
AcDbArc
 50
180.0
 51
270.0
  0
ARC
  5
2C5
330
1F
100
AcDbEntity
  8
0
100
AcDbCircle
 10
510.1674578628117
 20
203.7493679358935
 30
0.0
 40
32.0
100
AcDbArc
 50
180.0
 51
270.0
  0
ARC
  5
2C6
330
1F
100
AcDbEntity
  8
0
100
AcDbCircle
 10
428.6674578628116
 20
218.7493679358936
 30
0.0
 40
2.0
100
AcDbArc
 50
180.0
 51
270.0
  0
ARC
  5
2C7
330
1F
100
AcDbEntity
  8
0
100
AcDbCircle
 10
494.6674578628118
 20
218.7493679358936
 30
0.0
 40
2.0
100
AcDbArc
 50
270.0
 51
0.000000000000007
  0
LINE
  5
2C8
330
1F
100
AcDbEntity
  8
0
100
AcDbLine
 10
445.1674578628116
 20
216.7493679358936
 30
0.0
 11
445.1674578628116
 21
203.7493679358935
 31
0.0
  0
LINE
  5
2C9
330
1F
100
AcDbEntity
  8
0
100
AcDbLine
 10
478.1674578628119
 20
216.7493679358936
 30
0.0
 11
478.1674578628119
 21
203.7493679358935
 31
0.0
  0
LINE
  5
2CA
330
1F
100
AcDbEntity
  8
0
100
AcDbLine
 10
496.6674578628116
 20
218.7493679358936
 30
0.0
 11
496.6674578628116
 21
228.7493679358935
 31
0.0
  0
LINE
  5
2CB
330
1F
100
AcDbEntity
  8
0
100
AcDbLine
 10
426.6674578628117
 20
218.7493679358936
 30
0.0
 11
426.6674578628117
 21
228.7493679358935
 31
0.0
  0
LINE
  5
2CC
330
1F
100
AcDbEntity
  8
0
100
AcDbLine
 10
494.6674578628118
 20
216.7493679358936
 30
0.0
 11
428.6674578628116
 21
216.7493679358936
 31
0.0
  0
LINE
  5
2CD
330
1F
100
AcDbEntity
  8
0
100
AcDbLine
 10
496.6674578628116
 20
228.7493679358935
 30
0.0
 11
426.6674578628117
 21
228.7493679358935
 31
0.0
  0
LINE
  5
2CE
330
1F
100
AcDbEntity
  8
0
100
AcDbLine
 10
104.6674578628119
 20
1239.973048681767
 30
0.0000000000000105
 11
104.6674578628119
 21
1539.973048681767
 31
0.0000000000000105
210
0.0
220
1.0
230
0.0
  0
LINE
  5
2CF
330
1F
100
AcDbEntity
  8
0
100
AcDbLine
 10
71.66745786281172
 20
1239.973048681767
 30
0.0000000000000165
 11
71.66745786281172
 21
1539.973048681767
 31
0.0000000000000165
210
0.0
220
1.0
230
0.0
  0
LINE
  5
2D0
330
1F
100
AcDbEntity
  8
0
100
AcDbLine
 10
1078.167457862811
 20
1224.473071226117
 30
-0.000000000000002
 11
1078.167457862811
 21
1522.473048681768
 31
-0.000000000000002
210
0.0
220
1.0
230
0.0
  0
LINE
  5
2D1
330
1F
100
AcDbEntity
  8
0
100
AcDbLine
 10
1045.167457862811
 20
1224.473071226117
 30
0.000000000000002
 11
1045.167457862811
 21
1522.473048681768
 31
0.000000000000002
210
0.0
220
1.0
230
0.0
  0
LINE
  5
2D2
330
1F
100
AcDbEntity
  8
0
100
AcDbLine
 10
1078.167457862811
 20
519.4730486817681
 30
-0.000000000000002
 11
1078.167457862811
 21
1116.473048681789
 31
-0.000000000000002
210
0.0
220
1.0
230
0.0
  0
LINE
  5
2D3
330
1F
100
AcDbEntity
  8
0
100
AcDbLine
 10
1045.167457862811
 20
519.4730486817681
 30
0.000000000000002
 11
1045.167457862811
 21
1116.473048681789
 31
0.000000000000002
210
0.0
220
1.0
230
0.0
  0
ARC
  5
2D4
330
1F
100
AcDbEntity
  8
0
100
AcDbCircle
 10
1061.667457862812
 20
585.9730486817681
 30
0.0
 40
35.0
100
AcDbArc
 50
298.1270682186316
 51
0.000000000000007
  0
ARC
  5
2D5
330
1F
100
AcDbEntity
  8
0
100
AcDbCircle
 10
1061.667457862812
 20
585.9730486817681
 30
0.0
 40
35.0
100
AcDbArc
 50
0.000000000000007
 51
61.87293178136831
  0
ARC
  5
2D6
330
1F
100
AcDbEntity
  8
0
100
AcDbCircle
 10
1013.167457862812
 20
519.4730486817681
 30
0.0000000000000059
 40
65.0
100
AcDbArc
 50
270.0
 51
0.000000000000007
  0
ARC
  5
2D7
330
1F
100
AcDbEntity
  8
0
100
AcDbCircle
 10
461.6674578628116
 20
470.973048681768
 30
0.0
 40
16.8
100
AcDbArc
 50
79.15593743629554
 51
280.8440625637044
  0
ARC
  5
2D8
330
1F
100
AcDbEntity
  8
0
100
AcDbCircle
 10
461.6674578628116
 20
470.973048681768
 30
0.0
 40
35.0
100
AcDbArc
 50
28.12706821861059
 51
331.8729317813895
  0
ARC
  5
2D9
330
1F
100
AcDbEntity
  8
0
100
AcDbCircle
 10
461.6674578628116
 20
470.973048681768
 30
0.0
 40
16.5
100
AcDbArc
 50
90.0
 51
180.0
  0
LINE
  5
2DA
330
1F
100
AcDbEntity
  8
0
100
AcDbLine
 10
510.1674578628117
 20
454.473048681768
 30
-0.0000000000000059
 11
1013.167457862812
 21
454.473048681768
 31
-0.0000000000000675
210
0.0
220
1.0
230
0.0
  0
LINE
  5
2DB
330
1F
100
AcDbEntity
  8
0
100
AcDbLine
 10
510.1674578628117
 20
454.473048681768
 30
-0.0000000000000059
 11
461.6674578628116
 21
454.473048681768
 31
0.0
210
0.0
220
1.0
230
0.0
  0
ARC
  5
2DC
330
1F
100
AcDbEntity
  8
0
100
AcDbCircle
 10
461.6674578628116
 20
470.973048681768
 30
0.0
 40
16.5
100
AcDbArc
 50
180.0
 51
270.0
  0
LINE
  5
2DD
330
1F
100
AcDbEntity
  8
0
100
AcDbLine
 10
510.1674578628117
 20
487.473048681768
 30
-0.0000000000000059
 11
1013.167457862812
 21
487.473048681768
 31
-0.0000000000000675
210
0.0
220
1.0
230
0.0
  0
ARC
  5
2DE
330
1F
100
AcDbEntity
  8
0
100
AcDbCircle
 10
1013.167457862812
 20
519.4730486817681
 30
0.0000000000000059
 40
32.0
100
AcDbArc
 50
270.0
 51
0.000000000000007
  0
ARC
  5
2DF
330
1F
100
AcDbEntity
  8
0
100
AcDbCircle
 10
1061.667457862812
 20
585.9730486817681
 30
0.0
 40
16.8
100
AcDbArc
 50
349.1559374362989
 51
0.000000000000007
  0
ARC
  5
2E0
330
1F
100
AcDbEntity
  8
0
100
AcDbCircle
 10
1061.667457862812
 20
585.9730486817681
 30
0.0
 40
16.8
100
AcDbArc
 50
169.1559374362988
 51
190.8440625637011
  0
ARC
  5
2E1
330
1F
100
AcDbEntity
  8
0
100
AcDbCircle
 10
1061.667457862812
 20
585.9730486817681
 30
0.0
 40
16.8
100
AcDbArc
 50
0.000000000000007
 51
10.84406256370113
  0
ARC
  5
2E2
330
1F
100
AcDbEntity
  8
0
100
AcDbCircle
 10
1061.667457862812
 20
585.9730486817681
 30
0.0
 40
35.0
100
AcDbArc
 50
118.1270682186317
 51
241.8729317813681
  0
LINE
  5
2E3
330
1F
100
AcDbEntity
  8
0
100
AcDbLine
 10
461.6674578628116
 20
487.473048681768
 30
0.0
 11
510.1674578628117
 21
487.473048681768
 31
-0.0000000000000059
210
0.0
220
1.0
230
0.0
  0
ARC
  5
2FC
330
1F
100
AcDbEntity
  8
0
100
AcDbCircle
 10
1080.167457862811
 20
1117.17304868179
 30
-0.0000000000000023
 40
0.6999999999999319
100
AcDbArc
 50
270.0
 51
0.000000000000007
  0
LINE
  5
307
330
1F
100
AcDbEntity
  8
0
100
AcDbLine
 10
1080.867457862811
 20
1117.17304868179
 30
-0.0000000000000024
 11
1080.867457862811
 21
1128.386155065213
 31
-0.0000000000000024
210
0.0
220
1.0
230
0.0
  0
LINE
  5
323
330
1F
100
AcDbEntity
  8
0
100
AcDbLine
 10
1042.167457862811
 20
1116.473048681789
 30
0.0000000000000024
 11
1080.167457862811
 21
1116.473048681789
 31
-0.0000000000000023
210
0.0
220
1.0
230
0.0
  0
LINE
  5
335
330
1F
100
AcDbEntity
  8
0
100
AcDbLine
 10
104.6674578628119
 20
619.9730486817681
 30
0.0000000000000105
 11
104.6674578628119
 21
1133.97304868179
 31
0.0000000000000105
210
0.0
220
1.0
230
0.0
  0
LINE
  5
336
330
1F
100
AcDbEntity
  8
0
100
AcDbLine
 10
71.66745786281172
 20
536.973048681768
 30
0.0000000000000165
 11
71.66745786281172
 21
1133.97304868179
 31
0.0000000000000165
210
0.0
220
1.0
230
0.0
  0
LINE
  5
337
330
1F
100
AcDbEntity
  8
0
100
AcDbLine
 10
149.6674578628115
 20
455.4730486817681
 30
0.0000000000000022
 11
149.6674578628115
 21
488.4730486817685
 31
0.0000000000000022
210
0.0
220
1.0
230
0.0
  0
LINE
  5
338
330
1F
100
AcDbEntity
  8
0
100
AcDbLine
 10
161.6674578628115
 20
453.473048681768
 30
0.0
 11
161.6674578628115
 21
488.4730486817685
 31
0.0
210
0.0
220
1.0
230
0.0
  0
ARC
  5
339
330
1F
100
AcDbEntity
  8
0
100
AcDbCircle
 10
88.16745786281172
 20
488.473048681768
 30
0.0000000000000135
 40
16.5
100
AcDbArc
 50
180.0
 51
0.000000000000007
  0
LINE
  5
33A
330
1F
100
AcDbEntity
  8
0
100
AcDbLine
 10
151.6674578628115
 20
453.473048681768
 30
0.0000000000000018
 11
161.6674578628115
 21
453.473048681768
 31
0.0
210
0.0
220
1.0
230
0.0
  0
LINE
  5
33B
330
1F
100
AcDbEntity
  8
0
100
AcDbLine
 10
136.6674578628119
 20
471.973048681768
 30
0.0000000000000046
 11
88.16745786281172
 21
471.973048681768
 31
0.0000000000000135
210
0.0
220
1.0
230
0.0
  0
ARC
  5
33C
330
1F
100
AcDbEntity
  8
0
100
AcDbCircle
 10
151.6674578628115
 20
455.4730486817681
 30
0.0000000000000018
 40
2.0
100
AcDbArc
 50
180.0
 51
270.0
  0
LINE
  5
33D
330
1F
100
AcDbEntity
  8
0
100
AcDbLine
 10
149.6674578628115
 20
471.973048681768
 30
0.0000000000000022
 11
136.6674578628119
 21
471.973048681768
 31
0.0000000000000046
210
0.0
220
1.0
230
0.0
  0
LINE
  5
33E
330
1F
100
AcDbEntity
  8
0
100
AcDbLine
 10
151.6674578628115
 20
568.4730486817681
 30
0.0000000000000018
 11
161.6674578628115
 21
568.4730486817681
 31
0.0
210
0.0
220
1.0
230
0.0
  0
LINE
  5
33F
330
1F
100
AcDbEntity
  8
0
100
AcDbLine
 10
151.6674578628115
 20
638.473048681768
 30
0.0000000000000018
 11
161.6674578628115
 21
638.473048681768
 31
0.0
210
0.0
220
1.0
230
0.0
  0
LINE
  5
340
330
1F
100
AcDbEntity
  8
0
100
AcDbLine
 10
151.6674578628115
 20
523.4730486817681
 30
0.0000000000000018
 11
161.6674578628115
 21
523.4730486817681
 31
0.0
210
0.0
220
1.0
230
0.0
  0
LINE
  5
341
330
1F
100
AcDbEntity
  8
0
100
AcDbLine
 10
161.6674578628115
 20
488.473048681768
 30
0.0
 11
161.6674578628115
 21
523.4730486817681
 31
0.0
210
0.0
220
1.0
230
0.0
  0
LINE
  5
342
330
1F
100
AcDbEntity
  8
0
100
AcDbLine
 10
161.6674578628115
 20
568.4730486817681
 30
0.0
 11
161.6674578628115
 21
603.4730486817685
 31
0.0
210
0.0
220
1.0
230
0.0
  0
LINE
  5
343
330
1F
100
AcDbEntity
  8
0
100
AcDbLine
 10
161.6674578628115
 20
603.473048681768
 30
0.0
 11
161.6674578628115
 21
638.473048681768
 31
0.0
210
0.0
220
1.0
230
0.0
  0
LINE
  5
344
330
1F
100
AcDbEntity
  8
0
100
AcDbLine
 10
104.6674578628119
 20
504.973048681768
 30
0.0000000000000105
 11
136.6674578628119
 21
504.973048681768
 31
0.0000000000000046
210
0.0
220
1.0
230
0.0
  0
LINE
  5
345
330
1F
100
AcDbEntity
  8
0
100
AcDbLine
 10
71.66745786281172
 20
488.473048681768
 30
0.0000000000000165
 11
71.66745786281172
 21
536.9730486817679
 31
0.0000000000000165
210
0.0
220
1.0
230
0.0
  0
LINE
  5
346
330
1F
100
AcDbEntity
  8
0
100
AcDbLine
 10
104.6674578628119
 20
536.9730486817679
 30
0.0000000000000105
 11
104.6674578628119
 21
488.473048681768
 31
0.0000000000000105
210
0.0
220
1.0
230
0.0
  0
ARC
  5
347
330
1F
100
AcDbEntity
  8
0
100
AcDbCircle
 10
151.6674578628115
 20
636.4730486817681
 30
0.0000000000000018
 40
2.0
100
AcDbArc
 50
90.0
 51
180.0
  0
ARC
  5
348
330
1F
100
AcDbEntity
  8
0
100
AcDbCircle
 10
151.6674578628115
 20
570.473048681768
 30
0.0000000000000018
 40
2.0
100
AcDbArc
 50
180.0
 51
270.0
  0
ARC
  5
349
330
1F
100
AcDbEntity
  8
0
100
AcDbCircle
 10
151.6674578628115
 20
521.473048681768
 30
0.0000000000000018
 40
2.0
100
AcDbArc
 50
90.0
 51
180.0
  0
LINE
  5
34A
330
1F
100
AcDbEntity
  8
0
100
AcDbLine
 10
104.6674578628119
 20
536.973048681768
 30
0.0000000000000105
 11
104.6674578628119
 21
586.973048681768
 31
0.0000000000000105
210
0.0
220
1.0
230
0.0
  0
LINE
  5
34B
330
1F
100
AcDbEntity
  8
0
100
AcDbLine
 10
149.6674578628115
 20
619.9730486817681
 30
0.0000000000000022
 11
104.6674578628119
 21
619.9730486817681
 31
0.0000000000000105
210
0.0
220
1.0
230
0.0
  0
LINE
  5
34C
330
1F
100
AcDbEntity
  8
0
100
AcDbLine
 10
149.6674578628115
 20
586.973048681768
 30
0.0000000000000022
 11
104.6674578628119
 21
586.973048681768
 31
0.0000000000000105
210
0.0
220
1.0
230
0.0
  0
LINE
  5
34D
330
1F
100
AcDbEntity
  8
0
100
AcDbLine
 10
149.6674578628115
 20
504.973048681768
 30
0.0000000000000022
 11
136.6674578628119
 21
504.973048681768
 31
0.0000000000000046
210
0.0
220
1.0
230
0.0
  0
LINE
  5
34E
330
1F
100
AcDbEntity
  8
0
100
AcDbLine
 10
149.6674578628115
 20
488.473048681768
 30
0.0000000000000022
 11
149.6674578628115
 21
521.473048681768
 31
0.0000000000000022
210
0.0
220
1.0
230
0.0
  0
LINE
  5
34F
330
1F
100
AcDbEntity
  8
0
100
AcDbLine
 10
149.6674578628115
 20
570.473048681768
 30
0.0000000000000022
 11
149.6674578628115
 21
603.4730486817685
 31
0.0000000000000022
210
0.0
220
1.0
230
0.0
  0
LINE
  5
350
330
1F
100
AcDbEntity
  8
0
100
AcDbLine
 10
149.6674578628115
 20
603.473048681768
 30
0.0000000000000022
 11
149.6674578628115
 21
636.4730486817681
 31
0.0000000000000022
210
0.0
220
1.0
230
0.0
  0
LINE
  5
351
330
1F
100
AcDbEntity
  8
0
100
AcDbLine
 10
104.6674578628119
 20
619.9730486817681
 30
0.0000000000000105
 11
88.16745786281172
 21
603.473048681768
 31
0.0000000000000135
210
0.0
220
1.0
230
0.0
  0
LINE
  5
352
330
1F
100
AcDbEntity
  8
0
100
AcDbLine
 10
88.16745786281172
 20
603.4730486817683
 30
0.0000000000000135
 11
104.6674578628119
 21
586.973048681768
 31
0.0000000000000105
210
0.0
220
1.0
230
0.0
  0
ARC
  5
354
330
1F
100
AcDbEntity
  8
0
100
AcDbCircle
 10
68.66745786281263
 20
1134.67304868179
 30
0.0000000000000171
 40
0.6999999999999319
100
AcDbArc
 50
180.0
 51
270.0
  0
ARC
  5
355
330
1F
100
AcDbEntity
  8
0
100
AcDbCircle
 10
106.6674578628119
 20
1134.67304868179
 30
0.0000000000000101
 40
0.6999999999999319
100
AcDbArc
 50
270.0
 51
0.000000000000007
  0
LINE
  5
361
330
1F
100
AcDbEntity
  8
0
100
AcDbLine
 10
68.66745786281263
 20
1133.97304868179
 30
0.0000000000000171
 11
106.6674578628119
 21
1133.97304868179
 31
0.0000000000000101
210
0.0
220
1.0
230
0.0
  0
ARC
  5
37A
330
1F
100
AcDbEntity
  8
0
100
AcDbCircle
 10
1061.667457862812
 20
1570.973048681768
 30
0.0
 40
35.0
100
AcDbArc
 50
297.2028944121961
 51
0.000000000000007
  0
ARC
  5
37B
330
1F
100
AcDbEntity
  8
0
100
AcDbCircle
 10
1061.667457862812
 20
1570.973048681768
 30
0.0
 40
35.0
100
AcDbArc
 50
0.000000000000007
 51
240.9407189319532
  0
LINE
  5
37C
330
1F
100
AcDbEntity
  8
0
100
AcDbLine
 10
1077.667457862812
 20
1571.473048681768
 30
-0.000000000000002
 11
1077.667457862812
 21
1522.473048681768
 31
-0.000000000000002
210
0.0
220
1.0
230
0.0
  0
LINE
  5
37D
330
1F
100
AcDbEntity
  8
0
100
AcDbLine
 10
1044.667457862811
 20
1522.473048681768
 30
0.0000000000000021
 11
1044.667457862811
 21
1571.473048681768
 31
0.0000000000000021
210
0.0
220
1.0
230
0.0
  0
LINE
  5
37E
330
1F
100
AcDbEntity
  8
0
100
AcDbLine
 10
1078.167457862811
 20
1522.473048681768
 30
-0.000000000000002
 11
1073.082041010098
 21
1522.473048681768
 31
-0.0000000000000014
210
0.0
220
1.0
230
0.0
  0
LINE
  5
37F
330
1F
100
AcDbEntity
  8
0
100
AcDbLine
 10
1073.082041010098
 20
1522.473048681768
 30
-0.0000000000000014
 11
1044.667457862811
 21
1522.473048681768
 31
0.0000000000000021
210
0.0
220
1.0
230
0.0
  0
ARC
  5
380
330
1F
100
AcDbEntity
  8
0
100
AcDbCircle
 10
1061.667457862812
 20
1570.973048681768
 30
0.0
 40
16.8
100
AcDbArc
 50
342.2472098380463
 51
0.000000000000007
  0
ARC
  5
381
330
1F
100
AcDbEntity
  8
0
100
AcDbCircle
 10
1061.667457862812
 20
1570.973048681768
 30
0.0
 40
16.8
100
AcDbArc
 50
0.000000000000007
 51
71.20095712068006
  0
ARC
  5
382
330
1F
100
AcDbEntity
  8
0
100
AcDbCircle
 10
1061.167457862809
 20
1571.473048681768
 30
0.0000000000000001
 40
16.5
100
AcDbArc
 50
0.000000000000007
 51
180.0
  0
LINE
  5
383
330
1F
100
AcDbEntity
  8
0
100
AcDbLine
 10
151.6674578628115
 20
1553.473048681768
 30
0.0000000000000018
 11
161.6674578628115
 21
1553.473048681768
 31
0.0
210
0.0
220
1.0
230
0.0
  0
LINE
  5
384
330
1F
100
AcDbEntity
  8
0
100
AcDbLine
 10
151.6674578628115
 20
1623.473048681767
 30
0.0000000000000018
 11
161.6674578628115
 21
1623.473048681767
 31
0.0
210
0.0
220
1.0
230
0.0
  0
LINE
  5
385
330
1F
100
AcDbEntity
  8
0
100
AcDbLine
 10
161.6674578628115
 20
1553.473048681768
 30
0.0
 11
161.6674578628115
 21
1588.473048681768
 31
0.0
210
0.0
220
1.0
230
0.0
  0
LINE
  5
386
330
1F
100
AcDbEntity
  8
0
100
AcDbLine
 10
161.6674578628115
 20
1588.473048681768
 30
0.0
 11
161.6674578628115
 21
1623.473048681767
 31
0.0
210
0.0
220
1.0
230
0.0
  0
ARC
  5
387
330
1F
100
AcDbEntity
  8
0
100
AcDbCircle
 10
136.6674578628119
 20
1539.973048681767
 30
0.0000000000000046
 40
65.5
100
AcDbArc
 50
90.0
 51
180.0
  0
ARC
  5
388
330
1F
100
AcDbEntity
  8
0
100
AcDbCircle
 10
136.6674578628119
 20
1539.973048681767
 30
0.0000000000000046
 40
32.5
100
AcDbArc
 50
90.0
 51
180.0
  0
ARC
  5
389
330
1F
100
AcDbEntity
  8
0
100
AcDbCircle
 10
151.6674578628115
 20
1621.473048681767
 30
0.0000000000000018
 40
2.0
100
AcDbArc
 50
90.0
 51
180.0
  0
ARC
  5
38A
330
1F
100
AcDbEntity
  8
0
100
AcDbCircle
 10
151.6674578628115
 20
1555.473048681768
 30
0.0000000000000018
 40
2.0
100
AcDbArc
 50
180.0
 51
270.0
  0
LINE
  5
38B
330
1F
100
AcDbEntity
  8
0
100
AcDbLine
 10
149.6674578628115
 20
1605.473048681767
 30
0.0000000000000022
 11
136.6674578628119
 21
1605.473048681767
 31
0.0000000000000046
210
0.0
220
1.0
230
0.0
  0
LINE
  5
38C
330
1F
100
AcDbEntity
  8
0
100
AcDbLine
 10
149.6674578628115
 20
1572.473048681768
 30
0.0000000000000022
 11
136.6674578628119
 21
1572.473048681768
 31
0.0000000000000046
210
0.0
220
1.0
230
0.0
  0
LINE
  5
38D
330
1F
100
AcDbEntity
  8
0
100
AcDbLine
 10
149.6674578628115
 20
1555.473048681768
 30
0.0000000000000022
 11
149.6674578628115
 21
1588.473048681768
 31
0.0000000000000022
210
0.0
220
1.0
230
0.0
  0
LINE
  5
38E
330
1F
100
AcDbEntity
  8
0
100
AcDbLine
 10
149.6674578628115
 20
1588.473048681768
 30
0.0000000000000022
 11
149.6674578628115
 21
1621.473048681767
 31
0.0000000000000022
210
0.0
220
1.0
230
0.0
  0
LINE
  5
38F
330
1F
100
AcDbEntity
  8
0
100
AcDbLine
 10
104.6674578628119
 20
1539.973048681767
 30
0.0000000000000105
 11
76.25287471552383
 21
1539.973048681767
 31
0.0000000000000157
210
0.0
220
1.0
230
0.0
  0
LINE
  5
390
330
1F
100
AcDbEntity
  8
0
100
AcDbLine
 10
76.25287471552383
 20
1539.973048681767
 30
0.0000000000000157
 11
71.1674578628117
 21
1539.973048681767
 31
0.0000000000000166
210
0.0
220
1.0
230
0.0
  0
LINE
  5
393
330
1F
100
AcDbEntity
  8
0
100
AcDbLine
 10
710.1674578628117
 20
171.7493679358937
 30
0.0
 11
510.1674578628117
 21
171.7493679358937
 31
0.0
  0
LINE
  5
394
330
1F
100
AcDbEntity
  8
0
100
AcDbLine
 10
710.1674578628117
 20
138.7493679358933
 30
0.0
 11
510.1674578628117
 21
138.7493679358933
 31
0.0
  0
LINE
  5
39C
330
1F
100
AcDbEntity
  8
0
100
AcDbLine
 10
993.7439053464306
 20
454.473048681768
 30
0.0
 11
993.7439053464306
 21
487.473048681768
 31
-0.0000000000000651
  0
LINE
  5
39D
330
1F
100
AcDbEntity
  8
0
100
AcDbLine
 10
993.7439053464308
 20
171.7493679358937
 30
0.0
 11
993.7439053464306
 21
138.7493679358934
 31
0.0
  0
LINE
  5
457
330
1F
100
AcDbEntity
  8
0
100
AcDbLine
 10
998.1674583396491
 20
1218.213065619044
 30
0.0000000000000001
 11
998.4929092368659
 21
1218.6151919313
 31
0.0000000000000001
  0
LINE
  5
458
330
1F
100
AcDbEntity
  8
0
100
AcDbLine
 10
998.1674583396491
 20
1190.73303555923
 30
0.0000000000000001
 11
998.4929092368659
 21
1190.330909246974
 31
0.0000000000000001
  0
LINE
  5
459
330
1F
100
AcDbEntity
  8
0
100
AcDbLine
 10
68.16745500178922
 20
1133.97304868179
 30
0.0000000000000136
 11
107.1674607238352
 21
1133.97304868179
 31
0.0000000000000136
  0
LINE
  5
45A
330
1F
100
AcDbEntity
  8
0
100
AcDbLine
 10
43.61267785640371
 20
1202.046092505032
 30
0.0000000000000136
 11
109.6545193633617
 21
1201.973041052396
 31
0.0000000000000136
  0
LINE
  5
45B
330
1F
100
AcDbEntity
  8
0
100
AcDbLine
 10
43.61267785640371
 20
1241.900008673245
 30
0.0000000000000136
 11
109.6545193633617
 21
1241.973041052395
 31
0.0000000000000136
  0
CIRCLE
  5
45C
330
1F
100
AcDbEntity
  8
0
100
AcDbCircle
 10
44.16745469775242
 20
1221.973048033913
 30
0.0000000000000136
 40
20.00000698151719
  0
LINE
  5
45D
330
1F
100
AcDbEntity
  8
0
100
AcDbLine
 10
8.98398856731046
 20
1144.373029226833
 30
0.0000000000000136
 11
35.09727696986806
 21
1204.267390722804
 31
0.0000000000000136
  0
LINE
  5
45E
330
1F
100
AcDbEntity
  8
0
100
AcDbLine
 10
29.83441094966519
 20
1239.102157110745
 30
0.0000000000000136
 11
35.6932614287914
 21
1239.92555951553
 31
0.0000000000000136
  0
LINE
  5
45F
330
1F
100
AcDbEntity
  8
0
100
AcDbLine
 10
3.638928934055456
 20
1147.126325125269
 30
0.0000000000000136
 11
30.08537034602773
 21
1207.784846777492
 31
0.0000000000000136
  0
LINE
  5
460
330
1F
100
AcDbEntity
  8
0
100
AcDbLine
 10
7.693488403278705
 20
1143.915246481473
 30
0.0000000000000136
 11
8.98398856731046
 21
1144.373029226833
 31
0.0000000000000136
  0
LINE
  5
461
330
1F
100
AcDbEntity
  8
0
100
AcDbLine
 10
4.130118890720723
 20
1145.75078343826
 30
0.0000000000000136
 11
7.693488403278705
 21
1143.915246481473
 31
0.0000000000000136
  0
LINE
  5
462
330
1F
100
AcDbEntity
  8
0
100
AcDbLine
 10
3.638928934055456
 20
1147.126325125269
 30
0.0000000000000136
 11
4.130118890720723
 21
1145.75078343826
 31
0.0000000000000136
  0
LINE
  5
463
330
1F
100
AcDbEntity
  8
0
100
AcDbLine
 10
30.42877893062223
 20
1239.185679907375
 30
0.0000000000000136
 11
30.81867913814198
 21
1236.72394132095
 31
0.0000000000000136
  0
LINE
  5
464
330
1F
100
AcDbEntity
  8
0
100
AcDbLine
 10
33.61973981471669
 20
1239.634154791409
 30
0.0000000000000136
 11
33.74516706081044
 21
1239.651778692775
 31
0.0000000000000136
  0
LINE
  5
465
330
1F
100
AcDbEntity
  8
0
100
AcDbLine
 10
30.42877893062223
 20
1239.185679907375
 30
0.0000000000000136
 11
30.80001096339811
 21
1239.237864965969
 31
0.0000000000000136
  0
LINE
  5
466
330
1F
100
AcDbEntity
  8
0
100
AcDbLine
 10
68.16745500178922
 20
1133.97304868179
 30
0.0000000000000136
 11
68.16745500178922
 21
1201.973041052396
 31
0.0000000000000136
  0
LINE
  5
467
330
1F
100
AcDbEntity
  8
0
100
AcDbLine
 10
53.08015088649404
 20
1242.369121069485
 30
0.0000000000000136
 11
54.79048947902311
 21
1242.609504217679
 31
0.0000000000000136
  0
LINE
  5
468
330
1F
100
AcDbEntity
  8
0
100
AcDbLine
 10
35.68217973323476
 20
1204.025119299465
 30
0.0000000000000136
 11
35.80441693874013
 21
1203.974479193264
 31
0.0000000000000136
  0
LINE
  5
469
330
1F
100
AcDbEntity
  8
0
100
AcDbLine
 10
35.46078900905263
 20
1239.89288663345
 30
0.0000000000000136
 11
35.6932614287914
 21
1239.92555951553
 31
0.0000000000000136
  0
LINE
  5
46A
330
1F
100
AcDbEntity
  8
0
100
AcDbLine
 10
50.57773809047329
 20
1242.017444128566
 30
0.0000000000000136
 11
53.08015088649404
 21
1242.369121069485
 31
0.0000000000000136
  0
LINE
  5
46B
330
1F
100
AcDbEntity
  8
0
100
AcDbLine
 10
52.2180006942333
 20
1241.973041052395
 30
0.0000000000000136
 11
52.26154069514882
 21
1242.247966284329
 31
0.0000000000000136
  0
LINE
  5
46C
330
1F
100
AcDbEntity
  8
0
100
AcDbLine
 10
51.84676866145743
 20
1242.195781225735
 30
0.0000000000000136
 11
52.2180006942333
 21
1242.247966284329
 31
0.0000000000000136
  0
LINE
  5
46D
330
1F
100
AcDbEntity
  8
0
100
AcDbLine
 10
54.31679944606435
 20
1242.542937750394
 30
0.0000000000000136
 11
55.16334752650869
 21
1242.661918158108
 31
0.0000000000000136
  0
LINE
  5
46E
330
1F
100
AcDbEntity
  8
0
100
AcDbLine
 10
107.1674607238352
 20
1133.97304868179
 30
0.0000000000000136
 11
107.1674607238352
 21
1201.973041052396
 31
0.0000000000000136
  0
LINE
  5
46F
330
1F
100
AcDbEntity
  8
0
100
AcDbLine
 10
111.1674569091378
 20
1203.97304868179
 30
0.0000000000000136
 11
111.1674569091378
 21
1239.973052496487
 31
0.0000000000000136
  0
LINE
  5
470
330
1F
100
AcDbEntity
  8
0
100
AcDbLine
 10
109.6545193633617
 20
1201.973041052396
 30
0.0000000000000136
 11
111.1674569091378
 21
1203.97304868179
 31
0.0000000000000136
  0
LINE
  5
471
330
1F
100
AcDbEntity
  8
0
100
AcDbLine
 10
109.6545193633617
 20
1241.973041052395
 30
0.0000000000000136
 11
111.1674569091378
 21
1239.973052496487
 31
0.0000000000000136
  0
LINE
  5
472
330
1F
100
AcDbEntity
  8
0
100
AcDbLine
 10
998.1674583396491
 20
1190.73303555923
 30
0.0000000000000001
 11
998.1674583396491
 21
1218.213065619044
 31
0.0000000000000001
  0
LINE
  5
473
330
1F
100
AcDbEntity
  8
0
100
AcDbLine
 10
1430.733816038305
 20
1133.97304868179
 30
0.0000000000000136
 11
1469.733814607794
 21
1133.97304868179
 31
0.0000000000000136
  0
LINE
  5
474
330
1F
100
AcDbEntity
  8
0
100
AcDbLine
 10
1428.246766935521
 20
1241.973079199367
 30
0.0000000000000136
 11
1494.288595925505
 21
1241.899989599758
 31
0.0000000000000136
  0
LINE
  5
475
330
1F
100
AcDbEntity
  8
0
100
AcDbLine
 10
1428.246766935521
 20
1201.973079199368
 30
0.0000000000000136
 11
1494.288595925505
 21
1202.046092505032
 31
0.0000000000000136
  0
LINE
  5
476
330
1F
100
AcDbEntity
  8
0
100
AcDbLine
 10
1041.667457385973
 20
1116.473048681789
 30
0.0000000000000001
 11
1080.667458339649
 21
1116.473048681789
 31
0.0000000000000001
  0
LINE
  5
477
330
1F
100
AcDbEntity
  8
0
100
AcDbLine
 10
1027.171650691944
 20
1224.473041052394
 30
0.0000000000000001
 11
1091.167460246997
 21
1224.473041052394
 31
0.0000000000000001
  0
LINE
  5
478
330
1F
100
AcDbEntity
  8
0
100
AcDbLine
 10
1076.167460246997
 20
1184.546092505031
 30
0.0000000000000001
 11
1091.167460246997
 21
1184.473041052395
 31
0.0000000000000001
  0
LINE
  5
479
330
1F
100
AcDbEntity
  8
0
100
AcDbLine
 10
1025.167461200672
 20
1184.473041052395
 30
0.0000000000000001
 11
1046.167460246997
 21
1184.473041052395
 31
0.0000000000000001
  0
LINE
  5
47A
330
1F
100
AcDbEntity
  8
0
100
AcDbLine
 10
1016.273289485889
 20
1188.373435492092
 30
0.0000000000000001
 11
1019.167457385974
 21
1187.453559393458
 31
0.0000000000000001
  0
LINE
  5
47B
330
1F
100
AcDbEntity
  8
0
100
AcDbLine
 10
1017.908850475268
 20
1185.635264868313
 30
0.0000000000000001
 11
1019.264097972827
 21
1185.864833349758
 31
0.0000000000000001
  0
LINE
  5
47C
330
1F
100
AcDbEntity
  8
0
100
AcDbLine
 10
1007.116428180652
 20
1221.428359503323
 30
0.0000000000000001
 11
1019.226856990772
 21
1221.428359503323
 31
0.0000000000000001
  0
LINE
  5
47D
330
1F
100
AcDbEntity
  8
0
100
AcDbLine
 10
1008.417490287738
 20
1185.635264868313
 30
0.0000000000000001
 11
1009.916938110309
 21
1185.466121191554
 31
0.0000000000000001
  0
LINE
  5
47E
330
1F
100
AcDbEntity
  8
0
100
AcDbLine
 10
1007.167459293323
 20
1187.453559393458
 30
0.0000000000000001
 11
1010.061639114337
 21
1188.373435492092
 31
0.0000000000000001
  0
LINE
  5
47F
330
1F
100
AcDbEntity
  8
0
100
AcDbLine
 10
1002.861798568683
 20
1187.152541632227
 30
0.0000000000000001
 11
1004.588378234821
 21
1186.474479193263
 31
0.0000000000000001
  0
LINE
  5
480
330
1F
100
AcDbEntity
  8
0
100
AcDbLine
 10
998.4929092368659
 20
1190.330909246974
 30
0.0000000000000001
 11
1002.861798568683
 21
1187.152541632227
 31
0.0000000000000001
  0
LINE
  5
481
330
1F
100
AcDbEntity
  8
0
100
AcDbLine
 10
1004.712968631702
 20
1186.534903997951
 30
0.0000000000000001
 11
1005.538869663195
 21
1186.249564642483
 31
0.0000000000000001
  0
LINE
  5
482
330
1F
100
AcDbEntity
  8
0
100
AcDbLine
 10
1005.538869663195
 20
1186.249564642483
 30
0.0000000000000001
 11
1005.892368122058
 21
1186.147864813381
 31
0.0000000000000001
  0
LINE
  5
483
330
1F
100
AcDbEntity
  8
0
100
AcDbLine
 10
1005.892368122058
 20
1186.147864813381
 30
0.0000000000000001
 11
1007.062249942737
 21
1185.864833349758
 31
0.0000000000000001
  0
LINE
  5
484
330
1F
100
AcDbEntity
  8
0
100
AcDbLine
 10
1007.062249942737
 20
1185.864833349758
 30
0.0000000000000001
 11
1008.417490287738
 21
1185.635264868313
 31
0.0000000000000001
  0
LINE
  5
485
330
1F
100
AcDbEntity
  8
0
100
AcDbLine
 10
1004.682179256396
 20
1186.525119299463
 30
0.0000000000000001
 11
1006.656199260669
 21
1187.152541632227
 31
0.0000000000000001
  0
LINE
  5
486
330
1F
100
AcDbEntity
  8
0
100
AcDbLine
 10
1006.656199260669
 20
1187.152541632227
 30
0.0000000000000001
 11
1007.167459293323
 21
1187.453559393458
 31
0.0000000000000001
  0
LINE
  5
487
330
1F
100
AcDbEntity
  8
0
100
AcDbLine
 10
1013.167458339649
 20
1188.687194342189
 30
0.0000000000000001
 11
1016.273289485889
 21
1188.373435492092
 31
0.0000000000000001
  0
LINE
  5
488
330
1F
100
AcDbEntity
  8
0
100
AcDbLine
 10
1011.515019699053
 20
1185.362514013821
 30
0.0000000000000001
 11
1014.811330600696
 21
1185.362514013821
 31
0.0000000000000001
  0
LINE
  5
489
330
1F
100
AcDbEntity
  8
0
100
AcDbLine
 10
1009.916938110309
 20
1185.466121191554
 30
0.0000000000000001
 11
1011.515019699053
 21
1185.362514013821
 31
0.0000000000000001
  0
LINE
  5
48A
330
1F
100
AcDbEntity
  8
0
100
AcDbLine
 10
1010.061639114337
 20
1188.373435492092
 30
0.0000000000000001
 11
1013.167458339649
 21
1188.687194342189
 31
0.0000000000000001
  0
LINE
  5
48B
330
1F
100
AcDbEntity
  8
0
100
AcDbLine
 10
1014.811330600696
 20
1185.362514013821
 30
0.0000000000000001
 11
1016.40940742107
 21
1185.466121191554
 31
0.0000000000000001
  0
LINE
  5
48C
330
1F
100
AcDbEntity
  8
0
100
AcDbLine
 10
1016.40940742107
 20
1185.466121191554
 30
0.0000000000000001
 11
1017.908850475268
 21
1185.635264868313
 31
0.0000000000000001
  0
LINE
  5
48D
330
1F
100
AcDbEntity
  8
0
100
AcDbLine
 10
1003.040319248156
 20
1221.825583929592
 30
0.0000000000000001
 11
1003.961869045215
 21
1221.708053106837
 31
0.0000000000000001
  0
LINE
  5
48E
330
1F
100
AcDbEntity
  8
0
100
AcDbLine
 10
998.4929092368659
 20
1218.6151919313
 30
0.0000000000000001
 11
1002.861798568683
 21
1221.793559546047
 31
0.0000000000000001
  0
LINE
  5
48F
330
1F
100
AcDbEntity
  8
0
100
AcDbLine
 10
1002.861798568683
 20
1221.793559546047
 30
0.0000000000000001
 11
1002.970398231463
 21
1221.836207861476
 31
0.0000000000000001
  0
LINE
  5
490
330
1F
100
AcDbEntity
  8
0
100
AcDbLine
 10
1003.961869045215
 20
1221.708053106837
 30
0.0000000000000001
 11
1004.953518672901
 21
1221.602157110744
 31
0.0000000000000001
  0
LINE
  5
491
330
1F
100
AcDbEntity
  8
0
100
AcDbLine
 10
1004.953518672901
 20
1221.602157110744
 30
0.0000000000000001
 11
1007.116428180652
 21
1221.428359503323
 31
0.0000000000000001
  0
LINE
  5
492
330
1F
100
AcDbEntity
  8
0
100
AcDbLine
 10
1031.167460246997
 20
1184.473041052395
 30
0.0000000000000001
 11
1031.167460246997
 21
1224.473041052394
 31
0.0000000000000001
  0
LINE
  5
493
330
1F
100
AcDbEntity
  8
0
100
AcDbLine
 10
1026.167460246997
 20
1184.473041052395
 30
0.0000000000000001
 11
1026.167460246997
 21
1222.396377081448
 31
0.0000000000000001
  0
LINE
  5
494
330
1F
100
AcDbEntity
  8
0
100
AcDbLine
 10
1023.900919719654
 20
1185.154536718899
 30
0.0000000000000001
 11
1024.75856856914
 21
1184.881938452297
 31
0.0000000000000001
  0
LINE
  5
495
330
1F
100
AcDbEntity
  8
0
100
AcDbLine
 10
1023.559771343188
 20
1185.495685095363
 30
0.0000000000000001
 11
1023.900919719654
 21
1185.154536718899
 31
0.0000000000000001
  0
LINE
  5
496
330
1F
100
AcDbEntity
  8
0
100
AcDbLine
 10
1019.167457385974
 20
1187.453559393458
 30
0.0000000000000001
 11
1019.678726955371
 21
1187.152541632227
 31
0.0000000000000001
  0
LINE
  5
497
330
1F
100
AcDbEntity
  8
0
100
AcDbLine
 10
1021.652746959644
 20
1186.525119299463
 30
0.0000000000000001
 11
1023.559771343188
 21
1185.495685095363
 31
0.0000000000000001
  0
LINE
  5
498
330
1F
100
AcDbEntity
  8
0
100
AcDbLine
 10
1019.678726955371
 20
1187.152541632227
 30
0.0000000000000001
 11
1021.652746959644
 21
1186.525119299463
 31
0.0000000000000001
  0
LINE
  5
499
330
1F
100
AcDbEntity
  8
0
100
AcDbLine
 10
1019.264097972827
 20
1185.864833349758
 30
0.0000000000000001
 11
1020.433970256763
 21
1186.147864813381
 31
0.0000000000000001
  0
LINE
  5
49A
330
1F
100
AcDbEntity
  8
0
100
AcDbLine
 10
1020.433970256763
 20
1186.147864813381
 30
0.0000000000000001
 11
1020.787478252368
 21
1186.249564642483
 31
0.0000000000000001
  0
LINE
  5
49B
330
1F
100
AcDbEntity
  8
0
100
AcDbLine
 10
1020.787478252368
 20
1186.249564642483
 30
0.0000000000000001
 11
1021.617489620166
 21
1186.536334509425
 31
0.0000000000000001
  0
LINE
  5
49C
330
1F
100
AcDbEntity
  8
0
100
AcDbLine
 10
1024.75856856914
 20
1184.881938452297
 30
0.0000000000000001
 11
1025.167461200672
 21
1184.473041052395
 31
0.0000000000000001
  0
LINE
  5
49D
330
1F
100
AcDbEntity
  8
0
100
AcDbLine
 10
1023.302980228381
 20
1221.825583929592
 30
0.0000000000000001
 11
1024.147430225329
 21
1221.953853125149
 31
0.0000000000000001
  0
LINE
  5
49E
330
1F
100
AcDbEntity
  8
0
100
AcDbLine
 10
1021.389771266895
 20
1221.602157110744
 30
0.0000000000000001
 11
1022.38142089458
 21
1221.708053106837
 31
0.0000000000000001
  0
LINE
  5
49F
330
1F
100
AcDbEntity
  8
0
100
AcDbLine
 10
1022.38142089458
 20
1221.708053106837
 30
0.0000000000000001
 11
1023.302980228381
 21
1221.825583929592
 31
0.0000000000000001
  0
LINE
  5
4A0
330
1F
100
AcDbEntity
  8
0
100
AcDbLine
 10
1019.226856990772
 20
1221.428359503323
 30
0.0000000000000001
 11
1021.389771266895
 21
1221.602157110744
 31
0.0000000000000001
  0
LINE
  5
4A1
330
1F
100
AcDbEntity
  8
0
100
AcDbLine
 10
1024.147430225329
 20
1221.953853125149
 30
0.0000000000000001
 11
1024.90833835216
 21
1222.091849798733
 31
0.0000000000000001
  0
LINE
  5
4A2
330
1F
100
AcDbEntity
  8
0
100
AcDbLine
 10
1024.90833835216
 20
1222.091849798733
 30
0.0000000000000001
 11
1025.579939647631
 21
1222.238582129054
 31
0.0000000000000001
  0
LINE
  5
4A3
330
1F
100
AcDbEntity
  8
0
100
AcDbLine
 10
1025.579939647631
 20
1222.238582129054
 30
0.0000000000000001
 11
1026.157098575549
 21
1222.392886633449
 31
0.0000000000000001
  0
LINE
  5
4A4
330
1F
100
AcDbEntity
  8
0
100
AcDbLine
 10
1026.167460246997
 20
1222.396377081448
 30
0.0000000000000001
 11
1027.171650691944
 21
1224.473041052394
 31
0.0000000000000001
  0
LINE
  5
4A5
330
1F
100
AcDbEntity
  8
0
100
AcDbLine
 10
1041.667457385973
 20
1116.473048681789
 30
0.0000000000000001
 11
1041.667457385973
 21
1184.473041052395
 31
0.0000000000000001
  0
LINE
  5
4A6
330
1F
100
AcDbEntity
  8
0
100
AcDbLine
 10
1076.167460246997
 20
1128.252395147852
 30
0.0000000000000001
 11
1076.167460246997
 21
1189.657596106105
 31
0.0000000000000001
  0
LINE
  5
4A7
330
1F
100
AcDbEntity
  8
0
100
AcDbLine
 10
1046.167460246997
 20
1128.252395147852
 30
0.0000000000000001
 11
1046.167460246997
 21
1189.657596106105
 31
0.0000000000000001
  0
LINE
  5
4A8
330
1F
100
AcDbEntity
  8
0
100
AcDbLine
 10
1048.167458339649
 20
1126.415246481472
 30
0.0000000000000001
 11
1074.167462154345
 21
1126.415246481472
 31
0.0000000000000001
  0
LINE
  5
4A9
330
1F
100
AcDbEntity
  8
0
100
AcDbLine
 10
1046.167460246997
 20
1128.252395147852
 30
0.0000000000000001
 11
1048.167458339649
 21
1126.415246481472
 31
0.0000000000000001
  0
LINE
  5
4AA
330
1F
100
AcDbEntity
  8
0
100
AcDbLine
 10
1074.167462154345
 20
1126.415246481472
 30
0.0000000000000001
 11
1076.167460246997
 21
1128.252395147852
 31
0.0000000000000001
  0
LINE
  5
4AB
330
1F
100
AcDbEntity
  8
0
100
AcDbLine
 10
1047.167459293323
 20
1190.284846777492
 30
0.0000000000000001
 11
1075.1674564323
 21
1190.284846777492
 31
0.0000000000000001
  0
LINE
  5
4AC
330
1F
100
AcDbEntity
  8
0
100
AcDbLine
 10
1046.167460246997
 20
1189.657596106105
 30
0.0000000000000001
 11
1047.15861873241
 21
1190.27929639297
 31
0.0000000000000001
  0
LINE
  5
4AD
330
1F
100
AcDbEntity
  8
0
100
AcDbLine
 10
1075.1674564323
 20
1190.284846777492
 30
0.0000000000000001
 11
1076.143618389087
 21
1189.672549719386
 31
0.0000000000000001
  0
LINE
  5
4AE
330
1F
100
AcDbEntity
  8
0
100
AcDbLine
 10
1080.667458339649
 20
1116.473048681789
 30
0.0000000000000001
 11
1080.667458339649
 21
1184.473041052395
 31
0.0000000000000001
  0
LINE
  5
4AF
330
1F
100
AcDbEntity
  8
0
100
AcDbLine
 10
1091.167460246997
 20
1184.473041052395
 30
0.0000000000000001
 11
1091.167460246997
 21
1224.473041052394
 31
0.0000000000000001
  0
LINE
  5
4B0
330
1F
100
AcDbEntity
  8
0
100
AcDbLine
 10
1086.167460246997
 20
1184.473041052395
 30
0.0000000000000001
 11
1086.167460246997
 21
1224.473041052394
 31
0.0000000000000001
  0
LINE
  5
4B1
330
1F
100
AcDbEntity
  8
0
100
AcDbLine
 10
1430.733816038305
 20
1133.97304868179
 30
0.0000000000000136
 11
1430.733816038305
 21
1201.973079199368
 31
0.0000000000000136
  0
LINE
  5
4B2
330
1F
100
AcDbEntity
  8
0
100
AcDbLine
 10
1426.733815084631
 20
1203.97304868179
 30
0.0000000000000136
 11
1426.733815084631
 21
1239.973033423
 31
0.0000000000000136
  0
LINE
  5
4B3
330
1F
100
AcDbEntity
  8
0
100
AcDbLine
 10
1426.733815084631
 20
1203.97304868179
 30
0.0000000000000136
 11
1428.246766935521
 21
1201.973079199368
 31
0.0000000000000136
  0
LINE
  5
4B4
330
1F
100
AcDbEntity
  8
0
100
AcDbLine
 10
1426.733815084631
 20
1239.973033423
 30
0.0000000000000136
 11
1428.246766935521
 21
1241.973079199367
 31
0.0000000000000136
  0
LINE
  5
4B5
330
1F
100
AcDbEntity
  8
0
100
AcDbLine
 10
1507.815905820065
 20
1207.784846777492
 30
0.0000000000000136
 11
1534.262346635992
 21
1147.1263537355
 31
0.0000000000000136
  0
LINE
  5
4B6
330
1F
100
AcDbEntity
  8
0
100
AcDbLine
 10
1502.804005678231
 20
1204.267390722804
 30
0.0000000000000136
 11
1528.917285810644
 21
1144.373057837063
 31
0.0000000000000136
  0
CIRCLE
  5
4B7
330
1F
100
AcDbEntity
  8
0
100
AcDbCircle
 10
1493.733830253352
 20
1221.973057432713
 30
0.0000000000000136
 40
19.9999782333517
  0
LINE
  5
4B8
330
1F
100
AcDbEntity
  8
0
100
AcDbLine
 10
1469.733814607794
 20
1133.97304868179
 30
0.0000000000000136
 11
1469.733814607794
 21
1201.973079199368
 31
0.0000000000000136
  0
LINE
  5
4B9
330
1F
100
AcDbEntity
  8
0
100
AcDbLine
 10
1450.233814130957
 20
1203.97304868179
 30
0.0000000000000136
 11
1450.233814130957
 21
1239.973033423
 31
0.0000000000000136
  0
LINE
  5
4BA
330
1F
100
AcDbEntity
  8
0
100
AcDbLine
 10
1485.370785604651
 20
1203.97449826675
 30
0.0000000000000136
 11
1485.370785604651
 21
1239.97158383804
 31
0.0000000000000136
  0
LINE
  5
4BB
330
1F
100
AcDbEntity
  8
0
100
AcDbLine
 10
1479.283124815161
 20
1208.232997412258
 30
0.0000000000000136
 11
1479.283124815161
 21
1235.713084692532
 31
0.0000000000000136
  0
LINE
  5
4BC
330
1F
100
AcDbEntity
  8
0
100
AcDbLine
 10
1485.248535286123
 20
1204.025081152493
 30
0.0000000000000136
 11
1485.370785604651
 21
1203.97449826675
 31
0.0000000000000136
  0
LINE
  5
4BD
330
1F
100
AcDbEntity
  8
0
100
AcDbLine
 10
1485.248535286123
 20
1239.921000952297
 30
0.0000000000000136
 11
1485.370785604651
 21
1239.97158383804
 31
0.0000000000000136
  0
LINE
  5
4BE
330
1F
100
AcDbEntity
  8
0
100
AcDbLine
 10
1502.096855651075
 20
1203.97449826675
 30
0.0000000000000136
 11
1502.096855651075
 21
1239.97158383804
 31
0.0000000000000136
  0
LINE
  5
4BF
330
1F
100
AcDbEntity
  8
0
100
AcDbLine
 10
1508.184505711729
 20
1208.232997412258
 30
0.0000000000000136
 11
1508.184505711729
 21
1235.713084692532
 31
0.0000000000000136
  0
LINE
  5
4C0
330
1F
100
AcDbEntity
  8
0
100
AcDbLine
 10
1502.096855651075
 20
1203.97449826675
 30
0.0000000000000136
 11
1502.219105671579
 21
1204.025081152493
 31
0.0000000000000136
  0
LINE
  5
4C1
330
1F
100
AcDbEntity
  8
0
100
AcDbLine
 10
1502.096855651075
 20
1239.97158383804
 30
0.0000000000000136
 11
1502.219105671579
 21
1239.921000952297
 31
0.0000000000000136
  0
LINE
  5
4C2
330
1F
100
AcDbEntity
  8
0
100
AcDbLine
 10
1530.207785974676
 20
1143.915217871243
 30
0.0000000000000136
 11
1533.771156679327
 21
1145.750773901516
 31
0.0000000000000136
  0
LINE
  5
4C3
330
1F
100
AcDbEntity
  8
0
100
AcDbLine
 10
1528.917285810644
 20
1144.373057837063
 30
0.0000000000000136
 11
1530.207785974676
 21
1143.915217871243
 31
0.0000000000000136
  0
LINE
  5
4C4
330
1F
100
AcDbEntity
  8
0
100
AcDbLine
 10
1533.771156679327
 20
1145.750773901516
 30
0.0000000000000136
 11
1534.262346635992
 21
1147.1263537355
 31
0.0000000000000136
  0
LINE
  5
4C5
330
1F
100
AcDbEntity
  8
0
100
AcDbLine
 10
1028.66745786281
 20
216.7493679358936
 30
0.0
 11
1094.667457862811
 21
216.7493679358936
 31
0.0
  0
LINE
  5
4C6
330
1F
100
AcDbEntity
  8
0
100
AcDbLine
 10
1026.667457862811
 20
228.7493679358935
 30
0.0
 11
1096.667457862811
 21
228.7493679358935
 31
0.0
  0
ARC
  5
4C7
330
1F
100
AcDbEntity
  8
0
100
AcDbCircle
 10
1061.667457862811
 20
175.2493679358948
 30
0.0
 40
17.00000000000041
100
AcDbArc
 50
305.0904672353623
 51
354.9095327646367
  0
ARC
  5
4C8
330
1F
100
AcDbEntity
  8
0
100
AcDbCircle
 10
1061.667457862811
 20
175.2493679358936
 30
0.0
 40
16.5
100
AcDbArc
 50
180.0
 51
0.0
  0
ARC
  5
4C9
330
1F
100
AcDbEntity
  8
0
100
AcDbCircle
 10
1061.667457862811
 20
175.2493679358936
 30
0.0
 40
16.50000698550666
100
AcDbArc
 50
179.9472776769867
 51
0.052722322850275
  0
LINE
  5
4CA
330
1F
100
AcDbEntity
  8
0
100
AcDbLine
 10
998.6674464187197
 20
111.7493564585489
 30
0.0
 11
1091.667457862811
 21
111.7493564585489
 31
0.0
  0
LINE
  5
4CB
330
1F
100
AcDbEntity
  8
0
100
AcDbLine
 10
1039.612690254168
 20
131.1945850352089
 30
0.0
 11
1083.722244544939
 21
131.1945850352089
 31
0.0
  0
LINE
  5
4CC
330
1F
100
AcDbEntity
  8
0
100
AcDbLine
 10
998.6674464187197
 20
151.7493564585489
 30
0.0
 11
1038.167454048114
 21
151.7493564585489
 31
0.0
  0
ARC
  5
4CD
330
1F
100
AcDbEntity
  8
0
100
AcDbCircle
 10
1013.667515997942
 20
131.7493755320352
 30
0.0
 40
12.00003247305865
100
AcDbArc
 50
224.9998294836877
 51
135.0001705163121
  0
LINE
  5
4CE
330
1F
100
AcDbEntity
  8
0
100
AcDbLine
 10
998.6674464187197
 20
111.7493564585489
 30
0.0
 11
998.6674464187197
 21
117.298672864799
 31
0.0
  0
LINE
  5
4CF
330
1F
100
AcDbEntity
  8
0
100
AcDbLine
 10
998.6674464187197
 20
117.298672864799
 30
0.0
 11
1005.088383003192
 21
123.386319349174
 31
0.0
  0
LINE
  5
4D0
330
1F
100
AcDbEntity
  8
0
100
AcDbLine
 10
1005.088383003192
 20
123.2640964487834
 30
0.0
 11
1005.182186408952
 21
123.386319349174
 31
0.0
  0
LINE
  5
4D1
330
1F
100
AcDbEntity
  8
0
100
AcDbLine
 10
998.6674464187197
 20
146.2000400522988
 30
0.0
 11
1005.088383003192
 21
140.112393567924
 31
0.0
  0
LINE
  5
4D2
330
1F
100
AcDbEntity
  8
0
100
AcDbLine
 10
998.6674464187197
 20
146.2000400522988
 30
0.0
 11
998.6674464187197
 21
151.7493564585489
 31
0.0
  0
LINE
  5
4D3
330
1F
100
AcDbEntity
  8
0
100
AcDbLine
 10
1005.088383003192
 20
140.112393567924
 30
0.0
 11
1005.182186408952
 21
140.2346546152872
 31
0.0
  0
LINE
  5
4D4
330
1F
100
AcDbEntity
  8
0
100
AcDbLine
 10
1031.667476936297
 20
111.7493564585489
 30
0.0
 11
1031.667476936297
 21
151.7493564585489
 31
0.0
  0
LINE
  5
4D5
330
1F
100
AcDbEntity
  8
0
100
AcDbLine
 10
1026.667476936298
 20
111.7493564585489
 30
0.0
 11
1026.667476936298
 21
151.7493564585489
 31
0.0
  0
LINE
  5
4D6
330
1F
100
AcDbEntity
  8
0
100
AcDbLine
 10
1026.667457862811
 20
218.7493679358936
 30
0.0
 11
1026.667457862811
 21
228.7493679358935
 31
0.0
  0
ARC
  5
4D7
330
1F
100
AcDbEntity
  8
0
100
AcDbCircle
 10
1028.66745786281
 20
218.7493679358936
 30
0.0
 40
2.0
100
AcDbArc
 50
180.0
 51
270.0
  0
ARC
  5
4D8
330
1F
100
AcDbEntity
  8
0
100
AcDbCircle
 10
1061.667457862812
 20
175.2493679358936
 30
0.0
 40
17.00000000000028
100
AcDbArc
 50
185.0904672353568
 51
234.9095327646374
  0
LINE
  5
4D9
330
1F
100
AcDbEntity
  8
0
100
AcDbLine
 10
1038.167454048114
 20
140.1089221934123
 30
0.0
 11
1038.167454048114
 21
175.2493411997598
 31
0.0
  0
LINE
  5
4DA
330
1F
100
AcDbEntity
  8
0
100
AcDbLine
 10
1039.612690254168
 20
131.1945850352089
 30
0.0
 11
1039.667469306903
 21
175.1510364512248
 31
0.0
  0
ARC
  5
4DB
330
1F
100
AcDbEntity
  8
0
100
AcDbCircle
 10
1061.667457862811
 20
175.2493679358948
 30
0.0
 40
17.00000000000053
100
AcDbArc
 50
245.0904672353629
 51
294.9095327646368
  0
LINE
  5
4DC
330
1F
100
AcDbEntity
  8
0
100
AcDbLine
 10
1049.082294746356
 20
91.2208301523967
 30
0.0
 11
1074.252659126239
 21
91.2208301523967
 31
0.0
  0
LINE
  5
4DD
330
1F
100
AcDbEntity
  8
0
100
AcDbLine
 10
1046.667476936296
 20
92.51298255718186
 30
0.0
 11
1047.667461677507
 21
91.78746528423264
 31
0.0
  0
LINE
  5
4DE
330
1F
100
AcDbEntity
  8
0
100
AcDbLine
 10
1047.667461677507
 20
91.78746528423264
 30
0.0
 11
1049.082294746356
 21
91.2208301523967
 31
0.0
  0
LINE
  5
4DF
330
1F
100
AcDbEntity
  8
0
100
AcDbLine
 10
1046.667476936296
 20
92.51298255718186
 30
0.0
 11
1046.667476936296
 21
111.7493564585489
 31
0.0
  0
LINE
  5
4E0
330
1F
100
AcDbEntity
  8
0
100
AcDbLine
 10
1038.167454048114
 20
140.1089221934123
 30
0.0
 11
1039.156338020281
 21
136.9257480601115
 31
0.0
  0
LINE
  5
4E1
330
1F
100
AcDbEntity
  8
0
100
AcDbLine
 10
1039.156338020281
 20
136.9257480601115
 30
0.0
 11
1039.667469306903
 21
131.749356458549
 31
0.0
  0
ARC
  5
4E2
330
1F
100
AcDbEntity
  8
0
100
AcDbCircle
 10
1050.81745786281
 20
156.4566166737718
 30
0.0
 40
4.999999999999737
100
AcDbArc
 50
42.44163493656407
 51
77.55836506344319
  0
LINE
  5
4E3
330
1F
100
AcDbEntity
  8
0
100
AcDbLine
 10
1074.252659126239
 20
91.2208301523967
 30
0.0
 11
1075.667454048114
 21
91.78746528423264
 31
0.0
  0
LINE
  5
4E4
330
1F
100
AcDbEntity
  8
0
100
AcDbLine
 10
1075.667454048114
 20
91.78746528423264
 30
0.0
 11
1076.667476936296
 21
92.51298255718186
 31
0.0
  0
LINE
  5
4E5
330
1F
100
AcDbEntity
  8
0
100
AcDbLine
 10
1076.667476936296
 20
92.51298255718186
 30
0.0
 11
1076.667476936296
 21
111.7493564585489
 31
0.0
  0
ARC
  5
4E6
330
1F
100
AcDbEntity
  8
0
100
AcDbCircle
 10
1072.517457862812
 20
156.45661667377
 30
0.0
 40
5.000000000001613
100
AcDbArc
 50
102.4416349365695
 51
137.5583650634359
  0
LINE
  5
4E7
330
1F
100
AcDbEntity
  8
0
100
AcDbLine
 10
1045.167457862811
 20
216.7493679358936
 30
0.0
 11
1045.167457862811
 21
175.2493679358936
 31
0.0
  0
ARC
  5
4E8
330
1F
100
AcDbEntity
  8
0
100
AcDbCircle
 10
1061.703039977714
 20
175.2137781583423
 30
0.0
 40
22.03565999261564
100
AcDbArc
 50
138.6251289226994
 51
180.1631373816684
  0
ARC
  5
4E9
330
1F
100
AcDbEntity
  8
0
100
AcDbCircle
 10
1061.667489125138
 20
175.2493290109183
 30
0.0
 40
23.50003507702812
100
AcDbArc
 50
134.5979793760053
 51
179.9999702822063
  0
ARC
  5
4EA
330
1F
100
AcDbEntity
  8
0
100
AcDbCircle
 10
1039.967457862811
 20
175.2493679358936
 30
0.0
 40
5.000000000000047
100
AcDbArc
 50
342.4416349365598
 51
17.55836506343399
  0
ARC
  5
4EB
330
1F
100
AcDbEntity
  8
0
100
AcDbCircle
 10
1061.667457862811
 20
175.249367935894
 30
0.0
 40
17.00000000000011
100
AcDbArc
 50
166.0694454376371
 51
174.9095327646366
  0
LINE
  5
4EC
330
1F
100
AcDbEntity
  8
0
100
AcDbLine
 10
1085.167461677507
 20
140.1089221934123
 30
0.0
 11
1085.167461677507
 21
175.2493411997598
 31
0.0
  0
LINE
  5
4ED
330
1F
100
AcDbEntity
  8
0
100
AcDbLine
 10
1083.680149360612
 20
131.1945850352089
 30
0.0
 11
1083.667465492205
 21
175.1510364512248
 31
0.0
  0
LINE
  5
4EE
330
1F
100
AcDbEntity
  8
0
100
AcDbLine
 10
1091.667457862811
 20
111.7493564585489
 30
0.0
 11
1091.667457862811
 21
151.7493564585489
 31
0.0
  0
LINE
  5
4EF
330
1F
100
AcDbEntity
  8
0
100
AcDbLine
 10
1086.667457862811
 20
111.7493564585489
 30
0.0
 11
1086.667457862811
 21
151.7493564585489
 31
0.0
  0
LINE
  5
4F0
330
1F
100
AcDbEntity
  8
0
100
AcDbLine
 10
1085.167461677507
 20
151.7493564585489
 30
0.0
 11
1091.667457862811
 21
151.7493564585489
 31
0.0
  0
LINE
  5
4F1
330
1F
100
AcDbEntity
  8
0
100
AcDbLine
 10
1084.178577705339
 20
136.9257480601115
 30
0.0
 11
1085.167461677507
 21
140.1089221934123
 31
0.0
  0
LINE
  5
4F2
330
1F
100
AcDbEntity
  8
0
100
AcDbLine
 10
1083.667465492205
 20
131.749356458549
 30
0.0
 11
1084.178577705339
 21
136.9257480601115
 31
0.0
  0
LINE
  5
4F3
330
1F
100
AcDbEntity
  8
0
100
AcDbLine
 10
1096.667457862811
 20
218.7493679358936
 30
0.0
 11
1096.667457862811
 21
228.7493679358935
 31
0.0
  0
LINE
  5
4F4
330
1F
100
AcDbEntity
  8
0
100
AcDbLine
 10
1078.167457862811
 20
175.2493679358936
 30
0.0
 11
1078.167457862811
 21
216.7493679358936
 31
0.0
  0
ARC
  5
4F5
330
1F
100
AcDbEntity
  8
0
100
AcDbCircle
 10
1061.667488737806
 20
175.2493648858892
 30
0.0
 40
23.49997293971382
100
AcDbArc
 50
359.9999422503472
 51
45.40208400023365
  0
ARC
  5
4F6
330
1F
100
AcDbEntity
  8
0
100
AcDbCircle
 10
1061.588788439637
 20
175.188978345266
 30
0.0
 40
22.07870965384735
100
AcDbArc
 50
359.9015381107227
 51
41.33251921226106
  0
ARC
  5
4F7
330
1F
100
AcDbEntity
  8
0
100
AcDbCircle
 10
1061.66745786281
 20
175.2493679358944
 30
0.0
 40
17.00000000000025
100
AcDbArc
 50
5.090467235356793
 51
13.93055456235651
  0
ARC
  5
4F8
330
1F
100
AcDbEntity
  8
0
100
AcDbCircle
 10
1083.367457862811
 20
175.2493679358944
 30
0.0
 40
5.000000000000047
100
AcDbArc
 50
162.441634936566
 51
197.5583650634339
  0
ARC
  5
4F9
330
1F
100
AcDbEntity
  8
0
100
AcDbCircle
 10
1094.667457862811
 20
218.7493679358936
 30
0.0
 40
2.0
100
AcDbArc
 50
270.0
 51
0.0
  0
ENDSEC
  0
SECTION
  2
OBJECTS
  0
DICTIONARY
  5
C
330
0
100
AcDbDictionary
  3
ACAD_COLOR
350
6B
  3
ACAD_GROUP
350
D
  3
ACAD_LAYOUT
350
1A
  3
ACAD_MATERIAL
350
6A
  3
ACAD_MLINESTYLE
350
17
  3
ACAD_PLOTSETTINGS
350
19
  3
ACAD_PLOTSTYLENAME
350
E
  3
ACDBVARIABLEDICTIONARY
350
5E
  3
DWGPROPS
350
3A1
  3
ACDBHEADERROUNDTRIPXREC
350
52C
  0
DICTIONARY
  5
51E
330
1F
100
AcDbDictionary
280
     1
  3
ACAD_LAYOUTSELFREF
360
54D
  0
DICTIONARY
  5
520
330
50
100
AcDbDictionary
280
     1
  3
ACAD_LAYOUTSELFREF
360
54E
  0
DICTIONARY
  5
6B
102
{ACAD_REACTORS
330
C
102
}
330
C
100
AcDbDictionary
  0
DICTIONARY
  5
D
102
{ACAD_REACTORS
330
C
102
}
330
C
100
AcDbDictionary
  0
DICTIONARY
  5
1A
102
{ACAD_REACTORS
330
C
102
}
330
C
100
AcDbDictionary
  0
DICTIONARY
  5
6A
102
{ACAD_REACTORS
330
C
102
}
330
C
100
AcDbDictionary
  0
DICTIONARY
  5
17
102
{ACAD_REACTORS
330
C
102
}
330
C
100
AcDbDictionary
  3
STANDARD
350
18
  0
DICTIONARY
  5
19
102
{ACAD_REACTORS
330
C
102
}
330
C
100
AcDbDictionary
  0
ACDBDICTIONARYWDFLT
  5
E
102
{ACAD_REACTORS
330
C
102
}
330
C
100
AcDbDictionary
281
     1
  3
Normal
350
F
100
AcDbDictionaryWithDefault
340
F
  0
DICTIONARY
  5
5E
102
{ACAD_REACTORS
330
C
102
}
330
C
100
AcDbDictionary
  3
DIMASSOC
350
5F
  3
HIDETEXT
350
63
  3
PROJECTNAME
350
39F
  0
XRECORD
  5
3A1
102
{ACAD_REACTORS
330
C
102
}
330
C
100
AcDbXrecord
  1
DWGPROPS COOKIE
  2

  3

  4

  6

  7

  8

  9

300
=
301
=
302
=
303
=
304
=
305
=
306
=
307
=
308
=
309
=
 40
0.0028262152777778
 41
2453586.352102684
 42
2453607.489639686
  1

 90
        0
  0
DICTIONARY
  5
52C
102
{ACAD_REACTORS
330
C
102
}
330
C
100
AcDbDictionary
  3
TSTACKALIGN
350
52D
  3
TSTACKSIZE
350
52E
  3
HYPERLINKBASE
350
52F
  3
STYLESHEET
350
530
  3
LAYOUTDICT
350
531
  3
PLOTSETDICT
350
532
  3
PLOTSTYLNAMDICT
350
533
  3
LWETCUNION
350
534
  3
INSUNITS
350
535
  3
CEPSNTYPE
350
536
  3
FINGERPRINTGUID
350
537
  3
VERSIONGUID
350
538
  3
PSVPSCALE
350
539
  3
DIMSTYLEDATA
350
53A
  3
PUCSORTHOREF
350
53B
  3
PUCSORTHOVIEW
350
53C
  3
PUCSBASE
350
53D
  3
PUCSORGTOP
350
53E
  3
PUCSORGBOTTOM
350
53F
  3
PUCSORGLEFT
350
540
  3
PUCSORGRIGHT
350
541
  3
PUCSORGFRONT
350
542
  3
PUCSORGBACK
350
543
  3
UCSORTHOREF
350
544
  3
UCSORTHOVIEW
350
545
  3
UCSBASE
350
546
  3
UCSORGTOP
350
547
  3
UCSORGBOTTOM
350
548
  3
UCSORGLEFT
350
549
  3
UCSORGRIGHT
350
54A
  3
UCSORGFRONT
350
54B
  3
UCSORGBACK
350
54C
  0
XRECORD
  5
54D
102
{ACAD_REACTORS
330
51E
102
}
330
51E
100
AcDbXrecord
340
1F
  0
XRECORD
  5
54E
102
{ACAD_REACTORS
330
520
102
}
330
520
100
AcDbXrecord
340
50
  0
MLINESTYLE
  5
18
102
{ACAD_REACTORS
330
17
102
}
330
17
100
AcDbMlineStyle
  2
STANDARD
 70
     0
  3

 62
   256
 51
90.0
 52
90.0
 71
     2
 49
0.5
 62
   256
  6
BYLAYER
 49
-0.5
 62
   256
  6
BYLAYER
  0
ACDBPLACEHOLDER
  5
F
102
{ACAD_REACTORS
330
E
102
}
330
E
100
AcDbPlaceHolder
280
     0
  0
DICTIONARYVAR
  5
5F
102
{ACAD_REACTORS
330
5E
102
}
330
5E
100
DictionaryVariables
280
     0
  1
2
  0
DICTIONARYVAR
  5
63
102
{ACAD_REACTORS
330
5E
102
}
330
5E
100
DictionaryVariables
280
     0
  1
1
  0
DICTIONARYVAR
  5
39F
102
{ACAD_REACTORS
330
5E
102
}
330
5E
100
DictionaryVariables
280
     0
  1

  0
XRECORD
  5
52D
102
{ACAD_REACTORS
330
52C
102
}
330
52C
100
AcDbXrecord
 90
        1
  0
XRECORD
  5
52E
102
{ACAD_REACTORS
330
52C
102
}
330
52C
100
AcDbXrecord
 90
       70
  0
XRECORD
  5
52F
102
{ACAD_REACTORS
330
52C
102
}
330
52C
100
AcDbXrecord
  1

  0
XRECORD
  5
530
102
{ACAD_REACTORS
330
52C
102
}
330
52C
100
AcDbXrecord
  1

  0
XRECORD
  5
531
102
{ACAD_REACTORS
330
52C
102
}
330
52C
100
AcDbXrecord
340
1A
  0
XRECORD
  5
532
102
{ACAD_REACTORS
330
52C
102
}
330
52C
100
AcDbXrecord
340
19
  0
XRECORD
  5
533
102
{ACAD_REACTORS
330
52C
102
}
330
52C
100
AcDbXrecord
340
E
  0
XRECORD
  5
534
102
{ACAD_REACTORS
330
52C
102
}
330
52C
100
AcDbXrecord
 90
    10781
  0
XRECORD
  5
535
102
{ACAD_REACTORS
330
52C
102
}
330
52C
100
AcDbXrecord
 90
        4
  0
XRECORD
  5
536
102
{ACAD_REACTORS
330
52C
102
}
330
52C
100
AcDbXrecord
 90
        0
  0
XRECORD
  5
537
102
{ACAD_REACTORS
330
52C
102
}
330
52C
100
AcDbXrecord
  1
{FDEAD578-A652-11D2-9A35-0060089B3A3F}
  0
XRECORD
  5
538
102
{ACAD_REACTORS
330
52C
102
}
330
52C
100
AcDbXrecord
  1
{24266D71-10D1-4107-B238-CFC6780E4756}
  0
XRECORD
  5
539
102
{ACAD_REACTORS
330
52C
102
}
330
52C
100
AcDbXrecord
 40
0.0
  0
XRECORD
  5
53A
102
{ACAD_REACTORS
330
52C
102
}
330
52C
100
AcDbXrecord
1000
DSTYLE
1002
{
1070
   278
 70
    44
1002
}
  0
XRECORD
  5
53B
102
{ACAD_REACTORS
330
52C
102
}
330
52C
100
AcDbXrecord
340
0
  0
XRECORD
  5
53C
102
{ACAD_REACTORS
330
52C
102
}
330
52C
100
AcDbXrecord
 70
     0
  0
XRECORD
  5
53D
102
{ACAD_REACTORS
330
52C
102
}
330
52C
100
AcDbXrecord
340
0
  0
XRECORD
  5
53E
102
{ACAD_REACTORS
330
52C
102
}
330
52C
100
AcDbXrecord
 10
0.0
 20
0.0
 30
0.0
  0
XRECORD
  5
53F
102
{ACAD_REACTORS
330
52C
102
}
330
52C
100
AcDbXrecord
 10
0.0
 20
0.0
 30
0.0
  0
XRECORD
  5
540
102
{ACAD_REACTORS
330
52C
102
}
330
52C
100
AcDbXrecord
 10
0.0
 20
0.0
 30
0.0
  0
XRECORD
  5
541
102
{ACAD_REACTORS
330
52C
102
}
330
52C
100
AcDbXrecord
 10
0.0
 20
0.0
 30
0.0
  0
XRECORD
  5
542
102
{ACAD_REACTORS
330
52C
102
}
330
52C
100
AcDbXrecord
 10
0.0
 20
0.0
 30
0.0
  0
XRECORD
  5
543
102
{ACAD_REACTORS
330
52C
102
}
330
52C
100
AcDbXrecord
 10
0.0
 20
0.0
 30
0.0
  0
XRECORD
  5
544
102
{ACAD_REACTORS
330
52C
102
}
330
52C
100
AcDbXrecord
340
0
  0
XRECORD
  5
545
102
{ACAD_REACTORS
330
52C
102
}
330
52C
100
AcDbXrecord
 70
     0
  0
XRECORD
  5
546
102
{ACAD_REACTORS
330
52C
102
}
330
52C
100
AcDbXrecord
340
0
  0
XRECORD
  5
547
102
{ACAD_REACTORS
330
52C
102
}
330
52C
100
AcDbXrecord
 10
0.0
 20
0.0
 30
0.0
  0
XRECORD
  5
548
102
{ACAD_REACTORS
330
52C
102
}
330
52C
100
AcDbXrecord
 10
0.0
 20
0.0
 30
0.0
  0
XRECORD
  5
549
102
{ACAD_REACTORS
330
52C
102
}
330
52C
100
AcDbXrecord
 10
0.0
 20
0.0
 30
0.0
  0
XRECORD
  5
54A
102
{ACAD_REACTORS
330
52C
102
}
330
52C
100
AcDbXrecord
 10
0.0
 20
0.0
 30
0.0
  0
XRECORD
  5
54B
102
{ACAD_REACTORS
330
52C
102
}
330
52C
100
AcDbXrecord
 10
0.0
 20
0.0
 30
0.0
  0
XRECORD
  5
54C
102
{ACAD_REACTORS
330
52C
102
}
330
52C
100
AcDbXrecord
 10
0.0
 20
0.0
 30
0.0
  0
ENDSEC
  0
EOF
