  0
SECTION
  2
HEADER
  9
$ACADVER
  1
AC1014
  9
$ACADMAINTVER
 70
     9
  9
$DWGCODEPAGE
  3
ANSI_1252
  9
$INSBASE
 10
0.0
 20
0.0
 30
0.0
  9
$EXTMIN
 10
161.3628558437621
 20
97.85784406392304
 30
-0.0000000000001025
  9
$EXTMAX
 10
2919.012610263576
 20
2229.975788271974
 30
0.000000000000142
  9
$LIMMIN
 10
0.0
 20
0.0
  9
$LIMMAX
 10
420.0
 20
297.0
  9
$ORTHOMODE
 70
     1
  9
$REGENMODE
 70
     1
  9
$FILLMODE
 70
     1
  9
$QTEXTMODE
 70
     0
  9
$MIRRTEXT
 70
     0
  9
$DRAGMODE
 70
     2
  9
$LTSCALE
 40
1.0
  9
$OSMODE
 70
  2223
  9
$ATTMODE
 70
     1
  9
$TEXTSIZE
 40
2.5
  9
$TRACEWID
 40
1.0
  9
$TEXTSTYLE
  7
STANDARD
  9
$CLAYER
  8
0
  9
$CELTYPE
  6
BYLAYER
  9
$CECOLOR
 62
   256
  9
$CELTSCALE
 40
1.0
  9
$DELOBJ
 70
     1
  9
$DISPSILH
 70
     0
  9
$DIMSCALE
 40
1.0
  9
$DIMASZ
 40
2.5
  9
$DIMEXO
 40
0.625
  9
$DIMDLI
 40
3.75
  9
$DIMRND
 40
0.0
  9
$DIMDLE
 40
0.0
  9
$DIMEXE
 40
1.25
  9
$DIMTP
 40
0.0
  9
$DIMTM
 40
0.0
  9
$DIMTXT
 40
2.5
  9
$DIMCEN
 40
2.5
  9
$DIMTSZ
 40
0.0
  9
$DIMTOL
 70
     0
  9
$DIMLIM
 70
     0
  9
$DIMTIH
 70
     0
  9
$DIMTOH
 70
     0
  9
$DIMSE1
 70
     0
  9
$DIMSE2
 70
     0
  9
$DIMTAD
 70
     1
  9
$DIMZIN
 70
     8
  9
$DIMBLK
  1

  9
$DIMASO
 70
     1
  9
$DIMSHO
 70
     1
  9
$DIMPOST
  1

  9
$DIMAPOST
  1

  9
$DIMALT
 70
     0
  9
$DIMALTD
 70
     3
  9
$DIMALTF
 40
0.03937007874016
  9
$DIMLFAC
 40
1.0
  9
$DIMTOFL
 70
     1
  9
$DIMTVP
 40
0.0
  9
$DIMTIX
 70
     0
  9
$DIMSOXD
 70
     0
  9
$DIMSAH
 70
     0
  9
$DIMBLK1
  1

  9
$DIMBLK2
  1

  9
$DIMSTYLE
  2
ISO-25
  9
$DIMCLRD
 70
     0
  9
$DIMCLRE
 70
     0
  9
$DIMCLRT
 70
     0
  9
$DIMTFAC
 40
1.0
  9
$DIMGAP
 40
0.625
  9
$DIMJUST
 70
     0
  9
$DIMSD1
 70
     0
  9
$DIMSD2
 70
     0
  9
$DIMTOLJ
 70
     0
  9
$DIMTZIN
 70
     8
  9
$DIMALTZ
 70
     0
  9
$DIMALTTZ
 70
     0
  9
$DIMFIT
 70
     3
  9
$DIMUPT
 70
     0
  9
$DIMUNIT
 70
     2
  9
$DIMDEC
 70
     2
  9
$DIMTDEC
 70
     2
  9
$DIMALTU
 70
     2
  9
$DIMALTTD
 70
     3
  9
$DIMTXSTY
  7
STANDARD
  9
$DIMAUNIT
 70
     0
  9
$LUNITS
 70
     2
  9
$LUPREC
 70
     4
  9
$SKETCHINC
 40
1.0
  9
$FILLETRAD
 40
10.0
  9
$AUNITS
 70
     0
  9
$AUPREC
 70
     0
  9
$MENU
  1
.
  9
$ELEVATION
 40
0.0
  9
$PELEVATION
 40
0.0
  9
$THICKNESS
 40
0.0
  9
$LIMCHECK
 70
     0
  9
$BLIPMODE
 70
     0
  9
$CHAMFERA
 40
10.0
  9
$CHAMFERB
 40
10.0
  9
$CHAMFERC
 40
20.0
  9
$CHAMFERD
 40
0.0
  9
$SKPOLY
 70
     0
  9
$TDCREATE
 40
2453586.352102685
  9
$TDUPDATE
 40
2453615.625298982
  9
$TDINDWG
 40
0.0099781250
  9
$TDUSRTIMER
 40
0.0099748843
  9
$USRTIMER
 70
     1
  9
$ANGBASE
 50
0.0
  9
$ANGDIR
 70
     0
  9
$PDMODE
 70
     0
  9
$PDSIZE
 40
0.0
  9
$PLINEWID
 40
0.0
  9
$COORDS
 70
     1
  9
$SPLFRAME
 70
     0
  9
$SPLINETYPE
 70
     6
  9
$SPLINESEGS
 70
     8
  9
$ATTDIA
 70
     0
  9
$ATTREQ
 70
     1
  9
$HANDLING
 70
 10241
  9
$HANDSEED
  5
57A
  9
$SURFTAB1
 70
     6
  9
$SURFTAB2
 70
     6
  9
$SURFTYPE
 70
     6
  9
$SURFU
 70
     6
  9
$SURFV
 70
     6
  9
$UCSNAME
  2

  9
$UCSORG
 10
0.0
 20
0.0
 30
0.0
  9
$UCSXDIR
 10
1.0
 20
0.0
 30
0.0
  9
$UCSYDIR
 10
0.0
 20
1.0
 30
0.0
  9
$PUCSNAME
  2

  9
$PUCSORG
 10
0.0
 20
0.0
 30
0.0
  9
$PUCSXDIR
 10
1.0
 20
0.0
 30
0.0
  9
$PUCSYDIR
 10
0.0
 20
1.0
 30
0.0
  9
$USERI1
 70
     0
  9
$USERI2
 70
     0
  9
$USERI3
 70
     0
  9
$USERI4
 70
     0
  9
$USERI5
 70
     0
  9
$USERR1
 40
0.0
  9
$USERR2
 40
0.0
  9
$USERR3
 40
0.0
  9
$USERR4
 40
0.0
  9
$USERR5
 40
0.0
  9
$WORLDVIEW
 70
     1
  9
$SHADEDGE
 70
     3
  9
$SHADEDIF
 70
    70
  9
$TILEMODE
 70
     1
  9
$MAXACTVP
 70
    64
  9
$PINSBASE
 10
0.0
 20
0.0
 30
0.0
  9
$PLIMCHECK
 70
     0
  9
$PEXTMIN
 10
0.0
 20
0.0
 30
0.0
  9
$PEXTMAX
 10
0.0
 20
0.0
 30
0.0
  9
$PLIMMIN
 10
0.0
 20
0.0
  9
$PLIMMAX
 10
12.0
 20
9.0
  9
$UNITMODE
 70
     0
  9
$VISRETAIN
 70
     1
  9
$PLINEGEN
 70
     0
  9
$PSLTSCALE
 70
     1
  9
$TREEDEPTH
 70
  3020
  9
$PICKSTYLE
 70
     1
  9
$CMLSTYLE
  2
STANDARD
  9
$CMLJUST
 70
     0
  9
$CMLSCALE
 40
20.0
  9
$PROXYGRAPHICS
 70
     1
  9
$MEASUREMENT
 70
     1
  0
ENDSEC
  0
SECTION
  2
CLASSES
  0
CLASS
  1
ACDBDICTIONARYWDFLT
  2
AcDbDictionaryWithDefault
  3
AutoCAD 2000
 90
        0
280
     0
281
     0
  0
CLASS
  1
DICTIONARYVAR
  2
AcDbDictionaryVar
  3
AutoCAD 2000
 90
        0
280
     0
281
     0
  0
CLASS
  1
ACDBPLACEHOLDER
  2
AcDbPlaceHolder
  3
AutoCAD 2000
 90
        0
280
     0
281
     0
  0
CLASS
  1
LAYOUT
  2
AcDbLayout
  3
AutoCAD 2000
 90
        0
280
     0
281
     0
  0
CLASS
  1
LONG_TRANSACTION
  2
AcDbLongTransaction
  3
AutoCAD 2000
 90
        0
280
     0
281
     0
  0
CLASS
  1
LWPOLYLINE
  2
AcDbPolyline
  3
AutoCAD 2000
 90
        0
280
     0
281
     1
  0
CLASS
  1
HATCH
  2
AcDbHatch
  3
AutoCAD 2000
 90
        0
280
     0
281
     1
  0
CLASS
  1
XRECORD
  2
AcDbXrecord
  3
AutoCAD 2000
 90
        0
280
     0
281
     0
  0
ENDSEC
  0
SECTION
  2
TABLES
  0
TABLE
  2
VPORT
  5
8
330
0
100
AcDbSymbolTable
 70
     3
  0
VPORT
  5
552
330
8
100
AcDbSymbolTableRecord
100
AcDbViewportTableRecord
  2
*ACTIVE
 70
     0
 10
0.0
 20
0.0
 11
1.0
 21
1.0
 12
1499.063999020678
 22
1299.46139501406
 13
0.0
 23
0.0
 14
10.0
 24
10.0
 15
10.0
 25
10.0
 16
0.0
 26
0.0
 36
1.0
 17
0.0
 27
0.0
 37
0.0
 40
2987.228726955871
 41
1.525316455696202
 42
50.0
 43
0.0
 44
0.0
 50
0.0
 51
0.0
 71
     0
 72
  1000
 73
     1
 74
     3
 75
     0
 76
     0
 77
     0
 78
     0
  0
ENDTAB
  0
TABLE
  2
LTYPE
  5
5
330
0
100
AcDbSymbolTable
 70
     1
  0
LTYPE
  5
14
330
5
100
AcDbSymbolTableRecord
100
AcDbLinetypeTableRecord
  2
BYBLOCK
 70
     0
  3

 72
    65
 73
     0
 40
0.0
  0
LTYPE
  5
15
330
5
100
AcDbSymbolTableRecord
100
AcDbLinetypeTableRecord
  2
BYLAYER
 70
     0
  3

 72
    65
 73
     0
 40
0.0
  0
LTYPE
  5
16
330
5
100
AcDbSymbolTableRecord
100
AcDbLinetypeTableRecord
  2
CONTINUOUS
 70
     0
  3
Solid line
 72
    65
 73
     0
 40
0.0
  0
ENDTAB
  0
TABLE
  2
LAYER
  5
2
330
0
100
AcDbSymbolTable
 70
     3
  0
LAYER
  5
10
330
2
100
AcDbSymbolTableRecord
100
AcDbLayerTableRecord
  2
0
 70
     0
 62
     7
  6
CONTINUOUS
  0
ENDTAB
  0
TABLE
  2
STYLE
  5
3
330
0
100
AcDbSymbolTable
 70
     1
  0
STYLE
  5
11
330
3
100
AcDbSymbolTableRecord
100
AcDbTextStyleTableRecord
  2
STANDARD
 70
     0
 40
0.0
 41
1.0
 50
0.0
 71
     0
 42
2.5
  3
txt
  4

  0
ENDTAB
  0
TABLE
  2
VIEW
  5
6
330
0
100
AcDbSymbolTable
 70
     0
  0
ENDTAB
  0
TABLE
  2
UCS
  5
7
330
0
100
AcDbSymbolTable
 70
     0
  0
ENDTAB
  0
TABLE
  2
APPID
  5
9
330
0
100
AcDbSymbolTable
 70
     1
  0
APPID
  5
12
330
9
100
AcDbSymbolTableRecord
100
AcDbRegAppTableRecord
  2
ACAD
 70
     0
  0
ENDTAB
  0
TABLE
  2
DIMSTYLE
  5
A
330
0
100
AcDbSymbolTable
 70
     2
  0
DIMSTYLE
105
27
330
A
100
AcDbSymbolTableRecord
100
AcDbDimStyleTableRecord
  2
ISO-25
 70
     0
  3

  4

  5

  6

  7

 40
1.0
 41
2.5
 42
0.625
 43
3.75
 44
1.25
 45
0.0
 46
0.0
 47
0.0
 48
0.0
140
2.5
141
2.5
142
0.0
143
0.03937007874016
144
1.0
145
0.0
146
1.0
147
0.625
 71
     0
 72
     0
 73
     0
 74
     0
 75
     0
 76
     0
 77
     1
 78
     8
170
     0
171
     3
172
     1
173
     0
174
     0
175
     0
176
     0
177
     0
178
     0
270
     2
271
     2
272
     2
273
     2
274
     3
340
11
275
     0
280
     0
281
     0
282
     0
283
     0
284
     8
285
     0
286
     0
287
     3
288
     0
  0
DIMSTYLE
105
9F
330
A
100
AcDbSymbolTableRecord
100
AcDbDimStyleTableRecord
  2
STANDARD
 70
     0
  3

  4

  5

  6

  7

 40
1.0
 41
0.18
 42
0.0625
 43
0.38
 44
0.18
 45
0.0
 46
0.0
 47
0.0
 48
0.0
140
0.18
141
0.09
142
0.0
143
25.4
144
1.0
145
0.0
146
1.0
147
0.09
 71
     0
 72
     0
 73
     1
 74
     1
 75
     0
 76
     0
 77
     0
 78
     0
170
     0
171
     2
172
     0
173
     0
174
     0
175
     0
176
     0
177
     0
178
     0
270
     2
271
     4
272
     4
273
     2
274
     2
340
11
275
     0
280
     0
281
     0
282
     0
283
     1
284
     0
285
     0
286
     0
287
     3
288
     0
  0
ENDTAB
  0
TABLE
  2
BLOCK_RECORD
  5
1
330
0
100
AcDbSymbolTable
 70
     1
  0
BLOCK_RECORD
  5
1F
102
{ACAD_XDICTIONARY
360
574
102
}
330
1
100
AcDbSymbolTableRecord
100
AcDbBlockTableRecord
  2
*MODEL_SPACE
  0
BLOCK_RECORD
  5
50
102
{ACAD_XDICTIONARY
360
576
102
}
330
1
100
AcDbSymbolTableRecord
100
AcDbBlockTableRecord
  2
*PAPER_SPACE
  0
ENDTAB
  0
ENDSEC
  0
SECTION
  2
BLOCKS
  0
BLOCK
  5
20
330
1F
100
AcDbEntity
  8
0
100
AcDbBlockBegin
  2
*MODEL_SPACE
 70
     0
 10
0.0
 20
0.0
 30
0.0
  3
*MODEL_SPACE
  1

  0
ENDBLK
  5
21
330
1F
100
AcDbEntity
  8
0
100
AcDbBlockEnd
  0
BLOCK
  5
52
330
50
100
AcDbEntity
 67
     1
  8
0
100
AcDbBlockBegin
  2
*PAPER_SPACE
 70
     0
 10
0.0
 20
0.0
 30
0.0
  3
*PAPER_SPACE
  1

  0
ENDBLK
  5
53
330
50
100
AcDbEntity
 67
     1
  8
0
100
AcDbBlockEnd
  0
ENDSEC
  0
SECTION
  2
ENTITIES
  0
ARC
  5
24B
330
1F
100
AcDbEntity
  8
0
100
AcDbCircle
 10
1147.442610261578
 20
181.8416666234883
 30
0.0
 40
65.0
100
AcDbArc
 50
270.0
 51
0.000000000000007
  0
ARC
  5
24C
330
1F
100
AcDbEntity
  8
0
100
AcDbCircle
 10
1147.442610261578
 20
181.8416666234883
 30
0.0
 40
32.0
100
AcDbArc
 50
270.0
 51
0.000000000000007
  0
ARC
  5
24D
330
1F
100
AcDbEntity
  8
0
100
AcDbCircle
 10
1244.442610261579
 20
773.3416666234874
 30
0.0
 40
32.0
100
AcDbArc
 50
90.0
 51
180.0
  0
ARC
  5
24E
330
1F
100
AcDbEntity
  8
0
100
AcDbCircle
 10
1244.442610261579
 20
773.3416666234874
 30
0.0
 40
65.0
100
AcDbArc
 50
90.0
 51
180.0
  0
LINE
  5
24F
330
1F
100
AcDbEntity
  8
0
100
AcDbLine
 10
1835.942610261579
 20
838.3416666234873
 30
0.0
 11
1866.220406603915
 21
838.3416666234873
 31
0.0
  0
LINE
  5
250
330
1F
100
AcDbEntity
  8
0
100
AcDbLine
 10
1860.977642021336
 20
805.3416666234873
 30
0.0
 11
1835.942610261579
 21
805.3416666234873
 31
0.0
  0
LINE
  5
252
330
1F
100
AcDbEntity
  8
0
100
AcDbLine
 10
1867.942610261579
 20
870.3416666234877
 30
0.0
 11
1867.942610261579
 21
821.8416666234874
 31
0.0
  0
LINE
  5
253
330
1F
100
AcDbEntity
  8
0
100
AcDbLine
 10
1900.942610261579
 20
821.8416666234874
 30
0.0
 11
1900.942610261579
 21
870.3416666234877
 31
0.0
  0
ARC
  5
25E
330
1F
100
AcDbEntity
  8
0
100
AcDbCircle
 10
1132.442610261578
 20
673.3416666234875
 30
0.0
 40
2.0
100
AcDbArc
 50
270.0
 51
0.000000000000007
  0
ARC
  5
25F
330
1F
100
AcDbEntity
  8
0
100
AcDbCircle
 10
1132.442610261578
 20
739.3416666234875
 30
0.0
 40
2.0
100
AcDbArc
 50
0.000000000000007
 51
90.0
  0
ARC
  5
260
330
1F
100
AcDbEntity
  8
0
100
AcDbCircle
 10
1132.442610261578
 20
100.3416666234882
 30
0.0
 40
2.0
100
AcDbArc
 50
270.0
 51
0.000000000000007
  0
ARC
  5
261
330
1F
100
AcDbEntity
  8
0
100
AcDbCircle
 10
1132.442610261578
 20
166.3416666234883
 30
0.0
 40
2.0
100
AcDbArc
 50
0.000000000000007
 51
90.0
  0
ARC
  5
262
330
1F
100
AcDbEntity
  8
0
100
AcDbCircle
 10
1278.442610261579
 20
885.3416666234874
 30
0.0
 40
2.0
100
AcDbArc
 50
180.0
 51
270.0
  0
ARC
  5
263
330
1F
100
AcDbEntity
  8
0
100
AcDbCircle
 10
1344.442610261578
 20
885.3416666234874
 30
0.0
 40
2.0
100
AcDbArc
 50
270.0
 51
0.000000000000007
  0
ARC
  5
264
330
1F
100
AcDbEntity
  8
0
100
AcDbCircle
 10
1917.442610261579
 20
885.3416666234874
 30
0.0
 40
2.0
100
AcDbArc
 50
270.0
 51
0.000000000000007
  0
ARC
  5
265
330
1F
100
AcDbEntity
  8
0
100
AcDbCircle
 10
1851.442610261578
 20
885.3416666234874
 30
0.0
 40
2.0
100
AcDbArc
 50
180.0
 51
270.0
  0
LINE
  5
266
330
1F
100
AcDbEntity
  8
0
100
AcDbLine
 10
1134.442610261578
 20
116.8416666234882
 30
0.0
 11
1147.442610261578
 21
116.8416666234882
 31
0.0
  0
LINE
  5
267
330
1F
100
AcDbEntity
  8
0
100
AcDbLine
 10
1134.442610261578
 20
149.8416666234883
 30
0.0
 11
1147.442610261578
 21
149.8416666234883
 31
0.0
  0
LINE
  5
268
330
1F
100
AcDbEntity
  8
0
100
AcDbLine
 10
1212.442610261579
 20
181.8416666234883
 30
0.0
 11
1212.442610261579
 21
773.3416666234874
 31
0.0
  0
LINE
  5
269
330
1F
100
AcDbEntity
  8
0
100
AcDbLine
 10
1179.442610261578
 20
181.8416666234883
 30
0.0
 11
1179.442610261578
 21
689.8416666234875
 31
0.0
  0
LINE
  5
26A
330
1F
100
AcDbEntity
  8
0
100
AcDbLine
 10
1179.442610261578
 20
722.8416666234875
 30
0.0
 11
1179.442610261578
 21
773.3416666234874
 31
0.0
  0
LINE
  5
26B
330
1F
100
AcDbEntity
  8
0
100
AcDbLine
 10
1244.442610261579
 20
805.3416666234873
 30
0.0
 11
1835.942610261579
 21
805.3416666234873
 31
0.0
  0
LINE
  5
26C
330
1F
100
AcDbEntity
  8
0
100
AcDbLine
 10
1244.442610261579
 20
838.3416666234873
 30
0.0
 11
1294.942610261578
 21
838.3416666234873
 31
0.0
  0
LINE
  5
26D
330
1F
100
AcDbEntity
  8
0
100
AcDbLine
 10
1327.942610261579
 20
838.3416666234873
 30
0.0
 11
1835.942610261579
 21
838.3416666234873
 31
0.0
  0
LINE
  5
26E
330
1F
100
AcDbEntity
  8
0
100
AcDbLine
 10
1294.942610261578
 20
883.3416666234874
 30
0.0
 11
1294.942610261578
 21
838.3416666234873
 31
0.0
  0
LINE
  5
26F
330
1F
100
AcDbEntity
  8
0
100
AcDbLine
 10
1327.942610261579
 20
883.3416666234874
 30
0.0
 11
1327.942610261579
 21
838.3416666234873
 31
0.0
  0
LINE
  5
270
330
1F
100
AcDbEntity
  8
0
100
AcDbLine
 10
1134.442610261578
 20
689.8416666234875
 30
0.0
 11
1179.442610261578
 21
689.8416666234875
 31
0.0
  0
LINE
  5
271
330
1F
100
AcDbEntity
  8
0
100
AcDbLine
 10
1134.442610261578
 20
722.8416666234875
 30
0.0
 11
1179.442610261578
 21
722.8416666234875
 31
0.0
  0
LINE
  5
272
330
1F
100
AcDbEntity
  8
0
100
AcDbLine
 10
1900.942610261579
 20
883.3416666234874
 30
0.0
 11
1900.942610261579
 21
870.3416666234875
 31
0.0
  0
LINE
  5
273
330
1F
100
AcDbEntity
  8
0
100
AcDbLine
 10
1867.942610261579
 20
883.3416666234874
 30
0.0
 11
1867.942610261579
 21
870.3416666234875
 31
0.0
  0
LINE
  5
277
330
1F
100
AcDbEntity
  8
0
100
AcDbLine
 10
1827.09261026158
 20
799.8416666234883
 30
0.0
 11
1851.59261026158
 21
799.8416666234883
 31
0.0
  0
LINE
  5
27F
330
1F
100
AcDbEntity
  8
0
100
AcDbLine
 10
1857.742610261579
 20
799.8416666234867
 30
0.0
 11
1851.742610261579
 21
799.8416666234867
 31
0.0
  0
LINE
  5
286
330
1F
100
AcDbEntity
  8
0
100
AcDbLine
 10
1132.442610261578
 20
741.3416666234875
 30
0.0
 11
1122.442610261578
 21
741.3416666234875
 31
0.0
  0
LINE
  5
287
330
1F
100
AcDbEntity
  8
0
100
AcDbLine
 10
1132.442610261578
 20
671.3416666234875
 30
0.0
 11
1122.442610261578
 21
671.3416666234875
 31
0.0
  0
LINE
  5
288
330
1F
100
AcDbEntity
  8
0
100
AcDbLine
 10
1132.442610261578
 20
168.3416666234883
 30
0.0
 11
1122.442610261578
 21
168.3416666234883
 31
0.0
  0
LINE
  5
289
330
1F
100
AcDbEntity
  8
0
100
AcDbLine
 10
1132.442610261578
 20
98.34166662348831
 30
0.0
 11
1122.442610261578
 21
98.34166662348831
 31
0.0
  0
LINE
  5
28A
330
1F
100
AcDbEntity
  8
0
100
AcDbLine
 10
1346.442610261578
 20
885.3416666234874
 30
0.0
 11
1346.442610261578
 21
895.3416666234875
 31
0.0
  0
LINE
  5
28B
330
1F
100
AcDbEntity
  8
0
100
AcDbLine
 10
1276.442610261579
 20
885.3416666234874
 30
0.0
 11
1276.442610261579
 21
895.3416666234875
 31
0.0
  0
LINE
  5
28C
330
1F
100
AcDbEntity
  8
0
100
AcDbLine
 10
1849.442610261579
 20
885.3416666234874
 30
0.0
 11
1849.442610261579
 21
895.3416666234875
 31
0.0
  0
LINE
  5
28D
330
1F
100
AcDbEntity
  8
0
100
AcDbLine
 10
1919.442610261579
 20
885.3416666234874
 30
0.0
 11
1919.442610261579
 21
895.3416666234875
 31
0.0
  0
LINE
  5
28E
330
1F
100
AcDbEntity
  8
0
100
AcDbLine
 10
1851.442610261578
 20
883.3416666234874
 30
0.0
 11
1917.442610261579
 21
883.3416666234874
 31
0.0
  0
LINE
  5
28F
330
1F
100
AcDbEntity
  8
0
100
AcDbLine
 10
1849.442610261579
 20
895.3416666234875
 30
0.0
 11
1919.442610261579
 21
895.3416666234875
 31
0.0
  0
LINE
  5
290
330
1F
100
AcDbEntity
  8
0
100
AcDbLine
 10
1344.442610261578
 20
883.3416666234874
 30
0.0
 11
1278.442610261579
 21
883.3416666234874
 31
0.0
  0
LINE
  5
291
330
1F
100
AcDbEntity
  8
0
100
AcDbLine
 10
1346.442610261578
 20
895.3416666234875
 30
0.0
 11
1276.442610261579
 21
895.3416666234875
 31
0.0
  0
LINE
  5
292
330
1F
100
AcDbEntity
  8
0
100
AcDbLine
 10
1134.442610261578
 20
166.3416666234883
 30
0.0
 11
1134.442610261578
 21
100.3416666234882
 31
0.0
  0
LINE
  5
293
330
1F
100
AcDbEntity
  8
0
100
AcDbLine
 10
1122.442610261578
 20
168.3416666234883
 30
0.0
 11
1122.442610261578
 21
98.34166662348831
 31
0.0
  0
LINE
  5
294
330
1F
100
AcDbEntity
  8
0
100
AcDbLine
 10
1134.442610261578
 20
739.3416666234875
 30
0.0
 11
1134.442610261578
 21
673.3416666234875
 31
0.0
  0
LINE
  5
295
330
1F
100
AcDbEntity
  8
0
100
AcDbLine
 10
1122.442610261578
 20
741.3416666234875
 30
0.0
 11
1122.442610261578
 21
671.3416666234875
 31
0.0
  0
LINE
  5
2BE
330
1F
100
AcDbEntity
  8
0
100
AcDbLine
 10
1195.942610261579
 20
706.3416666234875
 30
0.0
 11
1179.442610261578
 21
722.8416666234875
 31
0.0
  0
LINE
  5
2BF
330
1F
100
AcDbEntity
  8
0
100
AcDbLine
 10
1179.442610261578
 20
689.8416666234875
 30
0.0
 11
1195.942610261579
 21
706.3416666234875
 31
0.0
  0
LINE
  5
2C0
330
1F
100
AcDbEntity
  8
0
100
AcDbLine
 10
1311.442610261579
 20
821.8416666234874
 30
0.0
 11
1327.942610261579
 21
838.3416666234873
 31
0.0
  0
LINE
  5
2C1
330
1F
100
AcDbEntity
  8
0
100
AcDbLine
 10
1294.942610261578
 20
838.3416666234873
 30
0.0
 11
1311.442610261579
 21
821.8416666234874
 31
0.0
  0
LINE
  5
2C2
330
1F
100
AcDbEntity
  8
0
100
AcDbLine
 10
2884.012610263576
 20
1110.911666635487
 30
0.00000000000014
 11
2835.512610263577
 21
1110.911666635487
 31
0.0000000000001311
210
0.0
220
1.0
230
0.0
  0
LINE
  5
2C3
330
1F
100
AcDbEntity
  8
0
100
AcDbLine
 10
2835.512610263577
 20
1077.911666635487
 30
0.0000000000001311
 11
2884.012610263576
 21
1077.911666635487
 31
0.00000000000014
210
0.0
220
1.0
230
0.0
  0
LINE
  5
2C4
330
1F
100
AcDbEntity
  8
0
100
AcDbLine
 10
2195.512610263578
 20
1077.911666635487
 30
0.0000000000000135
 11
2244.012610263578
 21
1077.911666635487
 31
0.0000000000000224
210
0.0
220
1.0
230
0.0
  0
LINE
  5
2C5
330
1F
100
AcDbEntity
  8
0
100
AcDbLine
 10
2244.012610263578
 20
1110.911666635487
 30
0.0000000000000224
 11
2212.012610263578
 21
1110.911666635487
 31
0.0000000000000165
210
0.0
220
1.0
230
0.0
  0
LINE
  5
2C6
330
1F
100
AcDbEntity
  8
0
100
AcDbLine
 10
2179.012610263578
 20
1142.911666635487
 30
0.0000000000000105
 11
2179.012610263578
 21
1094.411666635487
 31
0.0000000000000105
210
0.0
220
1.0
230
0.0
  0
LINE
  5
2C7
330
1F
100
AcDbEntity
  8
0
100
AcDbLine
 10
2212.012610263578
 20
1094.411666635487
 30
0.0000000000000165
 11
2212.012610263578
 21
1142.911666635487
 31
0.0000000000000165
210
0.0
220
1.0
230
0.0
  0
ARC
  5
2C8
330
1F
100
AcDbEntity
  8
0
100
AcDbCircle
 10
2147.012610263578
 20
2145.911666635487
 30
0.0000000000000046
 40
65.0
100
AcDbArc
 50
0.000000000000007
 51
90.0
  0
ARC
  5
2C9
330
1F
100
AcDbEntity
  8
0
100
AcDbCircle
 10
2147.012610263578
 20
2145.911666635487
 30
0.0000000000000046
 40
32.0
100
AcDbArc
 50
0.000000000000007
 51
90.0
  0
ARC
  5
2CF
330
1F
100
AcDbEntity
  8
0
100
AcDbCircle
 10
2132.012610263578
 20
1127.411666635487
 30
0.0000000000000018
 40
2.0
100
AcDbArc
 50
0.000000000000007
 51
90.0
  0
ARC
  5
2D0
330
1F
100
AcDbEntity
  8
0
100
AcDbCircle
 10
2132.012610263578
 20
1061.411666635487
 30
0.0000000000000018
 40
2.0
100
AcDbArc
 50
270.0
 51
0.000000000000007
  0
ARC
  5
2D1
330
1F
100
AcDbEntity
  8
0
100
AcDbCircle
 10
2132.012610263578
 20
1242.411666635487
 30
0.0000000000000018
 40
2.0
100
AcDbArc
 50
0.000000000000007
 51
90.0
  0
ARC
  5
2D2
330
1F
100
AcDbEntity
  8
0
100
AcDbCircle
 10
2132.012610263578
 20
1176.411666635487
 30
0.0000000000000018
 40
2.0
100
AcDbArc
 50
270.0
 51
0.000000000000007
  0
ARC
  5
2D3
330
1F
100
AcDbEntity
  8
0
100
AcDbCircle
 10
2132.012610263578
 20
2227.411666635487
 30
0.0000000000000018
 40
2.0
100
AcDbArc
 50
0.000000000000007
 51
90.0
  0
ARC
  5
2D4
330
1F
100
AcDbEntity
  8
0
100
AcDbCircle
 10
2132.012610263578
 20
2161.411666635487
 30
0.0000000000000018
 40
2.0
100
AcDbArc
 50
270.0
 51
0.000000000000007
  0
LINE
  5
2D5
330
1F
100
AcDbEntity
  8
0
100
AcDbLine
 10
2134.012610263578
 20
1225.911666635487
 30
0.0000000000000022
 11
2179.012610263578
 21
1225.911666635487
 31
0.0000000000000105
210
0.0
220
1.0
230
0.0
  0
LINE
  5
2D6
330
1F
100
AcDbEntity
  8
0
100
AcDbLine
 10
2134.012610263578
 20
1192.911666635487
 30
0.0000000000000022
 11
2179.012610263578
 21
1192.911666635487
 31
0.0000000000000105
210
0.0
220
1.0
230
0.0
  0
LINE
  5
2D7
330
1F
100
AcDbEntity
  8
0
100
AcDbLine
 10
2212.012610263578
 20
1739.911666635509
 30
0.0000000000000165
 11
2212.012610263578
 21
1142.911666635487
 31
0.0000000000000165
210
0.0
220
1.0
230
0.0
  0
LINE
  5
2D8
330
1F
100
AcDbEntity
  8
0
100
AcDbLine
 10
2212.012610263578
 20
2145.911666635487
 30
0.0000000000000165
 11
2212.012610263578
 21
1847.869098084072
 31
0.0000000000000165
210
0.0
220
1.0
230
0.0
  0
LINE
  5
2D9
330
1F
100
AcDbEntity
  8
0
100
AcDbLine
 10
2179.012610263578
 20
1739.911666635509
 30
0.0000000000000105
 11
2179.012610263578
 21
1225.911666635487
 31
0.0000000000000105
210
0.0
220
1.0
230
0.0
  0
LINE
  5
2DA
330
1F
100
AcDbEntity
  8
0
100
AcDbLine
 10
2179.012610263578
 20
2145.911666635487
 30
0.0000000000000105
 11
2179.012610263578
 21
1847.90559113843
 31
0.0000000000000105
210
0.0
220
1.0
230
0.0
  0
LINE
  5
2DB
330
1F
100
AcDbEntity
  8
0
100
AcDbLine
 10
2179.012610263578
 20
1192.911666635487
 30
0.0000000000000105
 11
2179.012610263578
 21
1142.911666635487
 31
0.0000000000000105
210
0.0
220
1.0
230
0.0
  0
LINE
  5
2DC
330
1F
100
AcDbEntity
  8
0
100
AcDbLine
 10
2835.512610263577
 20
1077.911666635487
 30
0.0000000000001311
 11
2244.012610263578
 21
1077.911666635487
 31
0.0000000000000224
210
0.0
220
1.0
230
0.0
  0
LINE
  5
2DD
330
1F
100
AcDbEntity
  8
0
100
AcDbLine
 10
2835.512610263577
 20
1110.911666635487
 30
0.0000000000001311
 11
2244.012610263578
 21
1110.911666635487
 31
0.0000000000000224
210
0.0
220
1.0
230
0.0
  0
LINE
  5
2DE
330
1F
100
AcDbEntity
  8
0
100
AcDbLine
 10
2134.012610263578
 20
1110.911666635487
 30
0.0000000000000022
 11
2179.012610263578
 21
1110.911666635487
 31
0.0000000000000105
210
0.0
220
1.0
230
0.0
  0
LINE
  5
2DF
330
1F
100
AcDbEntity
  8
0
100
AcDbLine
 10
2134.012610263578
 20
1077.911666635487
 30
0.0000000000000022
 11
2195.512610263578
 21
1077.911666635487
 31
0.0000000000000135
210
0.0
220
1.0
230
0.0
  0
LINE
  5
2E0
330
1F
100
AcDbEntity
  8
0
100
AcDbLine
 10
2134.012610263578
 20
2210.911666635487
 30
0.0000000000000022
 11
2147.012610263578
 21
2210.911666635487
 31
0.0000000000000046
210
0.0
220
1.0
230
0.0
  0
LINE
  5
2E1
330
1F
100
AcDbEntity
  8
0
100
AcDbLine
 10
2134.012610263578
 20
2177.911666635487
 30
0.0000000000000022
 11
2147.012610263578
 21
2177.911666635487
 31
0.0000000000000046
210
0.0
220
1.0
230
0.0
  0
LINE
  5
2E9
330
1F
100
AcDbEntity
  8
0
100
AcDbLine
 10
2132.012610263578
 20
1059.411666635487
 30
0.0000000000000018
 11
2122.012610263578
 21
1059.411666635487
 31
0.0
210
0.0
220
1.0
230
0.0
  0
LINE
  5
2EA
330
1F
100
AcDbEntity
  8
0
100
AcDbLine
 10
2132.012610263578
 20
1129.411666635487
 30
0.0000000000000018
 11
2122.012610263578
 21
1129.411666635487
 31
0.0
210
0.0
220
1.0
230
0.0
  0
LINE
  5
2EB
330
1F
100
AcDbEntity
  8
0
100
AcDbLine
 10
2132.012610263578
 20
1174.411666635487
 30
0.0000000000000018
 11
2122.012610263578
 21
1174.411666635487
 31
0.0
210
0.0
220
1.0
230
0.0
  0
LINE
  5
2EC
330
1F
100
AcDbEntity
  8
0
100
AcDbLine
 10
2132.012610263578
 20
1244.411666635487
 30
0.0000000000000018
 11
2122.012610263578
 21
1244.411666635487
 31
0.0
210
0.0
220
1.0
230
0.0
  0
LINE
  5
2ED
330
1F
100
AcDbEntity
  8
0
100
AcDbLine
 10
2132.012610263578
 20
2159.411666635487
 30
0.0000000000000018
 11
2122.012610263578
 21
2159.411666635487
 31
0.0
210
0.0
220
1.0
230
0.0
  0
LINE
  5
2EE
330
1F
100
AcDbEntity
  8
0
100
AcDbLine
 10
2132.012610263578
 20
2229.411666635487
 30
0.0000000000000018
 11
2122.012610263578
 21
2229.411666635487
 31
0.0
210
0.0
220
1.0
230
0.0
  0
LINE
  5
2EF
330
1F
100
AcDbEntity
  8
0
100
AcDbLine
 10
2134.012610263578
 20
2161.411666635487
 30
0.0000000000000022
 11
2134.012610263578
 21
2194.411666635487
 31
0.0000000000000022
210
0.0
220
1.0
230
0.0
  0
LINE
  5
2F0
330
1F
100
AcDbEntity
  8
0
100
AcDbLine
 10
2134.012610263578
 20
2194.411666635487
 30
0.0000000000000022
 11
2134.012610263578
 21
2227.411666635487
 31
0.0000000000000022
210
0.0
220
1.0
230
0.0
  0
LINE
  5
2F1
330
1F
100
AcDbEntity
  8
0
100
AcDbLine
 10
2122.012610263578
 20
2159.411666635487
 30
0.0
 11
2122.012610263578
 21
2194.411666635487
 31
0.0
210
0.0
220
1.0
230
0.0
  0
LINE
  5
2F2
330
1F
100
AcDbEntity
  8
0
100
AcDbLine
 10
2122.012610263578
 20
2194.411666635487
 30
0.0
 11
2122.012610263578
 21
2229.411666635487
 31
0.0
210
0.0
220
1.0
230
0.0
  0
LINE
  5
2F3
330
1F
100
AcDbEntity
  8
0
100
AcDbLine
 10
2134.012610263578
 20
1176.411666635487
 30
0.0000000000000022
 11
2134.012610263578
 21
1209.411666635487
 31
0.0000000000000022
210
0.0
220
1.0
230
0.0
  0
LINE
  5
2F4
330
1F
100
AcDbEntity
  8
0
100
AcDbLine
 10
2134.012610263578
 20
1209.411666635487
 30
0.0000000000000022
 11
2134.012610263578
 21
1242.411666635487
 31
0.0000000000000022
210
0.0
220
1.0
230
0.0
  0
LINE
  5
2F5
330
1F
100
AcDbEntity
  8
0
100
AcDbLine
 10
2122.012610263578
 20
1174.411666635487
 30
0.0
 11
2122.012610263578
 21
1209.411666635487
 31
0.0
210
0.0
220
1.0
230
0.0
  0
LINE
  5
2F6
330
1F
100
AcDbEntity
  8
0
100
AcDbLine
 10
2122.012610263578
 20
1209.411666635487
 30
0.0
 11
2122.012610263578
 21
1244.411666635487
 31
0.0
210
0.0
220
1.0
230
0.0
  0
LINE
  5
2F7
330
1F
100
AcDbEntity
  8
0
100
AcDbLine
 10
2134.012610263578
 20
1061.411666635487
 30
0.0000000000000022
 11
2134.012610263578
 21
1094.411666635487
 31
0.0000000000000022
210
0.0
220
1.0
230
0.0
  0
LINE
  5
2F8
330
1F
100
AcDbEntity
  8
0
100
AcDbLine
 10
2134.012610263578
 20
1094.411666635487
 30
0.0000000000000022
 11
2134.012610263578
 21
1127.411666635487
 31
0.0000000000000022
210
0.0
220
1.0
230
0.0
  0
LINE
  5
2F9
330
1F
100
AcDbEntity
  8
0
100
AcDbLine
 10
2122.012610263578
 20
1059.411666635487
 30
0.0
 11
2122.012610263578
 21
1094.411666635487
 31
0.0
210
0.0
220
1.0
230
0.0
  0
LINE
  5
2FA
330
1F
100
AcDbEntity
  8
0
100
AcDbLine
 10
2122.012610263578
 20
1094.411666635487
 30
0.0
 11
2122.012610263578
 21
1129.411666635487
 31
0.0
210
0.0
220
1.0
230
0.0
  0
ARC
  5
2FB
330
1F
100
AcDbEntity
  8
0
100
AcDbCircle
 10
2884.012610263576
 20
1094.411666635487
 30
0.00000000000014
 40
16.8
100
AcDbArc
 50
259.1559374363121
 51
100.8440625636878
  0
ARC
  5
2FC
330
1F
100
AcDbEntity
  8
0
100
AcDbCircle
 10
2884.012610263576
 20
1094.411666635487
 30
0.00000000000014
 40
35.0
100
AcDbArc
 50
208.1270682186031
 51
151.8729317813968
  0
ARC
  5
2FD
330
1F
100
AcDbEntity
  8
0
100
AcDbCircle
 10
2311.012610263578
 20
1094.411666635487
 30
0.0000000000000347
 40
16.8
100
AcDbArc
 50
259.1559374363121
 51
280.8440625636878
  0
ARC
  5
2FE
330
1F
100
AcDbEntity
  8
0
100
AcDbCircle
 10
2311.012610263578
 20
1094.411666635487
 30
0.0000000000000347
 40
16.8
100
AcDbArc
 50
79.1559374363122
 51
100.8440625636878
  0
ARC
  5
2FF
330
1F
100
AcDbEntity
  8
0
100
AcDbCircle
 10
2311.012610263578
 20
1094.411666635487
 30
0.0000000000000347
 40
35.0
100
AcDbArc
 50
208.1270682186031
 51
331.8729317813969
  0
ARC
  5
300
330
1F
100
AcDbEntity
  8
0
100
AcDbCircle
 10
2311.012610263578
 20
1094.411666635487
 30
0.0000000000000347
 40
35.0
100
AcDbArc
 50
28.12706821860308
 51
151.8729317813968
  0
LINE
  5
305
330
1F
100
AcDbEntity
  8
0
100
AcDbLine
 10
2214.512610263577
 20
1739.911666635509
 30
0.000000000000017
 11
2176.512610263578
 21
1739.911666635509
 31
0.00000000000001
210
0.0
220
1.0
230
0.0
  0
ARC
  5
31E
330
1F
100
AcDbEntity
  8
0
100
AcDbCircle
 10
2195.512610263578
 20
1094.411666635487
 30
0.0000000000000135
 40
16.5
100
AcDbArc
 50
180.0
 51
0.000000000000007
  0
ARC
  5
31F
330
1F
100
AcDbEntity
  8
0
100
AcDbCircle
 10
2884.012610263576
 20
1094.411666635487
 30
0.00000000000014
 40
16.5
100
AcDbArc
 50
270.0
 51
90.0
  0
LINE
  5
320
330
1F
100
AcDbEntity
  8
0
100
AcDbLine
 10
2195.512610263578
 20
1209.411666635487
 30
0.0000000000000135
 11
2179.012610263578
 21
1225.911666635487
 31
0.0000000000000105
210
0.0
220
1.0
230
0.0
  0
LINE
  5
321
330
1F
100
AcDbEntity
  8
0
100
AcDbLine
 10
2179.012610263578
 20
1192.911666635487
 30
0.0000000000000105
 11
2195.512610263578
 21
1209.411666635487
 31
0.0000000000000135
210
0.0
220
1.0
230
0.0
  0
LINE
  5
322
330
1F
100
AcDbEntity
  8
0
100
AcDbLine
 10
1147.442610261578
 20
1110.911666635487
 30
-0.0000000000000031
 11
1195.942610261579
 21
1110.911666635487
 31
-0.000000000000009
210
0.0
220
1.0
230
0.0
  0
LINE
  5
323
330
1F
100
AcDbEntity
  8
0
100
AcDbLine
 10
1195.942610261579
 20
1077.911666635487
 30
-0.000000000000009
 11
1147.442610261578
 21
1077.911666635487
 31
-0.0000000000000031
210
0.0
220
1.0
230
0.0
  0
LINE
  5
324
330
1F
100
AcDbEntity
  8
0
100
AcDbLine
 10
1244.442610261579
 20
1077.911666635487
 30
-0.0000000000000149
 11
1195.942610261579
 21
1077.911666635487
 31
-0.000000000000009
210
0.0
220
1.0
230
0.0
  0
LINE
  5
325
330
1F
100
AcDbEntity
  8
0
100
AcDbLine
 10
1195.942610261579
 20
1110.911666635487
 30
-0.000000000000009
 11
1244.442610261579
 21
1110.911666635487
 31
-0.0000000000000149
210
0.0
220
1.0
230
0.0
  0
ARC
  5
326
330
1F
100
AcDbEntity
  8
0
100
AcDbCircle
 10
1835.942610261579
 20
1142.911666635487
 30
-0.0000000000000874
 40
32.0
100
AcDbArc
 50
270.0
 51
0.000000000000007
  0
ARC
  5
327
330
1F
100
AcDbEntity
  8
0
100
AcDbCircle
 10
1835.942610261579
 20
1142.911666635487
 30
-0.0000000000000874
 40
65.0
100
AcDbArc
 50
270.0
 51
0.000000000000007
  0
LINE
  5
328
330
1F
100
AcDbEntity
  8
0
100
AcDbLine
 10
1900.942610261579
 20
2194.411666635487
 30
-0.0000000000000953
 11
1900.942610261579
 21
2145.911666635487
 31
-0.0000000000000953
210
0.0
220
1.0
230
0.0
  0
LINE
  5
329
330
1F
100
AcDbEntity
  8
0
100
AcDbLine
 10
1867.942610261579
 20
2145.911666635487
 30
-0.0000000000000913
 11
1867.942610261579
 21
2194.411666635487
 31
-0.0000000000000913
210
0.0
220
1.0
230
0.0
  0
ARC
  5
333
330
1F
100
AcDbEntity
  8
0
100
AcDbCircle
 10
1904.132160553743
 20
1740.61166663551
 30
-0.000000000000091
 40
0.6999999999999319
100
AcDbArc
 50
270.0000000000045
 51
0.0000000000045797
  0
ARC
  5
334
330
1F
100
AcDbEntity
  8
0
100
AcDbCircle
 10
1866.132160553744
 20
1740.611666635507
 30
-0.0000000000000956
 40
0.6999999999999319
100
AcDbArc
 50
179.9999999999915
 51
270.0000000000045
  0
ARC
  5
337
330
1F
100
AcDbEntity
  8
0
100
AcDbCircle
 10
1132.442610261578
 20
1061.411666635487
 30
-0.0000000000000012
 40
2.0
100
AcDbArc
 50
270.0
 51
0.000000000000007
  0
ARC
  5
338
330
1F
100
AcDbEntity
  8
0
100
AcDbCircle
 10
1132.442610261578
 20
1127.411666635487
 30
-0.0000000000000012
 40
2.0
100
AcDbArc
 50
0.000000000000007
 51
90.0
  0
LINE
  5
339
330
1F
100
AcDbEntity
  8
0
100
AcDbLine
 10
1867.942610261579
 20
1739.911666635509
 30
-0.0000000000000913
 11
1867.942610261579
 21
1142.911666635487
 31
-0.0000000000000913
210
0.0
220
1.0
230
0.0
  0
LINE
  5
33A
330
1F
100
AcDbEntity
  8
0
100
AcDbLine
 10
1867.942610261579
 20
2145.911666635487
 30
-0.0000000000000913
 11
1867.942610261579
 21
1847.911689179836
 31
-0.0000000000000913
210
0.0
220
1.0
230
0.0
  0
LINE
  5
33B
330
1F
100
AcDbEntity
  8
0
100
AcDbLine
 10
1900.942610261579
 20
1739.911666635509
 30
-0.0000000000000953
 11
1900.942610261579
 21
1142.911666635487
 31
-0.0000000000000953
210
0.0
220
1.0
230
0.0
  0
LINE
  5
33C
330
1F
100
AcDbEntity
  8
0
100
AcDbLine
 10
1900.942610261579
 20
2145.911666635487
 30
-0.0000000000000953
 11
1900.942610261579
 21
1847.911689179836
 31
-0.0000000000000953
210
0.0
220
1.0
230
0.0
  0
LINE
  5
33D
330
1F
100
AcDbEntity
  8
0
100
AcDbLine
 10
1134.442610261578
 20
1077.911666635487
 30
-0.0000000000000015
 11
1147.442610261578
 21
1077.911666635487
 31
-0.0000000000000031
210
0.0
220
1.0
230
0.0
  0
LINE
  5
33E
330
1F
100
AcDbEntity
  8
0
100
AcDbLine
 10
1134.442610261578
 20
1110.911666635487
 30
-0.0000000000000015
 11
1147.442610261578
 21
1110.911666635487
 31
-0.0000000000000031
210
0.0
220
1.0
230
0.0
  0
LINE
  5
33F
330
1F
100
AcDbEntity
  8
0
100
AcDbLine
 10
1244.442610261579
 20
1077.911666635487
 30
-0.0000000000000149
 11
1835.942610261579
 21
1077.911666635487
 31
-0.0000000000000874
210
0.0
220
1.0
230
0.0
  0
LINE
  5
340
330
1F
100
AcDbEntity
  8
0
100
AcDbLine
 10
1244.442610261579
 20
1110.911666635487
 30
-0.0000000000000149
 11
1835.942610261579
 21
1110.911666635487
 31
-0.0000000000000874
210
0.0
220
1.0
230
0.0
  0
LINE
  5
34E
330
1F
100
AcDbEntity
  8
0
100
AcDbLine
 10
1865.432160553743
 20
1740.611666635507
 30
-0.0000000000000957
 11
1865.432160553742
 21
1751.824773018931
 31
-0.0000000000000957
210
-0.0000000000000798
220
1.0
230
0.0
  0
LINE
  5
350
330
1F
100
AcDbEntity
  8
0
100
AcDbLine
 10
1904.832160553743
 20
1740.61166663551
 30
-0.0000000000000909
 11
1904.832160553742
 21
1751.824773018931
 31
-0.0000000000000909
210
-0.0000000000000798
220
1.0
230
0.0
  0
LINE
  5
35B
330
1F
100
AcDbEntity
  8
0
100
AcDbLine
 10
1132.442610261578
 20
1129.411666635487
 30
-0.0000000000000012
 11
1122.442610261578
 21
1129.411666635487
 31
0.0
210
0.0
220
1.0
230
0.0
  0
LINE
  5
35C
330
1F
100
AcDbEntity
  8
0
100
AcDbLine
 10
1132.442610261578
 20
1059.411666635487
 30
-0.0000000000000012
 11
1122.442610261578
 21
1059.411666635487
 31
0.0
210
0.0
220
1.0
230
0.0
  0
ARC
  5
35D
330
1F
100
AcDbEntity
  8
0
100
AcDbCircle
 10
1884.442610261578
 20
2194.411666635487
 30
-0.0000000000000933
 40
16.8
100
AcDbArc
 50
349.1559374362996
 51
0.000000000000007
  0
ARC
  5
35E
330
1F
100
AcDbEntity
  8
0
100
AcDbCircle
 10
1884.442610261578
 20
2194.411666635487
 30
-0.0000000000000933
 40
16.8
100
AcDbArc
 50
0.000000000000007
 51
190.8440625637003
  0
ARC
  5
35F
330
1F
100
AcDbEntity
  8
0
100
AcDbCircle
 10
1884.442610261578
 20
2194.411666635487
 30
-0.0000000000000933
 40
35.0
100
AcDbArc
 50
298.1270682186032
 51
0.000000000000007
  0
ARC
  5
360
330
1F
100
AcDbEntity
  8
0
100
AcDbCircle
 10
1884.442610261578
 20
2194.411666635487
 30
-0.0000000000000933
 40
35.0
100
AcDbArc
 50
0.000000000000007
 51
241.8729317813966
  0
ARC
  5
361
330
1F
100
AcDbEntity
  8
0
100
AcDbCircle
 10
1884.442610261578
 20
1209.411666635487
 30
-0.0000000000000933
 40
16.8
100
AcDbArc
 50
349.1559374362996
 51
0.000000000000007
  0
ARC
  5
362
330
1F
100
AcDbEntity
  8
0
100
AcDbCircle
 10
1884.442610261578
 20
1209.411666635487
 30
-0.0000000000000933
 40
16.8
100
AcDbArc
 50
169.1559374362995
 51
190.8440625637003
  0
ARC
  5
363
330
1F
100
AcDbEntity
  8
0
100
AcDbCircle
 10
1884.442610261578
 20
1209.411666635487
 30
-0.0000000000000933
 40
16.8
100
AcDbArc
 50
0.000000000000007
 51
10.84406256370032
  0
ARC
  5
364
330
1F
100
AcDbEntity
  8
0
100
AcDbCircle
 10
1884.442610261578
 20
1209.411666635487
 30
-0.0000000000000933
 40
35.0
100
AcDbArc
 50
298.1270682186032
 51
0.000000000000007
  0
ARC
  5
365
330
1F
100
AcDbEntity
  8
0
100
AcDbCircle
 10
1884.442610261578
 20
1209.411666635487
 30
-0.0000000000000933
 40
35.0
100
AcDbArc
 50
118.1270682186033
 51
241.8729317813966
  0
ARC
  5
366
330
1F
100
AcDbEntity
  8
0
100
AcDbCircle
 10
1884.442610261578
 20
1209.411666635487
 30
-0.0000000000000933
 40
35.0
100
AcDbArc
 50
0.000000000000007
 51
61.87293178139674
  0
ARC
  5
367
330
1F
100
AcDbEntity
  8
0
100
AcDbCircle
 10
1311.442610261579
 20
1094.411666635487
 30
-0.0000000000000231
 40
16.8
100
AcDbArc
 50
259.1559374363121
 51
280.8440625637008
  0
ARC
  5
368
330
1F
100
AcDbEntity
  8
0
100
AcDbCircle
 10
1311.442610261579
 20
1094.411666635487
 30
-0.0000000000000231
 40
16.8
100
AcDbArc
 50
79.1559374362993
 51
100.8440625637006
  0
ARC
  5
369
330
1F
100
AcDbEntity
  8
0
100
AcDbCircle
 10
1311.442610261579
 20
1094.411666635487
 30
-0.0000000000000231
 40
35.0
100
AcDbArc
 50
208.1270682186031
 51
331.8729317813968
  0
ARC
  5
36A
330
1F
100
AcDbEntity
  8
0
100
AcDbCircle
 10
1311.442610261579
 20
1094.411666635487
 30
-0.0000000000000231
 40
35.0
100
AcDbArc
 50
28.12706821860312
 51
151.8729317813969
  0
LINE
  5
36B
330
1F
100
AcDbEntity
  8
0
100
AcDbLine
 10
1134.442610261578
 20
1127.411666635487
 30
-0.0000000000000015
 11
1134.442610261578
 21
1061.411666635487
 31
-0.0000000000000015
210
0.0
220
1.0
230
0.0
  0
LINE
  5
36C
330
1F
100
AcDbEntity
  8
0
100
AcDbLine
 10
1122.442610261578
 20
1129.411666635487
 30
0.0
 11
1122.442610261578
 21
1059.411666635487
 31
0.0
210
0.0
220
1.0
230
0.0
  0
LINE
  5
380
330
1F
100
AcDbEntity
  8
0
100
AcDbLine
 10
1904.132160553743
 20
1739.91166663551
 30
-0.000000000000091
 11
1866.132160553744
 21
1739.911666635507
 31
-0.0000000000000956
210
-0.0000000000000798
220
1.0
230
0.0
  0
ARC
  5
397
330
1F
100
AcDbEntity
  8
0
100
AcDbCircle
 10
1884.442610261578
 20
2194.411666635487
 30
-0.0000000000000933
 40
16.5
100
AcDbArc
 50
0.000000000000007
 51
180.0
  0
ARC
  5
398
330
1F
100
AcDbEntity
  8
0
100
AcDbCircle
 10
1195.942610261579
 20
1094.411666635487
 30
-0.000000000000009
 40
16.5
100
AcDbArc
 50
270.0
 51
90.0
  0
LINE
  5
399
330
1F
100
AcDbEntity
  8
0
100
AcDbLine
 10
214.683306375437
 20
1110.911666635487
 30
-0.0000000000000465
 11
211.5226102495816
 21
1110.911666635487
 31
-0.0000000000000467
210
0.0
220
1.0
230
0.0
  0
LINE
  5
39A
330
1F
100
AcDbEntity
  8
0
100
AcDbLine
 10
260.0226102495816
 20
1110.911666635487
 30
-0.0000000000000437
 11
242.389258917683
 21
1110.911666635487
 31
-0.0000000000000448
210
0.0
220
1.0
230
0.0
  0
LINE
  5
39B
330
1F
100
AcDbEntity
  8
0
100
AcDbLine
 10
242.389258917683
 20
1077.911666635487
 30
-0.0000000000000448
 11
260.0226102495816
 21
1077.911666635487
 31
-0.0000000000000437
210
0.0
220
1.0
230
0.0
  0
LINE
  5
39C
330
1F
100
AcDbEntity
  8
0
100
AcDbLine
 10
211.5226102495816
 20
1077.911666635487
 30
-0.0000000000000467
 11
214.683306375437
 21
1077.911666635487
 31
-0.0000000000000465
210
0.0
220
1.0
230
0.0
  0
LINE
  5
39D
330
1F
100
AcDbEntity
  8
0
100
AcDbLine
 10
851.5226102495807
 20
1077.911666635487
 30
-0.0000000000000075
 11
900.0226102495808
 21
1077.911666635487
 31
-0.0000000000000045
210
0.0
220
1.0
230
0.0
  0
LINE
  5
39E
330
1F
100
AcDbEntity
  8
0
100
AcDbLine
 10
900.0226102495808
 20
1110.911666635487
 30
-0.0000000000000045
 11
851.5226102495807
 21
1110.911666635487
 31
-0.0000000000000075
210
0.0
220
1.0
230
0.0
  0
LINE
  5
39F
330
1F
100
AcDbEntity
  8
0
100
AcDbLine
 10
916.5226102495807
 20
1110.911666635487
 30
-0.0000000000000035
 11
916.5226102495807
 21
1142.911666635487
 31
-0.0000000000000035
210
0.0
220
1.0
230
0.0
  0
LINE
  5
3A0
330
1F
100
AcDbEntity
  8
0
100
AcDbLine
 10
883.5226102495807
 20
1142.911666635487
 30
-0.0000000000000055
 11
883.5226102495807
 21
1110.911666635487
 31
-0.0000000000000055
210
0.0
220
1.0
230
0.0
  0
ARC
  5
3A1
330
1F
100
AcDbEntity
  8
0
100
AcDbCircle
 10
948.5226102495808
 20
2145.911666635487
 30
-0.0000000000000015
 40
32.0
100
AcDbArc
 50
90.0
 51
180.0
  0
ARC
  5
3A2
330
1F
100
AcDbEntity
  8
0
100
AcDbCircle
 10
948.5226102495808
 20
2145.911666635487
 30
-0.0000000000000015
 40
65.0
100
AcDbArc
 50
90.0
 51
180.0
  0
ARC
  5
3A4
330
1F
100
AcDbEntity
  8
0
100
AcDbCircle
 10
919.0226102495808
 20
1740.611666635508
 30
-0.0000000000000033
 40
0.6999999999999319
100
AcDbArc
 50
270.0
 51
0.000000000000007
  0
ARC
  5
3A5
330
1F
100
AcDbEntity
  8
0
100
AcDbCircle
 10
881.0226102495816
 20
1740.611666635508
 30
-0.0000000000000057
 40
0.6999999999999319
100
AcDbArc
 50
180.0
 51
270.0
  0
ARC
  5
3A8
330
1F
100
AcDbEntity
  8
0
100
AcDbCircle
 10
963.5226102495808
 20
1061.411666635487
 30
-0.0000000000000006
 40
2.0
100
AcDbArc
 50
180.0
 51
270.0
  0
ARC
  5
3A9
330
1F
100
AcDbEntity
  8
0
100
AcDbCircle
 10
963.5226102495808
 20
1127.411666635487
 30
-0.0000000000000006
 40
2.0
100
AcDbArc
 50
90.0
 51
180.0
  0
ARC
  5
3AA
330
1F
100
AcDbEntity
  8
0
100
AcDbCircle
 10
963.5226102495808
 20
1176.411666635487
 30
-0.0000000000000006
 40
2.0
100
AcDbArc
 50
180.0
 51
270.0
  0
ARC
  5
3AB
330
1F
100
AcDbEntity
  8
0
100
AcDbCircle
 10
963.5226102495808
 20
1242.411666635487
 30
-0.0000000000000006
 40
2.0
100
AcDbArc
 50
90.0
 51
180.0
  0
ARC
  5
3AC
330
1F
100
AcDbEntity
  8
0
100
AcDbCircle
 10
963.5226102495808
 20
2161.411666635487
 30
-0.0000000000000006
 40
2.0
100
AcDbArc
 50
180.0
 51
270.0
  0
ARC
  5
3AD
330
1F
100
AcDbEntity
  8
0
100
AcDbCircle
 10
963.5226102495808
 20
2227.411666635487
 30
-0.0000000000000006
 40
2.0
100
AcDbArc
 50
90.0
 51
180.0
  0
LINE
  5
3AE
330
1F
100
AcDbEntity
  8
0
100
AcDbLine
 10
961.5226102495809
 20
1192.911666635487
 30
-0.0000000000000007
 11
916.5226102495807
 21
1192.911666635487
 31
-0.0000000000000035
210
0.0
220
1.0
230
0.0
  0
LINE
  5
3AF
330
1F
100
AcDbEntity
  8
0
100
AcDbLine
 10
961.5226102495809
 20
1225.911666635487
 30
-0.0000000000000007
 11
916.5226102495807
 21
1225.911666635487
 31
-0.0000000000000035
210
0.0
220
1.0
230
0.0
  0
LINE
  5
3B0
330
1F
100
AcDbEntity
  8
0
100
AcDbLine
 10
916.5226102495807
 20
1739.911666635509
 30
-0.0000000000000035
 11
916.5226102495807
 21
1225.911666635487
 31
-0.0000000000000035
210
0.0
220
1.0
230
0.0
  0
LINE
  5
3B1
330
1F
100
AcDbEntity
  8
0
100
AcDbLine
 10
916.5226102495807
 20
2145.911666635487
 30
-0.0000000000000035
 11
916.5226102495807
 21
1847.905624544624
 31
-0.0000000000000035
210
0.0
220
1.0
230
0.0
  0
LINE
  5
3B2
330
1F
100
AcDbEntity
  8
0
100
AcDbLine
 10
916.5226102495807
 20
1192.911666635487
 30
-0.0000000000000035
 11
916.5226102495807
 21
1142.911666635487
 31
-0.0000000000000035
210
0.0
220
1.0
230
0.0
  0
LINE
  5
3B3
330
1F
100
AcDbEntity
  8
0
100
AcDbLine
 10
883.5226102495807
 20
1739.911666635509
 30
-0.0000000000000055
 11
883.5226102495807
 21
1142.911666635487
 31
-0.0000000000000055
210
0.0
220
1.0
230
0.0
  0
LINE
  5
3B4
330
1F
100
AcDbEntity
  8
0
100
AcDbLine
 10
883.5226102495807
 20
2145.911666635487
 30
-0.0000000000000055
 11
883.5226102495807
 21
1847.869102891241
 31
-0.0000000000000055
210
0.0
220
1.0
230
0.0
  0
LINE
  5
3B5
330
1F
100
AcDbEntity
  8
0
100
AcDbLine
 10
815.3892589176816
 20
1110.911666635487
 30
-0.0000000000000097
 11
851.5226102495807
 21
1110.911666635487
 31
-0.0000000000000075
210
0.0
220
1.0
230
0.0
  0
LINE
  5
3B6
330
1F
100
AcDbEntity
  8
0
100
AcDbLine
 10
781.361914123725
 20
1110.911666635487
 30
-0.0000000000000118
 11
787.6833063754361
 21
1110.911666635487
 31
-0.0000000000000114
210
0.0
220
1.0
230
0.0
  0
LINE
  5
3B7
330
1F
100
AcDbEntity
  8
0
100
AcDbLine
 10
260.0226102495816
 20
1110.911666635487
 30
-0.0000000000000437
 11
753.6559615814785
 21
1110.911666635487
 31
-0.0000000000000135
210
0.0
220
1.0
230
0.0
  0
LINE
  5
3B8
330
1F
100
AcDbEntity
  8
0
100
AcDbLine
 10
815.3892589176816
 20
1077.911666635487
 30
-0.0000000000000097
 11
851.5226102495807
 21
1077.911666635487
 31
-0.0000000000000075
210
0.0
220
1.0
230
0.0
  0
LINE
  5
3B9
330
1F
100
AcDbEntity
  8
0
100
AcDbLine
 10
781.361914123725
 20
1077.911666635487
 30
-0.0000000000000118
 11
787.6833063754361
 21
1077.911666635487
 31
-0.0000000000000114
210
0.0
220
1.0
230
0.0
  0
LINE
  5
3BA
330
1F
100
AcDbEntity
  8
0
100
AcDbLine
 10
260.0226102495816
 20
1077.911666635487
 30
-0.0000000000000437
 11
753.6559615814785
 21
1077.911666635487
 31
-0.0000000000000135
210
0.0
220
1.0
230
0.0
  0
LINE
  5
3BB
330
1F
100
AcDbEntity
  8
0
100
AcDbLine
 10
961.5226102495809
 20
1077.911666635487
 30
-0.0000000000000007
 11
900.0226102495808
 21
1077.911666635487
 31
-0.0000000000000045
210
0.0
220
1.0
230
0.0
  0
LINE
  5
3BC
330
1F
100
AcDbEntity
  8
0
100
AcDbLine
 10
961.5226102495809
 20
1110.911666635487
 30
-0.0000000000000007
 11
900.0226102495808
 21
1110.911666635487
 31
-0.0000000000000045
210
0.0
220
1.0
230
0.0
  0
LINE
  5
3BD
330
1F
100
AcDbEntity
  8
0
100
AcDbLine
 10
961.5226102495809
 20
2177.911666635487
 30
-0.0000000000000007
 11
948.5226102495808
 21
2177.911666635487
 31
-0.0000000000000015
210
0.0
220
1.0
230
0.0
  0
LINE
  5
3BE
330
1F
100
AcDbEntity
  8
0
100
AcDbLine
 10
961.5226102495809
 20
2210.911666635487
 30
-0.0000000000000007
 11
948.5226102495808
 21
2210.911666635487
 31
-0.0000000000000015
210
0.0
220
1.0
230
0.0
  0
LINE
  5
3C3
330
1F
100
AcDbEntity
  8
0
100
AcDbLine
 10
880.3226102495818
 20
1740.611666635508
 30
-0.0000000000000057
 11
880.3226102495818
 21
1807.957784750185
 31
-0.0000000000000057
210
0.0
220
1.0
230
0.0
  0
LINE
  5
3C4
330
1F
100
AcDbEntity
  8
0
100
AcDbLine
 10
919.722610249582
 20
1740.611666635508
 30
-0.0000000000000033
 11
919.7226102495811
 21
1807.914225625808
 31
-0.0000000000000033
210
0.0
220
1.0
230
0.0
  0
LINE
  5
3C6
330
1F
100
AcDbEntity
  8
0
100
AcDbLine
 10
963.5226102495808
 20
1129.411666635487
 30
-0.0000000000000006
 11
973.5226102495808
 21
1129.411666635487
 31
0.0
210
0.0
220
1.0
230
0.0
  0
LINE
  5
3C7
330
1F
100
AcDbEntity
  8
0
100
AcDbLine
 10
963.5226102495808
 20
1059.411666635487
 30
-0.0000000000000006
 11
973.5226102495808
 21
1059.411666635487
 31
0.0
210
0.0
220
1.0
230
0.0
  0
LINE
  5
3C8
330
1F
100
AcDbEntity
  8
0
100
AcDbLine
 10
963.5226102495808
 20
1244.411666635487
 30
-0.0000000000000006
 11
973.5226102495808
 21
1244.411666635487
 31
0.0
210
0.0
220
1.0
230
0.0
  0
LINE
  5
3C9
330
1F
100
AcDbEntity
  8
0
100
AcDbLine
 10
963.5226102495808
 20
1174.411666635487
 30
-0.0000000000000006
 11
973.5226102495808
 21
1174.411666635487
 31
0.0
210
0.0
220
1.0
230
0.0
  0
LINE
  5
3CA
330
1F
100
AcDbEntity
  8
0
100
AcDbLine
 10
963.5226102495808
 20
2229.411666635487
 30
-0.0000000000000006
 11
973.5226102495808
 21
2229.411666635487
 31
0.0
210
0.0
220
1.0
230
0.0
  0
LINE
  5
3CB
330
1F
100
AcDbEntity
  8
0
100
AcDbLine
 10
963.5226102495808
 20
2159.411666635487
 30
-0.0000000000000006
 11
973.5226102495808
 21
2159.411666635487
 31
0.0
210
0.0
220
1.0
230
0.0
  0
LINE
  5
3CC
330
1F
100
AcDbEntity
  8
0
100
AcDbLine
 10
961.5226102495809
 20
2227.411666635487
 30
-0.0000000000000007
 11
961.5226102495809
 21
2161.411666635487
 31
-0.0000000000000007
210
0.0
220
1.0
230
0.0
  0
LINE
  5
3CD
330
1F
100
AcDbEntity
  8
0
100
AcDbLine
 10
973.5226102495808
 20
2229.411666635487
 30
0.0
 11
973.5226102495808
 21
2159.411666635487
 31
0.0
210
0.0
220
1.0
230
0.0
  0
LINE
  5
3CE
330
1F
100
AcDbEntity
  8
0
100
AcDbLine
 10
961.5226102495809
 20
1242.411666635487
 30
-0.0000000000000007
 11
961.5226102495809
 21
1176.411666635487
 31
-0.0000000000000007
210
0.0
220
1.0
230
0.0
  0
LINE
  5
3CF
330
1F
100
AcDbEntity
  8
0
100
AcDbLine
 10
973.5226102495808
 20
1244.411666635487
 30
0.0
 11
973.5226102495808
 21
1174.411666635487
 31
0.0
210
0.0
220
1.0
230
0.0
  0
LINE
  5
3D0
330
1F
100
AcDbEntity
  8
0
100
AcDbLine
 10
961.5226102495809
 20
1127.411666635487
 30
-0.0000000000000007
 11
961.5226102495809
 21
1061.411666635487
 31
-0.0000000000000007
210
0.0
220
1.0
230
0.0
  0
LINE
  5
3D1
330
1F
100
AcDbEntity
  8
0
100
AcDbLine
 10
973.5226102495808
 20
1129.411666635487
 30
0.0
 11
973.5226102495808
 21
1059.411666635487
 31
0.0
210
0.0
220
1.0
230
0.0
  0
CIRCLE
  5
3D2
330
1F
100
AcDbEntity
  8
0
100
AcDbCircle
 10
211.5226102495816
 20
1094.411666635487
 30
-0.0000000000000467
 40
32.25
  0
CIRCLE
  5
3D3
330
1F
100
AcDbEntity
  8
0
100
AcDbCircle
 10
211.5226102495816
 20
1094.411666635487
 30
-0.0000000000000467
 40
16.8
  0
CIRCLE
  5
3D4
330
1F
100
AcDbEntity
  8
0
100
AcDbCircle
 10
211.5226102495816
 20
1094.411666635487
 30
-0.0000000000000467
 40
35.0
  0
CIRCLE
  5
3D5
330
1F
100
AcDbEntity
  8
0
100
AcDbCircle
 10
211.5226102495816
 20
1094.411666635487
 30
-0.0000000000000467
 40
33.25
  0
CIRCLE
  5
3D6
330
1F
100
AcDbEntity
  8
0
100
AcDbCircle
 10
784.5226102495808
 20
1094.411666635487
 30
-0.0000000000000116
 40
32.25
  0
CIRCLE
  5
3D7
330
1F
100
AcDbEntity
  8
0
100
AcDbCircle
 10
784.5226102495808
 20
1094.411666635487
 30
-0.0000000000000116
 40
16.8
  0
CIRCLE
  5
3D8
330
1F
100
AcDbEntity
  8
0
100
AcDbCircle
 10
784.5226102495808
 20
1094.411666635487
 30
-0.0000000000000116
 40
35.0
  0
CIRCLE
  5
3D9
330
1F
100
AcDbEntity
  8
0
100
AcDbCircle
 10
784.5226102495808
 20
1094.411666635487
 30
-0.0000000000000116
 40
33.25
  0
LINE
  5
3DF
330
1F
100
AcDbEntity
  8
0
100
AcDbLine
 10
919.0226102495808
 20
1739.911666635509
 30
-0.0000000000000033
 11
900.0226102495808
 21
1739.911666635509
 31
-0.0000000000000045
210
0.0
220
1.0
230
0.0
  0
LINE
  5
3E0
330
1F
100
AcDbEntity
  8
0
100
AcDbLine
 10
900.0226102495817
 20
1739.911666635509
 30
-0.0000000000000045
 11
881.0226102495816
 21
1739.911666635509
 31
-0.0000000000000057
210
0.0
220
1.0
230
0.0
  0
CIRCLE
  5
3EB
330
1F
100
AcDbEntity
  8
0
100
AcDbCircle
 10
784.5226102495808
 20
1094.411666635487
 30
-0.0000000000000116
 40
16.5
  0
ARC
  5
3EC
330
1F
100
AcDbEntity
  8
0
100
AcDbCircle
 10
900.0226102495808
 20
1094.411666635487
 30
-0.0000000000000045
 40
16.5
100
AcDbArc
 50
270.0
 51
0.000000000000007
  0
ARC
  5
3ED
330
1F
100
AcDbEntity
  8
0
100
AcDbCircle
 10
900.0226102495808
 20
1094.411666635487
 30
-0.0000000000000045
 40
16.5
100
AcDbArc
 50
0.000000000000007
 51
90.0
  0
CIRCLE
  5
3EE
330
1F
100
AcDbEntity
  8
0
100
AcDbCircle
 10
211.5226102495816
 20
1094.411666635487
 30
-0.0000000000000467
 40
16.5
  0
LINE
  5
3EF
330
1F
100
AcDbEntity
  8
0
100
AcDbLine
 10
916.5226102495807
 20
1225.911666635487
 30
-0.0000000000000035
 11
900.0226102495808
 21
1209.411666635487
 31
-0.0000000000000045
210
0.0
220
1.0
230
0.0
  0
LINE
  5
3F0
330
1F
100
AcDbEntity
  8
0
100
AcDbLine
 10
900.0226102495808
 20
1209.411666635487
 30
-0.0000000000000045
 11
916.5226102495807
 21
1192.911666635487
 31
-0.0000000000000035
210
0.0
220
1.0
230
0.0
  0
LINE
  5
3F6
330
1F
100
AcDbEntity
  8
0
100
AcDbLine
 10
2212.012610263578
 20
2145.911666635487
 30
0.0000000000000046
 11
2179.012610263578
 21
2145.911666635487
 31
0.0000000000000044
  0
LINE
  5
3F7
330
1F
100
AcDbEntity
  8
0
100
AcDbLine
 10
1867.942610261579
 20
2145.911666635487
 30
0.0
 11
1900.942610261579
 21
2145.911666635487
 31
-0.0000000000000001
  0
LINE
  5
3F8
330
1F
100
AcDbEntity
  8
0
100
AcDbLine
 10
916.5226102495807
 20
2145.911666635487
 30
-0.0000000000000013
 11
883.5226102495807
 21
2145.911666635487
 31
-0.0000000000000015
  0
CIRCLE
  5
499
330
1F
100
AcDbEntity
  8
0
100
AcDbCircle
 10
2239.012613428637
 20
1827.911665987632
 30
0.0000000000000135
 40
20.0000069815172
  0
LINE
  5
49A
330
1F
100
AcDbEntity
  8
0
100
AcDbLine
 10
2173.525548763028
 20
1807.911659006116
 30
0.0000000000000135
 11
2172.012611217251
 21
1809.911666635509
 31
0.0000000000000135
  0
LINE
  5
49B
330
1F
100
AcDbEntity
  8
0
100
AcDbLine
 10
2279.049949235669
 20
1751.689401391979
 30
0.0000000000000135
 11
2275.486579723111
 21
1749.853864435192
 31
0.0000000000000135
  0
LINE
  5
49C
330
1F
100
AcDbEntity
  8
0
100
AcDbLine
 10
2279.541139192334
 20
1753.06494307899
 30
0.0000000000000135
 11
2253.094697780362
 21
1813.723464731213
 31
0.0000000000000135
  0
LINE
  5
49D
330
1F
100
AcDbEntity
  8
0
100
AcDbLine
 10
2274.196079559079
 20
1750.311647180553
 30
0.0000000000000135
 11
2248.082791156522
 21
1810.206008676525
 31
0.0000000000000135
  0
LINE
  5
49E
330
1F
100
AcDbEntity
  8
0
100
AcDbLine
 10
2253.345657176724
 20
1845.040775064464
 30
0.0000000000000135
 11
2247.486806697598
 21
1845.864177469249
 31
0.0000000000000135
  0
LINE
  5
49F
330
1F
100
AcDbEntity
  8
0
100
AcDbLine
 10
2232.602330035916
 20
1847.956062082285
 30
0.0000000000000135
 11
2230.099917239896
 21
1848.307739023205
 31
0.0000000000000135
  0
LINE
  5
4A0
330
1F
100
AcDbEntity
  8
0
100
AcDbLine
 10
2252.751289195767
 20
1845.124297861095
 30
0.0000000000000135
 11
2252.361388988247
 21
1842.662559274669
 31
0.0000000000000135
  0
LINE
  5
4A1
330
1F
100
AcDbEntity
  8
0
100
AcDbLine
 10
2275.486579723111
 20
1749.853864435192
 30
0.0000000000000135
 11
2274.196079559079
 21
1750.311647180553
 31
0.0000000000000135
  0
LINE
  5
4A2
330
1F
100
AcDbEntity
  8
0
100
AcDbLine
 10
2279.541139192334
 20
1753.06494307899
 30
0.0000000000000135
 11
2279.049949235669
 21
1751.689401391979
 31
0.0000000000000135
  0
LINE
  5
4A3
330
1F
100
AcDbEntity
  8
0
100
AcDbLine
 10
2173.525548763028
 20
1847.911659006116
 30
0.0000000000000135
 11
2172.012611217251
 21
1845.911670450206
 31
0.0000000000000135
  0
LINE
  5
4A4
330
1F
100
AcDbEntity
  8
0
100
AcDbLine
 10
2172.012611217251
 20
1809.911666635509
 30
0.0000000000000135
 11
2172.012611217251
 21
1845.911670450206
 31
0.0000000000000135
  0
LINE
  5
4A5
330
1F
100
AcDbEntity
  8
0
100
AcDbLine
 10
2176.012607402554
 20
1739.911666635509
 30
0.0000000000000135
 11
2176.012607402554
 21
1807.911659006116
 31
0.0000000000000135
  0
LINE
  5
4A6
330
1F
100
AcDbEntity
  8
0
100
AcDbLine
 10
2215.012613124601
 20
1739.911666635509
 30
0.0000000000000135
 11
2215.012613124601
 21
1807.911659006116
 31
0.0000000000000135
  0
LINE
  5
4A7
330
1F
100
AcDbEntity
  8
0
100
AcDbLine
 10
2230.962067432157
 20
1847.911659006116
 30
0.0000000000000135
 11
2230.918527431241
 21
1848.186584238048
 31
0.0000000000000135
  0
LINE
  5
4A8
330
1F
100
AcDbEntity
  8
0
100
AcDbLine
 10
2249.560328311673
 20
1845.572772745128
 30
0.0000000000000135
 11
2249.434901065579
 21
1845.590396646494
 31
0.0000000000000135
  0
LINE
  5
4A9
330
1F
100
AcDbEntity
  8
0
100
AcDbLine
 10
2252.751289195767
 20
1845.124297861095
 30
0.0000000000000135
 11
2252.380057162991
 21
1845.176482919688
 31
0.0000000000000135
  0
LINE
  5
4AA
330
1F
100
AcDbEntity
  8
0
100
AcDbLine
 10
2247.719279117337
 20
1845.831504587169
 30
0.0000000000000135
 11
2247.486806697598
 21
1845.864177469249
 31
0.0000000000000135
  0
LINE
  5
4AB
330
1F
100
AcDbEntity
  8
0
100
AcDbLine
 10
2215.012613124601
 20
1739.911666635509
 30
0.0000000000000135
 11
2176.012607402554
 21
1739.911666635509
 31
0.0000000000000135
  0
LINE
  5
4AC
330
1F
100
AcDbEntity
  8
0
100
AcDbLine
 10
2239.567390269986
 20
1807.984710458751
 30
0.0000000000000135
 11
2173.525548763028
 21
1807.911659006116
 31
0.0000000000000135
  0
LINE
  5
4AD
330
1F
100
AcDbEntity
  8
0
100
AcDbLine
 10
2247.497888393155
 20
1809.963737253185
 30
0.0000000000000135
 11
2247.375651187649
 21
1809.913097146984
 31
0.0000000000000135
  0
LINE
  5
4AE
330
1F
100
AcDbEntity
  8
0
100
AcDbLine
 10
2231.333299464932
 20
1848.134399179454
 30
0.0000000000000135
 11
2230.962067432157
 21
1848.186584238048
 31
0.0000000000000135
  0
LINE
  5
4AF
330
1F
100
AcDbEntity
  8
0
100
AcDbLine
 10
2228.863268680326
 20
1848.481555704114
 30
0.0000000000000135
 11
2228.016720599881
 21
1848.600536111828
 31
0.0000000000000135
  0
LINE
  5
4B0
330
1F
100
AcDbEntity
  8
0
100
AcDbLine
 10
2230.099917239896
 20
1848.307739023205
 30
0.0000000000000135
 11
2228.389578647366
 21
1848.548122171399
 31
0.0000000000000135
  0
LINE
  5
4B1
330
1F
100
AcDbEntity
  8
0
100
AcDbLine
 10
2239.567390269986
 20
1847.838626626964
 30
0.0000000000000135
 11
2173.525548763028
 21
1847.911659006116
 31
0.0000000000000135
  0
LINE
  5
4B2
330
1F
100
AcDbEntity
  8
0
100
AcDbLine
 10
1847.524474034115
 20
1808.93430304908
 30
-0.0000000000000933
 11
1847.86562241058
 21
1808.593154672616
 31
-0.0000000000000933
  0
LINE
  5
4B3
330
1F
100
AcDbEntity
  8
0
100
AcDbLine
 10
1870.132162937928
 20
1751.691013101571
 30
-0.0000000000000933
 11
1872.132161030579
 21
1749.853864435191
 31
-0.0000000000000933
  0
LINE
  5
4B4
330
1F
100
AcDbEntity
  8
0
100
AcDbLine
 10
1822.132161030573
 20
1841.651683572759
 30
-0.0000000000000933
 11
1822.457611927791
 21
1842.053809885016
 31
-0.0000000000000933
  0
LINE
  5
4B5
330
1F
100
AcDbEntity
  8
0
100
AcDbLine
 10
1822.457611927792
 20
1813.769527200691
 30
-0.0000000000000933
 11
1826.82650125961
 21
1810.591159585943
 31
-0.0000000000000933
  0
LINE
  5
4B6
330
1F
100
AcDbEntity
  8
0
100
AcDbLine
 10
1899.132159123227
 20
1813.723464731213
 30
-0.0000000000000933
 11
1900.108321080014
 21
1813.111167673108
 31
-0.0000000000000933
  0
LINE
  5
4B7
330
1F
100
AcDbEntity
  8
0
100
AcDbLine
 10
1843.132160076901
 20
1810.892177347177
 30
-0.0000000000000933
 11
1843.643429646298
 21
1810.591159585944
 31
-0.0000000000000933
  0
LINE
  5
4B8
330
1F
100
AcDbEntity
  8
0
100
AcDbLine
 10
1845.61744965057
 20
1809.963737253182
 30
-0.0000000000000933
 11
1847.524474034115
 21
1808.93430304908
 31
-0.0000000000000933
  0
LINE
  5
4B9
330
1F
100
AcDbEntity
  8
0
100
AcDbLine
 10
1826.82650125961
 20
1810.591159585943
 30
-0.0000000000000933
 11
1828.553080925747
 21
1809.91309714698
 31
-0.0000000000000933
  0
LINE
  5
4BA
330
1F
100
AcDbEntity
  8
0
100
AcDbLine
 10
1828.677671322628
 20
1809.973521951667
 30
-0.0000000000000933
 11
1829.503572354123
 21
1809.688182596198
 31
-0.0000000000000933
  0
LINE
  5
4BB
330
1F
100
AcDbEntity
  8
0
100
AcDbLine
 10
1840.237992176815
 20
1811.812053445808
 30
-0.0000000000000933
 11
1843.132160076901
 21
1810.892177347177
 31
-0.0000000000000933
  0
LINE
  5
4BC
330
1F
100
AcDbEntity
  8
0
100
AcDbLine
 10
1843.643429646298
 20
1810.591159585944
 30
-0.0000000000000933
 11
1845.61744965057
 21
1809.963737253182
 31
-0.0000000000000933
  0
LINE
  5
4BD
330
1F
100
AcDbEntity
  8
0
100
AcDbLine
 10
1847.86562241058
 20
1808.593154672616
 30
-0.0000000000000933
 11
1848.723271260068
 21
1808.320556406014
 31
-0.0000000000000933
  0
LINE
  5
4BE
330
1F
100
AcDbEntity
  8
0
100
AcDbLine
 10
1829.503572354123
 20
1809.688182596198
 30
-0.0000000000000933
 11
1829.857070812986
 21
1809.586482767097
 31
-0.0000000000000933
  0
LINE
  5
4BF
330
1F
100
AcDbEntity
  8
0
100
AcDbLine
 10
1829.857070812986
 20
1809.586482767097
 30
-0.0000000000000933
 11
1831.026952633664
 21
1809.303451303474
 31
-0.0000000000000933
  0
LINE
  5
4C0
330
1F
100
AcDbEntity
  8
0
100
AcDbLine
 10
1831.026952633664
 20
1809.303451303474
 30
-0.0000000000000933
 11
1832.382192978666
 21
1809.073882822028
 31
-0.0000000000000933
  0
LINE
  5
4C1
330
1F
100
AcDbEntity
  8
0
100
AcDbLine
 10
1827.005021939083
 20
1845.264201883308
 30
-0.0000000000000933
 11
1827.926571736139
 21
1845.146671060553
 31
-0.0000000000000933
  0
LINE
  5
4C2
330
1F
100
AcDbEntity
  8
0
100
AcDbLine
 10
1827.926571736139
 20
1845.146671060553
 30
-0.0000000000000933
 11
1828.918221363825
 21
1845.04077506446
 31
-0.0000000000000933
  0
LINE
  5
4C3
330
1F
100
AcDbEntity
  8
0
100
AcDbLine
 10
1832.382192978666
 20
1809.073882822028
 30
-0.0000000000000933
 11
1833.881640801236
 21
1808.904739145271
 31
-0.0000000000000933
  0
LINE
  5
4C4
330
1F
100
AcDbEntity
  8
0
100
AcDbLine
 10
1837.132161030575
 20
1812.125812295905
 30
-0.0000000000000933
 11
1840.237992176815
 21
1811.812053445808
 31
-0.0000000000000933
  0
LINE
  5
4C5
330
1F
100
AcDbEntity
  8
0
100
AcDbLine
 10
1833.881640801236
 20
1808.904739145271
 30
-0.0000000000000933
 11
1835.479722389981
 21
1808.801131967537
 31
-0.0000000000000933
  0
LINE
  5
4C6
330
1F
100
AcDbEntity
  8
0
100
AcDbLine
 10
1838.776033291624
 20
1808.801131967537
 30
-0.0000000000000933
 11
1840.374110111996
 21
1808.90473914527
 31
-0.0000000000000933
  0
LINE
  5
4C7
330
1F
100
AcDbEntity
  8
0
100
AcDbLine
 10
1845.35447395782
 20
1845.040775064461
 30
-0.0000000000000933
 11
1846.346123585506
 21
1845.146671060554
 31
-0.0000000000000933
  0
LINE
  5
4C8
330
1F
100
AcDbEntity
  8
0
100
AcDbLine
 10
1834.026341805264
 20
1811.812053445809
 30
-0.0000000000000933
 11
1837.132161030575
 21
1812.125812295905
 31
-0.0000000000000933
  0
LINE
  5
4C9
330
1F
100
AcDbEntity
  8
0
100
AcDbLine
 10
1840.374110111996
 20
1808.90473914527
 30
-0.0000000000000933
 11
1841.873553166196
 21
1809.073882822029
 31
-0.0000000000000933
  0
LINE
  5
4CA
330
1F
100
AcDbEntity
  8
0
100
AcDbLine
 10
1846.346123585506
 20
1845.146671060554
 30
-0.0000000000000933
 11
1847.267682919307
 21
1845.26420188331
 31
-0.0000000000000933
  0
LINE
  5
4CB
330
1F
100
AcDbEntity
  8
0
100
AcDbLine
 10
1847.267682919307
 20
1845.26420188331
 30
-0.0000000000000933
 11
1848.112132916256
 21
1845.392471078866
 31
-0.0000000000000933
  0
LINE
  5
4CC
330
1F
100
AcDbEntity
  8
0
100
AcDbLine
 10
1841.873553166196
 20
1809.073882822029
 30
-0.0000000000000933
 11
1843.228800663754
 21
1809.303451303476
 31
-0.0000000000000933
  0
LINE
  5
4CD
330
1F
100
AcDbEntity
  8
0
100
AcDbLine
 10
1848.112132916256
 20
1845.392471078866
 30
-0.0000000000000933
 11
1848.873041043085
 21
1845.53046775245
 31
-0.0000000000000933
  0
LINE
  5
4CE
330
1F
100
AcDbEntity
  8
0
100
AcDbLine
 10
1848.873041043085
 20
1845.53046775245
 30
-0.0000000000000933
 11
1849.544642338558
 21
1845.677200082772
 31
-0.0000000000000933
  0
LINE
  5
4CF
330
1F
100
AcDbEntity
  8
0
100
AcDbLine
 10
1843.228800663754
 20
1809.303451303476
 30
-0.0000000000000933
 11
1844.39867294769
 21
1809.586482767099
 31
-0.0000000000000933
  0
LINE
  5
4D0
330
1F
100
AcDbEntity
  8
0
100
AcDbLine
 10
1849.544642338558
 20
1845.677200082772
 30
-0.0000000000000933
 11
1850.121801266475
 21
1845.831504587167
 31
-0.0000000000000933
  0
LINE
  5
4D1
330
1F
100
AcDbEntity
  8
0
100
AcDbLine
 10
1844.39867294769
 20
1809.586482767099
 30
-0.0000000000000933
 11
1844.752180943295
 21
1809.688182596199
 31
-0.0000000000000933
  0
LINE
  5
4D2
330
1F
100
AcDbEntity
  8
0
100
AcDbLine
 10
1831.13216198425
 20
1810.892177347176
 30
-0.0000000000000933
 11
1834.026341805264
 21
1811.812053445809
 31
-0.0000000000000933
  0
LINE
  5
4D3
330
1F
100
AcDbEntity
  8
0
100
AcDbLine
 10
1828.646881947324
 20
1809.96373725318
 30
-0.0000000000000933
 11
1830.620901951595
 21
1810.591159585943
 31
-0.0000000000000933
  0
LINE
  5
4D4
330
1F
100
AcDbEntity
  8
0
100
AcDbLine
 10
1844.752180943295
 20
1809.688182596199
 30
-0.0000000000000933
 11
1845.582192311093
 21
1809.974952463142
 31
-0.0000000000000933
  0
LINE
  5
4D5
330
1F
100
AcDbEntity
  8
0
100
AcDbLine
 10
1830.620901951595
 20
1810.591159585943
 30
-0.0000000000000933
 11
1831.13216198425
 21
1810.892177347176
 31
-0.0000000000000933
  0
LINE
  5
4D6
330
1F
100
AcDbEntity
  8
0
100
AcDbLine
 10
1870.132162937924
 20
1813.096214059823
 30
-0.0000000000000933
 11
1871.123321423336
 21
1813.717914346688
 31
-0.0000000000000933
  0
LINE
  5
4D7
330
1F
100
AcDbEntity
  8
0
100
AcDbLine
 10
1822.457611927791
 20
1842.053809885016
 30
-0.0000000000000933
 11
1826.826501259607
 21
1845.232177499763
 31
-0.0000000000000933
  0
LINE
  5
4D8
330
1F
100
AcDbEntity
  8
0
100
AcDbLine
 10
1822.132161030575
 20
1814.171653512946
 30
-0.0000000000000933
 11
1822.457611927792
 21
1813.769527200691
 31
-0.0000000000000933
  0
LINE
  5
4D9
330
1F
100
AcDbEntity
  8
0
100
AcDbLine
 10
1898.132164845277
 20
1749.853864435192
 30
-0.0000000000000933
 11
1900.132162937928
 21
1751.691013101574
 31
-0.0000000000000933
  0
LINE
  5
4DA
330
1F
100
AcDbEntity
  8
0
100
AcDbLine
 10
1848.723271260068
 20
1808.320556406014
 30
-0.0000000000000933
 11
1849.132163891599
 21
1807.911659006112
 31
-0.0000000000000933
  0
LINE
  5
4DB
330
1F
100
AcDbEntity
  8
0
100
AcDbLine
 10
1915.132162937925
 20
1807.911659006116
 30
-0.0000000000000933
 11
1915.132162937921
 21
1847.911659006115
 31
-0.0000000000000933
  0
LINE
  5
4DC
330
1F
100
AcDbEntity
  8
0
100
AcDbLine
 10
1865.632160076906
 20
1739.911666635507
 30
-0.0000000000000933
 11
1865.632160076901
 21
1807.911659006113
 31
-0.0000000000000933
  0
LINE
  5
4DD
330
1F
100
AcDbEntity
  8
0
100
AcDbLine
 10
1904.632161030581
 20
1739.91166663551
 30
-0.0000000000000933
 11
1904.632161030575
 21
1807.911659006117
 31
-0.0000000000000933
  0
LINE
  5
4DE
330
1F
100
AcDbEntity
  8
0
100
AcDbLine
 10
1900.132162937928
 20
1751.691013101574
 30
-0.0000000000000933
 11
1900.132162937924
 21
1813.096214059825
 31
-0.0000000000000933
  0
LINE
  5
4DF
330
1F
100
AcDbEntity
  8
0
100
AcDbLine
 10
1870.132162937928
 20
1751.691013101571
 30
-0.0000000000000933
 11
1870.132162937924
 21
1813.096214059823
 31
-0.0000000000000933
  0
LINE
  5
4E0
330
1F
100
AcDbEntity
  8
0
100
AcDbLine
 10
1910.132162937925
 20
1807.911659006116
 30
-0.0000000000000933
 11
1910.132162937921
 21
1847.911659006115
 31
-0.0000000000000933
  0
LINE
  5
4E1
330
1F
100
AcDbEntity
  8
0
100
AcDbLine
 10
1855.132162937924
 20
1807.911659006112
 30
-0.0000000000000933
 11
1855.132162937922
 21
1847.911659006111
 31
-0.0000000000000933
  0
LINE
  5
4E2
330
1F
100
AcDbEntity
  8
0
100
AcDbLine
 10
1850.132162937924
 20
1807.911659006112
 30
-0.0000000000000933
 11
1850.132162937923
 21
1845.834995035165
 31
-0.0000000000000933
  0
LINE
  5
4E3
330
1F
100
AcDbEntity
  8
0
100
AcDbLine
 10
1822.132161030575
 20
1814.171653512946
 30
-0.0000000000000933
 11
1822.132161030573
 21
1841.651683572759
 31
-0.0000000000000933
  0
LINE
  5
4E4
330
1F
100
AcDbEntity
  8
0
100
AcDbLine
 10
1826.826501259607
 20
1845.232177499763
 30
-0.0000000000000933
 11
1826.935100922389
 21
1845.274825815192
 31
-0.0000000000000933
  0
LINE
  5
4E5
330
1F
100
AcDbEntity
  8
0
100
AcDbLine
 10
1831.081130871578
 20
1844.866977457039
 30
-0.0000000000000933
 11
1843.191559681697
 21
1844.866977457039
 31
-0.0000000000000933
  0
LINE
  5
4E6
330
1F
100
AcDbEntity
  8
0
100
AcDbLine
 10
1828.918221363825
 20
1845.04077506446
 30
-0.0000000000000933
 11
1831.081130871578
 21
1844.866977457039
 31
-0.0000000000000933
  0
LINE
  5
4E7
330
1F
100
AcDbEntity
  8
0
100
AcDbLine
 10
1843.191559681697
 20
1844.866977457039
 30
-0.0000000000000933
 11
1845.35447395782
 21
1845.040775064461
 31
-0.0000000000000933
  0
LINE
  5
4E8
330
1F
100
AcDbEntity
  8
0
100
AcDbLine
 10
1835.479722389981
 20
1808.801131967537
 30
-0.0000000000000933
 11
1838.776033291624
 21
1808.801131967537
 31
-0.0000000000000933
  0
LINE
  5
4E9
330
1F
100
AcDbEntity
  8
0
100
AcDbLine
 10
1872.132161030579
 20
1749.853864435191
 30
-0.0000000000000933
 11
1898.132164845277
 21
1749.853864435192
 31
-0.0000000000000933
  0
LINE
  5
4EA
330
1F
100
AcDbEntity
  8
0
100
AcDbLine
 10
1865.632160076906
 20
1739.911666635507
 30
-0.0000000000000933
 11
1904.632161030581
 21
1739.91166663551
 31
-0.0000000000000933
  0
LINE
  5
4EB
330
1F
100
AcDbEntity
  8
0
100
AcDbLine
 10
1851.136353382869
 20
1847.911659006111
 30
-0.0000000000000933
 11
1915.132162937921
 21
1847.911659006115
 31
-0.0000000000000933
  0
LINE
  5
4EC
330
1F
100
AcDbEntity
  8
0
100
AcDbLine
 10
1871.13216198425
 20
1813.723464731212
 30
-0.0000000000000933
 11
1899.132159123227
 21
1813.723464731213
 31
-0.0000000000000933
  0
LINE
  5
4ED
330
1F
100
AcDbEntity
  8
0
100
AcDbLine
 10
1849.132163891599
 20
1807.911659006112
 30
-0.0000000000000933
 11
1870.132162937925
 21
1807.911659006114
 31
-0.0000000000000933
  0
LINE
  5
4EE
330
1F
100
AcDbEntity
  8
0
100
AcDbLine
 10
1900.132162937924
 20
1807.984710458752
 30
-0.0000000000000933
 11
1915.132162937925
 21
1807.911659006116
 31
-0.0000000000000933
  0
CIRCLE
  5
4EF
330
1F
100
AcDbEntity
  8
0
100
AcDbCircle
 10
856.5225953192779
 20
1827.911675386433
 30
-0.0000000000000045
 40
19.9999782333517
  0
LINE
  5
4F0
330
1F
100
AcDbEntity
  8
0
100
AcDbLine
 10
923.5226104879998
 20
1845.911651376719
 30
-0.0000000000000045
 11
922.0096586371091
 21
1847.911697153086
 31
-0.0000000000000045
  0
LINE
  5
4F1
330
1F
100
AcDbEntity
  8
0
100
AcDbLine
 10
821.339139761987
 20
1750.311675790783
 30
-0.0000000000000045
 11
820.0486395979551
 21
1749.853835824962
 31
-0.0000000000000045
  0
LINE
  5
4F2
330
1F
100
AcDbEntity
  8
0
100
AcDbLine
 10
816.4852688933038
 20
1751.689391855236
 30
-0.0000000000000045
 11
815.9940789366391
 21
1753.064971689219
 31
-0.0000000000000045
  0
LINE
  5
4F3
330
1F
100
AcDbEntity
  8
0
100
AcDbLine
 10
842.4405197525647
 20
1813.723464731213
 30
-0.0000000000000045
 11
815.9940789366391
 21
1753.064971689219
 31
-0.0000000000000045
  0
LINE
  5
4F4
330
1F
100
AcDbEntity
  8
0
100
AcDbLine
 10
847.4524198943999
 20
1810.206008676525
 30
-0.0000000000000045
 11
821.339139761987
 21
1750.311675790783
 31
-0.0000000000000045
  0
LINE
  5
4F5
330
1F
100
AcDbEntity
  8
0
100
AcDbLine
 10
820.0486395979551
 20
1749.853835824962
 30
-0.0000000000000045
 11
816.4852688933038
 21
1751.689391855236
 31
-0.0000000000000045
  0
LINE
  5
4F6
330
1F
100
AcDbEntity
  8
0
100
AcDbLine
 10
923.5226104879998
 20
1809.911666635509
 30
-0.0000000000000045
 11
922.0096586371091
 21
1807.911697153087
 31
-0.0000000000000045
  0
LINE
  5
4F7
330
1F
100
AcDbEntity
  8
0
100
AcDbLine
 10
923.5226104879998
 20
1809.911666635509
 30
-0.0000000000000045
 11
923.5226104879998
 21
1845.911651376719
 31
-0.0000000000000045
  0
LINE
  5
4FA
330
1F
100
AcDbEntity
  8
0
100
AcDbLine
 10
848.1595699215558
 20
1809.913116220469
 30
-0.0000000000000045
 11
848.1595699215558
 21
1845.910201791759
 31
-0.0000000000000045
  0
LINE
  5
4FB
330
1F
100
AcDbEntity
  8
0
100
AcDbLine
 10
864.8856399679807
 20
1809.913116220469
 30
-0.0000000000000045
 11
864.8856399679807
 21
1845.910201791759
 31
-0.0000000000000045
  0
LINE
  5
4FC
330
1F
100
AcDbEntity
  8
0
100
AcDbLine
 10
870.973300757471
 20
1814.171615365978
 30
-0.0000000000000045
 11
870.973300757471
 21
1841.651702646251
 31
-0.0000000000000045
  0
LINE
  5
4FD
330
1F
100
AcDbEntity
  8
0
100
AcDbLine
 10
900.0226114416737
 20
1809.911666635509
 30
-0.0000000000000045
 11
900.0226114416737
 21
1845.911651376719
 31
-0.0000000000000045
  0
LINE
  5
4FE
330
1F
100
AcDbEntity
  8
0
100
AcDbLine
 10
842.0719198609022
 20
1814.171615365978
 30
-0.0000000000000045
 11
842.0719198609022
 21
1841.651702646251
 31
-0.0000000000000045
  0
LINE
  5
4FF
330
1F
100
AcDbEntity
  8
0
100
AcDbLine
 10
919.522609534326
 20
1739.911666635509
 30
-0.0000000000000045
 11
880.5226109648369
 21
1739.911666635509
 31
-0.0000000000000045
  0
LINE
  5
500
330
1F
100
AcDbEntity
  8
0
100
AcDbLine
 10
922.0096586371091
 20
1847.911697153086
 30
-0.0000000000000045
 11
855.967829647127
 21
1847.838607553478
 31
-0.0000000000000045
  0
LINE
  5
501
330
1F
100
AcDbEntity
  8
0
100
AcDbLine
 10
922.0096586371091
 20
1807.911697153087
 30
-0.0000000000000045
 11
855.967829647127
 21
1807.984710458751
 31
-0.0000000000000045
  0
LINE
  5
502
330
1F
100
AcDbEntity
  8
0
100
AcDbLine
 10
865.0078902865079
 20
1845.859618906017
 30
-0.0000000000000045
 11
864.8856399679807
 21
1845.910201791759
 31
-0.0000000000000045
  0
LINE
  5
503
330
1F
100
AcDbEntity
  8
0
100
AcDbLine
 10
848.1595699215558
 20
1845.910201791759
 30
-0.0000000000000045
 11
848.0373199010518
 21
1845.859618906017
 31
-0.0000000000000045
  0
LINE
  5
504
330
1F
100
AcDbEntity
  8
0
100
AcDbLine
 10
865.0078902865079
 20
1809.963699106211
 30
-0.0000000000000045
 11
864.8856399679807
 21
1809.913116220469
 31
-0.0000000000000045
  0
LINE
  5
505
330
1F
100
AcDbEntity
  8
0
100
AcDbLine
 10
848.1595699215558
 20
1809.913116220469
 30
-0.0000000000000045
 11
848.0373199010518
 21
1809.963699106211
 31
-0.0000000000000045
  0
LINE
  5
506
330
1F
100
AcDbEntity
  8
0
100
AcDbLine
 10
1850.132162937923
 20
1845.834995035165
 30
-0.0000000000000933
 11
1851.136353382869
 21
1847.911659006111
 31
-0.0000000000000933
  0
ARC
  5
507
330
1F
100
AcDbEntity
  8
0
100
AcDbCircle
 10
1895.257574687125
 20
804.7528692369471
 30
0.0
 40
5.000000000001613
100
AcDbArc
 50
102.4416349365675
 51
137.5583650634441
  0
ARC
  5
508
330
1F
100
AcDbEntity
  8
0
100
AcDbCircle
 10
1884.407574687125
 20
823.5456204990718
 30
0.0
 40
17.00000000000053
100
AcDbArc
 50
245.0904672353598
 51
294.9095327646389
  0
ARC
  5
509
330
1F
100
AcDbEntity
  8
0
100
AcDbCircle
 10
1873.557574687124
 20
804.7528692369493
 30
0.0
 40
4.999999999999737
100
AcDbArc
 50
42.44163493655482
 51
77.55836506343129
  0
ARC
  5
50A
330
1F
100
AcDbEntity
  8
0
100
AcDbCircle
 10
1836.407632822257
 20
780.0456280952131
 30
0.0
 40
12.00003247305865
100
AcDbArc
 50
224.9998294836733
 51
135.000170516307
  0
LINE
  5
50B
330
1F
100
AcDbEntity
  8
0
100
AcDbLine
 10
1821.407563243031
 20
794.4962926154768
 30
0.0
 11
1827.828499827504
 21
788.4086461311016
 31
0.0
  0
LINE
  5
50C
330
1F
100
AcDbEntity
  8
0
100
AcDbLine
 10
1869.407593760609
 20
740.8092351203592
 30
0.0
 11
1870.40757850182
 21
740.0837178474099
 31
0.0
  0
LINE
  5
50D
330
1F
100
AcDbEntity
  8
0
100
AcDbLine
 10
1870.40757850182
 20
740.0837178474099
 30
0.0
 11
1871.822411570668
 21
739.517082715574
 31
0.0
  0
LINE
  5
50E
330
1F
100
AcDbEntity
  8
0
100
AcDbLine
 10
1906.918694529652
 20
785.2220006232885
 30
0.0
 11
1907.907578501822
 21
788.4051747565892
 31
0.0
  0
LINE
  5
50F
330
1F
100
AcDbEntity
  8
0
100
AcDbLine
 10
1906.407582316518
 20
780.045609021726
 30
0.0
 11
1906.918694529652
 21
785.2220006232885
 31
0.0
  0
LINE
  5
510
330
1F
100
AcDbEntity
  8
0
100
AcDbLine
 10
1861.896454844594
 20
785.2220006232888
 30
0.0
 11
1862.407586131215
 21
780.0456090217265
 31
0.0
  0
LINE
  5
511
330
1F
100
AcDbEntity
  8
0
100
AcDbLine
 10
1860.907570872426
 20
788.4051747565897
 30
0.0
 11
1861.896454844594
 21
785.2220006232888
 31
0.0
  0
LINE
  5
512
330
1F
100
AcDbEntity
  8
0
100
AcDbLine
 10
1896.99277595055
 20
739.5170827155737
 30
0.0
 11
1898.407570872425
 21
740.0837178474098
 31
0.0
  0
LINE
  5
513
330
1F
100
AcDbEntity
  8
0
100
AcDbLine
 10
1898.407570872425
 20
740.0837178474098
 30
0.0
 11
1899.407593760609
 21
740.8092351203588
 31
0.0
  0
LINE
  5
514
330
1F
100
AcDbEntity
  8
0
100
AcDbLine
 10
1821.407563243031
 20
765.5949254279768
 30
0.0
 11
1827.828499827504
 21
771.6825719123517
 31
0.0
  0
LINE
  5
515
330
1F
100
AcDbEntity
  8
0
100
AcDbLine
 10
1827.828499827504
 20
771.5603490119612
 30
0.0
 11
1827.922303233266
 21
771.6825719123517
 31
0.0
  0
LINE
  5
516
330
1F
100
AcDbEntity
  8
0
100
AcDbLine
 10
1827.828499827504
 20
788.4086461311016
 30
0.0
 11
1827.922303233266
 21
788.5309071784651
 31
0.0
  0
LINE
  5
517
330
1F
100
AcDbEntity
  8
0
100
AcDbLine
 10
1821.407563243031
 20
760.0456090217268
 30
0.0
 11
1821.407563243031
 21
765.5949254279768
 31
0.0
  0
LINE
  5
518
330
1F
100
AcDbEntity
  8
0
100
AcDbLine
 10
1821.407563243031
 20
794.4962926154768
 30
0.0
 11
1821.407563243032
 21
800.0456090217268
 31
0.0
  0
LINE
  5
519
330
1F
100
AcDbEntity
  8
0
100
AcDbLine
 10
1854.407593760609
 20
760.0456090217265
 30
0.0
 11
1854.40759376061
 21
800.0456090217266
 31
0.0
  0
LINE
  5
51A
330
1F
100
AcDbEntity
  8
0
100
AcDbLine
 10
1849.407593760609
 20
760.0456090217265
 30
0.0
 11
1849.40759376061
 21
800.0456090217266
 31
0.0
  0
LINE
  5
51B
330
1F
100
AcDbEntity
  8
0
100
AcDbLine
 10
1899.407593760609
 20
740.8092351203588
 30
0.0
 11
1899.407593760609
 21
760.045609021726
 31
0.0
  0
LINE
  5
51C
330
1F
100
AcDbEntity
  8
0
100
AcDbLine
 10
1869.407593760609
 20
740.8092351203592
 30
0.0
 11
1869.407593760609
 21
760.0456090217265
 31
0.0
  0
LINE
  5
51D
330
1F
100
AcDbEntity
  8
0
100
AcDbLine
 10
1914.407574687124
 20
760.045609021726
 30
0.0
 11
1914.407574687125
 21
800.0456090217261
 31
0.0
  0
LINE
  5
51E
330
1F
100
AcDbEntity
  8
0
100
AcDbLine
 10
1909.407574687124
 20
760.045609021726
 30
0.0
 11
1909.407574687125
 21
800.0456090217261
 31
0.0
  0
LINE
  5
51F
330
1F
100
AcDbEntity
  8
0
100
AcDbLine
 10
1871.822411570668
 20
739.517082715574
 30
0.0
 11
1896.99277595055
 21
739.5170827155737
 31
0.0
  0
LINE
  5
520
330
1F
100
AcDbEntity
  8
0
100
AcDbLine
 10
1821.407563243032
 20
800.0456090217268
 30
0.0
 11
1860.907570872426
 21
800.0456090217264
 31
0.0
  0
LINE
  5
521
330
1F
100
AcDbEntity
  8
0
100
AcDbLine
 10
1907.907578501822
 20
800.0456090217261
 30
0.0
 11
1914.407574687125
 21
800.0456090217261
 31
0.0
  0
LINE
  5
522
330
1F
100
AcDbEntity
  8
0
100
AcDbLine
 10
1821.407563243031
 20
760.0456090217268
 30
0.0
 11
1914.407574687124
 21
760.045609021726
 31
0.0
  0
LINE
  5
523
330
1F
100
AcDbEntity
  8
0
100
AcDbLine
 10
1862.352807078481
 20
779.4908375983866
 30
0.0
 11
1906.462361369253
 21
779.4908375983862
 31
0.0
  0
ARC
  5
524
330
1F
100
AcDbEntity
  8
0
100
AcDbCircle
 10
1884.407574687125
 20
823.5456204990718
 30
0.0
 40
17.00000000000041
100
AcDbArc
 50
305.0904672353619
 51
354.9095327646296
  0
ARC
  5
525
330
1F
100
AcDbEntity
  8
0
100
AcDbCircle
 10
1884.407574687125
 20
823.5456204990708
 30
0.0
 40
17.00000000000028
100
AcDbArc
 50
185.0904672353563
 51
234.9095327646368
  0
ARC
  5
526
330
1F
100
AcDbEntity
  8
0
100
AcDbCircle
 10
1884.407574687125
 20
823.5456204990708
 30
0.0
 40
16.5
100
AcDbArc
 50
179.9999999999994
 51
359.9999999999993
  0
ARC
  5
527
330
1F
100
AcDbEntity
  8
0
100
AcDbCircle
 10
1884.407574687125
 20
823.5456204990708
 30
0.0
 40
16.50000698550666
100
AcDbArc
 50
179.9472776769863
 51
0.0527223228431735
  0
LINE
  5
528
330
1F
100
AcDbEntity
  8
0
100
AcDbLine
 10
1907.907578501822
 20
788.4051747565892
 30
0.0
 11
1907.907578501822
 21
823.5455937629367
 31
0.0
  0
LINE
  5
529
330
1F
100
AcDbEntity
  8
0
100
AcDbLine
 10
1860.907570872426
 20
788.4051747565897
 30
0.0
 11
1860.907570872426
 21
823.5455937629375
 31
0.0
  0
LINE
  5
52A
330
1F
100
AcDbEntity
  8
0
100
AcDbLine
 10
1906.420266184927
 20
779.4908375983862
 30
0.0
 11
1906.407582316518
 21
823.4472890144017
 31
0.0
  0
LINE
  5
52B
330
1F
100
AcDbEntity
  8
0
100
AcDbLine
 10
1862.352807078481
 20
779.4908375983866
 30
0.0
 11
1862.407586131217
 21
823.4472890144022
 31
0.0
  0
ARC
  5
52C
330
1F
100
AcDbEntity
  8
0
100
AcDbCircle
 10
1884.407574687124
 20
823.5456204990716
 30
0.0
 40
17.00000000000025
100
AcDbArc
 50
5.090467235356196
 51
13.93055456234958
  0
ARC
  5
52D
330
1F
100
AcDbEntity
  8
0
100
AcDbCircle
 10
1906.107574687124
 20
823.5456204990715
 30
0.0
 40
5.000000000000048
100
AcDbArc
 50
162.4416349365553
 51
197.5583650634434
  0
ARC
  5
52E
330
1F
100
AcDbEntity
  8
0
100
AcDbCircle
 10
1862.707574687124
 20
823.5456204990711
 30
0.0
 40
5.000000000000047
100
AcDbArc
 50
342.4416349365553
 51
17.55836506344357
  0
ARC
  5
52F
330
1F
100
AcDbEntity
  8
0
100
AcDbCircle
 10
1884.407574687125
 20
823.5456204990711
 30
0.0
 40
17.00000000000011
100
AcDbArc
 50
166.0694454376365
 51
174.9095327646426
  0
ARC
  5
530
330
1F
100
AcDbEntity
  8
0
100
AcDbCircle
 10
1884.443156802028
 20
823.5100307215198
 30
0.0
 40
22.03565999261564
100
AcDbArc
 50
138.6251289226939
 51
180.1631373816613
  0
ARC
  5
531
330
1F
100
AcDbEntity
  8
0
100
AcDbCircle
 10
1884.407605949451
 20
823.5455815740957
 30
0.0
 40
23.50003507702812
100
AcDbArc
 50
134.5979793760093
 51
179.9999702821992
  0
ARC
  5
532
330
1F
100
AcDbEntity
  8
0
100
AcDbCircle
 10
1884.407605562119
 20
823.5456174490662
 30
0.0
 40
23.49997293971383
100
AcDbArc
 50
359.9999422503467
 51
45.40208400023309
  0
ARC
  5
533
330
1F
100
AcDbEntity
  8
0
100
AcDbCircle
 10
1884.32890526395
 20
823.4852309084429
 30
0.0
 40
22.07870965384735
100
AcDbArc
 50
359.9015381107221
 51
41.33251921226051
  0
LINE
  5
536
330
1F
100
AcDbEntity
  8
0
100
AcDbLine
 10
1835.942610261579
 20
1110.911666635487
 30
-0.0000000000000874
 11
1835.942610261578
 21
1077.911666635487
 31
-0.000000000000078
  0
LINE
  5
538
330
1F
100
AcDbEntity
  8
0
100
AcDbLine
 10
1212.442610261579
 20
754.3416666234882
 30
0.0
 11
1179.442610261578
 21
754.3416666234882
 31
0.0
  0
LINE
  5
539
330
1F
100
AcDbEntity
  8
0
100
AcDbLine
 10
1835.942610261579
 20
838.3416666234873
 30
-0.0000000000000094
 11
1835.942610261579
 21
805.3416666234873
 31
0.0
  0
LINE
  5
53C
330
1F
100
AcDbEntity
  8
0
100
AcDbLine
 10
833.455934583632
 20
1110.911666635487
 30
-0.0000000000000086
 11
833.455934583632
 21
1077.911666635487
 31
-0.0000000000000086
  0
LINE
  5
53F
330
1F
100
AcDbEntity
  8
0
100
AcDbLine
 10
2263.012610263576
 20
1110.911666635487
 30
0.0000000000000259
 11
2263.012610263576
 21
1077.911666635487
 31
0.0000000000000259
  0
ENDSEC
  0
SECTION
  2
OBJECTS
  0
DICTIONARY
  5
C
330
0
100
AcDbDictionary
  3
ACAD_COLOR
350
6B
  3
ACAD_GROUP
350
D
  3
ACAD_LAYOUT
350
1A
  3
ACAD_MATERIAL
350
6A
  3
ACAD_MLINESTYLE
350
17
  3
ACAD_PLOTSETTINGS
350
19
  3
ACAD_PLOTSTYLENAME
350
E
  3
ACDBVARIABLEDICTIONARY
350
5E
  3
DWGPROPS
350
543
  3
ACDBHEADERROUNDTRIPXREC
350
553
  0
DICTIONARY
  5
574
330
1F
100
AcDbDictionary
280
     1
  3
ACAD_LAYOUTSELFREF
360
575
  0
DICTIONARY
  5
576
330
50
100
AcDbDictionary
280
     1
  3
ACAD_LAYOUTSELFREF
360
577
  0
DICTIONARY
  5
6B
102
{ACAD_REACTORS
330
C
102
}
330
C
100
AcDbDictionary
  0
DICTIONARY
  5
D
102
{ACAD_REACTORS
330
C
102
}
330
C
100
AcDbDictionary
  0
DICTIONARY
  5
1A
102
{ACAD_REACTORS
330
C
102
}
330
C
100
AcDbDictionary
  0
DICTIONARY
  5
6A
102
{ACAD_REACTORS
330
C
102
}
330
C
100
AcDbDictionary
  0
DICTIONARY
  5
17
102
{ACAD_REACTORS
330
C
102
}
330
C
100
AcDbDictionary
  3
STANDARD
350
18
  0
DICTIONARY
  5
19
102
{ACAD_REACTORS
330
C
102
}
330
C
100
AcDbDictionary
  0
ACDBDICTIONARYWDFLT
  5
E
102
{ACAD_REACTORS
330
C
102
}
330
C
100
AcDbDictionary
281
     1
  3
Normal
350
F
100
AcDbDictionaryWithDefault
340
F
  0
DICTIONARY
  5
5E
102
{ACAD_REACTORS
330
C
102
}
330
C
100
AcDbDictionary
  3
DIMASSOC
350
5F
  3
HIDETEXT
350
63
  3
PROJECTNAME
350
541
  0
XRECORD
  5
543
102
{ACAD_REACTORS
330
C
102
}
330
C
100
AcDbXrecord
  1
DWGPROPS COOKIE
  2

  3

  4

  6

  7

  8

  9

300
=
301
=
302
=
303
=
304
=
305
=
306
=
307
=
308
=
309
=
 40
0.0089595833333333
 41
2453586.352102685
 42
2453607.502681655
  1

 90
        0
  0
DICTIONARY
  5
553
102
{ACAD_REACTORS
330
C
102
}
330
C
100
AcDbDictionary
  3
TSTACKALIGN
350
554
  3
TSTACKSIZE
350
555
  3
HYPERLINKBASE
350
556
  3
STYLESHEET
350
557
  3
LAYOUTDICT
350
558
  3
PLOTSETDICT
350
559
  3
PLOTSTYLNAMDICT
350
55A
  3
LWETCUNION
350
55B
  3
INSUNITS
350
55C
  3
CEPSNTYPE
350
55D
  3
FINGERPRINTGUID
350
55E
  3
VERSIONGUID
350
55F
  3
PSVPSCALE
350
560
  3
DIMSTYLEDATA
350
561
  3
PUCSORTHOREF
350
562
  3
PUCSORTHOVIEW
350
563
  3
PUCSBASE
350
564
  3
PUCSORGTOP
350
565
  3
PUCSORGBOTTOM
350
566
  3
PUCSORGLEFT
350
567
  3
PUCSORGRIGHT
350
568
  3
PUCSORGFRONT
350
569
  3
PUCSORGBACK
350
56A
  3
UCSORTHOREF
350
56B
  3
UCSORTHOVIEW
350
56C
  3
UCSBASE
350
56D
  3
UCSORGTOP
350
56E
  3
UCSORGBOTTOM
350
56F
  3
UCSORGLEFT
350
570
  3
UCSORGRIGHT
350
571
  3
UCSORGFRONT
350
572
  3
UCSORGBACK
350
573
  0
XRECORD
  5
575
102
{ACAD_REACTORS
330
574
102
}
330
574
100
AcDbXrecord
340
1F
  0
XRECORD
  5
577
102
{ACAD_REACTORS
330
576
102
}
330
576
100
AcDbXrecord
340
50
  0
MLINESTYLE
  5
18
102
{ACAD_REACTORS
330
17
102
}
330
17
100
AcDbMlineStyle
  2
STANDARD
 70
     0
  3

 62
   256
 51
90.0
 52
90.0
 71
     2
 49
0.5
 62
   256
  6
BYLAYER
 49
-0.5
 62
   256
  6
BYLAYER
  0
ACDBPLACEHOLDER
  5
F
102
{ACAD_REACTORS
330
E
102
}
330
E
100
AcDbPlaceHolder
280
     0
  0
DICTIONARYVAR
  5
5F
102
{ACAD_REACTORS
330
5E
102
}
330
5E
100
DictionaryVariables
280
     0
  1
2
  0
DICTIONARYVAR
  5
63
102
{ACAD_REACTORS
330
5E
102
}
330
5E
100
DictionaryVariables
280
     0
  1
1
  0
DICTIONARYVAR
  5
541
102
{ACAD_REACTORS
330
5E
102
}
330
5E
100
DictionaryVariables
280
     0
  1

  0
XRECORD
  5
554
102
{ACAD_REACTORS
330
553
102
}
330
553
100
AcDbXrecord
 90
        1
  0
XRECORD
  5
555
102
{ACAD_REACTORS
330
553
102
}
330
553
100
AcDbXrecord
 90
       70
  0
XRECORD
  5
556
102
{ACAD_REACTORS
330
553
102
}
330
553
100
AcDbXrecord
  1

  0
XRECORD
  5
557
102
{ACAD_REACTORS
330
553
102
}
330
553
100
AcDbXrecord
  1

  0
XRECORD
  5
558
102
{ACAD_REACTORS
330
553
102
}
330
553
100
AcDbXrecord
340
1A
  0
XRECORD
  5
559
102
{ACAD_REACTORS
330
553
102
}
330
553
100
AcDbXrecord
340
19
  0
XRECORD
  5
55A
102
{ACAD_REACTORS
330
553
102
}
330
553
100
AcDbXrecord
340
E
  0
XRECORD
  5
55B
102
{ACAD_REACTORS
330
553
102
}
330
553
100
AcDbXrecord
 90
    10781
  0
XRECORD
  5
55C
102
{ACAD_REACTORS
330
553
102
}
330
553
100
AcDbXrecord
 90
        4
  0
XRECORD
  5
55D
102
{ACAD_REACTORS
330
553
102
}
330
553
100
AcDbXrecord
 90
        0
  0
XRECORD
  5
55E
102
{ACAD_REACTORS
330
553
102
}
330
553
100
AcDbXrecord
  1
{FDEAD578-A652-11D2-9A35-0060089B3A3F}
  0
XRECORD
  5
55F
102
{ACAD_REACTORS
330
553
102
}
330
553
100
AcDbXrecord
  1
{00C7C7CB-6A55-4F82-BDC5-11D02E8EFF69}
  0
XRECORD
  5
560
102
{ACAD_REACTORS
330
553
102
}
330
553
100
AcDbXrecord
 40
0.0
  0
XRECORD
  5
561
102
{ACAD_REACTORS
330
553
102
}
330
553
100
AcDbXrecord
1000
DSTYLE
1002
{
1070
   278
 70
    44
1002
}
  0
XRECORD
  5
562
102
{ACAD_REACTORS
330
553
102
}
330
553
100
AcDbXrecord
340
0
  0
XRECORD
  5
563
102
{ACAD_REACTORS
330
553
102
}
330
553
100
AcDbXrecord
 70
     0
  0
XRECORD
  5
564
102
{ACAD_REACTORS
330
553
102
}
330
553
100
AcDbXrecord
340
0
  0
XRECORD
  5
565
102
{ACAD_REACTORS
330
553
102
}
330
553
100
AcDbXrecord
 10
0.0
 20
0.0
 30
0.0
  0
XRECORD
  5
566
102
{ACAD_REACTORS
330
553
102
}
330
553
100
AcDbXrecord
 10
0.0
 20
0.0
 30
0.0
  0
XRECORD
  5
567
102
{ACAD_REACTORS
330
553
102
}
330
553
100
AcDbXrecord
 10
0.0
 20
0.0
 30
0.0
  0
XRECORD
  5
568
102
{ACAD_REACTORS
330
553
102
}
330
553
100
AcDbXrecord
 10
0.0
 20
0.0
 30
0.0
  0
XRECORD
  5
569
102
{ACAD_REACTORS
330
553
102
}
330
553
100
AcDbXrecord
 10
0.0
 20
0.0
 30
0.0
  0
XRECORD
  5
56A
102
{ACAD_REACTORS
330
553
102
}
330
553
100
AcDbXrecord
 10
0.0
 20
0.0
 30
0.0
  0
XRECORD
  5
56B
102
{ACAD_REACTORS
330
553
102
}
330
553
100
AcDbXrecord
340
0
  0
XRECORD
  5
56C
102
{ACAD_REACTORS
330
553
102
}
330
553
100
AcDbXrecord
 70
     0
  0
XRECORD
  5
56D
102
{ACAD_REACTORS
330
553
102
}
330
553
100
AcDbXrecord
340
0
  0
XRECORD
  5
56E
102
{ACAD_REACTORS
330
553
102
}
330
553
100
AcDbXrecord
 10
0.0
 20
0.0
 30
0.0
  0
XRECORD
  5
56F
102
{ACAD_REACTORS
330
553
102
}
330
553
100
AcDbXrecord
 10
0.0
 20
0.0
 30
0.0
  0
XRECORD
  5
570
102
{ACAD_REACTORS
330
553
102
}
330
553
100
AcDbXrecord
 10
0.0
 20
0.0
 30
0.0
  0
XRECORD
  5
571
102
{ACAD_REACTORS
330
553
102
}
330
553
100
AcDbXrecord
 10
0.0
 20
0.0
 30
0.0
  0
XRECORD
  5
572
102
{ACAD_REACTORS
330
553
102
}
330
553
100
AcDbXrecord
 10
0.0
 20
0.0
 30
0.0
  0
XRECORD
  5
573
102
{ACAD_REACTORS
330
553
102
}
330
553
100
AcDbXrecord
 10
0.0
 20
0.0
 30
0.0
  0
ENDSEC
  0
EOF
