  0
SECTION
  2
HEADER
  9
$ACADVER
  1
AC1014
  9
$ACADMAINTVER
 70
     9
  9
$DWGCODEPAGE
  3
ANSI_1252
  9
$INSBASE
 10
0.0
 20
0.0
 30
0.0
  9
$EXTMIN
 10
-1382.833772320412
 20
-1018.014912684694
 30
0.0
  9
$EXTMAX
 10
1677.343158458201
 20
1286.402759909232
 30
0.0
  9
$LIMMIN
 10
0.0
 20
0.0
  9
$LIMMAX
 10
420.0
 20
297.0
  9
$ORTHOMODE
 70
     0
  9
$REGENMODE
 70
     1
  9
$FILLMODE
 70
     1
  9
$QTEXTMODE
 70
     0
  9
$MIRRTEXT
 70
     0
  9
$DRAGMODE
 70
     2
  9
$LTSCALE
 40
1.0
  9
$OSMODE
 70
  2223
  9
$ATTMODE
 70
     1
  9
$TEXTSIZE
 40
2.5
  9
$TRACEWID
 40
1.0
  9
$TEXTSTYLE
  7
STANDARD
  9
$CLAYER
  8
0
  9
$CELTYPE
  6
BYLAYER
  9
$CECOLOR
 62
   256
  9
$CELTSCALE
 40
1.0
  9
$DELOBJ
 70
     1
  9
$DISPSILH
 70
     0
  9
$DIMSCALE
 40
1.0
  9
$DIMASZ
 40
2.5
  9
$DIMEXO
 40
0.625
  9
$DIMDLI
 40
3.75
  9
$DIMRND
 40
0.0
  9
$DIMDLE
 40
0.0
  9
$DIMEXE
 40
1.25
  9
$DIMTP
 40
0.0
  9
$DIMTM
 40
0.0
  9
$DIMTXT
 40
2.5
  9
$DIMCEN
 40
2.5
  9
$DIMTSZ
 40
0.0
  9
$DIMTOL
 70
     0
  9
$DIMLIM
 70
     0
  9
$DIMTIH
 70
     0
  9
$DIMTOH
 70
     0
  9
$DIMSE1
 70
     0
  9
$DIMSE2
 70
     0
  9
$DIMTAD
 70
     1
  9
$DIMZIN
 70
     8
  9
$DIMBLK
  1

  9
$DIMASO
 70
     1
  9
$DIMSHO
 70
     1
  9
$DIMPOST
  1

  9
$DIMAPOST
  1

  9
$DIMALT
 70
     0
  9
$DIMALTD
 70
     3
  9
$DIMALTF
 40
0.03937007874016
  9
$DIMLFAC
 40
1.0
  9
$DIMTOFL
 70
     1
  9
$DIMTVP
 40
0.0
  9
$DIMTIX
 70
     0
  9
$DIMSOXD
 70
     0
  9
$DIMSAH
 70
     0
  9
$DIMBLK1
  1

  9
$DIMBLK2
  1

  9
$DIMSTYLE
  2
ISO-25
  9
$DIMCLRD
 70
     0
  9
$DIMCLRE
 70
     0
  9
$DIMCLRT
 70
     0
  9
$DIMTFAC
 40
1.0
  9
$DIMGAP
 40
0.625
  9
$DIMJUST
 70
     0
  9
$DIMSD1
 70
     0
  9
$DIMSD2
 70
     0
  9
$DIMTOLJ
 70
     0
  9
$DIMTZIN
 70
     8
  9
$DIMALTZ
 70
     0
  9
$DIMALTTZ
 70
     0
  9
$DIMFIT
 70
     3
  9
$DIMUPT
 70
     0
  9
$DIMUNIT
 70
     2
  9
$DIMDEC
 70
     2
  9
$DIMTDEC
 70
     2
  9
$DIMALTU
 70
     2
  9
$DIMALTTD
 70
     3
  9
$DIMTXSTY
  7
STANDARD
  9
$DIMAUNIT
 70
     0
  9
$LUNITS
 70
     2
  9
$LUPREC
 70
     4
  9
$SKETCHINC
 40
1.0
  9
$FILLETRAD
 40
10.0
  9
$AUNITS
 70
     0
  9
$AUPREC
 70
     0
  9
$MENU
  1
.
  9
$ELEVATION
 40
0.0
  9
$PELEVATION
 40
0.0
  9
$THICKNESS
 40
0.0
  9
$LIMCHECK
 70
     0
  9
$BLIPMODE
 70
     0
  9
$CHAMFERA
 40
10.0
  9
$CHAMFERB
 40
10.0
  9
$CHAMFERC
 40
20.0
  9
$CHAMFERD
 40
0.0
  9
$SKPOLY
 70
     0
  9
$TDCREATE
 40
2453586.352102685
  9
$TDUPDATE
 40
2453615.635034398
  9
$TDINDWG
 40
0.0129767708
  9
$TDUSRTIMER
 40
0.0129735301
  9
$USRTIMER
 70
     1
  9
$ANGBASE
 50
0.0
  9
$ANGDIR
 70
     0
  9
$PDMODE
 70
     0
  9
$PDSIZE
 40
0.0
  9
$PLINEWID
 40
0.0
  9
$COORDS
 70
     1
  9
$SPLFRAME
 70
     0
  9
$SPLINETYPE
 70
     6
  9
$SPLINESEGS
 70
     8
  9
$ATTDIA
 70
     0
  9
$ATTREQ
 70
     1
  9
$HANDLING
 70
 10241
  9
$HANDSEED
  5
8C1
  9
$SURFTAB1
 70
     6
  9
$SURFTAB2
 70
     6
  9
$SURFTYPE
 70
     6
  9
$SURFU
 70
     6
  9
$SURFV
 70
     6
  9
$UCSNAME
  2

  9
$UCSORG
 10
0.0
 20
0.0
 30
0.0
  9
$UCSXDIR
 10
1.0
 20
0.0
 30
0.0
  9
$UCSYDIR
 10
0.0
 20
1.0
 30
0.0
  9
$PUCSNAME
  2

  9
$PUCSORG
 10
0.0
 20
0.0
 30
0.0
  9
$PUCSXDIR
 10
1.0
 20
0.0
 30
0.0
  9
$PUCSYDIR
 10
0.0
 20
1.0
 30
0.0
  9
$USERI1
 70
     0
  9
$USERI2
 70
     0
  9
$USERI3
 70
     0
  9
$USERI4
 70
     0
  9
$USERI5
 70
     0
  9
$USERR1
 40
0.0
  9
$USERR2
 40
0.0
  9
$USERR3
 40
0.0
  9
$USERR4
 40
0.0
  9
$USERR5
 40
0.0
  9
$WORLDVIEW
 70
     1
  9
$SHADEDGE
 70
     3
  9
$SHADEDIF
 70
    70
  9
$TILEMODE
 70
     1
  9
$MAXACTVP
 70
    64
  9
$PINSBASE
 10
0.0
 20
0.0
 30
0.0
  9
$PLIMCHECK
 70
     0
  9
$PEXTMIN
 10
0.0
 20
0.0
 30
0.0
  9
$PEXTMAX
 10
0.0
 20
0.0
 30
0.0
  9
$PLIMMIN
 10
0.0
 20
0.0
  9
$PLIMMAX
 10
12.0
 20
9.0
  9
$UNITMODE
 70
     0
  9
$VISRETAIN
 70
     1
  9
$PLINEGEN
 70
     0
  9
$PSLTSCALE
 70
     1
  9
$TREEDEPTH
 70
  3020
  9
$PICKSTYLE
 70
     1
  9
$CMLSTYLE
  2
STANDARD
  9
$CMLJUST
 70
     0
  9
$CMLSCALE
 40
20.0
  9
$PROXYGRAPHICS
 70
     1
  9
$MEASUREMENT
 70
     1
  0
ENDSEC
  0
SECTION
  2
CLASSES
  0
CLASS
  1
ACDBDICTIONARYWDFLT
  2
AcDbDictionaryWithDefault
  3
AutoCAD 2000
 90
        0
280
     0
281
     0
  0
CLASS
  1
DICTIONARYVAR
  2
AcDbDictionaryVar
  3
AutoCAD 2000
 90
        0
280
     0
281
     0
  0
CLASS
  1
DIMASSOC
  2
AcDbDimAssoc
  3
"AcDbDimAssoc|Product Desc:     AcDim ARX App For Dimension|Company:          Autodesk, Inc.|WEB Address:      www.autodesk.com"
 90
        0
280
     0
281
     0
  0
CLASS
  1
ACDBPLACEHOLDER
  2
AcDbPlaceHolder
  3
AutoCAD 2000
 90
        0
280
     0
281
     0
  0
CLASS
  1
LAYOUT
  2
AcDbLayout
  3
AutoCAD 2000
 90
        0
280
     0
281
     0
  0
CLASS
  1
LONG_TRANSACTION
  2
AcDbLongTransaction
  3
AutoCAD 2000
 90
        0
280
     0
281
     0
  0
CLASS
  1
LWPOLYLINE
  2
AcDbPolyline
  3
AutoCAD 2000
 90
        0
280
     0
281
     1
  0
CLASS
  1
HATCH
  2
AcDbHatch
  3
AutoCAD 2000
 90
        0
280
     0
281
     1
  0
CLASS
  1
XRECORD
  2
AcDbXrecord
  3
AutoCAD 2000
 90
        0
280
     0
281
     0
  0
ENDSEC
  0
SECTION
  2
TABLES
  0
TABLE
  2
VPORT
  5
8
330
0
100
AcDbSymbolTable
 70
     2
  0
VPORT
  5
899
330
8
100
AcDbSymbolTableRecord
100
AcDbViewportTableRecord
  2
*ACTIVE
 70
     0
 10
0.0
 20
0.0
 11
1.0
 21
1.0
 12
39.3679448668754
 22
221.5974338948292
 13
0.0
 23
0.0
 14
10.0
 24
10.0
 15
10.0
 25
10.0
 16
0.0
 26
0.0
 36
1.0
 17
0.0
 27
0.0
 37
0.0
 40
2922.499268940381
 41
1.525316455696202
 42
50.0
 43
0.0
 44
0.0
 50
0.0
 51
0.0
 71
     0
 72
  1000
 73
     1
 74
     3
 75
     0
 76
     0
 77
     0
 78
     0
  0
ENDTAB
  0
TABLE
  2
LTYPE
  5
5
330
0
100
AcDbSymbolTable
 70
     2
  0
LTYPE
  5
14
330
5
100
AcDbSymbolTableRecord
100
AcDbLinetypeTableRecord
  2
BYBLOCK
 70
     0
  3

 72
    65
 73
     0
 40
0.0
  0
LTYPE
  5
15
330
5
100
AcDbSymbolTableRecord
100
AcDbLinetypeTableRecord
  2
BYLAYER
 70
     0
  3

 72
    65
 73
     0
 40
0.0
  0
LTYPE
  5
16
330
5
100
AcDbSymbolTableRecord
100
AcDbLinetypeTableRecord
  2
CONTINUOUS
 70
     0
  3
Solid line
 72
    65
 73
     0
 40
0.0
  0
LTYPE
  5
9F
330
5
100
AcDbSymbolTableRecord
100
AcDbLinetypeTableRecord
  2
STANDARD
 70
     0
  3

 72
    65
 73
     0
 40
0.0
  0
ENDTAB
  0
TABLE
  2
LAYER
  5
2
330
0
100
AcDbSymbolTable
 70
     3
  0
LAYER
  5
10
330
2
100
AcDbSymbolTableRecord
100
AcDbLayerTableRecord
  2
0
 70
     0
 62
     7
  6
CONTINUOUS
  0
LAYER
  5
A0
330
2
100
AcDbSymbolTableRecord
100
AcDbLayerTableRecord
  2
STANDARD
 70
     0
 62
     7
  6
CONTINUOUS
  0
LAYER
  5
6F6
330
2
100
AcDbSymbolTableRecord
100
AcDbLayerTableRecord
  2
DEFPOINTS
 70
     0
 62
     7
  6
CONTINUOUS
  0
ENDTAB
  0
TABLE
  2
STYLE
  5
3
330
0
100
AcDbSymbolTable
 70
     1
  0
STYLE
  5
11
330
3
100
AcDbSymbolTableRecord
100
AcDbTextStyleTableRecord
  2
STANDARD
 70
     0
 40
0.0
 41
1.0
 50
0.0
 71
     0
 42
2.5
  3
txt
  4

  0
ENDTAB
  0
TABLE
  2
VIEW
  5
6
330
0
100
AcDbSymbolTable
 70
     0
  0
ENDTAB
  0
TABLE
  2
UCS
  5
7
330
0
100
AcDbSymbolTable
 70
     0
  0
ENDTAB
  0
TABLE
  2
APPID
  5
9
330
0
100
AcDbSymbolTable
 70
     1
  0
APPID
  5
12
330
9
100
AcDbSymbolTableRecord
100
AcDbRegAppTableRecord
  2
ACAD
 70
     0
  0
ENDTAB
  0
TABLE
  2
DIMSTYLE
  5
A
330
0
100
AcDbSymbolTable
 70
     2
  0
DIMSTYLE
105
27
330
A
100
AcDbSymbolTableRecord
100
AcDbDimStyleTableRecord
  2
ISO-25
 70
     0
  3

  4

  5

  6

  7

 40
1.0
 41
2.5
 42
0.625
 43
3.75
 44
1.25
 45
0.0
 46
0.0
 47
0.0
 48
0.0
140
2.5
141
2.5
142
0.0
143
0.03937007874016
144
1.0
145
0.0
146
1.0
147
0.625
 71
     0
 72
     0
 73
     0
 74
     0
 75
     0
 76
     0
 77
     1
 78
     8
170
     0
171
     3
172
     1
173
     0
174
     0
175
     0
176
     0
177
     0
178
     0
270
     2
271
     2
272
     2
273
     2
274
     3
340
11
275
     0
280
     0
281
     0
282
     0
283
     0
284
     8
285
     0
286
     0
287
     3
288
     0
  0
DIMSTYLE
105
A1
330
A
100
AcDbSymbolTableRecord
100
AcDbDimStyleTableRecord
  2
STANDARD
 70
     0
  3

  4

  5

  6

  7

 40
1.0
 41
0.18
 42
0.0625
 43
0.38
 44
0.18
 45
0.0
 46
0.0
 47
0.0
 48
0.0
140
0.18
141
0.09
142
0.0
143
25.4
144
1.0
145
0.0
146
1.0
147
0.09
 71
     0
 72
     0
 73
     1
 74
     1
 75
     0
 76
     0
 77
     0
 78
     0
170
     0
171
     2
172
     0
173
     0
174
     0
175
     0
176
     0
177
     0
178
     0
270
     2
271
     4
272
     4
273
     2
274
     2
340
11
275
     0
280
     0
281
     0
282
     0
283
     1
284
     0
285
     0
286
     0
287
     3
288
     0
  0
ENDTAB
  0
TABLE
  2
BLOCK_RECORD
  5
1
330
0
100
AcDbSymbolTable
 70
     2
  0
BLOCK_RECORD
  5
1F
102
{ACAD_XDICTIONARY
360
8BB
102
}
330
1
100
AcDbSymbolTableRecord
100
AcDbBlockTableRecord
  2
*MODEL_SPACE
  0
BLOCK_RECORD
  5
50
102
{ACAD_XDICTIONARY
360
8BD
102
}
330
1
100
AcDbSymbolTableRecord
100
AcDbBlockTableRecord
  2
*PAPER_SPACE
  0
ENDTAB
  0
ENDSEC
  0
SECTION
  2
BLOCKS
  0
BLOCK
  5
20
330
1F
100
AcDbEntity
  8
0
100
AcDbBlockBegin
  2
*MODEL_SPACE
 70
     0
 10
0.0
 20
0.0
 30
0.0
  3
*MODEL_SPACE
  1

  0
ENDBLK
  5
21
330
1F
100
AcDbEntity
  8
0
100
AcDbBlockEnd
  0
BLOCK
  5
52
330
50
100
AcDbEntity
 67
     1
  8
0
100
AcDbBlockBegin
  2
*PAPER_SPACE
 70
     0
 10
0.0
 20
0.0
 30
0.0
  3
*PAPER_SPACE
  1

  0
ENDBLK
  5
53
330
50
100
AcDbEntity
 67
     1
  8
0
100
AcDbBlockEnd
  0
ENDSEC
  0
SECTION
  2
ENTITIES
  0
ARC
  5
3D7
330
1F
100
AcDbEntity
  8
STANDARD
  6
STANDARD
 62
     7
100
AcDbCircle
 10
-431.0161800644998
 20
151.4008107252008
 30
0.0
 40
16.4999735692057
100
AcDbArc
 50
97.21760870569818
 51
178.2325714684272
  0
ARC
  5
3D8
330
1F
100
AcDbEntity
  8
STANDARD
  6
STANDARD
 62
     7
100
AcDbCircle
 10
680.4837970473165
 20
151.4008107252008
 30
0.0
 40
16.4999735692057
100
AcDbArc
 50
97.21760870569818
 51
178.2325714684272
  0
ARC
  5
3D9
330
1F
100
AcDbEntity
  8
STANDARD
  6
STANDARD
 62
     7
100
AcDbCircle
 10
-8.018183482945914
 20
1251.402709799097
 30
0.0
 40
16.50003884602579
100
AcDbArc
 50
7.217664169404058
 51
88.23222792525132
  0
ARC
  5
3DB
330
1F
100
AcDbEntity
  8
STANDARD
  6
STANDARD
 62
     7
100
AcDbCircle
 10
564.9838092558526
 20
151.4027402623061
 30
0.0
 40
34.99999854152521
100
AcDbArc
 50
29.99999862154161
 51
150.0000013784583
  0
ARC
  5
3DC
330
1F
100
AcDbEntity
  8
STANDARD
  6
STANDARD
 62
     7
100
AcDbCircle
 10
-8.018076852585409
 20
1251.402688559092
 30
0.0
 40
16.50005678687836
100
AcDbArc
 50
88.23260029387611
 51
179.1159918548077
  0
ARC
  5
3DD
330
1F
100
AcDbEntity
  8
STANDARD
  6
STANDARD
 62
     7
100
AcDbCircle
 10
-431.0160340627232
 20
151.4008761930507
 30
0.0
 40
16.50011748247523
100
AcDbArc
 50
178.2328143305616
 51
269.115777818122
  0
ARC
  5
3DE
330
1F
100
AcDbEntity
  8
STANDARD
  6
STANDARD
 62
     7
100
AcDbCircle
 10
680.483966594311
 20
151.4008986731498
 30
0.0
 40
16.50014032326277
100
AcDbArc
 50
178.2328948755959
 51
269.1156972730878
  0
ARC
  5
3E0
330
1F
100
AcDbEntity
  8
STANDARD
  6
STANDARD
 62
     7
100
AcDbCircle
 10
-8.0161775918437
 20
266.4027388038301
 30
0.0
 40
35.00001505965235
100
AcDbArc
 50
120.0000142334029
 51
239.999985766597
  0
ARC
  5
3E1
330
1F
100
AcDbEntity
  8
STANDARD
  6
STANDARD
 62
     7
100
AcDbCircle
 10
-8.016183981338429
 20
266.4027388038301
 30
0.0
 40
35.00000319474827
100
AcDbArc
 50
299.9999805915909
 51
60.00001940840898
  0
ARC
  5
3E2
330
1F
100
AcDbEntity
  8
STANDARD
  6
STANDARD
 62
     7
100
AcDbCircle
 10
564.9838092558526
 20
151.4027373453542
 30
0.0
 40
34.99999854152521
100
AcDbArc
 50
209.9999986215416
 51
330.0000013784583
  0
ARC
  5
3E3
330
1F
100
AcDbEntity
  8
STANDARD
  6
STANDARD
 62
     7
100
AcDbCircle
 10
-8.016192651495998
 20
1251.40274607896
 30
0.0
 40
35.00001383027306
100
AcDbArc
 50
299.9999869285278
 51
240.0000130714721
  0
ARC
  5
3E4
330
1F
100
AcDbEntity
  8
STANDARD
  6
STANDARD
 62
     7
100
AcDbCircle
 10
-431.016219133853
 20
151.4027388038301
 30
0.0
 40
35.00000403522118
100
AcDbArc
 50
29.99999618617005
 51
330.0000038138299
  0
LINE
  5
3E6
330
1F
100
AcDbEntity
  8
STANDARD
  6
STANDARD
 62
     7
100
AcDbLine
 10
-24.5161697633124
 20
173.3991224708223
 30
0.0
 11
-23.95395968030459
 21
172.8369123878145
 31
0.0
  0
LINE
  5
3E7
330
1F
100
AcDbEntity
  8
STANDARD
  6
STANDARD
 62
     7
100
AcDbLine
 10
-23.36432192395693
 20
172.6494963111544
 30
0.0
 11
-22.30559084485537
 21
171.5907652320528
 31
0.0
  0
LINE
  5
3E8
330
1F
100
AcDbEntity
  8
STANDARD
  6
STANDARD
 62
     7
100
AcDbLine
 10
667.4080016844414
 20
141.3356764259004
 30
0.0
 11
668.036988043084
 21
140.7097608985567
 31
0.0
  0
LINE
  5
3E9
330
1F
100
AcDbEntity
  8
STANDARD
  6
STANDARD
 62
     7
100
AcDbLine
 10
669.5515372984552
 20
139.2024977149629
 30
0.0
 11
670.4838111632012
 21
138.2746870460176
 31
0.0
  0
LINE
  5
3EB
330
1F
100
AcDbEntity
  8
STANDARD
  6
STANDARD
 62
     7
100
AcDbLine
 10
3.651058935418063
 20
169.9396498145723
 30
0.0
 11
4.163067602410251
 21
170.4516966285372
 31
0.0
  0
LINE
  5
3EC
330
1F
100
AcDbEntity
  8
STANDARD
  6
STANDARD
 62
     7
100
AcDbLine
 10
6.273243688836032
 20
171.5907652320528
 30
0.0
 11
7.331936620964938
 21
172.6494963111544
 31
0.0
  0
LINE
  5
3EF
330
1F
100
AcDbEntity
  8
STANDARD
  6
STANDARD
 62
     7
100
AcDbLine
 10
666.5533187620781
 20
160.2433760108614
 30
0.0
 11
666.7199447386407
 21
160.4383833350801
 31
0.0
  0
LINE
  5
3F0
330
1F
100
AcDbEntity
  8
STANDARD
  6
STANDARD
 62
     7
100
AcDbLine
 10
668.6792686216973
 20
162.7318556251192
 30
0.0
 11
669.5740821592949
 21
163.7792952003145
 31
0.0
  0
LINE
  5
3F2
330
1F
100
AcDbEntity
  8
STANDARD
  6
STANDARD
 62
     7
100
AcDbLine
 10
-442.6834747559885
 20
139.7354872169161
 30
0.0
 11
-441.0712311036444
 21
138.4983808936739
 31
0.0
  0
LINE
  5
3F3
330
1F
100
AcDbEntity
  8
STANDARD
  6
STANDARD
 62
     7
100
AcDbLine
 10
-439.3965790040351
 20
137.2133619727754
 30
0.0
 11
-439.266192651496
 21
137.1133406104708
 31
0.0
  0
LINE
  5
3F4
330
1F
100
AcDbEntity
  8
STANDARD
  6
STANDARD
 62
     7
100
AcDbLine
 10
0.2338149778985326
 20
1265.692175144162
 30
0.0
 11
0.7414367430352513
 21
1265.302656406369
 31
0.0
  0
LINE
  5
3F5
330
1F
100
AcDbEntity
  8
STANDARD
  6
STANDARD
 62
     7
100
AcDbLine
 10
2.246907018914157
 20
1264.14745163342
 30
0.0
 11
3.651058935418063
 21
1263.069990390744
 31
0.0
  0
LINE
  5
3F6
330
1F
100
AcDbEntity
  8
STANDARD
  6
STANDARD
 62
     7
100
AcDbLine
 10
-445.3056213624335
 20
159.652708286252
 30
0.0
 11
-444.9160644776679
 21
160.1603681983614
 31
0.0
  0
LINE
  5
3F7
330
1F
100
AcDbEntity
  8
STANDARD
  6
STANDARD
 62
     7
100
AcDbLine
 10
-443.7608978516912
 20
161.6658384742403
 30
0.0
 11
-442.6834747559885
 21
163.0699903907442
 31
0.0
  0
LINE
  5
3F8
330
1F
100
AcDbEntity
  8
STANDARD
  6
STANDARD
 62
     7
100
AcDbLine
 10
-22.30559084485537
 20
1259.652746433225
 30
0.0
 11
-22.20556948255068
 21
1259.783132785764
 31
0.0
  0
LINE
  5
3F9
330
1F
100
AcDbEntity
  8
STANDARD
  6
STANDARD
 62
     7
100
AcDbLine
 10
-20.92055056165225
 20
1261.4577467384
 30
0.0
 11
-19.68344423841006
 21
1263.069990390744
 31
0.0
  0
LINE
  5
3FA
330
1F
100
AcDbEntity
  8
STANDARD
  6
STANDARD
 62
     7
100
AcDbLine
 10
668.9068916075371
 20
139.6438581885957
 30
0.0
 11
669.733822607293
 21
139.0210707130098
 31
0.0
  0
LINE
  5
3FB
330
1F
100
AcDbEntity
  8
STANDARD
  6
STANDARD
 62
     7
100
AcDbLine
 10
672.176506780877
 20
137.1814711036348
 30
0.0
 11
672.3812034361505
 21
137.0272810401583
 31
0.0
  0
LINE
  5
400
330
1F
100
AcDbEntity
  8
STANDARD
  6
STANDARD
 62
     7
100
AcDbLine
 10
-19.68344423841006
 20
169.9396498145723
 30
0.0
 11
-16.26620028089052
 21
167.9276258887911
 31
0.0
  0
LINE
  5
403
330
1F
100
AcDbEntity
  8
STANDARD
  6
STANDARD
 62
     7
100
AcDbLine
 10
665.2804115049981
 20
157.8105909766817
 30
0.0
 11
666.202500128045
 21
159.3808729591036
 31
0.0
  0
LINE
  5
404
330
1F
100
AcDbEntity
  8
STANDARD
  6
STANDARD
 62
     7
100
AcDbLine
 10
667.1888473265313
 20
161.0605604591036
 30
0.0
 11
667.4776962034845
 21
161.5525038184786
 31
0.0
  0
LINE
  5
405
330
1F
100
AcDbEntity
  8
STANDARD
  6
STANDARD
 62
     7
100
AcDbLine
 10
-13.20753786633974
 20
166.9554502906465
 30
0.0
 11
-12.28670809339053
 21
166.4583952369356
 31
0.0
  0
LINE
  5
406
330
1F
100
AcDbEntity
  8
STANDARD
  6
STANDARD
 62
     7
100
AcDbLine
 10
-22.30559084485537
 20
171.5907652320528
 30
0.0
 11
-20.19545290540225
 21
170.4516966285372
 31
0.0
  0
LINE
  5
408
330
1F
100
AcDbEntity
  8
STANDARD
  6
STANDARD
 62
     7
100
AcDbLine
 10
670.4838111632012
 20
138.2746870460176
 30
0.0
 11
671.129200720086
 21
137.9361708106661
 31
0.0
  0
LINE
  5
409
330
1F
100
AcDbEntity
  8
STANDARD
  6
STANDARD
 62
     7
100
AcDbLine
 10
674.5224693052911
 20
136.1563093604708
 30
0.0
 11
675.3706672423028
 21
135.7113630714082
 31
0.0
  0
LINE
  5
40B
330
1F
100
AcDbEntity
  8
STANDARD
  6
STANDARD
 62
     7
100
AcDbLine
 10
8.393032812371188
 20
297.2222502174044
 30
0.0
 11
9.483807348504001
 21
296.7136366309786
 31
0.0
  0
LINE
  5
40C
330
1F
100
AcDbEntity
  8
STANDARD
  6
STANDARD
 62
     7
100
AcDbLine
 10
-25.516192651496
 20
236.0918409766817
 30
0.0
 11
-24.38029024671084
 21
235.5621702613496
 31
0.0
  0
LINE
  5
40D
330
1F
100
AcDbEntity
  8
STANDARD
  6
STANDARD
 62
     7
100
AcDbLine
 10
-25.516192651496
 20
1221.091840976681
 30
0.0
 11
-24.5161697633124
 21
1220.625532382932
 31
0.0
  0
LINE
  5
40E
330
1F
100
AcDbEntity
  8
STANDARD
  6
STANDARD
 62
     7
100
AcDbLine
 10
-400.7053253419257
 20
133.9027388038301
 30
0.0
 11
-400.2390167481756
 21
134.9027235450411
 31
0.0
  0
LINE
  5
40F
330
1F
100
AcDbEntity
  8
STANDARD
  6
STANDARD
 62
     7
100
AcDbLine
 10
595.2946975462579
 20
133.9027388038301
 30
0.0
 11
595.7610061400079
 21
134.9027235450411
 31
0.0
  0
LINE
  5
410
330
1F
100
AcDbEntity
  8
STANDARD
  6
STANDARD
 62
     7
100
AcDbLine
 10
534.1526057951592
 20
167.7869017066622
 30
0.0
 11
534.6729209654474
 21
168.9027388038301
 31
0.0
  0
LINE
  5
411
330
1F
100
AcDbEntity
  8
STANDARD
  6
STANDARD
 62
     7
100
AcDbLine
 10
664.6391990416192
 20
156.0049421729708
 30
0.0
 11
664.7447898619317
 21
156.2387831153536
 31
0.0
  0
LINE
  5
412
330
1F
100
AcDbEntity
  8
STANDARD
  6
STANDARD
 62
     7
100
AcDbLine
 10
666.0349204771661
 20
159.0954573096895
 30
0.0
 11
666.5533187620781
 21
160.2433760108614
 31
0.0
  0
LINE
  5
413
330
1F
100
AcDbEntity
  8
STANDARD
  6
STANDARD
 62
     7
100
AcDbLine
 10
-439.266192651496
 20
137.1133406104708
 30
0.0
 11
-437.3750183350897
 21
136.329954380002
 31
0.0
  0
LINE
  5
415
330
1F
100
AcDbEntity
  8
STANDARD
  6
STANDARD
 62
     7
100
AcDbLine
 10
-3.745677209601467
 20
1267.340505832639
 30
0.0
 11
-3.327853418097561
 21
1267.167433017697
 31
0.0
  0
LINE
  5
416
330
1F
100
AcDbEntity
  8
STANDARD
  6
STANDARD
 62
     7
100
AcDbLine
 10
-1.646067834601467
 20
1266.470831150021
 30
0.0
 11
0.2338149778985326
 21
1265.692175144162
 31
0.0
  0
LINE
  5
417
330
1F
100
AcDbEntity
  8
STANDARD
  6
STANDARD
 62
     7
100
AcDbLine
 10
-446.95395205091
 20
155.673216098752
 30
0.0
 11
-446.7809173829413
 21
156.0910780372286
 31
0.0
  0
LINE
  5
418
330
1F
100
AcDbEntity
  8
STANDARD
  6
STANDARD
 62
     7
100
AcDbLine
 10
-446.0842773682928
 20
157.772825473752
 30
0.0
 11
-445.3056213624335
 21
159.652708286252
 31
0.0
  0
LINE
  5
419
330
1F
100
AcDbEntity
  8
STANDARD
  6
STANDARD
 62
     7
100
AcDbLine
 10
-23.08893892835147
 20
1257.761610263791
 30
0.0
 11
-22.30559084485537
 21
1259.652746433225
 31
0.0
  0
LINE
  5
41A
330
1F
100
AcDbEntity
  8
STANDARD
  6
STANDARD
 62
     7
100
AcDbLine
 10
672.3812034361505
 20
137.0272810401583
 30
0.0
 11
674.1656425230645
 21
136.3121778907442
 31
0.0
  0
LINE
  5
41C
330
1F
100
AcDbEntity
  8
STANDARD
  6
STANDARD
 62
     7
100
AcDbLine
 10
-23.95395968030459
 20
172.8369123878145
 30
0.0
 11
-23.36432192395693
 21
172.6494963111544
 31
0.0
  0
LINE
  5
41D
330
1F
100
AcDbEntity
  8
STANDARD
  6
STANDARD
 62
     7
100
AcDbLine
 10
-16.26620028089052
 20
167.9276258887911
 30
0.0
 11
-13.20753786633974
 21
166.9554502906465
 31
0.0
  0
LINE
  5
423
330
1F
100
AcDbEntity
  8
STANDARD
  6
STANDARD
 62
     7
100
AcDbLine
 10
664.1346671812677
 20
153.6251814307832
 30
0.0
 11
664.5611312620782
 21
155.1830275001192
 31
0.0
  0
LINE
  5
424
330
1F
100
AcDbEntity
  8
STANDARD
  6
STANDARD
 62
     7
100
AcDbLine
 10
665.0851371519707
 20
157.0971662940645
 30
0.0
 11
665.2804115049981
 21
157.8105909766817
 31
0.0
  0
LINE
  5
425
330
1F
100
AcDbEntity
  8
STANDARD
  6
STANDARD
 62
     7
100
AcDbLine
 10
-12.28670809339053
 20
166.4583952369356
 30
0.0
 11
-8.016192651495998
 21
165.7256681861543
 31
0.0
  0
LINE
  5
428
330
1F
100
AcDbEntity
  8
STANDARD
  6
STANDARD
 62
     7
100
AcDbLine
 10
664.4800498716973
 20
154.8868544044161
 30
0.0
 11
664.6391990416192
 21
156.0049421729708
 31
0.0
  0
LINE
  5
429
330
1F
100
AcDbEntity
  8
STANDARD
  6
STANDARD
 62
     7
100
AcDbLine
 10
-431.0162231690744
 20
167.9027540626192
 30
0.0
 11
-430.00815126966
 21
167.7700407447481
 31
0.0
  0
LINE
  5
42A
330
1F
100
AcDbEntity
  8
STANDARD
  6
STANDARD
 62
     7
100
AcDbLine
 10
-435.286700463996
 20
135.4649336280489
 30
0.0
 11
-433.237139917121
 21
135.1951582374239
 31
0.0
  0
LINE
  5
42B
330
1F
100
AcDbEntity
  8
STANDARD
  6
STANDARD
 62
     7
100
AcDbLine
 10
564.9838187925958
 20
167.9027540626192
 30
0.0
 11
566.0023715727471
 21
167.7686293067598
 31
0.0
  0
LINE
  5
42C
330
1F
100
AcDbEntity
  8
STANDARD
  6
STANDARD
 62
     7
100
AcDbLine
 10
680.4838111632013
 20
167.9027540626192
 30
0.0
 11
681.4918258421563
 21
167.7700407447481
 31
0.0
  0
LINE
  5
42E
330
1F
100
AcDbEntity
  8
STANDARD
  6
STANDARD
 62
     7
100
AcDbLine
 10
-6.117503381476467
 20
1267.652776950803
 30
0.0
 11
-3.745677209601467
 21
1267.340505832639
 31
0.0
  0
LINE
  5
42F
330
1F
100
AcDbEntity
  8
STANDARD
  6
STANDARD
 62
     7
100
AcDbLine
 10
-447.266223169074
 20
153.301389926877
 30
0.0
 11
-446.95395205091
 21
155.673216098752
 31
0.0
  0
LINE
  5
430
330
1F
100
AcDbEntity
  8
STANDARD
  6
STANDARD
 62
     7
100
AcDbLine
 10
8.369801306023532
 20
265.5366499366426
 30
0.0
 11
8.483822607293063
 21
266.4027388038301
 31
0.0
  0
LINE
  5
431
330
1F
100
AcDbEntity
  8
STANDARD
  6
STANDARD
 62
     7
100
AcDbLine
 10
-24.5161697633124
 20
266.4027388038301
 30
0.0
 11
-24.38029024671084
 21
267.4349577369356
 31
0.0
  0
LINE
  5
432
330
1F
100
AcDbEntity
  8
STANDARD
  6
STANDARD
 62
     7
100
AcDbLine
 10
8.35110928942197
 20
1250.394705051388
 30
0.0
 11
8.483822607293063
 21
1251.40273880383
 31
0.0
  0
LINE
  5
433
330
1F
100
AcDbEntity
  8
STANDARD
  6
STANDARD
 62
     7
100
AcDbLine
 10
-24.2238113648749
 20
1253.623655551877
 30
0.0
 11
-23.95395968030459
 21
1255.673254245724
 31
0.0
  0
LINE
  5
434
330
1F
100
AcDbEntity
  8
STANDARD
  6
STANDARD
 62
     7
100
AcDbLine
 10
676.4185264341973
 20
135.4093916358614
 30
0.0
 11
678.3278205626153
 21
135.1854689063692
 31
0.0
  0
LINE
  5
439
330
1F
100
AcDbEntity
  8
STANDARD
  6
STANDARD
 62
     7
100
AcDbLine
 10
-435.286700463996
 20
167.3405058326387
 30
0.0
 11
-434.0746948487616
 21
167.5000746192598
 31
0.0
  0
LINE
  5
43A
330
1F
100
AcDbEntity
  8
STANDARD
  6
STANDARD
 62
     7
100
AcDbLine
 10
-432.0242187745428
 20
167.7700407447481
 30
0.0
 11
-431.0162231690744
 21
167.9027540626192
 31
0.0
  0
LINE
  5
43B
330
1F
100
AcDbEntity
  8
STANDARD
  6
STANDARD
 62
     7
100
AcDbLine
 10
563.9652660124444
 20
167.7686293067598
 30
0.0
 11
564.9838187925958
 21
167.9027540626192
 31
0.0
  0
LINE
  5
43E
330
1F
100
AcDbEntity
  8
STANDARD
  6
STANDARD
 62
     7
100
AcDbLine
 10
-9.998309350714748
 20
1267.641790622678
 30
0.0
 11
-8.016192651495998
 21
1267.902754062619
 31
0.0
  0
LINE
  5
43F
330
1F
100
AcDbEntity
  8
STANDARD
  6
STANDARD
 62
     7
100
AcDbLine
 10
-447.5161621339179
 20
151.4027388038301
 30
0.0
 11
-447.2552368409491
 21
149.4206221046114
 31
0.0
  0
LINE
  5
440
330
1F
100
AcDbEntity
  8
STANDARD
  6
STANDARD
 62
     7
100
AcDbLine
 10
8.369801306023532
 20
267.2688276710176
 30
0.0
 11
8.483822607293063
 21
266.4027388038301
 31
0.0
  0
LINE
  5
441
330
1F
100
AcDbEntity
  8
STANDARD
  6
STANDARD
 62
     7
100
AcDbLine
 10
-24.5161697633124
 20
266.4027388038301
 30
0.0
 11
-24.38029024671084
 21
265.3705198707247
 31
0.0
  0
LINE
  5
442
330
1F
100
AcDbEntity
  8
STANDARD
  6
STANDARD
 62
     7
100
AcDbLine
 10
663.9838149778985
 20
151.400755161252
 30
0.0
 11
664.1233756773614
 21
150.3511030616426
 31
0.0
  0
LINE
  5
443
330
1F
100
AcDbEntity
  8
STANDARD
  6
STANDARD
 62
     7
100
AcDbLine
 10
7.921612524285251
 20
1255.673254245724
 30
0.0
 11
8.081143163933688
 21
1254.461286777463
 31
0.0
  0
LINE
  5
444
330
1F
100
AcDbEntity
  8
STANDARD
  6
STANDARD
 62
     7
100
AcDbLine
 10
8.35110928942197
 20
1252.410772556271
 30
0.0
 11
8.483822607293063
 21
1251.40273880383
 31
0.0
  0
LINE
  5
445
330
1F
100
AcDbEntity
  8
STANDARD
  6
STANDARD
 62
     7
100
AcDbLine
 10
-8.016192651495998
 20
165.7256681861543
 30
0.0
 11
-3.745677209601467
 21
166.4583952369356
 31
0.0
  0
LINE
  5
446
330
1F
100
AcDbEntity
  8
STANDARD
  6
STANDARD
 62
     7
100
AcDbLine
 10
674.3567588560723
 20
166.7193205299043
 30
0.0
 11
677.3314979307794
 21
167.4744017066622
 31
0.0
  0
LINE
  5
447
330
1F
100
AcDbEntity
  8
STANDARD
  6
STANDARD
 62
     7
100
AcDbLine
 10
664.1197135679864
 20
149.2858107032442
 30
0.0
 11
664.3441512816094
 21
148.4431440772676
 31
0.0
  0
LINE
  5
448
330
1F
100
AcDbEntity
  8
STANDARD
  6
STANDARD
 62
     7
100
AcDbLine
 10
664.8971107237481
 20
146.3671095313692
 30
0.0
 11
665.2365615599298
 21
145.0926954688692
 31
0.0
  0
LINE
  5
449
330
1F
100
AcDbEntity
  8
STANDARD
  6
STANDARD
 62
     7
100
AcDbLine
 10
676.4530112974786
 20
167.2513945045137
 30
0.0
 11
677.9068305723809
 21
167.6982862891817
 31
0.0
  0
LINE
  5
44A
330
1F
100
AcDbEntity
  8
STANDARD
  6
STANDARD
 62
     7
100
AcDbLine
 10
7.331936620964938
 20
172.6494963111544
 30
0.0
 11
7.921612524285251
 21
172.8369123878145
 31
0.0
  0
LINE
  5
44B
330
1F
100
AcDbEntity
  8
STANDARD
  6
STANDARD
 62
     7
100
AcDbLine
 10
-2.824809289679592
 20
166.9554502906465
 30
0.0
 11
0.2338149778985326
 21
167.9276258887911
 31
0.0
  0
LINE
  5
453
330
1F
100
AcDbEntity
  8
STANDARD
  6
STANDARD
 62
     7
100
AcDbLine
 10
-439.266192651496
 20
165.6921751441622
 30
0.0
 11
-438.3204529054022
 21
166.0839064063692
 31
0.0
  0
LINE
  5
454
330
1F
100
AcDbEntity
  8
STANDARD
  6
STANDARD
 62
     7
100
AcDbLine
 10
-436.5158722169256
 20
166.8313963355684
 30
0.0
 11
-435.286700463996
 21
167.3405058326387
 31
0.0
  0
LINE
  5
455
330
1F
100
AcDbEntity
  8
STANDARD
  6
STANDARD
 62
     7
100
AcDbLine
 10
-14.14362642835146
 20
1266.571348422971
 30
0.0
 11
-12.28670809339053
 21
1267.340505832639
 31
0.0
  0
LINE
  5
456
330
1F
100
AcDbEntity
  8
STANDARD
  6
STANDARD
 62
     7
100
AcDbLine
 10
-446.95395205091
 20
147.1322615089083
 30
0.0
 11
-446.1848327882147
 21
145.275266880002
 31
0.0
  0
LINE
  5
457
330
1F
100
AcDbEntity
  8
STANDARD
  6
STANDARD
 62
     7
100
AcDbLine
 10
664.5570686094903
 20
147.0893080176973
 30
0.0
 11
664.9628951780938
 21
146.1201460303926
 31
0.0
  0
LINE
  5
458
330
1F
100
AcDbEntity
  8
STANDARD
  6
STANDARD
 62
     7
100
AcDbLine
 10
6.273243688836032
 20
1259.652746433225
 30
0.0
 11
6.664974951043063
 21
1258.707044834103
 31
0.0
  0
LINE
  5
459
330
1F
100
AcDbEntity
  8
STANDARD
  6
STANDARD
 62
     7
100
AcDbLine
 10
7.412464880242282
 20
1256.902425998654
 30
0.0
 11
7.921612524285251
 21
1255.673254245724
 31
0.0
  0
LINE
  5
45B
330
1F
100
AcDbEntity
  8
STANDARD
  6
STANDARD
 62
     7
100
AcDbLine
 10
8.393032812371188
 20
235.5832273902559
 30
0.0
 11
9.483807348504001
 21
236.0918409766817
 31
0.0
  0
LINE
  5
45C
330
1F
100
AcDbEntity
  8
STANDARD
  6
STANDARD
 62
     7
100
AcDbLine
 10
-25.516192651496
 20
296.7136366309786
 30
0.0
 11
-24.38029024671084
 21
297.2433073463106
 31
0.0
  0
LINE
  5
45D
330
1F
100
AcDbEntity
  8
STANDARD
  6
STANDARD
 62
     7
100
AcDbLine
 10
8.35110928942197
 20
1220.563657993283
 30
0.0
 11
9.483807348504001
 21
1221.091840976681
 31
0.0
  0
LINE
  5
45E
330
1F
100
AcDbEntity
  8
STANDARD
  6
STANDARD
 62
     7
100
AcDbLine
 10
-400.7053253419257
 20
168.9027388038301
 30
0.0
 11
-400.1771423585272
 21
167.7700407447481
 31
0.0
  0
LINE
  5
45F
330
1F
100
AcDbEntity
  8
STANDARD
  6
STANDARD
 62
     7
100
AcDbLine
 10
595.2946975462579
 20
168.9027388038301
 30
0.0
 11
595.8150222532891
 21
167.7869017066622
 31
0.0
  0
LINE
  5
460
330
1F
100
AcDbEntity
  8
STANDARD
  6
STANDARD
 62
     7
100
AcDbLine
 10
534.2066219084405
 20
134.9027235450411
 30
0.0
 11
534.6729209654474
 21
133.9027388038301
 31
0.0
  0
LINE
  5
461
330
1F
100
AcDbEntity
  8
STANDARD
  6
STANDARD
 62
     7
100
AcDbLine
 10
-3.745677209601467
 20
166.4583952369356
 30
0.0
 11
-2.824809289679592
 21
166.9554502906465
 31
0.0
  0
LINE
  5
462
330
1F
100
AcDbEntity
  8
STANDARD
  6
STANDARD
 62
     7
100
AcDbLine
 10
4.163067602410251
 20
170.4516966285372
 30
0.0
 11
6.273243688836032
 21
171.5907652320528
 31
0.0
  0
LINE
  5
464
330
1F
100
AcDbEntity
  8
STANDARD
  6
STANDARD
 62
     7
100
AcDbLine
 10
670.5745437376641
 20
164.5921690406465
 30
0.0
 11
672.656300329461
 21
165.7629759254121
 31
0.0
  0
LINE
  5
465
330
1F
100
AcDbEntity
  8
STANDARD
  6
STANDARD
 62
     7
100
AcDbLine
 10
674.1494109861993
 20
166.6027433814669
 30
0.0
 11
674.3567588560723
 21
166.7193205299043
 31
0.0
  0
LINE
  5
466
330
1F
100
AcDbEntity
  8
STANDARD
  6
STANDARD
 62
     7
100
AcDbLine
 10
665.2365615599298
 20
145.0926954688692
 30
0.0
 11
665.6768348448419
 21
144.3309004249239
 31
0.0
  0
LINE
  5
467
330
1F
100
AcDbEntity
  8
STANDARD
  6
STANDARD
 62
     7
100
AcDbLine
 10
666.7487647764825
 20
142.4762709083223
 30
0.0
 11
667.4080016844414
 21
141.3356764259004
 31
0.0
  0
LINE
  5
468
330
1F
100
AcDbEntity
  8
STANDARD
  6
STANDARD
 62
     7
100
AcDbLine
 10
0.2338149778985326
 20
167.9276258887911
 30
0.0
 11
3.651058935418063
 21
169.9396498145723
 31
0.0
  0
LINE
  5
46B
330
1F
100
AcDbEntity
  8
STANDARD
  6
STANDARD
 62
     7
100
AcDbLine
 10
669.5740821592949
 20
163.7792952003145
 30
0.0
 11
669.7885253660821
 21
163.9200956763887
 31
0.0
  0
LINE
  5
46C
330
1F
100
AcDbEntity
  8
STANDARD
  6
STANDARD
 62
     7
100
AcDbLine
 10
672.2299316160821
 20
165.523184055295
 30
0.0
 11
673.4615257017755
 21
166.3318617286348
 31
0.0
  0
LINE
  5
471
330
1F
100
AcDbEntity
  8
STANDARD
  6
STANDARD
 62
     7
100
AcDbLine
 10
-442.6834747559885
 20
163.0699903907442
 30
0.0
 11
-442.024981713996
 21
163.5752470435762
 31
0.0
  0
LINE
  5
472
330
1F
100
AcDbEntity
  8
STANDARD
  6
STANDARD
 62
     7
100
AcDbLine
 10
-440.4890320069647
 20
164.7538740577364
 30
0.0
 11
-439.266192651496
 21
165.6921751441622
 31
0.0
  0
LINE
  5
473
330
1F
100
AcDbEntity
  8
STANDARD
  6
STANDARD
 62
     7
100
AcDbLine
 10
-19.68344423841006
 20
1263.069990390744
 30
0.0
 11
-19.53520510266787
 21
1263.183744663205
 31
0.0
  0
LINE
  5
474
330
1F
100
AcDbEntity
  8
STANDARD
  6
STANDARD
 62
     7
100
AcDbLine
 10
-17.86909792493349
 20
1264.462164157834
 30
0.0
 11
-16.26620028089052
 21
1265.692175144162
 31
0.0
  0
LINE
  5
475
330
1F
100
AcDbEntity
  8
STANDARD
  6
STANDARD
 62
     7
100
AcDbLine
 10
-445.3056213624335
 20
143.1527693214083
 30
0.0
 11
-444.0756103761057
 21
141.5498335303926
 31
0.0
  0
LINE
  5
476
330
1F
100
AcDbEntity
  8
STANDARD
  6
STANDARD
 62
     7
100
AcDbLine
 10
-442.7972290284491
 20
139.8837263526583
 30
0.0
 11
-442.6834747559885
 21
139.7354872169161
 31
0.0
  0
LINE
  5
477
330
1F
100
AcDbEntity
  8
STANDARD
  6
STANDARD
 62
     7
100
AcDbLine
 10
3.651058935418063
 20
1263.069990390744
 30
0.0
 11
4.156315588250095
 21
1262.411535495725
 31
0.0
  0
LINE
  5
478
330
1F
100
AcDbEntity
  8
STANDARD
  6
STANDARD
 62
     7
100
AcDbLine
 10
5.334942602410251
 20
1260.875547641721
 30
0.0
 11
6.273243688836032
 21
1259.652746433225
 31
0.0
  0
LINE
  5
479
330
1F
100
AcDbEntity
  8
STANDARD
  6
STANDARD
 62
     7
100
AcDbLine
 10
666.2370040648125
 20
143.0773909034395
 30
0.0
 11
666.8770911924981
 21
142.2542555274629
 31
0.0
  0
LINE
  5
47A
330
1F
100
AcDbEntity
  8
STANDARD
  6
STANDARD
 62
     7
100
AcDbLine
 10
668.7495925657891
 20
139.8461897315645
 30
0.0
 11
668.9068916075371
 21
139.6438581885957
 31
0.0
  0
LINE
  5
47D
330
1F
100
AcDbEntity
  8
STANDARD
  6
STANDARD
 62
     7
100
AcDbLine
 10
667.4776962034845
 20
161.5525038184786
 30
0.0
 11
668.9486625425957
 21
162.9962904395723
 31
0.0
  0
LINE
  5
47E
330
1F
100
AcDbEntity
  8
STANDARD
  6
STANDARD
 62
     7
100
AcDbLine
 10
670.286686682
 20
164.3096144141817
 30
0.0
 11
670.5745437376641
 21
164.5921690406465
 31
0.0
  0
LINE
  5
47F
330
1F
100
AcDbEntity
  8
STANDARD
  6
STANDARD
 62
     7
100
AcDbLine
 10
7.921612524285251
 20
172.8369123878145
 30
0.0
 11
8.483822607293063
 21
173.3991224708223
 31
0.0
  0
LINE
  5
481
330
1F
100
AcDbEntity
  8
STANDARD
  6
STANDARD
 62
     7
100
AcDbLine
 10
-20.19545290540225
 20
170.4516966285372
 30
0.0
 11
-19.68344423841006
 21
169.9396498145723
 31
0.0
  0
LINE
  5
483
330
1F
100
AcDbEntity
  8
STANDARD
  6
STANDARD
 62
     7
100
AcDbLine
 10
-364.0161773927069
 20
134.9027235450411
 30
0.0
 11
-364.0161773927069
 21
167.7869017066622
 31
0.0
  0
LINE
  5
484
330
1F
100
AcDbEntity
  8
STANDARD
  6
STANDARD
 62
     7
100
AcDbLine
 10
-445.3858825929022
 20
143.1527693214083
 30
0.0
 11
-445.3056213624335
 21
143.3466322364473
 31
0.0
  0
LINE
  5
485
330
1F
100
AcDbEntity
  8
STANDARD
  6
STANDARD
 62
     7
100
AcDbLine
 10
-446.9843933350897
 20
147.1322615089083
 30
0.0
 11
-446.95395205091
 21
147.3634321632051
 31
0.0
  0
LINE
  5
486
330
1F
100
AcDbEntity
  8
STANDARD
  6
STANDARD
 62
     7
100
AcDbLine
 10
-447.5161621339179
 20
151.4027388038301
 30
0.0
 11
-447.4826690919257
 21
151.6573316993379
 31
0.0
  0
LINE
  5
487
330
1F
100
AcDbEntity
  8
STANDARD
  6
STANDARD
 62
     7
100
AcDbLine
 10
664.1197135679864
 20
149.2858107032442
 30
0.0
 11
664.1242530577325
 21
150.6057722510957
 31
0.0
  0
LINE
  5
488
330
1F
100
AcDbEntity
  8
STANDARD
  6
STANDARD
 62
     7
100
AcDbLine
 10
664.1315200560235
 20
152.7136213721895
 30
0.0
 11
664.1346671812677
 21
153.6251814307832
 31
0.0
  0
LINE
  5
489
330
1F
100
AcDbEntity
  8
STANDARD
  6
STANDARD
 62
     7
100
AcDbLine
 10
666.1380317442559
 20
143.0773909034395
 30
0.0
 11
666.2370040648125
 21
143.3137495460176
 31
0.0
  0
LINE
  5
48A
330
1F
100
AcDbEntity
  8
STANDARD
  6
STANDARD
 62
     7
100
AcDbLine
 10
664.5232894652032
 20
147.0893080176973
 30
0.0
 11
664.5570686094903
 21
147.3432905616426
 31
0.0
  0
LINE
  5
48B
330
1F
100
AcDbEntity
  8
STANDARD
  6
STANDARD
 62
     7
100
AcDbLine
 10
663.9838149778985
 20
151.400755161252
 30
0.0
 11
664.0185859434747
 21
151.6450483741426
 31
0.0
  0
LINE
  5
48E
330
1F
100
AcDbEntity
  8
STANDARD
  6
STANDARD
 62
     7
100
AcDbLine
 10
740.4838302366876
 20
116.4027388038301
 30
0.0
 11
740.4838302366876
 21
186.4027388038301
 31
0.0
  0
LINE
  5
48F
330
1F
100
AcDbEntity
  8
STANDARD
  6
STANDARD
 62
     7
100
AcDbLine
 10
753.9838149778985
 20
116.4027388038301
 30
0.0
 11
753.9838149778985
 21
186.4027388038301
 31
0.0
  0
LINE
  5
494
330
1F
100
AcDbEntity
  8
STANDARD
  6
STANDARD
 62
     7
100
AcDbLine
 10
-27.51620028089053
 20
851.4027388038302
 30
0.0
 11
-27.51620028089053
 21
865.5396397056247
 31
0.0
  0
LINE
  5
496
330
1F
100
AcDbEntity
  8
STANDARD
  6
STANDARD
 62
     7
100
AcDbLine
 10
11.48381497789853
 20
851.4027388038302
 30
0.0
 11
11.48381497789853
 21
865.5396397056247
 31
0.0
  0
LINE
  5
499
330
1F
100
AcDbEntity
  8
STANDARD
  6
STANDARD
 62
     7
100
AcDbLine
 10
21.983807348504
 20
129.3991072120332
 30
0.0
 11
21.983807348504
 21
173.3991224708223
 31
0.0
  0
LINE
  5
49D
330
1F
100
AcDbEntity
  8
STANDARD
  6
STANDARD
 62
     7
100
AcDbLine
 10
-38.016192651496
 20
129.3991072120332
 30
0.0
 11
-38.016192651496
 21
173.3991224708223
 31
0.0
  0
LINE
  5
49F
330
1F
100
AcDbEntity
  8
STANDARD
  6
STANDARD
 62
     7
100
AcDbLine
 10
-23.95395968030459
 20
1255.673254245724
 30
0.0
 11
-23.89948580335147
 21
1255.804785007443
 31
0.0
  0
LINE
  5
4A0
330
1F
100
AcDbEntity
  8
STANDARD
  6
STANDARD
 62
     7
100
AcDbLine
 10
-24.5161697633124
 20
173.3991224708223
 30
0.0
 11
-24.5161697633124
 21
197.3991377296114
 31
0.0
  0
LINE
  5
4A1
330
1F
100
AcDbEntity
  8
STANDARD
  6
STANDARD
 62
     7
100
AcDbLine
 10
-24.47794649671084
 20
265.3705198707247
 30
0.0
 11
-24.47794649671084
 21
266.4027388038301
 31
0.0
  0
LINE
  5
4A2
330
1F
100
AcDbEntity
  8
STANDARD
  6
STANDARD
 62
     7
100
AcDbLine
 10
-24.5161697633124
 20
959.4027407111788
 30
0.0
 11
-24.5161697633124
 21
1251.657255405392
 31
0.0
  0
LINE
  5
4A3
330
1F
100
AcDbEntity
  8
STANDARD
  6
STANDARD
 62
     7
100
AcDbLine
 10
8.483822607293063
 20
173.3991224708223
 30
0.0
 11
8.483822607293063
 21
197.3991377296114
 31
0.0
  0
LINE
  5
4A4
330
1F
100
AcDbEntity
  8
STANDARD
  6
STANDARD
 62
     7
100
AcDbLine
 10
8.393032812371188
 20
197.4027235450411
 30
0.0
 11
8.393032812371188
 21
851.4027388038302
 31
0.0
  0
LINE
  5
4A6
330
1F
100
AcDbEntity
  8
STANDARD
  6
STANDARD
 62
     7
100
AcDbLine
 10
8.35110928942197
 20
959.4027407111786
 30
0.0
 11
8.35110928942197
 21
1253.475759738889
 31
0.0
  0
LINE
  5
4A7
330
1F
100
AcDbEntity
  8
STANDARD
  6
STANDARD
 62
     7
100
AcDbLine
 10
-24.38029024671084
 20
197.4027235450411
 30
0.0
 11
-24.38029024671084
 21
851.4027388038302
 31
0.0
  0
LINE
  5
4A9
330
1F
100
AcDbEntity
  8
STANDARD
  6
STANDARD
 62
     7
100
AcDbLine
 10
-38.016192651496
 20
129.3991072120332
 30
0.0
 11
21.983807348504
 21
129.3991072120332
 31
0.0
  0
LINE
  5
4AA
330
1F
100
AcDbEntity
  8
STANDARD
  6
STANDARD
 62
     7
100
AcDbLine
 10
-38.016192651496
 20
173.3991224708223
 30
0.0
 11
-24.5161697633124
 21
173.3991224708223
 31
0.0
  0
LINE
  5
4AB
330
1F
100
AcDbEntity
  8
STANDARD
  6
STANDARD
 62
     7
100
AcDbLine
 10
8.483822607293063
 20
173.3991224708223
 30
0.0
 11
21.983807348504
 21
173.3991224708223
 31
0.0
  0
LINE
  5
4AC
330
1F
100
AcDbEntity
  8
STANDARD
  6
STANDARD
 62
     7
100
AcDbLine
 10
-24.5161697633124
 20
197.3991377296114
 30
0.0
 11
8.483822607293063
 21
197.3991377296114
 31
0.0
  0
LINE
  5
4AD
330
1F
100
AcDbEntity
  8
STANDARD
  6
STANDARD
 62
     7
100
AcDbLine
 10
675.3706672423028
 20
135.7113630714082
 30
0.0
 11
675.6277587645196
 21
135.6732923926973
 31
0.0
  0
LINE
  5
4AE
330
1F
100
AcDbEntity
  8
STANDARD
  6
STANDARD
 62
     7
100
AcDbLine
 10
-435.4182312257147
 20
135.5194837989473
 30
0.0
 11
-435.286700463996
 21
135.4649336280489
 31
0.0
  0
LINE
  5
4AF
330
1F
100
AcDbEntity
  8
STANDARD
  6
STANDARD
 62
     7
100
AcDbLine
 10
676.1806609861992
 20
135.504759067502
 30
0.0
 11
676.4185264341973
 21
135.4093916358614
 31
0.0
  0
LINE
  5
4B0
330
1F
100
AcDbEntity
  8
STANDARD
  6
STANDARD
 62
     7
100
AcDbLine
 10
673.4615257017755
 20
166.3318617286348
 30
0.0
 11
673.7067535154961
 21
166.4072401466036
 31
0.0
  0
LINE
  5
4B1
330
1F
100
AcDbEntity
  8
STANDARD
  6
STANDARD
 62
     7
100
AcDbLine
 10
740.4838302366876
 20
116.4027388038301
 30
0.0
 11
753.9838149778985
 21
116.4027388038301
 31
0.0
  0
LINE
  5
4B2
330
1F
100
AcDbEntity
  8
STANDARD
  6
STANDARD
 62
     7
100
AcDbLine
 10
564.693300985589
 20
167.864492649045
 30
0.0
 11
564.9838187925958
 21
167.9027540626192
 31
0.0
  0
LINE
  5
4B3
330
1F
100
AcDbEntity
  8
STANDARD
  6
STANDARD
 62
     7
100
AcDbLine
 10
680.4838111632013
 20
167.9027540626192
 30
0.0
 11
740.4838302366876
 21
167.9027540626192
 31
0.0
  0
LINE
  5
4B6
330
1F
100
AcDbEntity
  8
STANDARD
  6
STANDARD
 62
     7
100
AcDbLine
 10
740.4838302366876
 20
186.4027388038301
 30
0.0
 11
753.9838149778985
 21
186.4027388038301
 31
0.0
  0
LINE
  5
4BF
330
1F
100
AcDbEntity
  8
STANDARD
  6
STANDARD
 62
     7
100
AcDbLine
 10
-27.51620028089053
 20
851.4027388038302
 30
0.0
 11
11.48381497789853
 21
851.4027388038302
 31
0.0
  0
LINE
  5
4C4
330
1F
100
AcDbEntity
  8
STANDARD
  6
STANDARD
 62
     7
100
AcDbLine
 10
-24.5161697633124
 20
1184.402731174435
 30
0.0
 11
8.35110928942197
 21
1184.402731174435
 31
0.0
  0
LINE
  5
4C5
330
1F
100
AcDbEntity
  8
STANDARD
  6
STANDARD
 62
     7
100
AcDbLine
 10
-16.26620028089052
 20
1265.692175144162
 30
0.0
 11
-16.07233736585146
 21
1265.772474521603
 31
0.0
  0
LINE
  5
4C6
330
1F
100
AcDbEntity
  8
STANDARD
  6
STANDARD
 62
     7
100
AcDbLine
 10
-12.28670809339053
 20
1267.340505832639
 30
0.0
 11
-12.05549929212099
 21
1267.370947116818
 31
0.0
  0
LINE
  5
4C7
330
1F
100
AcDbEntity
  8
STANDARD
  6
STANDARD
 62
     7
100
AcDbLine
 10
-8.016192651495998
 20
1267.902754062619
 30
0.0
 11
-7.761599755988186
 21
1267.869222873654
 31
0.0
  0
LINE
  5
4C8
330
1F
100
AcDbEntity
  8
STANDARD
  6
STANDARD
 62
     7
100
AcDbLine
 10
-431.2706634766916
 20
134.9027235450411
 30
0.0
 11
-38.016192651496
 21
134.9027235450411
 31
0.0
  0
LINE
  5
4C9
330
1F
100
AcDbEntity
  8
STANDARD
  6
STANDARD
 62
     7
100
AcDbLine
 10
21.983807348504
 20
134.9027235450411
 30
0.0
 11
740.4838302366876
 21
134.9027235450411
 31
0.0
  0
LINE
  5
4CA
330
1F
100
AcDbEntity
  8
STANDARD
  6
STANDARD
 62
     7
100
AcDbLine
 10
-433.08920595716
 20
167.7700407447481
 30
0.0
 11
-38.016192651496
 21
167.7869017066622
 31
0.0
  0
LINE
  5
4CB
330
1F
100
AcDbEntity
  8
STANDARD
  6
STANDARD
 62
     7
100
AcDbLine
 10
21.983807348504
 20
167.7869017066622
 30
0.0
 11
564.693300985589
 21
167.864492649045
 31
0.0
  0
LINE
  5
4CC
330
1F
100
AcDbEntity
  8
STANDARD
  6
STANDARD
 62
     7
100
AcDbLine
 10
565.8636501066827
 20
167.7869017066622
 30
0.0
 11
740.4838302366876
 21
167.7700407447481
 31
0.0
  0
ARC
  5
4CD
330
1F
100
AcDbEntity
  8
STANDARD
  6
STANDARD
 62
     7
100
AcDbCircle
 10
-1357.833744379798
 20
1202.902767012862
 30
0.0
 40
31.93693809620788
100
AcDbArc
 50
9.999935669945738
 51
80.00002214557833
  0
ARC
  5
4CE
330
1F
100
AcDbEntity
  8
STANDARD
  6
STANDARD
 62
     7
100
AcDbCircle
 10
-1357.833795320436
 20
1202.902735145738
 30
0.0
 40
65.05516769406833
100
AcDbArc
 50
9.999999547048954
 51
79.99997974368449
  0
ARC
  5
4CF
330
1F
100
AcDbEntity
  8
STANDARD
  6
STANDARD
 62
     7
100
AcDbCircle
 10
-1309.469667095803
 20
151.3991427624183
 30
0.0
 40
19.50000762939721
100
AcDbArc
 50
240.0000000000038
 51
0.0000300464299576
  0
ARC
  5
4D0
330
1F
100
AcDbEntity
  8
STANDARD
  6
STANDARD
 62
     7
100
AcDbCircle
 10
-1309.469667095803
 20
151.3991366918052
 30
0.0
 40
22.00000762940056
100
AcDbArc
 50
240.0000000000089
 51
0.0000424420821528
  0
ARC
  5
4D1
330
1F
100
AcDbEntity
  8
STANDARD
  6
STANDARD
 62
     7
100
AcDbCircle
 10
-1309.469667095803
 20
151.3991311380176
 30
0.0
 40
22.00000762940538
100
AcDbArc
 50
0.0000569061041191
 51
119.999999999983
  0
ARC
  5
4D2
330
1F
100
AcDbEntity
  8
STANDARD
  6
STANDARD
 62
     7
100
AcDbCircle
 10
-1309.469667095803
 20
151.39912506739
 30
0.0
 40
19.50000762941451
100
AcDbArc
 50
0.0000820387401418
 51
119.9999999999661
  0
ARC
  5
4D4
330
1F
100
AcDbEntity
  8
STANDARD
  6
STANDARD
 62
     7
100
AcDbCircle
 10
-1309.333772412226
 20
151.4007540030949
 30
0.0
 40
16.4999933325769
100
AcDbArc
 50
270.8837843776721
 51
1.767623473644221
  0
ARC
  5
4D5
330
1F
100
AcDbEntity
  8
STANDARD
  6
STANDARD
 62
     7
100
AcDbCircle
 10
-620.8339154107437
 20
151.4009123855502
 30
0.0
 40
16.50015425569206
100
AcDbArc
 50
270.884351857627
 51
1.767055993688902
  0
ARC
  5
4D6
330
1F
100
AcDbEntity
  8
STANDARD
  6
STANDARD
 62
     7
100
AcDbCircle
 10
-1309.333821806472
 20
151.4007494347209
 30
0.0
 40
16.50004284423523
100
AcDbArc
 50
1.767634038914469
 51
82.78218578696069
  0
ARC
  5
4D7
330
1F
100
AcDbEntity
  8
STANDARD
  6
STANDARD
 62
     7
100
AcDbCircle
 10
-620.8337870421319
 20
151.4007552455977
 30
0.0
 40
16.50003079448754
100
AcDbArc
 50
1.767615142530536
 51
82.78235557883958
  0
ARC
  5
4D8
330
1F
100
AcDbEntity
  8
STANDARD
  6
STANDARD
 62
     7
100
AcDbCircle
 10
-1193.833780903482
 20
151.4027456044182
 30
0.0
 40
35.00000680058839
100
AcDbArc
 50
210.0000064274734
 51
329.9999935725263
  0
ARC
  5
4D9
330
1F
100
AcDbEntity
  8
STANDARD
  6
STANDARD
 62
     7
100
AcDbCircle
 10
-620.8337574158889
 20
151.4027388038301
 30
0.0
 40
35.00001383027306
100
AcDbArc
 50
209.9999869285279
 51
150.0000130714721
  0
ARC
  5
4DA
330
1F
100
AcDbEntity
  8
STANDARD
  6
STANDARD
 62
     7
100
AcDbCircle
 10
-1193.833780903482
 20
151.4027320032421
 30
0.0
 40
35.00000680058846
100
AcDbArc
 50
30.00000642747349
 51
149.9999935725265
  0
LINE
  5
4DB
330
1F
100
AcDbEntity
  8
STANDARD
  6
STANDARD
 62
     7
100
AcDbLine
 10
-1325.833783764505
 20
282.9027540626192
 30
0.0
 11
-1325.72155537095
 21
282.7905256690645
 31
0.0
  0
LINE
  5
4DC
330
1F
100
AcDbEntity
  8
STANDARD
  6
STANDARD
 62
     7
100
AcDbLine
 10
-1325.271554608011
 20
282.3405058326387
 30
0.0
 11
-1324.893670696877
 21
281.9626219215059
 31
0.0
  0
LINE
  5
4DD
330
1F
100
AcDbEntity
  8
STANDARD
  6
STANDARD
 62
     7
100
AcDbLine
 10
-1324.079251904153
 20
281.1482222022677
 30
0.0
 11
-1323.623185772562
 21
280.6921751441622
 31
0.0
  0
LINE
  5
4DE
330
1F
100
AcDbEntity
  8
STANDARD
  6
STANDARD
 62
     7
100
AcDbLine
 10
-1321.432672161722
 20
278.5016233863497
 30
0.0
 11
-1320.191789288186
 21
277.2607405128145
 31
0.0
  0
LINE
  5
4DF
330
1F
100
AcDbEntity
  8
STANDARD
  6
STANDARD
 62
     7
100
AcDbLine
 10
-1317.986035961769
 20
275.0550062598848
 30
0.0
 11
-1316.626325268411
 21
273.6952955665254
 31
0.0
  0
LINE
  5
4E0
330
1F
100
AcDbEntity
  8
STANDARD
  6
STANDARD
 62
     7
100
AcDbLine
 10
-1313.848748821878
 20
270.9177000465059
 30
0.0
 11
-1312.560659069681
 21
269.629629367795
 31
0.0
  0
LINE
  5
4E1
330
1F
100
AcDbEntity
  8
STANDARD
  6
STANDARD
 62
     7
100
AcDbLine
 10
-1310.450559277199
 20
267.5195295753145
 30
0.0
 11
-1309.333768505716
 21
266.4027388038301
 31
0.0
  0
LINE
  5
4E2
330
1F
100
AcDbEntity
  8
STANDARD
  6
STANDARD
 62
     7
100
AcDbLine
 10
-1325.429235119484
 20
250.3072721900606
 30
0.0
 11
-1325.271554608011
 21
250.4649717750215
 31
0.0
  0
LINE
  5
4E3
330
1F
100
AcDbEntity
  8
STANDARD
  6
STANDARD
 62
     7
100
AcDbLine
 10
-1323.623185772562
 20
252.1133024634981
 30
0.0
 11
-1323.012147564553
 21
252.7243788184786
 31
0.0
  0
LINE
  5
4E4
330
1F
100
AcDbEntity
  8
STANDARD
  6
STANDARD
 62
     7
100
AcDbLine
 10
-1321.716581005715
 20
254.0199263038301
 30
0.0
 11
-1321.001039166116
 21
254.7354872169161
 31
0.0
  0
LINE
  5
4E5
330
1F
100
AcDbEntity
  8
STANDARD
  6
STANDARD
 62
     7
100
AcDbLine
 10
-1320.482679028176
 20
255.2538282813692
 30
0.0
 11
-1320.191789288186
 21
255.5447370948458
 31
0.0
  0
LINE
  5
4E6
330
1F
100
AcDbEntity
  8
STANDARD
  6
STANDARD
 62
     7
100
AcDbLine
 10
-1318.503327984474
 20
257.233160251584
 30
0.0
 11
-1317.583776135109
 21
258.1527311744356
 31
0.0
  0
LINE
  5
4E7
330
1F
100
AcDbEntity
  8
STANDARD
  6
STANDARD
 62
     7
100
AcDbLine
 10
-1313.369775433206
 20
262.3667128028535
 30
0.0
 11
-1312.560659069681
 21
263.1758482398653
 31
0.0
  0
LINE
  5
4E8
330
1F
100
AcDbEntity
  8
STANDARD
  6
STANDARD
 62
     7
100
AcDbLine
 10
-1319.729371685647
 20
134.9027235450411
 30
0.0
 11
-1319.219670910501
 21
134.5116407813692
 31
0.0
  0
LINE
  5
4E9
330
1F
100
AcDbEntity
  8
STANDARD
  6
STANDARD
 62
     7
100
AcDbLine
 10
-1323.800950665139
 20
134.9027235450411
 30
0.0
 11
-1320.469670910501
 21
132.3465712012911
 31
0.0
  0
LINE
  5
4EA
330
1F
100
AcDbEntity
  8
STANDARD
  6
STANDARD
 62
     7
100
AcDbLine
 10
-612.5837570616238
 20
165.6921751441622
 30
0.0
 11
-611.3609558531281
 21
164.7538740577364
 31
0.0
  0
LINE
  5
4EB
330
1F
100
AcDbEntity
  8
STANDARD
  6
STANDARD
 62
     7
100
AcDbLine
 10
-609.8249679991238
 20
163.5752470435762
 30
0.0
 11
-609.1665131041037
 21
163.0699903907442
 31
0.0
  0
LINE
  5
4EC
330
1F
100
AcDbEntity
  8
STANDARD
  6
STANDARD
 62
     7
100
AcDbLine
 10
-609.1665131041037
 20
139.7354872169161
 30
0.0
 11
-609.0527588316428
 21
139.8837263526583
 31
0.0
  0
LINE
  5
4ED
330
1F
100
AcDbEntity
  8
STANDARD
  6
STANDARD
 62
     7
100
AcDbLine
 10
-607.7743393370138
 20
141.5498335303926
 30
0.0
 11
-606.5443664976588
 21
143.1527693214083
 31
0.0
  0
LINE
  5
4EF
330
1F
100
AcDbEntity
  8
STANDARD
  6
STANDARD
 62
     7
100
AcDbLine
 10
-1163.522887844705
 20
133.9027388038301
 30
0.0
 11
-1163.056569714211
 21
134.9027235450411
 31
0.0
  0
LINE
  5
4F0
330
1F
100
AcDbEntity
  8
STANDARD
  6
STANDARD
 62
     7
100
AcDbLine
 10
-1224.664979595803
 20
167.7869017066622
 30
0.0
 11
-1224.144673962259
 21
168.9027388038301
 31
0.0
  0
LINE
  5
4F1
330
1F
100
AcDbEntity
  8
STANDARD
  6
STANDARD
 62
     7
100
AcDbLine
 10
-651.672845501565
 20
167.7700407447481
 30
0.0
 11
-651.1446625181671
 21
168.9027388038301
 31
0.0
  0
LINE
  5
4F5
330
1F
100
AcDbEntity
  8
STANDARD
  6
STANDARD
 62
     7
100
AcDbLine
 10
-616.5632492491238
 20
167.3405058326387
 30
0.0
 11
-615.3341156431671
 21
166.8313963355684
 31
0.0
  0
LINE
  5
4F6
330
1F
100
AcDbEntity
  8
STANDARD
  6
STANDARD
 62
     7
100
AcDbLine
 10
-613.529496807718
 20
166.0839064063692
 30
0.0
 11
-612.5837570616238
 21
165.6921751441622
 31
0.0
  0
LINE
  5
4F7
330
1F
100
AcDbEntity
  8
STANDARD
  6
STANDARD
 62
     7
100
AcDbLine
 10
-605.6651550718781
 20
145.275266880002
 30
0.0
 11
-604.8959976622101
 21
147.1322615089083
 31
0.0
  0
LINE
  5
4F8
330
1F
100
AcDbEntity
  8
STANDARD
  6
STANDARD
 62
     7
100
AcDbLine
 10
-1193.833776135109
 20
167.9027540626192
 30
0.0
 11
-1192.953935284279
 21
167.7869017066622
 31
0.0
  0
LINE
  5
4F9
330
1F
100
AcDbEntity
  8
STANDARD
  6
STANDARD
 62
     7
100
AcDbLine
 10
-620.8337646910181
 20
167.9027540626192
 30
0.0
 11
-619.8257690855499
 21
167.7700407447481
 31
0.0
  0
LINE
  5
4FA
330
1F
100
AcDbEntity
  8
STANDARD
  6
STANDARD
 62
     7
100
AcDbLine
 10
-617.7752167173858
 20
167.5000746192598
 30
0.0
 11
-616.5632492491238
 21
167.3405058326387
 31
0.0
  0
LINE
  5
4FB
330
1F
100
AcDbEntity
  8
STANDARD
  6
STANDARD
 62
     7
100
AcDbLine
 10
-604.594712872171
 20
149.4206221046114
 30
0.0
 11
-604.3337875792019
 21
151.4027388038301
 31
0.0
  0
LINE
  5
4FC
330
1F
100
AcDbEntity
  8
STANDARD
  6
STANDARD
 62
     7
100
AcDbLine
 10
-1358.554177899026
 20
1234.902723545041
 30
0.0
 11
-1352.287965435647
 21
1234.354513400998
 31
0.0
  0
LINE
  5
4FD
330
1F
100
AcDbEntity
  8
STANDARD
  6
STANDARD
 62
     7
100
AcDbLine
 10
-1357.113710064553
 20
1267.894895786252
 30
0.0
 11
-1346.537061352394
 21
1266.969564670529
 31
0.0
  0
LINE
  5
4FE
330
1F
100
AcDbEntity
  8
STANDARD
  6
STANDARD
 62
     7
100
AcDbLine
 10
-1326.381993908547
 20
1208.448522800412
 30
0.0
 11
-1325.833783764505
 21
1202.182310337033
 31
0.0
  0
LINE
  5
4FF
330
1F
100
AcDbEntity
  8
STANDARD
  6
STANDARD
 62
     7
100
AcDbLine
 10
-1293.766961712503
 20
1214.19944595715
 30
0.0
 11
-1292.84163059678
 21
1203.622816318478
 31
0.0
  0
LINE
  5
500
330
1F
100
AcDbEntity
  8
STANDARD
  6
STANDARD
 62
     7
100
AcDbLine
 10
-1310.341802258156
 20
167.7700407447481
 30
0.0
 11
-1309.333768505716
 21
167.9027540626192
 31
0.0
  0
LINE
  5
501
330
1F
100
AcDbEntity
  8
STANDARD
  6
STANDARD
 62
     7
100
AcDbLine
 10
-1194.713616985939
 20
167.7869017066622
 30
0.0
 11
-1193.833776135109
 21
167.9027540626192
 31
0.0
  0
LINE
  5
502
330
1F
100
AcDbEntity
  8
STANDARD
  6
STANDARD
 62
     7
100
AcDbLine
 10
-621.8417984434601
 20
167.7700407447481
 30
0.0
 11
-620.8337646910181
 21
167.9027540626192
 31
0.0
  0
LINE
  5
503
330
1F
100
AcDbEntity
  8
STANDARD
  6
STANDARD
 62
     7
100
AcDbLine
 10
-618.6128479429719
 20
135.1951582374239
 30
0.0
 11
-616.5632492491238
 21
135.4649336280489
 31
0.0
  0
LINE
  5
504
330
1F
100
AcDbEntity
  8
STANDARD
  6
STANDARD
 62
     7
100
AcDbLine
 10
-604.8959976622101
 20
155.673216098752
 30
0.0
 11
-604.583726544046
 21
153.301389926877
 31
0.0
  0
LINE
  5
510
330
1F
100
AcDbEntity
  8
STANDARD
  6
STANDARD
 62
     7
100
AcDbLine
 10
-614.4749313780299
 20
136.329954380002
 30
0.0
 11
-612.5837570616238
 21
137.1133406104708
 31
0.0
  0
LINE
  5
511
330
1F
100
AcDbEntity
  8
STANDARD
  6
STANDARD
 62
     7
100
AcDbLine
 10
-606.5443664976588
 20
159.652708286252
 30
0.0
 11
-605.7656723448269
 21
157.772825473752
 31
0.0
  0
LINE
  5
512
330
1F
100
AcDbEntity
  8
STANDARD
  6
STANDARD
 62
     7
100
AcDbLine
 10
-605.0690704771509
 20
156.0910780372286
 30
0.0
 11
-604.8959976622101
 21
155.673216098752
 31
0.0
  0
LINE
  5
513
330
1F
100
AcDbEntity
  8
STANDARD
  6
STANDARD
 62
     7
100
AcDbLine
 10
-1224.610982556008
 20
134.9027235450411
 30
0.0
 11
-1224.144673962259
 21
133.9027388038301
 31
0.0
  0
LINE
  5
514
330
1F
100
AcDbEntity
  8
STANDARD
  6
STANDARD
 62
     7
100
AcDbLine
 10
-1163.522887844705
 20
168.9027388038301
 30
0.0
 11
-1163.002563137673
 21
167.7869017066622
 31
0.0
  0
LINE
  5
515
330
1F
100
AcDbEntity
  8
STANDARD
  6
STANDARD
 62
     7
100
AcDbLine
 10
-651.6109711119171
 20
134.9027235450411
 30
0.0
 11
-651.1446625181671
 21
133.9027388038301
 31
0.0
  0
LINE
  5
517
330
1F
100
AcDbEntity
  8
STANDARD
  6
STANDARD
 62
     7
100
AcDbLine
 10
-1323.964448589944
 20
167.7700407447481
 30
0.0
 11
-1320.469670910501
 21
170.4516966285372
 31
0.0
  0
LINE
  5
518
330
1F
100
AcDbEntity
  8
STANDARD
  6
STANDARD
 62
     7
100
AcDbLine
 10
-1319.892888683939
 20
167.7700407447481
 30
0.0
 11
-1319.219670910501
 21
168.286627048459
 31
0.0
  0
LINE
  5
519
330
1F
100
AcDbEntity
  8
STANDARD
  6
STANDARD
 62
     7
100
AcDbLine
 10
-612.5837570616238
 20
137.1133406104708
 30
0.0
 11
-612.4534088560579
 21
137.2133619727754
 31
0.0
  0
LINE
  5
51A
330
1F
100
AcDbEntity
  8
STANDARD
  6
STANDARD
 62
     7
100
AcDbLine
 10
-610.7787567564479
 20
138.4983808936739
 30
0.0
 11
-609.1665131041037
 21
139.7354872169161
 31
0.0
  0
LINE
  5
51B
330
1F
100
AcDbEntity
  8
STANDARD
  6
STANDARD
 62
     7
100
AcDbLine
 10
-609.1665131041037
 20
163.0699903907442
 30
0.0
 11
-608.0890518614288
 21
161.6658384742403
 31
0.0
  0
LINE
  5
51C
330
1F
100
AcDbEntity
  8
STANDARD
  6
STANDARD
 62
     7
100
AcDbLine
 10
-606.9338470884787
 20
160.1603681983614
 30
0.0
 11
-606.5443664976588
 21
159.652708286252
 31
0.0
  0
LINE
  5
521
330
1F
100
AcDbEntity
  8
STANDARD
  6
STANDARD
 62
     7
100
AcDbLine
 10
-1325.833783764505
 20
249.9027235450411
 30
0.0
 11
-1325.72155537095
 21
250.0149519385958
 31
0.0
  0
LINE
  5
522
330
1F
100
AcDbEntity
  8
STANDARD
  6
STANDARD
 62
     7
100
AcDbLine
 10
-1325.271554608011
 20
250.4649717750215
 30
0.0
 11
-1324.921956677101
 21
250.8145506324434
 31
0.0
  0
LINE
  5
523
330
1F
100
AcDbEntity
  8
STANDARD
  6
STANDARD
 62
     7
100
AcDbLine
 10
-1324.079251904153
 20
251.6572554053926
 30
0.0
 11
-1323.623185772562
 21
252.1133024634981
 31
0.0
  0
LINE
  5
524
330
1F
100
AcDbEntity
  8
STANDARD
  6
STANDARD
 62
     7
100
AcDbLine
 10
-1321.001039166116
 20
254.7354872169161
 30
0.0
 11
-1320.482679028176
 21
255.2538282813692
 31
0.0
  0
LINE
  5
525
330
1F
100
AcDbEntity
  8
STANDARD
  6
STANDARD
 62
     7
100
AcDbLine
 10
-1317.583776135109
 20
258.1527311744356
 30
0.0
 11
-1316.626325268411
 21
259.1101820411348
 31
0.0
  0
LINE
  5
526
330
1F
100
AcDbEntity
  8
STANDARD
  6
STANDARD
 62
     7
100
AcDbLine
 10
-1314.660039562844
 20
261.0764677467012
 30
0.0
 11
-1313.369775433206
 21
262.3667128028535
 31
0.0
  0
LINE
  5
527
330
1F
100
AcDbEntity
  8
STANDARD
  6
STANDARD
 62
     7
100
AcDbLine
 10
-1310.450559277199
 20
265.2859480323458
 30
0.0
 11
-1309.333768505716
 21
266.4027388038301
 31
0.0
  0
LINE
  5
528
330
1F
100
AcDbEntity
  8
STANDARD
  6
STANDARD
 62
     7
100
AcDbLine
 10
-1325.39440693345
 20
282.4633772315645
 30
0.0
 11
-1325.271554608011
 21
282.3405058326387
 31
0.0
  0
LINE
  5
529
330
1F
100
AcDbEntity
  8
STANDARD
  6
STANDARD
 62
     7
100
AcDbLine
 10
-1323.623185772562
 20
280.6921751441622
 30
0.0
 11
-1323.012147564553
 21
280.0810987891817
 31
0.0
  0
LINE
  5
52A
330
1F
100
AcDbEntity
  8
STANDARD
  6
STANDARD
 62
     7
100
AcDbLine
 10
-1321.716581005715
 20
278.7855513038301
 30
0.0
 11
-1321.432672161722
 21
278.5016233863497
 31
0.0
  0
LINE
  5
52B
330
1F
100
AcDbEntity
  8
STANDARD
  6
STANDARD
 62
     7
100
AcDbLine
 10
-1318.503327984474
 20
275.5723173560762
 30
0.0
 11
-1317.986035961769
 21
275.0550062598848
 31
0.0
  0
LINE
  5
52C
330
1F
100
AcDbEntity
  8
STANDARD
  6
STANDARD
 62
     7
100
AcDbLine
 10
-1314.660039562844
 20
271.729009860959
 30
0.0
 11
-1313.848748821878
 21
270.9177000465059
 31
0.0
  0
LINE
  5
52D
330
1F
100
AcDbEntity
  8
STANDARD
  6
STANDARD
 62
     7
100
AcDbLine
 10
-1242.633767742776
 20
134.9027235450411
 30
0.0
 11
-1242.633767742776
 21
167.7700407447481
 31
0.0
  0
LINE
  5
52E
330
1F
100
AcDbEntity
  8
STANDARD
  6
STANDARD
 62
     7
100
AcDbLine
 10
-1370.833764691018
 20
231.4027388038301
 30
0.0
 11
-1370.833764691018
 21
301.4027388038301
 31
0.0
  0
LINE
  5
52F
330
1F
100
AcDbEntity
  8
STANDARD
  6
STANDARD
 62
     7
100
AcDbLine
 10
-1325.969663281106
 20
167.7700407447481
 30
0.0
 11
-1325.969663281106
 21
197.3991377296114
 31
0.0
  0
LINE
  5
530
330
1F
100
AcDbEntity
  8
STANDARD
  6
STANDARD
 62
     7
100
AcDbLine
 10
-1292.969670910501
 20
165.7256681861543
 30
0.0
 11
-1292.969670910501
 21
197.3991377296114
 31
0.0
  0
LINE
  5
531
330
1F
100
AcDbEntity
  8
STANDARD
  6
STANDARD
 62
     7
100
AcDbLine
 10
-1382.833772320412
 20
116.4027388038301
 30
0.0
 11
-1382.833772320412
 21
186.4027388038301
 31
0.0
  0
LINE
  5
532
330
1F
100
AcDbEntity
  8
STANDARD
  6
STANDARD
 62
     7
100
AcDbLine
 10
-1382.833772320412
 20
231.4027388038301
 30
0.0
 11
-1382.833772320412
 21
301.4027388038301
 31
0.0
  0
LINE
  5
533
330
1F
100
AcDbEntity
  8
STANDARD
  6
STANDARD
 62
     7
100
AcDbLine
 10
-606.5443664976588
 20
143.1527693214083
 30
0.0
 11
-606.464067120218
 21
143.3466322364473
 31
0.0
  0
LINE
  5
534
330
1F
100
AcDbEntity
  8
STANDARD
  6
STANDARD
 62
     7
100
AcDbLine
 10
-604.8959976622101
 20
147.1322615089083
 30
0.0
 11
-604.8655563780299
 21
147.3634321632051
 31
0.0
  0
LINE
  5
535
330
1F
100
AcDbEntity
  8
STANDARD
  6
STANDARD
 62
     7
100
AcDbLine
 10
-604.3672806211938
 20
151.4027388038301
 30
0.0
 11
-604.3337875792019
 21
151.6573316993379
 31
0.0
  0
LINE
  5
547
330
1F
100
AcDbEntity
  8
STANDARD
  6
STANDARD
 62
     7
100
AcDbLine
 10
-1325.833783764505
 20
1184.402731174435
 30
0.0
 11
-1325.833783764505
 21
1202.182310337033
 31
0.0
  0
LINE
  5
549
330
1F
100
AcDbEntity
  8
STANDARD
  6
STANDARD
 62
     7
100
AcDbLine
 10
-1381.333757061623
 20
1216.40273880383
 30
0.0
 11
-1381.333757061623
 21
1286.40273880383
 31
0.0
  0
LINE
  5
54A
330
1F
100
AcDbEntity
  8
STANDARD
  6
STANDARD
 62
     7
100
AcDbLine
 10
-1369.333787579201
 20
116.4027388038301
 30
0.0
 11
-1369.333787579201
 21
186.4027388038301
 31
0.0
  0
LINE
  5
54B
330
1F
100
AcDbEntity
  8
STANDARD
  6
STANDARD
 62
     7
100
AcDbLine
 10
-1369.333787579201
 20
1216.40273880383
 30
0.0
 11
-1369.333787579201
 21
1286.40273880383
 31
0.0
  0
LINE
  5
54C
330
1F
100
AcDbEntity
  8
STANDARD
  6
STANDARD
 62
     7
100
AcDbLine
 10
-1325.72155537095
 20
197.4027235450411
 30
0.0
 11
-1325.72155537095
 21
250.155637973752
 31
0.0
  0
LINE
  5
54D
330
1F
100
AcDbEntity
  8
STANDARD
  6
STANDARD
 62
     7
100
AcDbLine
 10
-1325.72155537095
 20
282.6498396339082
 30
0.0
 11
-1325.72155537095
 21
851.4027388038302
 31
0.0
  0
LINE
  5
54E
330
1F
100
AcDbEntity
  8
STANDARD
  6
STANDARD
 62
     7
100
AcDbLine
 10
-1325.72155537095
 20
959.4027407111788
 30
0.0
 11
-1325.72155537095
 21
1182.902754062619
 31
0.0
  0
LINE
  5
54F
330
1F
100
AcDbEntity
  8
STANDARD
  6
STANDARD
 62
     7
100
AcDbLine
 10
-1292.837396282815
 20
197.4027235450411
 30
0.0
 11
-1292.837396282815
 21
851.4027388038302
 31
0.0
  0
LINE
  5
550
330
1F
100
AcDbEntity
  8
STANDARD
  6
STANDARD
 62
     7
100
AcDbLine
 10
-1292.837396282815
 20
959.4027407111788
 30
0.0
 11
-1292.837396282815
 21
1182.902754062619
 31
0.0
  0
LINE
  5
551
330
1F
100
AcDbEntity
  8
STANDARD
  6
STANDARD
 62
     7
100
AcDbLine
 10
-1292.84163059678
 20
1184.402731174435
 30
0.0
 11
-1292.84163059678
 21
1203.622816318478
 31
0.0
  0
LINE
  5
552
330
1F
100
AcDbEntity
  8
STANDARD
  6
STANDARD
 62
     7
100
AcDbLine
 10
-1306.057096142434
 20
135.3520948829317
 30
0.0
 11
-1305.568471569681
 21
135.4093916358614
 31
0.0
  0
LINE
  5
553
330
1F
100
AcDbEntity
  8
STANDARD
  6
STANDARD
 62
     7
100
AcDbLine
 10
-1382.833772320412
 20
116.4027388038301
 30
0.0
 11
-1369.333787579201
 21
116.4027388038301
 31
0.0
  0
LINE
  5
554
330
1F
100
AcDbEntity
  8
STANDARD
  6
STANDARD
 62
     7
100
AcDbLine
 10
-1369.333787579201
 20
167.9027540626192
 30
0.0
 11
-1325.969663281106
 21
167.9027540626192
 31
0.0
  0
LINE
  5
555
330
1F
100
AcDbEntity
  8
STANDARD
  6
STANDARD
 62
     7
100
AcDbLine
 10
-1319.719949383401
 20
167.9027540626192
 30
0.0
 11
-1309.333768505716
 21
167.9027540626192
 31
0.0
  0
LINE
  5
557
330
1F
100
AcDbEntity
  8
STANDARD
  6
STANDARD
 62
     7
100
AcDbLine
 10
-1292.893376965188
 20
151.400755161252
 30
0.0
 11
-1289.969888348244
 21
151.400755161252
 31
0.0
  0
LINE
  5
559
330
1F
100
AcDbEntity
  8
STANDARD
  6
STANDARD
 62
     7
100
AcDbLine
 10
-1325.969663281106
 20
197.3991377296114
 30
0.0
 11
-1292.837396282815
 21
197.4027235450411
 31
0.0
  0
LINE
  5
55A
330
1F
100
AcDbEntity
  8
STANDARD
  6
STANDARD
 62
     7
100
AcDbLine
 10
-1382.833772320412
 20
301.4027388038301
 30
0.0
 11
-1370.833764691018
 21
301.4027388038301
 31
0.0
  0
LINE
  5
55B
330
1F
100
AcDbEntity
  8
STANDARD
  6
STANDARD
 62
     7
100
AcDbLine
 10
-1382.833772320412
 20
231.4027388038301
 30
0.0
 11
-1370.833764691018
 21
231.4027388038301
 31
0.0
  0
LINE
  5
55C
330
1F
100
AcDbEntity
  8
STANDARD
  6
STANDARD
 62
     7
100
AcDbLine
 10
-1370.833764691018
 20
249.9027235450411
 30
0.0
 11
-1325.833783764505
 21
249.9027235450411
 31
0.0
  0
LINE
  5
55D
330
1F
100
AcDbEntity
  8
STANDARD
  6
STANDARD
 62
     7
100
AcDbLine
 10
-1370.833764691018
 20
282.9027540626192
 30
0.0
 11
-1325.833783764505
 21
282.9027540626192
 31
0.0
  0
LINE
  5
55F
330
1F
100
AcDbEntity
  8
STANDARD
  6
STANDARD
 62
     7
100
AcDbLine
 10
-1382.833772320412
 20
186.4027388038301
 30
0.0
 11
-1369.333787579201
 21
186.4027388038301
 31
0.0
  0
LINE
  5
560
330
1F
100
AcDbEntity
  8
STANDARD
  6
STANDARD
 62
     7
100
AcDbLine
 10
-616.5632492491238
 20
135.4649336280489
 30
0.0
 11
-616.4317184874049
 21
135.5194837989473
 31
0.0
  0
LINE
  5
566
330
1F
100
AcDbEntity
  8
STANDARD
  6
STANDARD
 62
     7
100
AcDbLine
 10
-1328.969655651712
 20
851.4027388038302
 30
0.0
 11
-1289.969659466409
 21
851.4027388038302
 31
0.0
  0
LINE
  5
56E
330
1F
100
AcDbEntity
  8
STANDARD
  6
STANDARD
 62
     7
100
AcDbLine
 10
-1325.833783764505
 20
1184.402731174435
 30
0.0
 11
-1292.84163059678
 21
1184.402731174435
 31
0.0
  0
LINE
  5
56F
330
1F
100
AcDbEntity
  8
STANDARD
  6
STANDARD
 62
     7
100
AcDbLine
 10
-1369.333787579201
 20
1234.902723545041
 30
0.0
 11
-1358.554177899026
 21
1234.902723545041
 31
0.0
  0
LINE
  5
570
330
1F
100
AcDbEntity
  8
STANDARD
  6
STANDARD
 62
     7
100
AcDbLine
 10
-1369.333787579201
 20
1267.894895786252
 30
0.0
 11
-1357.113710064553
 21
1267.894895786252
 31
0.0
  0
LINE
  5
571
330
1F
100
AcDbEntity
  8
STANDARD
  6
STANDARD
 62
     7
100
AcDbLine
 10
-1381.333757061623
 20
1216.40273880383
 30
0.0
 11
-1369.333787579201
 21
1216.40273880383
 31
0.0
  0
LINE
  5
572
330
1F
100
AcDbEntity
  8
STANDARD
  6
STANDARD
 62
     7
100
AcDbLine
 10
-1381.333757061623
 20
1286.40273880383
 30
0.0
 11
-1369.333787579201
 21
1286.40273880383
 31
0.0
  0
LINE
  5
573
330
1F
100
AcDbEntity
  8
STANDARD
  6
STANDARD
 62
     7
100
AcDbLine
 10
-1369.333787579201
 20
134.9027235450411
 30
0.0
 11
-1299.209962505959
 21
134.9027235450411
 31
0.0
  0
LINE
  5
574
330
1F
100
AcDbEntity
  8
STANDARD
  6
STANDARD
 62
     7
100
AcDbLine
 10
-1295.138383526468
 20
134.9027235450411
 30
0.0
 11
-620.5792480894558
 21
134.9027235450411
 31
0.0
  0
LINE
  5
575
330
1F
100
AcDbEntity
  8
STANDARD
  6
STANDARD
 62
     7
100
AcDbLine
 10
-1369.333787579201
 20
167.7700407447481
 30
0.0
 11
-1299.046445507669
 21
167.7700407447481
 31
0.0
  0
LINE
  5
576
330
1F
100
AcDbEntity
  8
STANDARD
  6
STANDARD
 62
     7
100
AcDbLine
 10
-1292.969670910501
 20
167.7700407447481
 30
0.0
 11
-618.76074375596
 21
167.7700407447481
 31
0.0
  0
ARC
  5
577
330
1F
100
AcDbEntity
  8
STANDARD
  6
STANDARD
 62
     7
100
AcDbCircle
 10
1603.979034160107
 20
151.3989537147837
 30
0.0
 40
19.49982714731229
100
AcDbArc
 50
239.9996938276222
 51
300.0003061723768
  0
ARC
  5
578
330
1F
100
AcDbEntity
  8
STANDARD
  6
STANDARD
 62
     7
100
AcDbCircle
 10
1603.979034160107
 20
151.3989929549269
 30
0.0
 40
21.99986638745444
100
AcDbArc
 50
239.9997876236747
 51
300.0002123763252
  0
ARC
  5
579
330
1F
100
AcDbEntity
  8
STANDARD
  6
STANDARD
 62
     7
100
AcDbCircle
 10
1603.979034160107
 20
151.3990288534166
 30
0.0
 40
22.00011297286142
100
AcDbArc
 50
60.00015839605254
 51
119.9998416039474
  0
ARC
  5
57A
330
1F
100
AcDbEntity
  8
STANDARD
  6
STANDARD
 62
     7
100
AcDbCircle
 10
1603.979034160107
 20
151.3990680948587
 30
0.0
 40
19.50007373142051
100
AcDbArc
 50
60.00011213476413
 51
119.9998878652358
  0
ARC
  5
57C
330
1F
100
AcDbEntity
  8
STANDARD
  6
STANDARD
 62
     7
100
AcDbCircle
 10
1604.143176676936
 20
151.4007733585425
 30
0.0
 40
16.4999933325769
100
AcDbArc
 50
270.8837843776721
 51
1.767623473644221
  0
ARC
  5
57D
330
1F
100
AcDbEntity
  8
STANDARD
  6
STANDARD
 62
     7
100
AcDbCircle
 10
1604.143139158846
 20
151.4007746010453
 30
0.0
 40
16.50003079448754
100
AcDbArc
 50
1.767615142530536
 51
82.78235557883958
  0
ARC
  5
57E
330
1F
100
AcDbEntity
  8
STANDARD
  6
STANDARD
 62
     7
100
AcDbCircle
 10
1652.343169529662
 20
1202.902724199633
 30
0.0
 40
31.93700609477971
100
AcDbArc
 50
100.0000274124591
 51
169.999972587541
  0
ARC
  5
57F
330
1F
100
AcDbEntity
  8
STANDARD
  6
STANDARD
 62
     7
100
AcDbCircle
 10
1652.343187098911
 20
1202.902752943654
 30
0.0
 40
65.05517351952176
100
AcDbArc
 50
100.0000414538432
 51
169.9999999646978
  0
CIRCLE
  5
580
330
1F
100
AcDbEntity
  8
STANDARD
  6
STANDARD
 62
     7
100
AcDbCircle
 10
1488.343143199413
 20
151.4027388038301
 30
0.0
 40
35.00001720755108
  0
LINE
  5
581
330
1F
100
AcDbEntity
  8
STANDARD
  6
STANDARD
 62
     7
100
AcDbLine
 10
888.5315987810788
 20
128.9051995655274
 30
0.0
 11
892.8455826983151
 21
124.5912347217774
 31
0.0
  0
LINE
  5
582
330
1F
100
AcDbEntity
  8
STANDARD
  6
STANDARD
 62
     7
100
AcDbLine
 10
1603.843135570019
 20
266.4027581592777
 30
0.0
 11
1604.709224437206
 21
265.5366692920902
 31
0.0
  0
LINE
  5
583
330
1F
100
AcDbEntity
  8
STANDARD
  6
STANDARD
 62
     7
100
AcDbLine
 10
1608.113651011912
 20
262.1322427173832
 30
0.0
 11
1608.935756419628
 21
261.310175456641
 31
0.0
  0
LINE
  5
584
330
1F
100
AcDbEntity
  8
STANDARD
  6
STANDARD
 62
     7
100
AcDbLine
 10
1612.093143199412
 20
258.1527505298832
 30
0.0
 11
1612.495441173046
 21
257.750490703223
 31
0.0
  0
LINE
  5
585
330
1F
100
AcDbEntity
  8
STANDARD
  6
STANDARD
 62
     7
100
AcDbLine
 10
1614.499988292187
 20
255.7459054371097
 30
0.0
 11
1616.071910594433
 21
254.1740212818363
 31
0.0
  0
LINE
  5
586
330
1F
100
AcDbEntity
  8
STANDARD
  6
STANDARD
 62
     7
100
AcDbLine
 10
1617.367229197947
 20
252.878664531348
 30
0.0
 11
1618.460368846386
 21
251.7855248829105
 31
0.0
  0
LINE
  5
587
330
1F
100
AcDbEntity
  8
STANDARD
  6
STANDARD
 62
     7
100
AcDbLine
 10
1619.306087230174
 20
250.9398446460941
 30
0.0
 11
1619.7809407458
 21
250.4649911304691
 31
0.0
  0
LINE
  5
588
330
1F
100
AcDbEntity
  8
STANDARD
  6
STANDARD
 62
     7
100
AcDbLine
 10
1620.183315013378
 20
250.0625787159183
 30
0.0
 11
1620.343150828808
 21
249.9027429004887
 31
0.0
  0
LINE
  5
589
330
1F
100
AcDbEntity
  8
STANDARD
  6
STANDARD
 62
     7
100
AcDbLine
 10
888.5315987810788
 20
173.9003167530274
 30
0.0
 11
892.8455826983151
 21
178.2143197437501
 31
0.0
  0
LINE
  5
58A
330
1F
100
AcDbEntity
  8
STANDARD
  6
STANDARD
 62
     7
100
AcDbLine
 10
1606.818446849316
 20
269.378031291602
 30
0.0
 11
1607.879161570994
 21
270.4387841602543
 31
0.0
  0
LINE
  5
58B
330
1F
100
AcDbEntity
  8
STANDARD
  6
STANDARD
 62
     7
100
AcDbLine
 10
1610.901355479687
 20
273.460939921973
 30
0.0
 11
1611.669406627148
 21
274.2290292164066
 31
0.0
  0
LINE
  5
58C
330
1F
100
AcDbEntity
  8
STANDARD
  6
STANDARD
 62
     7
100
AcDbLine
 10
1617.640361522167
 20
280.1999459644535
 30
0.0
 11
1618.132571910351
 21
280.6921944996097
 31
0.0
  0
LINE
  5
58D
330
1F
100
AcDbEntity
  8
STANDARD
  6
STANDARD
 62
     7
100
AcDbLine
 10
1619.7809407458
 20
282.3405251880863
 30
0.0
 11
1619.905566905468
 21
282.4651894947269
 31
0.0
  0
LINE
  5
58E
330
1F
100
AcDbEntity
  8
STANDARD
  6
STANDARD
 62
     7
100
AcDbLine
 10
1614.052409862011
 20
164.5921883960938
 30
0.0
 11
1614.340266917675
 21
164.309633769629
 31
0.0
  0
LINE
  5
58F
330
1F
100
AcDbEntity
  8
STANDARD
  6
STANDARD
 62
     7
100
AcDbLine
 10
1615.678310130566
 20
162.9963097950196
 30
0.0
 11
1617.149257396191
 21
161.5525231739259
 31
0.0
  0
LINE
  5
594
330
1F
100
AcDbEntity
  8
STANDARD
  6
STANDARD
 62
     7
100
AcDbLine
 10
1589.647769664257
 20
134.9027429004884
 30
0.0
 11
1592.979030345408
 21
132.3465905567384
 31
0.0
  0
LINE
  5
595
330
1F
100
AcDbEntity
  8
STANDARD
  6
STANDARD
 62
     7
100
AcDbLine
 10
1593.719348643749
 20
134.9027429004884
 30
0.0
 11
1594.229030345409
 21
134.5116601368165
 31
0.0
  0
LINE
  5
596
330
1F
100
AcDbEntity
  8
STANDARD
  6
STANDARD
 62
     7
100
AcDbLine
 10
1614.979037974804
 20
170.4517159839845
 30
0.0
 11
1618.30087635371
 21
167.9027734180665
 31
0.0
  0
LINE
  5
597
330
1F
100
AcDbEntity
  8
STANDARD
  6
STANDARD
 62
     7
100
AcDbLine
 10
1613.729037974804
 20
168.2866464039063
 30
0.0
 11
1614.229335521191
 21
167.9027734180665
 31
0.0
  0
LINE
  5
599
330
1F
100
AcDbEntity
  8
STANDARD
  6
STANDARD
 62
     7
100
AcDbLine
 10
932.84315559718
 20
181.7136559864259
 30
0.0
 11
937.840723727673
 21
178.2143197437501
 31
0.0
  0
LINE
  5
59A
330
1F
100
AcDbEntity
  8
STANDARD
  6
STANDARD
 62
     7
100
AcDbLine
 10
892.8455826983151
 20
124.5912347217774
 30
0.0
 11
897.8431508288084
 21
121.091860332129
 31
0.0
  0
LINE
  5
59B
330
1F
100
AcDbEntity
  8
STANDARD
  6
STANDARD
 62
     7
100
AcDbLine
 10
942.1547124132811
 20
128.9051995655274
 30
0.0
 11
945.6540438875851
 21
133.9027581592774
 31
0.0
  0
LINE
  5
59C
330
1F
100
AcDbEntity
  8
STANDARD
  6
STANDARD
 62
     7
100
AcDbLine
 10
885.0322625384031
 20
168.9027581592774
 30
0.0
 11
888.5315987810788
 21
173.9003167530274
 31
0.0
  0
LINE
  5
59D
330
1F
100
AcDbEntity
  8
STANDARD
  6
STANDARD
 62
     7
100
AcDbLine
 10
1617.218990062206
 20
141.3356957813477
 30
0.0
 11
1617.878207896679
 21
142.4762902637696
 31
0.0
  0
LINE
  5
59E
330
1F
100
AcDbEntity
  8
STANDARD
  6
STANDARD
 62
     7
100
AcDbLine
 10
1618.950137828319
 20
144.3309197803712
 30
0.0
 11
1619.390392039744
 21
145.0927148243165
 31
0.0
  0
LINE
  5
59F
330
1F
100
AcDbEntity
  8
STANDARD
  6
STANDARD
 62
     7
100
AcDbLine
 10
1610.270213817089
 20
166.7193398853517
 30
0.0
 11
1610.477542613476
 21
166.6027627369142
 31
0.0
  0
LINE
  5
5A0
330
1F
100
AcDbEntity
  8
STANDARD
  6
STANDARD
 62
     7
100
AcDbLine
 10
1611.970653270214
 20
165.7629952808595
 30
0.0
 11
1614.052409862011
 21
164.5921883960938
 31
0.0
  0
LINE
  5
5A1
330
1F
100
AcDbEntity
  8
STANDARD
  6
STANDARD
 62
     7
100
AcDbLine
 10
927.3138520464597
 20
184.2920098682618
 30
0.0
 11
932.84315559718
 21
181.7136559864259
 31
0.0
  0
LINE
  5
5A2
330
1F
100
AcDbEntity
  8
STANDARD
  6
STANDARD
 62
     7
100
AcDbLine
 10
897.8431508288084
 20
121.091860332129
 30
0.0
 11
903.3724400744137
 21
118.5135064502931
 31
0.0
  0
LINE
  5
5A3
330
1F
100
AcDbEntity
  8
STANDARD
  6
STANDARD
 62
     7
100
AcDbLine
 10
945.6540438875851
 20
133.9027581592774
 30
0.0
 11
948.2323930010496
 21
139.4320855518556
 31
0.0
  0
LINE
  5
5A4
330
1F
100
AcDbEntity
  8
STANDARD
  6
STANDARD
 62
     7
100
AcDbLine
 10
882.4539181933102
 20
163.373468913672
 30
0.0
 11
885.0322625384031
 21
168.9027581592774
 31
0.0
  0
LINE
  5
5A5
330
1F
100
AcDbEntity
  8
STANDARD
  6
STANDARD
 62
     7
100
AcDbLine
 10
1608.113651011912
 20
167.340525188086
 30
0.0
 11
1608.573779796093
 21
167.1499429126954
 31
0.0
  0
LINE
  5
5AA
330
1F
100
AcDbEntity
  8
STANDARD
  6
STANDARD
 62
     7
100
AcDbLine
 10
921.4208409533201
 20
185.871027507422
 30
0.0
 11
927.3138520464597
 21
184.2920098682618
 31
0.0
  0
LINE
  5
5AB
330
1F
100
AcDbEntity
  8
STANDARD
  6
STANDARD
 62
     7
100
AcDbLine
 10
903.3724400744137
 20
118.5135064502931
 30
0.0
 11
909.2654607042966
 21
116.9344506641603
 31
0.0
  0
LINE
  5
5AC
330
1F
100
AcDbEntity
  8
STANDARD
  6
STANDARD
 62
     7
100
AcDbLine
 10
948.2323930010496
 20
139.4320855518556
 30
0.0
 11
949.8114249453244
 21
145.3251061817384
 31
0.0
  0
LINE
  5
5AD
330
1F
100
AcDbEntity
  8
STANDARD
  6
STANDARD
 62
     7
100
AcDbLine
 10
880.8748814806637
 20
157.4804101368165
 30
0.0
 11
882.4539181933102
 21
163.373468913672
 31
0.0
  0
LINE
  5
5AE
330
1F
100
AcDbEntity
  8
STANDARD
  6
STANDARD
 62
     7
100
AcDbLine
 10
1619.390392039744
 20
145.0927148243165
 30
0.0
 11
1619.729861949412
 21
146.3671288868165
 31
0.0
  0
LINE
  5
5AF
330
1F
100
AcDbEntity
  8
STANDARD
  6
STANDARD
 62
     7
100
AcDbLine
 10
1620.282802318066
 20
148.4431634327149
 30
0.0
 11
1620.507259105175
 21
149.2858300586915
 31
0.0
  0
LINE
  5
5B0
330
1F
100
AcDbEntity
  8
STANDARD
  6
STANDARD
 62
     7
100
AcDbLine
 10
1607.295474742382
 20
167.4744210621095
 30
0.0
 11
1610.270213817089
 21
166.7193398853517
 31
0.0
  0
LINE
  5
5B8
330
1F
100
AcDbEntity
  8
STANDARD
  6
STANDARD
 62
     7
100
AcDbLine
 10
1603.843135570019
 20
167.9027734180665
 30
0.0
 11
1604.85116932246
 21
167.7700601001954
 31
0.0
  0
LINE
  5
5B9
330
1F
100
AcDbEntity
  8
STANDARD
  6
STANDARD
 62
     7
100
AcDbLine
 10
915.3431508288083
 20
186.4027581592774
 30
0.0
 11
921.4208409533201
 21
185.871027507422
 31
0.0
  0
LINE
  5
5BA
330
1F
100
AcDbEntity
  8
STANDARD
  6
STANDARD
 62
     7
100
AcDbLine
 10
909.2654607042966
 20
116.9344506641603
 30
0.0
 11
915.3431508288083
 21
116.4027581592774
 31
0.0
  0
LINE
  5
5BB
330
1F
100
AcDbEntity
  8
STANDARD
  6
STANDARD
 62
     7
100
AcDbLine
 10
949.8114249453244
 20
145.3251061817384
 30
0.0
 11
950.3431555971799
 21
151.4027581592774
 31
0.0
  0
LINE
  5
5BC
330
1F
100
AcDbEntity
  8
STANDARD
  6
STANDARD
 62
     7
100
AcDbLine
 10
880.3431508288083
 20
151.4027581592774
 30
0.0
 11
880.8748814806637
 21
157.4804101368165
 31
0.0
  0
LINE
  5
5BD
330
1F
100
AcDbEntity
  8
STANDARD
  6
STANDARD
 62
     7
100
AcDbLine
 10
1620.343150828808
 20
1202.18232969248
 30
0.0
 11
1620.891360972851
 21
1208.448542155859
 31
0.0
  0
LINE
  5
5BE
330
1F
100
AcDbEntity
  8
STANDARD
  6
STANDARD
 62
     7
100
AcDbLine
 10
1587.351016734569
 20
1203.622835673926
 30
0.0
 11
1588.276347850292
 21
1214.199465312598
 31
0.0
  0
LINE
  5
5BF
330
1F
100
AcDbEntity
  8
STANDARD
  6
STANDARD
 62
     7
100
AcDbLine
 10
909.2654607042966
 20
185.871027507422
 30
0.0
 11
915.3431508288083
 21
186.4027581592774
 31
0.0
  0
LINE
  5
5C0
330
1F
100
AcDbEntity
  8
STANDARD
  6
STANDARD
 62
     7
100
AcDbLine
 10
915.3431508288083
 20
116.4027581592774
 30
0.0
 11
921.4208409533201
 21
116.9344506641603
 31
0.0
  0
LINE
  5
5C1
330
1F
100
AcDbEntity
  8
STANDARD
  6
STANDARD
 62
     7
100
AcDbLine
 10
1646.797351573437
 20
1234.354532756445
 30
0.0
 11
1653.063602183787
 21
1234.902742900488
 31
0.0
  0
LINE
  5
5C2
330
1F
100
AcDbEntity
  8
STANDARD
  6
STANDARD
 62
     7
100
AcDbLine
 10
1641.046428416697
 20
1266.969584025977
 30
0.0
 11
1651.623096202343
 21
1267.894915141699
 31
0.0
  0
LINE
  5
5C3
330
1F
100
AcDbEntity
  8
STANDARD
  6
STANDARD
 62
     7
100
AcDbLine
 10
949.8114249453244
 20
157.4804101368165
 30
0.0
 11
950.3431555971799
 21
151.4027581592774
 31
0.0
  0
LINE
  5
5C4
330
1F
100
AcDbEntity
  8
STANDARD
  6
STANDARD
 62
     7
100
AcDbLine
 10
880.3431508288083
 20
151.4027581592774
 30
0.0
 11
880.8748814806637
 21
145.3251061817384
 31
0.0
  0
LINE
  5
5C5
330
1F
100
AcDbEntity
  8
STANDARD
  6
STANDARD
 62
     7
100
AcDbLine
 10
921.4208409533201
 20
116.9344506641603
 30
0.0
 11
927.3138520464597
 21
118.5135064502931
 31
0.0
  0
LINE
  5
5C6
330
1F
100
AcDbEntity
  8
STANDARD
  6
STANDARD
 62
     7
100
AcDbLine
 10
903.3724400744137
 20
184.2920098682618
 30
0.0
 11
909.2654607042966
 21
185.871027507422
 31
0.0
  0
LINE
  5
5C7
330
1F
100
AcDbEntity
  8
STANDARD
  6
STANDARD
 62
     7
100
AcDbLine
 10
948.2323930010496
 20
163.373468913672
 30
0.0
 11
949.8114249453244
 21
157.4804101368165
 31
0.0
  0
LINE
  5
5C8
330
1F
100
AcDbEntity
  8
STANDARD
  6
STANDARD
 62
     7
100
AcDbLine
 10
880.8748814806637
 20
145.3251061817384
 30
0.0
 11
882.4539181933102
 21
139.4320855518556
 31
0.0
  0
LINE
  5
5C9
330
1F
100
AcDbEntity
  8
STANDARD
  6
STANDARD
 62
     7
100
AcDbLine
 10
1619.346561168162
 20
157.810610332129
 30
0.0
 11
1619.541835521191
 21
157.0971856495118
 31
0.0
  0
LINE
  5
5CA
330
1F
100
AcDbEntity
  8
STANDARD
  6
STANDARD
 62
     7
100
AcDbLine
 10
1620.065822337597
 20
155.1830468555665
 30
0.0
 11
1620.492305491894
 21
153.6252007862306
 31
0.0
  0
LINE
  5
5CE
330
1F
100
AcDbEntity
  8
STANDARD
  6
STANDARD
 62
     7
100
AcDbLine
 10
927.3138520464597
 20
118.5135064502931
 30
0.0
 11
932.84315559718
 21
121.091860332129
 31
0.0
  0
LINE
  5
5CF
330
1F
100
AcDbEntity
  8
STANDARD
  6
STANDARD
 62
     7
100
AcDbLine
 10
897.8431508288084
 20
181.7136559864259
 30
0.0
 11
903.3724400744137
 21
184.2920098682618
 31
0.0
  0
LINE
  5
5D0
330
1F
100
AcDbEntity
  8
STANDARD
  6
STANDARD
 62
     7
100
AcDbLine
 10
945.6540438875851
 20
168.9027581592774
 30
0.0
 11
948.2323930010496
 21
163.373468913672
 31
0.0
  0
LINE
  5
5D1
330
1F
100
AcDbEntity
  8
STANDARD
  6
STANDARD
 62
     7
100
AcDbLine
 10
882.4539181933102
 20
139.4320855518556
 30
0.0
 11
885.0322625384031
 21
133.9027581592774
 31
0.0
  0
LINE
  5
5D2
330
1F
100
AcDbEntity
  8
STANDARD
  6
STANDARD
 62
     7
100
AcDbLine
 10
1609.256305430859
 20
135.7113824268556
 30
0.0
 11
1610.104503367869
 21
136.1563287159181
 31
0.0
  0
LINE
  5
5D3
330
1F
100
AcDbEntity
  8
STANDARD
  6
STANDARD
 62
     7
100
AcDbLine
 10
1613.497752879589
 20
137.9361901661134
 30
0.0
 11
1614.14316150996
 21
138.2747064014649
 31
0.0
  0
LINE
  5
5D4
330
1F
100
AcDbEntity
  8
STANDARD
  6
STANDARD
 62
     7
100
AcDbLine
 10
1617.149257396191
 20
161.5525231739259
 30
0.0
 11
1617.438106273144
 21
161.0605798145509
 31
0.0
  0
LINE
  5
5D5
330
1F
100
AcDbEntity
  8
STANDARD
  6
STANDARD
 62
     7
100
AcDbLine
 10
1618.424472545116
 20
159.3808923145509
 30
0.0
 11
1619.346561168162
 21
157.810610332129
 31
0.0
  0
LINE
  5
5D6
330
1F
100
AcDbEntity
  8
STANDARD
  6
STANDARD
 62
     7
100
AcDbLine
 10
932.84315559718
 20
121.091860332129
 30
0.0
 11
937.840723727673
 21
124.5912347217774
 31
0.0
  0
LINE
  5
5D7
330
1F
100
AcDbEntity
  8
STANDARD
  6
STANDARD
 62
     7
100
AcDbLine
 10
892.8455826983151
 20
178.2143197437501
 30
0.0
 11
897.8431508288084
 21
181.7136559864259
 31
0.0
  0
LINE
  5
5D8
330
1F
100
AcDbEntity
  8
STANDARD
  6
STANDARD
 62
     7
100
AcDbLine
 10
942.1547124132811
 20
173.9003167530274
 30
0.0
 11
945.6540438875851
 21
168.9027581592774
 31
0.0
  0
LINE
  5
5D9
330
1F
100
AcDbEntity
  8
STANDARD
  6
STANDARD
 62
     7
100
AcDbLine
 10
885.0322625384031
 20
133.9027581592774
 30
0.0
 11
888.5315987810788
 21
128.9051995655274
 31
0.0
  0
LINE
  5
5DB
330
1F
100
AcDbEntity
  8
STANDARD
  6
STANDARD
 62
     7
100
AcDbLine
 10
1613.729037974804
 20
134.5116601368165
 30
0.0
 11
1614.238757823437
 21
134.9027429004884
 31
0.0
  0
LINE
  5
5DC
330
1F
100
AcDbEntity
  8
STANDARD
  6
STANDARD
 62
     7
100
AcDbLine
 10
1614.979037974804
 20
132.3465905567384
 30
0.0
 11
1618.310336802929
 21
134.9027429004884
 31
0.0
  0
LINE
  5
5DD
330
1F
100
AcDbEntity
  8
STANDARD
  6
STANDARD
 62
     7
100
AcDbLine
 10
1589.484271739451
 20
167.7700601001954
 30
0.0
 11
1592.979030345408
 21
170.4517159839845
 31
0.0
  0
LINE
  5
5DE
330
1F
100
AcDbEntity
  8
STANDARD
  6
STANDARD
 62
     7
100
AcDbLine
 10
1593.555812571972
 20
167.7700601001954
 30
0.0
 11
1594.229030345409
 21
168.2866464039063
 31
0.0
  0
LINE
  5
5DF
330
1F
100
AcDbEntity
  8
STANDARD
  6
STANDARD
 62
     7
100
AcDbLine
 10
937.840723727673
 20
124.5912347217774
 30
0.0
 11
942.1547124132811
 21
128.9051995655274
 31
0.0
  0
LINE
  5
5E0
330
1F
100
AcDbEntity
  8
STANDARD
  6
STANDARD
 62
     7
100
AcDbLine
 10
1614.14316150996
 20
138.2747064014649
 30
0.0
 11
1615.075435374706
 21
139.2025170704102
 31
0.0
  0
LINE
  5
5E1
330
1F
100
AcDbEntity
  8
STANDARD
  6
STANDARD
 62
     7
100
AcDbLine
 10
1616.589984630076
 20
140.709780254004
 30
0.0
 11
1617.218990062206
 21
141.3356957813477
 31
0.0
  0
LINE
  5
5E2
330
1F
100
AcDbEntity
  8
STANDARD
  6
STANDARD
 62
     7
100
AcDbLine
 10
1603.843135570019
 20
266.4027581592777
 30
0.0
 11
1604.709224437206
 21
267.2688470264652
 31
0.0
  0
LINE
  5
5E3
330
1F
100
AcDbEntity
  8
STANDARD
  6
STANDARD
 62
     7
100
AcDbLine
 10
1607.879161570994
 20
270.4387841602543
 30
0.0
 11
1608.935756419628
 21
271.4953408619144
 31
0.0
  0
LINE
  5
5E4
330
1F
100
AcDbEntity
  8
STANDARD
  6
STANDARD
 62
     7
100
AcDbLine
 10
1611.669406627148
 20
274.2290292164066
 30
0.0
 11
1612.811984752148
 21
275.3716073414066
 31
0.0
  0
LINE
  5
5E5
330
1F
100
AcDbEntity
  8
STANDARD
  6
STANDARD
 62
     7
100
AcDbLine
 10
1614.499988292187
 20
277.0596108814457
 30
0.0
 11
1616.071910594433
 21
278.6314950367191
 31
0.0
  0
LINE
  5
5E6
330
1F
100
AcDbEntity
  8
STANDARD
  6
STANDARD
 62
     7
100
AcDbLine
 10
1617.367229197947
 20
279.9268517872074
 30
0.0
 11
1617.640361522167
 21
280.1999459644535
 31
0.0
  0
LINE
  5
5E7
330
1F
100
AcDbEntity
  8
STANDARD
  6
STANDARD
 62
     7
100
AcDbLine
 10
1618.132571910351
 20
280.6921944996097
 30
0.0
 11
1618.491763804882
 21
281.051386394141
 31
0.0
  0
LINE
  5
5E8
330
1F
100
AcDbEntity
  8
STANDARD
  6
STANDARD
 62
     7
100
AcDbLine
 10
1619.306087230174
 20
281.8656716724613
 30
0.0
 11
1619.7809407458
 21
282.3405251880863
 31
0.0
  0
LINE
  5
5E9
330
1F
100
AcDbEntity
  8
STANDARD
  6
STANDARD
 62
     7
100
AcDbLine
 10
1620.216388438671
 20
282.7760110279301
 30
0.0
 11
1620.343150828808
 21
282.9027734180671
 31
0.0
  0
LINE
  5
5EA
330
1F
100
AcDbEntity
  8
STANDARD
  6
STANDARD
 62
     7
100
AcDbLine
 10
937.840723727673
 20
178.2143197437501
 30
0.0
 11
942.1547124132811
 21
173.9003167530274
 31
0.0
  0
LINE
  5
5EB
330
1F
100
AcDbEntity
  8
STANDARD
  6
STANDARD
 62
     7
100
AcDbLine
 10
1606.818446849316
 20
263.4274850269535
 30
0.0
 11
1608.113651011912
 21
262.1322427173832
 31
0.0
  0
LINE
  5
5EC
330
1F
100
AcDbEntity
  8
STANDARD
  6
STANDARD
 62
     7
100
AcDbLine
 10
1610.901355479687
 20
259.3445763965824
 30
0.0
 11
1612.093143199412
 21
258.1527505298832
 31
0.0
  0
LINE
  5
5ED
330
1F
100
AcDbEntity
  8
STANDARD
  6
STANDARD
 62
     7
100
AcDbLine
 10
1612.495441173046
 20
257.750490703223
 30
0.0
 11
1612.811984752148
 21
257.4339089771488
 31
0.0
  0
LINE
  5
5EE
330
1F
100
AcDbEntity
  8
STANDARD
  6
STANDARD
 62
     7
100
AcDbLine
 10
1619.7809407458
 20
250.4649911304691
 30
0.0
 11
1619.903773997753
 21
250.3421197315434
 31
0.0
  0
LINE
  5
5F0
330
1F
100
AcDbEntity
  8
STANDARD
  6
STANDARD
 62
     7
100
AcDbLine
 10
1620.502719615429
 20
149.2858300586915
 30
0.0
 11
1620.507259105175
 21
150.6057916065431
 31
0.0
  0
LINE
  5
5F1
330
1F
100
AcDbEntity
  8
STANDARD
  6
STANDARD
 62
     7
100
AcDbLine
 10
1620.492305491894
 20
152.7136407276368
 30
0.0
 11
1620.495433543652
 21
153.6252007862306
 31
0.0
  0
LINE
  5
5F2
330
1F
100
AcDbEntity
  8
STANDARD
  6
STANDARD
 62
     7
100
AcDbLine
 10
1620.479030345409
 20
167.9027734180665
 30
0.0
 11
1620.479030345409
 21
197.3991570850587
 31
0.0
  0
LINE
  5
5F3
330
1F
100
AcDbEntity
  8
STANDARD
  6
STANDARD
 62
     7
100
AcDbLine
 10
1587.479037974804
 20
167.7700601001954
 30
0.0
 11
1587.479037974804
 21
197.3991570850587
 31
0.0
  0
LINE
  5
5F4
330
1F
100
AcDbEntity
  8
STANDARD
  6
STANDARD
 62
     7
100
AcDbLine
 10
1537.143153880565
 20
134.9027429004884
 30
0.0
 11
1537.143153880565
 21
167.7869210621095
 31
0.0
  0
LINE
  5
5F5
330
1F
100
AcDbEntity
  8
STANDARD
  6
STANDARD
 62
     7
100
AcDbLine
 10
1677.343158458201
 20
116.4027581592774
 30
0.0
 11
1677.343158458201
 21
186.4027581592774
 31
0.0
  0
LINE
  5
5F6
330
1F
100
AcDbEntity
  8
STANDARD
  6
STANDARD
 62
     7
100
AcDbLine
 10
1677.343158458201
 20
231.4027581592777
 30
0.0
 11
1677.343158458201
 21
301.4027581592777
 31
0.0
  0
LINE
  5
5F8
330
1F
100
AcDbEntity
  8
STANDARD
  6
STANDARD
 62
     7
100
AcDbLine
 10
1665.343188975781
 20
231.4027581592777
 30
0.0
 11
1665.343188975781
 21
301.4027581592777
 31
0.0
  0
LINE
  5
605
330
1F
100
AcDbEntity
  8
STANDARD
  6
STANDARD
 62
     7
100
AcDbLine
 10
1620.343150828808
 20
1184.402750529883
 30
0.0
 11
1620.343150828808
 21
1202.18232969248
 31
0.0
  0
LINE
  5
606
330
1F
100
AcDbEntity
  8
STANDARD
  6
STANDARD
 62
     7
100
AcDbLine
 10
1675.843143199412
 20
1216.402758159277
 30
0.0
 11
1675.843143199412
 21
1286.402758159277
 31
0.0
  0
LINE
  5
607
330
1F
100
AcDbEntity
  8
STANDARD
  6
STANDARD
 62
     7
100
AcDbLine
 10
1663.84317371699
 20
116.4027581592774
 30
0.0
 11
1663.84317371699
 21
134.9027429004884
 31
0.0
  0
LINE
  5
608
330
1F
100
AcDbEntity
  8
STANDARD
  6
STANDARD
 62
     7
100
AcDbLine
 10
1663.84317371699
 20
167.9027734180665
 30
0.0
 11
1663.84317371699
 21
186.4027581592774
 31
0.0
  0
LINE
  5
609
330
1F
100
AcDbEntity
  8
STANDARD
  6
STANDARD
 62
     7
100
AcDbLine
 10
1663.84317371699
 20
1216.402758159277
 30
0.0
 11
1663.84317371699
 21
1286.402758159277
 31
0.0
  0
LINE
  5
60A
330
1F
100
AcDbEntity
  8
STANDARD
  6
STANDARD
 62
     7
100
AcDbLine
 10
1587.346782420605
 20
197.4027429004884
 30
0.0
 11
1587.346782420605
 21
851.4027581592777
 31
0.0
  0
LINE
  5
60B
330
1F
100
AcDbEntity
  8
STANDARD
  6
STANDARD
 62
     7
100
AcDbLine
 10
1587.346782420605
 20
959.4027600666263
 30
0.0
 11
1587.346782420605
 21
1182.902773418066
 31
0.0
  0
LINE
  5
60C
330
1F
100
AcDbEntity
  8
STANDARD
  6
STANDARD
 62
     7
100
AcDbLine
 10
1587.351016734569
 20
1184.402750529883
 30
0.0
 11
1587.351016734569
 21
1203.622835673926
 31
0.0
  0
LINE
  5
60D
330
1F
100
AcDbEntity
  8
STANDARD
  6
STANDARD
 62
     7
100
AcDbLine
 10
1620.230960582226
 20
197.4027429004884
 30
0.0
 11
1620.230960582226
 21
250.0149712940433
 31
0.0
  0
LINE
  5
60E
330
1F
100
AcDbEntity
  8
STANDARD
  6
STANDARD
 62
     7
100
AcDbLine
 10
1620.230960582226
 20
282.7905450245121
 30
0.0
 11
1620.230960582226
 21
851.4027581592777
 31
0.0
  0
LINE
  5
60F
330
1F
100
AcDbEntity
  8
STANDARD
  6
STANDARD
 62
     7
100
AcDbLine
 10
1620.230960582226
 20
959.4027600666263
 30
0.0
 11
1620.230960582226
 21
1184.402750529883
 31
0.0
  0
LINE
  5
610
330
1F
100
AcDbEntity
  8
STANDARD
  6
STANDARD
 62
     7
100
AcDbLine
 10
1608.358134959667
 20
167.2392831226563
 30
0.0
 11
1608.573779796093
 21
167.1499429126954
 31
0.0
  0
LINE
  5
611
330
1F
100
AcDbEntity
  8
STANDARD
  6
STANDARD
 62
     7
100
AcDbLine
 10
1608.999232982128
 20
135.6733117481446
 30
0.0
 11
1609.256305430859
 21
135.7113824268556
 31
0.0
  0
LINE
  5
612
330
1F
100
AcDbEntity
  8
STANDARD
  6
STANDARD
 62
     7
100
AcDbLine
 10
1587.346782420605
 20
197.4027429004884
 30
0.0
 11
1620.479030345409
 21
197.3991570850587
 31
0.0
  0
LINE
  5
613
330
1F
100
AcDbEntity
  8
STANDARD
  6
STANDARD
 62
     7
100
AcDbLine
 10
1665.343188975781
 20
301.4027581592777
 30
0.0
 11
1677.343158458201
 21
301.4027581592777
 31
0.0
  0
LINE
  5
614
330
1F
100
AcDbEntity
  8
STANDARD
  6
STANDARD
 62
     7
100
AcDbLine
 10
1665.343188975781
 20
231.4027581592777
 30
0.0
 11
1677.343158458201
 21
231.4027581592777
 31
0.0
  0
LINE
  5
615
330
1F
100
AcDbEntity
  8
STANDARD
  6
STANDARD
 62
     7
100
AcDbLine
 10
1620.343150828808
 20
249.9027429004887
 30
0.0
 11
1665.343188975781
 21
249.9027429004887
 31
0.0
  0
LINE
  5
616
330
1F
100
AcDbEntity
  8
STANDARD
  6
STANDARD
 62
     7
100
AcDbLine
 10
1620.343150828808
 20
282.9027734180671
 30
0.0
 11
1665.343188975781
 21
282.9027734180671
 31
0.0
  0
LINE
  5
618
330
1F
100
AcDbEntity
  8
STANDARD
  6
STANDARD
 62
     7
100
AcDbLine
 10
1663.84317371699
 20
186.4027581592774
 30
0.0
 11
1677.343158458201
 21
186.4027581592774
 31
0.0
  0
LINE
  5
619
330
1F
100
AcDbEntity
  8
STANDARD
  6
STANDARD
 62
     7
100
AcDbLine
 10
1663.84317371699
 20
116.4027581592774
 30
0.0
 11
1677.343158458201
 21
116.4027581592774
 31
0.0
  0
LINE
  5
61A
330
1F
100
AcDbEntity
  8
STANDARD
  6
STANDARD
 62
     7
100
AcDbLine
 10
1603.843135570019
 20
167.9027734180665
 30
0.0
 11
1665.343188975781
 21
167.9027734180665
 31
0.0
  0
LINE
  5
61B
330
1F
100
AcDbEntity
  8
STANDARD
  6
STANDARD
 62
     7
100
AcDbLine
 10
1607.509555552929
 20
167.4200616260743
 30
0.0
 11
1608.113651011912
 21
167.340525188086
 31
0.0
  0
LINE
  5
624
330
1F
100
AcDbEntity
  8
STANDARD
  6
STANDARD
 62
     7
100
AcDbLine
 10
1584.479045604197
 20
851.4027581592777
 30
0.0
 11
1623.479060862987
 21
851.4027581592777
 31
0.0
  0
LINE
  5
62B
330
1F
100
AcDbEntity
  8
STANDARD
  6
STANDARD
 62
     7
100
AcDbLine
 10
1653.063602183787
 20
1234.902742900488
 30
0.0
 11
1663.84317371699
 21
1234.902742900488
 31
0.0
  0
LINE
  5
62C
330
1F
100
AcDbEntity
  8
STANDARD
  6
STANDARD
 62
     7
100
AcDbLine
 10
1651.623096202343
 20
1267.894915141699
 30
0.0
 11
1663.84317371699
 21
1267.894915141699
 31
0.0
  0
LINE
  5
62D
330
1F
100
AcDbEntity
  8
STANDARD
  6
STANDARD
 62
     7
100
AcDbLine
 10
1587.351016734569
 20
1184.402750529883
 30
0.0
 11
1620.343150828808
 21
1184.402750529883
 31
0.0
  0
LINE
  5
62E
330
1F
100
AcDbEntity
  8
STANDARD
  6
STANDARD
 62
     7
100
AcDbLine
 10
1663.84317371699
 20
1216.402758159277
 30
0.0
 11
1675.843143199412
 21
1216.402758159277
 31
0.0
  0
LINE
  5
62F
330
1F
100
AcDbEntity
  8
STANDARD
  6
STANDARD
 62
     7
100
AcDbLine
 10
1663.84317371699
 20
1286.402758159277
 30
0.0
 11
1675.843143199412
 21
1286.402758159277
 31
0.0
  0
LINE
  5
630
330
1F
100
AcDbEntity
  8
STANDARD
  6
STANDARD
 62
     7
100
AcDbLine
 10
946.1203524813353
 20
134.9027429004884
 30
0.0
 11
1457.565936778515
 21
134.9027429004884
 31
0.0
  0
LINE
  5
631
330
1F
100
AcDbEntity
  8
STANDARD
  6
STANDARD
 62
     7
100
AcDbLine
 10
1519.120349620312
 20
134.9027429004884
 30
0.0
 11
1665.343188975781
 21
134.9027429004884
 31
0.0
  0
LINE
  5
632
330
1F
100
AcDbEntity
  8
STANDARD
  6
STANDARD
 62
     7
100
AcDbLine
 10
946.1822364077267
 20
167.7700601001954
 30
0.0
 11
1457.511958812206
 21
167.7869210621095
 31
0.0
  0
LINE
  5
633
330
1F
100
AcDbEntity
  8
STANDARD
  6
STANDARD
 62
     7
100
AcDbLine
 10
1519.174365733593
 20
167.7869210621095
 30
0.0
 11
1606.216182445019
 21
167.7700601001954
 31
0.0
  0
ARC
  5
634
330
1F
100
AcDbEntity
  8
STANDARD
  6
STANDARD
 62
     7
100
AcDbCircle
 10
-8.016210280535062
 20
-294.378871511062
 30
0.0
 40
23.49977800657983
100
AcDbArc
 50
134.9999691422747
 51
180.0004604106796
  0
ARC
  5
635
330
1F
100
AcDbEntity
  8
STANDARD
  6
STANDARD
 62
     7
100
AcDbCircle
 10
728.9839781397809
 20
-934.514941281786
 30
0.0
 40
65.0551143061126
100
AcDbArc
 50
189.9999811239467
 51
259.9999981667778
  0
ARC
  5
636
330
1F
100
AcDbEntity
  8
STANDARD
  6
STANDARD
 62
     7
100
AcDbCircle
 10
-382.5163347084252
 20
-246.0151478845498
 30
0.0
 40
31.93666549745544
100
AcDbArc
 50
189.9996248444761
 51
260.0005438931219
  0
ARC
  5
637
330
1F
100
AcDbEntity
  8
STANDARD
  6
STANDARD
 62
     7
100
AcDbCircle
 10
-382.5162122865346
 20
-246.0150091296809
 30
0.0
 40
65.05500945869214
100
AcDbArc
 50
189.9999589039525
 51
260.0002067700306
  0
ARC
  5
638
330
1F
100
AcDbEntity
  8
STANDARD
  6
STANDARD
 62
     7
100
AcDbCircle
 10
631.9840446281959
 20
-342.7148423261538
 30
0.0
 40
31.93689185273392
100
AcDbArc
 50
9.999871255785583
 51
80.00004437522918
  0
ARC
  5
639
330
1F
100
AcDbEntity
  8
STANDARD
  6
STANDARD
 62
     7
100
AcDbCircle
 10
631.9838592666153
 20
-342.715044020303
 30
0.0
 40
65.05530872749807
100
AcDbArc
 50
10.0001248350985
 51
79.99991658344332
  0
ARC
  5
63A
330
1F
100
AcDbEntity
  8
STANDARD
  6
STANDARD
 62
     7
100
AcDbCircle
 10
-8.015381633009212
 20
-294.3787758319609
 30
0.0
 40
23.49936283079744
100
AcDbArc
 50
359.999306297896
 51
45.00071322541926
  0
ARC
  5
63C
330
1F
100
AcDbEntity
  8
STANDARD
  6
STANDARD
 62
     7
100
AcDbCircle
 10
-8.017988345880439
 20
-294.5149550313899
 30
0.0
 40
16.4999933325769
100
AcDbArc
 50
180.8837843776721
 51
271.7676234736442
  0
ARC
  5
63D
330
1F
100
AcDbEntity
  8
STANDARD
  6
STANDARD
 62
     7
100
AcDbCircle
 10
-8.018035289164686
 20
-294.5149023331769
 30
0.0
 40
16.50004745378571
100
AcDbArc
 50
271.7677807602443
 51
352.7821762495698
  0
ARC
  5
63E
330
1F
100
AcDbEntity
  8
STANDARD
  6
STANDARD
 62
     7
100
AcDbCircle
 10
728.9840452170905
 20
-934.514846964673
 30
0.0
 40
31.93704494073485
100
AcDbArc
 50
190.0001120713533
 51
259.9999301131234
  0
LINE
  5
63F
330
1F
100
AcDbEntity
  8
STANDARD
  6
STANDARD
 62
     7
100
AcDbLine
 10
-21.09187024436397
 20
-304.578340132968
 30
0.0
 11
-20.20625012717647
 21
-305.4596114952729
 31
0.0
  0
LINE
  5
640
330
1F
100
AcDbEntity
  8
STANDARD
  6
STANDARD
 62
     7
100
AcDbLine
 10
-18.66358655295772
 20
-306.9949508507419
 30
0.0
 11
-18.01600354514522
 21
-307.639329512851
 31
0.0
  0
LINE
  5
641
330
1F
100
AcDbEntity
  8
STANDARD
  6
STANDARD
 62
     7
100
AcDbLine
 10
560.253344599386
 20
-289.7842574913669
 30
0.0
 11
560.7134733835657
 21
-290.244386275546
 31
0.0
  0
LINE
  5
642
330
1F
100
AcDbEntity
  8
STANDARD
  6
STANDARD
 62
     7
100
AcDbLine
 10
560.9479628244837
 20
-290.4789138634369
 30
0.0
 11
561.3175688425501
 21
-290.848481734531
 31
0.0
  0
LINE
  5
643
330
1F
100
AcDbEntity
  8
STANDARD
  6
STANDARD
 62
     7
100
AcDbLine
 10
684.7544966379603
 20
-414.2854476769128
 30
0.0
 11
685.9291945139368
 21
-415.4601455528899
 31
0.0
  0
LINE
  5
644
330
1F
100
AcDbEntity
  8
STANDARD
  6
STANDARD
 62
     7
100
AcDbLine
 10
687.8476439157923
 20
-417.3785568077729
 30
0.0
 11
688.7339888254603
 21
-418.2649017174409
 31
0.0
  0
LINE
  5
645
330
1F
100
AcDbEntity
  8
STANDARD
  6
STANDARD
 62
     7
100
AcDbLine
 10
689.1362486521204
 20
-418.6671996910739
 30
0.0
 11
689.7534285227258
 21
-419.284379561679
 31
0.0
  0
LINE
  5
646
330
1F
100
AcDbEntity
  8
STANDARD
  6
STANDARD
 62
     7
100
AcDbLine
 10
692.1512327829798
 20
-421.682183821933
 30
0.0
 11
692.9404936472376
 21
-422.471406539218
 31
0.0
  0
LINE
  5
647
330
1F
100
AcDbEntity
  8
STANDARD
  6
STANDARD
 62
     7
100
AcDbLine
 10
694.2149077097376
 20
-423.7458587486909
 30
0.0
 11
694.7734175363978
 21
-424.304330428378
 31
0.0
  0
LINE
  5
648
330
1F
100
AcDbEntity
  8
STANDARD
  6
STANDARD
 62
     7
100
AcDbLine
 10
695.1012144724329
 20
-424.632165511386
 30
0.0
 11
695.2732573191126
 21
-424.804170211093
 31
0.0
  0
LINE
  5
649
330
1F
100
AcDbEntity
  8
STANDARD
  6
STANDARD
 62
     7
100
AcDbLine
 10
696.0791502634485
 20
-425.6101013024018
 30
0.0
 11
696.5446196238001
 21
-426.0755325157809
 31
0.0
  0
LINE
  5
64A
330
1F
100
AcDbEntity
  8
STANDARD
  6
STANDARD
 62
     7
100
AcDbLine
 10
564.9839888254603
 20
-294.5149398644129
 30
0.0
 11
566.0025511423548
 21
-293.496339400546
 31
0.0
  0
LINE
  5
64D
330
1F
100
AcDbEntity
  8
STANDARD
  6
STANDARD
 62
     7
100
AcDbLine
 10
8.351260248800087
 20
-277.5704360802338
 30
0.0
 11
8.600970331808184
 21
-277.7620101769129
 31
0.0
  0
LINE
  5
64F
330
1F
100
AcDbEntity
  8
STANDARD
  6
STANDARD
 62
     7
100
AcDbLine
 10
-27.05737012229366
 20
-283.3854842980069
 30
0.0
 11
-24.51601880393428
 21
-280.0735641319909
 31
0.0
  0
LINE
  5
650
330
1F
100
AcDbEntity
  8
STANDARD
  6
STANDARD
 62
     7
100
AcDbLine
 10
3.651248041768837
 20
-306.046311934726
 30
0.0
 11
3.782778803487587
 21
-305.8748794396088
 31
0.0
  0
LINE
  5
651
330
1F
100
AcDbEntity
  8
STANDARD
  6
STANDARD
 62
     7
100
AcDbLine
 10
5.884066645284178
 20
-303.1363845665619
 30
0.0
 11
6.27339464821415
 21
-302.6290298302338
 31
0.0
  0
LINE
  5
653
330
1F
100
AcDbEntity
  8
STANDARD
  6
STANDARD
 62
     7
100
AcDbLine
 10
4.748202387471962
 20
-304.9707961876559
 30
0.0
 11
7.03267199196415
 21
-301.2814498741789
 31
0.0
  0
LINE
  5
654
330
1F
100
AcDbEntity
  8
STANDARD
  6
STANDARD
 62
     7
100
AcDbLine
 10
-18.01600354514522
 20
-307.639329512851
 30
0.0
 11
-17.17471021018428
 21
-308.0806136925379
 31
0.0
  0
LINE
  5
655
330
1F
100
AcDbEntity
  8
STANDARD
  6
STANDARD
 62
     7
100
AcDbLine
 10
-14.05245679221553
 20
-309.7184158165619
 30
0.0
 11
-13.12914746604366
 21
-310.2026534874598
 31
0.0
  0
LINE
  5
658
330
1F
100
AcDbEntity
  8
STANDARD
  6
STANDARD
 62
     7
100
AcDbLine
 10
-29.25387280784082
 20
-288.6883712608979
 30
0.0
 11
-27.05737012229366
 21
-283.3854842980069
 31
0.0
  0
LINE
  5
659
330
1F
100
AcDbEntity
  8
STANDARD
  6
STANDARD
 62
     7
100
AcDbLine
 10
6.27339464821415
 20
-302.6290298302338
 30
0.0
 11
6.425219599386025
 21
-302.2625137169518
 31
0.0
  0
LINE
  5
65A
330
1F
100
AcDbEntity
  8
STANDARD
  6
STANDARD
 62
     7
100
AcDbLine
 10
7.555590693136025
 20
-299.5335555870697
 30
0.0
 11
7.921801630636025
 21
-298.6495376427338
 31
0.0
  0
LINE
  5
65B
330
1F
100
AcDbEntity
  8
STANDARD
  6
STANDARD
 62
     7
100
AcDbLine
 10
14.49505907692508
 20
-332.7026534874598
 30
0.0
 11
15.48398119606571
 21
-329.5194412071869
 31
0.0
  0
LINE
  5
65C
330
1F
100
AcDbEntity
  8
STANDARD
  6
STANDARD
 62
     7
100
AcDbLine
 10
7.422839228292275
 20
-299.9773574669518
 30
0.0
 11
8.276339594503212
 21
-297.1241165001559
 31
0.0
  0
LINE
  5
661
330
1F
100
AcDbEntity
  8
STANDARD
  6
STANDARD
 62
     7
100
AcDbLine
 10
8.351260248800087
 20
-295.3870559532809
 30
0.0
 11
8.484011713643837
 21
-294.3790603478119
 31
0.0
  0
LINE
  5
662
330
1F
100
AcDbEntity
  8
STANDARD
  6
STANDARD
 62
     7
100
AcDbLine
 10
-30.01604932151241
 20
-294.4773269493738
 30
0.0
 11
-29.25387280784082
 21
-288.6883712608979
 31
0.0
  0
LINE
  5
663
330
1F
100
AcDbEntity
  8
STANDARD
  6
STANDARD
 62
     7
100
AcDbLine
 10
13.98396593727665
 20
-337.8790450890229
 30
0.0
 11
14.49505907692508
 21
-332.7026534874598
 31
0.0
  0
LINE
  5
664
330
1F
100
AcDbEntity
  8
STANDARD
  6
STANDARD
 62
     7
100
AcDbLine
 10
723.4381971994837
 20
-965.9666896660489
 30
0.0
 11
729.7044096628626
 21
-966.5149093468347
 31
0.0
  0
LINE
  5
665
330
1F
100
AcDbEntity
  8
STANDARD
  6
STANDARD
 62
     7
100
AcDbLine
 10
717.6872740427454
 20
-998.5817218620937
 30
0.0
 11
728.2639418283899
 21
-999.5070625145601
 31
0.0
  0
LINE
  5
666
330
1F
100
AcDbEntity
  8
STANDARD
  6
STANDARD
 62
     7
100
AcDbLine
 10
-388.0617799123326
 20
-277.4666763146088
 30
0.0
 11
-381.7956055959264
 21
-278.0149246056239
 31
0.0
  0
LINE
  5
667
330
1F
100
AcDbEntity
  8
STANDARD
  6
STANDARD
 62
     7
100
AcDbLine
 10
-393.8126649220983
 20
-310.0817275841399
 30
0.0
 11
-383.2360352834264
 21
-311.0070968468348
 31
0.0
  0
LINE
  5
668
330
1F
100
AcDbEntity
  8
STANDARD
  6
STANDARD
 62
     7
100
AcDbLine
 10
631.2635908762415
 20
-310.7148910362879
 30
0.0
 11
637.5298033396204
 21
-311.2631393273039
 31
0.0
  0
LINE
  5
669
330
1F
100
AcDbEntity
  8
STANDARD
  6
STANDARD
 62
     7
100
AcDbLine
 10
632.7040587107141
 20
-277.7227950890229
 30
0.0
 11
643.280688349386
 21
-278.6480880577729
 31
0.0
  0
LINE
  5
671
330
1F
100
AcDbEntity
  8
STANDARD
  6
STANDARD
 62
     7
100
AcDbLine
 10
696.9839964548548
 20
-933.794515212314
 30
0.0
 11
697.5322065988978
 21
-940.0607181389499
 31
0.0
  0
LINE
  5
672
330
1F
100
AcDbEntity
  8
STANDARD
  6
STANDARD
 62
     7
100
AcDbLine
 10
663.9918242136438
 20
-935.234973510043
 30
0.0
 11
664.9171934763391
 21
-945.8116222222008
 31
0.0
  0
LINE
  5
673
330
1F
100
AcDbEntity
  8
STANDARD
  6
STANDARD
 62
     7
100
AcDbLine
 10
-414.5159425099892
 20
-245.2945113976169
 30
0.0
 11
-413.9678468068638
 21
-251.5606857140233
 31
0.0
  0
LINE
  5
674
330
1F
100
AcDbEntity
  8
STANDARD
  6
STANDARD
 62
     7
100
AcDbLine
 10
-447.5081910451451
 20
-246.7349410851169
 30
0.0
 11
-446.5828980763951
 21
-257.3116470177341
 31
0.0
  0
LINE
  5
675
330
1F
100
AcDbEntity
  8
STANDARD
  6
STANDARD
 62
     7
100
AcDbLine
 10
663.4357557932337
 20
-337.1691299278899
 30
0.0
 11
663.9839659372767
 21
-343.435304244296
 31
0.0
  0
LINE
  5
676
330
1F
100
AcDbEntity
  8
STANDARD
  6
STANDARD
 62
     7
100
AcDbLine
 10
696.050807062765
 20
-331.4181686241789
 30
0.0
 11
696.9761381784876
 21
-341.994874556796
 31
0.0
  0
LINE
  5
677
330
1F
100
AcDbEntity
  8
STANDARD
  6
STANDARD
 62
     7
100
AcDbLine
 10
-30.52714246116085
 20
-332.7026534874598
 30
0.0
 11
-30.01604932151241
 21
-337.8790450890229
 31
0.0
  0
LINE
  5
679
330
1F
100
AcDbEntity
  8
STANDARD
  6
STANDARD
 62
     7
100
AcDbLine
 10
13.22186571755008
 20
-288.6883712608979
 30
0.0
 11
13.98396593727665
 21
-294.4773269493738
 31
0.0
  0
LINE
  5
67A
330
1F
100
AcDbEntity
  8
STANDARD
  6
STANDARD
 62
     7
100
AcDbLine
 10
-24.06329053244991
 20
-297.817628463046
 30
0.0
 11
-23.95380872092647
 21
-298.6495376427338
 31
0.0
  0
LINE
  5
67B
330
1F
100
AcDbEntity
  8
STANDARD
  6
STANDARD
 62
     7
100
AcDbLine
 10
8.36995226540165
 20
-293.648850997226
 30
0.0
 11
8.484011713643837
 21
-294.3790603478119
 31
0.0
  0
LINE
  5
67F
330
1F
100
AcDbEntity
  8
STANDARD
  6
STANDARD
 62
     7
100
AcDbLine
 10
-24.38013928733272
 20
-296.6282058556238
 30
0.0
 11
-24.06206982932491
 21
-297.8222823937098
 31
0.0
  0
LINE
  5
680
330
1F
100
AcDbEntity
  8
STANDARD
  6
STANDARD
 62
     7
100
AcDbLine
 10
-23.4998597463171
 20
-299.9329543907809
 30
0.0
 11
-23.26327222190332
 21
-300.8213973839447
 31
0.0
  0
LINE
  5
681
330
1F
100
AcDbEntity
  8
STANDARD
  6
STANDARD
 62
     7
100
AcDbLine
 10
-31.51598828635616
 20
-329.5194412071869
 30
0.0
 11
-30.52714246116085
 21
-332.7026534874598
 31
0.0
  0
LINE
  5
683
330
1F
100
AcDbEntity
  8
STANDARD
  6
STANDARD
 62
     7
100
AcDbLine
 10
11.02536303200321
 20
-283.3854842980069
 30
0.0
 11
13.22186571755008
 21
-288.6883712608979
 31
0.0
  0
LINE
  5
684
330
1F
100
AcDbEntity
  8
STANDARD
  6
STANDARD
 62
     7
100
AcDbLine
 10
-2.250317509988974
 20
-309.9747634728119
 30
0.0
 11
0.002566401143838
 21
-308.7764144737879
 31
0.0
  0
LINE
  5
685
330
1F
100
AcDbEntity
  8
STANDARD
  6
STANDARD
 62
     7
100
AcDbLine
 10
1.391039911886025
 20
-308.0378890831629
 30
0.0
 11
1.580859247823525
 21
-307.9369521935149
 31
0.0
  0
LINE
  5
687
330
1F
100
AcDbEntity
  8
STANDARD
  6
STANDARD
 62
     7
100
AcDbLine
 10
-23.26327222190332
 20
-300.8213973839447
 30
0.0
 11
-22.64178174338741
 21
-301.8966079552338
 31
0.0
  0
LINE
  5
688
330
1F
100
AcDbEntity
  8
STANDARD
  6
STANDARD
 62
     7
100
AcDbLine
 10
-21.55024426780147
 20
-303.7851882774988
 30
0.0
 11
-21.09187024436397
 21
-304.578340132968
 31
0.0
  0
LINE
  5
68B
330
1F
100
AcDbEntity
  8
STANDARD
  6
STANDARD
 62
     7
100
AcDbLine
 10
3.366061274190712
 20
-306.2651229698819
 30
0.0
 11
3.651248041768837
 21
-306.046311934726
 31
0.0
  0
LINE
  5
68D
330
1F
100
AcDbEntity
  8
STANDARD
  6
STANDARD
 62
     7
100
AcDbLine
 10
8.351260248800087
 20
-279.900605757968
 30
0.0
 11
11.02536303200321
 21
-283.3854842980069
 31
0.0
  0
LINE
  5
68E
330
1F
100
AcDbEntity
  8
STANDARD
  6
STANDARD
 62
     7
100
AcDbLine
 10
1.580859247823525
 20
-307.9369521935149
 30
0.0
 11
4.199191157003212
 21
-305.4849410851159
 31
0.0
  0
LINE
  5
690
330
1F
100
AcDbEntity
  8
STANDARD
  6
STANDARD
 62
     7
100
AcDbLine
 10
568.6503706613978
 20
-290.848481734531
 30
0.0
 11
581.6485019662133
 21
-277.850816329257
 31
0.0
  0
LINE
  5
691
330
1F
100
AcDbEntity
  8
STANDARD
  6
STANDARD
 62
     7
100
AcDbLine
 10
680.4839811960658
 20
-410.014894088046
 30
0.0
 11
681.7290602365931
 21
-408.7698531944909
 31
0.0
  0
LINE
  5
692
330
1F
100
AcDbEntity
  8
STANDARD
  6
STANDARD
 62
     7
100
AcDbLine
 10
683.7843809763391
 20
-406.7144943077729
 30
0.0
 11
685.9291945139368
 21
-404.5697189171479
 31
0.0
  0
LINE
  5
693
330
1F
100
AcDbEntity
  8
STANDARD
  6
STANDARD
 62
     7
100
AcDbLine
 10
687.8476439157923
 20
-402.6512313683197
 30
0.0
 11
689.7534285227258
 21
-400.7454849083589
 31
0.0
  0
LINE
  5
694
330
1F
100
AcDbEntity
  8
STANDARD
  6
STANDARD
 62
     7
100
AcDbLine
 10
691.4063749948939
 20
-399.092500289218
 30
0.0
 11
692.9404936472376
 21
-397.5584579308198
 31
0.0
  0
LINE
  5
695
330
1F
100
AcDbEntity
  8
STANDARD
  6
STANDARD
 62
     7
100
AcDbLine
 10
694.2811690012415
 20
-396.217744429843
 30
0.0
 11
695.2732573191126
 21
-395.2256942589448
 31
0.0
  0
LINE
  5
696
330
1F
100
AcDbEntity
  8
STANDARD
  6
STANDARD
 62
     7
100
AcDbLine
 10
696.0791502634485
 20
-394.4197250206629
 30
0.0
 11
696.5933333078822
 21
-393.9055801232018
 31
0.0
  0
LINE
  5
697
330
1F
100
AcDbEntity
  8
STANDARD
  6
STANDARD
 62
     7
100
AcDbLine
 10
548.3219193074846
 20
-277.850816329257
 30
0.0
 11
560.9479628244837
 21
-290.4789138634369
 31
0.0
  0
LINE
  5
698
330
1F
100
AcDbEntity
  8
STANDARD
  6
STANDARD
 62
     7
100
AcDbLine
 10
563.9654265085657
 20
-293.496339400546
 30
0.0
 11
564.9839888254603
 21
-294.5149398644129
 31
0.0
  0
LINE
  5
699
330
1F
100
AcDbEntity
  8
STANDARD
  6
STANDARD
 62
     7
100
AcDbLine
 10
680.4839811960658
 20
-410.014894088046
 30
0.0
 11
681.7290602365931
 21
-411.260011275546
 31
0.0
  0
LINE
  5
69A
330
1F
100
AcDbEntity
  8
STANDARD
  6
STANDARD
 62
     7
100
AcDbLine
 10
683.7843809763391
 20
-413.3152938683198
 30
0.0
 11
684.7544966379603
 21
-414.2854476769128
 31
0.0
  0
LINE
  5
69B
330
1F
100
AcDbEntity
  8
STANDARD
  6
STANDARD
 62
     7
100
AcDbLine
 10
688.7339888254603
 20
-418.2649017174409
 30
0.0
 11
689.1362486521204
 21
-418.6671996910739
 31
0.0
  0
LINE
  5
69C
330
1F
100
AcDbEntity
  8
STANDARD
  6
STANDARD
 62
     7
100
AcDbLine
 10
691.4063749948939
 20
-420.9372878868738
 30
0.0
 11
692.1512327829798
 21
-421.682183821933
 31
0.0
  0
LINE
  5
69D
330
1F
100
AcDbEntity
  8
STANDARD
  6
STANDARD
 62
     7
100
AcDbLine
 10
694.7734175363978
 20
-424.304330428378
 30
0.0
 11
695.1012144724329
 21
-424.632165511386
 31
0.0
  0
LINE
  5
69E
330
1F
100
AcDbEntity
  8
STANDARD
  6
STANDARD
 62
     7
100
AcDbLine
 10
752.4839888254603
 20
-1018.014912684694
 30
0.0
 11
752.4839888254603
 21
-948.0149150688806
 31
0.0
  0
LINE
  5
69F
330
1F
100
AcDbEntity
  8
STANDARD
  6
STANDARD
 62
     7
100
AcDbLine
 10
740.4839811960657
 20
-1018.014912684694
 30
0.0
 11
740.4839811960657
 21
-948.0149150688806
 31
0.0
  0
LINE
  5
6A0
330
1F
100
AcDbEntity
  8
STANDARD
  6
STANDARD
 62
     7
100
AcDbLine
 10
548.4839735666712
 20
-277.8581405480069
 30
0.0
 11
548.4839735666712
 21
-233.0149246056247
 31
0.0
  0
LINE
  5
6A1
330
1F
100
AcDbEntity
  8
STANDARD
  6
STANDARD
 62
     7
100
AcDbLine
 10
581.4839659372767
 20
-277.8581405480069
 30
0.0
 11
581.4839659372767
 21
-233.0149246056247
 31
0.0
  0
LINE
  5
6A3
330
1F
100
AcDbEntity
  8
STANDARD
  6
STANDARD
 62
     7
100
AcDbLine
 10
8.484011713643837
 20
-277.6722122032799
 30
0.0
 11
8.484011713643837
 21
-234.5149398644138
 31
0.0
  0
LINE
  5
6A4
330
1F
100
AcDbEntity
  8
STANDARD
  6
STANDARD
 62
     7
100
AcDbLine
 10
-24.38013928733272
 20
-296.6282058556238
 30
0.0
 11
-24.3769349416296
 21
-295.7047439415619
 31
0.0
  0
LINE
  5
6A5
330
1F
100
AcDbEntity
  8
STANDARD
  6
STANDARD
 62
     7
100
AcDbLine
 10
-414.5159425099892
 20
-245.2945113976169
 30
0.0
 11
-414.5159425099892
 21
-234.5149398644138
 31
0.0
  0
LINE
  5
6A6
330
1F
100
AcDbEntity
  8
STANDARD
  6
STANDARD
 62
     7
100
AcDbLine
 10
-447.5081910451451
 20
-246.7349410851169
 30
0.0
 11
-447.5081910451451
 21
-234.5149398644138
 31
0.0
  0
LINE
  5
6A7
330
1F
100
AcDbEntity
  8
STANDARD
  6
STANDARD
 62
     7
100
AcDbLine
 10
-364.0160645803014
 20
-311.0070968468348
 30
0.0
 11
-364.0160645803014
 21
-277.850816329257
 31
0.0
  0
LINE
  5
6A8
330
1F
100
AcDbEntity
  8
STANDARD
  6
STANDARD
 62
     7
100
AcDbLine
 10
-396.0160340627236
 20
-234.5149398644138
 30
0.0
 11
-396.0160340627236
 21
-222.5148940880466
 31
0.0
  0
LINE
  5
6A9
330
1F
100
AcDbEntity
  8
STANDARD
  6
STANDARD
 62
     7
100
AcDbLine
 10
-466.0160340627233
 20
-234.5149398644138
 30
0.0
 11
-466.0160340627233
 21
-222.5148940880466
 31
0.0
  0
LINE
  5
6AA
330
1F
100
AcDbEntity
  8
STANDARD
  6
STANDARD
 62
     7
100
AcDbLine
 10
7.03267199196415
 20
-301.2814498741789
 30
0.0
 11
7.06868273415165
 21
-301.1612869103119
 31
0.0
  0
LINE
  5
6AC
330
1F
100
AcDbEntity
  8
STANDARD
  6
STANDARD
 62
     7
100
AcDbLine
 10
-31.51598828635616
 20
-329.5194412071869
 30
0.0
 11
-31.51598828635616
 21
-294.3790603478119
 31
0.0
  0
LINE
  5
6AD
330
1F
100
AcDbEntity
  8
STANDARD
  6
STANDARD
 62
     7
100
AcDbLine
 10
7.921801630636025
 20
-298.6495376427338
 30
0.0
 11
8.001681391378212
 21
-298.0423141319909
 31
0.0
  0
LINE
  5
6AE
330
1F
100
AcDbEntity
  8
STANDARD
  6
STANDARD
 62
     7
100
AcDbLine
 10
13.99663073219852
 20
-338.4337783653899
 30
0.0
 11
13.98396593727665
 21
-294.4773269493738
 31
0.0
  0
LINE
  5
6AF
330
1F
100
AcDbEntity
  8
STANDARD
  6
STANDARD
 62
     7
100
AcDbLine
 10
-30.07082837424678
 20
-338.4337783653899
 30
0.0
 11
-30.01604932151241
 21
-294.4773269493738
 31
0.0
  0
LINE
  5
6B0
330
1F
100
AcDbEntity
  8
STANDARD
  6
STANDARD
 62
     7
100
AcDbLine
 10
15.48398119606571
 20
-329.5194412071869
 30
0.0
 11
15.48398119606571
 21
-294.3790603478119
 31
0.0
  0
LINE
  5
6B3
330
1F
100
AcDbEntity
  8
STANDARD
  6
STANDARD
 62
     7
100
AcDbLine
 10
21.98399645485477
 20
-316.3790298302338
 30
0.0
 11
21.98399645485477
 21
-272.3790145714447
 31
0.0
  0
LINE
  5
6B9
330
1F
100
AcDbEntity
  8
STANDARD
  6
STANDARD
 62
     7
100
AcDbLine
 10
-38.01600354514522
 20
-316.3790298302338
 30
0.0
 11
-38.01600354514522
 21
-272.3790145714447
 31
0.0
  0
LINE
  5
6BA
330
1F
100
AcDbEntity
  8
STANDARD
  6
STANDARD
 62
     7
100
AcDbLine
 10
-24.51601880393428
 20
-294.769456465976
 30
0.0
 11
-24.51601880393428
 21
-234.5149398644138
 31
0.0
  0
LINE
  5
6BB
330
1F
100
AcDbEntity
  8
STANDARD
  6
STANDARD
 62
     7
100
AcDbLine
 10
8.276339594503212
 20
-297.1241165001559
 30
0.0
 11
8.2841978708704
 21
-296.832749923007
 31
0.0
  0
LINE
  5
6BC
330
1F
100
AcDbEntity
  8
STANDARD
  6
STANDARD
 62
     7
100
AcDbLine
 10
8.351260248800087
 20
-296.5879989464447
 30
0.0
 11
8.351260248800087
 21
-234.5149398644138
 31
0.0
  0
LINE
  5
6BE
330
1F
100
AcDbEntity
  8
STANDARD
  6
STANDARD
 62
     7
100
AcDbLine
 10
-43.01600354514522
 20
-234.5149398644138
 30
0.0
 11
-43.01600354514522
 21
-221.0148788292576
 31
0.0
  0
LINE
  5
6BF
330
1F
100
AcDbEntity
  8
STANDARD
  6
STANDARD
 62
     7
100
AcDbLine
 10
26.98399645485477
 20
-234.5149398644138
 30
0.0
 11
26.98399645485477
 21
-221.0148788292576
 31
0.0
  0
LINE
  5
6C1
330
1F
100
AcDbEntity
  8
STANDARD
  6
STANDARD
 62
     7
100
AcDbLine
 10
663.9918242136438
 20
-935.234973510043
 30
0.0
 11
663.9918242136438
 21
-916.01491697623
 31
0.0
  0
LINE
  5
6C2
330
1F
100
AcDbEntity
  8
STANDARD
  6
STANDARD
 62
     7
100
AcDbLine
 10
663.9839659372767
 20
-361.2149215538669
 30
0.0
 11
663.9839659372767
 21
-343.435304244296
 31
0.0
  0
LINE
  5
6C4
330
1F
100
AcDbEntity
  8
STANDARD
  6
STANDARD
 62
     7
100
AcDbLine
 10
599.9839888254602
 20
-233.0149246056247
 30
0.0
 11
599.9839888254602
 21
-221.0148788292576
 31
0.0
  0
LINE
  5
6C5
330
1F
100
AcDbEntity
  8
STANDARD
  6
STANDARD
 62
     7
100
AcDbLine
 10
529.9839888254602
 20
-233.0149246056247
 30
0.0
 11
529.9839888254602
 21
-221.0148788292576
 31
0.0
  0
LINE
  5
6C6
330
1F
100
AcDbEntity
  8
STANDARD
  6
STANDARD
 62
     7
100
AcDbLine
 10
741.9839773813684
 20
-445.014932235019
 30
0.0
 11
741.9839773813684
 21
-375.014894088046
 31
0.0
  0
LINE
  5
6C7
330
1F
100
AcDbEntity
  8
STANDARD
  6
STANDARD
 62
     7
100
AcDbLine
 10
753.983985010763
 20
-445.014932235019
 30
0.0
 11
753.983985010763
 21
-375.014894088046
 31
0.0
  0
LINE
  5
6C8
330
1F
100
AcDbEntity
  8
STANDARD
  6
STANDARD
 62
     7
100
AcDbLine
 10
696.9839964548548
 20
-933.794515212314
 30
0.0
 11
696.8932066599329
 21
-426.2878204186129
 31
0.0
  0
LINE
  5
6C9
330
1F
100
AcDbEntity
  8
STANDARD
  6
STANDARD
 62
     7
100
AcDbLine
 10
696.8932066599329
 20
-393.7420059044518
 30
0.0
 11
696.9761381784876
 21
-341.994874556796
 31
0.0
  0
LINE
  5
6CA
330
1F
100
AcDbEntity
  8
STANDARD
  6
STANDARD
 62
     7
100
AcDbLine
 10
664.1198836008509
 20
-916.01491697623
 30
0.0
 11
664.1198836008509
 21
-361.2149215538669
 31
0.0
  0
LINE
  5
6CB
330
1F
100
AcDbEntity
  8
STANDARD
  6
STANDARD
 62
     7
100
AcDbLine
 10
740.4839811960657
 20
-948.0149150688806
 30
0.0
 11
752.4839888254603
 21
-948.0149150688806
 31
0.0
  0
LINE
  5
6CC
330
1F
100
AcDbEntity
  8
STANDARD
  6
STANDARD
 62
     7
100
AcDbLine
 10
740.4839811960657
 20
-1018.014912684694
 30
0.0
 11
752.4839888254603
 21
-1018.014912684694
 31
0.0
  0
LINE
  5
6CD
330
1F
100
AcDbEntity
  8
STANDARD
  6
STANDARD
 62
     7
100
AcDbLine
 10
729.7044096628626
 20
-966.5149093468347
 30
0.0
 11
740.4839811960657
 21
-966.5149093468347
 31
0.0
  0
LINE
  5
6CE
330
1F
100
AcDbEntity
  8
STANDARD
  6
STANDARD
 62
     7
100
AcDbLine
 10
728.2639418283899
 20
-999.5070625145601
 30
0.0
 11
740.4839811960657
 21
-999.5070625145601
 31
0.0
  0
LINE
  5
6D0
330
1F
100
AcDbEntity
  8
STANDARD
  6
STANDARD
 62
     7
100
AcDbLine
 10
-2.572430547098349
 20
-310.0363326866789
 30
0.0
 11
-2.250317509988974
 21
-309.9747634728119
 31
0.0
  0
LINE
  5
6D1
330
1F
100
AcDbEntity
  8
STANDARD
  6
STANDARD
 62
     7
100
AcDbLine
 10
-364.0160645803014
 20
-277.850816329257
 30
0.0
 11
-38.01600354514522
 21
-277.850816329257
 31
0.0
  0
LINE
  5
6D2
330
1F
100
AcDbEntity
  8
STANDARD
  6
STANDARD
 62
     7
100
AcDbLine
 10
-24.63305371604366
 20
-277.7620101769129
 30
0.0
 11
-24.51601880393428
 21
-277.6722122032799
 31
0.0
  0
LINE
  5
6D3
330
1F
100
AcDbEntity
  8
STANDARD
  6
STANDARD
 62
     7
100
AcDbLine
 10
21.98399645485477
 20
-277.850816329257
 30
0.0
 11
548.4839735666712
 21
-277.850816329257
 31
0.0
  0
LINE
  5
6D4
330
1F
100
AcDbEntity
  8
STANDARD
  6
STANDARD
 62
     7
100
AcDbLine
 10
581.4839659372767
 20
-277.850816329257
 30
0.0
 11
613.4839735666712
 21
-277.850816329257
 31
0.0
  0
LINE
  5
6D5
330
1F
100
AcDbEntity
  8
STANDARD
  6
STANDARD
 62
     7
100
AcDbLine
 10
-381.7956055959264
 20
-278.0149246056239
 30
0.0
 11
-364.0160645803014
 21
-278.0149246056239
 31
0.0
  0
LINE
  5
6D6
330
1F
100
AcDbEntity
  8
STANDARD
  6
STANDARD
 62
     7
100
AcDbLine
 10
-383.2360352834264
 20
-311.0070968468348
 30
0.0
 11
-364.0160645803014
 21
-311.0070968468348
 31
0.0
  0
LINE
  5
6D7
330
1F
100
AcDbEntity
  8
STANDARD
  6
STANDARD
 62
     7
100
AcDbLine
 10
-8.114804204324912
 20
-310.9454513390228
 30
0.0
 11
-7.670391972879599
 21
-311.0112930138268
 31
0.0
  0
LINE
  5
6D8
330
1F
100
AcDbEntity
  8
STANDARD
  6
STANDARD
 62
     7
100
AcDbLine
 10
-13.12914746604366
 20
-310.2026534874598
 30
0.0
 11
-12.57235425315303
 21
-310.285127242343
 31
0.0
  0
LINE
  5
6D9
330
1F
100
AcDbEntity
  8
STANDARD
  6
STANDARD
 62
     7
100
AcDbLine
 10
-38.01600354514522
 20
-316.3790298302338
 30
0.0
 11
-31.51598828635616
 21
-316.3790298302338
 31
0.0
  0
LINE
  5
6DA
330
1F
100
AcDbEntity
  8
STANDARD
  6
STANDARD
 62
     7
100
AcDbLine
 10
15.48398119606571
 20
-316.3790298302338
 30
0.0
 11
21.98399645485477
 21
-316.3790298302338
 31
0.0
  0
LINE
  5
6DB
330
1F
100
AcDbEntity
  8
STANDARD
  6
STANDARD
 62
     7
100
AcDbLine
 10
-38.01600354514522
 20
-272.3790145714447
 30
0.0
 11
-24.51601880393428
 21
-272.3790145714447
 31
0.0
  0
LINE
  5
6DC
330
1F
100
AcDbEntity
  8
STANDARD
  6
STANDARD
 62
     7
100
AcDbLine
 10
8.484011713643837
 20
-272.3790145714447
 30
0.0
 11
21.98399645485477
 21
-272.3790145714447
 31
0.0
  0
LINE
  5
6E0
330
1F
100
AcDbEntity
  8
STANDARD
  6
STANDARD
 62
     7
100
AcDbLine
 10
-30.07082837424678
 20
-338.4337783653899
 30
0.0
 11
14.03874499001102
 21
-338.4337783653899
 31
0.0
  0
LINE
  5
6E2
330
1F
100
AcDbEntity
  8
STANDARD
  6
STANDARD
 62
     7
100
AcDbLine
 10
15.48398119606571
 20
-317.8790450890228
 30
0.0
 11
21.98399645485477
 21
-317.8790450890228
 31
0.0
  0
LINE
  5
6E4
330
1F
100
AcDbEntity
  8
STANDARD
  6
STANDARD
 62
     7
100
AcDbLine
 10
-466.0160340627233
 20
-222.5148940880466
 30
0.0
 11
-396.0160340627236
 21
-222.5148940880466
 31
0.0
  0
LINE
  5
6E6
330
1F
100
AcDbEntity
  8
STANDARD
  6
STANDARD
 62
     7
100
AcDbLine
 10
-466.0160340627233
 20
-234.5149398644138
 30
0.0
 11
-396.0160340627236
 21
-234.5149398644138
 31
0.0
  0
LINE
  5
6E7
330
1F
100
AcDbEntity
  8
STANDARD
  6
STANDARD
 62
     7
100
AcDbLine
 10
-43.01600354514522
 20
-234.5149398644138
 30
0.0
 11
26.98399645485477
 21
-234.5149398644138
 31
0.0
  0
LINE
  5
6E8
330
1F
100
AcDbEntity
  8
STANDARD
  6
STANDARD
 62
     7
100
AcDbLine
 10
663.9839659372767
 20
-361.2149215538669
 30
0.0
 11
696.9761381784876
 21
-361.2149215538669
 31
0.0
  0
LINE
  5
6E9
330
1F
100
AcDbEntity
  8
STANDARD
  6
STANDARD
 62
     7
100
AcDbLine
 10
-364.0160645803014
 20
-310.6241012413659
 30
0.0
 11
-38.01600354514522
 21
-310.6241012413659
 31
0.0
  0
LINE
  5
6EA
330
1F
100
AcDbEntity
  8
STANDARD
  6
STANDARD
 62
     7
100
AcDbLine
 10
21.98399645485477
 20
-310.6241012413659
 30
0.0
 11
631.2635908762415
 21
-310.7148910362879
 31
0.0
  0
LINE
  5
6EB
330
1F
100
AcDbEntity
  8
STANDARD
  6
STANDARD
 62
     7
100
AcDbLine
 10
-24.63305371604366
 20
-277.7620101769129
 30
0.0
 11
-24.51601880393428
 21
-277.6722122032799
 31
0.0
  0
LINE
  5
6EC
330
1F
100
AcDbEntity
  8
STANDARD
  6
STANDARD
 62
     7
100
AcDbLine
 10
613.4839735666712
 20
-277.7227950890229
 30
0.0
 11
632.7040587107141
 21
-277.7227950890229
 31
0.0
  0
LINE
  5
6ED
330
1F
100
AcDbEntity
  8
STANDARD
  6
STANDARD
 62
     7
100
AcDbLine
 10
529.9839888254602
 20
-233.0149246056247
 30
0.0
 11
599.9839888254602
 21
-233.0149246056247
 31
0.0
  0
LINE
  5
6EE
330
1F
100
AcDbEntity
  8
STANDARD
  6
STANDARD
 62
     7
100
AcDbLine
 10
741.9839773813684
 20
-445.014932235019
 30
0.0
 11
753.983985010763
 21
-445.014932235019
 31
0.0
  0
LINE
  5
6EF
330
1F
100
AcDbEntity
  8
STANDARD
  6
STANDARD
 62
     7
100
AcDbLine
 10
741.9839773813684
 20
-375.014894088046
 30
0.0
 11
753.983985010763
 21
-375.014894088046
 31
0.0
  0
LINE
  5
6F0
330
1F
100
AcDbEntity
  8
STANDARD
  6
STANDARD
 62
     7
100
AcDbLine
 10
696.9839964548548
 20
-393.5148788292569
 30
0.0
 11
741.9839773813684
 21
-393.5148788292569
 31
0.0
  0
LINE
  5
6F1
330
1F
100
AcDbEntity
  8
STANDARD
  6
STANDARD
 62
     7
100
AcDbLine
 10
696.9839964548548
 20
-426.5149093468347
 30
0.0
 11
741.9839773813684
 21
-426.5149093468347
 31
0.0
  0
LINE
  5
6F3
330
1F
100
AcDbEntity
  8
STANDARD
  6
STANDARD
 62
     7
100
AcDbLine
 10
-43.01600354514522
 20
-221.0148788292576
 30
0.0
 11
26.98399645485477
 21
-221.0148788292576
 31
0.0
  0
LINE
  5
6F4
330
1F
100
AcDbEntity
  8
STANDARD
  6
STANDARD
 62
     7
100
AcDbLine
 10
529.9839888254602
 20
-221.0148788292576
 30
0.0
 11
599.9839888254602
 21
-221.0148788292576
 31
0.0
  0
LINE
  5
726
330
1F
100
AcDbEntity
  8
0
100
AcDbLine
 10
1665.343188975781
 20
186.4027581592774
 30
0.0
 11
1665.343188975781
 21
116.4027581592774
 31
0.0
  0
LINE
  5
72E
330
1F
100
AcDbEntity
  8
0
100
AcDbLine
 10
-1325.833783764505
 20
1184.402731174435
 30
0.0
 11
-1325.833783764505
 21
1182.902754062619
 31
0.0
  0
LINE
  5
72F
330
1F
100
AcDbEntity
  8
0
100
AcDbLine
 10
-1292.84163059678
 20
1184.402731174435
 30
0.0
 11
-1292.837396282815
 21
1182.902754062619
 31
0.0
  0
LINE
  5
730
330
1F
100
AcDbEntity
  8
0
100
AcDbLine
 10
1587.351016734569
 20
1184.402750529883
 30
0.0
 11
1587.346782420605
 21
1182.902773418066
 31
0.0
  0
CIRCLE
  5
7D0
330
1F
100
AcDbEntity
  8
STANDARD
100
AcDbCircle
 10
1560.479050068532
 20
939.402757511401
 30
0.0
 40
20.0000069815172
  0
LINE
  5
7D1
330
1F
100
AcDbEntity
  8
STANDARD
100
AcDbLine
 10
1625.966114734142
 20
919.4027505298842
 30
0.0
 11
1627.479052279918
 21
921.4027581592779
 31
0.0
  0
LINE
  5
7D2
330
1F
100
AcDbEntity
  8
STANDARD
100
AcDbLine
 10
1520.4417142615
 20
863.1804929157484
 30
0.0
 11
1524.005083774058
 21
861.3449559589613
 31
0.0
  0
LINE
  5
7D3
330
1F
100
AcDbEntity
  8
STANDARD
100
AcDbLine
 10
1519.950524304835
 20
864.5560346027579
 30
0.0
 11
1546.396965716807
 21
925.2145562549809
 31
0.0
  0
LINE
  5
7D4
330
1F
100
AcDbEntity
  8
STANDARD
100
AcDbLine
 10
1525.29558393809
 20
861.8027387043218
 30
0.0
 11
1551.408872340648
 21
921.6971002002933
 31
0.0
  0
LINE
  5
7D5
330
1F
100
AcDbEntity
  8
STANDARD
100
AcDbLine
 10
1546.146006320445
 20
956.5318665882328
 30
0.0
 11
1552.004856799571
 21
957.3552689930179
 31
0.0
  0
LINE
  5
7D6
330
1F
100
AcDbEntity
  8
STANDARD
100
AcDbLine
 10
1566.889333461253
 20
959.4471536060538
 30
0.0
 11
1569.391746257274
 21
959.7988305469732
 31
0.0
  0
LINE
  5
7D7
330
1F
100
AcDbEntity
  8
STANDARD
100
AcDbLine
 10
1546.740374301402
 20
956.6153893848637
 30
0.0
 11
1547.130274508922
 21
954.153650798438
 31
0.0
  0
LINE
  5
7D8
330
1F
100
AcDbEntity
  8
STANDARD
100
AcDbLine
 10
1524.005083774058
 20
861.3449559589613
 30
0.0
 11
1525.29558393809
 21
861.8027387043218
 31
0.0
  0
LINE
  5
7D9
330
1F
100
AcDbEntity
  8
STANDARD
100
AcDbLine
 10
1519.950524304835
 20
864.5560346027579
 30
0.0
 11
1520.4417142615
 21
863.1804929157484
 31
0.0
  0
LINE
  5
7DA
330
1F
100
AcDbEntity
  8
STANDARD
100
AcDbLine
 10
1625.966114734142
 20
959.4027505298841
 30
0.0
 11
1627.479052279918
 21
957.402761973975
 31
0.0
  0
LINE
  5
7DB
330
1F
100
AcDbEntity
  8
STANDARD
100
AcDbLine
 10
1627.479052279918
 20
921.4027581592779
 30
0.0
 11
1627.479052279918
 21
957.402761973975
 31
0.0
  0
LINE
  5
7DC
330
1F
100
AcDbEntity
  8
STANDARD
100
AcDbLine
 10
1623.479056094615
 20
851.4027581592777
 30
0.0
 11
1623.479056094615
 21
919.4027505298842
 31
0.0
  0
LINE
  5
7DD
330
1F
100
AcDbEntity
  8
STANDARD
100
AcDbLine
 10
1584.479050372569
 20
851.4027581592777
 30
0.0
 11
1584.479050372569
 21
919.4027505298842
 31
0.0
  0
LINE
  5
7DE
330
1F
100
AcDbEntity
  8
STANDARD
100
AcDbLine
 10
1568.529596065013
 20
959.4027505298841
 30
0.0
 11
1568.573136065928
 21
959.6776757618169
 31
0.0
  0
LINE
  5
7DF
330
1F
100
AcDbEntity
  8
STANDARD
100
AcDbLine
 10
1549.931335185496
 20
957.0638642688969
 30
0.0
 11
1550.05676243159
 21
957.0814881702627
 31
0.0
  0
LINE
  5
7E1
330
1F
100
AcDbEntity
  8
STANDARD
100
AcDbLine
 10
1551.772384379832
 20
957.3225961109379
 30
0.0
 11
1552.004856799571
 21
957.3552689930179
 31
0.0
  0
LINE
  5
7E2
330
1F
100
AcDbEntity
  8
STANDARD
100
AcDbLine
 10
1584.479050372569
 20
851.4027581592777
 30
0.0
 11
1623.479056094615
 21
851.4027581592777
 31
0.0
  0
LINE
  5
7E3
330
1F
100
AcDbEntity
  8
STANDARD
100
AcDbLine
 10
1559.924273227183
 20
919.4758019825199
 30
0.0
 11
1625.966114734142
 21
919.4027505298842
 31
0.0
  0
LINE
  5
7E4
330
1F
100
AcDbEntity
  8
STANDARD
100
AcDbLine
 10
1551.993775104014
 20
921.4548287769536
 30
0.0
 11
1552.11601230952
 21
921.4041886707525
 31
0.0
  0
LINE
  5
7E5
330
1F
100
AcDbEntity
  8
STANDARD
100
AcDbLine
 10
1568.158364032237
 20
959.625490703223
 30
0.0
 11
1568.529596065013
 21
959.6776757618169
 31
0.0
  0
LINE
  5
7E6
330
1F
100
AcDbEntity
  8
STANDARD
100
AcDbLine
 10
1570.628394816844
 20
959.9726472278822
 30
0.0
 11
1571.474942897288
 21
960.0916276355961
 31
0.0
  0
LINE
  5
7E7
330
1F
100
AcDbEntity
  8
STANDARD
100
AcDbLine
 10
1569.391746257274
 20
959.7988305469732
 30
0.0
 11
1571.102084849803
 21
960.0392136951674
 31
0.0
  0
LINE
  5
7E8
330
1F
100
AcDbEntity
  8
STANDARD
100
AcDbLine
 10
1559.924273227183
 20
959.3297181507329
 30
0.0
 11
1625.966114734142
 21
959.4027505298841
 31
0.0
  0
LINE
  5
7E9
330
1F
100
AcDbEntity
  8
STANDARD
100
AcDbLine
 10
-45.62387917111879
 20
920.4253752174043
 30
0.0
 11
-45.28273079465395
 21
920.0842268409395
 31
0.0
  0
LINE
  5
7EA
330
1F
100
AcDbEntity
  8
STANDARD
100
AcDbLine
 10
-23.01619026731021
 20
863.1820852698936
 30
0.0
 11
-21.01619217465884
 21
861.3449366035128
 31
0.0
  0
LINE
  5
7EB
330
1F
100
AcDbEntity
  8
STANDARD
100
AcDbLine
 10
-71.01619217465884
 20
953.142755741085
 30
0.0
 11
-70.69074127744205
 21
953.544882053341
 31
0.0
  0
LINE
  5
7EC
330
1F
100
AcDbEntity
  8
STANDARD
100
AcDbLine
 10
-70.69074127744205
 20
925.2605993690156
 30
0.0
 11
-66.32185194562442
 21
922.0822317542687
 31
0.0
  0
LINE
  5
7ED
330
1F
100
AcDbEntity
  8
STANDARD
100
AcDbLine
 10
5.983805917992526
 20
925.2145368995332
 30
0.0
 11
6.959967874779636
 21
924.6022398414279
 31
0.0
  0
LINE
  5
7EE
330
1F
100
AcDbEntity
  8
STANDARD
100
AcDbLine
 10
-50.01619312833316
 20
922.3832495155001
 30
0.0
 11
-49.50492355893619
 21
922.0822317542687
 31
0.0
  0
LINE
  5
7EF
330
1F
100
AcDbEntity
  8
STANDARD
100
AcDbLine
 10
-47.53090355466372
 20
921.454809421505
 30
0.0
 11
-45.62387917111879
 21
920.4253752174043
 31
0.0
  0
LINE
  5
7F0
330
1F
100
AcDbEntity
  8
STANDARD
100
AcDbLine
 10
-66.32185194562442
 20
922.0822317542687
 30
0.0
 11
-64.59527227948672
 21
921.4041693153047
 31
0.0
  0
LINE
  5
7F1
330
1F
100
AcDbEntity
  8
STANDARD
100
AcDbLine
 10
-64.47068188260562
 20
921.4645941199922
 30
0.0
 11
-63.64478085111148
 21
921.1792547645234
 31
0.0
  0
LINE
  5
7F2
330
1F
100
AcDbEntity
  8
STANDARD
100
AcDbLine
 10
-52.91036102841861
 20
923.3031256141329
 30
0.0
 11
-50.01619312833316
 21
922.3832495155001
 31
0.0
  0
LINE
  5
7F3
330
1F
100
AcDbEntity
  8
STANDARD
100
AcDbLine
 10
-49.50492355893619
 20
922.0822317542687
 30
0.0
 11
-47.53090355466372
 21
921.454809421505
 31
0.0
  0
LINE
  5
7F4
330
1F
100
AcDbEntity
  8
STANDARD
100
AcDbLine
 10
-45.28273079465395
 20
920.0842268409395
 30
0.0
 11
-44.42508194516665
 21
919.8116285743379
 31
0.0
  0
LINE
  5
7F5
330
1F
100
AcDbEntity
  8
STANDARD
100
AcDbLine
 10
-63.64478085111148
 20
921.1792547645234
 30
0.0
 11
-63.29128239224917
 21
921.077554935422
 31
0.0
  0
LINE
  5
7F6
330
1F
100
AcDbEntity
  8
STANDARD
100
AcDbLine
 10
-63.29128239224917
 20
921.077554935422
 30
0.0
 11
-62.12140057157046
 21
920.7945234717989
 31
0.0
  0
LINE
  5
7F7
330
1F
100
AcDbEntity
  8
STANDARD
100
AcDbLine
 10
-62.12140057157046
 20
920.7945234717989
 30
0.0
 11
-60.76616022656924
 21
920.5649549903537
 31
0.0
  0
LINE
  5
7F8
330
1F
100
AcDbEntity
  8
STANDARD
100
AcDbLine
 10
-66.14333126615054
 20
956.755274051633
 30
0.0
 11
-65.22178146909244
 21
956.6377432288781
 31
0.0
  0
LINE
  5
7F9
330
1F
100
AcDbEntity
  8
STANDARD
100
AcDbLine
 10
-65.22178146909244
 20
956.6377432288781
 30
0.0
 11
-64.23013184140689
 21
956.5318472327852
 31
0.0
  0
LINE
  5
7FA
330
1F
100
AcDbEntity
  8
STANDARD
100
AcDbLine
 10
-60.76616022656924
 20
920.5649549903537
 30
0.0
 11
-59.26671240399844
 21
920.3958113135948
 31
0.0
  0
LINE
  5
7FB
330
1F
100
AcDbEntity
  8
STANDARD
100
AcDbLine
 10
-56.01619217465884
 20
923.6168844642296
 30
0.0
 11
-52.91036102841861
 21
923.3031256141329
 31
0.0
  0
LINE
  5
7FC
330
1F
100
AcDbEntity
  8
STANDARD
100
AcDbLine
 10
-59.26671240399844
 20
920.3958113135948
 30
0.0
 11
-57.66863081525333
 21
920.2922041358615
 31
0.0
  0
LINE
  5
7FD
330
1F
100
AcDbEntity
  8
STANDARD
100
AcDbLine
 10
-54.37231991361148
 20
920.2922041358615
 30
0.0
 11
-52.77424309323794
 21
920.3958113135948
 31
0.0
  0
LINE
  5
7FE
330
1F
100
AcDbEntity
  8
STANDARD
100
AcDbLine
 10
-47.79387924741274
 20
956.5318472327852
 30
0.0
 11
-46.80222961972719
 21
956.6377432288781
 31
0.0
  0
LINE
  5
7FF
330
1F
100
AcDbEntity
  8
STANDARD
100
AcDbLine
 10
-59.12201139997012
 20
923.3031256141329
 30
0.0
 11
-56.01619217465884
 21
923.6168844642296
 31
0.0
  0
LINE
  5
800
330
1F
100
AcDbEntity
  8
STANDARD
100
AcDbLine
 10
-52.77424309323794
 20
920.3958113135948
 30
0.0
 11
-51.27480003903873
 21
920.5649549903537
 31
0.0
  0
LINE
  5
801
330
1F
100
AcDbEntity
  8
STANDARD
100
AcDbLine
 10
-46.80222961972719
 20
956.6377432288781
 30
0.0
 11
-45.88067028592592
 21
956.755274051633
 31
0.0
  0
LINE
  5
802
330
1F
100
AcDbEntity
  8
STANDARD
100
AcDbLine
 10
-45.88067028592592
 20
956.755274051633
 30
0.0
 11
-45.03622028897768
 21
956.8835432471896
 31
0.0
  0
LINE
  5
803
330
1F
100
AcDbEntity
  8
STANDARD
100
AcDbLine
 10
-51.27480003903873
 20
920.5649549903537
 30
0.0
 11
-49.91955254148013
 21
920.7945234717989
 31
0.0
  0
LINE
  5
804
330
1F
100
AcDbEntity
  8
STANDARD
100
AcDbLine
 10
-45.03622028897768
 20
956.8835432471896
 30
0.0
 11
-44.27531216214663
 21
957.0215399207736
 31
0.0
  0
LINE
  5
805
330
1F
100
AcDbEntity
  8
STANDARD
100
AcDbLine
 10
-44.27531216214663
 20
957.0215399207736
 30
0.0
 11
-43.60371086667544
 21
957.1682722510949
 31
0.0
  0
LINE
  5
806
330
1F
100
AcDbEntity
  8
STANDARD
100
AcDbLine
 10
-49.91955254148013
 20
920.7945234717989
 30
0.0
 11
-48.74968025754458
 21
921.077554935422
 31
0.0
  0
LINE
  5
807
330
1F
100
AcDbEntity
  8
STANDARD
100
AcDbLine
 10
-43.60371086667544
 20
957.1682722510949
 30
0.0
 11
-43.02655193875795
 21
957.3225767554903
 31
0.0
  0
LINE
  5
808
330
1F
100
AcDbEntity
  8
STANDARD
100
AcDbLine
 10
-48.74968025754458
 20
921.077554935422
 30
0.0
 11
-48.39617226193912
 21
921.1792547645234
 31
0.0
  0
LINE
  5
809
330
1F
100
AcDbEntity
  8
STANDARD
100
AcDbLine
 10
-62.01619122098453
 20
922.3832495155001
 30
0.0
 11
-59.12201139997012
 21
923.3031256141329
 31
0.0
  0
LINE
  5
80A
330
1F
100
AcDbEntity
  8
STANDARD
100
AcDbLine
 10
-64.5014712579108
 20
921.454809421505
 30
0.0
 11
-62.52745125363833
 21
922.0822317542687
 31
0.0
  0
LINE
  5
80B
330
1F
100
AcDbEntity
  8
STANDARD
100
AcDbLine
 10
-48.39617226193912
 20
921.1792547645234
 30
0.0
 11
-47.56616089414126
 21
921.4660246314659
 31
0.0
  0
LINE
  5
80C
330
1F
100
AcDbEntity
  8
STANDARD
100
AcDbLine
 10
-62.52745125363833
 20
922.0822317542687
 30
0.0
 11
-62.01619122098453
 21
922.3832495155001
 31
0.0
  0
LINE
  5
80D
330
1F
100
AcDbEntity
  8
STANDARD
100
AcDbLine
 10
-23.01619026731021
 20
924.5872862281457
 30
0.0
 11
-22.02503178189761
 21
925.2089865150109
 31
0.0
  0
LINE
  5
80E
330
1F
100
AcDbEntity
  8
STANDARD
100
AcDbLine
 10
-70.69074127744205
 20
953.544882053341
 30
0.0
 11
-66.32185194562442
 21
956.723249668088
 31
0.0
  0
LINE
  5
80F
330
1F
100
AcDbEntity
  8
STANDARD
100
AcDbLine
 10
-71.01619217465884
 20
925.6627256812706
 30
0.0
 11
-70.69074127744205
 21
925.2605993690156
 31
0.0
  0
LINE
  5
810
330
1F
100
AcDbEntity
  8
STANDARD
100
AcDbLine
 10
4.983811640038425
 20
861.3449366035128
 30
0.0
 11
6.983809732689792
 21
863.1820852698936
 31
0.0
  0
LINE
  5
811
330
1F
100
AcDbEntity
  8
STANDARD
100
AcDbLine
 10
-44.42508194516665
 20
919.8116285743379
 30
0.0
 11
-44.01618931363588
 21
919.4027311744356
 31
0.0
  0
LINE
  5
812
330
1F
100
AcDbEntity
  8
STANDARD
100
AcDbLine
 10
21.98380973268979
 20
919.4027311744356
 30
0.0
 11
21.98380973268979
 21
959.4027311744348
 31
0.0
  0
LINE
  5
813
330
1F
100
AcDbEntity
  8
STANDARD
100
AcDbLine
 10
-27.51619312833315
 20
851.4027388038302
 30
0.0
 11
-27.51619312833315
 21
919.4027311744356
 31
0.0
  0
LINE
  5
814
330
1F
100
AcDbEntity
  8
STANDARD
100
AcDbLine
 10
11.48380782534115
 20
851.4027388038302
 30
0.0
 11
11.48380782534115
 21
919.4027311744356
 31
0.0
  0
LINE
  5
815
330
1F
100
AcDbEntity
  8
STANDARD
100
AcDbLine
 10
6.983809732689792
 20
863.1820852698936
 30
0.0
 11
6.983809732689792
 21
924.5872862281457
 31
0.0
  0
LINE
  5
816
330
1F
100
AcDbEntity
  8
STANDARD
100
AcDbLine
 10
-23.01619026731021
 20
863.1820852698936
 30
0.0
 11
-23.01619026731021
 21
924.5872862281457
 31
0.0
  0
LINE
  5
817
330
1F
100
AcDbEntity
  8
STANDARD
100
AcDbLine
 10
16.98380973268979
 20
919.4027311744356
 30
0.0
 11
16.98380973268979
 21
959.4027311744348
 31
0.0
  0
LINE
  5
818
330
1F
100
AcDbEntity
  8
STANDARD
100
AcDbLine
 10
-38.01619026731021
 20
919.4027311744356
 30
0.0
 11
-38.01619026731021
 21
959.4027311744348
 31
0.0
  0
LINE
  5
819
330
1F
100
AcDbEntity
  8
STANDARD
100
AcDbLine
 10
-43.0161902673102
 20
919.4027311744356
 30
0.0
 11
-43.0161902673102
 21
957.3260672034884
 31
0.0
  0
LINE
  5
81A
330
1F
100
AcDbEntity
  8
STANDARD
100
AcDbLine
 10
-71.01619217465884
 20
925.6627256812706
 30
0.0
 11
-71.01619217465884
 21
953.142755741085
 31
0.0
  0
LINE
  5
81B
330
1F
100
AcDbEntity
  8
STANDARD
100
AcDbLine
 10
-66.32185194562442
 20
956.723249668088
 30
0.0
 11
-66.21325228284366
 21
956.7658979835167
 31
0.0
  0
LINE
  5
81C
330
1F
100
AcDbEntity
  8
STANDARD
100
AcDbLine
 10
-62.06722233365542
 20
956.3580496253633
 30
0.0
 11
-49.9567935235358
 21
956.3580496253633
 31
0.0
  0
LINE
  5
81D
330
1F
100
AcDbEntity
  8
STANDARD
100
AcDbLine
 10
-64.23013184140689
 20
956.5318472327852
 30
0.0
 11
-62.06722233365542
 21
956.3580496253633
 31
0.0
  0
LINE
  5
81E
330
1F
100
AcDbEntity
  8
STANDARD
100
AcDbLine
 10
-49.9567935235358
 20
956.3580496253633
 30
0.0
 11
-47.79387924741274
 21
956.5318472327852
 31
0.0
  0
LINE
  5
81F
330
1F
100
AcDbEntity
  8
STANDARD
100
AcDbLine
 10
-57.66863081525333
 20
920.2922041358615
 30
0.0
 11
-54.37231991361148
 21
920.2922041358615
 31
0.0
  0
LINE
  5
820
330
1F
100
AcDbEntity
  8
STANDARD
100
AcDbLine
 10
-21.01619217465884
 20
861.3449366035128
 30
0.0
 11
4.983811640038425
 21
861.3449366035128
 31
0.0
  0
LINE
  5
821
330
1F
100
AcDbEntity
  8
STANDARD
100
AcDbLine
 10
-27.51619312833315
 20
851.4027388038302
 30
0.0
 11
11.48380782534115
 21
851.4027388038302
 31
0.0
  0
LINE
  5
822
330
1F
100
AcDbEntity
  8
STANDARD
100
AcDbLine
 10
-42.01199982236391
 20
959.4027311744348
 30
0.0
 11
21.98380973268979
 21
959.4027311744348
 31
0.0
  0
LINE
  5
823
330
1F
100
AcDbEntity
  8
STANDARD
100
AcDbLine
 10
-22.01619122098452
 20
925.2145368995332
 30
0.0
 11
5.983805917992526
 21
925.2145368995332
 31
0.0
  0
LINE
  5
824
330
1F
100
AcDbEntity
  8
STANDARD
100
AcDbLine
 10
-44.01618931363588
 20
919.4027311744356
 30
0.0
 11
-23.01619026731021
 21
919.4027311744356
 31
0.0
  0
LINE
  5
825
330
1F
100
AcDbEntity
  8
STANDARD
100
AcDbLine
 10
6.983809732689792
 20
919.4757826270723
 30
0.0
 11
21.98380973268979
 21
919.4027311744356
 31
0.0
  0
CIRCLE
  5
826
330
1F
100
AcDbEntity
  8
STANDARD
100
AcDbCircle
 10
-1265.969642628757
 20
939.4027475547543
 30
0.0
 40
19.9999782333517
  0
LINE
  5
827
330
1F
100
AcDbEntity
  8
STANDARD
100
AcDbLine
 10
-1332.969657797479
 20
957.4027235450412
 30
0.0
 11
-1331.456705946588
 21
959.4027693214083
 31
0.0
  0
LINE
  5
828
330
1F
100
AcDbEntity
  8
STANDARD
100
AcDbLine
 10
-1230.786187071466
 20
861.8027479591036
 30
0.0
 11
-1229.495686907434
 21
861.3449079932832
 31
0.0
  0
LINE
  5
829
330
1F
100
AcDbEntity
  8
STANDARD
100
AcDbLine
 10
-1225.932316202783
 20
863.1804640235568
 30
0.0
 11
-1225.441126246118
 21
864.5560438575412
 31
0.0
  0
LINE
  5
82A
330
1F
100
AcDbEntity
  8
STANDARD
100
AcDbLine
 10
-1251.887567062043
 20
925.2145368995332
 30
0.0
 11
-1225.441126246118
 21
864.5560438575412
 31
0.0
  0
LINE
  5
82B
330
1F
100
AcDbEntity
  8
STANDARD
100
AcDbLine
 10
-1256.899467203878
 20
921.6970808448458
 30
0.0
 11
-1230.786187071466
 21
861.8027479591036
 31
0.0
  0
LINE
  5
82C
330
1F
100
AcDbEntity
  8
STANDARD
100
AcDbLine
 10
-1229.495686907434
 20
861.3449079932832
 30
0.0
 11
-1225.932316202783
 21
863.1804640235568
 31
0.0
  0
LINE
  5
82D
330
1F
100
AcDbEntity
  8
STANDARD
100
AcDbLine
 10
-1332.969657797479
 20
921.4027388038301
 30
0.0
 11
-1331.456705946588
 21
919.4027693214083
 31
0.0
  0
LINE
  5
82E
330
1F
100
AcDbEntity
  8
STANDARD
100
AcDbLine
 10
-1332.969657797479
 20
921.4027388038301
 30
0.0
 11
-1332.969657797479
 21
957.4027235450412
 31
0.0
  0
LINE
  5
82F
330
1F
100
AcDbEntity
  8
STANDARD
100
AcDbLine
 10
-1328.969656843804
 20
851.4027388038302
 30
0.0
 11
-1328.969656843804
 21
919.4027693214083
 31
0.0
  0
LINE
  5
830
330
1F
100
AcDbEntity
  8
STANDARD
100
AcDbLine
 10
-1289.969658274316
 20
851.4027388038302
 30
0.0
 11
-1289.969658274316
 21
919.4027693214083
 31
0.0
  0
LINE
  5
831
330
1F
100
AcDbEntity
  8
STANDARD
100
AcDbLine
 10
-1257.606617231034
 20
921.4041883887912
 30
0.0
 11
-1257.606617231034
 21
957.4012739600801
 31
0.0
  0
LINE
  5
832
330
1F
100
AcDbEntity
  8
STANDARD
100
AcDbLine
 10
-1274.332687277459
 20
921.4041883887912
 30
0.0
 11
-1274.332687277459
 21
957.4012739600801
 31
0.0
  0
LINE
  5
833
330
1F
100
AcDbEntity
  8
STANDARD
100
AcDbLine
 10
-1280.420348066949
 20
925.6626875342989
 30
0.0
 11
-1280.420348066949
 21
953.1427748145723
 31
0.0
  0
LINE
  5
834
330
1F
100
AcDbEntity
  8
STANDARD
100
AcDbLine
 10
-1309.469658751153
 20
921.4027388038301
 30
0.0
 11
-1309.469658751153
 21
957.4027235450412
 31
0.0
  0
LINE
  5
835
330
1F
100
AcDbEntity
  8
STANDARD
100
AcDbLine
 10
-1251.518967170381
 20
925.6626875342989
 30
0.0
 11
-1251.518967170381
 21
953.1427748145723
 31
0.0
  0
LINE
  5
836
330
1F
100
AcDbEntity
  8
STANDARD
100
AcDbLine
 10
-1328.969656843804
 20
851.4027388038302
 30
0.0
 11
-1289.969658274316
 21
851.4027388038302
 31
0.0
  0
LINE
  5
837
330
1F
100
AcDbEntity
  8
STANDARD
100
AcDbLine
 10
-1331.456705946588
 20
959.4027693214083
 30
0.0
 11
-1265.414876956605
 21
959.3296797217989
 31
0.0
  0
LINE
  5
838
330
1F
100
AcDbEntity
  8
STANDARD
100
AcDbLine
 10
-1331.456705946588
 20
919.4027693214083
 30
0.0
 11
-1265.414876956605
 21
919.4757826270723
 31
0.0
  0
LINE
  5
839
330
1F
100
AcDbEntity
  8
STANDARD
100
AcDbLine
 10
-1274.454937595987
 20
957.3506910743379
 30
0.0
 11
-1274.332687277459
 21
957.4012739600801
 31
0.0
  0
LINE
  5
83A
330
1F
100
AcDbEntity
  8
STANDARD
100
AcDbLine
 10
-1257.606617231034
 20
957.4012739600801
 30
0.0
 11
-1257.48436721053
 21
957.3506910743379
 31
0.0
  0
LINE
  5
83B
330
1F
100
AcDbEntity
  8
STANDARD
100
AcDbLine
 10
-1274.454937595987
 20
921.4547712745332
 30
0.0
 11
-1274.332687277459
 21
921.4041883887912
 31
0.0
  0
LINE
  5
83C
330
1F
100
AcDbEntity
  8
STANDARD
100
AcDbLine
 10
-1257.606617231034
 20
921.4041883887912
 30
0.0
 11
-1257.48436721053
 21
921.4547712745332
 31
0.0
  0
LINE
  5
83D
330
1F
100
AcDbEntity
  8
STANDARD
100
AcDbLine
 10
-43.0161902673102
 20
957.3260672034884
 30
0.0
 11
-42.01199982236391
 21
959.4027311744348
 31
0.0
  0
ARC
  5
83E
330
1F
100
AcDbEntity
  8
STANDARD
100
AcDbCircle
 10
2.831964710836587
 20
-313.3076535953004
 30
0.0
 40
5.000000000001613
100
AcDbArc
 50
102.4416349365663
 51
137.5583650634381
  0
ARC
  5
83F
330
1F
100
AcDbEntity
  8
STANDARD
100
AcDbCircle
 10
-8.018035289164686
 20
-294.5149023331757
 30
0.0
 40
17.00000000000053
100
AcDbArc
 50
245.0904672353601
 51
294.9095327646368
  0
ARC
  5
840
330
1F
100
AcDbEntity
  8
STANDARD
100
AcDbCircle
 10
-18.86803528916414
 20
-313.3076535952988
 30
0.0
 40
4.999999999999737
100
AcDbArc
 50
42.44163493656407
 51
77.55836506344
  0
ARC
  5
841
330
1F
100
AcDbEntity
  8
STANDARD
100
AcDbCircle
 10
-56.01797715403211
 20
-338.0148947370353
 30
0.0
 40
12.00003247305865
100
AcDbArc
 50
224.9998294836877
 51
135.0001705163121
  0
LINE
  5
842
330
1F
100
AcDbEntity
  8
STANDARD
100
AcDbLine
 10
-71.01804673325649
 20
-323.5642302167716
 30
0.0
 11
-64.59711014878383
 21
-329.6518767011466
 31
0.0
  0
LINE
  5
843
330
1F
100
AcDbEntity
  8
STANDARD
100
AcDbLine
 10
-23.01801621567836
 20
-377.2512877118888
 30
0.0
 11
-22.01803147446742
 21
-377.976804984838
 31
0.0
  0
LINE
  5
844
330
1F
100
AcDbEntity
  8
STANDARD
100
AcDbLine
 10
-22.01803147446742
 20
-377.976804984838
 30
0.0
 11
-20.60319840561976
 21
-378.5434401166739
 31
0.0
  0
LINE
  5
845
330
1F
100
AcDbEntity
  8
STANDARD
100
AcDbLine
 10
14.49308455336461
 20
-332.8385222089591
 30
0.0
 11
15.48196852553258
 21
-329.6553480756583
 31
0.0
  0
LINE
  5
846
330
1F
100
AcDbEntity
  8
STANDARD
100
AcDbLine
 10
13.98197234022984
 20
-338.0149138105216
 30
0.0
 11
14.49308455336461
 21
-332.8385222089591
 31
0.0
  0
LINE
  5
847
330
1F
100
AcDbEntity
  8
STANDARD
100
AcDbLine
 10
-30.52915513169398
 20
-332.8385222089591
 30
0.0
 11
-30.01802384507289
 21
-338.0149138105216
 31
0.0
  0
LINE
  5
848
330
1F
100
AcDbEntity
  8
STANDARD
100
AcDbLine
 10
-31.51803910386195
 20
-329.6553480756583
 30
0.0
 11
-30.52915513169398
 21
-332.8385222089591
 31
0.0
  0
LINE
  5
849
330
1F
100
AcDbEntity
  8
STANDARD
100
AcDbLine
 10
4.567165974263048
 20
-378.5434401166739
 30
0.0
 11
5.981960896138048
 21
-377.976804984838
 31
0.0
  0
LINE
  5
84A
330
1F
100
AcDbEntity
  8
STANDARD
100
AcDbLine
 10
5.981960896138048
 20
-377.976804984838
 30
0.0
 11
6.981983784321641
 21
-377.2512877118888
 31
0.0
  0
LINE
  5
84B
330
1F
100
AcDbEntity
  8
STANDARD
100
AcDbLine
 10
-71.01804673325649
 20
-352.4655974042716
 30
0.0
 11
-64.59711014878383
 21
-346.3779509198966
 31
0.0
  0
LINE
  5
84C
330
1F
100
AcDbEntity
  8
STANDARD
100
AcDbLine
 10
-64.59711014878383
 20
-346.5001738202872
 30
0.0
 11
-64.50330674302211
 21
-346.3779509198966
 31
0.0
  0
LINE
  5
84D
330
1F
100
AcDbEntity
  8
STANDARD
100
AcDbLine
 10
-64.59711014878383
 20
-329.6518767011466
 30
0.0
 11
-64.50330674302211
 21
-329.5296156537833
 31
0.0
  0
LINE
  5
84E
330
1F
100
AcDbEntity
  8
STANDARD
100
AcDbLine
 10
-71.01804673325649
 20
-358.0149138105216
 30
0.0
 11
-71.01804673325649
 21
-352.4655974042716
 31
0.0
  0
LINE
  5
84F
330
1F
100
AcDbEntity
  8
STANDARD
100
AcDbLine
 10
-71.01804673325649
 20
-323.5642302167716
 30
0.0
 11
-71.01804673325649
 21
-318.0149138105216
 31
0.0
  0
LINE
  5
850
330
1F
100
AcDbEntity
  8
STANDARD
100
AcDbLine
 10
-38.01801621567836
 20
-358.0149138105216
 30
0.0
 11
-38.01801621567836
 21
-318.0149138105216
 31
0.0
  0
LINE
  5
851
330
1F
100
AcDbEntity
  8
STANDARD
100
AcDbLine
 10
-43.01801621567835
 20
-358.0149138105216
 30
0.0
 11
-43.01801621567835
 21
-318.0149138105216
 31
0.0
  0
LINE
  5
852
330
1F
100
AcDbEntity
  8
STANDARD
100
AcDbLine
 10
6.981983784321641
 20
-377.2512877118888
 30
0.0
 11
6.981983784321641
 21
-358.0149138105216
 31
0.0
  0
LINE
  5
853
330
1F
100
AcDbEntity
  8
STANDARD
100
AcDbLine
 10
-23.01801621567836
 20
-377.2512877118888
 30
0.0
 11
-23.01801621567836
 21
-358.0149138105216
 31
0.0
  0
LINE
  5
854
330
1F
100
AcDbEntity
  8
STANDARD
100
AcDbLine
 10
21.98196471083531
 20
-358.0149138105216
 30
0.0
 11
21.98196471083531
 21
-318.0149138105216
 31
0.0
  0
LINE
  5
855
330
1F
100
AcDbEntity
  8
STANDARD
100
AcDbLine
 10
16.98196471083531
 20
-358.0149138105216
 30
0.0
 11
16.98196471083531
 21
-318.0149138105216
 31
0.0
  0
LINE
  5
856
330
1F
100
AcDbEntity
  8
STANDARD
100
AcDbLine
 10
-20.60319840561976
 20
-378.5434401166739
 30
0.0
 11
4.567165974263048
 21
-378.5434401166739
 31
0.0
  0
LINE
  5
857
330
1F
100
AcDbEntity
  8
STANDARD
100
AcDbLine
 10
-71.01804673325649
 20
-318.0149138105216
 30
0.0
 11
-31.51803910386195
 21
-318.0149138105216
 31
0.0
  0
LINE
  5
858
330
1F
100
AcDbEntity
  8
STANDARD
100
AcDbLine
 10
15.48196852553258
 20
-318.0149138105216
 30
0.0
 11
21.98196471083531
 21
-318.0149138105216
 31
0.0
  0
LINE
  5
859
330
1F
100
AcDbEntity
  8
STANDARD
100
AcDbLine
 10
-71.01804673325649
 20
-358.0149138105216
 30
0.0
 11
21.98196471083531
 21
-358.0149138105216
 31
0.0
  0
LINE
  5
85A
330
1F
100
AcDbEntity
  8
STANDARD
100
AcDbLine
 10
-30.07280289780726
 20
-338.5696852338615
 30
0.0
 11
14.03675139296422
 21
-338.5696852338615
 31
0.0
  0
ARC
  5
85B
330
1F
100
AcDbEntity
  8
STANDARD
100
AcDbCircle
 10
-8.018035289164686
 20
-294.5149023331757
 30
0.0
 40
17.00000000000041
100
AcDbArc
 50
305.0904672353624
 51
354.9095327646367
  0
ARC
  5
85C
330
1F
100
AcDbEntity
  8
STANDARD
100
AcDbCircle
 10
-8.018035289163776
 20
-294.5149023331767
 30
0.0
 40
17.00000000000028
100
AcDbArc
 50
185.0904672353564
 51
234.9095327646374
  0
ARC
  5
85D
330
1F
100
AcDbEntity
  8
STANDARD
100
AcDbCircle
 10
-8.018035289164686
 20
-294.5149023331769
 30
0.0
 40
16.5
100
AcDbArc
 50
180.0
 51
0.0
  0
ARC
  5
85E
330
1F
100
AcDbEntity
  8
STANDARD
100
AcDbCircle
 10
-8.018035289164686
 20
-294.5149023331769
 30
0.0
 40
16.50000698550667
100
AcDbArc
 50
179.9472776769868
 51
0.052722322850275
  0
LINE
  5
85F
330
1F
100
AcDbEntity
  8
STANDARD
100
AcDbLine
 10
15.48196852553258
 20
-329.6553480756583
 30
0.0
 11
15.48196852553258
 21
-294.5149290693107
 31
0.0
  0
LINE
  5
860
330
1F
100
AcDbEntity
  8
STANDARD
100
AcDbLine
 10
-31.51803910386195
 20
-329.6553480756583
 30
0.0
 11
-31.51803910386195
 21
-294.5149290693107
 31
0.0
  0
LINE
  5
861
330
1F
100
AcDbEntity
  8
STANDARD
100
AcDbLine
 10
13.99465620863804
 20
-338.5696852338615
 30
0.0
 11
13.98197234022984
 21
-294.6132338178458
 31
0.0
  0
LINE
  5
862
330
1F
100
AcDbEntity
  8
STANDARD
100
AcDbLine
 10
-30.07280289780726
 20
-338.5696852338615
 30
0.0
 11
-30.01802384507289
 21
-294.6132338178458
 31
0.0
  0
ARC
  5
863
330
1F
100
AcDbEntity
  8
STANDARD
100
AcDbCircle
 10
-8.01803528916514
 20
-294.5149023331761
 30
0.0
 40
17.00000000000025
100
AcDbArc
 50
5.090467235356504
 51
13.93055456235651
  0
ARC
  5
864
330
1F
100
AcDbEntity
  8
STANDARD
100
AcDbCircle
 10
13.68196471083558
 20
-294.5149023331761
 30
0.0
 40
5.000000000000049
100
AcDbArc
 50
162.441634936565
 51
197.5583650634349
  0
ARC
  5
865
330
1F
100
AcDbEntity
  8
STANDARD
100
AcDbCircle
 10
-29.71803528916495
 20
-294.5149023331769
 30
0.0
 40
5.000000000000047
100
AcDbArc
 50
342.4416349365579
 51
17.55836506343497
  0
ARC
  5
866
330
1F
100
AcDbEntity
  8
STANDARD
100
AcDbCircle
 10
-8.018035289164686
 20
-294.5149023331765
 30
0.0
 40
17.00000000000011
100
AcDbArc
 50
166.0694454376363
 51
174.9095327646367
  0
ARC
  5
867
330
1F
100
AcDbEntity
  8
STANDARD
100
AcDbCircle
 10
-7.982453174260967
 20
-294.5504921107281
 30
0.0
 40
22.03565999261564
100
AcDbArc
 50
138.6251289226951
 51
180.1631373816684
  0
ARC
  5
868
330
1F
100
AcDbEntity
  8
STANDARD
100
AcDbCircle
 10
-8.018004026837274
 20
-294.5149412581522
 30
0.0
 40
23.50003507702811
100
AcDbArc
 50
134.59797937601
 51
179.9999702822063
  0
ARC
  5
869
330
1F
100
AcDbEntity
  8
STANDARD
100
AcDbCircle
 10
-8.018004414169467
 20
-294.5149053831814
 30
0.0
 40
23.49997293971384
100
AcDbArc
 50
359.9999422503472
 51
45.40208400023134
  0
ARC
  5
86A
330
1F
100
AcDbEntity
  8
STANDARD
100
AcDbCircle
 10
-8.096704712338464
 20
-294.5752919238045
 30
0.0
 40
22.07870965384735
100
AcDbArc
 50
359.9015381107227
 51
41.33251921226106
  0
ENDSEC
  0
SECTION
  2
OBJECTS
  0
DICTIONARY
  5
C
330
0
100
AcDbDictionary
  3
ACAD_COLOR
350
6B
  3
ACAD_GROUP
350
D
  3
ACAD_LAYOUT
350
1A
  3
ACAD_MATERIAL
350
6A
  3
ACAD_MLINESTYLE
350
17
  3
ACAD_PLOTSETTINGS
350
19
  3
ACAD_PLOTSTYLENAME
350
E
  3
ACDBVARIABLEDICTIONARY
350
5E
  3
DWGPROPS
350
88B
  3
ACDBHEADERROUNDTRIPXREC
350
89A
  0
DICTIONARY
  5
8BB
330
1F
100
AcDbDictionary
280
     1
  3
ACAD_LAYOUTSELFREF
360
8BC
  0
DICTIONARY
  5
8BD
330
50
100
AcDbDictionary
280
     1
  3
ACAD_LAYOUTSELFREF
360
8BE
  0
DICTIONARY
  5
6B
102
{ACAD_REACTORS
330
C
102
}
330
C
100
AcDbDictionary
  0
DICTIONARY
  5
D
102
{ACAD_REACTORS
330
C
102
}
330
C
100
AcDbDictionary
  0
DICTIONARY
  5
1A
102
{ACAD_REACTORS
330
C
102
}
330
C
100
AcDbDictionary
  0
DICTIONARY
  5
6A
102
{ACAD_REACTORS
330
C
102
}
330
C
100
AcDbDictionary
  0
DICTIONARY
  5
17
102
{ACAD_REACTORS
330
C
102
}
330
C
100
AcDbDictionary
  3
STANDARD
350
18
  0
DICTIONARY
  5
19
102
{ACAD_REACTORS
330
C
102
}
330
C
100
AcDbDictionary
  0
ACDBDICTIONARYWDFLT
  5
E
102
{ACAD_REACTORS
330
C
102
}
330
C
100
AcDbDictionary
281
     1
  3
Normal
350
F
100
AcDbDictionaryWithDefault
340
F
  0
DICTIONARY
  5
5E
102
{ACAD_REACTORS
330
C
102
}
330
C
100
AcDbDictionary
  3
DIMASSOC
350
5F
  3
HIDETEXT
350
63
  3
PROJECTNAME
350
895
  0
XRECORD
  5
88B
102
{ACAD_REACTORS
330
C
102
}
330
C
100
AcDbXrecord
  1
DWGPROPS COOKIE
  2

  3

  4

  6

  7

  8

  9

300
=
301
=
302
=
303
=
304
=
305
=
306
=
307
=
308
=
309
=
 40
0.0128796296296296
 41
2453586.352102685
 42
2453615.634806504
  1

 90
        0
  0
DICTIONARY
  5
89A
102
{ACAD_REACTORS
330
C
102
}
330
C
100
AcDbDictionary
  3
TSTACKALIGN
350
89B
  3
TSTACKSIZE
350
89C
  3
HYPERLINKBASE
350
89D
  3
STYLESHEET
350
89E
  3
LAYOUTDICT
350
89F
  3
PLOTSETDICT
350
8A0
  3
PLOTSTYLNAMDICT
350
8A1
  3
LWETCUNION
350
8A2
  3
INSUNITS
350
8A3
  3
CEPSNTYPE
350
8A4
  3
FINGERPRINTGUID
350
8A5
  3
VERSIONGUID
350
8A6
  3
PSVPSCALE
350
8A7
  3
DIMSTYLEDATA
350
8A8
  3
PUCSORTHOREF
350
8A9
  3
PUCSORTHOVIEW
350
8AA
  3
PUCSBASE
350
8AB
  3
PUCSORGTOP
350
8AC
  3
PUCSORGBOTTOM
350
8AD
  3
PUCSORGLEFT
350
8AE
  3
PUCSORGRIGHT
350
8AF
  3
PUCSORGFRONT
350
8B0
  3
PUCSORGBACK
350
8B1
  3
UCSORTHOREF
350
8B2
  3
UCSORTHOVIEW
350
8B3
  3
UCSBASE
350
8B4
  3
UCSORGTOP
350
8B5
  3
UCSORGBOTTOM
350
8B6
  3
UCSORGLEFT
350
8B7
  3
UCSORGRIGHT
350
8B8
  3
UCSORGFRONT
350
8B9
  3
UCSORGBACK
350
8BA
  0
XRECORD
  5
8BC
102
{ACAD_REACTORS
330
8BB
102
}
330
8BB
100
AcDbXrecord
340
1F
  0
XRECORD
  5
8BE
102
{ACAD_REACTORS
330
8BD
102
}
330
8BD
100
AcDbXrecord
340
50
  0
MLINESTYLE
  5
18
102
{ACAD_REACTORS
330
17
102
}
330
17
100
AcDbMlineStyle
  2
STANDARD
 70
     0
  3

 62
   256
 51
90.0
 52
90.0
 71
     2
 49
0.5
 62
   256
  6
BYLAYER
 49
-0.5
 62
   256
  6
BYLAYER
  0
ACDBPLACEHOLDER
  5
F
102
{ACAD_REACTORS
330
E
102
}
330
E
100
AcDbPlaceHolder
280
     0
  0
DICTIONARYVAR
  5
5F
102
{ACAD_REACTORS
330
5E
102
}
330
5E
100
DictionaryVariables
280
     0
  1
2
  0
DICTIONARYVAR
  5
63
102
{ACAD_REACTORS
330
5E
102
}
330
5E
100
DictionaryVariables
280
     0
  1
1
  0
DICTIONARYVAR
  5
895
102
{ACAD_REACTORS
330
5E
102
}
330
5E
100
DictionaryVariables
280
     0
  1

  0
XRECORD
  5
89B
102
{ACAD_REACTORS
330
89A
102
}
330
89A
100
AcDbXrecord
 90
        1
  0
XRECORD
  5
89C
102
{ACAD_REACTORS
330
89A
102
}
330
89A
100
AcDbXrecord
 90
       70
  0
XRECORD
  5
89D
102
{ACAD_REACTORS
330
89A
102
}
330
89A
100
AcDbXrecord
  1

  0
XRECORD
  5
89E
102
{ACAD_REACTORS
330
89A
102
}
330
89A
100
AcDbXrecord
  1

  0
XRECORD
  5
89F
102
{ACAD_REACTORS
330
89A
102
}
330
89A
100
AcDbXrecord
340
1A
  0
XRECORD
  5
8A0
102
{ACAD_REACTORS
330
89A
102
}
330
89A
100
AcDbXrecord
340
19
  0
XRECORD
  5
8A1
102
{ACAD_REACTORS
330
89A
102
}
330
89A
100
AcDbXrecord
340
E
  0
XRECORD
  5
8A2
102
{ACAD_REACTORS
330
89A
102
}
330
89A
100
AcDbXrecord
 90
    10781
  0
XRECORD
  5
8A3
102
{ACAD_REACTORS
330
89A
102
}
330
89A
100
AcDbXrecord
 90
        4
  0
XRECORD
  5
8A4
102
{ACAD_REACTORS
330
89A
102
}
330
89A
100
AcDbXrecord
 90
        0
  0
XRECORD
  5
8A5
102
{ACAD_REACTORS
330
89A
102
}
330
89A
100
AcDbXrecord
  1
{FDEAD578-A652-11D2-9A35-0060089B3A3F}
  0
XRECORD
  5
8A6
102
{ACAD_REACTORS
330
89A
102
}
330
89A
100
AcDbXrecord
  1
{3D540ED3-A42D-4268-A432-E93EAD7E5276}
  0
XRECORD
  5
8A7
102
{ACAD_REACTORS
330
89A
102
}
330
89A
100
AcDbXrecord
 40
0.0
  0
XRECORD
  5
8A8
102
{ACAD_REACTORS
330
89A
102
}
330
89A
100
AcDbXrecord
1000
DSTYLE
1002
{
1070
   278
 70
    44
1002
}
  0
XRECORD
  5
8A9
102
{ACAD_REACTORS
330
89A
102
}
330
89A
100
AcDbXrecord
340
0
  0
XRECORD
  5
8AA
102
{ACAD_REACTORS
330
89A
102
}
330
89A
100
AcDbXrecord
 70
     0
  0
XRECORD
  5
8AB
102
{ACAD_REACTORS
330
89A
102
}
330
89A
100
AcDbXrecord
340
0
  0
XRECORD
  5
8AC
102
{ACAD_REACTORS
330
89A
102
}
330
89A
100
AcDbXrecord
 10
0.0
 20
0.0
 30
0.0
  0
XRECORD
  5
8AD
102
{ACAD_REACTORS
330
89A
102
}
330
89A
100
AcDbXrecord
 10
0.0
 20
0.0
 30
0.0
  0
XRECORD
  5
8AE
102
{ACAD_REACTORS
330
89A
102
}
330
89A
100
AcDbXrecord
 10
0.0
 20
0.0
 30
0.0
  0
XRECORD
  5
8AF
102
{ACAD_REACTORS
330
89A
102
}
330
89A
100
AcDbXrecord
 10
0.0
 20
0.0
 30
0.0
  0
XRECORD
  5
8B0
102
{ACAD_REACTORS
330
89A
102
}
330
89A
100
AcDbXrecord
 10
0.0
 20
0.0
 30
0.0
  0
XRECORD
  5
8B1
102
{ACAD_REACTORS
330
89A
102
}
330
89A
100
AcDbXrecord
 10
0.0
 20
0.0
 30
0.0
  0
XRECORD
  5
8B2
102
{ACAD_REACTORS
330
89A
102
}
330
89A
100
AcDbXrecord
340
0
  0
XRECORD
  5
8B3
102
{ACAD_REACTORS
330
89A
102
}
330
89A
100
AcDbXrecord
 70
     0
  0
XRECORD
  5
8B4
102
{ACAD_REACTORS
330
89A
102
}
330
89A
100
AcDbXrecord
340
0
  0
XRECORD
  5
8B5
102
{ACAD_REACTORS
330
89A
102
}
330
89A
100
AcDbXrecord
 10
0.0
 20
0.0
 30
0.0
  0
XRECORD
  5
8B6
102
{ACAD_REACTORS
330
89A
102
}
330
89A
100
AcDbXrecord
 10
0.0
 20
0.0
 30
0.0
  0
XRECORD
  5
8B7
102
{ACAD_REACTORS
330
89A
102
}
330
89A
100
AcDbXrecord
 10
0.0
 20
0.0
 30
0.0
  0
XRECORD
  5
8B8
102
{ACAD_REACTORS
330
89A
102
}
330
89A
100
AcDbXrecord
 10
0.0
 20
0.0
 30
0.0
  0
XRECORD
  5
8B9
102
{ACAD_REACTORS
330
89A
102
}
330
89A
100
AcDbXrecord
 10
0.0
 20
0.0
 30
0.0
  0
XRECORD
  5
8BA
102
{ACAD_REACTORS
330
89A
102
}
330
89A
100
AcDbXrecord
 10
0.0
 20
0.0
 30
0.0
  0
ENDSEC
  0
EOF
