  0
SECTION
  2
HEADER
  9
$ACADVER
  1
AC1014
  9
$ACADMAINTVER
 70
     9
  9
$DWGCODEPAGE
  3
ANSI_1252
  9
$INSBASE
 10
0.0
 20
0.0
 30
0.0
  9
$EXTMIN
 10
303.6438875238551
 20
1764.872393637798
 30
-0.0000000100000077
  9
$EXTMAX
 10
4352.946692935115
 20
3957.467618895516
 30
0.0000000100000289
  9
$LIMMIN
 10
0.0
 20
0.0
  9
$LIMMAX
 10
420.0
 20
297.0
  9
$ORTHOMODE
 70
     1
  9
$REGENMODE
 70
     1
  9
$FILLMODE
 70
     1
  9
$QTEXTMODE
 70
     0
  9
$MIRRTEXT
 70
     0
  9
$DRAGMODE
 70
     2
  9
$LTSCALE
 40
1.0
  9
$OSMODE
 70
  2543
  9
$ATTMODE
 70
     1
  9
$TEXTSIZE
 40
2.5
  9
$TRACEWID
 40
1.0
  9
$TEXTSTYLE
  7
STANDARD
  9
$CLAYER
  8
0
  9
$CELTYPE
  6
BYLAYER
  9
$CECOLOR
 62
   256
  9
$CELTSCALE
 40
1.0
  9
$DELOBJ
 70
     1
  9
$DISPSILH
 70
     0
  9
$DIMSCALE
 40
1.0
  9
$DIMASZ
 40
2.5
  9
$DIMEXO
 40
0.625
  9
$DIMDLI
 40
3.75
  9
$DIMRND
 40
0.0
  9
$DIMDLE
 40
0.0
  9
$DIMEXE
 40
1.25
  9
$DIMTP
 40
0.0
  9
$DIMTM
 40
0.0
  9
$DIMTXT
 40
2.5
  9
$DIMCEN
 40
2.5
  9
$DIMTSZ
 40
0.0
  9
$DIMTOL
 70
     0
  9
$DIMLIM
 70
     0
  9
$DIMTIH
 70
     0
  9
$DIMTOH
 70
     0
  9
$DIMSE1
 70
     0
  9
$DIMSE2
 70
     0
  9
$DIMTAD
 70
     1
  9
$DIMZIN
 70
     8
  9
$DIMBLK
  1

  9
$DIMASO
 70
     1
  9
$DIMSHO
 70
     1
  9
$DIMPOST
  1

  9
$DIMAPOST
  1

  9
$DIMALT
 70
     0
  9
$DIMALTD
 70
     3
  9
$DIMALTF
 40
0.03937007874016
  9
$DIMLFAC
 40
1.0
  9
$DIMTOFL
 70
     1
  9
$DIMTVP
 40
0.0
  9
$DIMTIX
 70
     0
  9
$DIMSOXD
 70
     0
  9
$DIMSAH
 70
     0
  9
$DIMBLK1
  1

  9
$DIMBLK2
  1

  9
$DIMSTYLE
  2
ISO-25
  9
$DIMCLRD
 70
     0
  9
$DIMCLRE
 70
     0
  9
$DIMCLRT
 70
     0
  9
$DIMTFAC
 40
1.0
  9
$DIMGAP
 40
0.625
  9
$DIMJUST
 70
     0
  9
$DIMSD1
 70
     0
  9
$DIMSD2
 70
     0
  9
$DIMTOLJ
 70
     0
  9
$DIMTZIN
 70
     8
  9
$DIMALTZ
 70
     0
  9
$DIMALTTZ
 70
     0
  9
$DIMFIT
 70
     3
  9
$DIMUPT
 70
     0
  9
$DIMUNIT
 70
     2
  9
$DIMDEC
 70
     2
  9
$DIMTDEC
 70
     2
  9
$DIMALTU
 70
     2
  9
$DIMALTTD
 70
     3
  9
$DIMTXSTY
  7
STANDARD
  9
$DIMAUNIT
 70
     0
  9
$LUNITS
 70
     2
  9
$LUPREC
 70
     4
  9
$SKETCHINC
 40
1.0
  9
$FILLETRAD
 40
10.0
  9
$AUNITS
 70
     0
  9
$AUPREC
 70
     0
  9
$MENU
  1
.
  9
$ELEVATION
 40
0.0
  9
$PELEVATION
 40
0.0
  9
$THICKNESS
 40
0.0
  9
$LIMCHECK
 70
     0
  9
$BLIPMODE
 70
     0
  9
$CHAMFERA
 40
10.0
  9
$CHAMFERB
 40
10.0
  9
$CHAMFERC
 40
20.0
  9
$CHAMFERD
 40
0.0
  9
$SKPOLY
 70
     0
  9
$TDCREATE
 40
2453445.475203611
  9
$TDUPDATE
 40
2453686.586112708
  9
$TDINDWG
 40
0.0056420486
  9
$TDUSRTIMER
 40
0.0056418171
  9
$USRTIMER
 70
     1
  9
$ANGBASE
 50
0.0
  9
$ANGDIR
 70
     0
  9
$PDMODE
 70
     0
  9
$PDSIZE
 40
0.0
  9
$PLINEWID
 40
0.0
  9
$COORDS
 70
     1
  9
$SPLFRAME
 70
     0
  9
$SPLINETYPE
 70
     6
  9
$SPLINESEGS
 70
     8
  9
$ATTDIA
 70
     0
  9
$ATTREQ
 70
     1
  9
$HANDLING
 70
 10241
  9
$HANDSEED
  5
8E0
  9
$SURFTAB1
 70
     6
  9
$SURFTAB2
 70
     6
  9
$SURFTYPE
 70
     6
  9
$SURFU
 70
     6
  9
$SURFV
 70
     6
  9
$UCSNAME
  2

  9
$UCSORG
 10
0.0
 20
0.0
 30
0.0
  9
$UCSXDIR
 10
1.0
 20
0.0
 30
0.0
  9
$UCSYDIR
 10
0.0
 20
1.0
 30
0.0
  9
$PUCSNAME
  2

  9
$PUCSORG
 10
0.0
 20
0.0
 30
0.0
  9
$PUCSXDIR
 10
1.0
 20
0.0
 30
0.0
  9
$PUCSYDIR
 10
0.0
 20
1.0
 30
0.0
  9
$USERI1
 70
     0
  9
$USERI2
 70
     0
  9
$USERI3
 70
     0
  9
$USERI4
 70
     0
  9
$USERI5
 70
     0
  9
$USERR1
 40
0.0
  9
$USERR2
 40
0.0
  9
$USERR3
 40
0.0
  9
$USERR4
 40
0.0
  9
$USERR5
 40
0.0
  9
$WORLDVIEW
 70
     1
  9
$SHADEDGE
 70
     3
  9
$SHADEDIF
 70
    70
  9
$TILEMODE
 70
     1
  9
$MAXACTVP
 70
    64
  9
$PINSBASE
 10
0.0
 20
0.0
 30
0.0
  9
$PLIMCHECK
 70
     0
  9
$PEXTMIN
 10
0.0
 20
0.0
 30
0.0
  9
$PEXTMAX
 10
0.0
 20
0.0
 30
0.0
  9
$PLIMMIN
 10
0.0
 20
0.0
  9
$PLIMMAX
 10
12.0
 20
9.0
  9
$UNITMODE
 70
     0
  9
$VISRETAIN
 70
     1
  9
$PLINEGEN
 70
     0
  9
$PSLTSCALE
 70
     1
  9
$TREEDEPTH
 70
  3020
  9
$PICKSTYLE
 70
     1
  9
$CMLSTYLE
  2
STANDARD
  9
$CMLJUST
 70
     0
  9
$CMLSCALE
 40
20.0
  9
$PROXYGRAPHICS
 70
     1
  9
$MEASUREMENT
 70
     1
  0
ENDSEC
  0
SECTION
  2
CLASSES
  0
CLASS
  1
ACDBDICTIONARYWDFLT
  2
AcDbDictionaryWithDefault
  3
AutoCAD 2000
 90
        0
280
     0
281
     0
  0
CLASS
  1
DICTIONARYVAR
  2
AcDbDictionaryVar
  3
AutoCAD 2000
 90
        0
280
     0
281
     0
  0
CLASS
  1
ACDBPLACEHOLDER
  2
AcDbPlaceHolder
  3
AutoCAD 2000
 90
        0
280
     0
281
     0
  0
CLASS
  1
LAYOUT
  2
AcDbLayout
  3
AutoCAD 2000
 90
        0
280
     0
281
     0
  0
CLASS
  1
LONG_TRANSACTION
  2
AcDbLongTransaction
  3
AutoCAD 2000
 90
        0
280
     0
281
     0
  0
CLASS
  1
LWPOLYLINE
  2
AcDbPolyline
  3
AutoCAD 2000
 90
        0
280
     0
281
     1
  0
CLASS
  1
HATCH
  2
AcDbHatch
  3
AutoCAD 2000
 90
        0
280
     0
281
     1
  0
CLASS
  1
XRECORD
  2
AcDbXrecord
  3
AutoCAD 2000
 90
        0
280
     0
281
     0
  0
CLASS
  1
LONG_TRANSACTION
  2
AcDbLongTransaction
  3
AutoCAD 2000
 90
        0
280
     0
281
     0
  0
CLASS
  1
LWPOLYLINE
  2
AcDbPolyline
  3
AutoCAD 2000
 90
        0
280
     0
281
     1
  0
CLASS
  1
HATCH
  2
AcDbHatch
  3
AutoCAD 2000
 90
        0
280
     0
281
     1
  0
CLASS
  1
XRECORD
  2
AcDbXrecord
  3
AutoCAD 2000
 90
        0
280
     0
281
     0
  0
CLASS
  1
LONG_TRANSACTION
  2
AcDbLongTransaction
  3
AutoCAD 2000
 90
        0
280
     0
281
     0
  0
CLASS
  1
LWPOLYLINE
  2
AcDbPolyline
  3
AutoCAD 2000
 90
        0
280
     0
281
     1
  0
CLASS
  1
HATCH
  2
AcDbHatch
  3
AutoCAD 2000
 90
        0
280
     0
281
     1
  0
CLASS
  1
XRECORD
  2
AcDbXrecord
  3
AutoCAD 2000
 90
        0
280
     0
281
     0
  0
ENDSEC
  0
SECTION
  2
TABLES
  0
TABLE
  2
VPORT
  5
8
330
0
100
AcDbSymbolTable
 70
     3
  0
VPORT
  5
8BC
330
8
100
AcDbSymbolTableRecord
100
AcDbViewportTableRecord
  2
*ACTIVE
 70
     0
 10
0.0
 20
0.0
 11
1.0
 21
1.0
 12
2242.445606602826
 22
2302.135779515754
 13
0.0
 23
0.0
 14
10.0
 24
10.0
 15
10.0
 25
10.0
 16
0.0
 26
0.0
 36
1.0
 17
0.0
 27
0.0
 37
0.0
 40
4477.210062755513
 41
1.525316455696202
 42
50.0
 43
0.0
 44
0.0
 50
0.0
 51
0.0
 71
     0
 72
  1000
 73
     1
 74
     3
 75
     0
 76
     0
 77
     0
 78
     0
  0
ENDTAB
  0
TABLE
  2
LTYPE
  5
5
330
0
100
AcDbSymbolTable
 70
     3
  0
LTYPE
  5
14
330
5
100
AcDbSymbolTableRecord
100
AcDbLinetypeTableRecord
  2
BYBLOCK
 70
     0
  3

 72
    65
 73
     0
 40
0.0
  0
LTYPE
  5
15
330
5
100
AcDbSymbolTableRecord
100
AcDbLinetypeTableRecord
  2
BYLAYER
 70
     0
  3

 72
    65
 73
     0
 40
0.0
  0
LTYPE
  5
16
330
5
100
AcDbSymbolTableRecord
100
AcDbLinetypeTableRecord
  2
CONTINUOUS
 70
     0
  3
Solid line
 72
    65
 73
     0
 40
0.0
  0
LTYPE
  5
86
330
5
100
AcDbSymbolTableRecord
100
AcDbLinetypeTableRecord
  2
IMPORT
 70
     0
  3

 72
    65
 73
     0
 40
0.0
  0
LTYPE
  5
87
330
5
100
AcDbSymbolTableRecord
100
AcDbLinetypeTableRecord
  2
STANDARD
 70
     0
  3

 72
    65
 73
     0
 40
0.0
  0
ENDTAB
  0
TABLE
  2
LAYER
  5
2
330
0
100
AcDbSymbolTable
 70
     3
  0
LAYER
  5
10
330
2
100
AcDbSymbolTableRecord
100
AcDbLayerTableRecord
  2
0
 70
     0
 62
     7
  6
CONTINUOUS
  0
LAYER
  5
88
330
2
100
AcDbSymbolTableRecord
100
AcDbLayerTableRecord
  2
STANDARD
 70
     0
 62
     7
  6
CONTINUOUS
  0
LAYER
  5
6D4
330
2
100
AcDbSymbolTableRecord
100
AcDbLayerTableRecord
  2
DEFPOINTS
 70
     0
 62
     7
  6
CONTINUOUS
  0
ENDTAB
  0
TABLE
  2
STYLE
  5
3
330
0
100
AcDbSymbolTable
 70
     1
  0
STYLE
  5
11
330
3
100
AcDbSymbolTableRecord
100
AcDbTextStyleTableRecord
  2
STANDARD
 70
     0
 40
0.0
 41
1.0
 50
0.0
 71
     0
 42
2.5
  3
txt
  4

  0
ENDTAB
  0
TABLE
  2
VIEW
  5
6
330
0
100
AcDbSymbolTable
 70
     0
  0
ENDTAB
  0
TABLE
  2
UCS
  5
7
330
0
100
AcDbSymbolTable
 70
     0
  0
ENDTAB
  0
TABLE
  2
APPID
  5
9
330
0
100
AcDbSymbolTable
 70
     1
  0
APPID
  5
12
330
9
100
AcDbSymbolTableRecord
100
AcDbRegAppTableRecord
  2
ACAD
 70
     0
  0
ENDTAB
  0
TABLE
  2
DIMSTYLE
  5
A
330
0
100
AcDbSymbolTable
 70
     2
  0
DIMSTYLE
105
27
330
A
100
AcDbSymbolTableRecord
100
AcDbDimStyleTableRecord
  2
ISO-25
 70
     0
  3

  4

  5

  6

  7

 40
1.0
 41
2.5
 42
0.625
 43
3.75
 44
1.25
 45
0.0
 46
0.0
 47
0.0
 48
0.0
140
2.5
141
2.5
142
0.0
143
0.03937007874016
144
1.0
145
0.0
146
1.0
147
0.625
 71
     0
 72
     0
 73
     0
 74
     0
 75
     0
 76
     0
 77
     1
 78
     8
170
     0
171
     3
172
     1
173
     0
174
     0
175
     0
176
     0
177
     0
178
     0
270
     2
271
     2
272
     2
273
     2
274
     3
340
11
275
     0
280
     0
281
     0
282
     0
283
     0
284
     8
285
     0
286
     0
287
     3
288
     0
  0
DIMSTYLE
105
8A
330
A
100
AcDbSymbolTableRecord
100
AcDbDimStyleTableRecord
  2
STANDARD
 70
     0
  3

  4

  5

  6

  7

 40
1.0
 41
0.18
 42
0.0625
 43
0.38
 44
0.18
 45
0.0
 46
0.0
 47
0.0
 48
0.0
140
0.18
141
0.09
142
0.0
143
25.4
144
1.0
145
0.0
146
1.0
147
0.09
 71
     0
 72
     0
 73
     1
 74
     1
 75
     0
 76
     0
 77
     0
 78
     0
170
     0
171
     2
172
     0
173
     0
174
     0
175
     0
176
     0
177
     0
178
     0
270
     2
271
     4
272
     4
273
     2
274
     2
340
11
275
     0
280
     0
281
     0
282
     0
283
     1
284
     0
285
     0
286
     0
287
     3
288
     0
  0
ENDTAB
  0
TABLE
  2
BLOCK_RECORD
  5
1
330
0
100
AcDbSymbolTable
 70
     1
  0
BLOCK_RECORD
  5
1F
102
{ACAD_XDICTIONARY
360
703
102
}
330
1
100
AcDbSymbolTableRecord
100
AcDbBlockTableRecord
  2
*MODEL_SPACE
  0
BLOCK_RECORD
  5
50
102
{ACAD_XDICTIONARY
360
705
102
}
330
1
100
AcDbSymbolTableRecord
100
AcDbBlockTableRecord
  2
*PAPER_SPACE
  0
ENDTAB
  0
ENDSEC
  0
SECTION
  2
BLOCKS
  0
BLOCK
  5
20
330
1F
100
AcDbEntity
  8
0
100
AcDbBlockBegin
  2
*MODEL_SPACE
 70
     0
 10
0.0
 20
0.0
 30
0.0
  3
*MODEL_SPACE
  1

  0
ENDBLK
  5
21
330
1F
100
AcDbEntity
  8
0
100
AcDbBlockEnd
  0
BLOCK
  5
52
330
50
100
AcDbEntity
 67
     1
  8
0
100
AcDbBlockBegin
  2
*PAPER_SPACE
 70
     0
 10
0.0
 20
0.0
 30
0.0
  3
*PAPER_SPACE
  1

  0
ENDBLK
  5
53
330
50
100
AcDbEntity
 67
     1
  8
0
100
AcDbBlockEnd
  0
ENDSEC
  0
SECTION
  2
ENTITIES
  0
LINE
  5
484
330
1F
100
AcDbEntity
  8
STANDARD
  6
IMPORT
 62
     7
100
AcDbLine
 10
1860.479495994973
 20
2505.28660720017
 30
0.0
 11
1515.97949790232
 21
2505.28660720017
 31
0.0
  0
LINE
  5
485
330
1F
100
AcDbEntity
  8
STANDARD
  6
STANDARD
 62
     7
100
AcDbLine
 10
1465.406482689309
 20
2838.420707274062
 30
0.0
 11
1860.479495994973
 21
2838.437568235976
 31
0.0
  0
LINE
  5
486
330
1F
100
AcDbEntity
  8
STANDARD
  6
STANDARD
 62
     7
100
AcDbLine
 10
1467.225025169778
 20
2805.553390074354
 30
0.0
 11
1860.479495994973
 21
2805.553390074354
 31
0.0
  0
LINE
  5
487
330
1F
100
AcDbEntity
  8
STANDARD
  6
STANDARD
 62
     7
100
AcDbLine
 10
1497.479495994973
 20
2838.437568235976
 30
0.0
 11
1860.479495994973
 21
2838.489466189514
 31
0.0
  0
LINE
  5
488
330
1F
100
AcDbEntity
  8
STANDARD
  6
STANDARD
 62
     7
100
AcDbLine
 10
1497.479495994973
 20
2805.553390074354
 30
0.0
 11
1860.479495994972
 21
2805.553390074356
 31
0.0
  0
LINE
  5
489
330
1F
100
AcDbEntity
  8
STANDARD
  6
IMPORT
 62
     7
100
AcDbLine
 10
1852.226395817626
 20
2472.286607200171
 30
0.0
 11
1515.97949790232
 21
2472.286607200171
 31
0.0
  0
LINE
  5
48A
330
1F
100
AcDbEntity
  8
STANDARD
  6
IMPORT
 62
     7
100
AcDbLine
 10
2107.479497902321
 20
2472.286607200171
 30
0.0
 11
1920.479497902321
 21
2472.286607200171
 31
0.0
  0
LINE
  5
48B
330
1F
100
AcDbEntity
  8
STANDARD
  6
IMPORT
 62
     7
100
AcDbLine
 10
1866.979494087623
 20
2505.28660720017
 30
0.0
 11
1515.97949790232
 21
2505.28660720017
 31
0.0
  0
LINE
  5
48C
330
1F
100
AcDbEntity
  8
STANDARD
  6
IMPORT
 62
     7
100
AcDbLine
 10
1043.643887523855
 20
3870.820203454116
 30
-0.0000000000000035
 11
1043.643887523855
 21
3464.604568492019
 31
-0.0000000000000035
210
0.0
220
1.0
230
0.0
  0
LINE
  5
48D
330
1F
100
AcDbEntity
  8
STANDARD
  6
IMPORT
 62
     7
100
AcDbLine
 10
1010.643887523855
 20
3870.820203454116
 30
-0.0000000000000055
 11
1010.643887523855
 21
3464.56807543766
 31
-0.0000000000000055
210
0.0
220
1.0
230
0.0
  0
CIRCLE
  5
48E
330
1F
100
AcDbEntity
  8
STANDARD
  6
IMPORT
 62
     7
100
AcDbCircle
 10
338.6438875238551
 20
2822.053405333144
 30
-0.0000000000000467
 40
32.25
  0
CIRCLE
  5
48F
330
1F
100
AcDbEntity
  8
STANDARD
  6
IMPORT
 62
     7
100
AcDbCircle
 10
338.6438875238551
 20
2822.053405333144
 30
-0.0000000000000467
 40
35.0
  0
CIRCLE
  5
490
330
1F
100
AcDbEntity
  8
STANDARD
  6
IMPORT
 62
     7
100
AcDbCircle
 10
338.6438875238551
 20
2822.053405333144
 30
-0.0000000000000467
 40
33.25
  0
LINE
  5
491
330
1F
100
AcDbEntity
  8
STANDARD
  6
IMPORT
 62
     7
100
AcDbLine
 10
1088.643887523855
 20
2805.553405333144
 30
-0.0000000000000007
 11
1027.143887523854
 21
2805.553405333144
 31
-0.0000000000000045
210
0.0
220
1.0
230
0.0
  0
LINE
  5
492
330
1F
100
AcDbEntity
  8
STANDARD
  6
IMPORT
 62
     7
100
AcDbLine
 10
1088.643887523855
 20
2838.553405333144
 30
-0.0000000000000007
 11
1027.143887523854
 21
2838.553405333144
 31
-0.0000000000000045
210
0.0
220
1.0
230
0.0
  0
LINE
  5
493
330
1F
100
AcDbEntity
  8
STANDARD
  6
IMPORT
 62
     7
100
AcDbLine
 10
1088.643887523855
 20
2920.553405333144
 30
-0.0000000000000007
 11
1043.643887523855
 21
2920.553405333144
 31
-0.0000000000000035
210
0.0
220
1.0
230
0.0
  0
LINE
  5
494
330
1F
100
AcDbEntity
  8
STANDARD
  6
IMPORT
 62
     7
100
AcDbLine
 10
1088.643887523855
 20
2953.553405333144
 30
-0.0000000000000007
 11
1043.643887523855
 21
2953.553405333144
 31
-0.0000000000000035
210
0.0
220
1.0
230
0.0
  0
ARC
  5
498
330
1F
100
AcDbEntity
  8
STANDARD
  6
IMPORT
 62
     7
100
AcDbCircle
 10
1027.143887523854
 20
2822.053405333144
 30
-0.0000000000000045
 40
16.5
100
AcDbArc
 50
270.0
 51
0.0
  0
ARC
  5
499
330
1F
100
AcDbEntity
  8
STANDARD
  6
IMPORT
 62
     7
100
AcDbCircle
 10
1027.143887523854
 20
2822.053405333144
 30
-0.0000000000000045
 40
16.5
100
AcDbArc
 50
0.0
 51
90.0
  0
LINE
  5
49A
330
1F
100
AcDbEntity
  8
STANDARD
  6
IMPORT
 62
     7
100
AcDbLine
 10
1010.643887523855
 20
3067.553405333166
 30
-0.0000000000000055
 11
1010.643887523855
 21
2838.553405333144
 31
-0.0000000000000055
210
0.0
220
1.0
230
0.0
  0
LINE
  5
49B
330
1F
100
AcDbEntity
  8
STANDARD
  6
IMPORT
 62
     7
100
AcDbLine
 10
1027.143887523854
 20
2937.053405333142
 30
-0.0000000000000045
 11
1043.643887523855
 21
2920.553405333144
 31
-0.0000000000000035
210
0.0
220
1.0
230
0.0
  0
LINE
  5
49C
330
1F
100
AcDbEntity
  8
STANDARD
  6
IMPORT
 62
     7
100
AcDbLine
 10
387.1438875238553
 20
2838.553405333144
 30
-0.0000000000000437
 11
880.7772388557539
 21
2838.553405333144
 31
-0.0000000000000135
210
0.0
220
1.0
230
0.0
  0
LINE
  5
49D
330
1F
100
AcDbEntity
  8
STANDARD
  6
IMPORT
 62
     7
100
AcDbLine
 10
387.1438875238553
 20
2805.553405333144
 30
-0.0000000000000437
 11
880.7772388557539
 21
2805.553405333144
 31
-0.0000000000000135
210
0.0
220
1.0
230
0.0
  0
CIRCLE
  5
49E
330
1F
100
AcDbEntity
  8
STANDARD
  6
IMPORT
 62
     7
100
AcDbCircle
 10
338.6438875238551
 20
2822.053405333144
 30
-0.0000000000000467
 40
16.8
  0
CIRCLE
  5
49F
330
1F
100
AcDbEntity
  8
STANDARD
  6
IMPORT
 62
     7
100
AcDbCircle
 10
338.6438875238551
 20
2822.053405333144
 30
-0.0000000000000467
 40
16.5
  0
LINE
  5
4A0
330
1F
100
AcDbEntity
  8
STANDARD
  6
IMPORT
 62
     7
100
AcDbLine
 10
341.804583649711
 20
2838.553405333144
 30
-0.0000000000000465
 11
338.6438875238551
 21
2838.553405333144
 31
-0.0000000000000467
210
0.0
220
1.0
230
0.0
  0
LINE
  5
4A1
330
1F
100
AcDbEntity
  8
STANDARD
  6
IMPORT
 62
     7
100
AcDbLine
 10
338.6438875238551
 20
2805.553405333144
 30
-0.0000000000000467
 11
341.804583649711
 21
2805.553405333144
 31
-0.0000000000000465
210
0.0
220
1.0
230
0.0
  0
LINE
  5
4A2
330
1F
100
AcDbEntity
  8
STANDARD
  6
IMPORT
 62
     7
100
AcDbLine
 10
387.1438875238556
 20
2838.553405333144
 30
-0.0000000000000437
 11
369.5105361919566
 21
2838.553405333144
 31
-0.0000000000000448
210
0.0
220
1.0
230
0.0
  0
LINE
  5
4A3
330
1F
100
AcDbEntity
  8
STANDARD
  6
IMPORT
 62
     7
100
AcDbLine
 10
369.5105361919566
 20
2805.553405333144
 30
-0.0000000000000448
 11
387.1438875238556
 21
2805.553405333144
 31
-0.0000000000000437
210
0.0
220
1.0
230
0.0
  0
CIRCLE
  5
4A4
330
1F
100
AcDbEntity
  8
STANDARD
  6
IMPORT
 62
     7
100
AcDbCircle
 10
911.6438875238552
 20
2822.053405333144
 30
-0.0000000000000116
 40
32.25
  0
CIRCLE
  5
4A5
330
1F
100
AcDbEntity
  8
STANDARD
  6
IMPORT
 62
     7
100
AcDbCircle
 10
911.6438875238552
 20
2822.053405333144
 30
-0.0000000000000116
 40
35.0
  0
CIRCLE
  5
4A6
330
1F
100
AcDbEntity
  8
STANDARD
  6
IMPORT
 62
     7
100
AcDbCircle
 10
911.6438875238552
 20
2822.053405333144
 30
-0.0000000000000116
 40
33.25
  0
LINE
  5
4A7
330
1F
100
AcDbEntity
  8
STANDARD
  6
IMPORT
 62
     7
100
AcDbLine
 10
942.5105361919566
 20
2838.553405333144
 30
-0.0000000000000097
 11
978.6438875238552
 21
2838.553405333144
 31
-0.0000000000000075
210
0.0
220
1.0
230
0.0
  0
LINE
  5
4A8
330
1F
100
AcDbEntity
  8
STANDARD
  6
IMPORT
 62
     7
100
AcDbLine
 10
942.5105361919566
 20
2805.553405333144
 30
-0.0000000000000097
 11
978.6438875238552
 21
2805.553405333144
 31
-0.0000000000000075
210
0.0
220
1.0
230
0.0
  0
CIRCLE
  5
4A9
330
1F
100
AcDbEntity
  8
STANDARD
  6
IMPORT
 62
     7
100
AcDbCircle
 10
911.6438875238552
 20
2822.053405333144
 30
-0.0000000000000116
 40
16.8
  0
CIRCLE
  5
4AA
330
1F
100
AcDbEntity
  8
STANDARD
  6
IMPORT
 62
     7
100
AcDbCircle
 10
911.6438875238552
 20
2822.053405333144
 30
-0.0000000000000116
 40
16.5
  0
LINE
  5
4AB
330
1F
100
AcDbEntity
  8
STANDARD
  6
IMPORT
 62
     7
100
AcDbLine
 10
908.4831913979995
 20
2838.553405333144
 30
-0.0000000000000118
 11
914.8045836497113
 21
2838.553405333144
 31
-0.0000000000000114
210
0.0
220
1.0
230
0.0
  0
LINE
  5
4AC
330
1F
100
AcDbEntity
  8
STANDARD
  6
IMPORT
 62
     7
100
AcDbLine
 10
908.4831913979995
 20
2805.553405333144
 30
-0.0000000000000118
 11
914.8045836497113
 21
2805.553405333144
 31
-0.0000000000000114
210
0.0
220
1.0
230
0.0
  0
LINE
  5
4AD
330
1F
100
AcDbEntity
  8
STANDARD
  6
IMPORT
 62
     7
100
AcDbLine
 10
1043.643887523855
 20
2920.553405333144
 30
-0.0000000000000035
 11
1043.643887523855
 21
2838.553405333144
 31
-0.0000000000000035
210
0.0
220
1.0
230
0.0
  0
LINE
  5
4AE
330
1F
100
AcDbEntity
  8
STANDARD
  6
IMPORT
 62
     7
100
AcDbLine
 10
978.6438875238552
 20
2805.553405333144
 30
-0.0000000000000075
 11
1027.143887523854
 21
2805.553405333144
 31
-0.0000000000000045
210
0.0
220
1.0
230
0.0
  0
LINE
  5
4AF
330
1F
100
AcDbEntity
  8
STANDARD
  6
IMPORT
 62
     7
100
AcDbLine
 10
1027.143887523854
 20
2838.553405333144
 30
-0.0000000000000045
 11
978.6438875238552
 21
2838.553405333144
 31
-0.0000000000000075
210
0.0
220
1.0
230
0.0
  0
LINE
  5
4B0
330
1F
100
AcDbEntity
  8
STANDARD
  6
IMPORT
 62
     7
100
AcDbLine
 10
1043.643887523855
 20
3067.553405333166
 30
-0.0000000000000035
 11
1043.643887523855
 21
2953.553405333144
 31
-0.0000000000000035
210
0.0
220
1.0
230
0.0
  0
LINE
  5
4B1
330
1F
100
AcDbEntity
  8
STANDARD
  6
IMPORT
 62
     7
100
AcDbLine
 10
1043.643887523855
 20
2953.553405333144
 30
-0.0000000000000035
 11
1027.143887523854
 21
2937.053405333142
 31
-0.0000000000000045
210
0.0
220
1.0
230
0.0
  0
LINE
  5
4C7
330
1F
100
AcDbEntity
  8
STANDARD
  6
IMPORT
 62
     7
100
AcDbLine
 10
1088.643887523855
 20
2970.053405333143
 30
-0.0000000000000007
 11
1088.643887523855
 21
2904.053405333144
 31
-0.0000000000000007
210
0.0
220
1.0
230
0.0
  0
LINE
  5
4C8
330
1F
100
AcDbEntity
  8
STANDARD
  6
IMPORT
 62
     7
100
AcDbLine
 10
1100.643887523855
 20
2972.053405333144
 30
0.0
 11
1100.643887523855
 21
2902.053405333143
 31
0.0
210
0.0
220
1.0
230
0.0
  0
LINE
  5
4C9
330
1F
100
AcDbEntity
  8
STANDARD
  6
IMPORT
 62
     7
100
AcDbLine
 10
1088.643887523855
 20
2855.053405333144
 30
-0.0000000000000007
 11
1088.643887523855
 21
2789.053405333142
 31
-0.0000000000000007
210
0.0
220
1.0
230
0.0
  0
LINE
  5
4CA
330
1F
100
AcDbEntity
  8
STANDARD
  6
IMPORT
 62
     7
100
AcDbLine
 10
1100.643887523855
 20
2857.053405333142
 30
0.0
 11
1100.643887523855
 21
2787.053405333144
 31
0.0
210
0.0
220
1.0
230
0.0
  0
ARC
  5
4CB
330
1F
100
AcDbEntity
  8
STANDARD
  6
IMPORT
 62
     7
100
AcDbCircle
 10
1090.643887523855
 20
2789.053405333142
 30
-0.0000000000000006
 40
2.0
100
AcDbArc
 50
180.0
 51
270.0
  0
LINE
  5
4CC
330
1F
100
AcDbEntity
  8
STANDARD
  6
IMPORT
 62
     7
100
AcDbLine
 10
1090.643887523855
 20
2787.053405333144
 30
-0.0000000000000006
 11
1100.643887523855
 21
2787.053405333144
 31
0.0
210
0.0
220
1.0
230
0.0
  0
ARC
  5
4CD
330
1F
100
AcDbEntity
  8
STANDARD
  6
IMPORT
 62
     7
100
AcDbCircle
 10
1090.643887523855
 20
2855.053405333144
 30
-0.0000000000000006
 40
2.0
100
AcDbArc
 50
90.0
 51
180.0
  0
LINE
  5
4CE
330
1F
100
AcDbEntity
  8
STANDARD
  6
IMPORT
 62
     7
100
AcDbLine
 10
1090.643887523855
 20
2857.053405333142
 30
-0.0000000000000006
 11
1100.643887523855
 21
2857.053405333142
 31
0.0
210
0.0
220
1.0
230
0.0
  0
ARC
  5
4CF
330
1F
100
AcDbEntity
  8
STANDARD
  6
IMPORT
 62
     7
100
AcDbCircle
 10
1090.643887523855
 20
2904.053405333144
 30
-0.0000000000000006
 40
2.0
100
AcDbArc
 50
180.0
 51
270.0
  0
LINE
  5
4D0
330
1F
100
AcDbEntity
  8
STANDARD
  6
IMPORT
 62
     7
100
AcDbLine
 10
1090.643887523855
 20
2902.053405333143
 30
-0.0000000000000006
 11
1100.643887523855
 21
2902.053405333143
 31
0.0
210
0.0
220
1.0
230
0.0
  0
ARC
  5
4D1
330
1F
100
AcDbEntity
  8
STANDARD
  6
IMPORT
 62
     7
100
AcDbCircle
 10
1515.97949790232
 20
2537.28660720017
 30
0.0
 40
65.0
100
AcDbArc
 50
180.0
 51
270.0
  0
ARC
  5
4D2
330
1F
100
AcDbEntity
  8
STANDARD
  6
IMPORT
 62
     7
100
AcDbCircle
 10
1515.97949790232
 20
2537.28660720017
 30
0.0
 40
32.0
100
AcDbArc
 50
180.0
 51
270.0
  0
LINE
  5
4D3
330
1F
100
AcDbEntity
  8
0
100
AcDbLine
 10
1531.362875136553
 20
2505.28660720017
 30
0.0
 11
1531.362875136553
 21
2472.286607200171
 31
0.0
  0
LINE
  5
4D4
330
1F
100
AcDbEntity
  8
STANDARD
  6
IMPORT
 62
     7
100
AcDbLine
 10
1434.47949790232
 20
2550.286607200169
 30
0.0
 11
1500.479497902321
 21
2550.286607200169
 31
0.0
  0
LINE
  5
4D5
330
1F
100
AcDbEntity
  8
STANDARD
  6
IMPORT
 62
     7
100
AcDbLine
 10
1432.47949790232
 20
2562.286607200169
 30
0.0
 11
1502.479497902321
 21
2562.286607200169
 31
0.0
  0
ARC
  5
4D6
330
1F
100
AcDbEntity
  8
STANDARD
  6
IMPORT
 62
     7
100
AcDbCircle
 10
1434.47949790232
 20
2552.286607200171
 30
0.0
 40
2.0
100
AcDbArc
 50
180.0
 51
270.0
  0
LINE
  5
4D7
330
1F
100
AcDbEntity
  8
STANDARD
  6
IMPORT
 62
     7
100
AcDbLine
 10
1450.97949790232
 20
2537.28660720017
 30
0.0
 11
1450.97949790232
 21
2550.286607200169
 31
0.0
  0
LINE
  5
4D8
330
1F
100
AcDbEntity
  8
STANDARD
  6
IMPORT
 62
     7
100
AcDbLine
 10
1432.47949790232
 20
2552.286607200171
 30
0.0
 11
1432.47949790232
 21
2562.286607200169
 31
0.0
  0
ARC
  5
4D9
330
1F
100
AcDbEntity
  8
STANDARD
  6
IMPORT
 62
     7
100
AcDbCircle
 10
1500.479497902321
 20
2552.286607200171
 30
0.0
 40
2.0
100
AcDbArc
 50
270.0
 51
0.0
  0
LINE
  5
4DA
330
1F
100
AcDbEntity
  8
STANDARD
  6
IMPORT
 62
     7
100
AcDbLine
 10
1483.979497902319
 20
2537.28660720017
 30
0.0
 11
1483.979497902319
 21
2550.286607200169
 31
0.0
  0
LINE
  5
4DB
330
1F
100
AcDbEntity
  8
STANDARD
  6
IMPORT
 62
     7
100
AcDbLine
 10
1502.479497902321
 20
2552.286607200171
 30
0.0
 11
1502.479497902321
 21
2562.286607200169
 31
0.0
  0
ARC
  5
4DC
330
1F
100
AcDbEntity
  8
STANDARD
  6
STANDARD
 62
     7
100
AcDbCircle
 10
1467.479469512618
 20
2822.053405333144
 30
0.0
 40
35.00000403522118
100
AcDbArc
 50
29.99999618616782
 51
330.0000038138321
  0
LINE
  5
4DD
330
1F
100
AcDbEntity
  8
STANDARD
  6
STANDARD
 62
     7
100
AcDbLine
 10
1455.812213890481
 20
2810.38615374623
 30
0.0
 11
1457.424457542824
 21
2809.149047422988
 31
0.0
  0
ARC
  5
4DE
330
1F
100
AcDbEntity
  8
STANDARD
  6
STANDARD
 62
     7
100
AcDbCircle
 10
1467.479508581968
 20
2822.051477254515
 30
0.0
 40
16.4999735692057
100
AcDbArc
 50
97.21760870570314
 51
178.232571468437
  0
ARC
  5
4DF
330
1F
100
AcDbEntity
  8
STANDARD
  6
STANDARD
 62
     7
100
AcDbCircle
 10
1467.479654583744
 20
2822.051542722363
 30
0.0
 40
16.50011748247522
100
AcDbArc
 50
178.2328143305583
 51
269.1157778181171
  0
LINE
  5
4E0
330
1F
100
AcDbEntity
  8
STANDARD
  6
STANDARD
 62
     7
100
AcDbLine
 10
1450.979526512551
 20
2822.053405333144
 30
0.0
 11
1451.013019554543
 21
2822.307998228652
 31
0.0
  0
LINE
  5
4E1
330
1F
100
AcDbEntity
  8
STANDARD
  6
STANDARD
 62
     7
100
AcDbLine
 10
1451.511295311379
 20
2817.782928038223
 30
0.0
 11
1451.541736595559
 21
2818.014098692517
 31
0.0
  0
LINE
  5
4E2
330
1F
100
AcDbEntity
  8
STANDARD
  6
STANDARD
 62
     7
100
AcDbLine
 10
1453.109806053566
 20
2813.803435850722
 30
0.0
 11
1453.190067284035
 21
2813.997298765761
 31
0.0
  0
LINE
  5
4E3
330
1F
100
AcDbEntity
  8
STANDARD
  6
STANDARD
 62
     7
100
AcDbLine
 10
1455.69845961802
 20
2810.534392881972
 30
0.0
 11
1455.812213890481
 21
2810.38615374623
 31
0.0
  0
LINE
  5
4E4
330
1F
100
AcDbEntity
  8
STANDARD
  6
STANDARD
 62
     7
100
AcDbLine
 10
1453.190067284035
 20
2813.803435850722
 30
0.0
 11
1454.420078270364
 21
2812.200500059707
 31
0.0
  0
LINE
  5
4E5
330
1F
100
AcDbEntity
  8
STANDARD
  6
STANDARD
 62
     7
100
AcDbLine
 10
1455.812213890481
 20
2833.720656920058
 30
0.0
 11
1456.470706932473
 21
2834.22591357289
 31
0.0
  0
LINE
  5
4E6
330
1F
100
AcDbEntity
  8
STANDARD
  6
STANDARD
 62
     7
100
AcDbLine
 10
1451.541736595559
 20
2817.782928038223
 30
0.0
 11
1452.310855858254
 21
2815.925933409316
 31
0.0
  0
LINE
  5
4E7
330
1F
100
AcDbEntity
  8
STANDARD
  6
STANDARD
 62
     7
100
AcDbLine
 10
1450.979526512551
 20
2822.053405333144
 30
0.0
 11
1451.24045180552
 21
2820.071288633926
 31
0.0
  0
LINE
  5
4E8
330
1F
100
AcDbEntity
  8
STANDARD
  6
STANDARD
 62
     7
100
AcDbLine
 10
1451.229465477395
 20
2823.952056456191
 30
0.0
 11
1451.541736595559
 21
2826.323882628066
 31
0.0
  0
LINE
  5
4E9
330
1F
100
AcDbEntity
  8
STANDARD
  6
STANDARD
 62
     7
100
AcDbLine
 10
1452.411411278176
 20
2828.423492003066
 30
0.0
 11
1453.190067284035
 21
2830.303374815565
 31
0.0
  0
LINE
  5
4EA
330
1F
100
AcDbEntity
  8
STANDARD
  6
STANDARD
 62
     7
100
AcDbLine
 10
1451.541736595559
 20
2826.323882628066
 30
0.0
 11
1451.714771263526
 21
2826.741744566543
 31
0.0
  0
LINE
  5
4EB
330
1F
100
AcDbEntity
  8
STANDARD
  6
STANDARD
 62
     7
100
AcDbLine
 10
1454.734790794778
 20
2832.316505003554
 30
0.0
 11
1455.812213890481
 21
2833.720656920058
 31
0.0
  0
LINE
  5
4EC
330
1F
100
AcDbEntity
  8
STANDARD
  6
STANDARD
 62
     7
100
AcDbLine
 10
1453.190067284035
 20
2830.303374815565
 30
0.0
 11
1453.579624168801
 21
2830.811034727675
 31
0.0
  0
LINE
  5
4ED
330
1F
100
AcDbEntity
  8
STANDARD
  6
STANDARD
 62
     7
100
AcDbLine
 10
1497.790363304543
 20
2839.553405333143
 30
0.0
 11
1498.318546287942
 21
2838.420707274062
 31
0.0
  0
LINE
  5
4EE
330
1F
100
AcDbEntity
  8
STANDARD
  6
STANDARD
 62
     7
100
AcDbLine
 10
1458.006656639504
 20
2835.404540587051
 30
0.0
 11
1459.229495994973
 21
2836.342841673474
 31
0.0
  0
LINE
  5
4EF
330
1F
100
AcDbEntity
  8
STANDARD
  6
STANDARD
 62
     7
100
AcDbLine
 10
1461.979816429543
 20
2837.482062864882
 30
0.0
 11
1463.208988182473
 21
2837.991172361952
 31
0.0
  0
LINE
  5
4F0
330
1F
100
AcDbEntity
  8
STANDARD
  6
STANDARD
 62
     7
100
AcDbLine
 10
1459.229495994973
 20
2836.342841673474
 30
0.0
 11
1460.175235741067
 21
2836.734572935683
 31
0.0
  0
LINE
  5
4F1
330
1F
100
AcDbEntity
  8
STANDARD
  6
STANDARD
 62
     7
100
AcDbLine
 10
1466.471469871926
 20
2838.420707274062
 30
0.0
 11
1467.479465477395
 21
2838.553420591933
 31
0.0
  0
LINE
  5
4F2
330
1F
100
AcDbEntity
  8
STANDARD
  6
STANDARD
 62
     7
100
AcDbLine
 10
1463.208988182473
 20
2837.991172361952
 30
0.0
 11
1464.420993797705
 21
2838.150741148574
 31
0.0
  0
LINE
  5
4F3
330
1F
100
AcDbEntity
  8
STANDARD
  6
STANDARD
 62
     7
100
AcDbLine
 10
1467.479465477395
 20
2838.553420591933
 30
0.0
 11
1468.487537376809
 21
2838.420707274062
 31
0.0
  0
LINE
  5
4F4
330
1F
100
AcDbEntity
  8
STANDARD
  6
STANDARD
 62
     7
100
AcDbLine
 10
1497.790363304543
 20
2804.553405333142
 30
0.0
 11
1498.256671898293
 21
2805.553390074354
 31
0.0
  0
LINE
  5
4F5
330
1F
100
AcDbEntity
  8
STANDARD
  6
STANDARD
 62
     7
100
AcDbLine
 10
1463.077457420754
 20
2806.170150328261
 30
0.0
 11
1463.208988182473
 21
2806.115600157363
 31
0.0
  0
LINE
  5
4F6
330
1F
100
AcDbEntity
  8
STANDARD
  6
STANDARD
 62
     7
100
AcDbLine
 10
1463.208988182473
 20
2806.115600157363
 30
0.0
 11
1465.258548729348
 21
2805.845824766738
 31
0.0
  0
LINE
  5
4F7
330
1F
100
AcDbEntity
  8
STANDARD
  6
STANDARD
 62
     7
100
AcDbLine
 10
1459.229495994973
 20
2807.764007139785
 30
0.0
 11
1461.120670311379
 21
2806.980620909316
 31
0.0
  0
LINE
  5
4F8
330
1F
100
AcDbEntity
  8
STANDARD
  6
STANDARD
 62
     7
100
AcDbLine
 10
1459.099109642434
 20
2807.864028502089
 30
0.0
 11
1459.229495994973
 21
2807.764007139785
 31
0.0
  0
LINE
  5
4F9
330
1F
100
AcDbEntity
  8
STANDARD
  6
STANDARD
 62
     7
100
AcDbLine
 10
1534.479511253762
 20
2805.553390074354
 30
0.0
 11
1534.479511253762
 21
2838.437568235976
 31
0.0
  0
ARC
  5
4FA
330
1F
100
AcDbEntity
  8
STANDARD
  6
IMPORT
 62
     7
100
AcDbCircle
 10
1090.643887523855
 20
2970.053405333143
 30
-0.0000000000000006
 40
2.0
100
AcDbArc
 50
90.0
 51
180.0
  0
LINE
  5
4FB
330
1F
100
AcDbEntity
  8
STANDARD
  6
IMPORT
 62
     7
100
AcDbLine
 10
1090.643887523855
 20
2972.053405333144
 30
-0.0000000000000006
 11
1100.643887523855
 21
2972.053405333144
 31
0.0
210
0.0
220
1.0
230
0.0
  0
ARC
  5
501
330
1F
100
AcDbEntity
  8
STANDARD
  6
IMPORT
 62
     7
100
AcDbCircle
 10
1075.643887523855
 20
3870.820203454116
 30
-0.0000000000000015
 40
32.0
100
AcDbArc
 50
90.0
 51
180.0
  0
ARC
  5
502
330
1F
100
AcDbEntity
  8
STANDARD
  6
IMPORT
 62
     7
100
AcDbCircle
 10
1075.643887523855
 20
3870.820203454116
 30
-0.0000000000000015
 40
65.0
100
AcDbArc
 50
90.0
 51
180.0
  0
LINE
  5
503
330
1F
100
AcDbEntity
  8
0
100
AcDbLine
 10
1010.643887523855
 20
3855.053397703747
 30
0.0
 11
1043.643887523855
 21
3855.053397703747
 31
0.0
  0
LINE
  5
504
330
1F
100
AcDbEntity
  8
0
100
AcDbLine
 10
1043.643887523855
 20
3855.053397703747
 30
0.0
 11
1010.643887523855
 21
3855.053397703747
 31
0.0
  0
LINE
  5
505
330
1F
100
AcDbEntity
  8
STANDARD
  6
IMPORT
 62
     7
100
AcDbLine
 10
1088.643887523855
 20
3952.320203454117
 30
-0.0000000000000007
 11
1088.643887523855
 21
3886.320203454117
 31
-0.0000000000000007
210
0.0
220
1.0
230
0.0
  0
LINE
  5
506
330
1F
100
AcDbEntity
  8
STANDARD
  6
IMPORT
 62
     7
100
AcDbLine
 10
1100.643887523855
 20
3954.320203454116
 30
0.0
 11
1100.643887523855
 21
3884.320203454117
 31
0.0
210
0.0
220
1.0
230
0.0
  0
ARC
  5
507
330
1F
100
AcDbEntity
  8
STANDARD
  6
IMPORT
 62
     7
100
AcDbCircle
 10
1090.643887523855
 20
3886.320203454117
 30
-0.0000000000000006
 40
2.0
100
AcDbArc
 50
180.0
 51
270.0
  0
LINE
  5
508
330
1F
100
AcDbEntity
  8
STANDARD
  6
IMPORT
 62
     7
100
AcDbLine
 10
1088.643887523855
 20
3902.820203454116
 30
-0.0000000000000007
 11
1075.643887523855
 21
3902.820203454116
 31
-0.0000000000000015
210
0.0
220
1.0
230
0.0
  0
LINE
  5
509
330
1F
100
AcDbEntity
  8
STANDARD
  6
IMPORT
 62
     7
100
AcDbLine
 10
1090.643887523855
 20
3884.320203454117
 30
-0.0000000000000006
 11
1100.643887523855
 21
3884.320203454117
 31
0.0
210
0.0
220
1.0
230
0.0
  0
ARC
  5
50A
330
1F
100
AcDbEntity
  8
STANDARD
  6
IMPORT
 62
     7
100
AcDbCircle
 10
1090.643887523855
 20
3952.320203454117
 30
-0.0000000000000006
 40
2.0
100
AcDbArc
 50
90.0
 51
180.0
  0
LINE
  5
50B
330
1F
100
AcDbEntity
  8
STANDARD
  6
IMPORT
 62
     7
100
AcDbLine
 10
1088.643887523855
 20
3935.820203454117
 30
-0.0000000000000007
 11
1075.643887523855
 21
3935.820203454117
 31
-0.0000000000000015
210
0.0
220
1.0
230
0.0
  0
LINE
  5
50C
330
1F
100
AcDbEntity
  8
STANDARD
  6
IMPORT
 62
     7
100
AcDbLine
 10
1090.643887523855
 20
3954.320203454116
 30
-0.0000000000000006
 11
1100.643887523855
 21
3954.320203454116
 31
0.0
210
0.0
220
1.0
230
0.0
  0
LINE
  5
50D
330
1F
100
AcDbEntity
  8
STANDARD
  6
STANDARD
 62
     7
100
AcDbLine
 10
1906.888721458839
 20
2868.053390074354
 30
0.0
 11
1906.888721458838
 21
3356.610679670462
 31
0.0
  0
LINE
  5
50E
330
1F
100
AcDbEntity
  8
STANDARD
  6
STANDARD
 62
     7
100
AcDbLine
 10
1874.115398399758
 20
2868.053390074354
 30
0.0
 11
1874.115398399757
 21
3356.610679670462
 31
0.0
  0
LINE
  5
50F
330
1F
100
AcDbEntity
  8
STANDARD
  6
IMPORT
 62
     7
100
AcDbLine
 10
2566.596134021529
 20
3873.553405333144
 30
0.0000000000000165
 11
2566.59613402153
 21
3464.568699756965
 31
0.0000000000000165
210
0.0
220
1.0
230
0.0
  0
LINE
  5
510
330
1F
100
AcDbEntity
  8
STANDARD
  6
IMPORT
 62
     7
100
AcDbLine
 10
2533.596134021529
 20
3873.553405333144
 30
0.0000000000000105
 11
2533.59613402153
 21
3464.605221410347
 31
0.0000000000000105
210
0.0
220
1.0
230
0.0
  0
LINE
  5
511
330
1F
100
AcDbEntity
  8
STANDARD
  6
IMPORT
 62
     7
100
AcDbLine
 10
3190.09613402153
 20
2808.286607212171
 30
0.0000000000001311
 11
2598.59613402153
 21
2808.286607212171
 31
0.0000000000000224
210
0.0
220
1.0
230
0.0
  0
LINE
  5
512
330
1F
100
AcDbEntity
  8
STANDARD
  6
IMPORT
 62
     7
100
AcDbLine
 10
3190.09613402153
 20
2841.286607212171
 30
0.0000000000001311
 11
2598.59613402153
 21
2841.286607212171
 31
0.0000000000000224
210
0.0
220
1.0
230
0.0
  0
LINE
  5
513
330
1F
100
AcDbEntity
  8
STANDARD
  6
IMPORT
 62
     7
100
AcDbLine
 10
2139.479497902321
 20
1848.78660720017
 30
0.0
 11
2139.479497902321
 21
2440.28660720017
 31
0.0
  0
LINE
  5
514
330
1F
100
AcDbEntity
  8
STANDARD
  6
IMPORT
 62
     7
100
AcDbLine
 10
2172.479497902322
 20
2389.786607200169
 30
0.0
 11
2172.479497902322
 21
2440.28660720017
 31
0.0
  0
LINE
  5
515
330
1F
100
AcDbEntity
  8
STANDARD
  6
IMPORT
 62
     7
100
AcDbLine
 10
2217.479497902322
 20
2406.286607200172
 30
0.0
 11
2217.479497902322
 21
2340.286607200169
 31
0.0
  0
LINE
  5
516
330
1F
100
AcDbEntity
  8
STANDARD
  6
IMPORT
 62
     7
100
AcDbLine
 10
2229.479497902322
 20
2408.28660720017
 30
0.0
 11
2229.479497902322
 21
2338.286607200169
 31
0.0
  0
LINE
  5
517
330
1F
100
AcDbEntity
  8
STANDARD
  6
IMPORT
 62
     7
100
AcDbLine
 10
2172.479497902322
 20
1848.78660720017
 30
0.0
 11
2172.479497902322
 21
2356.78660720017
 31
0.0
  0
ARC
  5
518
330
1F
100
AcDbEntity
  8
STANDARD
  6
IMPORT
 62
     7
100
AcDbCircle
 10
2204.479497902322
 20
1848.78660720017
 30
0.0
 40
65.0
100
AcDbArc
 50
180.0
 51
270.0
  0
LINE
  5
519
330
1F
100
AcDbEntity
  8
STANDARD
  6
IMPORT
 62
     7
100
AcDbLine
 10
2217.479497902322
 20
1833.286607200171
 30
0.0
 11
2217.479497902322
 21
1767.286607200171
 31
0.0
  0
LINE
  5
51A
330
1F
100
AcDbEntity
  8
STANDARD
  6
IMPORT
 62
     7
100
AcDbLine
 10
2229.479497902322
 20
1835.286607200171
 30
0.0
 11
2229.479497902322
 21
1765.286607200171
 31
0.0
  0
ARC
  5
51B
330
1F
100
AcDbEntity
  8
STANDARD
  6
IMPORT
 62
     7
100
AcDbCircle
 10
2219.479497902321
 20
1767.286607200171
 30
0.0
 40
2.0
100
AcDbArc
 50
180.0
 51
270.0
  0
LINE
  5
51C
330
1F
100
AcDbEntity
  8
STANDARD
  6
IMPORT
 62
     7
100
AcDbLine
 10
2217.479497902322
 20
1783.786607200171
 30
0.0
 11
2204.479497902322
 21
1783.786607200171
 31
0.0
  0
LINE
  5
51D
330
1F
100
AcDbEntity
  8
STANDARD
  6
IMPORT
 62
     7
100
AcDbLine
 10
2219.479497902321
 20
1765.286607200171
 30
0.0
 11
2229.479497902322
 21
1765.286607200171
 31
0.0
  0
ARC
  5
51E
330
1F
100
AcDbEntity
  8
STANDARD
  6
IMPORT
 62
     7
100
AcDbCircle
 10
2204.479497902322
 20
1848.78660720017
 30
0.0
 40
32.0
100
AcDbArc
 50
180.0
 51
270.0
  0
ARC
  5
51F
330
1F
100
AcDbEntity
  8
STANDARD
  6
IMPORT
 62
     7
100
AcDbCircle
 10
2219.479497902321
 20
1833.286607200171
 30
0.0
 40
2.0
100
AcDbArc
 50
90.0
 51
180.0
  0
LINE
  5
520
330
1F
100
AcDbEntity
  8
STANDARD
  6
IMPORT
 62
     7
100
AcDbLine
 10
2217.479497902322
 20
1816.786607200171
 30
0.0
 11
2204.479497902322
 21
1816.786607200171
 31
0.0
  0
LINE
  5
521
330
1F
100
AcDbEntity
  8
STANDARD
  6
IMPORT
 62
     7
100
AcDbLine
 10
2219.479497902321
 20
1835.286607200171
 30
0.0
 11
2229.479497902322
 21
1835.286607200171
 31
0.0
  0
LINE
  5
522
330
1F
100
AcDbEntity
  8
STANDARD
  6
IMPORT
 62
     7
100
AcDbLine
 10
2217.479497902322
 20
2356.78660720017
 30
0.0
 11
2172.479497902322
 21
2356.78660720017
 31
0.0
  0
LINE
  5
523
330
1F
100
AcDbEntity
  8
STANDARD
  6
IMPORT
 62
     7
100
AcDbLine
 10
2217.479497902322
 20
2389.786607200169
 30
0.0
 11
2172.479497902322
 21
2389.786607200169
 31
0.0
  0
LINE
  5
524
330
1F
100
AcDbEntity
  8
STANDARD
  6
IMPORT
 62
     7
100
AcDbLine
 10
2155.979497902321
 20
2373.286607200169
 30
0.0
 11
2172.479497902322
 21
2389.786607200169
 31
0.0
  0
LINE
  5
525
330
1F
100
AcDbEntity
  8
STANDARD
  6
IMPORT
 62
     7
100
AcDbLine
 10
2172.479497902322
 20
2356.78660720017
 30
0.0
 11
2155.979497902321
 21
2373.286607200169
 31
0.0
  0
ARC
  5
526
330
1F
100
AcDbEntity
  8
STANDARD
  6
IMPORT
 62
     7
100
AcDbCircle
 10
2219.479497902321
 20
2340.286607200169
 30
0.0
 40
2.0
100
AcDbArc
 50
180.0
 51
270.0
  0
LINE
  5
527
330
1F
100
AcDbEntity
  8
STANDARD
  6
IMPORT
 62
     7
100
AcDbLine
 10
2219.479497902321
 20
2338.286607200169
 30
0.0
 11
2229.479497902322
 21
2338.286607200169
 31
0.0
  0
LINE
  5
528
330
1F
100
AcDbEntity
  8
STANDARD
  6
IMPORT
 62
     7
100
AcDbLine
 10
2550.096134021529
 20
2841.286607212171
 30
0.0000000000000135
 11
2501.59613402153
 21
2841.286607212171
 31
0.0000000000000046
210
0.0
220
1.0
230
0.0
  0
LINE
  5
529
330
1F
100
AcDbEntity
  8
STANDARD
  6
IMPORT
 62
     7
100
AcDbLine
 10
2501.59613402153
 20
2808.286607212171
 30
0.0000000000000046
 11
2550.096134021529
 21
2808.286607212171
 31
0.0000000000000135
210
0.0
220
1.0
230
0.0
  0
LINE
  5
52A
330
1F
100
AcDbEntity
  8
STANDARD
  6
IMPORT
 62
     7
100
AcDbLine
 10
2488.59613402153
 20
2956.286607212171
 30
0.0000000000000022
 11
2533.59613402153
 21
2956.286607212171
 31
0.0000000000000105
210
0.0
220
1.0
230
0.0
  0
LINE
  5
52B
330
1F
100
AcDbEntity
  8
STANDARD
  6
IMPORT
 62
     7
100
AcDbLine
 10
2488.59613402153
 20
2923.286607212171
 30
0.0000000000000022
 11
2533.59613402153
 21
2923.286607212171
 31
0.0000000000000105
210
0.0
220
1.0
230
0.0
  0
ARC
  5
52C
330
1F
100
AcDbEntity
  8
STANDARD
  6
STANDARD
 62
     7
100
AcDbCircle
 10
1890.479511054627
 20
2937.053405333142
 30
0.0
 40
35.00001505965235
100
AcDbArc
 50
120.0000142334032
 51
239.9999857665966
  0
ARC
  5
52D
330
1F
100
AcDbEntity
  8
STANDARD
  6
STANDARD
 62
     7
100
AcDbCircle
 10
1890.479504665126
 20
2937.053405333142
 30
0.0
 40
35.00000319474827
100
AcDbArc
 50
299.9999805915931
 51
60.00001940840675
  0
LINE
  5
52E
330
1F
100
AcDbEntity
  8
STANDARD
  6
IMPORT
 62
     7
100
AcDbLine
 10
2488.59613402153
 20
2906.786607212169
 30
0.0000000000000022
 11
2488.59613402153
 21
2939.786607212171
 31
0.0000000000000022
210
0.0
220
1.0
230
0.0
  0
LINE
  5
52F
330
1F
100
AcDbEntity
  8
STANDARD
  6
IMPORT
 62
     7
100
AcDbLine
 10
2476.59613402153
 20
2904.786607212171
 30
0.0
 11
2476.59613402153
 21
2939.786607212171
 31
0.0
210
0.0
220
1.0
230
0.0
  0
LINE
  5
530
330
1F
100
AcDbEntity
  8
STANDARD
  6
STANDARD
 62
     7
100
AcDbLine
 10
1920.479495994973
 20
2805.553390074356
 30
0.0
 11
2215.979518883156
 21
2805.553390074354
 31
0.0
  0
LINE
  5
531
330
1F
100
AcDbEntity
  8
STANDARD
  6
STANDARD
 62
     7
100
AcDbLine
 10
2146.070232384132
 20
2835.242835569959
 30
0.0
 11
2148.15198897593
 21
2836.413642454726
 31
0.0
  0
LINE
  5
532
330
1F
100
AcDbEntity
  8
STANDARD
  6
STANDARD
 62
     7
100
AcDbLine
 10
2145.97949980967
 20
2808.925353575329
 30
0.0
 11
2146.624889366554
 21
2808.58683733998
 31
0.0
  0
ARC
  5
533
330
1F
100
AcDbEntity
  8
STANDARD
  6
STANDARD
 62
     7
100
AcDbCircle
 10
2155.979485693785
 20
2822.051477254515
 30
0.0
 40
16.4999735692057
100
AcDbArc
 50
97.21760870570314
 51
178.232571468437
  0
LINE
  5
534
330
1F
100
AcDbEntity
  8
STANDARD
  6
STANDARD
 62
     7
100
AcDbLine
 10
2041.359338753152
 20
2838.437568235976
 30
0.0
 11
2215.979518883156
 21
2838.420707274062
 31
0.0
  0
ARC
  5
535
330
1F
100
AcDbEntity
  8
STANDARD
  6
STANDARD
 62
     7
100
AcDbCircle
 10
2155.979655240777
 20
2822.051565202464
 30
0.0
 40
16.50014032326277
100
AcDbArc
 50
178.2328948755925
 51
269.1156972730845
  0
ARC
  5
536
330
1F
100
AcDbEntity
  8
STANDARD
  6
IMPORT
 62
     7
100
AcDbCircle
 10
2107.479497902321
 20
2440.28660720017
 30
0.0
 40
65.0
100
AcDbArc
 50
0.0
 51
90.0
  0
LINE
  5
537
330
1F
100
AcDbEntity
  8
STANDARD
  6
IMPORT
 62
     7
100
AcDbLine
 10
2023.979497902322
 20
2505.28660720017
 30
0.0
 11
1920.479495994971
 21
2505.28660720017
 31
0.0
  0
LINE
  5
539
330
1F
100
AcDbEntity
  8
STANDARD
  6
IMPORT
 62
     7
100
AcDbLine
 10
1906.979497902321
 20
2508.771424257339
 30
0.0
 11
1906.979497902321
 21
2537.28660720017
 31
0.0
  0
LINE
  5
583
330
1F
100
AcDbEntity
  8
STANDARD
  6
IMPORT
 62
     7
100
AcDbLine
 10
1857.479497902319
 20
2550.286607200169
 30
0.0
 11
1923.479497902321
 21
2550.286607200169
 31
0.0
  0
LINE
  5
584
330
1F
100
AcDbEntity
  8
STANDARD
  6
IMPORT
 62
     7
100
AcDbLine
 10
1855.479497902321
 20
2562.286607200169
 30
0.0
 11
1925.479497902321
 21
2562.286607200169
 31
0.0
  0
ARC
  5
585
330
1F
100
AcDbEntity
  8
STANDARD
  6
IMPORT
 62
     7
100
AcDbCircle
 10
1857.479497902319
 20
2552.286607200171
 30
0.0
 40
2.0
100
AcDbArc
 50
180.0
 51
270.0
  0
LINE
  5
586
330
1F
100
AcDbEntity
  8
STANDARD
  6
IMPORT
 62
     7
100
AcDbLine
 10
1855.479497902321
 20
2552.286607200171
 30
0.0
 11
1855.479497902321
 21
2562.286607200169
 31
0.0
  0
LINE
  5
587
330
1F
100
AcDbEntity
  8
STANDARD
  6
IMPORT
 62
     7
100
AcDbLine
 10
1906.979497902321
 20
2550.286607200169
 30
0.0
 11
1906.979497902321
 21
2537.28660720017
 31
0.0
  0
LINE
  5
588
330
1F
100
AcDbEntity
  8
STANDARD
  6
IMPORT
 62
     7
100
AcDbLine
 10
1873.979497902322
 20
2550.286607200169
 30
0.0
 11
1873.97949790232
 21
2508.801790143528
 31
0.0
  0
ARC
  5
589
330
1F
100
AcDbEntity
  8
STANDARD
  6
IMPORT
 62
     7
100
AcDbCircle
 10
1923.479497902321
 20
2552.286607200171
 30
0.0
 40
2.0
100
AcDbArc
 50
270.0
 51
0.0
  0
LINE
  5
58A
330
1F
100
AcDbEntity
  8
STANDARD
  6
IMPORT
 62
     7
100
AcDbLine
 10
1925.479497902321
 20
2552.286607200171
 30
0.0
 11
1925.479497902321
 21
2562.286607200169
 31
0.0
  0
LINE
  5
58B
330
1F
100
AcDbEntity
  8
STANDARD
  6
IMPORT
 62
     7
100
AcDbLine
 10
2056.979497902321
 20
2550.286607200169
 30
0.0
 11
2056.979497902321
 21
2505.28660720017
 31
0.0
  0
LINE
  5
58C
330
1F
100
AcDbEntity
  8
STANDARD
  6
IMPORT
 62
     7
100
AcDbLine
 10
2023.979497902322
 20
2550.286607200169
 30
0.0
 11
2023.979497902322
 21
2505.28660720017
 31
0.0
  0
LINE
  5
58D
330
1F
100
AcDbEntity
  8
STANDARD
  6
IMPORT
 62
     7
100
AcDbLine
 10
2040.479497902321
 20
2488.786607200172
 30
0.0
 11
2056.979497902321
 21
2505.28660720017
 31
0.0
  0
LINE
  5
58E
330
1F
100
AcDbEntity
  8
STANDARD
  6
IMPORT
 62
     7
100
AcDbLine
 10
2023.979497902322
 20
2505.28660720017
 30
0.0
 11
2040.479497902321
 21
2488.786607200172
 31
0.0
  0
ARC
  5
58F
330
1F
100
AcDbEntity
  8
STANDARD
  6
IMPORT
 62
     7
100
AcDbCircle
 10
2107.479497902321
 20
2440.28660720017
 30
0.0
 40
32.0
100
AcDbArc
 50
0.0
 51
90.0
  0
LINE
  5
590
330
1F
100
AcDbEntity
  8
STANDARD
  6
IMPORT
 62
     7
100
AcDbLine
 10
2107.479497902321
 20
2505.28660720017
 30
0.0
 11
2056.979497902321
 21
2505.28660720017
 31
0.0
  0
LINE
  5
591
330
1F
100
AcDbEntity
  8
STANDARD
  6
IMPORT
 62
     7
100
AcDbLine
 10
2007.479497902321
 20
2550.286607200169
 30
0.0
 11
2073.479497902321
 21
2550.286607200169
 31
0.0
  0
LINE
  5
592
330
1F
100
AcDbEntity
  8
STANDARD
  6
IMPORT
 62
     7
100
AcDbLine
 10
2005.47949790232
 20
2562.286607200169
 30
0.0
 11
2075.479497902321
 21
2562.286607200169
 31
0.0
  0
ARC
  5
593
330
1F
100
AcDbEntity
  8
STANDARD
  6
IMPORT
 62
     7
100
AcDbCircle
 10
2007.479497902321
 20
2552.286607200171
 30
0.0
 40
2.0
100
AcDbArc
 50
180.0
 51
270.0
  0
LINE
  5
594
330
1F
100
AcDbEntity
  8
STANDARD
  6
IMPORT
 62
     7
100
AcDbLine
 10
2005.47949790232
 20
2552.286607200171
 30
0.0
 11
2005.47949790232
 21
2562.286607200169
 31
0.0
  0
ARC
  5
595
330
1F
100
AcDbEntity
  8
STANDARD
  6
IMPORT
 62
     7
100
AcDbCircle
 10
2073.479497902321
 20
2552.286607200171
 30
0.0
 40
2.0
100
AcDbArc
 50
270.0
 51
0.0
  0
LINE
  5
596
330
1F
100
AcDbEntity
  8
STANDARD
  6
IMPORT
 62
     7
100
AcDbLine
 10
2075.479497902321
 20
2552.286607200171
 30
0.0
 11
2075.479497902321
 21
2562.286607200169
 31
0.0
  0
LINE
  5
597
330
1F
100
AcDbEntity
  8
STANDARD
  6
STANDARD
 62
     7
100
AcDbLine
 10
1920.479495994973
 20
2838.498044363651
 30
0.0
 11
2040.188989632058
 21
2838.515159178358
 31
0.0
  0
LINE
  5
598
330
1F
100
AcDbEntity
  8
STANDARD
  6
STANDARD
 62
     7
100
AcDbLine
 10
1860.479495994973
 20
2844.049789000136
 30
0.0
 11
1873.979518883156
 21
2844.049789000136
 31
0.0
  0
LINE
  5
599
330
1F
100
AcDbEntity
  8
STANDARD
  6
STANDARD
 62
     7
100
AcDbLine
 10
1860.479495994973
 20
2800.049773741345
 30
0.0
 11
1920.479495994973
 21
2800.049773741345
 31
0.0
  0
LINE
  5
59A
330
1F
100
AcDbEntity
  8
STANDARD
  6
STANDARD
 62
     7
100
AcDbLine
 10
1860.479495994973
 20
2800.049773741345
 30
0.0
 11
1860.479495994973
 21
2844.049789000136
 31
0.0
  0
LINE
  5
59B
330
1F
100
AcDbEntity
  8
STANDARD
  6
STANDARD
 62
     7
100
AcDbLine
 10
1906.979511253761
 20
2844.049789000136
 30
0.0
 11
1906.979511253761
 21
2868.049804258925
 31
0.0
  0
LINE
  5
59C
330
1F
100
AcDbEntity
  8
STANDARD
  6
STANDARD
 62
     7
100
AcDbLine
 10
1873.979518883156
 20
2844.049789000136
 30
0.0
 11
1873.979518883156
 21
2868.049804258925
 31
0.0
  0
LINE
  5
59D
330
1F
100
AcDbEntity
  8
STANDARD
  6
STANDARD
 62
     7
100
AcDbLine
 10
1906.979511253761
 20
2844.049789000136
 30
0.0
 11
1920.479495994973
 21
2844.049789000136
 31
0.0
  0
LINE
  5
59E
330
1F
100
AcDbEntity
  8
STANDARD
  6
STANDARD
 62
     7
100
AcDbLine
 10
1906.417301170754
 20
2843.487578917128
 30
0.0
 11
1906.979511253761
 21
2844.049789000136
 31
0.0
  0
LINE
  5
59F
330
1F
100
AcDbEntity
  8
STANDARD
  6
STANDARD
 62
     7
100
AcDbLine
 10
1898.729503624366
 20
2838.578292418105
 30
0.0
 11
1902.146747581887
 21
2840.590316343886
 31
0.0
  0
LINE
  5
5A0
330
1F
100
AcDbEntity
  8
STANDARD
  6
STANDARD
 62
     7
100
AcDbLine
 10
1902.658756248879
 20
2841.102363157851
 30
0.0
 11
1904.768932335305
 21
2842.241431761367
 31
0.0
  0
LINE
  5
5A1
330
1F
100
AcDbEntity
  8
STANDARD
  6
STANDARD
 62
     7
100
AcDbLine
 10
1894.750011436866
 20
2837.10906176625
 30
0.0
 11
1895.670879356788
 21
2837.60611681996
 31
0.0
  0
LINE
  5
5A2
330
1F
100
AcDbEntity
  8
STANDARD
  6
STANDARD
 62
     7
100
AcDbLine
 10
1895.670879356788
 20
2837.60611681996
 30
0.0
 11
1898.729503624366
 21
2838.578292418105
 31
0.0
  0
LINE
  5
5A3
330
1F
100
AcDbEntity
  8
STANDARD
  6
STANDARD
 62
     7
100
AcDbLine
 10
1905.827625267434
 20
2843.300162840468
 30
0.0
 11
1906.417301170754
 21
2843.487578917128
 31
0.0
  0
LINE
  5
5A4
330
1F
100
AcDbEntity
  8
STANDARD
  6
STANDARD
 62
     7
100
AcDbLine
 10
1890.479495994973
 20
2836.376334715469
 30
0.0
 11
1894.750011436866
 21
2837.10906176625
 31
0.0
  0
LINE
  5
5A5
330
1F
100
AcDbEntity
  8
STANDARD
  6
STANDARD
 62
     7
100
AcDbLine
 10
1886.208980553077
 20
2837.10906176625
 30
0.0
 11
1890.479495994973
 21
2836.376334715469
 31
0.0
  0
LINE
  5
5A6
330
1F
100
AcDbEntity
  8
STANDARD
  6
STANDARD
 62
     7
100
AcDbLine
 10
1885.288150780129
 20
2837.60611681996
 30
0.0
 11
1886.208980553077
 21
2837.10906176625
 31
0.0
  0
LINE
  5
5A7
330
1F
100
AcDbEntity
  8
STANDARD
  6
STANDARD
 62
     7
100
AcDbLine
 10
1904.768932335305
 20
2842.241431761367
 30
0.0
 11
1905.827625267434
 21
2843.300162840468
 31
0.0
  0
LINE
  5
5A8
330
1F
100
AcDbEntity
  8
STANDARD
  6
STANDARD
 62
     7
100
AcDbLine
 10
1902.146747581887
 20
2840.590316343886
 30
0.0
 11
1902.658756248879
 21
2841.102363157851
 31
0.0
  0
LINE
  5
5A9
330
1F
100
AcDbEntity
  8
STANDARD
  6
STANDARD
 62
     7
100
AcDbLine
 10
1878.300235741066
 20
2841.102363157851
 30
0.0
 11
1878.812244408059
 21
2840.590316343886
 31
0.0
  0
LINE
  5
5AA
330
1F
100
AcDbEntity
  8
STANDARD
  6
STANDARD
 62
     7
100
AcDbLine
 10
1874.541728966163
 20
2843.487578917128
 30
0.0
 11
1875.131366722511
 21
2843.300162840468
 31
0.0
  0
LINE
  5
5AB
330
1F
100
AcDbEntity
  8
STANDARD
  6
STANDARD
 62
     7
100
AcDbLine
 10
1876.190097801614
 20
2842.241431761367
 30
0.0
 11
1878.300235741066
 21
2841.102363157851
 31
0.0
  0
LINE
  5
5AC
330
1F
100
AcDbEntity
  8
STANDARD
  6
STANDARD
 62
     7
100
AcDbLine
 10
1878.812244408059
 20
2840.590316343886
 30
0.0
 11
1882.229488365577
 21
2838.578292418105
 31
0.0
  0
LINE
  5
5AD
330
1F
100
AcDbEntity
  8
STANDARD
  6
STANDARD
 62
     7
100
AcDbLine
 10
1875.131366722511
 20
2843.300162840468
 30
0.0
 11
1876.190097801614
 21
2842.241431761367
 31
0.0
  0
LINE
  5
5AE
330
1F
100
AcDbEntity
  8
STANDARD
  6
STANDARD
 62
     7
100
AcDbLine
 10
1873.979518883156
 20
2844.049789000136
 30
0.0
 11
1874.541728966163
 21
2843.487578917128
 31
0.0
  0
LINE
  5
5AF
330
1F
100
AcDbEntity
  8
STANDARD
  6
STANDARD
 62
     7
100
AcDbLine
 10
1882.229488365577
 20
2838.578292418105
 30
0.0
 11
1885.288150780129
 21
2837.60611681996
 31
0.0
  0
LINE
  5
5B0
330
1F
100
AcDbEntity
  8
STANDARD
  6
STANDARD
 62
     7
100
AcDbLine
 10
1920.479495994973
 20
2800.049773741345
 30
0.0
 11
1920.479495994973
 21
2844.049789000136
 31
0.0
  0
LINE
  5
5B1
330
1F
100
AcDbEntity
  8
STANDARD
  6
STANDARD
 62
     7
100
AcDbLine
 10
1906.888721458839
 20
2906.233893919569
 30
0.0
 11
1907.979495994973
 21
2906.742507505995
 31
0.0
  0
LINE
  5
5B2
330
1F
100
AcDbEntity
  8
STANDARD
  6
STANDARD
 62
     7
100
AcDbLine
 10
1872.979495994973
 20
2906.742507505995
 30
0.0
 11
1874.115398399758
 21
2906.212836790663
 31
0.0
  0
LINE
  5
5B3
330
1F
100
AcDbEntity
  8
STANDARD
  6
STANDARD
 62
     7
100
AcDbLine
 10
1873.979518883156
 20
2868.049804258925
 30
0.0
 11
1906.979511253761
 21
2868.049804258925
 31
0.0
  0
ARC
  5
5B4
330
1F
100
AcDbEntity
  8
STANDARD
  6
STANDARD
 62
     7
100
AcDbCircle
 10
2040.479497902321
 20
2822.053403874667
 30
0.0
 40
34.99999854152521
100
AcDbArc
 50
209.9999986215569
 51
330.000001378443
  0
ARC
  5
5B5
330
1F
100
AcDbEntity
  8
STANDARD
  6
STANDARD
 62
     7
100
AcDbCircle
 10
2040.479497902321
 20
2822.053406791619
 30
0.0
 40
34.99999854152521
100
AcDbArc
 50
29.99999862155693
 51
150.0000013784429
  0
LINE
  5
5B6
330
1F
100
AcDbEntity
  8
STANDARD
  6
STANDARD
 62
     7
100
AcDbLine
 10
2040.188989632058
 20
2838.515159178358
 30
0.0
 11
2040.479507439064
 21
2838.553420591933
 31
0.0
  0
LINE
  5
5B7
330
1F
100
AcDbEntity
  8
STANDARD
  6
STANDARD
 62
     7
100
AcDbLine
 10
2039.460954658913
 20
2838.419295836074
 30
0.0
 11
2040.479507439064
 21
2838.553420591933
 31
0.0
  0
LINE
  5
5B8
330
1F
100
AcDbEntity
  8
STANDARD
  6
STANDARD
 62
     7
100
AcDbLine
 10
2040.479507439064
 20
2838.553420591933
 30
0.0
 11
2041.498060219216
 21
2838.419295836074
 31
0.0
  0
LINE
  5
5B9
330
1F
100
AcDbEntity
  8
STANDARD
  6
STANDARD
 62
     7
100
AcDbLine
 10
2009.648294441628
 20
2838.437568235976
 30
0.0
 11
2010.168609611916
 21
2839.553405333143
 31
0.0
  0
LINE
  5
5BA
330
1F
100
AcDbEntity
  8
STANDARD
  6
STANDARD
 62
     7
100
AcDbLine
 10
2009.70231055491
 20
2805.553390074354
 30
0.0
 11
2010.168609611916
 21
2804.553405333142
 31
0.0
  0
LINE
  5
5BB
330
1F
100
AcDbEntity
  8
STANDARD
  6
STANDARD
 62
     7
100
AcDbLine
 10
2070.790386192727
 20
2839.553405333143
 30
0.0
 11
2071.310710899758
 21
2838.437568235976
 31
0.0
  0
LINE
  5
5BC
330
1F
100
AcDbEntity
  8
STANDARD
  6
STANDARD
 62
     7
100
AcDbLine
 10
2070.790386192727
 20
2804.553405333142
 30
0.0
 11
2071.256694786477
 21
2805.553390074354
 31
0.0
  0
LINE
  5
5BE
330
1F
100
AcDbEntity
  8
STANDARD
  6
STANDARD
 62
     7
100
AcDbLine
 10
2145.782375328467
 20
2834.960280943496
 30
0.0
 11
2146.070232384132
 21
2835.242835569959
 31
0.0
  0
LINE
  5
5BF
330
1F
100
AcDbEntity
  8
STANDARD
  6
STANDARD
 62
     7
100
AcDbLine
 10
2142.973384849953
 20
2832.203170347792
 30
0.0
 11
2144.444351189064
 21
2833.646956968886
 31
0.0
  0
LINE
  5
5C0
330
1F
100
AcDbEntity
  8
STANDARD
  6
STANDARD
 62
     7
100
AcDbLine
 10
2144.245281212258
 20
2810.496856260879
 30
0.0
 11
2144.402580254006
 21
2810.294524717908
 31
0.0
  0
LINE
  5
5C1
330
1F
100
AcDbEntity
  8
STANDARD
  6
STANDARD
 62
     7
100
AcDbLine
 10
2145.069770805763
 20
2834.429961729628
 30
0.0
 11
2145.28421401255
 21
2834.570762205703
 31
0.0
  0
LINE
  5
5C2
330
1F
100
AcDbEntity
  8
STANDARD
  6
STANDARD
 62
     7
100
AcDbLine
 10
2142.244453422951
 20
2813.126937437636
 30
0.0
 11
2142.90369033091
 21
2811.986342955211
 31
0.0
  0
LINE
  5
5C3
330
1F
100
AcDbEntity
  8
STANDARD
  6
STANDARD
 62
     7
100
AcDbLine
 10
2142.684535973
 20
2831.711226988417
 30
0.0
 11
2142.973384849953
 21
2832.203170347792
 31
0.0
  0
LINE
  5
5C4
330
1F
100
AcDbEntity
  8
STANDARD
  6
STANDARD
 62
     7
100
AcDbLine
 10
2144.402580254006
 20
2810.294524717908
 30
0.0
 11
2145.229511253762
 21
2809.671737242324
 31
0.0
  0
LINE
  5
5C5
330
1F
100
AcDbEntity
  8
STANDARD
  6
STANDARD
 62
     7
100
AcDbLine
 10
2144.174957268166
 20
2833.382522154433
 30
0.0
 11
2145.069770805763
 21
2834.429961729628
 31
0.0
  0
LINE
  5
5C6
330
1F
100
AcDbEntity
  8
STANDARD
  6
STANDARD
 62
     7
100
AcDbLine
 10
2142.049007408547
 20
2830.894042540176
 30
0.0
 11
2142.215633385109
 21
2831.089049864392
 31
0.0
  0
LINE
  5
5C7
330
1F
100
AcDbEntity
  8
STANDARD
  6
STANDARD
 62
     7
100
AcDbLine
 10
2145.047225944924
 20
2809.853164244275
 30
0.0
 11
2145.97949980967
 21
2808.925353575329
 31
0.0
  0
LINE
  5
5C8
330
1F
100
AcDbEntity
  8
STANDARD
  6
STANDARD
 62
     7
100
AcDbLine
 10
2142.90369033091
 20
2811.986342955211
 30
0.0
 11
2143.532676689551
 21
2811.360427427871
 31
0.0
  0
LINE
  5
5C9
330
1F
100
AcDbEntity
  8
STANDARD
  6
STANDARD
 62
     7
100
AcDbLine
 10
2139.479503624368
 20
2822.051421690566
 30
0.0
 11
2139.514274589943
 21
2822.295714903457
 31
0.0
  0
LINE
  5
5CA
330
1F
100
AcDbEntity
  8
STANDARD
  6
STANDARD
 62
     7
100
AcDbLine
 10
2140.018978111672
 20
2817.739974547011
 30
0.0
 11
2140.052757255959
 21
2817.993957090957
 31
0.0
  0
LINE
  5
5CB
330
1F
100
AcDbEntity
  8
STANDARD
  6
STANDARD
 62
     7
100
AcDbLine
 10
2141.633720390723
 20
2813.728057432753
 30
0.0
 11
2141.732692711281
 21
2813.964416075332
 31
0.0
  0
LINE
  5
5CC
330
1F
100
AcDbEntity
  8
STANDARD
  6
STANDARD
 62
     7
100
AcDbLine
 10
2139.627208702492
 20
2823.364287901503
 30
0.0
 11
2139.630355827736
 21
2824.275847960097
 31
0.0
  0
LINE
  5
5CD
330
1F
100
AcDbEntity
  8
STANDARD
  6
STANDARD
 62
     7
100
AcDbLine
 10
2139.615402214456
 20
2819.936477232558
 30
0.0
 11
2139.619941704201
 21
2821.256438780407
 31
0.0
  0
LINE
  5
5CE
330
1F
100
AcDbEntity
  8
STANDARD
  6
STANDARD
 62
     7
100
AcDbLine
 10
2140.732250206399
 20
2815.743361998183
 30
0.0
 11
2141.172523491311
 21
2814.981566954238
 31
0.0
  0
LINE
  5
5CF
330
1F
100
AcDbEntity
  8
STANDARD
  6
STANDARD
 62
     7
100
AcDbLine
 10
2140.052757255959
 20
2817.739974547011
 30
0.0
 11
2140.458583824563
 21
2816.770812559706
 31
0.0
  0
LINE
  5
5D0
330
1F
100
AcDbEntity
  8
STANDARD
  6
STANDARD
 62
     7
100
AcDbLine
 10
2140.392799370216
 20
2817.017776060683
 30
0.0
 11
2140.732250206399
 21
2815.743361998183
 31
0.0
  0
LINE
  5
5D1
330
1F
100
AcDbEntity
  8
STANDARD
  6
STANDARD
 62
     7
100
AcDbLine
 10
2139.615402214456
 20
2819.936477232558
 30
0.0
 11
2139.839839928078
 21
2819.093810606579
 31
0.0
  0
LINE
  5
5D2
330
1F
100
AcDbEntity
  8
STANDARD
  6
STANDARD
 62
     7
100
AcDbLine
 10
2139.479503624368
 20
2822.051421690566
 30
0.0
 11
2139.61906432383
 21
2821.001769590957
 31
0.0
  0
LINE
  5
5D3
330
1F
100
AcDbEntity
  8
STANDARD
  6
STANDARD
 62
     7
100
AcDbLine
 10
2139.975738518166
 20
2825.53752093373
 30
0.0
 11
2140.134887688088
 21
2826.655608702285
 31
0.0
  0
LINE
  5
5D4
330
1F
100
AcDbEntity
  8
STANDARD
  6
STANDARD
 62
     7
100
AcDbLine
 10
2140.58082579844
 20
2827.747832823378
 30
0.0
 11
2140.776100151466
 21
2828.461257505995
 31
0.0
  0
LINE
  5
5D5
330
1F
100
AcDbEntity
  8
STANDARD
  6
STANDARD
 62
     7
100
AcDbLine
 10
2139.630355827736
 20
2824.275847960097
 30
0.0
 11
2140.056819908547
 21
2825.833694029433
 31
0.0
  0
LINE
  5
5D6
330
1F
100
AcDbEntity
  8
STANDARD
  6
STANDARD
 62
     7
100
AcDbLine
 10
2140.134887688088
 20
2826.655608702285
 30
0.0
 11
2140.240478508399
 21
2826.889449644667
 31
0.0
  0
LINE
  5
5D7
330
1F
100
AcDbEntity
  8
STANDARD
  6
STANDARD
 62
     7
100
AcDbLine
 10
2140.776100151466
 20
2828.461257505995
 30
0.0
 11
2141.698188774512
 21
2830.031539488418
 31
0.0
  0
LINE
  5
5D8
330
1F
100
AcDbEntity
  8
STANDARD
  6
STANDARD
 62
     7
100
AcDbLine
 10
2141.732692711281
 20
2813.728057432753
 30
0.0
 11
2142.372779838967
 21
2812.904922056775
 31
0.0
  0
LINE
  5
5D9
330
1F
100
AcDbEntity
  8
STANDARD
  6
STANDARD
 62
     7
100
AcDbLine
 10
2141.530609123635
 20
2829.746123839004
 30
0.0
 11
2142.049007408547
 21
2830.894042540176
 31
0.0
  0
ARC
  5
5DA
330
1F
100
AcDbEntity
  8
STANDARD
  6
IMPORT
 62
     7
100
AcDbCircle
 10
2219.479497902321
 20
2406.286607200172
 30
0.0
 40
2.0
100
AcDbArc
 50
90.0
 51
180.0
  0
LINE
  5
5DB
330
1F
100
AcDbEntity
  8
STANDARD
  6
IMPORT
 62
     7
100
AcDbLine
 10
2219.479497902321
 20
2408.28660720017
 30
0.0
 11
2229.479497902322
 21
2408.28660720017
 31
0.0
  0
LINE
  5
5DC
330
1F
100
AcDbEntity
  8
STANDARD
  6
STANDARD
 62
     7
100
AcDbLine
 10
2229.479503624367
 20
2787.053405333142
 30
0.0
 11
2229.479503624367
 21
2857.053405333142
 31
0.0
  0
LINE
  5
5DD
330
1F
100
AcDbEntity
  8
STANDARD
  6
STANDARD
 62
     7
100
AcDbLine
 10
2215.979518883156
 20
2787.053405333142
 30
0.0
 11
2215.979518883156
 21
2857.053405333142
 31
0.0
  0
LINE
  5
5DE
330
1F
100
AcDbEntity
  8
STANDARD
  6
STANDARD
 62
     7
100
AcDbLine
 10
2215.979518883156
 20
2787.053405333142
 30
0.0
 11
2229.479503624367
 21
2787.053405333142
 31
0.0
  0
LINE
  5
5DF
330
1F
100
AcDbEntity
  8
STANDARD
  6
STANDARD
 62
     7
100
AcDbLine
 10
2155.979499809669
 20
2838.553420591933
 30
0.0
 11
2215.979518883156
 21
2838.553420591933
 31
0.0
  0
LINE
  5
5E0
330
1F
100
AcDbEntity
  8
STANDARD
  6
STANDARD
 62
     7
100
AcDbLine
 10
2148.957214348244
 20
2836.982528257949
 30
0.0
 11
2149.202442161965
 21
2837.057906675918
 31
0.0
  0
LINE
  5
5E1
330
1F
100
AcDbEntity
  8
STANDARD
  6
STANDARD
 62
     7
100
AcDbLine
 10
2147.72562026255
 20
2836.173850584609
 30
0.0
 11
2148.957214348244
 21
2836.982528257949
 31
0.0
  0
LINE
  5
5E2
330
1F
100
AcDbEntity
  8
STANDARD
  6
STANDARD
 62
     7
100
AcDbLine
 10
2149.645099632667
 20
2837.253409910781
 30
0.0
 11
2149.852447502541
 21
2837.369987059219
 31
0.0
  0
LINE
  5
5E3
330
1F
100
AcDbEntity
  8
STANDARD
  6
STANDARD
 62
     7
100
AcDbLine
 10
2151.948699943948
 20
2837.902061033828
 30
0.0
 11
2153.40251921885
 21
2838.348952818495
 31
0.0
  0
LINE
  5
5E4
330
1F
100
AcDbEntity
  8
STANDARD
  6
STANDARD
 62
     7
100
AcDbLine
 10
2149.852447502541
 20
2837.369987059219
 30
0.0
 11
2152.827186577248
 21
2838.125068235976
 31
0.0
  0
LINE
  5
5E5
330
1F
100
AcDbEntity
  8
STANDARD
  6
STANDARD
 62
     7
100
AcDbLine
 10
2155.979499809669
 20
2838.553420591933
 30
0.0
 11
2156.987514488625
 21
2838.420707274062
 31
0.0
  0
LINE
  5
5E6
330
1F
100
AcDbEntity
  8
STANDARD
  6
STANDARD
 62
     7
100
AcDbLine
 10
2151.676349632668
 20
2806.155425596815
 30
0.0
 11
2151.914215080666
 21
2806.060058165175
 31
0.0
  0
LINE
  5
5E7
330
1F
100
AcDbEntity
  8
STANDARD
  6
STANDARD
 62
     7
100
AcDbLine
 10
2150.866355888771
 20
2806.362029600722
 30
0.0
 11
2151.123447410987
 21
2806.323958922011
 31
0.0
  0
LINE
  5
5E8
330
1F
100
AcDbEntity
  8
STANDARD
  6
STANDARD
 62
     7
100
AcDbLine
 10
2151.914215080666
 20
2806.060058165175
 30
0.0
 11
2153.823509209084
 21
2805.836135435683
 31
0.0
  0
LINE
  5
5E9
330
1F
100
AcDbEntity
  8
STANDARD
  6
STANDARD
 62
     7
100
AcDbLine
 10
2147.876892082619
 20
2807.677947569472
 30
0.0
 11
2149.661331169534
 21
2806.962844420058
 31
0.0
  0
LINE
  5
5EA
330
1F
100
AcDbEntity
  8
STANDARD
  6
STANDARD
 62
     7
100
AcDbLine
 10
2150.01815795176
 20
2806.806975889784
 30
0.0
 11
2150.866355888771
 21
2806.362029600722
 31
0.0
  0
LINE
  5
5EB
330
1F
100
AcDbEntity
  8
STANDARD
  6
STANDARD
 62
     7
100
AcDbLine
 10
2147.672195427344
 20
2807.832137632949
 30
0.0
 11
2147.876892082619
 21
2807.677947569472
 31
0.0
  0
LINE
  5
5EC
330
1F
100
AcDbEntity
  8
STANDARD
  6
STANDARD
 62
     7
100
AcDbLine
 10
2215.979518883156
 20
2857.053405333142
 30
0.0
 11
2229.479503624367
 21
2857.053405333142
 31
0.0
  0
ARC
  5
5EE
330
1F
100
AcDbEntity
  8
STANDARD
  6
IMPORT
 62
     7
100
AcDbCircle
 10
2486.59613402153
 20
2791.786607212171
 30
0.0000000000000018
 40
2.0
100
AcDbArc
 50
270.0
 51
0.0
  0
LINE
  5
5EF
330
1F
100
AcDbEntity
  8
STANDARD
  6
IMPORT
 62
     7
100
AcDbLine
 10
2476.59613402153
 20
2789.786607212171
 30
0.0
 11
2476.59613402153
 21
2824.786607212171
 31
0.0
210
0.0
220
1.0
230
0.0
  0
LINE
  5
5F0
330
1F
100
AcDbEntity
  8
STANDARD
  6
IMPORT
 62
     7
100
AcDbLine
 10
2486.59613402153
 20
2789.786607212171
 30
0.0000000000000018
 11
2476.59613402153
 21
2789.786607212171
 31
0.0
210
0.0
220
1.0
230
0.0
  0
LINE
  5
5F1
330
1F
100
AcDbEntity
  8
STANDARD
  6
IMPORT
 62
     7
100
AcDbLine
 10
2488.59613402153
 20
2824.786607212171
 30
0.0000000000000022
 11
2488.59613402153
 21
2857.786607212171
 31
0.0000000000000022
210
0.0
220
1.0
230
0.0
  0
LINE
  5
5F2
330
1F
100
AcDbEntity
  8
STANDARD
  6
IMPORT
 62
     7
100
AcDbLine
 10
2476.59613402153
 20
2824.786607212171
 30
0.0
 11
2476.59613402153
 21
2859.786607212171
 31
0.0
210
0.0
220
1.0
230
0.0
  0
LINE
  5
5F3
330
1F
100
AcDbEntity
  8
STANDARD
  6
IMPORT
 62
     7
100
AcDbLine
 10
2501.59613402153
 20
2808.286607212171
 30
0.0000000000000046
 11
2488.59613402153
 21
2808.286607212171
 31
0.0000000000000022
210
0.0
220
1.0
230
0.0
  0
LINE
  5
5F4
330
1F
100
AcDbEntity
  8
STANDARD
  6
IMPORT
 62
     7
100
AcDbLine
 10
2501.59613402153
 20
2841.286607212171
 30
0.0000000000000046
 11
2488.59613402153
 21
2841.286607212171
 31
0.0000000000000022
210
0.0
220
1.0
230
0.0
  0
LINE
  5
5F5
330
1F
100
AcDbEntity
  8
STANDARD
  6
IMPORT
 62
     7
100
AcDbLine
 10
2488.59613402153
 20
2791.786607212171
 30
0.0000000000000022
 11
2488.59613402153
 21
2824.786607212171
 31
0.0000000000000022
210
0.0
220
1.0
230
0.0
  0
ARC
  5
5F6
330
1F
100
AcDbEntity
  8
STANDARD
  6
IMPORT
 62
     7
100
AcDbCircle
 10
2486.59613402153
 20
2906.786607212169
 30
0.0000000000000018
 40
2.0
100
AcDbArc
 50
270.0
 51
0.0
  0
ARC
  5
5F7
330
1F
100
AcDbEntity
  8
STANDARD
  6
IMPORT
 62
     7
100
AcDbCircle
 10
2486.59613402153
 20
2857.786607212171
 30
0.0000000000000018
 40
2.0
100
AcDbArc
 50
0.0
 51
90.0
  0
LINE
  5
5F8
330
1F
100
AcDbEntity
  8
STANDARD
  6
IMPORT
 62
     7
100
AcDbLine
 10
2486.59613402153
 20
2904.786607212171
 30
0.0000000000000018
 11
2476.59613402153
 21
2904.786607212171
 31
0.0
210
0.0
220
1.0
230
0.0
  0
LINE
  5
5F9
330
1F
100
AcDbEntity
  8
STANDARD
  6
IMPORT
 62
     7
100
AcDbLine
 10
2486.59613402153
 20
2859.786607212171
 30
0.0000000000000018
 11
2476.59613402153
 21
2859.786607212171
 31
0.0
210
0.0
220
1.0
230
0.0
  0
LINE
  5
5FA
330
1F
100
AcDbEntity
  8
STANDARD
  6
STANDARD
 62
     7
100
AcDbLine
 10
1906.888721458839
 20
2967.872916746718
 30
0.0
 11
1907.979495994973
 21
2967.364303160293
 31
0.0
  0
LINE
  5
5FB
330
1F
100
AcDbEntity
  8
STANDARD
  6
STANDARD
 62
     7
100
AcDbLine
 10
1872.979495994973
 20
2967.364303160293
 30
0.0
 11
1874.115398399758
 21
2967.893973875625
 31
0.0
  0
LINE
  5
5FC
330
1F
100
AcDbEntity
  8
STANDARD
  6
STANDARD
 62
     7
100
AcDbLine
 10
1906.865489952491
 20
2937.919494200332
 30
0.0
 11
1906.979511253761
 21
2937.053405333142
 31
0.0
  0
LINE
  5
5FD
330
1F
100
AcDbEntity
  8
STANDARD
  6
STANDARD
 62
     7
100
AcDbLine
 10
1906.865489952491
 20
2936.187316465957
 30
0.0
 11
1906.979511253761
 21
2937.053405333142
 31
0.0
  0
LINE
  5
5FE
330
1F
100
AcDbEntity
  8
STANDARD
  6
STANDARD
 62
     7
100
AcDbLine
 10
1874.017742149758
 20
2936.021186400039
 30
0.0
 11
1874.017742149758
 21
2937.053405333142
 31
0.0
  0
LINE
  5
5FF
330
1F
100
AcDbEntity
  8
STANDARD
  6
STANDARD
 62
     7
100
AcDbLine
 10
1873.979518883156
 20
2937.053405333142
 30
0.0
 11
1874.115398399758
 21
2936.021186400039
 31
0.0
  0
LINE
  5
600
330
1F
100
AcDbEntity
  8
STANDARD
  6
STANDARD
 62
     7
100
AcDbLine
 10
1873.979518883156
 20
2937.053405333142
 30
0.0
 11
1874.115398399758
 21
2938.08562426625
 31
0.0
  0
ARC
  5
601
330
1F
100
AcDbEntity
  8
STANDARD
  6
IMPORT
 62
     7
100
AcDbCircle
 10
2486.59613402153
 20
2972.786607212171
 30
0.0000000000000018
 40
2.0
100
AcDbArc
 50
0.0
 51
90.0
  0
LINE
  5
602
330
1F
100
AcDbEntity
  8
STANDARD
  6
IMPORT
 62
     7
100
AcDbLine
 10
2486.59613402153
 20
2974.786607212171
 30
0.0000000000000018
 11
2476.59613402153
 21
2974.786607212171
 31
0.0
210
0.0
220
1.0
230
0.0
  0
LINE
  5
603
330
1F
100
AcDbEntity
  8
STANDARD
  6
IMPORT
 62
     7
100
AcDbLine
 10
2488.59613402153
 20
2939.786607212171
 30
0.0000000000000022
 11
2488.59613402153
 21
2972.786607212171
 31
0.0000000000000022
210
0.0
220
1.0
230
0.0
  0
LINE
  5
604
330
1F
100
AcDbEntity
  8
STANDARD
  6
IMPORT
 62
     7
100
AcDbLine
 10
2476.59613402153
 20
2939.786607212171
 30
0.0
 11
2476.59613402153
 21
2974.786607212171
 31
0.0
210
0.0
220
1.0
230
0.0
  0
LINE
  5
605
330
1F
100
AcDbEntity
  8
STANDARD
  6
IMPORT
 62
     7
100
AcDbLine
 10
2566.59613402153
 20
3070.286607212192
 30
0.0000000000000165
 11
2566.59613402153
 21
2824.786607212171
 31
0.0000000000000165
210
0.0
220
1.0
230
0.0
  0
LINE
  5
606
330
1F
100
AcDbEntity
  8
STANDARD
  6
IMPORT
 62
     7
100
AcDbLine
 10
2533.59613402153
 20
2923.286607212171
 30
0.0000000000000105
 11
2550.09613402153
 21
2939.786607212171
 31
0.0000000000000135
210
0.0
220
1.0
230
0.0
  0
ARC
  5
607
330
1F
100
AcDbEntity
  8
STANDARD
  6
IMPORT
 62
     7
100
AcDbCircle
 10
2665.59613402153
 20
2824.786607212171
 30
0.0000000000000347
 40
35.0
100
AcDbArc
 50
208.1270682186014
 51
331.872931781397
  0
LINE
  5
608
330
1F
100
AcDbEntity
  8
STANDARD
  6
IMPORT
 62
     7
100
AcDbLine
 10
2533.59613402153
 20
2923.286607212171
 30
0.0000000000000105
 11
2533.59613402153
 21
2841.286607212171
 31
0.0000000000000105
210
0.0
220
1.0
230
0.0
  0
LINE
  5
609
330
1F
100
AcDbEntity
  8
STANDARD
  6
IMPORT
 62
     7
100
AcDbLine
 10
2550.096134021529
 20
2808.286607212171
 30
0.0000000000000135
 11
2598.59613402153
 21
2808.286607212171
 31
0.0000000000000224
210
0.0
220
1.0
230
0.0
  0
ARC
  5
60A
330
1F
100
AcDbEntity
  8
STANDARD
  6
IMPORT
 62
     7
100
AcDbCircle
 10
2550.096134021529
 20
2824.786607212171
 30
0.0000000000000135
 40
16.5
100
AcDbArc
 50
270.0
 51
90.0
  0
LINE
  5
60B
330
1F
100
AcDbEntity
  8
STANDARD
  6
IMPORT
 62
     7
100
AcDbLine
 10
2598.59613402153
 20
2841.286607212171
 30
0.0000000000000224
 11
2566.59613402153
 21
2841.286607212171
 31
0.0000000000000165
210
0.0
220
1.0
230
0.0
  0
ARC
  5
60C
330
1F
100
AcDbEntity
  8
STANDARD
  6
IMPORT
 62
     7
100
AcDbCircle
 10
2665.59613402153
 20
2824.786607212171
 30
0.0000000000000347
 40
35.0
100
AcDbArc
 50
28.12706821860142
 51
151.8729317813986
  0
ARC
  5
60D
330
1F
100
AcDbEntity
  8
STANDARD
  6
IMPORT
 62
     7
100
AcDbCircle
 10
2665.59613402153
 20
2824.786607212171
 30
0.0000000000000347
 40
16.8
100
AcDbArc
 50
259.155937436296
 51
280.8440625637038
  0
ARC
  5
60E
330
1F
100
AcDbEntity
  8
STANDARD
  6
IMPORT
 62
     7
100
AcDbCircle
 10
2665.59613402153
 20
2824.786607212171
 30
0.0000000000000347
 40
16.8
100
AcDbArc
 50
79.15593743629614
 51
100.8440625637037
  0
LINE
  5
60F
330
1F
100
AcDbEntity
  8
STANDARD
  6
IMPORT
 62
     7
100
AcDbLine
 10
2533.59613402153
 20
3070.286607212192
 30
0.0000000000000105
 11
2533.59613402153
 21
2956.286607212171
 31
0.0000000000000105
210
0.0
220
1.0
230
0.0
  0
LINE
  5
610
330
1F
100
AcDbEntity
  8
STANDARD
  6
IMPORT
 62
     7
100
AcDbLine
 10
2550.096134021529
 20
2939.786607212171
 30
0.0000000000000135
 11
2533.59613402153
 21
2956.286607212171
 31
0.0000000000000105
210
0.0
220
1.0
230
0.0
  0
ARC
  5
63A
330
1F
100
AcDbEntity
  8
STANDARD
  6
IMPORT
 62
     7
100
AcDbCircle
 10
3238.59613402153
 20
2824.786607212171
 30
0.00000000000014
 40
16.8
100
AcDbArc
 50
259.155937436296
 51
100.8440625637037
  0
ARC
  5
63B
330
1F
100
AcDbEntity
  8
STANDARD
  6
IMPORT
 62
     7
100
AcDbCircle
 10
3238.59613402153
 20
2824.786607212171
 30
0.00000000000014
 40
35.0
100
AcDbArc
 50
208.1270682186014
 51
151.8729317813986
  0
ARC
  5
63C
330
1F
100
AcDbEntity
  8
STANDARD
  6
IMPORT
 62
     7
100
AcDbCircle
 10
3238.59613402153
 20
2824.786607212171
 30
0.00000000000014
 40
16.5
100
AcDbArc
 50
270.0
 51
90.0
  0
LINE
  5
63D
330
1F
100
AcDbEntity
  8
STANDARD
  6
IMPORT
 62
     7
100
AcDbLine
 10
3238.59613402153
 20
2841.286607212171
 30
0.00000000000014
 11
3190.09613402153
 21
2841.286607212171
 31
0.0000000000001311
210
0.0
220
1.0
230
0.0
  0
LINE
  5
63E
330
1F
100
AcDbEntity
  8
STANDARD
  6
IMPORT
 62
     7
100
AcDbLine
 10
3190.09613402153
 20
2808.286607212171
 30
0.0000000000001311
 11
3238.59613402153
 21
2808.286607212171
 31
0.00000000000014
210
0.0
220
1.0
230
0.0
  0
ARC
  5
63F
330
1F
100
AcDbEntity
  8
STANDARD
  6
IMPORT
 62
     7
100
AcDbCircle
 10
2501.59613402153
 20
3873.553405333144
 30
0.0000000000000046
 40
65.0
100
AcDbArc
 50
0.0
 51
90.0
  0
ARC
  5
640
330
1F
100
AcDbEntity
  8
STANDARD
  6
IMPORT
 62
     7
100
AcDbCircle
 10
2501.59613402153
 20
3873.553405333144
 30
0.0000000000000046
 40
32.0
100
AcDbArc
 50
0.0
 51
90.0
  0
LINE
  5
641
330
1F
100
AcDbEntity
  8
STANDARD
  6
STANDARD
 62
     7
100
AcDbLine
 10
1874.115398399758
 20
3630.05340724049
 30
0.0
 11
1874.115398399758
 21
3853.553420591931
 31
0.0
  0
LINE
  5
642
330
1F
100
AcDbEntity
  8
STANDARD
  6
STANDARD
 62
     7
100
AcDbLine
 10
1906.888721458839
 20
3630.05340724049
 30
0.0
 11
1906.888721458839
 21
3853.553420591931
 31
0.0
  0
ARC
  5
697
330
1F
100
AcDbEntity
  8
STANDARD
  6
STANDARD
 62
     7
100
AcDbCircle
 10
1890.477611793885
 20
3922.053355088404
 30
0.0
 40
16.50005678687836
100
AcDbArc
 50
88.23260029387126
 51
179.1159918548028
  0
ARC
  5
698
330
1F
100
AcDbEntity
  8
STANDARD
  6
STANDARD
 62
     7
100
AcDbCircle
 10
1890.479495994973
 20
3922.053412608272
 30
0.0
 40
35.00001383027306
100
AcDbArc
 50
299.9999869285245
 51
240.0000130714754
  0
LINE
  5
699
330
1F
100
AcDbEntity
  8
STANDARD
  6
STANDARD
 62
     7
100
AcDbLine
 10
1906.846797935891
 20
3855.053397703747
 30
0.0
 11
1906.846797935891
 21
3924.1264262682
 31
0.0
  0
LINE
  5
69A
330
1F
100
AcDbEntity
  8
STANDARD
  6
STANDARD
 62
     7
100
AcDbLine
 10
1873.979518883156
 20
3855.053397703747
 30
0.0
 11
1873.979518883156
 21
3922.307921934704
 31
0.0
  0
LINE
  5
69B
330
1F
100
AcDbEntity
  8
0
100
AcDbLine
 10
1906.846797935891
 20
3855.053397703747
 30
0.0
 11
1906.846797935891
 21
3853.553420591931
 31
0.0
  0
LINE
  5
69C
330
1F
100
AcDbEntity
  8
0
100
AcDbLine
 10
1873.979518883156
 20
3855.053397703747
 30
0.0
 11
1873.979518883156
 21
3853.553420591931
 31
0.0
  0
LINE
  5
69D
330
1F
100
AcDbEntity
  8
STANDARD
  6
STANDARD
 62
     7
100
AcDbLine
 10
1906.846797935891
 20
3891.214324522595
 30
0.0
 11
1907.979495994973
 21
3891.742507505993
 31
0.0
  0
LINE
  5
69E
330
1F
100
AcDbEntity
  8
STANDARD
  6
STANDARD
 62
     7
100
AcDbLine
 10
1872.979495994973
 20
3891.742507505993
 30
0.0
 11
1873.979518883156
 21
3891.276198912244
 31
0.0
  0
LINE
  5
69F
330
1F
100
AcDbEntity
  8
STANDARD
  6
STANDARD
 62
     7
100
AcDbLine
 10
1874.115398399758
 20
3853.553420591931
 30
0.0
 11
1906.888721458839
 21
3853.553420591931
 31
0.0
  0
LINE
  5
6A0
330
1F
100
AcDbEntity
  8
STANDARD
  6
STANDARD
 62
     7
100
AcDbLine
 10
1890.479495994973
 20
3938.553420591931
 30
0.0
 11
1890.73408889048
 21
3938.519889402964
 31
0.0
  0
LINE
  5
6A1
330
1F
100
AcDbEntity
  8
STANDARD
  6
STANDARD
 62
     7
100
AcDbLine
 10
1886.208980553077
 20
3937.99117236195
 30
0.0
 11
1886.440189354348
 21
3938.02161364613
 31
0.0
  0
LINE
  5
6A2
330
1F
100
AcDbEntity
  8
STANDARD
  6
STANDARD
 62
     7
100
AcDbLine
 10
1888.497379295754
 20
3938.29245715199
 30
0.0
 11
1890.479495994973
 21
3938.553420591931
 31
0.0
  0
LINE
  5
6A3
330
1F
100
AcDbEntity
  8
STANDARD
  6
STANDARD
 62
     7
100
AcDbLine
 10
1892.378185264992
 20
3938.303443480114
 30
0.0
 11
1894.750011436866
 21
3937.99117236195
 31
0.0
  0
LINE
  5
6A4
330
1F
100
AcDbEntity
  8
STANDARD
  6
STANDARD
 62
     7
100
AcDbLine
 10
1894.750011436866
 20
3937.99117236195
 30
0.0
 11
1895.167835228371
 21
3937.818099547009
 31
0.0
  0
LINE
  5
6A5
330
1F
100
AcDbEntity
  8
STANDARD
  6
STANDARD
 62
     7
100
AcDbLine
 10
1903.830631248879
 20
3931.526214171032
 30
0.0
 11
1904.768932335305
 21
3930.303412962537
 31
0.0
  0
LINE
  5
6A6
330
1F
100
AcDbEntity
  8
STANDARD
  6
STANDARD
 62
     7
100
AcDbLine
 10
1902.146747581887
 20
3933.720656920056
 30
0.0
 11
1902.652004234719
 21
3933.062202025036
 31
0.0
  0
LINE
  5
6A7
330
1F
100
AcDbEntity
  8
STANDARD
  6
STANDARD
 62
     7
100
AcDbLine
 10
1905.908153526711
 20
3927.553092527966
 30
0.0
 11
1906.417301170754
 21
3926.323920775036
 31
0.0
  0
LINE
  5
6A8
330
1F
100
AcDbEntity
  8
STANDARD
  6
STANDARD
 62
     7
100
AcDbLine
 10
1904.768932335305
 20
3930.303412962537
 30
0.0
 11
1905.160663597511
 21
3929.357711363415
 31
0.0
  0
LINE
  5
6A9
330
1F
100
AcDbEntity
  8
STANDARD
  6
STANDARD
 62
     7
100
AcDbLine
 10
1906.846797935891
 20
3923.061439085583
 30
0.0
 11
1906.979511253761
 21
3922.053405333142
 31
0.0
  0
LINE
  5
6AA
330
1F
100
AcDbEntity
  8
STANDARD
  6
STANDARD
 62
     7
100
AcDbLine
 10
1906.417301170754
 20
3926.323920775036
 30
0.0
 11
1906.576831810403
 21
3925.111953306775
 31
0.0
  0
LINE
  5
6AB
330
1F
100
AcDbEntity
  8
STANDARD
  6
STANDARD
 62
     7
100
AcDbLine
 10
1906.846797935891
 20
3921.0453715807
 30
0.0
 11
1906.979511253761
 21
3922.053405333142
 31
0.0
  0
LINE
  5
6AC
330
1F
100
AcDbEntity
  8
STANDARD
  6
STANDARD
 62
     7
100
AcDbLine
 10
1896.849620811867
 20
3937.121497679333
 30
0.0
 11
1898.729503624366
 21
3936.342841673474
 31
0.0
  0
LINE
  5
6AD
330
1F
100
AcDbEntity
  8
STANDARD
  6
STANDARD
 62
     7
100
AcDbLine
 10
1900.742595665382
 20
3934.79811816273
 30
0.0
 11
1902.146747581887
 21
3933.720656920056
 31
0.0
  0
LINE
  5
6AE
330
1F
100
AcDbEntity
  8
STANDARD
  6
STANDARD
 62
     7
100
AcDbLine
 10
1898.729503624366
 20
3936.342841673474
 30
0.0
 11
1899.237125389504
 21
3935.953322935681
 31
0.0
  0
LINE
  5
6AF
330
1F
100
AcDbEntity
  8
STANDARD
  6
STANDARD
 62
     7
100
AcDbLine
 10
1882.229488365577
 20
3936.342841673474
 30
0.0
 11
1882.423351280617
 21
3936.423141050914
 31
0.0
  0
LINE
  5
6B0
330
1F
100
AcDbEntity
  8
STANDARD
  6
STANDARD
 62
     7
100
AcDbLine
 10
1874.541728966163
 20
3926.323920775036
 30
0.0
 11
1874.596202843116
 21
3926.455451536755
 31
0.0
  0
LINE
  5
6B1
330
1F
100
AcDbEntity
  8
STANDARD
  6
STANDARD
 62
     7
100
AcDbLine
 10
1880.626590721536
 20
3935.112830687144
 30
0.0
 11
1882.229488365577
 21
3936.342841673474
 31
0.0
  0
LINE
  5
6B2
330
1F
100
AcDbEntity
  8
STANDARD
  6
STANDARD
 62
     7
100
AcDbLine
 10
1878.812244408059
 20
3933.720656920056
 30
0.0
 11
1878.9604835438
 21
3933.834411192517
 31
0.0
  0
LINE
  5
6B3
330
1F
100
AcDbEntity
  8
STANDARD
  6
STANDARD
 62
     7
100
AcDbLine
 10
1874.271877281594
 20
3924.274322081187
 30
0.0
 11
1874.541728966163
 21
3926.323920775036
 31
0.0
  0
LINE
  5
6B4
330
1F
100
AcDbEntity
  8
STANDARD
  6
STANDARD
 62
     7
100
AcDbLine
 10
1875.406749718117
 20
3928.412276793103
 30
0.0
 11
1876.190097801614
 21
3930.303412962537
 31
0.0
  0
LINE
  5
6B5
330
1F
100
AcDbEntity
  8
STANDARD
  6
STANDARD
 62
     7
100
AcDbLine
 10
1877.575138084817
 20
3932.108413267712
 30
0.0
 11
1878.812244408059
 21
3933.720656920056
 31
0.0
  0
LINE
  5
6B6
330
1F
100
AcDbEntity
  8
STANDARD
  6
STANDARD
 62
     7
100
AcDbLine
 10
1876.190097801614
 20
3930.303412962537
 30
0.0
 11
1876.290119163918
 21
3930.433799315076
 31
0.0
  0
LINE
  5
6B7
330
1F
100
AcDbEntity
  8
STANDARD
  6
STANDARD
 62
     7
100
AcDbLine
 10
1884.352062218117
 20
3937.222014952282
 30
0.0
 11
1886.208980553077
 21
3937.99117236195
 31
0.0
  0
ARC
  5
6B8
330
1F
100
AcDbEntity
  8
STANDARD
  6
STANDARD
 62
     7
100
AcDbCircle
 10
1890.477505163526
 20
3922.05337632841
 30
0.0
 40
16.50003884602578
100
AcDbArc
 50
7.217664169404008
 51
88.23222792524655
  0
LINE
  5
6B9
330
1F
100
AcDbEntity
  8
STANDARD
  6
IMPORT
 62
     7
100
AcDbLine
 10
2488.59613402153
 20
3889.053405333144
 30
0.0000000000000022
 11
2488.59613402153
 21
3922.053405333144
 31
0.0000000000000022
210
0.0
220
1.0
230
0.0
  0
LINE
  5
6BA
330
1F
100
AcDbEntity
  8
STANDARD
  6
IMPORT
 62
     7
100
AcDbLine
 10
2476.59613402153
 20
3887.053405333144
 30
0.0
 11
2476.59613402153
 21
3922.053405333144
 31
0.0
210
0.0
220
1.0
230
0.0
  0
ARC
  5
6BB
330
1F
100
AcDbEntity
  8
STANDARD
  6
IMPORT
 62
     7
100
AcDbCircle
 10
2486.59613402153
 20
3889.053405333144
 30
0.0000000000000018
 40
2.0
100
AcDbArc
 50
270.0
 51
0.0
  0
LINE
  5
6BC
330
1F
100
AcDbEntity
  8
STANDARD
  6
IMPORT
 62
     7
100
AcDbLine
 10
2488.59613402153
 20
3905.553405333144
 30
0.0000000000000022
 11
2501.59613402153
 21
3905.553405333144
 31
0.0000000000000046
210
0.0
220
1.0
230
0.0
  0
LINE
  5
6BD
330
1F
100
AcDbEntity
  8
STANDARD
  6
IMPORT
 62
     7
100
AcDbLine
 10
2486.59613402153
 20
3887.053405333144
 30
0.0000000000000018
 11
2476.59613402153
 21
3887.053405333144
 31
0.0
210
0.0
220
1.0
230
0.0
  0
ARC
  5
6BE
330
1F
100
AcDbEntity
  8
STANDARD
  6
IMPORT
 62
     7
100
AcDbCircle
 10
2486.59613402153
 20
3955.053405333144
 30
0.0000000000000018
 40
2.0
100
AcDbArc
 50
0.0
 51
90.0
  0
LINE
  5
6BF
330
1F
100
AcDbEntity
  8
STANDARD
  6
IMPORT
 62
     7
100
AcDbLine
 10
2488.59613402153
 20
3938.553405333144
 30
0.0000000000000022
 11
2501.59613402153
 21
3938.553405333144
 31
0.0000000000000046
210
0.0
220
1.0
230
0.0
  0
LINE
  5
6C0
330
1F
100
AcDbEntity
  8
STANDARD
  6
IMPORT
 62
     7
100
AcDbLine
 10
2486.59613402153
 20
3957.053405333144
 30
0.0000000000000018
 11
2476.59613402153
 21
3957.053405333144
 31
0.0
210
0.0
220
1.0
230
0.0
  0
LINE
  5
6C1
330
1F
100
AcDbEntity
  8
STANDARD
  6
IMPORT
 62
     7
100
AcDbLine
 10
2488.59613402153
 20
3922.053405333144
 30
0.0000000000000022
 11
2488.59613402153
 21
3955.053405333144
 31
0.0000000000000022
210
0.0
220
1.0
230
0.0
  0
LINE
  5
6C2
330
1F
100
AcDbEntity
  8
STANDARD
  6
IMPORT
 62
     7
100
AcDbLine
 10
2476.59613402153
 20
3922.053405333144
 30
0.0
 11
2476.59613402153
 21
3957.053405333144
 31
0.0
210
0.0
220
1.0
230
0.0
  0
LINE
  5
6C3
330
1F
100
AcDbEntity
  8
0
100
AcDbLine
 10
2533.596134021529
 20
3855.053397703747
 30
0.0
 11
2566.59613402153
 21
3855.053397703747
 31
0.0
  0
LINE
  5
710
330
1F
100
AcDbEntity
  8
0
100
AcDbLine
 10
2139.479497902321
 20
2416.617755911817
 30
0.0
 11
2172.47949790232
 21
2416.617755911817
 31
0.0
  0
LINE
  5
711
330
1F
100
AcDbEntity
  8
0
100
AcDbLine
 10
2613.220406769632
 20
2841.286607212171
 30
0.0000000000000224
 11
2613.220406769632
 21
2808.286607212171
 31
0.0000000000000224
  0
LINE
  5
7FC
330
1F
100
AcDbEntity
  8
0
100
AcDbLine
 10
1916.25038891828
 20
3424.610672041068
 30
-0.0000000000000933
 11
1916.25038891828
 21
3464.610672041066
 31
-0.0000000000000933
  0
LINE
  5
7FD
330
1F
100
AcDbEntity
  8
0
100
AcDbLine
 10
1921.250388918281
 20
3424.610672041068
 30
-0.0000000000000933
 11
1921.250388918281
 21
3464.610672041066
 31
-0.0000000000000933
  0
LINE
  5
7FE
330
1F
100
AcDbEntity
  8
0
100
AcDbLine
 10
1856.25038891828
 20
3424.610672041068
 30
-0.0000000000000933
 11
1856.25038891828
 21
3462.53400807012
 31
-0.0000000000000933
  0
LINE
  5
7FF
330
1F
100
AcDbEntity
  8
0
100
AcDbLine
 10
1861.25038891828
 20
3424.610672041068
 30
-0.0000000000000933
 11
1861.25038891828
 21
3464.610672041066
 31
-0.0000000000000933
  0
LINE
  5
800
330
1F
100
AcDbEntity
  8
0
100
AcDbLine
 10
1828.250387010931
 20
3430.870666547903
 30
-0.0000000000000933
 11
1828.250387010931
 21
3458.350696607717
 31
-0.0000000000000933
  0
LINE
  5
801
330
1F
100
AcDbEntity
  8
0
100
AcDbLine
 10
1050.676152575632
 20
3426.610679670462
 30
-0.0000000000000045
 11
1050.676152575632
 21
3462.610683485159
 31
-0.0000000000000045
  0
CIRCLE
  5
802
330
1F
100
AcDbEntity
  8
0
100
AcDbCircle
 10
983.6761503642465
 20
3444.610679022586
 30
-0.0000000000000045
 40
20.00000698151719
  0
LINE
  5
803
330
1F
100
AcDbEntity
  8
0
100
AcDbLine
 10
943.1476246005491
 20
3369.763956113942
 30
-0.0000000000000045
 11
969.5940660125215
 21
3430.422477766166
 31
-0.0000000000000045
  0
LINE
  5
804
330
1F
100
AcDbEntity
  8
0
100
AcDbLine
 10
948.492684233804
 20
3367.010660215506
 30
-0.0000000000000045
 11
974.6059726363618
 21
3426.905021711478
 31
-0.0000000000000045
  0
LINE
  5
805
330
1F
100
AcDbEntity
  8
0
100
AcDbLine
 10
943.1476246005491
 20
3369.763956113942
 30
-0.0000000000000045
 11
943.6388145572145
 21
3368.388414426933
 31
-0.0000000000000045
  0
LINE
  5
806
330
1F
100
AcDbEntity
  8
0
100
AcDbLine
 10
943.6388145572145
 20
3368.388414426933
 30
-0.0000000000000045
 11
947.2021840697726
 21
3366.552877470147
 31
-0.0000000000000045
  0
LINE
  5
807
330
1F
100
AcDbEntity
  8
0
100
AcDbLine
 10
947.2021840697726
 20
3366.552877470147
 30
-0.0000000000000045
 11
948.492684233804
 21
3367.010660215506
 31
-0.0000000000000045
  0
LINE
  5
808
330
1F
100
AcDbEntity
  8
0
100
AcDbLine
 10
983.1213735228976
 20
3424.683723493704
 30
-0.0000000000000045
 11
1049.163215029855
 21
3424.610672041068
 31
-0.0000000000000045
  0
LINE
  5
809
330
1F
100
AcDbEntity
  8
0
100
AcDbLine
 10
1007.676150668283
 20
3356.610679670462
 30
-0.0000000000000045
 11
1046.676156390329
 21
3356.610679670462
 31
-0.0000000000000045
  0
LINE
  5
80A
330
1F
100
AcDbEntity
  8
0
100
AcDbLine
 10
1027.176153529306
 20
3356.610679670462
 30
-0.0000000000000045
 11
1008.176153529306
 21
3356.610679670462
 31
-0.0000000000000057
210
0.0
220
1.0
230
0.0
  0
LINE
  5
80B
330
1F
100
AcDbEntity
  8
0
100
AcDbLine
 10
1007.676150668283
 20
3356.610679670462
 30
-0.0000000000000045
 11
1007.676150668283
 21
3424.610672041068
 31
-0.0000000000000045
  0
ARC
  5
80C
330
1F
100
AcDbEntity
  8
0
100
AcDbCircle
 10
1008.176153529306
 20
3357.310679670462
 30
-0.0000000000000057
 40
0.6999999999999319
100
AcDbArc
 50
180.0
 51
270.0
  0
LINE
  5
80D
330
1F
100
AcDbEntity
  8
0
100
AcDbLine
 10
975.1908753997286
 20
3426.662750288139
 30
-0.0000000000000045
 11
975.3131126052339
 21
3426.612110181938
 31
-0.0000000000000045
  0
LINE
  5
80E
330
1F
100
AcDbEntity
  8
0
100
AcDbLine
 10
1046.676156390329
 20
3356.610679670462
 30
-0.0000000000000045
 11
1046.676156390329
 21
3424.610672041068
 31
-0.0000000000000045
  0
LINE
  5
80F
330
1F
100
AcDbEntity
  8
0
100
AcDbLine
 10
1046.176153529305
 20
3356.610679670462
 30
-0.0000000000000033
 11
1027.176153529306
 21
3356.610679670462
 31
-0.0000000000000045
210
0.0
220
1.0
230
0.0
  0
ARC
  5
810
330
1F
100
AcDbEntity
  8
0
100
AcDbCircle
 10
1046.176153529305
 20
3357.310679670462
 30
-0.0000000000000033
 40
0.6999999999999319
100
AcDbArc
 50
270.0
 51
0.0
  0
LINE
  5
811
330
1F
100
AcDbEntity
  8
0
100
AcDbLine
 10
1049.163215029855
 20
3424.610672041068
 30
-0.0000000000000045
 11
1050.676152575632
 21
3426.610679670462
 31
-0.0000000000000045
  0
LINE
  5
812
330
1F
100
AcDbEntity
  8
0
100
AcDbLine
 10
1855.250389871954
 20
3424.610672041068
 30
-0.0000000000000933
 11
1876.250388918281
 21
3424.610672041068
 31
-0.0000000000000933
  0
LINE
  5
813
330
1F
100
AcDbEntity
  8
0
100
AcDbLine
 10
1834.765107927679
 20
3426.662750288136
 30
-0.0000000000000933
 11
1836.739127931952
 21
3427.2901726209
 31
-0.0000000000000933
  0
LINE
  5
814
330
1F
100
AcDbEntity
  8
0
100
AcDbLine
 10
1834.795897302985
 20
3426.672534986625
 30
-0.0000000000000933
 11
1835.621798334479
 21
3426.387195631156
 31
-0.0000000000000933
  0
LINE
  5
815
330
1F
100
AcDbEntity
  8
0
100
AcDbLine
 10
1828.575837908148
 20
3430.468540235647
 30
-0.0000000000000933
 11
1832.944727239966
 21
3427.2901726209
 31
-0.0000000000000933
  0
LINE
  5
816
330
1F
100
AcDbEntity
  8
0
100
AcDbLine
 10
1832.944727239966
 20
3427.2901726209
 30
-0.0000000000000933
 11
1834.671306906103
 21
3426.612110181936
 31
-0.0000000000000933
  0
LINE
  5
817
330
1F
100
AcDbEntity
  8
0
100
AcDbLine
 10
1828.250387010931
 20
3430.870666547903
 30
-0.0000000000000933
 11
1828.575837908148
 21
3430.468540235647
 31
-0.0000000000000933
  0
LINE
  5
818
330
1F
100
AcDbEntity
  8
0
100
AcDbLine
 10
1854.841497240424
 20
3425.019569440971
 30
-0.0000000000000933
 11
1855.250389871954
 21
3424.610672041068
 31
-0.0000000000000933
  0
LINE
  5
819
330
1F
100
AcDbEntity
  8
0
100
AcDbLine
 10
1850.870406923651
 20
3426.387195631156
 30
-0.0000000000000933
 11
1851.700418291449
 21
3426.673965498098
 31
-0.0000000000000933
  0
LINE
  5
81A
330
1F
100
AcDbEntity
  8
0
100
AcDbLine
 10
1850.516898928045
 20
3426.285495802054
 30
-0.0000000000000933
 11
1850.870406923651
 21
3426.387195631156
 31
-0.0000000000000933
  0
LINE
  5
81B
330
1F
100
AcDbEntity
  8
0
100
AcDbLine
 10
1849.34702664411
 20
3426.002464338431
 30
-0.0000000000000933
 11
1850.516898928045
 21
3426.285495802054
 31
-0.0000000000000933
  0
LINE
  5
81C
330
1F
100
AcDbEntity
  8
0
100
AcDbLine
 10
1849.761655626655
 20
3427.2901726209
 30
-0.0000000000000933
 11
1851.735675630927
 21
3426.662750288136
 31
-0.0000000000000933
  0
LINE
  5
81D
330
1F
100
AcDbEntity
  8
0
100
AcDbLine
 10
1851.735675630927
 20
3426.662750288136
 30
-0.0000000000000933
 11
1853.642700014471
 21
3425.633316084037
 31
-0.0000000000000933
  0
LINE
  5
81E
330
1F
100
AcDbEntity
  8
0
100
AcDbLine
 10
1849.250386057257
 20
3427.591190382132
 30
-0.0000000000000933
 11
1849.761655626655
 21
3427.2901726209
 31
-0.0000000000000933
  0
LINE
  5
81F
330
1F
100
AcDbEntity
  8
0
100
AcDbLine
 10
1853.642700014471
 20
3425.633316084037
 30
-0.0000000000000933
 11
1853.983848390936
 21
3425.292167707572
 31
-0.0000000000000933
  0
LINE
  5
820
330
1F
100
AcDbEntity
  8
0
100
AcDbLine
 10
1853.983848390936
 20
3425.292167707572
 30
-0.0000000000000933
 11
1854.841497240424
 21
3425.019569440971
 31
-0.0000000000000933
  0
LINE
  5
821
330
1F
100
AcDbEntity
  8
0
100
AcDbLine
 10
1846.492336092352
 20
3425.603752180227
 30
-0.0000000000000933
 11
1847.991779146552
 21
3425.772895856986
 31
-0.0000000000000933
  0
LINE
  5
822
330
1F
100
AcDbEntity
  8
0
100
AcDbLine
 10
1844.894259271978
 20
3425.500145002494
 30
-0.0000000000000933
 11
1846.492336092352
 21
3425.603752180227
 31
-0.0000000000000933
  0
LINE
  5
823
330
1F
100
AcDbEntity
  8
0
100
AcDbLine
 10
1840.14456778562
 20
3428.511066480764
 30
-0.0000000000000933
 11
1843.250387010931
 21
3428.824825330861
 31
-0.0000000000000933
  0
LINE
  5
824
330
1F
100
AcDbEntity
  8
0
100
AcDbLine
 10
1839.999866781592
 20
3425.603752180227
 30
-0.0000000000000933
 11
1841.597948370337
 21
3425.500145002494
 31
-0.0000000000000933
  0
LINE
  5
825
330
1F
100
AcDbEntity
  8
0
100
AcDbLine
 10
1841.597948370337
 20
3425.500145002494
 30
-0.0000000000000933
 11
1844.894259271978
 21
3425.500145002494
 31
-0.0000000000000933
  0
LINE
  5
826
330
1F
100
AcDbEntity
  8
0
100
AcDbLine
 10
1843.250387010931
 20
3428.824825330861
 30
-0.0000000000000933
 11
1846.356218157172
 21
3428.511066480764
 31
-0.0000000000000933
  0
LINE
  5
827
330
1F
100
AcDbEntity
  8
0
100
AcDbLine
 10
1836.739127931952
 20
3427.2901726209
 30
-0.0000000000000933
 11
1837.250387964606
 21
3427.591190382132
 31
-0.0000000000000933
  0
LINE
  5
828
330
1F
100
AcDbEntity
  8
0
100
AcDbLine
 10
1837.14517861402
 20
3426.002464338431
 30
-0.0000000000000933
 11
1838.500418959021
 21
3425.772895856986
 31
-0.0000000000000933
  0
LINE
  5
829
330
1F
100
AcDbEntity
  8
0
100
AcDbLine
 10
1835.975296793341
 20
3426.285495802054
 30
-0.0000000000000933
 11
1837.14517861402
 21
3426.002464338431
 31
-0.0000000000000933
  0
LINE
  5
82A
330
1F
100
AcDbEntity
  8
0
100
AcDbLine
 10
1835.621798334479
 20
3426.387195631156
 30
-0.0000000000000933
 11
1835.975296793341
 21
3426.285495802054
 31
-0.0000000000000933
  0
LINE
  5
82B
330
1F
100
AcDbEntity
  8
0
100
AcDbLine
 10
1837.250387964606
 20
3427.591190382132
 30
-0.0000000000000933
 11
1840.14456778562
 21
3428.511066480764
 31
-0.0000000000000933
  0
LINE
  5
82C
330
1F
100
AcDbEntity
  8
0
100
AcDbLine
 10
1838.500418959021
 20
3425.772895856986
 30
-0.0000000000000933
 11
1839.999866781592
 21
3425.603752180227
 31
-0.0000000000000933
  0
LINE
  5
82D
330
1F
100
AcDbEntity
  8
0
100
AcDbLine
 10
1847.991779146552
 20
3425.772895856986
 30
-0.0000000000000933
 11
1849.34702664411
 21
3426.002464338431
 31
-0.0000000000000933
  0
LINE
  5
82E
330
1F
100
AcDbEntity
  8
0
100
AcDbLine
 10
1846.356218157172
 20
3428.511066480764
 30
-0.0000000000000933
 11
1849.250386057257
 21
3427.591190382132
 31
-0.0000000000000933
  0
LINE
  5
82F
330
1F
100
AcDbEntity
  8
0
100
AcDbLine
 10
1906.25038891828
 20
3424.683723493703
 30
-0.0000000000000933
 11
1921.250388918281
 21
3424.610672041068
 31
-0.0000000000000933
  0
LINE
  5
830
330
1F
100
AcDbEntity
  8
0
100
AcDbLine
 10
1910.750387010931
 20
3356.610679670462
 30
-0.0000000000000933
 11
1910.750387010931
 21
3424.610672041068
 31
-0.0000000000000933
  0
LINE
  5
831
330
1F
100
AcDbEntity
  8
0
100
AcDbLine
 10
1876.250388918281
 20
3368.390026136526
 30
-0.0000000000000933
 11
1876.250388918281
 21
3429.795227094778
 31
-0.0000000000000933
  0
LINE
  5
832
330
1F
100
AcDbEntity
  8
0
100
AcDbLine
 10
1906.25038891828
 20
3368.390026136526
 30
-0.0000000000000933
 11
1906.25038891828
 21
3429.795227094778
 31
-0.0000000000000933
  0
LINE
  5
833
330
1F
100
AcDbEntity
  8
0
100
AcDbLine
 10
1871.750386057257
 20
3356.610679670462
 30
-0.0000000000000933
 11
1871.750386057257
 21
3424.610672041068
 31
-0.0000000000000933
  0
LINE
  5
834
330
1F
100
AcDbEntity
  8
0
100
AcDbLine
 10
1878.250387010931
 20
3366.552877470144
 30
-0.0000000000000933
 11
1904.250390825629
 21
3366.552877470144
 31
-0.0000000000000933
  0
LINE
  5
835
330
1F
100
AcDbEntity
  8
0
100
AcDbLine
 10
1871.750386057257
 20
3356.610679670462
 30
-0.0000000000000933
 11
1910.750387010931
 21
3356.610679670462
 31
-0.0000000000000933
  0
LINE
  5
836
330
1F
100
AcDbEntity
  8
0
100
AcDbLine
 10
1910.250386534094
 20
3356.610679670462
 30
-0.000000000000091
 11
1872.250386534095
 21
3356.610679670462
 31
-0.0000000000000956
210
0.0
220
1.0
230
0.0
  0
LINE
  5
837
330
1F
100
AcDbEntity
  8
0
100
AcDbLine
 10
1876.250388918281
 20
3368.390026136526
 30
-0.0000000000000933
 11
1878.250387010931
 21
3366.552877470144
 31
-0.0000000000000933
  0
ARC
  5
838
330
1F
100
AcDbEntity
  8
0
100
AcDbCircle
 10
1872.250386534095
 20
3357.310679670462
 30
-0.0000000000000956
 40
0.6999999999999319
100
AcDbArc
 50
179.9999999999739
 51
270.0
  0
LINE
  5
839
330
1F
100
AcDbEntity
  8
0
100
AcDbLine
 10
1904.250390825629
 20
3366.552877470144
 30
-0.0000000000000933
 11
1906.25038891828
 21
3368.390026136526
 31
-0.0000000000000933
  0
ARC
  5
83A
330
1F
100
AcDbEntity
  8
0
100
AcDbCircle
 10
1910.250386534094
 20
3357.310679670462
 30
-0.000000000000091
 40
0.6999999999999319
100
AcDbArc
 50
270.0
 51
0.0
  0
LINE
  5
83B
330
1F
100
AcDbEntity
  8
0
100
AcDbLine
 10
1877.250387964606
 20
3430.422477766166
 30
-0.0000000000000933
 11
1905.250385103583
 21
3430.422477766166
 31
-0.0000000000000933
  0
LINE
  5
83C
330
1F
100
AcDbEntity
  8
0
100
AcDbLine
 10
1876.250388918281
 20
3429.795227094778
 30
-0.0000000000000933
 11
1877.241547403692
 21
3430.416927381644
 31
-0.0000000000000933
  0
LINE
  5
83D
330
1F
100
AcDbEntity
  8
0
100
AcDbLine
 10
1905.250385103583
 20
3430.422477766166
 30
-0.0000000000000933
 11
1906.22654706037
 21
3429.810180708059
 31
-0.0000000000000933
  0
LINE
  5
83E
330
1F
100
AcDbEntity
  8
0
100
AcDbLine
 10
983.1213735228976
 20
3464.537639661918
 30
-0.0000000000000045
 11
1049.163215029855
 21
3464.61067204107
 31
-0.0000000000000045
  0
LINE
  5
83F
330
1F
100
AcDbEntity
  8
0
100
AcDbLine
 10
974.9694846755465
 20
3462.530517622122
 30
-0.0000000000000045
 11
975.2019570952851
 21
3462.563190504202
 31
-0.0000000000000045
  0
LINE
  5
840
330
1F
100
AcDbEntity
  8
0
100
AcDbLine
 10
969.9374745971162
 20
3461.823310896047
 30
-0.0000000000000045
 11
970.3087066298918
 21
3461.875495954642
 31
-0.0000000000000045
  0
LINE
  5
841
330
1F
100
AcDbEntity
  8
0
100
AcDbLine
 10
973.1284354812105
 20
3462.271785780081
 30
-0.0000000000000045
 11
973.2538627273042
 21
3462.289409681448
 31
-0.0000000000000045
  0
LINE
  5
842
330
1F
100
AcDbEntity
  8
0
100
AcDbLine
 10
969.9374745971162
 20
3461.823310896047
 30
-0.0000000000000045
 11
970.3273748046358
 21
3459.361572309623
 31
-0.0000000000000045
  0
LINE
  5
843
330
1F
100
AcDbEntity
  8
0
100
AcDbLine
 10
969.3431066161592
 20
3461.739788099417
 30
-0.0000000000000045
 11
975.2019570952851
 21
3462.563190504202
 31
-0.0000000000000045
  0
LINE
  5
844
330
1F
100
AcDbEntity
  8
0
100
AcDbLine
 10
993.8254951125582
 20
3465.180568739067
 30
-0.0000000000000045
 11
994.6720431930025
 21
3465.299549146781
 31
-0.0000000000000045
  0
LINE
  5
845
330
1F
100
AcDbEntity
  8
0
100
AcDbLine
 10
991.3554643279512
 20
3464.833412214407
 30
-0.0000000000000045
 11
991.7266963607271
 21
3464.885597273001
 31
-0.0000000000000045
  0
LINE
  5
846
330
1F
100
AcDbEntity
  8
0
100
AcDbLine
 10
991.7266963607271
 20
3464.61067204107
 30
-0.0000000000000045
 11
991.7702363616426
 21
3464.885597273001
 31
-0.0000000000000045
  0
LINE
  5
847
330
1F
100
AcDbEntity
  8
0
100
AcDbLine
 10
990.0864337569673
 20
3464.655075117239
 30
-0.0000000000000045
 11
992.5888465529878
 21
3465.006752058158
 31
-0.0000000000000045
  0
LINE
  5
848
330
1F
100
AcDbEntity
  8
0
100
AcDbLine
 10
992.5888465529878
 20
3465.006752058158
 30
-0.0000000000000045
 11
994.2991851455166
 21
3465.247135206352
 31
-0.0000000000000045
  0
LINE
  5
849
330
1F
100
AcDbEntity
  8
0
100
AcDbLine
 10
1049.163215029855
 20
3464.61067204107
 30
-0.0000000000000045
 11
1050.676152575632
 21
3462.610683485159
 31
-0.0000000000000045
  0
LINE
  5
84A
330
1F
100
AcDbEntity
  8
0
100
AcDbLine
 10
1857.254579363226
 20
3464.610672041066
 30
-0.0000000000000933
 11
1921.250388918281
 21
3464.610672041066
 31
-0.0000000000000933
  0
LINE
  5
84B
330
1F
100
AcDbEntity
  8
0
100
AcDbLine
 10
1834.044797716498
 20
3461.845684095509
 30
-0.0000000000000933
 11
1835.036447344183
 21
3461.739788099417
 31
-0.0000000000000933
  0
LINE
  5
84C
330
1F
100
AcDbEntity
  8
0
100
AcDbLine
 10
1832.944727239966
 20
3461.93119053472
 30
-0.0000000000000933
 11
1833.053326902747
 21
3461.973838850148
 31
-0.0000000000000933
  0
LINE
  5
84D
330
1F
100
AcDbEntity
  8
0
100
AcDbLine
 10
1828.575837908148
 20
3458.752822919972
 30
-0.0000000000000933
 11
1832.944727239966
 21
3461.93119053472
 31
-0.0000000000000933
  0
LINE
  5
84E
330
1F
100
AcDbEntity
  8
0
100
AcDbLine
 10
1833.12324791944
 20
3461.963214918265
 30
-0.0000000000000933
 11
1834.044797716498
 21
3461.845684095509
 31
-0.0000000000000933
  0
LINE
  5
84F
330
1F
100
AcDbEntity
  8
0
100
AcDbLine
 10
1828.250387010931
 20
3458.350696607717
 30
-0.0000000000000933
 11
1828.575837908148
 21
3458.752822919972
 31
-0.0000000000000933
  0
LINE
  5
850
330
1F
100
AcDbEntity
  8
0
100
AcDbLine
 10
1856.25038891828
 20
3462.53400807012
 30
-0.0000000000000933
 11
1857.254579363226
 21
3464.610672041066
 31
-0.0000000000000933
  0
LINE
  5
851
330
1F
100
AcDbEntity
  8
0
100
AcDbLine
 10
1855.662868318915
 20
3462.376213117726
 30
-0.0000000000000933
 11
1856.240027246832
 21
3462.530517622122
 31
-0.0000000000000933
  0
LINE
  5
852
330
1F
100
AcDbEntity
  8
0
100
AcDbLine
 10
1854.991267023444
 20
3462.229480787406
 30
-0.0000000000000933
 11
1855.662868318915
 21
3462.376213117726
 31
-0.0000000000000933
  0
LINE
  5
853
330
1F
100
AcDbEntity
  8
0
100
AcDbLine
 10
1854.230358896613
 20
3462.091484113822
 30
-0.0000000000000933
 11
1854.991267023444
 21
3462.229480787406
 31
-0.0000000000000933
  0
LINE
  5
854
330
1F
100
AcDbEntity
  8
0
100
AcDbLine
 10
1849.309785662054
 20
3461.565990491996
 30
-0.0000000000000933
 11
1851.472699938178
 21
3461.739788099417
 31
-0.0000000000000933
  0
LINE
  5
855
330
1F
100
AcDbEntity
  8
0
100
AcDbLine
 10
1852.464349565863
 20
3461.845684095509
 30
-0.0000000000000933
 11
1853.385908899664
 21
3461.963214918265
 31
-0.0000000000000933
  0
LINE
  5
856
330
1F
100
AcDbEntity
  8
0
100
AcDbLine
 10
1851.472699938178
 20
3461.739788099417
 30
-0.0000000000000933
 11
1852.464349565863
 21
3461.845684095509
 31
-0.0000000000000933
  0
LINE
  5
857
330
1F
100
AcDbEntity
  8
0
100
AcDbLine
 10
1853.385908899664
 20
3461.963214918265
 30
-0.0000000000000933
 11
1854.230358896613
 21
3462.091484113822
 31
-0.0000000000000933
  0
LINE
  5
858
330
1F
100
AcDbEntity
  8
0
100
AcDbLine
 10
1835.036447344183
 20
3461.739788099417
 30
-0.0000000000000933
 11
1837.199356851935
 21
3461.565990491996
 31
-0.0000000000000933
  0
LINE
  5
859
330
1F
100
AcDbEntity
  8
0
100
AcDbLine
 10
1837.199356851935
 20
3461.565990491996
 30
-0.0000000000000933
 11
1849.309785662054
 21
3461.565990491996
 31
-0.0000000000000933
  0
LINE
  5
85A
330
1F
100
AcDbEntity
  8
0
100
AcDbLine
 10
2608.574358451968
 20
3430.870628400931
 30
0.0000000000000135
 11
2608.574358451968
 21
3458.350715681204
 31
0.0000000000000135
  0
LINE
  5
85B
330
1F
100
AcDbEntity
  8
0
100
AcDbLine
 10
2602.486708391314
 20
3426.612129255422
 30
0.0000000000000135
 11
2602.486708391314
 21
3462.609214826712
 31
0.0000000000000135
  0
LINE
  5
85C
330
1F
100
AcDbEntity
  8
0
100
AcDbLine
 10
2579.672977555399
 20
3430.870628400931
 30
0.0000000000000135
 11
2579.672977555399
 21
3458.350715681204
 31
0.0000000000000135
  0
LINE
  5
85D
330
1F
100
AcDbEntity
  8
0
100
AcDbLine
 10
2585.760638344889
 20
3426.612129255422
 30
0.0000000000000135
 11
2585.760638344889
 21
3462.609214826712
 31
0.0000000000000135
  0
LINE
  5
85E
330
1F
100
AcDbEntity
  8
0
100
AcDbLine
 10
2550.623666871195
 20
3426.610679670462
 30
0.0000000000000135
 11
2550.623666871195
 21
3462.610664411672
 31
0.0000000000000135
  0
CIRCLE
  5
85F
330
1F
100
AcDbEntity
  8
0
100
AcDbCircle
 10
2594.123682993592
 20
3444.610688421386
 30
0.0000000000000135
 40
19.9999782333517
  0
LINE
  5
860
330
1F
100
AcDbEntity
  8
0
100
AcDbLine
 10
2527.12366782487
 20
3426.610679670462
 30
0.0000000000000135
 11
2527.12366782487
 21
3462.610664411672
 31
0.0000000000000135
  0
LINE
  5
861
330
1F
100
AcDbEntity
  8
0
100
AcDbLine
 10
2630.597638714914
 20
3366.552848859916
 30
0.0000000000000135
 11
2634.161009419564
 21
3368.388404890188
 31
0.0000000000000135
  0
LINE
  5
862
330
1F
100
AcDbEntity
  8
0
100
AcDbLine
 10
2608.205758560305
 20
3430.422477766166
 30
0.0000000000000135
 11
2634.65219937623
 21
3369.763984724172
 31
0.0000000000000135
  0
LINE
  5
863
330
1F
100
AcDbEntity
  8
0
100
AcDbLine
 10
2528.636619675761
 20
3424.610710188039
 30
0.0000000000000135
 11
2594.678448665743
 21
3424.683723493704
 31
0.0000000000000135
  0
LINE
  5
864
330
1F
100
AcDbEntity
  8
0
100
AcDbLine
 10
2570.123667348032
 20
3356.610679670462
 30
0.0000000000000135
 11
2570.123667348032
 21
3424.610710188039
 31
0.0000000000000135
  0
LINE
  5
865
330
1F
100
AcDbEntity
  8
0
100
AcDbLine
 10
2531.123668778544
 20
3356.610679670462
 30
0.0000000000000135
 11
2531.123668778544
 21
3424.610710188039
 31
0.0000000000000135
  0
LINE
  5
866
330
1F
100
AcDbEntity
  8
0
100
AcDbLine
 10
2531.123668778544
 20
3356.610679670462
 30
0.0000000000000135
 11
2570.123667348032
 21
3356.610679670462
 31
0.0000000000000135
  0
LINE
  5
867
330
1F
100
AcDbEntity
  8
0
100
AcDbLine
 10
2569.623668063288
 20
3356.610679670462
 30
0.000000000000017
 11
2531.623668063288
 21
3356.610679670462
 31
0.00000000000001
210
0.0
220
1.0
230
0.0
  0
ARC
  5
868
330
1F
100
AcDbEntity
  8
0
100
AcDbCircle
 10
2531.623668063288
 20
3357.310679670462
 30
0.00000000000001
 40
0.6999999999999319
100
AcDbArc
 50
180.0
 51
270.0
  0
ARC
  5
869
330
1F
100
AcDbEntity
  8
0
100
AcDbCircle
 10
2569.623668063288
 20
3357.310679670462
 30
0.000000000000017
 40
0.6999999999999319
100
AcDbArc
 50
270.0
 51
0.0
  0
LINE
  5
86A
330
1F
100
AcDbEntity
  8
0
100
AcDbLine
 10
2527.12366782487
 20
3426.610679670462
 30
0.0000000000000135
 11
2528.636619675761
 21
3424.610710188039
 31
0.0000000000000135
  0
LINE
  5
86B
330
1F
100
AcDbEntity
  8
0
100
AcDbLine
 10
2603.193858418469
 20
3426.905021711478
 30
0.0000000000000135
 11
2629.307138550882
 21
3367.010688825736
 31
0.0000000000000135
  0
LINE
  5
86C
330
1F
100
AcDbEntity
  8
0
100
AcDbLine
 10
2629.307138550882
 20
3367.010688825736
 30
0.0000000000000135
 11
2630.597638714914
 21
3366.552848859916
 31
0.0000000000000135
  0
LINE
  5
86D
330
1F
100
AcDbEntity
  8
0
100
AcDbLine
 10
2602.486708391314
 20
3426.612129255422
 30
0.0000000000000135
 11
2602.608958411818
 21
3426.662712141165
 31
0.0000000000000135
  0
LINE
  5
86E
330
1F
100
AcDbEntity
  8
0
100
AcDbLine
 10
2585.638388026362
 20
3426.662712141165
 30
0.0000000000000135
 11
2585.760638344889
 21
3426.612129255422
 31
0.0000000000000135
  0
LINE
  5
86F
330
1F
100
AcDbEntity
  8
0
100
AcDbLine
 10
2634.161009419564
 20
3368.388404890188
 30
0.0000000000000135
 11
2634.65219937623
 21
3369.763984724172
 31
0.0000000000000135
  0
LINE
  5
870
330
1F
100
AcDbEntity
  8
0
100
AcDbLine
 10
2528.636619675761
 20
3464.610710188041
 30
0.0000000000000135
 11
2594.678448665743
 21
3464.537620588431
 31
0.0000000000000135
  0
LINE
  5
871
330
1F
100
AcDbEntity
  8
0
100
AcDbLine
 10
2527.12366782487
 20
3462.610664411672
 30
0.0000000000000135
 11
2528.636619675761
 21
3464.610710188041
 31
0.0000000000000135
  0
LINE
  5
872
330
1F
100
AcDbEntity
  8
0
100
AcDbLine
 10
2602.486708391314
 20
3462.609214826712
 30
0.0000000000000135
 11
2602.608958411818
 21
3462.55863194097
 31
0.0000000000000135
  0
LINE
  5
873
330
1F
100
AcDbEntity
  8
0
100
AcDbLine
 10
2585.638388026362
 20
3462.55863194097
 30
0.0000000000000135
 11
2585.760638344889
 21
3462.609214826712
 31
0.0000000000000135
  0
LINE
  5
874
330
1F
100
AcDbEntity
  8
0
100
AcDbLine
 10
1905.479516975807
 20
2426.050221821458
 30
0.0
 11
1905.479516975807
 21
2445.286595722825
 31
0.0
  0
LINE
  5
875
330
1F
100
AcDbEntity
  8
0
100
AcDbLine
 10
1875.479516975807
 20
2426.050221821458
 30
0.0
 11
1875.479516975807
 21
2445.286595722825
 31
0.0
  0
LINE
  5
876
330
1F
100
AcDbEntity
  8
0
100
AcDbLine
 10
1877.894334785865
 20
2424.758069416673
 30
0.0
 11
1903.064699165748
 21
2424.758069416673
 31
0.0
  0
LINE
  5
877
330
1F
100
AcDbEntity
  8
0
100
AcDbLine
 10
1876.479501717018
 20
2425.324704548508
 30
0.0
 11
1877.894334785865
 21
2424.758069416673
 31
0.0
  0
LINE
  5
878
330
1F
100
AcDbEntity
  8
0
100
AcDbLine
 10
1875.479516975807
 20
2426.050221821458
 30
0.0
 11
1876.479501717018
 21
2425.324704548508
 31
0.0
  0
LINE
  5
879
330
1F
100
AcDbEntity
  8
0
100
AcDbLine
 10
1904.479494087623
 20
2425.324704548508
 30
0.0
 11
1905.479516975807
 21
2426.050221821458
 31
0.0
  0
LINE
  5
87A
330
1F
100
AcDbEntity
  8
0
100
AcDbLine
 10
1903.064699165748
 20
2424.758069416673
 30
0.0
 11
1904.479494087623
 21
2425.324704548508
 31
0.0
  0
LINE
  5
87B
330
1F
100
AcDbEntity
  8
0
100
AcDbLine
 10
1827.479486458229
 20
2485.286595722825
 30
0.0
 11
1866.979494087623
 21
2485.286595722825
 31
0.0
  0
LINE
  5
87C
330
1F
100
AcDbEntity
  8
0
100
AcDbLine
 10
1827.479486458229
 20
2445.286595722825
 30
0.0
 11
1920.479497902321
 21
2445.286595722825
 31
0.0
  0
ARC
  5
881
330
1F
100
AcDbEntity
  8
0
100
AcDbCircle
 10
1842.479556037453
 20
2465.286614796311
 30
0.0
 40
12.00003247305865
100
AcDbArc
 50
224.999829483674
 51
135.000170516326
  0
LINE
  5
882
330
1F
100
AcDbEntity
  8
0
100
AcDbLine
 10
1833.900423042702
 20
2473.6496328322
 30
0.0
 11
1833.994226448463
 21
2473.771893879563
 31
0.0
  0
LINE
  5
883
330
1F
100
AcDbEntity
  8
0
100
AcDbLine
 10
1827.479486458229
 20
2479.737279316575
 30
0.0
 11
1827.479486458229
 21
2485.286595722825
 31
0.0
  0
LINE
  5
884
330
1F
100
AcDbEntity
  8
0
100
AcDbLine
 10
1827.479486458229
 20
2479.737279316575
 30
0.0
 11
1833.900423042702
 21
2473.6496328322
 31
0.0
  0
LINE
  5
885
330
1F
100
AcDbEntity
  8
0
100
AcDbLine
 10
1833.900423042702
 20
2456.801335713059
 30
0.0
 11
1833.994226448463
 21
2456.92355861345
 31
0.0
  0
LINE
  5
886
330
1F
100
AcDbEntity
  8
0
100
AcDbLine
 10
1827.479486458229
 20
2450.835912129075
 30
0.0
 11
1833.900423042702
 21
2456.92355861345
 31
0.0
  0
LINE
  5
887
330
1F
100
AcDbEntity
  8
0
100
AcDbLine
 10
1827.479486458229
 20
2445.286595722825
 30
0.0
 11
1827.479486458229
 21
2450.835912129075
 31
0.0
  0
LINE
  5
888
330
1F
100
AcDbEntity
  8
0
100
AcDbLine
 10
1855.479516975807
 20
2445.286595722825
 30
0.0
 11
1855.479516975807
 21
2485.286595722825
 31
0.0
  0
LINE
  5
889
330
1F
100
AcDbEntity
  8
0
100
AcDbLine
 10
1860.479516975807
 20
2445.286595722825
 30
0.0
 11
1860.479516975807
 21
2485.286595722825
 31
0.0
  0
LINE
  5
890
330
1F
100
AcDbEntity
  8
0
100
AcDbLine
 10
1913.979501717018
 20
2485.286595722825
 30
0.0
 11
1920.479497902321
 21
2485.286595722825
 31
0.0
  0
LINE
  5
891
330
1F
100
AcDbEntity
  8
0
100
AcDbLine
 10
1917.17949790232
 20
2472.286607200169
 30
0.0
 11
1938.979497902321
 21
2472.286607200169
 31
0.0
  0
LINE
  5
892
330
1F
100
AcDbEntity
  8
0
100
AcDbLine
 10
1938.979497902321
 20
2505.28660720017
 30
0.0
 11
1911.470924723763
 21
2505.28660720017
 31
0.0
  0
LINE
  5
893
330
1F
100
AcDbEntity
  8
0
100
AcDbLine
 10
1912.492189400123
 20
2464.731824299485
 30
0.0
 11
1912.479505531715
 21
2508.688275715501
 31
0.0
  0
LINE
  5
894
330
1F
100
AcDbEntity
  8
0
100
AcDbLine
 10
1913.979501717018
 20
2473.646161457688
 30
0.0
 11
1913.979501717018
 21
2508.786580464036
 31
0.0
  0
LINE
  5
895
330
1F
100
AcDbEntity
  8
0
100
AcDbLine
 10
1868.424730293678
 20
2464.731824299485
 30
0.0
 11
1868.479509346412
 21
2508.688275715501
 31
0.0
  0
LINE
  5
896
330
1F
100
AcDbEntity
  8
0
100
AcDbLine
 10
1866.979494087623
 20
2473.646161457688
 30
0.0
 11
1866.979494087623
 21
2508.786580464036
 31
0.0
  0
LINE
  5
897
330
1F
100
AcDbEntity
  8
0
100
AcDbLine
 10
1868.424730293678
 20
2464.731824299485
 30
0.0
 11
1912.534284584449
 21
2464.731824299485
 31
0.0
  0
LINE
  5
898
330
1F
100
AcDbEntity
  8
0
100
AcDbLine
 10
1867.968378059791
 20
2470.462987324387
 30
0.0
 11
1868.479509346412
 21
2465.286595722825
 31
0.0
  0
LINE
  5
899
330
1F
100
AcDbEntity
  8
0
100
AcDbLine
 10
1866.979494087623
 20
2473.646161457688
 30
0.0
 11
1867.968378059791
 21
2470.462987324387
 31
0.0
  0
LINE
  5
89A
330
1F
100
AcDbEntity
  8
0
100
AcDbLine
 10
1912.479505531715
 20
2465.286595722825
 30
0.0
 11
1912.99061774485
 21
2470.462987324387
 31
0.0
  0
LINE
  5
89B
330
1F
100
AcDbEntity
  8
0
100
AcDbLine
 10
1912.99061774485
 20
2470.462987324387
 30
0.0
 11
1913.979501717018
 21
2473.646161457688
 31
0.0
  0
LINE
  5
89C
330
1F
100
AcDbEntity
  8
0
100
AcDbLine
 10
1915.479497902321
 20
2445.286595722825
 30
0.0
 11
1915.479497902321
 21
2485.286595722825
 31
0.0
  0
ARC
  5
89E
330
1F
100
AcDbEntity
  8
0
100
AcDbCircle
 10
1890.47949790232
 20
2508.786607200169
 30
0.0
 40
16.50000698550666
100
AcDbArc
 50
179.9472776769999
 51
0.0527223228437613
  0
ARC
  5
89F
330
1F
100
AcDbEntity
  8
0
100
AcDbCircle
 10
1890.47949790232
 20
2508.786607200169
 30
0.0
 40
16.5
100
AcDbArc
 50
180.0
 51
0.0
  0
ARC
  5
8A2
330
1F
100
AcDbEntity
  8
0
100
AcDbCircle
 10
1890.479529164648
 20
2508.786568275194
 30
0.0
 40
23.50003507702812
100
AcDbArc
 50
134.5979793760099
 51
179.9999702821998
  0
ARC
  5
8A3
330
1F
100
AcDbEntity
  8
0
100
AcDbCircle
 10
1890.515080017224
 20
2508.751017422618
 30
0.0
 40
22.03565999261564
100
AcDbArc
 50
138.6251289226945
 51
180.1631373816488
  0
ARC
  5
8A8
330
1F
100
AcDbEntity
  8
0
100
AcDbCircle
 10
1890.400828479147
 20
2508.726217609542
 30
0.0
 40
22.07870965384735
100
AcDbArc
 50
359.9015381107097
 51
41.33251921227084
  0
ARC
  5
8A9
330
1F
100
AcDbEntity
  8
0
100
AcDbCircle
 10
1890.479528777315
 20
2508.786604150165
 30
0.0
 40
23.49997293971382
100
AcDbArc
 50
359.9999422503472
 51
45.40208400023365
  0
LINE
  5
8AC
330
1F
100
AcDbEntity
  8
0
100
AcDbLine
 10
1938.979497902321
 20
2505.28660720017
 30
-0.0000000000000874
 11
1938.979497902321
 21
2472.286607200169
 31
-0.0000000000000874
  0
LINE
  5
8AD
330
1F
100
AcDbEntity
  8
0
100
AcDbLine
 10
1920.479497902321
 20
2445.286595722825
 30
0.0
 11
1920.479497902321
 21
2485.286595722825
 31
0.0
  0
LINE
  5
8B4
330
1F
100
AcDbEntity
  8
STANDARD
  6
IMPORT
 62
     7
100
AcDbLine
 10
1010.643887523855
 20
3356.610679670462
 30
-0.0000000000000055
 11
1010.643887523855
 21
3067.553405333166
 31
-0.0000000000000055
210
0.0
220
1.0
230
0.0
  0
LINE
  5
8B5
330
1F
100
AcDbEntity
  8
STANDARD
  6
IMPORT
 62
     7
100
AcDbLine
 10
1043.643887523855
 20
3356.610679670462
 30
-0.0000000000000035
 11
1043.643887523855
 21
3067.553405333166
 31
-0.0000000000000035
210
0.0
220
1.0
230
0.0
  0
LINE
  5
8B6
330
1F
100
AcDbEntity
  8
STANDARD
  6
STANDARD
 62
     7
100
AcDbLine
 10
1874.115398399758
 20
3464.610672041066
 30
0.0
 11
1874.115398399758
 21
3630.05340724049
 31
0.0
  0
LINE
  5
8B7
330
1F
100
AcDbEntity
  8
STANDARD
  6
STANDARD
 62
     7
100
AcDbLine
 10
1906.888721458839
 20
3464.610672041066
 30
0.0
 11
1906.888721458839
 21
3630.05340724049
 31
0.0
  0
LINE
  5
8B8
330
1F
100
AcDbEntity
  8
STANDARD
  6
IMPORT
 62
     7
100
AcDbLine
 10
2533.59613402153
 20
3356.610679670462
 30
0.0000000000000105
 11
2533.59613402153
 21
3070.286607212192
 31
0.0000000000000105
210
0.0
220
1.0
230
0.0
  0
LINE
  5
8B9
330
1F
100
AcDbEntity
  8
STANDARD
  6
IMPORT
 62
     7
100
AcDbLine
 10
2566.59613402153
 20
3356.610679670462
 30
0.0000000000000165
 11
2566.59613402153
 21
3070.286607212192
 31
0.0000000000000165
210
0.0
220
1.0
230
0.0
  0
LINE
  5
8BA
330
1F
100
AcDbEntity
  8
STANDARD
  6
IMPORT
 62
     7
100
AcDbLine
 10
1852.226395817627
 20
2472.286607200171
 30
0.0
 11
1515.97949790232
 21
2472.286607200171
 31
0.0
  0
ENDSEC
  0
SECTION
  2
OBJECTS
  0
DICTIONARY
  5
C
330
0
100
AcDbDictionary
  3
ACAD_COLOR
350
6B
  3
ACAD_GROUP
350
D
  3
ACAD_LAYOUT
350
1A
  3
ACAD_MATERIAL
350
6A
  3
ACAD_MLINESTYLE
350
17
  3
ACAD_PLOTSETTINGS
350
19
  3
ACAD_PLOTSTYLENAME
350
E
  3
ACDBVARIABLEDICTIONARY
350
5E
  3
DWGPROPS
350
6C5
  3
ACDBHEADERROUNDTRIPXREC
350
8BD
  0
DICTIONARY
  5
703
330
1F
100
AcDbDictionary
280
     1
  3
ACAD_LAYOUTSELFREF
360
8DE
  0
DICTIONARY
  5
705
330
50
100
AcDbDictionary
280
     1
  3
ACAD_LAYOUTSELFREF
360
8DF
  0
DICTIONARY
  5
6B
102
{ACAD_REACTORS
330
C
102
}
330
C
100
AcDbDictionary
  0
DICTIONARY
  5
D
102
{ACAD_REACTORS
330
C
102
}
330
C
100
AcDbDictionary
  0
DICTIONARY
  5
1A
102
{ACAD_REACTORS
330
C
102
}
330
C
100
AcDbDictionary
  0
DICTIONARY
  5
6A
102
{ACAD_REACTORS
330
C
102
}
330
C
100
AcDbDictionary
  0
DICTIONARY
  5
17
102
{ACAD_REACTORS
330
C
102
}
330
C
100
AcDbDictionary
  3
STANDARD
350
18
  0
DICTIONARY
  5
19
102
{ACAD_REACTORS
330
C
102
}
330
C
100
AcDbDictionary
  0
ACDBDICTIONARYWDFLT
  5
E
102
{ACAD_REACTORS
330
C
102
}
330
C
100
AcDbDictionary
281
     1
  3
Normal
350
F
100
AcDbDictionaryWithDefault
340
F
  0
DICTIONARY
  5
5E
102
{ACAD_REACTORS
330
C
102
}
330
C
100
AcDbDictionary
  3
DIMASSOC
350
5F
  3
HIDETEXT
350
63
  3
PROJECTNAME
350
23B
  0
XRECORD
  5
6C5
102
{ACAD_REACTORS
330
C
102
}
330
C
100
AcDbXrecord
  1
DWGPROPS COOKIE
  2

  3

  4

  6

  7

  8

  9

300
=
301
=
302
=
303
=
304
=
305
=
306
=
307
=
308
=
309
=
 40
0.0012187615740741
 41
2453445.433536943
 42
2453445.439619062
  1

 90
        0
  0
DICTIONARY
  5
8BD
102
{ACAD_REACTORS
330
C
102
}
330
C
100
AcDbDictionary
  3
TSTACKALIGN
350
8BE
  3
TSTACKSIZE
350
8BF
  3
HYPERLINKBASE
350
8C0
  3
STYLESHEET
350
8C1
  3
LAYOUTDICT
350
8C2
  3
PLOTSETDICT
350
8C3
  3
PLOTSTYLNAMDICT
350
8C4
  3
LWETCUNION
350
8C5
  3
INSUNITS
350
8C6
  3
CEPSNTYPE
350
8C7
  3
FINGERPRINTGUID
350
8C8
  3
VERSIONGUID
350
8C9
  3
PSVPSCALE
350
8CA
  3
DIMSTYLEDATA
350
8CB
  3
PUCSORTHOREF
350
8CC
  3
PUCSORTHOVIEW
350
8CD
  3
PUCSBASE
350
8CE
  3
PUCSORGTOP
350
8CF
  3
PUCSORGBOTTOM
350
8D0
  3
PUCSORGLEFT
350
8D1
  3
PUCSORGRIGHT
350
8D2
  3
PUCSORGFRONT
350
8D3
  3
PUCSORGBACK
350
8D4
  3
UCSORTHOREF
350
8D5
  3
UCSORTHOVIEW
350
8D6
  3
UCSBASE
350
8D7
  3
UCSORGTOP
350
8D8
  3
UCSORGBOTTOM
350
8D9
  3
UCSORGLEFT
350
8DA
  3
UCSORGRIGHT
350
8DB
  3
UCSORGFRONT
350
8DC
  3
UCSORGBACK
350
8DD
  0
XRECORD
  5
8DE
102
{ACAD_REACTORS
330
703
102
}
330
703
100
AcDbXrecord
340
1F
  0
XRECORD
  5
8DF
102
{ACAD_REACTORS
330
705
102
}
330
705
100
AcDbXrecord
340
50
  0
MLINESTYLE
  5
18
102
{ACAD_REACTORS
330
17
102
}
330
17
100
AcDbMlineStyle
  2
STANDARD
 70
     0
  3

 62
   256
 51
90.0
 52
90.0
 71
     2
 49
0.5
 62
   256
  6
BYLAYER
 49
-0.5
 62
   256
  6
BYLAYER
  0
ACDBPLACEHOLDER
  5
F
102
{ACAD_REACTORS
330
E
102
}
330
E
100
AcDbPlaceHolder
280
     0
  0
DICTIONARYVAR
  5
5F
102
{ACAD_REACTORS
330
5E
102
}
330
5E
100
DictionaryVariables
280
     0
  1
2
  0
DICTIONARYVAR
  5
63
102
{ACAD_REACTORS
330
5E
102
}
330
5E
100
DictionaryVariables
280
     0
  1
1
  0
DICTIONARYVAR
  5
23B
102
{ACAD_REACTORS
330
5E
102
}
330
5E
100
DictionaryVariables
280
     0
  1

  0
XRECORD
  5
8BE
102
{ACAD_REACTORS
330
8BD
102
}
330
8BD
100
AcDbXrecord
 90
        1
  0
XRECORD
  5
8BF
102
{ACAD_REACTORS
330
8BD
102
}
330
8BD
100
AcDbXrecord
 90
       70
  0
XRECORD
  5
8C0
102
{ACAD_REACTORS
330
8BD
102
}
330
8BD
100
AcDbXrecord
  1

  0
XRECORD
  5
8C1
102
{ACAD_REACTORS
330
8BD
102
}
330
8BD
100
AcDbXrecord
  1

  0
XRECORD
  5
8C2
102
{ACAD_REACTORS
330
8BD
102
}
330
8BD
100
AcDbXrecord
340
1A
  0
XRECORD
  5
8C3
102
{ACAD_REACTORS
330
8BD
102
}
330
8BD
100
AcDbXrecord
340
19
  0
XRECORD
  5
8C4
102
{ACAD_REACTORS
330
8BD
102
}
330
8BD
100
AcDbXrecord
340
E
  0
XRECORD
  5
8C5
102
{ACAD_REACTORS
330
8BD
102
}
330
8BD
100
AcDbXrecord
 90
    10781
  0
XRECORD
  5
8C6
102
{ACAD_REACTORS
330
8BD
102
}
330
8BD
100
AcDbXrecord
 90
        4
  0
XRECORD
  5
8C7
102
{ACAD_REACTORS
330
8BD
102
}
330
8BD
100
AcDbXrecord
 90
        0
  0
XRECORD
  5
8C8
102
{ACAD_REACTORS
330
8BD
102
}
330
8BD
100
AcDbXrecord
  1
{FDEAD578-A652-11D2-9A35-0060089B3A3F}
  0
XRECORD
  5
8C9
102
{ACAD_REACTORS
330
8BD
102
}
330
8BD
100
AcDbXrecord
  1
{C75058F0-CE6A-4EEC-841F-750A1972ABDB}
  0
XRECORD
  5
8CA
102
{ACAD_REACTORS
330
8BD
102
}
330
8BD
100
AcDbXrecord
 40
0.0
  0
XRECORD
  5
8CB
102
{ACAD_REACTORS
330
8BD
102
}
330
8BD
100
AcDbXrecord
1000
DSTYLE
1002
{
1070
   278
 70
    44
1002
}
  0
XRECORD
  5
8CC
102
{ACAD_REACTORS
330
8BD
102
}
330
8BD
100
AcDbXrecord
340
0
  0
XRECORD
  5
8CD
102
{ACAD_REACTORS
330
8BD
102
}
330
8BD
100
AcDbXrecord
 70
     0
  0
XRECORD
  5
8CE
102
{ACAD_REACTORS
330
8BD
102
}
330
8BD
100
AcDbXrecord
340
0
  0
XRECORD
  5
8CF
102
{ACAD_REACTORS
330
8BD
102
}
330
8BD
100
AcDbXrecord
 10
0.0
 20
0.0
 30
0.0
  0
XRECORD
  5
8D0
102
{ACAD_REACTORS
330
8BD
102
}
330
8BD
100
AcDbXrecord
 10
0.0
 20
0.0
 30
0.0
  0
XRECORD
  5
8D1
102
{ACAD_REACTORS
330
8BD
102
}
330
8BD
100
AcDbXrecord
 10
0.0
 20
0.0
 30
0.0
  0
XRECORD
  5
8D2
102
{ACAD_REACTORS
330
8BD
102
}
330
8BD
100
AcDbXrecord
 10
0.0
 20
0.0
 30
0.0
  0
XRECORD
  5
8D3
102
{ACAD_REACTORS
330
8BD
102
}
330
8BD
100
AcDbXrecord
 10
0.0
 20
0.0
 30
0.0
  0
XRECORD
  5
8D4
102
{ACAD_REACTORS
330
8BD
102
}
330
8BD
100
AcDbXrecord
 10
0.0
 20
0.0
 30
0.0
  0
XRECORD
  5
8D5
102
{ACAD_REACTORS
330
8BD
102
}
330
8BD
100
AcDbXrecord
340
0
  0
XRECORD
  5
8D6
102
{ACAD_REACTORS
330
8BD
102
}
330
8BD
100
AcDbXrecord
 70
     0
  0
XRECORD
  5
8D7
102
{ACAD_REACTORS
330
8BD
102
}
330
8BD
100
AcDbXrecord
340
0
  0
XRECORD
  5
8D8
102
{ACAD_REACTORS
330
8BD
102
}
330
8BD
100
AcDbXrecord
 10
0.0
 20
0.0
 30
0.0
  0
XRECORD
  5
8D9
102
{ACAD_REACTORS
330
8BD
102
}
330
8BD
100
AcDbXrecord
 10
0.0
 20
0.0
 30
0.0
  0
XRECORD
  5
8DA
102
{ACAD_REACTORS
330
8BD
102
}
330
8BD
100
AcDbXrecord
 10
0.0
 20
0.0
 30
0.0
  0
XRECORD
  5
8DB
102
{ACAD_REACTORS
330
8BD
102
}
330
8BD
100
AcDbXrecord
 10
0.0
 20
0.0
 30
0.0
  0
XRECORD
  5
8DC
102
{ACAD_REACTORS
330
8BD
102
}
330
8BD
100
AcDbXrecord
 10
0.0
 20
0.0
 30
0.0
  0
XRECORD
  5
8DD
102
{ACAD_REACTORS
330
8BD
102
}
330
8BD
100
AcDbXrecord
 10
0.0
 20
0.0
 30
0.0
  0
ENDSEC
  0
EOF
