  0
SECTION
  2
HEADER
  9
$ACADVER
  1
AC1014
  9
$ACADMAINTVER
 70
     9
  9
$DWGCODEPAGE
  3
ANSI_1252
  9
$INSBASE
 10
0.0
 20
0.0
 30
0.0
  9
$EXTMIN
 10
55.76989170204564
 20
115.4692789254617
 30
-0.0000000100000224
  9
$EXTMAX
 10
1456.165730137337
 20
664.6453858764064
 30
0.0000000100000212
  9
$LIMMIN
 10
0.0
 20
0.0
  9
$LIMMAX
 10
420.0
 20
297.0
  9
$ORTHOMODE
 70
     0
  9
$REGENMODE
 70
     1
  9
$FILLMODE
 70
     1
  9
$QTEXTMODE
 70
     0
  9
$MIRRTEXT
 70
     0
  9
$DRAGMODE
 70
     2
  9
$LTSCALE
 40
1.0
  9
$OSMODE
 70
  2223
  9
$ATTMODE
 70
     1
  9
$TEXTSIZE
 40
2.5
  9
$TRACEWID
 40
1.0
  9
$TEXTSTYLE
  7
STANDARD
  9
$CLAYER
  8
0
  9
$CELTYPE
  6
BYLAYER
  9
$CECOLOR
 62
   256
  9
$CELTSCALE
 40
1.0
  9
$DELOBJ
 70
     1
  9
$DISPSILH
 70
     0
  9
$DIMSCALE
 40
1.0
  9
$DIMASZ
 40
2.5
  9
$DIMEXO
 40
0.625
  9
$DIMDLI
 40
3.75
  9
$DIMRND
 40
0.0
  9
$DIMDLE
 40
0.0
  9
$DIMEXE
 40
1.25
  9
$DIMTP
 40
0.0
  9
$DIMTM
 40
0.0
  9
$DIMTXT
 40
2.5
  9
$DIMCEN
 40
2.5
  9
$DIMTSZ
 40
0.0
  9
$DIMTOL
 70
     0
  9
$DIMLIM
 70
     0
  9
$DIMTIH
 70
     0
  9
$DIMTOH
 70
     0
  9
$DIMSE1
 70
     0
  9
$DIMSE2
 70
     0
  9
$DIMTAD
 70
     1
  9
$DIMZIN
 70
     8
  9
$DIMBLK
  1

  9
$DIMASO
 70
     1
  9
$DIMSHO
 70
     1
  9
$DIMPOST
  1

  9
$DIMAPOST
  1

  9
$DIMALT
 70
     0
  9
$DIMALTD
 70
     3
  9
$DIMALTF
 40
0.03937007874016
  9
$DIMLFAC
 40
1.0
  9
$DIMTOFL
 70
     1
  9
$DIMTVP
 40
0.0
  9
$DIMTIX
 70
     0
  9
$DIMSOXD
 70
     0
  9
$DIMSAH
 70
     0
  9
$DIMBLK1
  1

  9
$DIMBLK2
  1

  9
$DIMSTYLE
  2
ISO-25
  9
$DIMCLRD
 70
     0
  9
$DIMCLRE
 70
     0
  9
$DIMCLRT
 70
     0
  9
$DIMTFAC
 40
1.0
  9
$DIMGAP
 40
0.625
  9
$DIMJUST
 70
     0
  9
$DIMSD1
 70
     0
  9
$DIMSD2
 70
     0
  9
$DIMTOLJ
 70
     0
  9
$DIMTZIN
 70
     8
  9
$DIMALTZ
 70
     0
  9
$DIMALTTZ
 70
     0
  9
$DIMFIT
 70
     3
  9
$DIMUPT
 70
     0
  9
$DIMUNIT
 70
     2
  9
$DIMDEC
 70
     2
  9
$DIMTDEC
 70
     2
  9
$DIMALTU
 70
     2
  9
$DIMALTTD
 70
     3
  9
$DIMTXSTY
  7
STANDARD
  9
$DIMAUNIT
 70
     0
  9
$LUNITS
 70
     2
  9
$LUPREC
 70
     4
  9
$SKETCHINC
 40
1.0
  9
$FILLETRAD
 40
10.0
  9
$AUNITS
 70
     0
  9
$AUPREC
 70
     0
  9
$MENU
  1
.
  9
$ELEVATION
 40
0.0
  9
$PELEVATION
 40
0.0
  9
$THICKNESS
 40
0.0
  9
$LIMCHECK
 70
     0
  9
$BLIPMODE
 70
     0
  9
$CHAMFERA
 40
10.0
  9
$CHAMFERB
 40
10.0
  9
$CHAMFERC
 40
20.0
  9
$CHAMFERD
 40
0.0
  9
$SKPOLY
 70
     0
  9
$TDCREATE
 40
2453586.352102685
  9
$TDUPDATE
 40
2453615.630834004
  9
$TDINDWG
 40
0.0060136806
  9
$TDUSRTIMER
 40
0.0060103241
  9
$USRTIMER
 70
     1
  9
$ANGBASE
 50
0.0
  9
$ANGDIR
 70
     0
  9
$PDMODE
 70
     0
  9
$PDSIZE
 40
0.0
  9
$PLINEWID
 40
0.0
  9
$COORDS
 70
     1
  9
$SPLFRAME
 70
     0
  9
$SPLINETYPE
 70
     6
  9
$SPLINESEGS
 70
     8
  9
$ATTDIA
 70
     0
  9
$ATTREQ
 70
     1
  9
$HANDLING
 70
 10241
  9
$HANDSEED
  5
203
  9
$SURFTAB1
 70
     6
  9
$SURFTAB2
 70
     6
  9
$SURFTYPE
 70
     6
  9
$SURFU
 70
     6
  9
$SURFV
 70
     6
  9
$UCSNAME
  2

  9
$UCSORG
 10
0.0
 20
0.0
 30
0.0
  9
$UCSXDIR
 10
1.0
 20
0.0
 30
0.0
  9
$UCSYDIR
 10
0.0
 20
1.0
 30
0.0
  9
$PUCSNAME
  2

  9
$PUCSORG
 10
0.0
 20
0.0
 30
0.0
  9
$PUCSXDIR
 10
1.0
 20
0.0
 30
0.0
  9
$PUCSYDIR
 10
0.0
 20
1.0
 30
0.0
  9
$USERI1
 70
     0
  9
$USERI2
 70
     0
  9
$USERI3
 70
     0
  9
$USERI4
 70
     0
  9
$USERI5
 70
     0
  9
$USERR1
 40
0.0
  9
$USERR2
 40
0.0
  9
$USERR3
 40
0.0
  9
$USERR4
 40
0.0
  9
$USERR5
 40
0.0
  9
$WORLDVIEW
 70
     1
  9
$SHADEDGE
 70
     3
  9
$SHADEDIF
 70
    70
  9
$TILEMODE
 70
     1
  9
$MAXACTVP
 70
    64
  9
$PINSBASE
 10
0.0
 20
0.0
 30
0.0
  9
$PLIMCHECK
 70
     0
  9
$PEXTMIN
 10
0.0
 20
0.0
 30
0.0
  9
$PEXTMAX
 10
0.0
 20
0.0
 30
0.0
  9
$PLIMMIN
 10
0.0
 20
0.0
  9
$PLIMMAX
 10
12.0
 20
9.0
  9
$UNITMODE
 70
     0
  9
$VISRETAIN
 70
     1
  9
$PLINEGEN
 70
     0
  9
$PSLTSCALE
 70
     1
  9
$TREEDEPTH
 70
  3020
  9
$PICKSTYLE
 70
     1
  9
$CMLSTYLE
  2
STANDARD
  9
$CMLJUST
 70
     0
  9
$CMLSCALE
 40
20.0
  9
$PROXYGRAPHICS
 70
     1
  9
$MEASUREMENT
 70
     1
  0
ENDSEC
  0
SECTION
  2
CLASSES
  0
CLASS
  1
ACDBDICTIONARYWDFLT
  2
AcDbDictionaryWithDefault
  3
AutoCAD 2000
 90
        0
280
     0
281
     0
  0
CLASS
  1
DICTIONARYVAR
  2
AcDbDictionaryVar
  3
AutoCAD 2000
 90
        0
280
     0
281
     0
  0
CLASS
  1
ACDBPLACEHOLDER
  2
AcDbPlaceHolder
  3
AutoCAD 2000
 90
        0
280
     0
281
     0
  0
CLASS
  1
LAYOUT
  2
AcDbLayout
  3
AutoCAD 2000
 90
        0
280
     0
281
     0
  0
CLASS
  1
LONG_TRANSACTION
  2
AcDbLongTransaction
  3
AutoCAD 2000
 90
        0
280
     0
281
     0
  0
CLASS
  1
LWPOLYLINE
  2
AcDbPolyline
  3
AutoCAD 2000
 90
        0
280
     0
281
     1
  0
CLASS
  1
HATCH
  2
AcDbHatch
  3
AutoCAD 2000
 90
        0
280
     0
281
     1
  0
CLASS
  1
XRECORD
  2
AcDbXrecord
  3
AutoCAD 2000
 90
        0
280
     0
281
     0
  0
ENDSEC
  0
SECTION
  2
TABLES
  0
TABLE
  2
VPORT
  5
8
330
0
100
AcDbSymbolTable
 70
     3
  0
VPORT
  5
1DB
330
8
100
AcDbSymbolTableRecord
100
AcDbViewportTableRecord
  2
*ACTIVE
 70
     0
 10
0.0
 20
0.0
 11
1.0
 21
1.0
 12
769.5483206341828
 22
340.8030845274474
 13
0.0
 23
0.0
 14
10.0
 24
10.0
 15
10.0
 25
10.0
 16
0.0
 26
0.0
 36
1.0
 17
0.0
 27
0.0
 37
0.0
 40
1053.33604681699
 41
1.525316455696202
 42
50.0
 43
0.0
 44
0.0
 50
0.0
 51
0.0
 71
     0
 72
  1000
 73
     1
 74
     3
 75
     0
 76
     0
 77
     0
 78
     0
  0
ENDTAB
  0
TABLE
  2
LTYPE
  5
5
330
0
100
AcDbSymbolTable
 70
     1
  0
LTYPE
  5
14
330
5
100
AcDbSymbolTableRecord
100
AcDbLinetypeTableRecord
  2
BYBLOCK
 70
     0
  3

 72
    65
 73
     0
 40
0.0
  0
LTYPE
  5
15
330
5
100
AcDbSymbolTableRecord
100
AcDbLinetypeTableRecord
  2
BYLAYER
 70
     0
  3

 72
    65
 73
     0
 40
0.0
  0
LTYPE
  5
16
330
5
100
AcDbSymbolTableRecord
100
AcDbLinetypeTableRecord
  2
CONTINUOUS
 70
     0
  3
Solid line
 72
    65
 73
     0
 40
0.0
  0
ENDTAB
  0
TABLE
  2
LAYER
  5
2
330
0
100
AcDbSymbolTable
 70
     2
  0
LAYER
  5
10
330
2
100
AcDbSymbolTableRecord
100
AcDbLayerTableRecord
  2
0
 70
     0
 62
     7
  6
CONTINUOUS
  0
ENDTAB
  0
TABLE
  2
STYLE
  5
3
330
0
100
AcDbSymbolTable
 70
     1
  0
STYLE
  5
11
330
3
100
AcDbSymbolTableRecord
100
AcDbTextStyleTableRecord
  2
STANDARD
 70
     0
 40
0.0
 41
1.0
 50
0.0
 71
     0
 42
2.5
  3
txt
  4

  0
ENDTAB
  0
TABLE
  2
VIEW
  5
6
330
0
100
AcDbSymbolTable
 70
     0
  0
ENDTAB
  0
TABLE
  2
UCS
  5
7
330
0
100
AcDbSymbolTable
 70
     0
  0
ENDTAB
  0
TABLE
  2
APPID
  5
9
330
0
100
AcDbSymbolTable
 70
     1
  0
APPID
  5
12
330
9
100
AcDbSymbolTableRecord
100
AcDbRegAppTableRecord
  2
ACAD
 70
     0
  0
ENDTAB
  0
TABLE
  2
DIMSTYLE
  5
A
330
0
100
AcDbSymbolTable
 70
     2
  0
DIMSTYLE
105
27
330
A
100
AcDbSymbolTableRecord
100
AcDbDimStyleTableRecord
  2
ISO-25
 70
     0
  3

  4

  5

  6

  7

 40
1.0
 41
2.5
 42
0.625
 43
3.75
 44
1.25
 45
0.0
 46
0.0
 47
0.0
 48
0.0
140
2.5
141
2.5
142
0.0
143
0.03937007874016
144
1.0
145
0.0
146
1.0
147
0.625
 71
     0
 72
     0
 73
     0
 74
     0
 75
     0
 76
     0
 77
     1
 78
     8
170
     0
171
     3
172
     1
173
     0
174
     0
175
     0
176
     0
177
     0
178
     0
270
     2
271
     2
272
     2
273
     2
274
     3
340
11
275
     0
280
     0
281
     0
282
     0
283
     0
284
     8
285
     0
286
     0
287
     3
288
     0
  0
DIMSTYLE
105
AB
330
A
100
AcDbSymbolTableRecord
100
AcDbDimStyleTableRecord
  2
STANDARD
 70
     0
  3

  4

  5

  6

  7

 40
1.0
 41
0.18
 42
0.0625
 43
0.38
 44
0.18
 45
0.0
 46
0.0
 47
0.0
 48
0.0
140
0.18
141
0.09
142
0.0
143
25.4
144
1.0
145
0.0
146
1.0
147
0.09
 71
     0
 72
     0
 73
     1
 74
     1
 75
     0
 76
     0
 77
     0
 78
     0
170
     0
171
     2
172
     0
173
     0
174
     0
175
     0
176
     0
177
     0
178
     0
270
     2
271
     4
272
     4
273
     2
274
     2
340
11
275
     0
280
     0
281
     0
282
     0
283
     1
284
     0
285
     0
286
     0
287
     3
288
     0
  0
ENDTAB
  0
TABLE
  2
BLOCK_RECORD
  5
1
330
0
100
AcDbSymbolTable
 70
     1
  0
BLOCK_RECORD
  5
1F
102
{ACAD_XDICTIONARY
360
1FD
102
}
330
1
100
AcDbSymbolTableRecord
100
AcDbBlockTableRecord
  2
*MODEL_SPACE
  0
BLOCK_RECORD
  5
50
102
{ACAD_XDICTIONARY
360
1FF
102
}
330
1
100
AcDbSymbolTableRecord
100
AcDbBlockTableRecord
  2
*PAPER_SPACE
  0
ENDTAB
  0
ENDSEC
  0
SECTION
  2
BLOCKS
  0
BLOCK
  5
20
330
1F
100
AcDbEntity
  8
0
100
AcDbBlockBegin
  2
*MODEL_SPACE
 70
     0
 10
0.0
 20
0.0
 30
0.0
  3
*MODEL_SPACE
  1

  0
ENDBLK
  5
21
330
1F
100
AcDbEntity
  8
0
100
AcDbBlockEnd
  0
BLOCK
  5
52
330
50
100
AcDbEntity
 67
     1
  8
0
100
AcDbBlockBegin
  2
*PAPER_SPACE
 70
     0
 10
0.0
 20
0.0
 30
0.0
  3
*PAPER_SPACE
  1

  0
ENDBLK
  5
53
330
50
100
AcDbEntity
 67
     1
  8
0
100
AcDbBlockEnd
  0
ENDSEC
  0
SECTION
  2
ENTITIES
  0
ARC
  5
121
330
1F
100
AcDbEntity
  8
0
100
AcDbCircle
 10
590.9678109197257
 20
136.2125031656752
 30
0.0
 40
10.0
100
AcDbArc
 50
180.0
 51
277.6467150924535
  0
ARC
  5
122
330
1F
100
AcDbEntity
  8
0
100
AcDbCircle
 10
920.9678109197255
 20
136.2125031656068
 30
0.0
 40
10.0
100
AcDbArc
 50
262.3532849075201
 51
0.0
  0
ARC
  5
123
330
1F
100
AcDbEntity
  8
0
100
AcDbCircle
 10
510.9678109197258
 20
280.2393545574218
 30
0.0
 40
136.4999999999997
100
AcDbArc
 50
180.0000000000098
 51
270.0
  0
ARC
  5
124
330
1F
100
AcDbEntity
  8
0
100
AcDbCircle
 10
510.9678109197258
 20
280.2393545574218
 30
0.0
 40
103.4999999999999
100
AcDbArc
 50
180.000000000013
 51
270.0
  0
ARC
  5
125
330
1F
100
AcDbEntity
  8
0
100
AcDbCircle
 10
1000.967810919725
 20
280.2393545574218
 30
0.0
 40
136.4999999999997
100
AcDbArc
 50
270.0
 51
359.999999999987
  0
ARC
  5
126
330
1F
100
AcDbEntity
  8
0
100
AcDbCircle
 10
1000.967810919725
 20
280.2393545574218
 30
0.0
 40
103.4999999999999
100
AcDbArc
 50
270.0
 51
359.999999999987
  0
LINE
  5
127
330
1F
100
AcDbEntity
  8
0
100
AcDbLine
 10
580.967810919726
 20
143.7393545574219
 30
0.0
 11
520.9678109197258
 21
143.7393545574219
 31
0.0
  0
LINE
  5
128
330
1F
100
AcDbEntity
  8
0
100
AcDbLine
 10
580.9678109197258
 20
176.7393545574219
 30
0.0
 11
520.9678109197258
 21
176.7393545574219
 31
0.0
  0
LINE
  5
129
330
1F
100
AcDbEntity
  8
0
100
AcDbLine
 10
990.9678109197258
 20
143.7393545574219
 30
0.0
 11
930.9678109197255
 21
143.7393545574219
 31
0.0
  0
LINE
  5
12A
330
1F
100
AcDbEntity
  8
0
100
AcDbLine
 10
990.9678109197258
 20
176.7393545574219
 30
0.0
 11
930.9678109197259
 21
176.7393545574219
 31
0.0
  0
LINE
  5
12B
330
1F
100
AcDbEntity
  8
0
100
AcDbLine
 10
520.9678109197258
 20
143.7393545574219
 30
0.0
 11
510.9678109197258
 21
143.7393545574219
 31
0.0
  0
LINE
  5
12C
330
1F
100
AcDbEntity
  8
0
100
AcDbLine
 10
520.9678109197258
 20
176.7393545574219
 30
0.0
 11
510.9678109197258
 21
176.7393545574219
 31
0.0
  0
LINE
  5
12D
330
1F
100
AcDbEntity
  8
0
100
AcDbLine
 10
374.467810919726
 20
280.2393545573936
 30
0.0
 11
374.467810919726
 21
290.2393545574184
 31
0.0
  0
LINE
  5
12E
330
1F
100
AcDbEntity
  8
0
100
AcDbLine
 10
407.4678109197261
 20
280.2393545574004
 30
0.0
 11
407.4678109197261
 21
290.2393545574252
 31
0.0
  0
LINE
  5
12F
330
1F
100
AcDbEntity
  8
0
100
AcDbLine
 10
1000.967810919725
 20
143.7393545574219
 30
0.0
 11
990.9678109197258
 21
143.7393545574219
 31
0.0
  0
LINE
  5
130
330
1F
100
AcDbEntity
  8
0
100
AcDbLine
 10
1000.967810919725
 20
176.7393545574219
 30
0.0
 11
990.9678109197258
 21
176.7393545574219
 31
0.0
  0
LINE
  5
131
330
1F
100
AcDbEntity
  8
0
100
AcDbLine
 10
1137.467810919726
 20
290.2393545574184
 30
0.0
 11
1137.467810919726
 21
280.2393545573936
 31
0.0
  0
LINE
  5
132
330
1F
100
AcDbEntity
  8
0
100
AcDbLine
 10
1104.467810919725
 20
290.2393545574252
 30
0.0
 11
1104.467810919725
 21
280.2393545574004
 31
0.0
  0
LINE
  5
133
330
1F
100
AcDbEntity
  8
0
100
AcDbLine
 10
1104.467810919725
 20
290.2393545574252
 30
0.0
 11
1137.467810919726
 21
290.2393545574184
 31
0.0
  0
LINE
  5
135
330
1F
100
AcDbEntity
  8
0
100
AcDbLine
 10
407.4678109197261
 20
290.2393545574252
 30
0.0
 11
374.467810919726
 21
290.2393545574184
 31
0.0
  0
ARC
  5
139
330
1F
100
AcDbEntity
  8
0
100
AcDbCircle
 10
920.9678109197255
 20
136.2125031656068
 30
0.0
 40
10.0
100
AcDbArc
 50
262.3532849075201
 51
0.0
  0
SPLINE
  5
13A
330
1F
100
AcDbEntity
  8
0
100
AcDbSpline
210
0.0
220
0.0
230
1.0
 70
     8
 71
     3
 72
    38
 73
    34
 74
     0
 42
0.0000000001
 43
0.0000000001
 40
-18.5090800955268
 40
-18.5090800955268
 40
-18.5090800955268
 40
-18.5090800955268
 40
-16.27139834080058
 40
-16.27139834080058
 40
-14.03371658607436
 40
-14.03371658607436
 40
-13.00943448790905
 40
-13.00943448790905
 40
-11.98515238974376
 40
-11.98515238974376
 40
-10.95783956527315
 40
-10.95783956527315
 40
-9.930526740802564
 40
-9.930526740802564
 40
-8.903916109875456
 40
-8.903916109875456
 40
-7.87730547894835
 40
-7.87730547894835
 40
-6.861358023056821
 40
-6.861358023056821
 40
-5.845410567165286
 40
-5.845410567165286
 40
-4.846197394634281
 40
-4.846197394634281
 40
-3.846984222103277
 40
-3.846984222103277
 40
-2.870438331472341
 40
-2.870438331472341
 40
-1.893892440841405
 40
-1.893892440841405
 40
-0.9469462204207026
 40
-0.9469462204207026
 40
0.0
 40
0.0
 40
0.0
 40
0.0
 10
915.4122553641679
 20
126.861209533677
 30
0.0
 10
915.7058296632435
 20
126.8228297761904
 30
0.0
 10
916.0162036771865
 20
126.7821377113715
 30
0.0
 10
916.6043272180395
 20
126.7048102381759
 30
0.0
 10
916.8820722488586
 20
126.6681793161044
 30
0.0
 10
917.2305711931842
 20
126.6221223269553
 30
0.0
 10
917.3476537336687
 20
126.6066328343294
 30
0.0
 10
917.5737075663368
 20
126.5766939217715
 30
0.0
 10
917.6826782911748
 20
126.5622449481347
 30
0.0
 10
917.874772658612
 20
126.5367527157551
 30
0.0
 10
917.9769758782857
 20
126.5231772174139
 30
0.0
 10
918.1725467379786
 20
126.4971752865175
 30
0.0
 10
918.2659137841485
 20
126.4847492828484
 30
0.0
 10
918.4287684946859
 20
126.4630600385574
 30
0.0
 10
918.5144538229117
 20
126.451639418407
 30
0.0
 10
918.676422115196
 20
126.430034688254
 30
0.0
 10
918.7527045105692
 20
126.4198509626135
 30
0.0
 10
918.8834632860183
 20
126.4023848857719
 30
0.0
 10
918.9510245824637
 20
126.3933547022602
 30
0.0
 10
919.0764790003512
 20
126.3765766952577
 30
0.0
 10
919.1343716391703
 20
126.3688291820854
 30
0.0
 10
919.231398741334
 20
126.3558392493719
 30
0.0
 10
919.2803164860443
 20
126.349287050404
 30
0.0
 10
919.3684662619194
 20
126.3374752233237
 30
0.0
 10
919.4076979381026
 20
126.3322158158104
 30
0.0
 10
919.4708935099994
 20
126.3237417007322
 30
0.0
 10
919.5013267822016
 20
126.3196594849153
 30
0.0
 10
919.5527327741567
 20
126.3127625252655
 30
0.0
 10
919.5737052852237
 20
126.3099479079988
 30
0.0
 10
919.6041584684108
 20
126.3058605322435
 30
0.0
 10
919.6169062390088
 20
126.304149254741
 30
0.0
 10
919.6334099165163
 20
126.3019336624727
 30
0.0
 10
919.6371657584334
 20
126.3014293865085
 30
0.0
 10
919.6371657584334
 20
126.3014293865085
 30
0.0
  0
SPLINE
  5
13B
330
1F
100
AcDbEntity
  8
0
100
AcDbSpline
210
0.0
220
0.0
230
1.0
 70
     8
 71
     3
 72
    70
 73
    66
 74
     0
 42
0.0000000001
 43
0.0000000001
 40
39.62778323717639
 40
39.62778323717639
 40
39.62778323717639
 40
39.62778323717639
 40
50.02619892778175
 40
50.02619892778175
 40
60.42461461838712
 40
60.42461461838712
 40
70.82303030899248
 40
70.82303030899248
 40
81.22144599959787
 40
81.22144599959787
 40
92.03651776576299
 40
92.03651776576299
 40
102.8515895319281
 40
102.8515895319281
 40
113.6666612980933
 40
113.6666612980933
 40
124.4817330642584
 40
124.4817330642584
 40
135.213537418722
 40
135.213537418722
 40
145.9453417731855
 40
145.9453417731855
 40
156.6771461276491
 40
156.6771461276491
 40
167.4089504821126
 40
167.4089504821126
 40
177.8320782282138
 40
177.8320782282138
 40
188.2552059743149
 40
188.2552059743149
 40
198.678333720416
 40
198.678333720416
 40
209.1014614665172
 40
209.1014614665172
 40
219.5245892126253
 40
219.5245892126253
 40
229.9477169587333
 40
229.9477169587333
 40
240.3708447048412
 40
240.3708447048412
 40
250.793972450949
 40
250.793972450949
 40
261.5257768054155
 40
261.5257768054155
 40
272.2575811598825
 40
272.2575811598825
 40
282.9893855143491
 40
282.9893855143491
 40
293.7211898688159
 40
293.7211898688159
 40
304.5362616349811
 40
304.5362616349811
 40
315.3513334011463
 40
315.3513334011463
 40
326.1664051673113
 40
326.1664051673113
 40
336.9814769334763
 40
336.9814769334763
 40
347.3798926240776
 40
347.3798926240776
 40
357.7783083146786
 40
357.7783083146786
 40
368.1767240052796
 40
368.1767240052796
 40
378.5751396958808
 40
378.5751396958808
 40
378.5751396958808
 40
378.5751396958808
 10
596.5233664752796
 20
126.8612095337433
 30
0.0
 10
599.1831628651273
 20
127.2089318675005
 30
0.0
 10
602.0081812475879
 20
127.5692864140707
 30
0.0
 10
607.8661090104096
 20
128.2940609672517
 30
0.0
 10
610.8990699211704
 20
128.6584505048644
 30
0.0
 10
617.0375747893372
 20
129.3718911706669
 30
0.0
 10
620.143316628935
 20
129.7209417230392
 30
0.0
 10
626.2795231697188
 20
130.3871265902143
 30
0.0
 10
629.3099476382697
 20
130.7042527971232
 30
0.0
 10
635.2523994111139
 20
131.3051459479571
 30
0.0
 10
638.4603952494138
 20
131.6180085421875
 30
0.0
 10
645.0892897864061
 20
132.2361033785549
 30
0.0
 10
648.5102315152455
 20
132.5413000967342
 30
0.0
 10
655.4104892441878
 20
133.1268755687637
 30
0.0
 10
658.8900500378638
 20
133.407254056799
 30
0.0
 10
665.743066640106
 20
133.9305565068874
 30
0.0
 10
669.1164912929602
 20
134.1734814117498
 30
0.0
 10
675.5583791937582
 20
134.6124296808137
 30
0.0
 10
678.9448378089518
 20
134.8303519907515
 30
0.0
 10
685.9167170795955
 20
135.2479211472393
 30
0.0
 10
689.5021652393762
 20
135.4475346807521
 30
0.0
 10
696.708212755225
 20
135.8163020063583
 30
0.0
 10
700.3290676268792
 20
135.9854557340155
 30
0.0
 10
707.4363109318394
 20
136.2866866080669
 30
0.0
 10
710.9226815631207
 20
136.4187753549132
 30
0.0
 10
717.4900116299625
 20
136.6416244066971
 30
0.0
 10
720.8949833223082
 20
136.7441760388265
 30
0.0
 10
727.8810361371281
 20
136.9235995422908
 30
0.0
 10
731.4621282831067
 20
137.0004446759893
 30
0.0
 10
738.6352807857762
 20
137.1224590231454
 30
0.0
 10
742.2275830935635
 20
137.1676282311802
 30
0.0
 10
749.2564917073074
 20
137.2260660454978
 30
0.0
 10
752.6930945545419
 20
137.2393545574223
 30
0.0
 10
759.2425272848893
 20
137.2393545574212
 30
0.0
 10
762.6791301321262
 20
137.2260660454952
 30
0.0
 10
769.7080387458746
 20
137.1676282311746
 30
0.0
 10
773.3003410536642
 20
137.1224590231385
 30
0.0
 10
780.4734935563383
 20
137.0004446759794
 30
0.0
 10
784.0545857023191
 20
136.9235995422793
 30
0.0
 10
791.0406385171435
 20
136.744176038812
 30
0.0
 10
794.4456102094916
 20
136.6416244066811
 30
0.0
 10
801.0129402763364
 20
136.4187753548941
 30
0.0
 10
804.4993109076186
 20
136.2866866080468
 30
0.0
 10
811.6065542125806
 20
135.985455733992
 30
0.0
 10
815.2274090842359
 20
135.8163020063335
 30
0.0
 10
822.4334566000864
 20
135.4475346807241
 30
0.0
 10
826.0189047598682
 20
135.2479211472096
 30
0.0
 10
832.9907840305132
 20
134.8303519907188
 30
0.0
 10
836.3772426457076
 20
134.6124296807791
 30
0.0
 10
842.8191305465063
 20
134.1734814117126
 30
0.0
 10
846.1925551993607
 20
133.9305565068487
 30
0.0
 10
853.0455718016023
 20
133.4072540567576
 30
0.0
 10
856.5251325952784
 20
133.1268755687208
 30
0.0
 10
863.42539032422
 20
132.5413000966884
 30
0.0
 10
866.8463320530591
 20
132.2361033785077
 30
0.0
 10
873.4752265900509
 20
131.6180085421375
 30
0.0
 10
876.6832224283506
 20
131.305145947906
 30
0.0
 10
882.6256742011931
 20
130.7042527970696
 30
0.0
 10
885.6560986697429
 20
130.3871265901594
 30
0.0
 10
891.7923052105235
 20
129.7209417229817
 30
0.0
 10
894.8980470501201
 20
129.3718911706084
 30
0.0
 10
901.0365519182839
 20
128.6584505048036
 30
0.0
 10
904.0695128290435
 20
128.29406096719
 30
0.0
 10
909.9274405918624
 20
127.5692864140068
 30
0.0
 10
912.7524589743215
 20
127.2089318674357
 30
0.0
 10
915.4122553641679
 20
126.8612095336772
 30
0.0
  0
ARC
  5
13C
330
1F
100
AcDbEntity
  8
0
100
AcDbCircle
 10
590.9678109197257
 20
136.2125031656752
 30
0.0
 40
10.0
100
AcDbArc
 50
180.0
 51
277.6467150924535
  0
SPLINE
  5
13D
330
1F
100
AcDbEntity
  8
0
100
AcDbSpline
210
0.0
220
0.0
230
1.0
 70
     8
 71
     3
 72
    42
 73
    38
 74
     0
 42
0.0000000001
 43
0.0000000001
 40
60.51354121548342
 40
60.51354121548342
 40
60.51354121548342
 40
60.51354121548342
 40
61.46082082917963
 40
61.46082082917963
 40
62.40810044287586
 40
62.40810044287586
 40
63.38499014799821
 40
63.38499014799821
 40
64.36187985312057
 40
64.36187985312057
 40
65.36144482065886
 40
65.36144482065886
 40
66.36100978819714
 40
66.36100978819714
 40
67.37731493076896
 40
67.37731493076896
 40
68.3936200733408
 40
68.3936200733408
 40
69.42059214515372
 40
69.42059214515372
 40
70.44756421696668
 40
70.44756421696668
 40
71.47523872954579
 40
71.47523872954579
 40
72.50291324212489
 40
72.50291324212489
 40
73.5275559613646
 40
73.5275559613646
 40
74.55219868060432
 40
74.55219868060432
 40
75.62284745251872
 40
75.62284745251872
 40
76.69349622443316
 40
76.69349622443316
 40
77.85805876772167
 40
77.85805876772167
 40
79.0226213110102
 40
79.0226213110102
 40
79.0226213110102
 40
79.0226213110102
 10
592.2984560810142
 20
126.3014293865765
 30
0.0
 10
592.2984560810142
 20
126.3014293865765
 30
0.0
 10
592.3022119229312
 20
126.3019336625404
 30
0.0
 10
592.3187156004387
 20
126.3041492548087
 30
0.0
 10
592.3314633710366
 20
126.3058605323112
 30
0.0
 10
592.3619165542241
 20
126.3099479080665
 30
0.0
 10
592.3828890652909
 20
126.3127625253332
 30
0.0
 10
592.4342950572462
 20
126.3196594849828
 30
0.0
 10
592.4647283294483
 20
126.3237417008
 30
0.0
 10
592.5279239013451
 20
126.332215815878
 30
0.0
 10
592.5671555775286
 20
126.3374752233914
 30
0.0
 10
592.6553053534036
 20
126.3492870504717
 30
0.0
 10
592.704223098114
 20
126.3558392494395
 30
0.0
 10
592.8012502002778
 20
126.3688291821533
 30
0.0
 10
592.8591428390972
 20
126.3765766953255
 30
0.0
 10
592.9845972569848
 20
126.3933547023279
 30
0.0
 10
593.0521585534302
 20
126.4023848858395
 30
0.0
 10
593.182917328879
 20
126.419850962681
 30
0.0
 10
593.2591997242528
 20
126.4300346883217
 30
0.0
 10
593.4211680165372
 20
126.4516394184745
 30
0.0
 10
593.5068533447632
 20
126.4630600386249
 30
0.0
 10
593.6697080553009
 20
126.4847492829159
 30
0.0
 10
593.7630751014706
 20
126.4971752865849
 30
0.0
 10
593.9586459611638
 20
126.5231772174812
 30
0.0
 10
594.0608491808374
 20
126.5367527158224
 30
0.0
 10
594.2529435482748
 20
126.5622449482018
 30
0.0
 10
594.361914273113
 20
126.5766939218387
 30
0.0
 10
594.5879681057809
 20
126.6066328343965
 30
0.0
 10
594.7050506462654
 20
126.6221223270225
 30
0.0
 10
594.9288268469561
 20
126.6516961843175
 30
0.0
 10
595.0580628993627
 20
126.6687584401603
 30
0.0
 10
595.3245444715681
 20
126.7038923799258
 30
0.0
 10
595.4617894147502
 20
126.7219635560254
 30
0.0
 10
595.7283907222761
 20
126.7570247213859
 30
0.0
 10
595.8848049886346
 20
126.7775693892972
 30
0.0
 10
596.2059272322123
 20
126.8196785803491
 30
0.0
 10
596.3706346108627
 20
126.8412424864395
 30
0.0
 10
596.5233664752798
 20
126.8612095337433
 30
0.0
  0
LINE
  5
13E
330
1F
100
AcDbEntity
  8
0
100
AcDbLine
 10
930.9678109197259
 20
180.2393545574217
 30
0.0
 11
930.9678109197259
 21
136.2125031656068
 31
0.0
  0
LINE
  5
13F
330
1F
100
AcDbEntity
  8
0
100
AcDbLine
 10
921.3011442530591
 20
182.2393545574217
 30
0.0
 11
590.6344775863929
 21
182.2393545574217
 31
0.0
  0
ARC
  5
140
330
1F
100
AcDbEntity
  8
0
100
AcDbCircle
 10
928.9678109197256
 20
180.2393545574217
 30
0.0
 40
1.999999999999998
100
AcDbArc
 50
0.0
 51
90.0
  0
LINE
  5
141
330
1F
100
AcDbEntity
  8
0
100
AcDbLine
 10
928.9678109197256
 20
182.2393545574217
 30
0.0
 11
921.3011442530591
 21
182.2393545574217
 31
0.0
  0
LINE
  5
142
330
1F
100
AcDbEntity
  8
0
100
AcDbLine
 10
590.6344775863929
 20
182.2393545574217
 30
0.0
 11
582.967810919726
 21
182.2393545574217
 31
0.0
  0
ARC
  5
143
330
1F
100
AcDbEntity
  8
0
100
AcDbCircle
 10
582.9678109197258
 20
180.2393545574217
 30
0.0
 40
1.999999999999998
100
AcDbArc
 50
90.0
 51
180.0
  0
LINE
  5
144
330
1F
100
AcDbEntity
  8
0
100
AcDbLine
 10
580.9678109197258
 20
180.2393545574217
 30
0.0
 11
580.9678109197258
 21
136.2125031656752
 31
0.0
  0
ARC
  5
145
330
1F
100
AcDbEntity
  8
0
100
AcDbCircle
 10
1400.067810933726
 20
660.8393545664251
 30
0.0000000000000004
 40
2.0
100
AcDbArc
 50
90.0
 51
180.0
  0
SPLINE
  5
146
330
1F
100
AcDbEntity
  8
0
100
AcDbSpline
210
0.0
220
0.0
230
1.0
 70
     8
 71
     3
 72
    12
 73
     8
 74
     0
 42
0.0000000001
 43
0.0000000001
 40
0.0
 40
0.0
 40
0.0
 40
0.0
 40
1.697435965304014
 40
1.697435965304014
 40
5.618528910872714
 40
5.618528910872714
 40
9.32726746433374
 40
9.32726746433374
 40
9.32726746433374
 40
9.32726746433374
 10
1453.360892125571
 20
603.9373474122807
 30
0.0000000000000102
 10
1453.439734032459
 20
603.514521846085
 30
0.0000000000000102
 10
1453.5087269906
 20
603.0869512826999
 30
0.0000000000000102
 10
1453.718065487469
 20
601.6077172202868
 30
0.0000000000000102
 10
1453.856026982181
 20
600.3017124366379
 30
0.0000000000000102
 10
1454.048042809906
 20
597.1579072751198
 30
0.0000000000000103
 10
1454.094662325472
 20
595.5535609342559
 30
0.0000000000000103
 10
1454.094662325472
 20
593.9162642607666
 30
0.0000000000000103
  0
SPLINE
  5
147
330
1F
100
AcDbEntity
  8
0
100
AcDbSpline
210
0.0000000000000013
220
0.0000000000000015
230
1.0
 70
     8
 71
     3
 72
    16
 73
    12
 74
     0
 42
0.0000000001
 43
0.0000000001
 40
0.4701890350314119
 40
0.4701890350314119
 40
0.4701890350314119
 40
0.4701890350314119
 40
3.906444733869268
 40
3.906444733869268
 40
7.812889467738544
 40
7.812889467738544
 40
10.89819496139659
 40
10.89819496139659
 40
13.98363613685651
 40
13.98363613685651
 40
13.99363535444767
 40
13.99363535444767
 40
13.99363535444767
 40
13.99363535444767
 10
1433.06781093373
 20
662.8393542415499
 30
0.0000000000000064
 10
1434.210929074686
 20
662.8393521921569
 30
0.0000000000000066
 10
1435.34684925388
 20
662.6433317199707
 30
0.0000000000000068
 10
1437.652298469259
 20
661.8214514311612
 30
0.0000000000000073
 10
1438.781705733586
 20
661.1488067906757
 30
0.0000000000000075
 10
1440.515491695661
 20
659.591371313736
 30
0.0000000000000078
 10
1441.169994020549
 20
658.790178720713
 30
0.0000000000000079
 10
1442.211617339737
 20
657.0165038725591
 30
0.0000000000000081
 10
1442.592496526174
 20
656.0546226039756
 30
0.0000000000000082
 10
1442.820750773077
 20
655.0484665141092
 30
0.0000000000000082
 10
1442.821486874092
 20
655.0452142078628
 30
0.0000000000000082
 10
1442.822220954403
 20
655.0419632807715
 30
0.0000000000000082
  0
SPLINE
  5
148
330
1F
100
AcDbEntity
  8
0
100
AcDbSpline
210
0.0
220
0.0
230
1.0
 70
     8
 71
     3
 72
    16
 73
    12
 74
     0
 42
0.0000000001
 43
0.0000000001
 40
-0.1936408705407412
 40
-0.1936408705407412
 40
-0.1936408705407412
 40
-0.1936408705407412
 40
0.0
 40
0.0
 40
32.46195476316742
 40
32.46195476316742
 40
64.42507095731454
 40
64.42507095731454
 40
128.8555692693452
 40
128.8555692693452
 40
171.7002331170188
 40
171.7002331170188
 40
171.7002331170188
 40
171.7002331170188
 10
1442.822220954403
 20
655.0419632807715
 30
0.0000000000000082
 10
1442.822220954403
 20
655.0419632807715
 30
0.0000000000000082
 10
1442.822226032165
 20
655.0419407935422
 30
0.0000000000000082
 10
1442.823938030105
 20
655.0343590866441
 30
0.0000000000000082
 10
1442.96871073763
 20
654.3952218837272
 30
0.0000000000000082
 10
1443.532807437128
 20
651.8808781272578
 30
0.0000000000000084
 10
1443.947218012384
 20
650.0276080543327
 30
0.0000000000000084
 10
1445.572508106773
 20
642.6440901188843
 30
0.0000000000000087
 10
1447.161946442992
 20
635.3218331677843
 30
0.000000000000009
 10
1450.393718677593
 20
619.4329971383139
 30
0.0000000000000096
 10
1451.833384205678
 20
612.1293030182327
 30
0.0000000000000099
 10
1453.360892125571
 20
603.9373474122807
 30
0.0000000000000102
  0
LINE
  5
149
330
1F
100
AcDbEntity
  8
0
100
AcDbLine
 10
1420.067810933725
 20
519.3393545664251
 30
0.000000000000004
 11
1300.06781093375
 21
519.3393545664251
 31
-0.000000000000018
210
0.0
220
1.0
230
0.0
  0
LINE
  5
14A
330
1F
100
AcDbEntity
  8
0
100
AcDbLine
 10
1300.06781093375
 20
486.3393545664251
 30
-0.000000000000018
 11
1420.067810933725
 21
486.3393545664251
 31
0.000000000000004
210
0.0
220
1.0
230
0.0
  0
LINE
  5
14B
330
1F
100
AcDbEntity
  8
0
100
AcDbLine
 10
1400.067810933726
 20
662.839354566425
 30
0.0000000000000004
 11
1433.067810933725
 21
662.839354566425
 31
0.0000000000000064
210
0.0
220
1.0
230
0.0
  0
LINE
  5
14C
330
1F
100
AcDbEntity
  8
0
100
AcDbLine
 10
1454.094662325472
 20
452.8393545664251
 30
0.0000000000000103
 11
1454.094662325472
 21
593.9162642607666
 31
0.0000000000000103
210
0.0
220
1.0
230
0.0
  0
ARC
  5
14D
330
1F
100
AcDbEntity
  8
0
100
AcDbCircle
 10
1444.094662325472
 20
452.8393545664251
 30
0.0000000000000085
 40
10.0
100
AcDbArc
 50
270.0
 51
0.0
  0
LINE
  5
14E
330
1F
100
AcDbEntity
  8
0
100
AcDbLine
 10
1300.06781093375
 20
486.3393545664251
 30
-0.000000000000018
 11
1290.067810933726
 21
486.3393545664251
 31
-0.0000000000000198
210
0.0
220
1.0
230
0.0
  0
LINE
  5
14F
330
1F
100
AcDbEntity
  8
0
100
AcDbLine
 10
1300.06781093375
 20
519.3393545664251
 30
-0.000000000000018
 11
1290.067810933726
 21
519.3393545664251
 31
-0.0000000000000198
210
0.0
220
1.0
230
0.0
  0
LINE
  5
150
330
1F
100
AcDbEntity
  8
0
100
AcDbLine
 10
1290.067810933726
 20
519.3393545664251
 30
-0.0000000000000198
 11
1290.067810933728
 21
502.8393545664251
 31
-0.0000000000000198
210
0.0
220
1.0
230
0.0
  0
LINE
  5
151
330
1F
100
AcDbEntity
  8
0
100
AcDbLine
 10
1290.067810933728
 20
502.8393545664251
 30
-0.0000000000000198
 11
1290.067810933726
 21
486.3393545664251
 31
-0.0000000000000198
210
0.0
220
1.0
230
0.0
  0
ARC
  5
152
330
1F
100
AcDbEntity
  8
0
100
AcDbCircle
 10
1420.067810933725
 20
502.8393545664251
 30
0.000000000000004
 40
16.5
100
AcDbArc
 50
0.0
 51
90.0
  0
ARC
  5
153
330
1F
100
AcDbEntity
  8
0
100
AcDbCircle
 10
1420.067810933725
 20
502.8393545664251
 30
0.000000000000004
 40
16.5
100
AcDbArc
 50
270.0
 51
0.0
  0
LINE
  5
154
330
1F
100
AcDbEntity
  8
0
100
AcDbLine
 10
1400.067810933726
 20
442.8393545664254
 30
0.0000000000000004
 11
1444.094662325472
 21
442.8393545664254
 31
0.0000000000000085
210
0.0
220
1.0
230
0.0
  0
LINE
  5
155
330
1F
100
AcDbEntity
  8
0
100
AcDbLine
 10
1398.067810933726
 20
660.8393545664251
 30
0.0
 11
1398.067810933726
 21
608.654724907056
 31
0.0
210
0.0
220
1.0
230
0.0
  0
LINE
  5
156
330
1F
100
AcDbEntity
  8
0
100
AcDbLine
 10
1398.067810933726
 20
608.654724907056
 30
0.0
 11
1398.067810933726
 21
593.9162642607666
 31
0.0
210
0.0
220
1.0
230
0.0
  0
LINE
  5
157
330
1F
100
AcDbEntity
  8
0
100
AcDbLine
 10
1398.067810933726
 20
486.3393545664251
 30
0.0
 11
1398.067810933726
 21
452.8393545664251
 31
0.0
210
0.0
220
1.0
230
0.0
  0
LINE
  5
158
330
1F
100
AcDbEntity
  8
0
100
AcDbLine
 10
1398.067810933726
 20
593.9162642607666
 30
0.0
 11
1398.067810933726
 21
519.3393545664251
 31
0.0
210
0.0
220
1.0
230
0.0
  0
LINE
  5
159
330
1F
100
AcDbEntity
  8
0
100
AcDbLine
 10
1398.067810933726
 20
452.8393545664251
 30
0.0
 11
1398.067810933726
 21
444.8393545664254
 31
0.0
210
0.0
220
1.0
230
0.0
  0
ARC
  5
15A
330
1F
100
AcDbEntity
  8
0
100
AcDbCircle
 10
1400.067810933726
 20
444.8393545664254
 30
0.0000000000000004
 40
2.0
100
AcDbArc
 50
180.0
 51
270.0
  0
LINE
  5
15B
330
1F
100
AcDbEntity
  8
0
100
AcDbLine
 10
510.9678109197258
 20
519.3393545714251
 30
-0.00000000000003
 11
390.9678109197258
 21
519.3393545714251
 31
-0.0000000000000447
210
0.0
220
1.0
230
0.0
  0
LINE
  5
15C
330
1F
100
AcDbEntity
  8
0
100
AcDbLine
 10
390.9678109197258
 20
486.339354571425
 30
-0.0000000000000447
 11
510.9678109197258
 21
486.339354571425
 31
-0.00000000000003
210
0.0
220
1.0
230
0.0
  0
LINE
  5
15D
330
1F
100
AcDbEntity
  8
0
100
AcDbLine
 10
1120.967810919726
 20
519.3393545714248
 30
0.0000000000000447
 11
1000.967810919725
 21
519.3393545714249
 31
0.00000000000003
210
0.0
220
1.0
230
0.0
  0
LINE
  5
15E
330
1F
100
AcDbEntity
  8
0
100
AcDbLine
 10
1000.967810919725
 20
486.3393545714248
 30
0.00000000000003
 11
1120.967810919726
 21
486.3393545714246
 31
0.0000000000000447
210
0.0
220
1.0
230
0.0
  0
LINE
  5
15F
330
1F
100
AcDbEntity
  8
0
100
AcDbLine
 10
580.9678109197258
 20
486.339354571425
 30
-0.0000000000000214
 11
520.9678109197258
 21
486.339354571425
 31
-0.0000000000000288
210
0.0
220
1.0
230
0.0
  0
LINE
  5
160
330
1F
100
AcDbEntity
  8
0
100
AcDbLine
 10
580.9678109197258
 20
519.3393545714251
 30
-0.0000000000000214
 11
520.9678109197258
 21
519.3393545714251
 31
-0.0000000000000288
210
0.0
220
1.0
230
0.0
  0
LINE
  5
161
330
1F
100
AcDbEntity
  8
0
100
AcDbLine
 10
990.9678109197258
 20
486.339354571425
 30
0.0000000000000288
 11
930.9678109197259
 21
486.339354571425
 31
0.0000000000000214
210
0.0
220
1.0
230
0.0
  0
LINE
  5
162
330
1F
100
AcDbEntity
  8
0
100
AcDbLine
 10
990.9678109197258
 20
519.3393545714251
 30
0.0000000000000288
 11
930.9678109197259
 21
519.3393545714251
 31
0.0000000000000214
210
0.0
220
1.0
230
0.0
  0
LINE
  5
163
330
1F
100
AcDbEntity
  8
0
100
AcDbLine
 10
520.9678109197258
 20
486.339354571425
 30
-0.0000000000000288
 11
510.9678109197258
 21
486.339354571425
 31
-0.00000000000003
210
0.0
220
1.0
230
0.0
  0
LINE
  5
164
330
1F
100
AcDbEntity
  8
0
100
AcDbLine
 10
520.9678109197258
 20
519.3393545714251
 30
-0.0000000000000288
 11
510.9678109197258
 21
519.3393545714251
 31
-0.00000000000003
210
0.0
220
1.0
230
0.0
  0
LINE
  5
165
330
1F
100
AcDbEntity
  8
0
100
AcDbLine
 10
1000.967810919725
 20
486.3393545714248
 30
0.00000000000003
 11
990.9678109197258
 21
486.3393545714248
 31
0.0000000000000288
210
0.0
220
1.0
230
0.0
  0
LINE
  5
166
330
1F
100
AcDbEntity
  8
0
100
AcDbLine
 10
1000.967810919725
 20
519.3393545714249
 30
0.00000000000003
 11
990.9678109197258
 21
519.3393545714249
 31
0.0000000000000288
210
0.0
220
1.0
230
0.0
  0
ARC
  5
167
330
1F
100
AcDbEntity
  8
0
100
AcDbCircle
 10
1120.967810919726
 20
502.8393545714247
 30
0.0000000000000447
 40
16.5
100
AcDbArc
 50
0.0
 51
90.0
  0
ARC
  5
168
330
1F
100
AcDbEntity
  8
0
100
AcDbCircle
 10
1120.967810919726
 20
502.8393545714247
 30
0.0000000000000447
 40
16.5
100
AcDbArc
 50
270.0
 51
0.0
  0
ARC
  5
16B
330
1F
100
AcDbEntity
  8
0
100
AcDbCircle
 10
390.9678109197258
 20
502.8393545714251
 30
-0.0000000000000447
 40
16.5
100
AcDbArc
 50
90.0
 51
180.0
  0
ARC
  5
16C
330
1F
100
AcDbEntity
  8
0
100
AcDbCircle
 10
390.9678109197258
 20
502.8393545714251
 30
-0.0000000000000447
 40
16.5
100
AcDbArc
 50
180.0
 51
270.0
  0
ARC
  5
173
330
1F
100
AcDbEntity
  8
0
100
AcDbCircle
 10
920.9678109197259
 20
452.8393545714251
 30
0.0000000000000202
 40
10.0
100
AcDbArc
 50
270.0
 51
0.0
  0
ARC
  5
174
330
1F
100
AcDbEntity
  8
0
100
AcDbCircle
 10
590.9678109197257
 20
452.8393545714251
 30
-0.0000000000000202
 40
10.0
100
AcDbArc
 50
180.0
 51
270.0
  0
LINE
  5
175
330
1F
100
AcDbEntity
  8
0
100
AcDbLine
 10
590.967810919726
 20
442.8393545714252
 30
-0.0000000000000202
 11
920.9678109197255
 21
442.8393545714252
 31
0.0000000000000202
210
0.0
220
1.0
230
0.0
  0
LINE
  5
176
330
1F
100
AcDbEntity
  8
0
100
AcDbLine
 10
930.9678109197259
 20
452.8393545714251
 30
0.0000000000000214
 11
930.9678109197259
 21
593.9162642657666
 31
0.0000000000000214
210
0.0
220
1.0
230
0.0
  0
SPLINE
  5
177
330
1F
100
AcDbEntity
  8
0
100
AcDbSpline
210
0.0000000000000011
220
0.0000000000000006
230
1.0
 70
     8
 71
     3
 72
    42
 73
    38
 74
     0
 42
0.0000000001
 43
0.0000000001
 40
-18.5090800955268
 40
-18.5090800955268
 40
-18.5090800955268
 40
-18.5090800955268
 40
-17.39023921816369
 40
-17.39023921816369
 40
-16.27139834080058
 40
-16.27139834080058
 40
-15.15255746343747
 40
-15.15255746343747
 40
-14.03371658607436
 40
-14.03371658607436
 40
-13.00943448790905
 40
-13.00943448790905
 40
-11.98515238974376
 40
-11.98515238974376
 40
-10.95783956527315
 40
-10.95783956527315
 40
-9.930526740802564
 40
-9.930526740802564
 40
-8.903916109875456
 40
-8.903916109875456
 40
-7.87730547894835
 40
-7.87730547894835
 40
-6.861358023056821
 40
-6.861358023056821
 40
-5.845410567165286
 40
-5.845410567165286
 40
-4.846197394634281
 40
-4.846197394634281
 40
-3.846984222103277
 40
-3.846984222103277
 40
-2.870438331472341
 40
-2.870438331472341
 40
-1.893892440841405
 40
-1.893892440841405
 40
-0.9469462204207026
 40
-0.9469462204207026
 40
0.0
 40
0.0
 40
0.0
 40
0.0
 10
922.4492924012071
 20
610.2923316505325
 30
0.0000000000000204
 10
922.7452534832021
 20
610.0848293484034
 30
0.0000000000000204
 10
923.0499872899134
 20
609.8590207545202
 30
0.0000000000000205
 10
923.6590956327679
 20
609.3785332659007
 30
0.0000000000000205
 10
923.9634617916239
 20
609.1238436992446
 30
0.0000000000000206
 10
924.5563669259412
 20
608.5964740556764
 30
0.0000000000000206
 10
924.8449497906577
 20
608.3237543007797
 30
0.0000000000000207
 10
925.3936802415351
 20
607.7742961123962
 30
0.0000000000000207
 10
925.6538368277801
 20
607.497566696876
 30
0.0000000000000208
 10
926.1154901702807
 20
606.979867035478
 30
0.0000000000000208
 10
926.3515590257043
 20
606.7019290552947
 30
0.0000000000000209
 10
926.8073423765899
 20
606.1327356517844
 30
0.0000000000000209
 10
927.027055701188
 20
605.841479266933
 30
0.0000000000000209
 10
927.4143679217123
 20
605.3014085792702
 30
0.000000000000021
 10
927.6204361973643
 20
604.9988639762243
 30
0.000000000000021
 10
928.0147579401699
 20
604.3821871711704
 30
0.0000000000000211
 10
928.2030101910859
 20
604.0680541730319
 30
0.0000000000000211
 10
928.5313676562351
 20
603.4887381053842
 30
0.0000000000000211
 10
928.704131567264
 20
603.1659617203208
 30
0.0000000000000212
 10
929.0307017883126
 20
602.5107943042618
 30
0.0000000000000212
 10
929.1845069402933
 20
602.1784026831316
 30
0.0000000000000212
 10
929.448150650141
 20
601.5703935974827
 30
0.0000000000000212
 10
929.5843717993744
 20
601.2343956381656
 30
0.0000000000000213
 10
929.837320547168
 20
600.5550135598142
 30
0.0000000000000213
 10
929.9540471670653
 20
600.2116290686046
 30
0.0000000000000213
 10
930.1496790478507
 20
599.5873457983474
 30
0.0000000000000213
 10
930.2483099473276
 20
599.2444525263985
 30
0.0000000000000213
 10
930.4260428297617
 20
598.5535526791991
 30
0.0000000000000214
 10
930.5051440938214
 20
598.2055459151691
 30
0.0000000000000214
 10
930.6325628078896
 20
597.5766103418005
 30
0.0000000000000214
 10
930.6939242033926
 20
597.2332017150387
 30
0.0000000000000214
 10
930.7975720572843
 20
596.5434666846565
 30
0.0000000000000214
 10
930.8398580948084
 20
596.1971402165102
 30
0.0000000000000214
 10
930.9012596348939
 20
595.575260064869
 30
0.0000000000000214
 10
930.9269624578559
 20
595.2378832278448
 30
0.0000000000000214
 10
930.9602381653562
 20
594.5622206351504
 30
0.0000000000000214
 10
930.9678109197259
 20
594.2239348729404
 30
0.0000000000000214
 10
930.9678109197259
 20
593.9162642657666
 30
0.0000000000000214
  0
SPLINE
  5
178
330
1F
100
AcDbEntity
  8
0
100
AcDbSpline
210
-0.0000000000000001
220
0.0
230
1.0
 70
     8
 71
     3
 72
    70
 73
    66
 74
     0
 42
0.0000000001
 43
0.0000000001
 40
39.62778323717639
 40
39.62778323717639
 40
39.62778323717639
 40
39.62778323717639
 40
50.02619892778175
 40
50.02619892778175
 40
60.42461461838712
 40
60.42461461838712
 40
70.82303030899248
 40
70.82303030899248
 40
81.22144599959787
 40
81.22144599959787
 40
92.03651776576299
 40
92.03651776576299
 40
102.8515895319281
 40
102.8515895319281
 40
113.6666612980933
 40
113.6666612980933
 40
124.4817330642584
 40
124.4817330642584
 40
135.213537418722
 40
135.213537418722
 40
145.9453417731855
 40
145.9453417731855
 40
156.6771461276491
 40
156.6771461276491
 40
167.4089504821126
 40
167.4089504821126
 40
177.8320782282138
 40
177.8320782282138
 40
188.2552059743149
 40
188.2552059743149
 40
198.678333720416
 40
198.678333720416
 40
209.1014614665172
 40
209.1014614665172
 40
219.5245892126253
 40
219.5245892126253
 40
229.9477169587333
 40
229.9477169587333
 40
240.3708447048412
 40
240.3708447048412
 40
250.793972450949
 40
250.793972450949
 40
261.5257768054155
 40
261.5257768054155
 40
272.2575811598825
 40
272.2575811598825
 40
282.9893855143491
 40
282.9893855143491
 40
293.7211898688159
 40
293.7211898688159
 40
304.5362616349811
 40
304.5362616349811
 40
315.3513334011463
 40
315.3513334011463
 40
326.1664051673113
 40
326.1664051673113
 40
336.9814769334763
 40
336.9814769334763
 40
347.3798926240776
 40
347.3798926240776
 40
357.7783083146786
 40
357.7783083146786
 40
368.1767240052796
 40
368.1767240052796
 40
378.5751396958808
 40
378.5751396958808
 40
378.5751396958808
 40
378.5751396958808
 10
589.4863294382447
 20
610.2923316505328
 30
-0.0000000000000204
 10
592.2635152157976
 20
612.239454016753
 30
-0.00000000000002
 10
595.2132149644318
 20
614.2337194202799
 30
-0.0000000000000197
 10
601.329680868118
 20
618.1969063925866
 30
-0.0000000000000189
 10
604.49650004076
 20
620.1657517720747
 30
-0.0000000000000185
 10
610.9059272707617
 20
623.9786678695629
 30
-0.0000000000000178
 10
614.1487399079815
 20
625.8228571394425
 30
-0.0000000000000174
 10
620.5557657237788
 20
629.3093908136088
 30
-0.0000000000000166
 10
623.7199374121493
 20
630.9518130737663
 30
-0.0000000000000162
 10
629.9246576720648
 20
634.0396766047757
 30
-0.0000000000000154
 10
633.2742374593292
 20
635.6333805717853
 30
-0.000000000000015
 10
640.1956965908405
 20
638.7551882740824
 30
-0.0000000000000142
 10
643.7676200990519
 20
640.2832012213123
 30
-0.0000000000000137
 10
650.9724197499511
 20
643.1929411283451
 30
-0.0000000000000129
 10
654.605549791225
 20
644.5747667517672
 30
-0.0000000000000124
 10
661.7610219434303
 20
647.137592124419
 30
-0.0000000000000115
 10
665.2833320062994
 20
648.3186811816132
 30
-0.0000000000000111
 10
672.0095308713604
 20
650.4422166865713
 30
-0.0000000000000103
 10
675.5454498321769
 20
651.4905534570007
 30
-0.0000000000000098
 10
682.8250312536302
 20
653.4892798983021
 30
-0.000000000000009
 10
686.5687218995867
 20
654.4395739813632
 30
-0.0000000000000085
 10
694.0928067674881
 20
656.1879049289502
 30
-0.0000000000000076
 10
697.873467007618
 20
656.9860007531103
 30
-0.0000000000000071
 10
705.2943862959619
 20
658.4027859974005
 30
-0.0000000000000062
 10
708.9346270735167
 20
659.0215686179357
 30
-0.0000000000000058
 10
715.7918044603817
 20
660.0632508587807
 30
-0.0000000000000049
 10
719.3470536000472
 20
660.5412773182717
 30
-0.0000000000000045
 10
726.6414340470329
 20
661.3760763910577
 30
-0.0000000000000036
 10
730.3805766451686
 20
661.7327561841143
 30
-0.0000000000000031
 10
737.8703143221594
 20
662.2984789224683
 30
-0.0000000000000022
 10
741.6211619112096
 20
662.5075399808781
 30
-0.0000000000000018
 10
748.9602894431314
 20
662.7779318924397
 30
-0.0000000000000009
 10
752.5485658415627
 20
662.8393545714247
 30
-0.0000000000000004
 10
759.387055997872
 20
662.8393545714251
 30
0.0000000000000004
 10
762.9753323963057
 20
662.77793189244
 30
0.0000000000000009
 10
770.3144599282324
 20
662.5075399808787
 30
0.0000000000000018
 10
774.065307517285
 20
662.2984789224687
 30
0.0000000000000022
 10
781.5550451942807
 20
661.7327561841148
 30
0.0000000000000031
 10
785.2941877924188
 20
661.3760763910577
 30
0.0000000000000036
 10
792.5885682394091
 20
660.5412773182712
 30
0.0000000000000045
 10
796.1438173790768
 20
660.0632508587799
 30
0.0000000000000049
 10
803.0009947659451
 20
659.0215686179342
 30
0.0000000000000058
 10
806.6412355435007
 20
658.4027859973986
 30
0.0000000000000062
 10
814.0621548318463
 20
656.9860007531079
 30
0.0000000000000071
 10
817.8428150719774
 20
656.1879049289472
 30
0.0000000000000076
 10
825.3668999398806
 20
654.4395739813592
 30
0.0000000000000085
 10
829.1105905858383
 20
653.4892798982976
 30
0.000000000000009
 10
836.3901720072933
 20
651.4905534569954
 30
0.0000000000000098
 10
839.9260909681107
 20
650.4422166865655
 30
0.0000000000000103
 10
846.6522898331723
 20
648.3186811816064
 30
0.0000000000000111
 10
850.1745998960412
 20
647.1375921244121
 30
0.0000000000000115
 10
857.3300720482462
 20
644.5747667517601
 30
0.0000000000000124
 10
860.9632020895197
 20
643.1929411283374
 30
0.0000000000000129
 10
868.1680017404188
 20
640.2832012213042
 30
0.0000000000000137
 10
871.7399252486298
 20
638.7551882740742
 30
0.0000000000000142
 10
878.6613843801406
 20
635.6333805717769
 30
0.000000000000015
 10
882.0109641674049
 20
634.0396766047672
 30
0.0000000000000154
 10
888.2156844273186
 20
630.9518130737582
 30
0.0000000000000162
 10
891.3798561156877
 20
629.3093908136012
 30
0.0000000000000166
 10
897.7868819314819
 20
625.8228571394361
 30
0.0000000000000174
 10
901.0296945686999
 20
623.978667869557
 30
0.0000000000000178
 10
907.4391217986987
 20
620.1657517720702
 30
0.0000000000000185
 10
910.6059409713394
 20
618.1969063925833
 30
0.0000000000000189
 10
916.7224068750227
 20
614.2337194202782
 30
0.0000000000000197
 10
919.6721066236557
 20
612.239454016752
 30
0.00000000000002
 10
922.4492924012071
 20
610.2923316505325
 30
0.0000000000000204
  0
SPLINE
  5
179
330
1F
100
AcDbEntity
  8
0
100
AcDbSpline
210
0.0000000000000011
220
-0.0000000000000006
230
1.0
 70
     8
 71
     3
 72
    42
 73
    38
 74
     0
 42
0.0000000001
 43
0.0000000001
 40
60.51354121548342
 40
60.51354121548342
 40
60.51354121548342
 40
60.51354121548342
 40
61.46082082917963
 40
61.46082082917963
 40
62.40810044287586
 40
62.40810044287586
 40
63.38499014799821
 40
63.38499014799821
 40
64.36187985312057
 40
64.36187985312057
 40
65.36144482065886
 40
65.36144482065886
 40
66.36100978819714
 40
66.36100978819714
 40
67.37731493076896
 40
67.37731493076896
 40
68.3936200733408
 40
68.3936200733408
 40
69.42059214515372
 40
69.42059214515372
 40
70.44756421696668
 40
70.44756421696668
 40
71.47523872954579
 40
71.47523872954579
 40
72.50291324212489
 40
72.50291324212489
 40
73.5275559613646
 40
73.5275559613646
 40
74.55219868060432
 40
74.55219868060432
 40
75.62284745251872
 40
75.62284745251872
 40
76.69349622443316
 40
76.69349622443316
 40
77.85805876772167
 40
77.85805876772167
 40
79.0226213110102
 40
79.0226213110102
 40
79.0226213110102
 40
79.0226213110102
 10
580.9678109197258
 20
593.9162642657666
 30
-0.0000000000000214
 10
580.9678109197258
 20
594.2239348729405
 30
-0.0000000000000214
 10
580.9753836740957
 20
594.5622206351507
 30
-0.0000000000000214
 10
581.0086593815959
 20
595.2378832278457
 30
-0.0000000000000214
 10
581.0343622045578
 20
595.57526006487
 30
-0.0000000000000214
 10
581.0957637446438
 20
596.1971402165118
 30
-0.0000000000000214
 10
581.1380497821679
 20
596.5434666846581
 30
-0.0000000000000214
 10
581.2416976360594
 20
597.2332017150408
 30
-0.0000000000000214
 10
581.3030590315626
 20
597.5766103418027
 30
-0.0000000000000214
 10
581.4304777456309
 20
598.2055459151716
 30
-0.0000000000000214
 10
581.5095790096908
 20
598.553552679202
 30
-0.0000000000000214
 10
581.6873118921249
 20
599.2444525264017
 30
-0.0000000000000213
 10
581.7859427916021
 20
599.5873457983509
 30
-0.0000000000000213
 10
581.9815746723877
 20
600.2116290686086
 30
-0.0000000000000213
 10
582.0983012922852
 20
600.5550135598182
 30
-0.0000000000000213
 10
582.3512500400793
 20
601.2343956381698
 30
-0.0000000000000213
 10
582.4874711893126
 20
601.5703935974872
 30
-0.0000000000000212
 10
582.7511148991609
 20
602.1784026831364
 30
-0.0000000000000212
 10
582.9049200511413
 20
602.5107943042669
 30
-0.0000000000000212
 10
583.2314902721902
 20
603.165961720326
 30
-0.0000000000000212
 10
583.4042541832196
 20
603.4887381053895
 30
-0.0000000000000211
 10
583.7326116483691
 20
604.0680541730371
 30
-0.0000000000000211
 10
583.9208638992852
 20
604.3821871711758
 30
-0.0000000000000211
 10
584.3151856420911
 20
604.99886397623
 30
-0.000000000000021
 10
584.5212539177435
 20
605.3014085792758
 30
-0.000000000000021
 10
584.9085661382681
 20
605.8414792669386
 30
-0.0000000000000209
 10
585.128279462866
 20
606.13273565179
 30
-0.0000000000000209
 10
585.5840628137521
 20
606.7019290553005
 30
-0.0000000000000209
 10
585.8201316691756
 20
606.9798670354838
 30
-0.0000000000000208
 10
586.2713227079665
 20
607.4858342331695
 30
-0.0000000000000208
 10
586.5318962019691
 20
607.7636187119577
 30
-0.0000000000000207
 10
587.0691924000603
 20
608.3028296008843
 30
-0.0000000000000207
 10
587.3459139015676
 20
608.5642572431344
 30
-0.0000000000000206
 10
587.8834514972296
 20
609.0470689221786
 30
-0.0000000000000206
 10
588.1988233359715
 20
609.3150948187957
 30
-0.0000000000000205
 10
588.8462893536881
 20
609.8297724031656
 30
-0.0000000000000205
 10
589.1783822644607
 20
610.0764257379592
 30
-0.0000000000000204
 10
589.4863294382447
 20
610.2923316505328
 30
-0.0000000000000204
  0
LINE
  5
17A
330
1F
100
AcDbEntity
  8
0
100
AcDbLine
 10
580.9678109197258
 20
593.9162642657666
 30
-0.0000000000000214
 11
580.9678109197258
 21
452.8393545714251
 31
-0.0000000000000214
210
0.0
220
1.0
230
0.0
  0
ARC
  5
17B
330
1F
100
AcDbEntity
  8
0
100
AcDbCircle
 10
111.8678109057259
 20
660.8393545664251
 30
-0.0000000000000001
 40
2.0
100
AcDbArc
 50
0.0
 51
90.0
  0
SPLINE
  5
17C
330
1F
100
AcDbEntity
  8
0
100
AcDbSpline
210
0.0
220
0.0
230
1.0
 70
     8
 71
     3
 72
    16
 73
    12
 74
     0
 42
0.0000000001
 43
0.0000000001
 40
0.0
 40
0.0
 40
0.0
 40
0.0
 40
42.843144418275
 40
42.843144418275
 40
107.2713577875858
 40
107.2713577875858
 40
139.2333404508979
 40
139.2333404508979
 40
171.693172809601
 40
171.693172809601
 40
171.886818886589
 40
171.886818886589
 40
171.886818886589
 40
171.886818886589
 10
58.57472971381378
 20
603.9373474122861
 30
-0.0000000000000034
 10
60.10223763375289
 20
612.1293030184508
 30
-0.0000000000000033
 10
61.54190316187761
 20
619.4329971386983
 30
-0.0000000000000032
 10
64.77367539654939
 20
635.3218331684241
 30
-0.000000000000003
 10
66.36311373278999
 20
642.6440901195592
 30
-0.0000000000000029
 10
67.98840382715297
 20
650.0276080548189
 30
-0.0000000000000028
 10
68.40281440238992
 20
651.8808781276374
 30
-0.0000000000000028
 10
68.96690259801767
 20
654.395183979834
 30
-0.0000000000000027
 10
69.11168368971789
 20
655.0343585568822
 30
-0.0000000000000027
 10
69.11339581018819
 20
655.0419408063902
 30
-0.0000000000000027
 10
69.11340088504903
 20
655.0419632807715
 30
-0.0000000000000027
 10
69.11340088504903
 20
655.0419632807715
 30
-0.0000000000000027
  0
SPLINE
  5
17D
330
1F
100
AcDbEntity
  8
0
100
AcDbSpline
210
0.0
220
0.0
230
1.0
 70
     8
 71
     3
 72
    16
 73
    12
 74
     0
 42
0.0000000001
 43
0.0000000001
 40
-0.00999833024637
 40
-0.00999833024637
 40
-0.00999833024637
 40
-0.00999833024637
 40
0.0
 40
0.0
 40
3.085168277855299
 40
3.085168277855299
 40
6.170201778532092
 40
6.170201778532092
 40
10.07630212979435
 40
10.07630212979435
 40
13.51225489673979
 40
13.51225489673979
 40
13.51225489673979
 40
13.51225489673979
 10
69.11340088504903
 20
655.0419632807715
 30
-0.0000000000000027
 10
69.11413496535988
 20
655.0452142078628
 30
-0.0000000000000027
 10
69.1148710663749
 20
655.0484665141092
 30
-0.0000000000000027
 10
69.34312538029995
 20
656.0546228994134
 30
-0.0000000000000027
 10
69.7240046504089
 20
657.0165041291619
 30
-0.0000000000000027
 10
70.76562781890118
 20
658.790178720713
 30
-0.0000000000000026
 10
71.42013014378926
 20
659.591371313736
 30
-0.0000000000000026
 10
73.15391610586606
 20
661.1488067906757
 30
-0.0000000000000025
 10
74.28332337019174
 20
661.8214514311612
 30
-0.0000000000000024
 10
76.58877258557186
 20
662.6433317199707
 30
-0.0000000000000023
 10
77.72469276476487
 20
662.8393521921569
 30
-0.0000000000000022
 10
78.86781090572219
 20
662.8393542415499
 30
-0.0000000000000021
  0
SPLINE
  5
17E
330
1F
100
AcDbEntity
  8
0
100
AcDbSpline
210
0.0
220
0.0
230
1.0
 70
     8
 71
     3
 72
    12
 73
     8
 74
     0
 42
0.0000000001
 43
0.0000000001
 40
0.0
 40
0.0
 40
0.0
 40
0.0
 40
5.202270134973216
 40
5.202270134973216
 40
8.128215909642747
 40
8.128215909642747
 40
11.21776431338785
 40
11.21776431338785
 40
11.21776431338785
 40
11.21776431338785
 10
57.840959513911
 20
593.9162642607666
 30
-0.0000000000000034
 10
57.840959513911
 20
595.6503543057578
 30
-0.0000000000000034
 10
57.89305012552961
 20
597.3445267280453
 30
-0.0000000000000034
 10
58.05643197756501
 20
599.8543446181054
 30
-0.0000000000000034
 10
58.13009683576126
 20
600.7048162885783
 30
-0.0000000000000034
 10
58.31922867390574
 20
602.3830884696343
 30
-0.0000000000000034
 10
58.43044003185831
 20
603.1635284005629
 30
-0.0000000000000034
 10
58.57472971381378
 20
603.9373474122861
 30
-0.0000000000000034
  0
LINE
  5
17F
330
1F
100
AcDbEntity
  8
0
100
AcDbLine
 10
211.8678109057013
 20
519.3393545664248
 30
0.000000000000006
 11
91.86781090572592
 21
519.3393545664248
 31
-0.0000000000000013
210
0.0
220
1.0
230
0.0
  0
LINE
  5
180
330
1F
100
AcDbEntity
  8
0
100
AcDbLine
 10
91.86781090572592
 20
486.339354566425
 30
-0.0000000000000013
 11
211.8678109057013
 21
486.3393545664248
 31
0.000000000000006
210
0.0
220
1.0
230
0.0
  0
LINE
  5
181
330
1F
100
AcDbEntity
  8
0
100
AcDbLine
 10
111.8678109057259
 20
662.839354566425
 30
-0.0000000000000001
 11
78.86781090572606
 21
662.839354566425
 31
-0.0000000000000021
210
0.0
220
1.0
230
0.0
  0
LINE
  5
182
330
1F
100
AcDbEntity
  8
0
100
AcDbLine
 10
57.84095951391112
 20
593.9162642607666
 30
-0.0000000000000034
 11
57.84095951391112
 21
452.8393545664251
 31
-0.0000000000000034
210
0.0
220
1.0
230
0.0
  0
ARC
  5
183
330
1F
100
AcDbEntity
  8
0
100
AcDbCircle
 10
67.84095951391112
 20
452.8393545664251
 30
-0.0000000000000028
 40
10.0
100
AcDbArc
 50
180.0
 51
270.0
  0
LINE
  5
184
330
1F
100
AcDbEntity
  8
0
100
AcDbLine
 10
221.8678109057258
 20
486.3393545664248
 30
0.0000000000000066
 11
211.8678109057013
 21
486.3393545664248
 31
0.000000000000006
210
0.0
220
1.0
230
0.0
  0
LINE
  5
185
330
1F
100
AcDbEntity
  8
0
100
AcDbLine
 10
221.8678109057258
 20
519.3393545664248
 30
0.0000000000000066
 11
211.8678109057013
 21
519.3393545664248
 31
0.000000000000006
210
0.0
220
1.0
230
0.0
  0
LINE
  5
186
330
1F
100
AcDbEntity
  8
0
100
AcDbLine
 10
221.8678109057258
 20
519.3393545664248
 30
0.0000000000000066
 11
221.8678109057226
 21
502.8393545664244
 31
0.0000000000000066
210
0.0
220
1.0
230
0.0
  0
LINE
  5
187
330
1F
100
AcDbEntity
  8
0
100
AcDbLine
 10
221.8678109057226
 20
502.8393545664248
 30
0.0000000000000066
 11
221.8678109057258
 21
486.3393545664248
 31
0.0000000000000066
210
0.0
220
1.0
230
0.0
  0
ARC
  5
188
330
1F
100
AcDbEntity
  8
0
100
AcDbCircle
 10
91.86781090572592
 20
502.839354566425
 30
-0.0000000000000013
 40
16.5
100
AcDbArc
 50
90.0
 51
180.0
  0
ARC
  5
189
330
1F
100
AcDbEntity
  8
0
100
AcDbCircle
 10
91.86781090572592
 20
502.839354566425
 30
-0.0000000000000013
 40
16.5
100
AcDbArc
 50
180.0
 51
270.0
  0
LINE
  5
18A
330
1F
100
AcDbEntity
  8
0
100
AcDbLine
 10
111.8678109057259
 20
442.8393545664254
 30
-0.0000000000000001
 11
67.84095951391112
 21
442.8393545664254
 31
-0.0000000000000028
210
0.0
220
1.0
230
0.0
  0
LINE
  5
18B
330
1F
100
AcDbEntity
  8
0
100
AcDbLine
 10
113.8678109057259
 20
608.654724907056
 30
0.0
 11
113.8678109057259
 21
660.8393545664251
 31
0.0
210
0.0
220
1.0
230
0.0
  0
LINE
  5
18C
330
1F
100
AcDbEntity
  8
0
100
AcDbLine
 10
113.8678109057259
 20
593.9162642607666
 30
0.0
 11
113.8678109057259
 21
608.654724907056
 31
0.0
210
0.0
220
1.0
230
0.0
  0
LINE
  5
18D
330
1F
100
AcDbEntity
  8
0
100
AcDbLine
 10
113.8678109057259
 20
519.3393545664248
 30
0.0
 11
113.8678109057259
 21
593.9162642607666
 31
0.0
210
0.0
220
1.0
230
0.0
  0
LINE
  5
18E
330
1F
100
AcDbEntity
  8
0
100
AcDbLine
 10
113.8678109057259
 20
452.8393545664251
 30
0.0
 11
113.8678109057259
 21
486.3393545664248
 31
0.0
210
0.0
220
1.0
230
0.0
  0
ARC
  5
18F
330
1F
100
AcDbEntity
  8
0
100
AcDbCircle
 10
111.8678109057259
 20
444.8393545664254
 30
-0.0000000000000001
 40
2.0
100
AcDbArc
 50
270.0
 51
0.0
  0
LINE
  5
190
330
1F
100
AcDbEntity
  8
0
100
AcDbLine
 10
113.8678109057259
 20
444.8393545664254
 30
0.0
 11
113.8678109057259
 21
452.8393545664251
 31
0.0
210
0.0
220
1.0
230
0.0
  0
ENDSEC
  0
SECTION
  2
OBJECTS
  0
DICTIONARY
  5
C
330
0
100
AcDbDictionary
  3
ACAD_COLOR
350
6B
  3
ACAD_GROUP
350
D
  3
ACAD_LAYOUT
350
1A
  3
ACAD_MATERIAL
350
6A
  3
ACAD_MLINESTYLE
350
17
  3
ACAD_PLOTSETTINGS
350
19
  3
ACAD_PLOTSTYLENAME
350
E
  3
ACDBVARIABLEDICTIONARY
350
5E
  3
DWGPROPS
350
1A5
  3
ACDBHEADERROUNDTRIPXREC
350
1DC
  0
DICTIONARY
  5
1FD
330
1F
100
AcDbDictionary
280
     1
  3
ACAD_LAYOUTSELFREF
360
1FE
  0
DICTIONARY
  5
1FF
330
50
100
AcDbDictionary
280
     1
  3
ACAD_LAYOUTSELFREF
360
200
  0
DICTIONARY
  5
6B
102
{ACAD_REACTORS
330
C
102
}
330
C
100
AcDbDictionary
  0
DICTIONARY
  5
D
102
{ACAD_REACTORS
330
C
102
}
330
C
100
AcDbDictionary
  0
DICTIONARY
  5
1A
102
{ACAD_REACTORS
330
C
102
}
330
C
100
AcDbDictionary
  0
DICTIONARY
  5
6A
102
{ACAD_REACTORS
330
C
102
}
330
C
100
AcDbDictionary
  0
DICTIONARY
  5
17
102
{ACAD_REACTORS
330
C
102
}
330
C
100
AcDbDictionary
  3
STANDARD
350
18
  0
DICTIONARY
  5
19
102
{ACAD_REACTORS
330
C
102
}
330
C
100
AcDbDictionary
  0
ACDBDICTIONARYWDFLT
  5
E
102
{ACAD_REACTORS
330
C
102
}
330
C
100
AcDbDictionary
281
     1
  3
Normal
350
F
100
AcDbDictionaryWithDefault
340
F
  0
DICTIONARY
  5
5E
102
{ACAD_REACTORS
330
C
102
}
330
C
100
AcDbDictionary
  3
DIMASSOC
350
5F
  3
HIDETEXT
350
63
  3
PROJECTNAME
350
198
  0
XRECORD
  5
1A5
102
{ACAD_REACTORS
330
C
102
}
330
C
100
AcDbXrecord
  1
DWGPROPS COOKIE
  2

  3

  4

  6

  7

  8

  9

300
=
301
=
302
=
303
=
304
=
305
=
306
=
307
=
308
=
309
=
 40
0.005719375
 41
2453586.352102685
 42
2453607.515822049
  1

 90
        0
  0
DICTIONARY
  5
1DC
102
{ACAD_REACTORS
330
C
102
}
330
C
100
AcDbDictionary
  3
TSTACKALIGN
350
1DD
  3
TSTACKSIZE
350
1DE
  3
HYPERLINKBASE
350
1DF
  3
STYLESHEET
350
1E0
  3
LAYOUTDICT
350
1E1
  3
PLOTSETDICT
350
1E2
  3
PLOTSTYLNAMDICT
350
1E3
  3
LWETCUNION
350
1E4
  3
INSUNITS
350
1E5
  3
CEPSNTYPE
350
1E6
  3
FINGERPRINTGUID
350
1E7
  3
VERSIONGUID
350
1E8
  3
PSVPSCALE
350
1E9
  3
DIMSTYLEDATA
350
1EA
  3
PUCSORTHOREF
350
1EB
  3
PUCSORTHOVIEW
350
1EC
  3
PUCSBASE
350
1ED
  3
PUCSORGTOP
350
1EE
  3
PUCSORGBOTTOM
350
1EF
  3
PUCSORGLEFT
350
1F0
  3
PUCSORGRIGHT
350
1F1
  3
PUCSORGFRONT
350
1F2
  3
PUCSORGBACK
350
1F3
  3
UCSORTHOREF
350
1F4
  3
UCSORTHOVIEW
350
1F5
  3
UCSBASE
350
1F6
  3
UCSORGTOP
350
1F7
  3
UCSORGBOTTOM
350
1F8
  3
UCSORGLEFT
350
1F9
  3
UCSORGRIGHT
350
1FA
  3
UCSORGFRONT
350
1FB
  3
UCSORGBACK
350
1FC
  0
XRECORD
  5
1FE
102
{ACAD_REACTORS
330
1FD
102
}
330
1FD
100
AcDbXrecord
340
1F
  0
XRECORD
  5
200
102
{ACAD_REACTORS
330
1FF
102
}
330
1FF
100
AcDbXrecord
340
50
  0
MLINESTYLE
  5
18
102
{ACAD_REACTORS
330
17
102
}
330
17
100
AcDbMlineStyle
  2
STANDARD
 70
     0
  3

 62
   256
 51
90.0
 52
90.0
 71
     2
 49
0.5
 62
   256
  6
BYLAYER
 49
-0.5
 62
   256
  6
BYLAYER
  0
ACDBPLACEHOLDER
  5
F
102
{ACAD_REACTORS
330
E
102
}
330
E
100
AcDbPlaceHolder
280
     0
  0
DICTIONARYVAR
  5
5F
102
{ACAD_REACTORS
330
5E
102
}
330
5E
100
DictionaryVariables
280
     0
  1
2
  0
DICTIONARYVAR
  5
63
102
{ACAD_REACTORS
330
5E
102
}
330
5E
100
DictionaryVariables
280
     0
  1
1
  0
DICTIONARYVAR
  5
198
102
{ACAD_REACTORS
330
5E
102
}
330
5E
100
DictionaryVariables
280
     0
  1

  0
XRECORD
  5
1DD
102
{ACAD_REACTORS
330
1DC
102
}
330
1DC
100
AcDbXrecord
 90
        1
  0
XRECORD
  5
1DE
102
{ACAD_REACTORS
330
1DC
102
}
330
1DC
100
AcDbXrecord
 90
       70
  0
XRECORD
  5
1DF
102
{ACAD_REACTORS
330
1DC
102
}
330
1DC
100
AcDbXrecord
  1

  0
XRECORD
  5
1E0
102
{ACAD_REACTORS
330
1DC
102
}
330
1DC
100
AcDbXrecord
  1

  0
XRECORD
  5
1E1
102
{ACAD_REACTORS
330
1DC
102
}
330
1DC
100
AcDbXrecord
340
1A
  0
XRECORD
  5
1E2
102
{ACAD_REACTORS
330
1DC
102
}
330
1DC
100
AcDbXrecord
340
19
  0
XRECORD
  5
1E3
102
{ACAD_REACTORS
330
1DC
102
}
330
1DC
100
AcDbXrecord
340
E
  0
XRECORD
  5
1E4
102
{ACAD_REACTORS
330
1DC
102
}
330
1DC
100
AcDbXrecord
 90
    10781
  0
XRECORD
  5
1E5
102
{ACAD_REACTORS
330
1DC
102
}
330
1DC
100
AcDbXrecord
 90
        4
  0
XRECORD
  5
1E6
102
{ACAD_REACTORS
330
1DC
102
}
330
1DC
100
AcDbXrecord
 90
        0
  0
XRECORD
  5
1E7
102
{ACAD_REACTORS
330
1DC
102
}
330
1DC
100
AcDbXrecord
  1
{FDEAD578-A652-11D2-9A35-0060089B3A3F}
  0
XRECORD
  5
1E8
102
{ACAD_REACTORS
330
1DC
102
}
330
1DC
100
AcDbXrecord
  1
{9DE7D0CB-02E9-4699-9ACE-53DF9733F5A6}
  0
XRECORD
  5
1E9
102
{ACAD_REACTORS
330
1DC
102
}
330
1DC
100
AcDbXrecord
 40
0.0
  0
XRECORD
  5
1EA
102
{ACAD_REACTORS
330
1DC
102
}
330
1DC
100
AcDbXrecord
1000
DSTYLE
1002
{
1070
   278
 70
    44
1002
}
  0
XRECORD
  5
1EB
102
{ACAD_REACTORS
330
1DC
102
}
330
1DC
100
AcDbXrecord
340
0
  0
XRECORD
  5
1EC
102
{ACAD_REACTORS
330
1DC
102
}
330
1DC
100
AcDbXrecord
 70
     0
  0
XRECORD
  5
1ED
102
{ACAD_REACTORS
330
1DC
102
}
330
1DC
100
AcDbXrecord
340
0
  0
XRECORD
  5
1EE
102
{ACAD_REACTORS
330
1DC
102
}
330
1DC
100
AcDbXrecord
 10
0.0
 20
0.0
 30
0.0
  0
XRECORD
  5
1EF
102
{ACAD_REACTORS
330
1DC
102
}
330
1DC
100
AcDbXrecord
 10
0.0
 20
0.0
 30
0.0
  0
XRECORD
  5
1F0
102
{ACAD_REACTORS
330
1DC
102
}
330
1DC
100
AcDbXrecord
 10
0.0
 20
0.0
 30
0.0
  0
XRECORD
  5
1F1
102
{ACAD_REACTORS
330
1DC
102
}
330
1DC
100
AcDbXrecord
 10
0.0
 20
0.0
 30
0.0
  0
XRECORD
  5
1F2
102
{ACAD_REACTORS
330
1DC
102
}
330
1DC
100
AcDbXrecord
 10
0.0
 20
0.0
 30
0.0
  0
XRECORD
  5
1F3
102
{ACAD_REACTORS
330
1DC
102
}
330
1DC
100
AcDbXrecord
 10
0.0
 20
0.0
 30
0.0
  0
XRECORD
  5
1F4
102
{ACAD_REACTORS
330
1DC
102
}
330
1DC
100
AcDbXrecord
340
0
  0
XRECORD
  5
1F5
102
{ACAD_REACTORS
330
1DC
102
}
330
1DC
100
AcDbXrecord
 70
     0
  0
XRECORD
  5
1F6
102
{ACAD_REACTORS
330
1DC
102
}
330
1DC
100
AcDbXrecord
340
0
  0
XRECORD
  5
1F7
102
{ACAD_REACTORS
330
1DC
102
}
330
1DC
100
AcDbXrecord
 10
0.0
 20
0.0
 30
0.0
  0
XRECORD
  5
1F8
102
{ACAD_REACTORS
330
1DC
102
}
330
1DC
100
AcDbXrecord
 10
0.0
 20
0.0
 30
0.0
  0
XRECORD
  5
1F9
102
{ACAD_REACTORS
330
1DC
102
}
330
1DC
100
AcDbXrecord
 10
0.0
 20
0.0
 30
0.0
  0
XRECORD
  5
1FA
102
{ACAD_REACTORS
330
1DC
102
}
330
1DC
100
AcDbXrecord
 10
0.0
 20
0.0
 30
0.0
  0
XRECORD
  5
1FB
102
{ACAD_REACTORS
330
1DC
102
}
330
1DC
100
AcDbXrecord
 10
0.0
 20
0.0
 30
0.0
  0
XRECORD
  5
1FC
102
{ACAD_REACTORS
330
1DC
102
}
330
1DC
100
AcDbXrecord
 10
0.0
 20
0.0
 30
0.0
  0
ENDSEC
  0
EOF
