  0
SECTION
  2
HEADER
  9
$ACADVER
  1
AC1015
  9
$ACADMAINTVER
 70
    20
  9
$DWGCODEPAGE
  3
ANSI_1252
  9
$INSBASE
 10
0.0
 20
0.0
 30
0.0
  9
$EXTMIN
 10
-76303.14583783729
 20
-74413.5033033629
 30
-0.0000000001303048
  9
$EXTMAX
 10
-76030.66503699716
 20
-74167.73164999632
 30
0.0
  9
$LIMMIN
 10
0.0
 20
0.0
  9
$LIMMAX
 10
1189.0
 20
841.0
  9
$ORTHOMODE
 70
     0
  9
$REGENMODE
 70
     1
  9
$FILLMODE
 70
     1
  9
$QTEXTMODE
 70
     0
  9
$MIRRTEXT
 70
     1
  9
$LTSCALE
 40
1.0
  9
$ATTMODE
 70
     1
  9
$TEXTSIZE
 40
30.0
  9
$TRACEWID
 40
1.0
  9
$TEXTSTYLE
  7
ROMANS
  9
$CLAYER
  8
0
  9
$CELTYPE
  6
BYLAYER
  9
$CECOLOR
 62
   256
  9
$CELTSCALE
 40
1.0
  9
$DISPSILH
 70
     0
  9
$DIMSCALE
 40
1.0
  9
$DIMASZ
 40
30.0
  9
$DIMEXO
 40
0.0
  9
$DIMDLI
 40
3.75
  9
$DIMRND
 40
0.0
  9
$DIMDLE
 40
0.0
  9
$DIMEXE
 40
10.0
  9
$DIMTP
 40
0.0
  9
$DIMTM
 40
0.0
  9
$DIMTXT
 40
30.0
  9
$DIMCEN
 40
2.5
  9
$DIMTSZ
 40
0.0
  9
$DIMTOL
 70
     0
  9
$DIMLIM
 70
     0
  9
$DIMTIH
 70
     0
  9
$DIMTOH
 70
     0
  9
$DIMSE1
 70
     0
  9
$DIMSE2
 70
     0
  9
$DIMTAD
 70
     1
  9
$DIMZIN
 70
     0
  9
$DIMBLK
  1

  9
$DIMASO
 70
     1
  9
$DIMSHO
 70
     1
  9
$DIMPOST
  1

  9
$DIMAPOST
  1

  9
$DIMALT
 70
     0
  9
$DIMALTD
 70
     2
  9
$DIMALTF
 40
25.4
  9
$DIMLFAC
 40
1.0
  9
$DIMTOFL
 70
     1
  9
$DIMTVP
 40
0.0
  9
$DIMTIX
 70
     0
  9
$DIMSOXD
 70
     0
  9
$DIMSAH
 70
     0
  9
$DIMBLK1
  1

  9
$DIMBLK2
  1

  9
$DIMSTYLE
  2
STANDARD
  9
$DIMCLRD
 70
     0
  9
$DIMCLRE
 70
     0
  9
$DIMCLRT
 70
     0
  9
$DIMTFAC
 40
1.0
  9
$DIMGAP
 40
10.0
  9
$DIMJUST
 70
     0
  9
$DIMSD1
 70
     0
  9
$DIMSD2
 70
     0
  9
$DIMTOLJ
 70
     1
  9
$DIMTZIN
 70
     0
  9
$DIMALTZ
 70
     0
  9
$DIMALTTZ
 70
     0
  9
$DIMUPT
 70
     0
  9
$DIMDEC
 70
     0
  9
$DIMTDEC
 70
     0
  9
$DIMALTU
 70
     2
  9
$DIMALTTD
 70
     2
  9
$DIMTXSTY
  7
STANDARD
  9
$DIMAUNIT
 70
     0
  9
$DIMADEC
 70
     0
  9
$DIMALTRND
 40
0.0
  9
$DIMAZIN
 70
     0
  9
$DIMDSEP
 70
    46
  9
$DIMATFIT
 70
     3
  9
$DIMFRAC
 70
     0
  9
$DIMLDRBLK
  1

  9
$DIMLUNIT
 70
     2
  9
$DIMLWD
 70
    -2
  9
$DIMLWE
 70
    -2
  9
$DIMTMOVE
 70
     0
  9
$LUNITS
 70
     2
  9
$LUPREC
 70
     4
  9
$SKETCHINC
 40
1.0
  9
$FILLETRAD
 40
0.0
  9
$AUNITS
 70
     0
  9
$AUPREC
 70
     0
  9
$MENU
  1
C:\ACADR13\WIN\SUPPORT\ACADFULL
  9
$ELEVATION
 40
0.0
  9
$PELEVATION
 40
0.0
  9
$THICKNESS
 40
0.0
  9
$LIMCHECK
 70
     0
  9
$CHAMFERA
 40
10.0
  9
$CHAMFERB
 40
10.0
  9
$CHAMFERC
 40
0.0
  9
$CHAMFERD
 40
0.0
  9
$SKPOLY
 70
     0
  9
$TDCREATE
 40
2450382.434570139
  9
$TDUCREATE
 40
2450382.351236806
  9
$TDUPDATE
 40
2455057.484893496
  9
$TDUUPDATE
 40
2455057.401560162
  9
$TDINDWG
 40
0.7403239583
  9
$TDUSRTIMER
 40
0.7403234144
  9
$USRTIMER
 70
     1
  9
$ANGBASE
 50
0.0
  9
$ANGDIR
 70
     0
  9
$PDMODE
 70
     0
  9
$PDSIZE
 40
0.0
  9
$PLINEWID
 40
0.0
  9
$SPLFRAME
 70
     0
  9
$SPLINETYPE
 70
     6
  9
$SPLINESEGS
 70
     8
  9
$HANDSEED
  5
3BF42
  9
$SURFTAB1
 70
     6
  9
$SURFTAB2
 70
     6
  9
$SURFTYPE
 70
     6
  9
$SURFU
 70
     6
  9
$SURFV
 70
     6
  9
$UCSBASE
  2

  9
$UCSNAME
  2

  9
$UCSORG
 10
0.0
 20
0.0
 30
0.0
  9
$UCSXDIR
 10
1.0
 20
0.0
 30
0.0
  9
$UCSYDIR
 10
0.0
 20
1.0
 30
0.0
  9
$UCSORTHOREF
  2

  9
$UCSORTHOVIEW
 70
     0
  9
$UCSORGTOP
 10
0.0
 20
0.0
 30
0.0
  9
$UCSORGBOTTOM
 10
0.0
 20
0.0
 30
0.0
  9
$UCSORGLEFT
 10
0.0
 20
0.0
 30
0.0
  9
$UCSORGRIGHT
 10
0.0
 20
0.0
 30
0.0
  9
$UCSORGFRONT
 10
0.0
 20
0.0
 30
0.0
  9
$UCSORGBACK
 10
0.0
 20
0.0
 30
0.0
  9
$PUCSBASE
  2

  9
$PUCSNAME
  2

  9
$PUCSORG
 10
0.0
 20
0.0
 30
0.0
  9
$PUCSXDIR
 10
1.0
 20
0.0
 30
0.0
  9
$PUCSYDIR
 10
0.0
 20
1.0
 30
0.0
  9
$PUCSORTHOREF
  2

  9
$PUCSORTHOVIEW
 70
     0
  9
$PUCSORGTOP
 10
0.0
 20
0.0
 30
0.0
  9
$PUCSORGBOTTOM
 10
0.0
 20
0.0
 30
0.0
  9
$PUCSORGLEFT
 10
0.0
 20
0.0
 30
0.0
  9
$PUCSORGRIGHT
 10
0.0
 20
0.0
 30
0.0
  9
$PUCSORGFRONT
 10
0.0
 20
0.0
 30
0.0
  9
$PUCSORGBACK
 10
0.0
 20
0.0
 30
0.0
  9
$USERI1
 70
     0
  9
$USERI2
 70
     0
  9
$USERI3
 70
     0
  9
$USERI4
 70
     0
  9
$USERI5
 70
     0
  9
$USERR1
 40
0.0
  9
$USERR2
 40
0.0
  9
$USERR3
 40
0.0
  9
$USERR4
 40
0.0
  9
$USERR5
 40
0.0
  9
$WORLDVIEW
 70
     1
  9
$SHADEDGE
 70
     3
  9
$SHADEDIF
 70
    70
  9
$TILEMODE
 70
     1
  9
$MAXACTVP
 70
    16
  9
$PINSBASE
 10
0.0
 20
0.0
 30
0.0
  9
$PLIMCHECK
 70
     0
  9
$PEXTMIN
 10
1.000000000000000E+20
 20
1.000000000000000E+20
 30
1.000000000000000E+20
  9
$PEXTMAX
 10
-1.000000000000000E+20
 20
-1.000000000000000E+20
 30
-1.000000000000000E+20
  9
$PLIMMIN
 10
-0.0980265521206203
 20
-3.678311471965383
  9
$PLIMMAX
 10
207.2988188848241
 20
289.6460551372062
  9
$UNITMODE
 70
     0
  9
$VISRETAIN
 70
     0
  9
$PLINEGEN
 70
     0
  9
$PSLTSCALE
 70
     1
  9
$TREEDEPTH
 70
  3020
  9
$CMLSTYLE
  2
STANDARD
  9
$CMLJUST
 70
     0
  9
$CMLSCALE
 40
1.0
  9
$PROXYGRAPHICS
 70
     1
  9
$MEASUREMENT
 70
     0
  9
$CELWEIGHT
370
    -1
  9
$ENDCAPS
280
     0
  9
$JOINSTYLE
280
     0
  9
$LWDISPLAY
290
     0
  9
$INSUNITS
 70
     0
  9
$HYPERLINKBASE
  1

  9
$STYLESHEET
  1

  9
$XEDIT
290
     1
  9
$CEPSNTYPE
380
     0
  9
$PSTYLEMODE
290
     1
  9
$FINGERPRINTGUID
  2
{408A79E2-F00F-47E2-9806-578BB6257B10}
  9
$VERSIONGUID
  2
{2BD9E397-D6FC-4A1D-B922-DE7B43B36DF9}
  9
$EXTNAMES
290
     1
  9
$PSVPSCALE
 40
0.0
  9
$OLESTARTUP
290
     0
  0
ENDSEC
  0
SECTION
  2
CLASSES
  0
CLASS
  1
DICTIONARYVAR
  2
AcDbDictionaryVar
  3
ObjectDBX Classes
 90
        0
280
     0
281
     0
  0
CLASS
  1
ACDBDICTIONARYWDFLT
  2
AcDbDictionaryWithDefault
  3
ObjectDBX Classes
 90
        0
280
     0
281
     0
  0
CLASS
  1
ACDBPLACEHOLDER
  2
AcDbPlaceHolder
  3
ObjectDBX Classes
 90
        0
280
     0
281
     0
  0
CLASS
  1
LAYOUT
  2
AcDbLayout
  3
ObjectDBX Classes
 90
        0
280
     0
281
     0
  0
CLASS
  1
MATERIAL
  2
AcDbMaterial
  3
ObjectDBX Classes
 90
     1024
280
     0
281
     0
  0
CLASS
  1
VISUALSTYLE
  2
AcDbVisualStyle
  3
ObjectDBX Classes
 90
     4095
280
     0
281
     0
  0
CLASS
  1
TABLESTYLE
  2
AcDbTableStyle
  3
ObjectDBX Classes
 90
     4095
280
     0
281
     0
  0
CLASS
  1
SORTENTSTABLE
  2
AcDbSortentsTable
  3
ObjectDBX Classes
 90
        0
280
     0
281
     0
  0
ENDSEC
  0
SECTION
  2
TABLES
  0
TABLE
  2
VPORT
  5
8
330
0
100
AcDbSymbolTable
 70
     1
  0
VPORT
  5
39C01
330
8
100
AcDbSymbolTableRecord
100
AcDbViewportTableRecord
  2
*Active
 70
     0
 10
0.0
 20
0.0
 11
1.0
 21
1.0
 12
-76101.79704085721
 22
-74292.78616605333
 13
0.0
 23
0.0
 14
10.0
 24
10.0
 15
10.0
 25
10.0
 16
0.0
 26
0.0
 36
1.0
 17
0.0
 27
0.0
 37
0.0
 40
311.1815444602698
 41
1.611036339165545
 42
50.0
 43
0.0
 44
0.0
 50
0.0
 51
0.0
 71
     0
 72
 20000
 73
     1
 74
     1
 75
     0
 76
     0
 77
     0
 78
     0
281
     0
 65
     1
110
0.0
120
0.0
130
0.0
111
1.0
121
0.0
131
0.0
112
0.0
122
1.0
132
0.0
 79
     0
146
0.0
  0
ENDTAB
  0
TABLE
  2
LTYPE
  5
5
330
0
100
AcDbSymbolTable
 70
     1
  0
LTYPE
  5
14
330
5
100
AcDbSymbolTableRecord
100
AcDbLinetypeTableRecord
  2
BYBLOCK
 70
     0
  3

 72
    65
 73
     0
 40
0.0
  0
LTYPE
  5
15
330
5
100
AcDbSymbolTableRecord
100
AcDbLinetypeTableRecord
  2
BYLAYER
 70
     0
  3

 72
    65
 73
     0
 40
0.0
  0
LTYPE
  5
16
330
5
100
AcDbSymbolTableRecord
100
AcDbLinetypeTableRecord
  2
CONTINUOUS
 70
     0
  3
Solid line
 72
    65
 73
     0
 40
0.0
  0
ENDTAB
  0
TABLE
  2
LAYER
  5
2
102
{ACAD_XDICTIONARY
360
39C3D
102
}
330
0
100
AcDbSymbolTable
 70
     3
  0
LAYER
  5
F
330
2
100
AcDbSymbolTableRecord
100
AcDbLayerTableRecord
  2
0
 70
     0
 62
     7
  6
CONTINUOUS
370
    -3
390
39BF2
  0
LAYER
  5
3FD
330
2
100
AcDbSymbolTableRecord
100
AcDbLayerTableRecord
  2
DEFPOINTS
 70
     0
 62
     7
  6
CONTINUOUS
290
     0
370
    -3
390
39BF2
  0
LAYER
  5
3BD24
330
2
100
AcDbSymbolTableRecord
100
AcDbLayerTableRecord
  2
HEWI
 70
     0
 62
     7
  6
CONTINUOUS
370
    -3
390
39BF2
  0
ENDTAB
  0
TABLE
  2
STYLE
  5
3
330
0
100
AcDbSymbolTable
 70
     2
  0
STYLE
  5
10
330
3
100
AcDbSymbolTableRecord
100
AcDbTextStyleTableRecord
  2
STANDARD
 70
     0
 40
0.0
 41
1.0
 50
0.0
 71
     0
 42
2.5
  3
ISOCP
  4

  0
STYLE
  5
3F
330
3
100
AcDbSymbolTableRecord
100
AcDbTextStyleTableRecord
  2
ROMANS
 70
     0
 40
0.0
 41
0.8
 50
0.0
 71
     0
 42
30.0
  3
romans.shx
  4

  0
ENDTAB
  0
TABLE
  2
VIEW
  5
6
330
0
100
AcDbSymbolTable
 70
     1
  0
ENDTAB
  0
TABLE
  2
UCS
  5
7
330
0
100
AcDbSymbolTable
 70
     0
  0
ENDTAB
  0
TABLE
  2
APPID
  5
9
330
0
100
AcDbSymbolTable
 70
     5
  0
APPID
  5
11
330
9
100
AcDbSymbolTableRecord
100
AcDbRegAppTableRecord
  2
ACAD
 70
     0
  0
APPID
  5
36496
330
9
100
AcDbSymbolTableRecord
100
AcDbRegAppTableRecord
  2
ACADIGES
 70
     0
  0
APPID
  5
36497
330
9
100
AcDbSymbolTableRecord
100
AcDbRegAppTableRecord
  2
AUTOCAD_POSTSCRIPT_FIGURE
 70
     0
  0
APPID
  5
3A910
330
9
100
AcDbSymbolTableRecord
100
AcDbRegAppTableRecord
  2
ACAD_PSEXT
 70
     0
  0
APPID
  5
3AB52
330
9
100
AcDbSymbolTableRecord
100
AcDbRegAppTableRecord
  2
AcAecLayerStandard
 70
     0
  0
ENDTAB
  0
TABLE
  2
DIMSTYLE
  5
A
330
0
100
AcDbSymbolTable
 70
     1
100
AcDbDimStyleTable
 71
     1
340
1D
  0
DIMSTYLE
105
1D
330
A
100
AcDbSymbolTableRecord
100
AcDbDimStyleTableRecord
  2
STANDARD
 70
     0
340
10
  0
ENDTAB
  0
TABLE
  2
BLOCK_RECORD
  5
1
330
0
100
AcDbSymbolTable
 70
     9
  0
BLOCK_RECORD
  5
1A
102
{ACAD_XDICTIONARY
360
3B151
102
}
330
1
100
AcDbSymbolTableRecord
100
AcDbBlockTableRecord
  2
*MODEL_SPACE
340
39BF5
  0
BLOCK_RECORD
  5
17
330
1
100
AcDbSymbolTableRecord
100
AcDbBlockTableRecord
  2
*PAPER_SPACE
340
39BF6
  0
BLOCK_RECORD
  5
3BEAF
330
1
100
AcDbSymbolTableRecord
100
AcDbBlockTableRecord
  2
*D0
340
0
  0
BLOCK_RECORD
  5
3BEBE
330
1
100
AcDbSymbolTableRecord
100
AcDbBlockTableRecord
  2
*D1
340
0
  0
BLOCK_RECORD
  5
3BECD
330
1
100
AcDbSymbolTableRecord
100
AcDbBlockTableRecord
  2
*D2
340
0
  0
BLOCK_RECORD
  5
3BEDC
330
1
100
AcDbSymbolTableRecord
100
AcDbBlockTableRecord
  2
*D3
340
0
  0
BLOCK_RECORD
  5
3BEEB
330
1
100
AcDbSymbolTableRecord
100
AcDbBlockTableRecord
  2
*D4
340
0
  0
BLOCK_RECORD
  5
3BEFA
330
1
100
AcDbSymbolTableRecord
100
AcDbBlockTableRecord
  2
*D5
340
0
  0
BLOCK_RECORD
  5
3BF09
330
1
100
AcDbSymbolTableRecord
100
AcDbBlockTableRecord
  2
*D6
340
0
  0
BLOCK_RECORD
  5
3BF18
330
1
100
AcDbSymbolTableRecord
100
AcDbBlockTableRecord
  2
*D7
340
0
  0
BLOCK_RECORD
  5
3BF27
330
1
100
AcDbSymbolTableRecord
100
AcDbBlockTableRecord
  2
*D8
340
0
  0
ENDTAB
  0
ENDSEC
  0
SECTION
  2
BLOCKS
  0
BLOCK
  5
1B
330
1A
100
AcDbEntity
  8
0
100
AcDbBlockBegin
  2
*MODEL_SPACE
 70
     0
 10
0.0
 20
0.0
 30
0.0
  3
*MODEL_SPACE
  1

  0
ENDBLK
  5
1C
330
1A
100
AcDbEntity
  8
0
100
AcDbBlockEnd
  0
BLOCK
  5
18
330
17
100
AcDbEntity
 67
     1
  8
0
100
AcDbBlockBegin
  2
*PAPER_SPACE
 70
     0
 10
0.0
 20
0.0
 30
0.0
  3
*PAPER_SPACE
  1

  0
ENDBLK
  5
19
330
17
100
AcDbEntity
 67
     1
  8
0
100
AcDbBlockEnd
  0
BLOCK
  5
3BEBB
330
3BEAF
100
AcDbEntity
  8
0
100
AcDbBlockBegin
  2
*D0
 70
     1
 10
0.0
 20
0.0
 30
0.0
  3
*D0
  1

  0
LINE
  5
3BEB0
330
3BEAF
100
AcDbEntity
  8
0
 62
     0
370
    -2
100
AcDbLine
 10
-76183.68865899597
 20
-74312.21983879598
 30
0.0
 11
-76207.16557182623
 21
-74312.21983879598
 31
0.0
  0
LINE
  5
3BEB1
330
3BEAF
100
AcDbEntity
  8
0
 62
     0
370
    -2
100
AcDbLine
 10
-76183.68865899597
 20
-74287.21983894848
 30
0.0
 11
-76207.16557182623
 21
-74287.21983894848
 31
0.0
  0
LINE
  5
3BEB2
330
3BEAF
100
AcDbEntity
  8
0
 62
     0
370
    -2
100
AcDbLine
 10
-76197.16557182623
 20
-74342.21983879598
 30
0.0
 11
-76197.16557182623
 21
-74372.21983879598
 31
0.0
  0
LINE
  5
3BEB3
330
3BEAF
100
AcDbEntity
  8
0
 62
     0
370
    -2
100
AcDbLine
 10
-76197.16557182623
 20
-74257.21983894848
 30
0.0
 11
-76197.16557182623
 21
-74172.21538723774
 31
0.0
  0
LINE
  5
3BEB4
330
3BEAF
100
AcDbEntity
  8
0
 62
     0
370
    -2
100
AcDbLine
 10
-76197.16557182623
 20
-74312.21983879598
 30
0.0
 11
-76197.16557182623
 21
-74287.21983894848
 31
0.0
  0
SOLID
  5
3BEB5
330
3BEAF
100
AcDbEntity
  8
0
 62
     0
100
AcDbTrace
 10
-76202.16557182623
 20
-74342.21983879598
 30
0.0
 11
-76192.16557182623
 21
-74342.21983879598
 31
0.0
 12
-76197.16557182623
 22
-74312.21983879598
 32
0.0
 13
-76197.16557182623
 23
-74312.21983879598
 33
0.0
  0
SOLID
  5
3BEB6
330
3BEAF
100
AcDbEntity
  8
0
 62
     0
100
AcDbTrace
 10
-76202.16557182623
 20
-74257.21983894848
 30
0.0
 11
-76192.16557182623
 21
-74257.21983894848
 31
0.0
 12
-76197.16557182623
 22
-74287.21983894848
 32
0.0
 13
-76197.16557182623
 23
-74287.21983894848
 33
0.0
  0
MTEXT
  5
3BEB7
330
3BEAF
100
AcDbEntity
  8
0
 62
     0
100
AcDbMText
 10
-76222.16852458213
 20
-74199.71761309313
 30
0.0
 40
30.0
 41
0.0
 71
     5
 72
     1
  1
\A1;25
 11
0.0000000000000001
 21
1.0
 31
0.0
 73
     1
 44
1.0
1001
ACAD
1000
MTEXTBEGIN
1070
    73
1070
     1
1070
    44
1040
1.0
1070
    74
1070
     0
1000
MTEXTEND
  0
POINT
  5
3BEB8
330
3BEAF
100
AcDbEntity
  8
DEFPOINTS
 62
     0
100
AcDbPoint
 10
-76183.68865899597
 20
-74312.21983879598
 30
-0.0000000001297501
  0
POINT
  5
3BEB9
330
3BEAF
100
AcDbEntity
  8
DEFPOINTS
 62
     0
100
AcDbPoint
 10
-76183.68865899597
 20
-74287.21983894848
 30
-0.0000000001297501
  0
POINT
  5
3BEBA
330
3BEAF
100
AcDbEntity
  8
DEFPOINTS
 62
     0
100
AcDbPoint
 10
-76197.16557182623
 20
-74287.21983894848
 30
0.0
  0
ENDBLK
  5
3BEBC
330
3BEAF
100
AcDbEntity
  8
0
100
AcDbBlockEnd
  0
BLOCK
  5
3BECA
330
3BEBE
100
AcDbEntity
  8
0
100
AcDbBlockBegin
  2
*D1
 70
     1
 10
0.0
 20
0.0
 30
0.0
  3
*D1
  1

  0
LINE
  5
3BEBF
330
3BEBE
100
AcDbEntity
  8
0
 62
     0
370
    -2
100
AcDbLine
 10
-76162.65688870025
 20
-74318.21983879596
 30
0.0
 11
-76117.65522513386
 21
-74318.21983879596
 31
0.0
  0
LINE
  5
3BEC0
330
3BEBE
100
AcDbEntity
  8
0
 62
     0
370
    -2
100
AcDbLine
 10
-76172.18865899597
 20
-74282.2198389727
 30
0.0
 11
-76117.65522513386
 21
-74282.2198389727
 31
0.0
  0
LINE
  5
3BEC1
330
3BEBE
100
AcDbEntity
  8
0
 62
     0
370
    -2
100
AcDbLine
 10
-76127.65522513385
 20
-74348.21983879596
 30
0.0
 11
-76127.65522513385
 21
-74378.21983879596
 31
0.0
  0
LINE
  5
3BEC2
330
3BEBE
100
AcDbEntity
  8
0
 62
     0
370
    -2
100
AcDbLine
 10
-76127.65522513385
 20
-74252.21983897269
 30
0.0
 11
-76127.65522513385
 21
-74167.73164999632
 31
0.0
  0
LINE
  5
3BEC3
330
3BEBE
100
AcDbEntity
  8
0
 62
     0
370
    -2
100
AcDbLine
 10
-76127.65522513385
 20
-74318.21983879596
 30
0.0
 11
-76127.65522513385
 21
-74282.2198389727
 31
0.0
  0
SOLID
  5
3BEC4
330
3BEBE
100
AcDbEntity
  8
0
 62
     0
100
AcDbTrace
 10
-76132.65522513386
 20
-74348.21983879596
 30
0.0
 11
-76122.65522513386
 21
-74348.21983879596
 31
0.0
 12
-76127.65522513385
 22
-74318.21983879596
 32
0.0
 13
-76127.65522513385
 23
-74318.21983879596
 33
0.0
  0
SOLID
  5
3BEC5
330
3BEBE
100
AcDbEntity
  8
0
 62
     0
100
AcDbTrace
 10
-76132.65522513386
 20
-74252.21983897269
 30
0.0
 11
-76122.65522513386
 21
-74252.21983897269
 31
0.0
 12
-76127.65522513385
 22
-74282.2198389727
 32
0.0
 13
-76127.65522513385
 23
-74282.2198389727
 33
0.0
  0
MTEXT
  5
3BEC6
330
3BEBE
100
AcDbEntity
  8
0
 62
     0
100
AcDbMText
 10
-76152.65522513384
 20
-74194.97574448453
 30
0.0
 40
30.0
 41
0.0
 71
     5
 72
     1
  1
\A1;36
 11
0.0000000000000001
 21
1.0
 31
0.0
 73
     1
 44
1.0
1001
ACAD
1000
MTEXTBEGIN
1070
    73
1070
     1
1070
    44
1040
1.0
1070
    74
1070
     0
1000
MTEXTEND
  0
POINT
  5
3BEC7
330
3BEBE
100
AcDbEntity
  8
DEFPOINTS
 62
     0
100
AcDbPoint
 10
-76162.65688870025
 20
-74318.21983879596
 30
-0.0000000001297501
  0
POINT
  5
3BEC8
330
3BEBE
100
AcDbEntity
  8
DEFPOINTS
 62
     0
100
AcDbPoint
 10
-76172.18865899597
 20
-74282.2198389727
 30
-0.0000000001297501
  0
POINT
  5
3BEC9
330
3BEBE
100
AcDbEntity
  8
DEFPOINTS
 62
     0
100
AcDbPoint
 10
-76127.65522513385
 20
-74282.2198389727
 30
0.0
  0
ENDBLK
  5
3BECB
330
3BEBE
100
AcDbEntity
  8
0
100
AcDbBlockEnd
  0
BLOCK
  5
3BED9
330
3BECD
100
AcDbEntity
  8
0
100
AcDbBlockBegin
  2
*D2
 70
     1
 10
0.0
 20
0.0
 30
0.0
  3
*D2
  1

  0
LINE
  5
3BECE
330
3BECD
100
AcDbEntity
  8
0
 62
     0
370
    -2
100
AcDbLine
 10
-76178.68865902019
 20
-74312.21983879598
 30
0.0
 11
-76211.76673059327
 21
-74312.21983879598
 31
0.0
  0
LINE
  5
3BECF
330
3BECD
100
AcDbEntity
  8
0
 62
     0
370
    -2
100
AcDbLine
 10
-76158.68865904442
 20
-74318.21983879596
 30
0.0
 11
-76211.76673059327
 21
-74318.21983879596
 31
0.0
  0
LINE
  5
3BED0
330
3BECD
100
AcDbEntity
  8
0
 62
     0
370
    -2
100
AcDbLine
 10
-76201.76673059327
 20
-74282.21983879597
 30
0.0
 11
-76201.76673059327
 21
-74252.21983879598
 31
0.0
  0
LINE
  5
3BED1
330
3BECD
100
AcDbEntity
  8
0
 62
     0
370
    -2
100
AcDbLine
 10
-76201.76673059327
 20
-74348.21983879596
 30
0.0
 11
-76201.76673059327
 21
-74413.5033033629
 31
0.0
  0
LINE
  5
3BED2
330
3BECD
100
AcDbEntity
  8
0
 62
     0
370
    -2
100
AcDbLine
 10
-76201.76673059327
 20
-74312.21983879598
 30
0.0
 11
-76201.76673059327
 21
-74318.21983879596
 31
0.0
  0
SOLID
  5
3BED3
330
3BECD
100
AcDbEntity
  8
0
 62
     0
100
AcDbTrace
 10
-76206.76673059326
 20
-74282.21983879597
 30
0.0
 11
-76196.76673059327
 21
-74282.21983879597
 31
0.0
 12
-76201.76673059327
 22
-74312.21983879598
 32
0.0
 13
-76201.76673059327
 23
-74312.21983879598
 33
0.0
  0
SOLID
  5
3BED4
330
3BECD
100
AcDbEntity
  8
0
 62
     0
100
AcDbTrace
 10
-76206.76673059326
 20
-74348.21983879596
 30
0.0
 11
-76196.76673059327
 21
-74348.21983879596
 31
0.0
 12
-76201.76673059327
 22
-74318.21983879596
 32
0.0
 13
-76201.76673059327
 23
-74318.21983879596
 33
0.0
  0
MTEXT
  5
3BED5
330
3BECD
100
AcDbEntity
  8
0
 62
     0
100
AcDbMText
 10
-76226.76673059325
 20
-74395.86157107944
 30
0.0
 40
30.0
 41
0.0
 71
     5
 72
     1
  1
\A1;6
 11
0.0000000000000001
 21
1.0
 31
0.0
 73
     1
 44
1.0
1001
ACAD
1000
MTEXTBEGIN
1070
    73
1070
     1
1070
    44
1040
1.0
1070
    74
1070
     0
1000
MTEXTEND
  0
POINT
  5
3BED6
330
3BECD
100
AcDbEntity
  8
DEFPOINTS
 62
     0
100
AcDbPoint
 10
-76178.68865902019
 20
-74312.21983879598
 30
-0.0000000001297501
  0
POINT
  5
3BED7
330
3BECD
100
AcDbEntity
  8
DEFPOINTS
 62
     0
100
AcDbPoint
 10
-76158.68865904442
 20
-74318.21983879596
 30
-0.0000000001297501
  0
POINT
  5
3BED8
330
3BECD
100
AcDbEntity
  8
DEFPOINTS
 62
     0
100
AcDbPoint
 10
-76201.76673059327
 20
-74318.21983879596
 30
0.0
  0
ENDBLK
  5
3BEDA
330
3BECD
100
AcDbEntity
  8
0
100
AcDbBlockEnd
  0
BLOCK
  5
3BEE8
330
3BEDC
100
AcDbEntity
  8
0
100
AcDbBlockBegin
  2
*D3
 70
     1
 10
0.0
 20
0.0
 30
0.0
  3
*D3
  1

  0
LINE
  5
3BEDD
330
3BEDC
100
AcDbEntity
  8
0
 62
     0
370
    -2
100
AcDbLine
 10
-76178.68865899597
 20
-74287.21983894848
 30
0.0
 11
-76216.86086762163
 21
-74287.21983894848
 31
0.0
  0
LINE
  5
3BEDE
330
3BEDC
100
AcDbEntity
  8
0
 62
     0
370
    -2
100
AcDbLine
 10
-76173.68865899598
 20
-74282.21983894848
 30
0.0
 11
-76216.86086762163
 21
-74282.21983894848
 31
0.0
  0
LINE
  5
3BEDF
330
3BEDC
100
AcDbEntity
  8
0
 62
     0
370
    -2
100
AcDbLine
 10
-76206.86086762162
 20
-74317.21983894848
 30
0.0
 11
-76206.86086762162
 21
-74347.21983894848
 31
0.0
  0
LINE
  5
3BEE0
330
3BEDC
100
AcDbEntity
  8
0
 62
     0
370
    -2
100
AcDbLine
 10
-76206.86086762162
 20
-74252.21983894848
 30
0.0
 11
-76206.86086762162
 21
-74188.97719826136
 31
0.0
  0
LINE
  5
3BEE1
330
3BEDC
100
AcDbEntity
  8
0
 62
     0
370
    -2
100
AcDbLine
 10
-76206.86086762162
 20
-74287.21983894848
 30
0.0
 11
-76206.86086762162
 21
-74282.21983894848
 31
0.0
  0
SOLID
  5
3BEE2
330
3BEDC
100
AcDbEntity
  8
0
 62
     0
100
AcDbTrace
 10
-76211.86086762162
 20
-74317.21983894848
 30
0.0
 11
-76201.86086762163
 21
-74317.21983894848
 31
0.0
 12
-76206.86086762162
 22
-74287.21983894848
 32
0.0
 13
-76206.86086762162
 23
-74287.21983894848
 33
0.0
  0
SOLID
  5
3BEE3
330
3BEDC
100
AcDbEntity
  8
0
 62
     0
100
AcDbTrace
 10
-76211.86086762162
 20
-74252.21983894848
 30
0.0
 11
-76201.86086762163
 21
-74252.21983894848
 31
0.0
 12
-76206.86086762162
 22
-74282.21983894848
 32
0.0
 13
-76206.86086762162
 23
-74282.21983894848
 33
0.0
  0
MTEXT
  5
3BEE4
330
3BEDC
100
AcDbEntity
  8
0
 62
     0
100
AcDbMText
 10
-76231.86086762161
 20
-74205.59851860494
 30
0.0
 40
30.0
 41
0.0
 71
     5
 72
     1
  1
\A1;5
 11
0.0000000000000001
 21
1.0
 31
0.0
 73
     1
 44
1.0
1001
ACAD
1000
MTEXTBEGIN
1070
    73
1070
     1
1070
    44
1040
1.0
1070
    74
1070
     0
1000
MTEXTEND
  0
POINT
  5
3BEE5
330
3BEDC
100
AcDbEntity
  8
DEFPOINTS
 62
     0
100
AcDbPoint
 10
-76178.68865899597
 20
-74287.21983894848
 30
-0.0000000001297501
  0
POINT
  5
3BEE6
330
3BEDC
100
AcDbEntity
  8
DEFPOINTS
 62
     0
100
AcDbPoint
 10
-76173.68865899598
 20
-74282.21983894848
 30
-0.0000000001297501
  0
POINT
  5
3BEE7
330
3BEDC
100
AcDbEntity
  8
DEFPOINTS
 62
     0
100
AcDbPoint
 10
-76206.86086762162
 20
-74282.21983894848
 30
0.0
  0
ENDBLK
  5
3BEE9
330
3BEDC
100
AcDbEntity
  8
0
100
AcDbBlockEnd
  0
BLOCK
  5
3BEF7
330
3BEEB
100
AcDbEntity
  8
0
100
AcDbBlockBegin
  2
*D4
 70
     1
 10
0.0
 20
0.0
 30
0.0
  3
*D4
  1

  0
LINE
  5
3BEEC
330
3BEEB
100
AcDbEntity
  8
0
 62
     0
370
    -2
100
AcDbLine
 10
-76183.68865899597
 20
-74306.77719033556
 30
0.0
 11
-76183.68865899597
 21
-74349.46160520121
 31
0.0
  0
LINE
  5
3BEED
330
3BEEB
100
AcDbEntity
  8
0
 62
     0
370
    -2
100
AcDbLine
 10
-76173.6886590444
 20
-74306.77719033556
 30
0.0
 11
-76173.6886590444
 21
-74349.46160520121
 31
0.0
  0
LINE
  5
3BEEE
330
3BEEB
100
AcDbEntity
  8
0
 62
     0
370
    -2
100
AcDbLine
 10
-76213.68865899597
 20
-74339.46160520121
 30
0.0
 11
-76243.68865899597
 21
-74339.46160520121
 31
0.0
  0
LINE
  5
3BEEF
330
3BEEB
100
AcDbEntity
  8
0
 62
     0
370
    -2
100
AcDbLine
 10
-76143.6886590444
 20
-74339.46160520121
 30
0.0
 11
-76066.66503699716
 21
-74339.46160520121
 31
0.0
  0
LINE
  5
3BEF0
330
3BEEB
100
AcDbEntity
  8
0
 62
     0
370
    -2
100
AcDbLine
 10
-76183.68865899597
 20
-74339.46160520121
 30
0.0
 11
-76173.6886590444
 21
-74339.46160520121
 31
0.0
  0
SOLID
  5
3BEF1
330
3BEEB
100
AcDbEntity
  8
0
 62
     0
100
AcDbTrace
 10
-76213.68865899597
 20
-74334.46160520121
 30
0.0
 11
-76213.68865899597
 21
-74344.46160520121
 31
0.0
 12
-76183.68865899597
 22
-74339.46160520121
 32
0.0
 13
-76183.68865899597
 23
-74339.46160520121
 33
0.0
  0
SOLID
  5
3BEF2
330
3BEEB
100
AcDbEntity
  8
0
 62
     0
100
AcDbTrace
 10
-76143.6886590444
 20
-74334.46160520121
 30
0.0
 11
-76143.6886590444
 21
-74344.46160520121
 31
0.0
 12
-76173.6886590444
 22
-74339.46160520121
 32
0.0
 13
-76173.6886590444
 23
-74339.46160520121
 33
0.0
  0
MTEXT
  5
3BEF3
330
3BEEB
100
AcDbEntity
  8
0
 62
     0
100
AcDbMText
 10
-76090.17684802078
 20
-74314.46160520121
 30
0.0
 40
30.0
 41
0.0
 71
     5
 72
     1
  1
\A1;10
 73
     1
 44
1.0
1001
ACAD
1000
MTEXTBEGIN
1070
    73
1070
     1
1070
    44
1040
1.0
1070
    74
1070
     0
1000
MTEXTEND
  0
POINT
  5
3BEF4
330
3BEEB
100
AcDbEntity
  8
DEFPOINTS
 62
     0
100
AcDbPoint
 10
-76183.68865899597
 20
-74306.77719033556
 30
-0.0000000001297501
  0
POINT
  5
3BEF5
330
3BEEB
100
AcDbEntity
  8
DEFPOINTS
 62
     0
100
AcDbPoint
 10
-76173.6886590444
 20
-74306.77719033556
 30
-0.0000000001297501
  0
POINT
  5
3BEF6
330
3BEEB
100
AcDbEntity
  8
DEFPOINTS
 62
     0
100
AcDbPoint
 10
-76173.6886590444
 20
-74339.46160520121
 30
0.0
  0
ENDBLK
  5
3BEF8
330
3BEEB
100
AcDbEntity
  8
0
100
AcDbBlockEnd
  0
BLOCK
  5
3BF06
330
3BEFA
100
AcDbEntity
  8
0
100
AcDbBlockBegin
  2
*D5
 70
     1
 10
0.0
 20
0.0
 30
0.0
  3
*D5
  1

  0
LINE
  5
3BEFB
330
3BEFA
100
AcDbEntity
  8
0
 62
     0
370
    -2
100
AcDbLine
 10
-76173.6886590444
 20
-74306.77719033556
 30
0.0
 11
-76173.6886590444
 21
-74380.8320726395
 31
0.0
  0
LINE
  5
3BEFC
330
3BEFA
100
AcDbEntity
  8
0
 62
     0
370
    -2
100
AcDbLine
 10
-76143.6886590444
 20
-74306.77719033556
 30
0.0
 11
-76143.6886590444
 21
-74380.8320726395
 31
0.0
  0
LINE
  5
3BEFD
330
3BEFA
100
AcDbEntity
  8
0
 62
     0
370
    -2
100
AcDbLine
 10
-76203.6886590444
 20
-74370.8320726395
 30
0.0
 11
-76233.6886590444
 21
-74370.8320726395
 31
0.0
  0
LINE
  5
3BEFE
330
3BEFA
100
AcDbEntity
  8
0
 62
     0
370
    -2
100
AcDbLine
 10
-76113.68865904441
 20
-74370.8320726395
 30
0.0
 11
-76030.66503699716
 21
-74370.8320726395
 31
0.0
  0
LINE
  5
3BEFF
330
3BEFA
100
AcDbEntity
  8
0
 62
     0
370
    -2
100
AcDbLine
 10
-76173.6886590444
 20
-74370.8320726395
 30
0.0
 11
-76143.6886590444
 21
-74370.8320726395
 31
0.0
  0
SOLID
  5
3BF00
330
3BEFA
100
AcDbEntity
  8
0
 62
     0
100
AcDbTrace
 10
-76203.6886590444
 20
-74365.8320726395
 30
0.0
 11
-76203.6886590444
 21
-74375.8320726395
 31
0.0
 12
-76173.6886590444
 22
-74370.8320726395
 32
0.0
 13
-76173.6886590444
 23
-74370.8320726395
 33
0.0
  0
SOLID
  5
3BF01
330
3BEFA
100
AcDbEntity
  8
0
 62
     0
100
AcDbTrace
 10
-76113.68865904441
 20
-74365.8320726395
 30
0.0
 11
-76113.68865904441
 21
-74375.8320726395
 31
0.0
 12
-76143.6886590444
 22
-74370.8320726395
 32
0.0
 13
-76143.6886590444
 23
-74370.8320726395
 33
0.0
  0
MTEXT
  5
3BF02
330
3BEFA
100
AcDbEntity
  8
0
 62
     0
100
AcDbMText
 10
-76057.17684802078
 20
-74345.8320726395
 30
0.0
 40
30.0
 41
0.0
 71
     5
 72
     1
  1
\A1;30
 73
     1
 44
1.0
1001
ACAD
1000
MTEXTBEGIN
1070
    73
1070
     1
1070
    44
1040
1.0
1070
    74
1070
     0
1000
MTEXTEND
  0
POINT
  5
3BF03
330
3BEFA
100
AcDbEntity
  8
DEFPOINTS
 62
     0
100
AcDbPoint
 10
-76173.6886590444
 20
-74306.77719033556
 30
0.0
  0
POINT
  5
3BF04
330
3BEFA
100
AcDbEntity
  8
DEFPOINTS
 62
     0
100
AcDbPoint
 10
-76143.6886590444
 20
-74306.77719033556
 30
-0.0000000001297501
  0
POINT
  5
3BF05
330
3BEFA
100
AcDbEntity
  8
DEFPOINTS
 62
     0
100
AcDbPoint
 10
-76143.6886590444
 20
-74370.8320726395
 30
0.0
  0
ENDBLK
  5
3BF07
330
3BEFA
100
AcDbEntity
  8
0
100
AcDbBlockEnd
  0
BLOCK
  5
3BF15
330
3BF09
100
AcDbEntity
  8
0
100
AcDbBlockBegin
  2
*D6
 70
     1
 10
0.0
 20
0.0
 30
0.0
  3
*D6
  1

  0
LINE
  5
3BF0A
330
3BF09
100
AcDbEntity
  8
0
 62
     0
370
    -2
100
AcDbLine
 10
-76243.14583783729
 20
-74311.71983879598
 30
0.0
 11
-76243.14583783729
 21
-74338.87755801695
 31
0.0
  0
LINE
  5
3BF0B
330
3BF09
100
AcDbEntity
  8
0
 62
     0
370
    -2
100
AcDbLine
 10
-76223.14583783729
 20
-74311.71983879598
 30
0.0
 11
-76223.14583783729
 21
-74338.87755801695
 31
0.0
  0
LINE
  5
3BF0C
330
3BF09
100
AcDbEntity
  8
0
 62
     0
370
    -2
100
AcDbLine
 10
-76273.14583783729
 20
-74328.87755801695
 30
0.0
 11
-76303.14583783729
 21
-74328.87755801695
 31
0.0
  0
LINE
  5
3BF0D
330
3BF09
100
AcDbEntity
  8
0
 62
     0
370
    -2
100
AcDbLine
 10
-76193.14583783729
 20
-74328.87755801695
 30
0.0
 11
-76109.36040476643
 21
-74328.87755801695
 31
0.0
  0
LINE
  5
3BF0E
330
3BF09
100
AcDbEntity
  8
0
 62
     0
370
    -2
100
AcDbLine
 10
-76243.14583783729
 20
-74328.87755801695
 30
0.0
 11
-76223.14583783729
 21
-74328.87755801695
 31
0.0
  0
SOLID
  5
3BF0F
330
3BF09
100
AcDbEntity
  8
0
 62
     0
100
AcDbTrace
 10
-76273.14583783729
 20
-74323.87755801695
 30
0.0
 11
-76273.14583783729
 21
-74333.87755801694
 31
0.0
 12
-76243.14583783729
 22
-74328.87755801695
 32
0.0
 13
-76243.14583783729
 23
-74328.87755801695
 33
0.0
  0
SOLID
  5
3BF10
330
3BF09
100
AcDbEntity
  8
0
 62
     0
100
AcDbTrace
 10
-76193.14583783729
 20
-74323.87755801695
 30
0.0
 11
-76193.14583783729
 21
-74333.87755801694
 31
0.0
 12
-76223.14583783729
 22
-74328.87755801695
 32
0.0
 13
-76223.14583783729
 23
-74328.87755801695
 33
0.0
  0
MTEXT
  5
3BF11
330
3BF09
100
AcDbEntity
  8
0
 62
     0
100
AcDbMText
 10
-76136.25312130185
 20
-74303.87460526103
 30
0.0
 40
30.0
 41
0.0
 71
     5
 72
     1
  1
\A1;20
 73
     1
 44
1.0
1001
ACAD
1000
MTEXTBEGIN
1070
    73
1070
     1
1070
    44
1040
1.0
1070
    74
1070
     0
1000
MTEXTEND
  0
POINT
  5
3BF12
330
3BF09
100
AcDbEntity
  8
DEFPOINTS
 62
     0
100
AcDbPoint
 10
-76243.14583783729
 20
-74311.71983879598
 30
-0.0000000001298707
  0
POINT
  5
3BF13
330
3BF09
100
AcDbEntity
  8
DEFPOINTS
 62
     0
100
AcDbPoint
 10
-76223.14583783729
 20
-74311.71983879598
 30
-0.0000000001298707
  0
POINT
  5
3BF14
330
3BF09
100
AcDbEntity
  8
DEFPOINTS
 62
     0
100
AcDbPoint
 10
-76223.14583783729
 20
-74328.87755801695
 30
0.0
  0
ENDBLK
  5
3BF16
330
3BF09
100
AcDbEntity
  8
0
100
AcDbBlockEnd
  0
BLOCK
  5
3BF24
330
3BF18
100
AcDbEntity
  8
0
100
AcDbBlockBegin
  2
*D7
 70
     1
 10
0.0
 20
0.0
 30
0.0
  3
*D7
  1

  0
LINE
  5
3BF19
330
3BF18
100
AcDbEntity
  8
0
 62
     0
370
    -2
100
AcDbLine
 10
-76154.0042401952
 20
-74318.21983879596
 30
0.0
 11
-76119.34661955229
 21
-74318.21983879596
 31
0.0
  0
LINE
  5
3BF1A
330
3BF18
100
AcDbEntity
  8
0
 62
     0
370
    -2
100
AcDbLine
 10
-76145.1886590444
 20
-74300.21983879596
 30
0.0
 11
-76119.34661955229
 21
-74300.21983879596
 31
0.0
  0
LINE
  5
3BF1B
330
3BF18
100
AcDbEntity
  8
0
 62
     0
370
    -2
100
AcDbLine
 10
-76129.34661955229
 20
-74348.21983879596
 30
0.0
 11
-76129.34661955229
 21
-74378.21983879596
 31
0.0
  0
LINE
  5
3BF1C
330
3BF18
100
AcDbEntity
  8
0
 62
     0
370
    -2
100
AcDbLine
 10
-76129.34661955229
 20
-74270.21983879597
 30
0.0
 11
-76129.34661955229
 21
-74193.21983879596
 31
0.0
  0
LINE
  5
3BF1D
330
3BF18
100
AcDbEntity
  8
0
 62
     0
370
    -2
100
AcDbLine
 10
-76129.34661955229
 20
-74318.21983879596
 30
0.0
 11
-76129.34661955229
 21
-74300.21983879596
 31
0.0
  0
SOLID
  5
3BF1E
330
3BF18
100
AcDbEntity
  8
0
 62
     0
100
AcDbTrace
 10
-76134.34661955229
 20
-74348.21983879596
 30
0.0
 11
-76124.34661955229
 21
-74348.21983879596
 31
0.0
 12
-76129.34661955229
 22
-74318.21983879596
 32
0.0
 13
-76129.34661955229
 23
-74318.21983879596
 33
0.0
  0
SOLID
  5
3BF1F
330
3BF18
100
AcDbEntity
  8
0
 62
     0
100
AcDbTrace
 10
-76134.34661955229
 20
-74270.21983879597
 30
0.0
 11
-76124.34661955229
 21
-74270.21983879597
 31
0.0
 12
-76129.34661955229
 22
-74300.21983879596
 32
0.0
 13
-76129.34661955229
 23
-74300.21983879596
 33
0.0
  0
MTEXT
  5
3BF20
330
3BF18
100
AcDbEntity
  8
0
 62
     0
100
AcDbMText
 10
-76154.34661955228
 20
-74216.71983879598
 30
0.0
 40
30.0
 41
0.0
 71
     5
 72
     1
  1
\A1;18
 11
0.0000000000000001
 21
1.0
 31
0.0
 73
     1
 44
1.0
1001
ACAD
1000
MTEXTBEGIN
1070
    73
1070
     1
1070
    44
1040
1.0
1070
    74
1070
     0
1000
MTEXTEND
  0
POINT
  5
3BF21
330
3BF18
100
AcDbEntity
  8
DEFPOINTS
 62
     0
100
AcDbPoint
 10
-76154.0042401952
 20
-74318.21983879596
 30
-0.0000000001297501
  0
POINT
  5
3BF22
330
3BF18
100
AcDbEntity
  8
DEFPOINTS
 62
     0
100
AcDbPoint
 10
-76145.1886590444
 20
-74300.21983879596
 30
-0.0000000001297501
  0
POINT
  5
3BF23
330
3BF18
100
AcDbEntity
  8
DEFPOINTS
 62
     0
100
AcDbPoint
 10
-76129.34661955229
 20
-74300.21983879596
 30
0.0
  0
ENDBLK
  5
3BF25
330
3BF18
100
AcDbEntity
  8
0
100
AcDbBlockEnd
  0
BLOCK
  5
3BF33
330
3BF27
100
AcDbEntity
  8
0
100
AcDbBlockBegin
  2
*D8
 70
     1
 10
0.0
 20
0.0
 30
0.0
  3
*D8
  1

  0
LINE
  5
3BF28
330
3BF27
100
AcDbEntity
  8
0
 62
     0
370
    -2
100
AcDbLine
 10
-76146.6886590444
 20
-74302.75300231638
 30
0.0
 11
-76146.6886590444
 21
-74282.28204931929
 31
0.0
  0
LINE
  5
3BF29
330
3BF27
100
AcDbEntity
  8
0
 62
     0
370
    -2
100
AcDbLine
 10
-76143.6886590444
 20
-74302.75300231638
 30
0.0
 11
-76143.6886590444
 21
-74282.28204931929
 31
0.0
  0
LINE
  5
3BF2A
330
3BF27
100
AcDbEntity
  8
0
 62
     0
370
    -2
100
AcDbLine
 10
-76176.6886590444
 20
-74292.2820493193
 30
0.0
 11
-76206.6886590444
 21
-74292.2820493193
 31
0.0
  0
LINE
  5
3BF2B
330
3BF27
100
AcDbEntity
  8
0
 62
     0
370
    -2
100
AcDbLine
 10
-76113.68865904441
 20
-74292.2820493193
 30
0.0
 11
-76050.44601835728
 21
-74292.2820493193
 31
0.0
  0
LINE
  5
3BF2C
330
3BF27
100
AcDbEntity
  8
0
 62
     0
370
    -2
100
AcDbLine
 10
-76146.6886590444
 20
-74292.2820493193
 30
0.0
 11
-76143.6886590444
 21
-74292.2820493193
 31
0.0
  0
SOLID
  5
3BF2D
330
3BF27
100
AcDbEntity
  8
0
 62
     0
100
AcDbTrace
 10
-76176.6886590444
 20
-74287.2820493193
 30
0.0
 11
-76176.6886590444
 21
-74297.28204931929
 31
0.0
 12
-76146.6886590444
 22
-74292.2820493193
 32
0.0
 13
-76146.6886590444
 23
-74292.2820493193
 33
0.0
  0
SOLID
  5
3BF2E
330
3BF27
100
AcDbEntity
  8
0
 62
     0
100
AcDbTrace
 10
-76113.68865904441
 20
-74287.2820493193
 30
0.0
 11
-76113.68865904441
 21
-74297.28204931929
 31
0.0
 12
-76143.6886590444
 22
-74292.2820493193
 32
0.0
 13
-76143.6886590444
 23
-74292.2820493193
 33
0.0
  0
MTEXT
  5
3BF2F
330
3BF27
100
AcDbEntity
  8
0
 62
     0
100
AcDbMText
 10
-76067.06733870084
 20
-74267.28204931929
 30
0.0
 40
30.0
 41
0.0
 71
     5
 72
     1
  1
\A1;3
 73
     1
 44
1.0
1001
ACAD
1000
MTEXTBEGIN
1070
    73
1070
     1
1070
    44
1040
1.0
1070
    74
1070
     0
1000
MTEXTEND
  0
POINT
  5
3BF30
330
3BF27
100
AcDbEntity
  8
DEFPOINTS
 62
     0
100
AcDbPoint
 10
-76146.6886590444
 20
-74302.75300231638
 30
-0.0000000001297501
  0
POINT
  5
3BF31
330
3BF27
100
AcDbEntity
  8
DEFPOINTS
 62
     0
100
AcDbPoint
 10
-76143.6886590444
 20
-74302.75300231638
 30
-0.0000000001297501
  0
POINT
  5
3BF32
330
3BF27
100
AcDbEntity
  8
DEFPOINTS
 62
     0
100
AcDbPoint
 10
-76143.6886590444
 20
-74292.2820493193
 30
0.0
  0
ENDBLK
  5
3BF34
330
3BF27
100
AcDbEntity
  8
0
100
AcDbBlockEnd
  0
ENDSEC
  0
SECTION
  2
ENTITIES
  0
POLYLINE
  5
3BE4A
330
1A
100
AcDbEntity
  8
HEWI
100
AcDb2dPolyline
 66
     1
 10
0.0
 20
0.0
 30
-0.0000000001297501
  0
VERTEX
  5
3BE4B
330
3BE4A
100
AcDbEntity
  8
HEWI
100
AcDbVertex
100
AcDb2dVertex
 10
-76146.6886590444
 20
-74300.21983879596
 30
-0.0000000001297501
  0
VERTEX
  5
3BE4C
330
3BE4A
100
AcDbEntity
  8
HEWI
100
AcDbVertex
100
AcDb2dVertex
 10
-76143.6886590444
 20
-74300.21983879596
 30
-0.0000000001297501
  0
SEQEND
  5
3BE4D
330
3BE4A
100
AcDbEntity
  8
HEWI
  0
LINE
  5
3BE4E
330
1A
100
AcDbEntity
  8
HEWI
100
AcDbLine
 10
-76143.6886590444
 20
-74300.21983879596
 30
-0.0000000001297501
 11
-76143.6886590444
 21
-74312.21983879595
 31
-0.0000000001297501
  0
ARC
  5
3BE4F
330
1A
100
AcDbEntity
  8
HEWI
100
AcDbCircle
 10
-76149.68863433349
 20
-74312.21986350685
 30
-0.0000000001297501
 40
5.999975289159699
100
AcDbArc
 50
269.9997640274696
 51
0.0002359725304081
  0
LINE
  5
3BE50
330
1A
100
AcDbEntity
  8
HEWI
100
AcDbLine
 10
-76149.6886590444
 20
-74318.21983879596
 30
-0.0000000001297501
 11
-76167.68865904441
 21
-74318.21983879596
 31
-0.0000000001297501
  0
ARC
  5
3BE51
330
1A
100
AcDbEntity
  8
HEWI
100
AcDbCircle
 10
-76167.68869044594
 20
-74312.2198701975
 30
-0.0000000001297501
 40
5.999968598546357
100
AcDbArc
 50
179.9997001353521
 51
270.0002998638141
  0
LINE
  5
3BE52
330
1A
100
AcDbEntity
  8
HEWI
100
AcDbLine
 10
-76173.6886590444
 20
-74312.21983879598
 30
-0.0000000001297501
 11
-76173.6886590444
 21
-74285.21983880076
 31
-0.0000000001297501
  0
LINE
  5
3BE53
330
1A
100
AcDbEntity
  8
HEWI
100
AcDbLine
 10
-76173.6886590444
 20
-74285.21983880076
 30
-0.0000000001297501
 11
-76173.68865899598
 21
-74282.21983894848
 31
-0.0000000001297501
  0
POLYLINE
  5
3BE54
330
1A
100
AcDbEntity
  8
HEWI
100
AcDb2dPolyline
 66
     1
 10
0.0
 20
0.0
 30
-0.0000000001297501
  0
VERTEX
  5
3BE55
330
3BE54
100
AcDbEntity
  8
HEWI
100
AcDbVertex
100
AcDb2dVertex
 10
-76173.68865899598
 20
-74282.21983894848
 30
-0.0000000001297501
  0
VERTEX
  5
3BE56
330
3BE54
100
AcDbEntity
  8
HEWI
100
AcDbVertex
100
AcDb2dVertex
 10
-76170.68865899597
 20
-74282.21983899693
 30
-0.0000000001297501
  0
SEQEND
  5
3BE57
330
3BE54
100
AcDbEntity
  8
HEWI
  0
SPLINE
  5
3BE58
330
1A
100
AcDbEntity
  8
HEWI
100
AcDbSpline
210
0.0
220
0.0
230
1.0
 70
     8
 71
     2
 72
     8
 73
     5
 74
     0
 42
0.0000000001
 43
0.0000000001
 40
-4.999969374040382
 40
-4.999969374040382
 40
-4.999969374040382
 40
0.0
 40
0.0
 40
44.99999984222969
 40
44.99999984222969
 40
44.99999984222969
 10
-76170.68865899597
 20
-74282.21983899693
 30
-0.0000000001297501
 10
-76170.68865902019
 20
-74283.71983891095
 30
-0.0000000001297501
 10
-76170.68865904442
 20
-74285.21983882499
 30
-0.0000000001297501
 10
-76170.68865904442
 20
-74298.71984273567
 30
-0.0000000001297501
 10
-76170.68865904442
 20
-74312.21984664639
 30
-0.0000000001297501
  0
SPLINE
  5
3BE59
330
1A
100
AcDbEntity
  8
HEWI
100
AcDbSpline
210
0.0
220
0.0
230
1.0
 70
    12
 71
     2
 72
     8
 73
     5
 74
     0
 42
0.0000000001
 43
0.0000000001
 40
44.99999984222969
 40
44.99999984222969
 40
44.99999984222969
 40
52.85399270770154
 40
52.85399270770154
 40
60.70798557317338
 40
60.70798557317338
 40
60.70798557317338
 10
-76170.68865904442
 20
-74312.21984664639
 30
-0.0000000001297501
 41
1.0
 10
-76170.68866554793
 20
-74313.46249137426
 30
-0.0000000001297501
 41
0.9238785310988399
 10
-76169.80998858531
 20
-74314.34116833687
 30
-0.0000000001297501
 41
1.0
 10
-76168.93131162271
 20
-74315.2198452995
 30
-0.0000000001297501
 41
0.9238785310988399
 10
-76167.68866689483
 20
-74315.21983879598
 30
-0.0000000001297501
 41
1.0
  0
SPLINE
  5
3BE5A
330
1A
100
AcDbEntity
  8
HEWI
100
AcDbSpline
210
0.0
220
0.0
230
1.0
 70
    24
 71
     2
 72
     6
 73
     3
 74
     0
 42
0.0000000001
 43
0.0000000001
 40
60.70798557317338
 40
60.70798557317338
 40
60.70798557317338
 40
90.70798541525059
 40
90.70798541525059
 40
90.70798541525059
 10
-76167.68866689483
 20
-74315.21983879598
 30
-0.0000000001297501
 10
-76158.68865988072
 20
-74315.21983879598
 30
-0.0000000001297501
 10
-76149.68865286665
 20
-74315.21983879598
 30
-0.0000000001297501
  0
SPLINE
  5
3BE5B
330
1A
100
AcDbEntity
  8
HEWI
100
AcDbSpline
210
0.0
220
0.0
230
1.0
 70
    12
 71
     2
 72
     8
 73
     5
 74
     0
 42
0.0000000001
 43
0.0000000001
 40
90.70798541525059
 40
90.70798541525059
 40
90.70798541525059
 40
98.5619758876399
 40
98.5619758876399
 40
106.4159663600292
 40
106.4159663600292
 40
106.4159663600292
 10
-76149.68865286665
 20
-74315.21983879598
 30
-0.0000000001297501
 41
1.0
 10
-76148.44600899973
 20
-74315.21984391379
 30
-0.0000000001297501
 41
0.9238787444687499
 10
-76147.56733146313
 20
-74314.34116637722
 30
-0.0000000001297501
 41
1.0
 10
-76146.68865392657
 20
-74313.46248884063
 30
-0.0000000001297501
 41
0.9238787444687499
 10
-76146.68865904439
 20
-74312.2198449737
 30
-0.0000000001297501
 41
1.0
  0
SPLINE
  5
3BE5C
330
1A
100
AcDbEntity
  8
HEWI
100
AcDbSpline
210
0.0
220
0.0
230
1.0
 70
    24
 71
     2
 72
     6
 73
     3
 74
     0
 42
0.0000000001
 43
0.0000000001
 40
106.4159663600292
 40
106.4159663600292
 40
106.4159663600292
 40
136.4159660736729
 40
136.4159660736729
 40
136.4159660736729
 10
-76146.68865904439
 20
-74312.2198449737
 30
-0.0000000001297501
 10
-76146.68865904439
 20
-74306.21984188483
 30
-0.0000000001297501
 10
-76146.6886590444
 20
-74300.21983879596
 30
-0.0000000001297501
  0
POLYLINE
  5
3BE5D
330
1A
100
AcDbEntity
  8
HEWI
100
AcDb2dPolyline
 66
     1
 10
0.0
 20
0.0
 30
-0.0000000001297501
  0
VERTEX
  5
3BE5E
330
3BE5D
100
AcDbEntity
  8
HEWI
100
AcDbVertex
100
AcDb2dVertex
 10
-76173.68865899598
 20
-74286.21983894848
 30
-0.0000000001297501
  0
VERTEX
  5
3BE5F
330
3BE5D
100
AcDbEntity
  8
HEWI
100
AcDbVertex
100
AcDb2dVertex
 10
-76183.68865899597
 20
-74286.21983894848
 30
-0.0000000001297501
  0
VERTEX
  5
3BE60
330
3BE5D
100
AcDbEntity
  8
HEWI
100
AcDbVertex
100
AcDb2dVertex
 10
-76183.68865899597
 20
-74312.21983879598
 30
-0.0000000001297501
  0
VERTEX
  5
3BE61
330
3BE5D
100
AcDbEntity
  8
HEWI
100
AcDbVertex
100
AcDb2dVertex
 10
-76173.6886590444
 20
-74312.21983879598
 30
-0.0000000001297501
  0
SEQEND
  5
3BE62
330
3BE5D
100
AcDbEntity
  8
HEWI
  0
POLYLINE
  5
3BE63
330
1A
100
AcDbEntity
  8
HEWI
100
AcDb2dPolyline
 66
     1
 10
0.0
 20
0.0
 30
-0.0000000001297501
  0
VERTEX
  5
3BE64
330
3BE63
100
AcDbEntity
  8
HEWI
100
AcDbVertex
100
AcDb2dVertex
 10
-76223.14583783729
 20
-74318.21983879596
 30
-0.0000000001297501
  0
VERTEX
  5
3BE65
330
3BE63
100
AcDbEntity
  8
HEWI
100
AcDbVertex
100
AcDb2dVertex
 10
-76243.14583783729
 20
-74318.21983879596
 30
-0.0000000001297501
  0
SEQEND
  5
3BE66
330
3BE63
100
AcDbEntity
  8
HEWI
  0
POLYLINE
  5
3BE67
330
1A
100
AcDbEntity
  8
HEWI
100
AcDb2dPolyline
 66
     1
 10
0.0
 20
0.0
 30
-0.0000000001298707
  0
VERTEX
  5
3BE68
330
3BE67
100
AcDbEntity
  8
HEWI
100
AcDbVertex
100
AcDb2dVertex
 10
-76243.14583783729
 20
-74318.21983879596
 30
-0.0000000001298707
  0
VERTEX
  5
3BE69
330
3BE67
100
AcDbEntity
  8
HEWI
100
AcDbVertex
100
AcDb2dVertex
 10
-76243.14583783729
 20
-74305.21983879597
 30
-0.0000000001298707
  0
SEQEND
  5
3BE6A
330
3BE67
100
AcDbEntity
  8
HEWI
  0
POLYLINE
  5
3BE6B
330
1A
100
AcDbEntity
  8
HEWI
100
AcDb2dPolyline
 66
     1
 10
0.0
 20
0.0
 30
-0.0000000001298707
  0
VERTEX
  5
3BE6C
330
3BE6B
100
AcDbEntity
  8
HEWI
100
AcDbVertex
100
AcDb2dVertex
 10
-76223.14583783729
 20
-74318.21983879596
 30
-0.0000000001298707
  0
VERTEX
  5
3BE6D
330
3BE6B
100
AcDbEntity
  8
HEWI
100
AcDbVertex
100
AcDb2dVertex
 10
-76223.14583783729
 20
-74305.21983879597
 30
-0.0000000001298707
  0
SEQEND
  5
3BE6E
330
3BE6B
100
AcDbEntity
  8
HEWI
  0
LINE
  5
3BE6F
330
1A
100
AcDbEntity
  8
HEWI
100
AcDbLine
 10
-76223.14583783729
 20
-74305.21983879597
 30
-0.0000000001303048
 11
-76223.14583783729
 21
-74287.21983894848
 31
-0.0000000001298707
  0
ARC
  5
3BE70
330
1A
100
AcDbEntity
  8
HEWI
100
AcDbCircle
 10
-76228.14583783729
 20
-74287.21983894848
 30
-0.0000000001298707
 40
5.0
100
AcDbArc
 50
0.0
 51
90.0
  0
LINE
  5
3BE71
330
1A
100
AcDbEntity
  8
HEWI
100
AcDbLine
 10
-76243.14583783729
 20
-74305.21983879597
 30
-0.0000000001303048
 11
-76243.14583783729
 21
-74287.21983894848
 31
-0.0000000001298707
  0
ARC
  5
3BE72
330
1A
100
AcDbEntity
  8
HEWI
100
AcDbCircle
 10
-76238.14583783729
 20
-74287.21983894848
 30
-0.0000000001298707
 40
5.0
100
AcDbArc
 50
90.0
 51
180.0
  0
ARC
  5
3BE73
330
1A
100
AcDbEntity
  8
HEWI
100
AcDbCircle
 10
-76238.14583783729
 20
-74305.21983879597
 30
-0.0000000001296361
 40
5.0
100
AcDbArc
 50
90.0
 51
180.0
  0
POLYLINE
  5
3BE74
330
1A
100
AcDbEntity
  8
HEWI
100
AcDb2dPolyline
 66
     1
 10
0.0
 20
0.0
 30
-0.0000000001296494
  0
VERTEX
  5
3BE75
330
3BE74
100
AcDbEntity
  8
HEWI
100
AcDbVertex
100
AcDb2dVertex
 10
-76228.14583783729
 20
-74300.21983879596
 30
-0.0000000001296494
  0
VERTEX
  5
3BE76
330
3BE74
100
AcDbEntity
  8
HEWI
100
AcDbVertex
100
AcDb2dVertex
 10
-76238.14583783728
 20
-74300.21983879596
 30
-0.0000000001296494
  0
SEQEND
  5
3BE77
330
3BE74
100
AcDbEntity
  8
HEWI
  0
ARC
  5
3BE78
330
1A
100
AcDbEntity
  8
HEWI
100
AcDbCircle
 10
-76228.14583783729
 20
-74305.21983879597
 30
-0.000000000129864
 40
5.0
100
AcDbArc
 50
0.0
 51
90.0
  0
POLYLINE
  5
3BE79
330
1A
100
AcDbEntity
  8
HEWI
100
AcDb2dPolyline
 66
     1
 10
0.0
 20
0.0
 30
-0.0000000001297501
  0
VERTEX
  5
3BE7A
330
3BE79
100
AcDbEntity
  8
HEWI
100
AcDbVertex
100
AcDb2dVertex
 10
-76228.14583783728
 20
-74282.21983894848
 30
-0.0000000001297501
  0
VERTEX
  5
3BE7B
330
3BE79
100
AcDbEntity
  8
HEWI
100
AcDbVertex
100
AcDb2dVertex
 10
-76238.14583783729
 20
-74282.21983894848
 30
-0.0000000001297501
  0
SEQEND
  5
3BE7C
330
3BE79
100
AcDbEntity
  8
HEWI
  0
POLYLINE
  5
3BE7D
330
1A
100
AcDbEntity
  8
HEWI
100
AcDb2dPolyline
 66
     1
 10
0.0
 20
0.0
 30
-0.0000000001298707
  0
VERTEX
  5
3BE7E
330
3BE7D
100
AcDbEntity
  8
HEWI
100
AcDbVertex
100
AcDb2dVertex
 10
-76243.14583783729
 20
-74353.68499430436
 30
-0.0000000001298707
  0
VERTEX
  5
3BE7F
330
3BE7D
100
AcDbEntity
  8
HEWI
100
AcDbVertex
100
AcDb2dVertex
 10
-76223.14583783729
 20
-74353.68499430436
 30
-0.0000000001298707
  0
SEQEND
  5
3BE80
330
3BE7D
100
AcDbEntity
  8
HEWI
  0
POLYLINE
  5
3BE81
330
1A
100
AcDbEntity
  8
HEWI
100
AcDb2dPolyline
 66
     1
 10
0.0
 20
0.0
 30
-0.0000000001298707
  0
VERTEX
  5
3BE82
330
3BE81
100
AcDbEntity
  8
HEWI
100
AcDbVertex
100
AcDb2dVertex
 10
-76243.14583783729
 20
-74356.68499430436
 30
-0.0000000001298707
  0
VERTEX
  5
3BE83
330
3BE81
100
AcDbEntity
  8
HEWI
100
AcDbVertex
100
AcDb2dVertex
 10
-76223.14583783729
 20
-74356.68499430436
 30
-0.0000000001298707
  0
SEQEND
  5
3BE84
330
3BE81
100
AcDbEntity
  8
HEWI
  0
POLYLINE
  5
3BE85
330
1A
100
AcDbEntity
  8
HEWI
100
AcDb2dPolyline
 66
     1
 10
0.0
 20
0.0
 30
-0.0000000001298707
  0
VERTEX
  5
3BE86
330
3BE85
100
AcDbEntity
  8
HEWI
100
AcDbVertex
100
AcDb2dVertex
 10
-76243.14583783729
 20
-74380.68499425593
 30
-0.0000000001298707
  0
VERTEX
  5
3BE87
330
3BE85
100
AcDbEntity
  8
HEWI
100
AcDbVertex
100
AcDb2dVertex
 10
-76223.14583783729
 20
-74380.68499425593
 30
-0.0000000001298707
  0
SEQEND
  5
3BE88
330
3BE85
100
AcDbEntity
  8
HEWI
  0
POLYLINE
  5
3BE89
330
1A
100
AcDbEntity
  8
HEWI
100
AcDb2dPolyline
 66
     1
 10
0.0
 20
0.0
 30
-0.0000000001298707
  0
VERTEX
  5
3BE8A
330
3BE89
100
AcDbEntity
  8
HEWI
100
AcDbVertex
100
AcDb2dVertex
 10
-76243.14583783729
 20
-74383.68499425593
 30
-0.0000000001298707
  0
VERTEX
  5
3BE8B
330
3BE89
100
AcDbEntity
  8
HEWI
100
AcDbVertex
100
AcDb2dVertex
 10
-76223.14583783729
 20
-74383.68499425593
 30
-0.0000000001298707
  0
SEQEND
  5
3BE8C
330
3BE89
100
AcDbEntity
  8
HEWI
  0
SPLINE
  5
3BE8D
330
1A
100
AcDbEntity
  8
HEWI
100
AcDbSpline
210
0.0
220
0.0
230
1.0
 70
    24
 71
     2
 72
     6
 73
     3
 74
     0
 42
0.0000000001
 43
0.0000000001
 40
0.0
 40
0.0
 40
0.0
 40
29.99999995157486
 40
29.99999995157486
 40
29.99999995157486
 10
-76243.14583783729
 20
-74353.68499430436
 30
-0.0000000001298707
 10
-76243.14583783729
 20
-74368.68499428014
 30
-0.0000000001298707
 10
-76243.14583783729
 20
-74383.68499425593
 30
-0.0000000001298707
  0
POLYLINE
  5
3BE8E
330
1A
100
AcDbEntity
  8
HEWI
100
AcDb2dPolyline
 66
     1
 10
0.0
 20
0.0
 30
-0.0000000001298707
  0
VERTEX
  5
3BE8F
330
3BE8E
100
AcDbEntity
  8
HEWI
100
AcDbVertex
100
AcDb2dVertex
 10
-76223.14583783729
 20
-74353.68499430436
 30
-0.0000000001298707
  0
VERTEX
  5
3BE90
330
3BE8E
100
AcDbEntity
  8
HEWI
100
AcDbVertex
100
AcDb2dVertex
 10
-76223.14583783729
 20
-74383.68499425593
 30
-0.0000000001298707
  0
SEQEND
  5
3BE91
330
3BE8E
100
AcDbEntity
  8
HEWI
  0
POLYLINE
  5
3BE92
330
1A
100
AcDbEntity
  8
HEWI
100
AcDb2dPolyline
 66
     1
 10
0.0
 20
0.0
 30
-0.0000000001298707
  0
VERTEX
  5
3BE93
330
3BE92
100
AcDbEntity
  8
HEWI
100
AcDbVertex
100
AcDb2dVertex
 10
-76225.64583783729
 20
-74353.68499430436
 30
-0.0000000001298707
  0
VERTEX
  5
3BE94
330
3BE92
100
AcDbEntity
  8
HEWI
100
AcDbVertex
100
AcDb2dVertex
 10
-76225.64583783729
 20
-74343.68499430436
 30
-0.0000000001298707
  0
VERTEX
  5
3BE95
330
3BE92
100
AcDbEntity
  8
HEWI
100
AcDbVertex
100
AcDb2dVertex
 10
-76240.64583783729
 20
-74343.68499430436
 30
-0.0000000001298707
  0
VERTEX
  5
3BE96
330
3BE92
100
AcDbEntity
  8
HEWI
100
AcDbVertex
100
AcDb2dVertex
 10
-76240.64583783729
 20
-74353.68499430436
 30
-0.0000000001298707
  0
SEQEND
  5
3BE97
330
3BE92
100
AcDbEntity
  8
HEWI
  0
VIEWPORT
  5
22
102
{ACAD_XDICTIONARY
360
3BF3B
102
}
330
17
100
AcDbEntity
 67
     1
  8
0
100
AcDbViewport
 10
103.8239506804465
 20
158.0978495602885
 30
0.0
 40
508.6286907509476
 41
315.7152190709725
 68
     1
 69
     1
 12
103.8239506804465
 22
158.0978495602885
 13
0.0
 23
0.0
 14
1.0
 24
1.0
 15
10.0
 25
10.0
 16
0.0
 26
0.0
 36
1.0
 17
0.0
 27
0.0
 37
0.0
 42
50.0
 43
0.0
 44
0.0
 45
315.7152190709725
 50
0.0
 51
0.0
 72
   100
 90
    32800
  1

281
     0
 71
     1
 74
     0
110
0.0
120
0.0
130
0.0
111
1.0
121
0.0
131
0.0
112
0.0
122
1.0
132
0.0
 79
     0
146
0.0
  0
ENDSEC
  0
SECTION
  2
OBJECTS
  0
DICTIONARY
  5
C
330
0
100
AcDbDictionary
281
     1
  3
ACAD_COLOR
350
39BFD
  3
ACAD_GROUP
350
D
  3
ACAD_LAYOUT
350
39BF3
  3
ACAD_MATERIAL
350
39BFC
  3
ACAD_MLINESTYLE
350
E
  3
ACAD_PLOTSETTINGS
350
39BF4
  3
ACAD_PLOTSTYLENAME
350
39BF1
  3
ACAD_TABLESTYLE
350
39C2F
  3
ACAD_VISUALSTYLE
350
39C1E
  3
ACDBVARIABLEDICTIONARY
350
210D7
  3
DWGPROPS
350
3BF3A
  0
DICTIONARY
  5
39C3D
330
2
100
AcDbDictionary
280
     1
281
     1
  3
ACAD_LAYERFILTERS
360
3A6E6
  3
ACAD_LAYERSTATES
360
39C3E
  3
ACLYDICTIONARY
360
3A6E5
  0
DICTIONARY
  5
3B151
330
1A
100
AcDbDictionary
280
     1
281
     1
  3
ACAD_SORTENTS
360
3B152
  0
DICTIONARY
  5
3BF3B
330
22
100
AcDbDictionary
280
     1
281
     1
  3
ACAD_XREC_ROUNDTRIP
360
3BF3C
  0
DICTIONARY
  5
39BFD
102
{ACAD_REACTORS
330
C
102
}
330
C
100
AcDbDictionary
281
     1
  0
DICTIONARY
  5
D
102
{ACAD_REACTORS
330
C
102
}
330
C
100
AcDbDictionary
281
     1
  0
DICTIONARY
  5
39BF3
102
{ACAD_REACTORS
330
C
102
}
330
C
100
AcDbDictionary
281
     1
  3
Layout1
350
39BF6
  3
Model
350
39BF5
  0
DICTIONARY
  5
39BFC
102
{ACAD_REACTORS
330
C
102
}
330
C
100
AcDbDictionary
281
     1
  3
ByBlock
350
39C1C
  3
ByLayer
350
39C1B
  3
Global
350
39C1D
  0
DICTIONARY
  5
E
102
{ACAD_REACTORS
330
C
102
}
330
C
100
AcDbDictionary
281
     1
  3
STANDARD
350
13
  0
DICTIONARY
  5
39BF4
102
{ACAD_REACTORS
330
C
102
}
330
C
100
AcDbDictionary
281
     1
  0
ACDBDICTIONARYWDFLT
  5
39BF1
102
{ACAD_REACTORS
330
C
102
}
330
C
100
AcDbDictionary
281
     1
  3
Normal
350
39BF2
100
AcDbDictionaryWithDefault
340
39BF2
  0
DICTIONARY
  5
39C2F
102
{ACAD_REACTORS
330
C
102
}
330
C
100
AcDbDictionary
281
     1
  3
Standard
350
39C30
  0
DICTIONARY
  5
39C1E
102
{ACAD_REACTORS
330
C
102
}
330
C
100
AcDbDictionary
281
     1
  3
2dWireframe
350
39C24
  3
3D Hidden
350
39C26
  3
3dWireframe
350
39C25
  3
Basic
350
39C23
  3
Brighten
350
39C2A
  3
ColorChange
350
39C2E
  3
Conceptual
350
39C27
  3
Dim
350
39C29
  3
Facepattern
350
39C2D
  3
Flat
350
39C1F
  3
FlatWithEdges
350
39C20
  3
Gouraud
350
39C21
  3
GouraudWithEdges
350
39C22
  3
Linepattern
350
39C2C
  3
Realistic
350
39C28
  3
Thicken
350
39C2B
  0
DICTIONARY
  5
210D7
102
{ACAD_REACTORS
330
C
102
}
330
C
100
AcDbDictionary
281
     1
  3
CTABLESTYLE
350
39C39
  3
DIMASSOC
350
3BD64
  3
INDEXCTL
350
3BD63
  3
SORTENTS
350
210D8
  0
XRECORD
  5
3BF3A
102
{ACAD_REACTORS
330
C
102
}
330
C
100
AcDbXrecord
280
     1
  1
DWGPROPS COOKIE
  2

  3

  4

  6

  7

  8
kaschu
  9

300
=
301
=
302
=
303
=
304
=
305
=
306
=
307
=
308
=
309
=
 40
0.7403237731481482
 41
2450382.434570139
 42
2455057.484893496
  1

 90
        0
  0
DICTIONARY
  5
3A6E6
102
{ACAD_REACTORS
330
39C3D
102
}
330
39C3D
100
AcDbDictionary
281
     1
  0
DICTIONARY
  5
39C3E
102
{ACAD_REACTORS
330
39C3D
102
}
330
39C3D
100
AcDbDictionary
281
     1
  0
DICTIONARY
  5
3A6E5
102
{ACAD_REACTORS
330
39C3D
102
}
330
39C3D
100
AcDbDictionary
281
     1
1001
ACAD
1000
<All
  0
SORTENTSTABLE
  5
3B152
102
{ACAD_REACTORS
330
3B151
102
}
330
3B151
100
AcDbSortentsTable
330
1A
  0
XRECORD
  5
3BF3C
102
{ACAD_REACTORS
330
3BF3B
102
}
330
3BF3B
100
AcDbXrecord
280
     1
102
SHADEPLOT
 70
     0
  0
LAYOUT
  5
39BF6
102
{ACAD_XDICTIONARY
360
39C40
102
}
102
{ACAD_REACTORS
330
39BF3
102
}
330
39BF3
100
AcDbPlotSettings
  1

  2
\\druckserv1\AROABM2L
  4
A4
  6

 40
6.805083274841307
 41
5.069413185119628
 42
6.805084228515625
 43
5.027069091796875
 44
209.9733276367186
 45
296.9683227539062
 46
0.0
 47
0.0
 48
0.0
 49
0.0
140
0.0
141
0.0
142
1.0
143
0.9877294786496324
 70
   688
 72
     1
 73
     0
 74
     1
  7
ctb2004.ctb
 75
     0
147
1.012422957515799
148
-6.623554803105719
149
-1.328897370432399
100
AcDbLayout
  1
Layout1
 70
     1
 71
     1
 10
-0.0980265521206203
 20
-3.678311471965383
 11
207.2988188848241
 21
289.6460551372062
 12
0.0
 22
0.0
 32
0.0
 14
1.000000000000000E+20
 24
1.000000000000000E+20
 34
1.000000000000000E+20
 15
-1.000000000000000E+20
 25
-1.000000000000000E+20
 35
-1.000000000000000E+20
146
0.0
 13
0.0
 23
0.0
 33
0.0
 16
1.0
 26
0.0
 36
0.0
 17
0.0
 27
1.0
 37
0.0
 76
     0
330
17
331
22
  0
LAYOUT
  5
39BF5
102
{ACAD_XDICTIONARY
360
3BF3D
102
}
102
{ACAD_REACTORS
330
39BF3
102
}
330
39BF3
100
AcDbPlotSettings
  1

  2
\\PCDRUCK1\AROABM2L
  4

  6

 40
0.0
 41
0.0
 42
0.0
 43
0.0
 44
0.0
 45
0.0
 46
0.0
 47
0.0
 48
0.0
 49
0.0
140
0.0
141
0.0
142
1.0
143
1.0
 70
  1712
 72
     0
 73
     0
 74
     0
  7

 75
     0
147
1.0
148
0.0
149
0.0
100
AcDbLayout
  1
Model
 70
     1
 71
     0
 10
0.0
 20
0.0
 11
12.0
 21
9.0
 12
0.0
 22
0.0
 32
0.0
 14
0.0
 24
0.0
 34
0.0
 15
0.0
 25
0.0
 35
0.0
146
0.0
 13
0.0
 23
0.0
 33
0.0
 16
1.0
 26
0.0
 36
0.0
 17
0.0
 27
1.0
 37
0.0
 76
     0
330
1A
331
39C01
  0
MATERIAL
  5
39C1C
102
{ACAD_XDICTIONARY
360
3BEA0
102
}
102
{ACAD_REACTORS
330
39BFC
102
}
330
39BFC
100
AcDbMaterial
  1
ByBlock
  0
MATERIAL
  5
39C1B
102
{ACAD_XDICTIONARY
360
3BE9E
102
}
102
{ACAD_REACTORS
330
39BFC
102
}
330
39BFC
100
AcDbMaterial
  1
ByLayer
  0
MATERIAL
  5
39C1D
102
{ACAD_XDICTIONARY
360
3BEA2
102
}
102
{ACAD_REACTORS
330
39BFC
102
}
330
39BFC
100
AcDbMaterial
  1
Global
  0
MLINESTYLE
  5
13
102
{ACAD_REACTORS
330
E
102
}
330
E
100
AcDbMlineStyle
  2
STANDARD
 70
     0
  3

 62
     0
 51
90.0
 52
90.0
 71
     2
 49
0.5
 62
   256
  6
BYLAYER
 49
-0.5
 62
   256
  6
BYLAYER
  0
ACDBPLACEHOLDER
  5
39BF2
102
{ACAD_REACTORS
330
39BF1
102
}
330
39BF1
  0
TABLESTYLE
  5
39C30
102
{ACAD_XDICTIONARY
360
3BF40
102
}
102
{ACAD_REACTORS
330
39C2F
102
}
330
39C2F
100
AcDbTableStyle
  3
Standard
 70
     0
 71
     0
 40
0.06
 41
0.06
280
     0
281
     0
  7
STANDARD
140
0.18
170
     2
 62
     0
 63
     7
283
     0
274
    -2
284
     1
 64
     0
275
    -2
285
     1
 65
     0
276
    -2
286
     1
 66
     0
277
    -2
287
     1
 67
     0
278
    -2
288
     1
 68
     0
279
    -2
289
     1
 69
     0
  7
STANDARD
140
0.25
170
     5
 62
     0
 63
     7
283
     0
274
    -2
284
     1
 64
     0
275
    -2
285
     1
 65
     0
276
    -2
286
     1
 66
     0
277
    -2
287
     1
 67
     0
278
    -2
288
     1
 68
     0
279
    -2
289
     1
 69
     0
  7
STANDARD
140
0.18
170
     5
 62
     0
 63
     7
283
     0
274
    -2
284
     1
 64
     0
275
    -2
285
     1
 65
     0
276
    -2
286
     1
 66
     0
277
    -2
287
     1
 67
     0
278
    -2
288
     1
 68
     0
279
    -2
289
     1
 69
     0
  0
VISUALSTYLE
  5
39C24
102
{ACAD_REACTORS
330
39C1E
102
}
330
39C1E
100
AcDbVisualStyle
  2
2dWireframe
 70
     4
 71
     0
 72
     2
 73
     0
 90
        0
 40
-0.6
 41
-30.0
 62
     5
 63
     7
 74
     1
 91
        4
 64
     7
 65
   257
 75
     1
175
     1
 42
1.0
 92
        0
 66
   257
 43
1.0
 76
     1
 77
     6
 78
     2
 67
     7
 79
     5
170
     0
171
     0
290
     0
174
     0
 93
        1
 44
0.0
173
     0
291
     0
 45
0.0
1001
ACAD
1000
AcDbSavedByObjectVersion
1070
     0
1000
AcDbSavedByObjectVersion
1070
     0
  0
VISUALSTYLE
  5
39C26
102
{ACAD_REACTORS
330
39C1E
102
}
330
39C1E
100
AcDbVisualStyle
  2
3D Hidden
 70
     6
 71
     1
 72
     2
 73
     2
 90
        0
 40
-0.6
 41
-30.0
 62
     5
 63
     7
 74
     2
 91
        2
 64
     7
 65
   257
 75
     2
175
     1
 42
40.0
 92
        0
 66
   257
 43
1.0
 76
     1
 77
     6
 78
     2
 67
     7
 79
     3
170
     0
171
     0
290
     0
174
     0
 93
        1
 44
0.0
173
     0
291
     0
 45
0.0
1001
ACAD
1000
AcDbSavedByObjectVersion
1070
     0
1000
AcDbSavedByObjectVersion
1070
     0
  0
VISUALSTYLE
  5
39C25
102
{ACAD_REACTORS
330
39C1E
102
}
330
39C1E
100
AcDbVisualStyle
  2
3dWireframe
 70
     5
 71
     0
 72
     2
 73
     0
 90
        0
 40
-0.6
 41
-30.0
 62
     5
 63
     7
 74
     1
 91
        4
 64
     7
 65
   257
 75
     1
175
     1
 42
1.0
 92
        0
 66
   257
 43
1.0
 76
     1
 77
     6
 78
     2
 67
     7
 79
     5
170
     0
171
     0
290
     0
174
     0
 93
        1
 44
0.0
173
     0
291
     0
 45
0.0
1001
ACAD
1000
AcDbSavedByObjectVersion
1070
     0
1000
AcDbSavedByObjectVersion
1070
     0
  0
VISUALSTYLE
  5
39C23
102
{ACAD_REACTORS
330
39C1E
102
}
330
39C1E
100
AcDbVisualStyle
  2
Basic
 70
     7
 71
     1
 72
     0
 73
     1
 90
        0
 40
-0.6
 41
-30.0
 62
     5
 63
     7
 74
     0
 91
        4
 64
     7
 65
   257
 75
     1
175
     1
 42
1.0
 92
        8
 66
     7
 43
1.0
 76
     1
 77
     6
 78
     2
 67
     7
 79
     5
170
     0
171
     0
290
     0
174
     0
 93
        1
 44
0.0
173
     0
291
     1
 45
0.0
1001
ACAD
1000
AcDbSavedByObjectVersion
1070
     0
1000
AcDbSavedByObjectVersion
1070
     0
  0
VISUALSTYLE
  5
39C2A
102
{ACAD_REACTORS
330
39C1E
102
}
330
39C1E
100
AcDbVisualStyle
  2
Brighten
 70
    12
 71
     2
 72
     2
 73
     0
 90
        0
 40
-0.6
 41
-30.0
 62
     5
 63
     7
 74
     1
 91
        4
 64
     7
 65
   257
 75
     1
175
     1
 42
1.0
 92
        8
 66
     7
 43
1.0
 76
     1
 77
     6
 78
     2
 67
     7
 79
     5
170
     0
171
     0
290
     0
174
     0
 93
        1
 44
50.0
173
     0
291
     1
 45
0.0
1001
ACAD
1000
AcDbSavedByObjectVersion
1070
     0
1000
AcDbSavedByObjectVersion
1070
     0
  0
VISUALSTYLE
  5
39C2E
102
{ACAD_REACTORS
330
39C1E
102
}
330
39C1E
100
AcDbVisualStyle
  2
ColorChange
 70
    16
 71
     2
 72
     2
 73
     3
 90
        0
 40
-0.6
 41
-30.0
 62
     5
 63
     8
 74
     1
 91
        4
 64
     7
 65
   257
 75
     1
175
     1
 42
1.0
 92
        8
 66
     8
 43
1.0
 76
     1
 77
     6
 78
     2
 67
     7
 79
     5
170
     0
171
     0
290
     0
174
     0
 93
        1
 44
0.0
173
     0
291
     1
 45
0.0
1001
ACAD
1000
AcDbSavedByObjectVersion
1070
     0
1000
AcDbSavedByObjectVersion
1070
     0
  0
VISUALSTYLE
  5
39C27
102
{ACAD_REACTORS
330
39C1E
102
}
330
39C1E
100
AcDbVisualStyle
  2
Conceptual
 70
     9
 71
     3
 72
     2
 73
     0
 90
        0
 40
-0.6
 41
-30.0
 62
     5
 63
     7
 74
     2
 91
        2
 64
     7
 65
   257
 75
     1
175
     1
 42
40.0
 92
        8
 66
     7
 43
1.0
 76
     1
 77
     6
 78
     2
 67
     7
 79
     3
170
     0
171
     0
290
     0
174
     0
 93
        1
 44
0.0
173
     0
291
     0
 45
0.0
1001
ACAD
1000
AcDbSavedByObjectVersion
1070
     0
1000
AcDbSavedByObjectVersion
1070
     0
  0
VISUALSTYLE
  5
39C29
102
{ACAD_REACTORS
330
39C1E
102
}
330
39C1E
100
AcDbVisualStyle
  2
Dim
 70
    11
 71
     2
 72
     2
 73
     0
 90
        0
 40
-0.6
 41
-30.0
 62
     5
 63
     7
 74
     1
 91
        4
 64
     7
 65
   257
 75
     1
175
     1
 42
1.0
 92
        8
 66
     7
 43
1.0
 76
     1
 77
     6
 78
     2
 67
     7
 79
     5
170
     0
171
     0
290
     0
174
     0
 93
        1
 44
-50.0
173
     0
291
     1
 45
0.0
1001
ACAD
1000
AcDbSavedByObjectVersion
1070
     0
1000
AcDbSavedByObjectVersion
1070
     0
  0
VISUALSTYLE
  5
39C2D
102
{ACAD_REACTORS
330
39C1E
102
}
330
39C1E
100
AcDbVisualStyle
  2
Facepattern
 70
    15
 71
     2
 72
     2
 73
     0
 90
        0
 40
-0.6
 41
-30.0
 62
     5
 63
     7
 74
     1
 91
        4
 64
     7
 65
   257
 75
     1
175
     1
 42
1.0
 92
        8
 66
     7
 43
1.0
 76
     1
 77
     6
 78
     2
 67
     7
 79
     5
170
     0
171
     0
290
     0
174
     0
 93
        1
 44
0.0
173
     0
291
     1
 45
0.0
1001
ACAD
1000
AcDbSavedByObjectVersion
1070
     0
1000
AcDbSavedByObjectVersion
1070
     0
  0
VISUALSTYLE
  5
39C1F
102
{ACAD_REACTORS
330
39C1E
102
}
330
39C1E
100
AcDbVisualStyle
  2
Flat
 70
     0
 71
     2
 72
     1
 73
     1
 90
        2
 40
-0.6
 41
30.0
 62
     5
 63
     7
 74
     0
 91
        4
 64
     7
 65
   257
 75
     1
175
     1
 42
1.0
 92
        8
 66
     7
 43
1.0
 76
     1
 77
     6
 78
     2
 67
     7
 79
     5
170
     0
171
     0
290
     0
174
     0
 93
       13
 44
0.0
173
     0
291
     1
 45
0.0
1001
ACAD
1000
AcDbSavedByObjectVersion
1070
     0
1000
AcDbSavedByObjectVersion
1070
     0
  0
VISUALSTYLE
  5
39C20
102
{ACAD_REACTORS
330
39C1E
102
}
330
39C1E
100
AcDbVisualStyle
  2
FlatWithEdges
 70
     1
 71
     2
 72
     1
 73
     1
 90
        2
 40
-0.6
 41
30.0
 62
     5
 63
     7
 74
     1
 91
        4
 64
     7
 65
   257
 75
     1
175
     1
 42
1.0
 92
        0
 66
   257
 43
1.0
 76
     1
 77
     6
 78
     2
 67
     7
 79
     5
170
     0
171
     0
290
     0
174
     0
 93
       13
 44
0.0
173
     0
291
     1
 45
0.0
1001
ACAD
1000
AcDbSavedByObjectVersion
1070
     0
1000
AcDbSavedByObjectVersion
1070
     0
  0
VISUALSTYLE
  5
39C21
102
{ACAD_REACTORS
330
39C1E
102
}
330
39C1E
100
AcDbVisualStyle
  2
Gouraud
 70
     2
 71
     2
 72
     2
 73
     1
 90
        2
 40
-0.6
 41
30.0
 62
     5
 63
     7
 74
     0
 91
        4
 64
     7
 65
   257
 75
     1
175
     1
 42
1.0
 92
        0
 66
     7
 43
1.0
 76
     1
 77
     6
 78
     2
 67
     7
 79
     5
170
     0
171
     0
290
     0
174
     0
 93
       13
 44
0.0
173
     0
291
     1
 45
0.0
1001
ACAD
1000
AcDbSavedByObjectVersion
1070
     0
1000
AcDbSavedByObjectVersion
1070
     0
  0
VISUALSTYLE
  5
39C22
102
{ACAD_REACTORS
330
39C1E
102
}
330
39C1E
100
AcDbVisualStyle
  2
GouraudWithEdges
 70
     3
 71
     2
 72
     2
 73
     1
 90
        2
 40
-0.6
 41
30.0
 62
     5
 63
     7
 74
     1
 91
        4
 64
     7
 65
   257
 75
     1
175
     1
 42
1.0
 92
        0
 66
   257
 43
1.0
 76
     1
 77
     6
 78
     2
 67
     7
 79
     5
170
     0
171
     0
290
     0
174
     0
 93
       13
 44
0.0
173
     0
291
     1
 45
0.0
1001
ACAD
1000
AcDbSavedByObjectVersion
1070
     0
1000
AcDbSavedByObjectVersion
1070
     0
  0
VISUALSTYLE
  5
39C2C
102
{ACAD_REACTORS
330
39C1E
102
}
330
39C1E
100
AcDbVisualStyle
  2
Linepattern
 70
    14
 71
     2
 72
     2
 73
     0
 90
        0
 40
-0.6
 41
-30.0
 62
     5
 63
     7
 74
     1
 91
        4
 64
     7
 65
   257
 75
     7
175
     7
 42
1.0
 92
        8
 66
     7
 43
1.0
 76
     1
 77
     6
 78
     2
 67
     7
 79
     5
170
     0
171
     0
290
     0
174
     0
 93
        1
 44
0.0
173
     0
291
     1
 45
0.0
1001
ACAD
1000
AcDbSavedByObjectVersion
1070
     0
1000
AcDbSavedByObjectVersion
1070
     0
  0
VISUALSTYLE
  5
39C28
102
{ACAD_REACTORS
330
39C1E
102
}
330
39C1E
100
AcDbVisualStyle
  2
Realistic
 70
     8
 71
     2
 72
     2
 73
     0
 90
        0
 40
-0.6
 41
-30.0
 62
     5
 63
     7
 74
     1
 91
        0
 64
     7
 65
   257
 75
     1
175
     1
 42
1.0
 92
        8
 66
     8
 43
1.0
 76
     1
 77
     6
 78
     2
 67
     7
 79
     5
170
     0
171
     0
290
     0
174
     0
 93
       13
 44
0.0
173
     0
291
     0
 45
0.0
1001
ACAD
1000
AcDbSavedByObjectVersion
1070
     0
1000
AcDbSavedByObjectVersion
1070
     0
  0
VISUALSTYLE
  5
39C2B
102
{ACAD_REACTORS
330
39C1E
102
}
330
39C1E
100
AcDbVisualStyle
  2
Thicken
 70
    13
 71
     2
 72
     2
 73
     0
 90
        0
 40
-0.6
 41
-30.0
 62
     5
 63
     7
 74
     1
 91
        4
 64
     7
 65
   257
 75
     1
175
     1
 42
1.0
 92
       12
 66
     7
 43
1.0
 76
     1
 77
     6
 78
     2
 67
     7
 79
     5
170
     0
171
     0
290
     0
174
     0
 93
        1
 44
0.0
173
     0
291
     1
 45
0.0
1001
ACAD
1000
AcDbSavedByObjectVersion
1070
     0
1000
AcDbSavedByObjectVersion
1070
     0
  0
DICTIONARYVAR
  5
39C39
102
{ACAD_REACTORS
330
210D7
102
}
330
210D7
100
DictionaryVariables
280
     0
  1
STANDARD
  0
DICTIONARYVAR
  5
3BD64
102
{ACAD_REACTORS
330
210D7
102
}
330
210D7
100
DictionaryVariables
280
     0
  1
1
  0
DICTIONARYVAR
  5
3BD63
102
{ACAD_REACTORS
330
210D7
102
}
330
210D7
100
DictionaryVariables
280
     0
  1
0
  0
DICTIONARYVAR
  5
210D8
102
{ACAD_REACTORS
330
210D7
102
}
330
210D7
100
DictionaryVariables
280
     0
  1
96
  0
DICTIONARY
  5
39C40
330
39BF6
100
AcDbDictionary
280
     1
281
     1
  3
ACAD_XREC_ROUNDTRIP
360
3BF3F
  3
ADSK_XREC_LAYOUTTHUMBNAIL
360
39C41
  0
DICTIONARY
  5
3BF3D
330
39BF5
100
AcDbDictionary
280
     1
281
     1
  3
ACAD_XREC_ROUNDTRIP
360
3BF3E
  0
DICTIONARY
  5
3BEA0
330
39C1C
100
AcDbDictionary
280
     1
281
     1
  3
ACAD_XREC_ROUNDTRIP
360
3BEA1
  0
DICTIONARY
  5
3BE9E
330
39C1B
100
AcDbDictionary
280
     1
281
     1
  3
ACAD_XREC_ROUNDTRIP
360
3BE9F
  0
DICTIONARY
  5
3BEA2
330
39C1D
100
AcDbDictionary
280
     1
281
     1
  3
ACAD_XREC_ROUNDTRIP
360
3BEA3
  0
DICTIONARY
  5
3BF40
330
39C30
100
AcDbDictionary
280
     1
281
     1
  3
ACAD_XREC_ROUNDTRIP
360
3BF41
  0
XRECORD
  5
3BF3F
102
{ACAD_REACTORS
330
39C40
102
}
330
39C40
100
AcDbXrecord
280
     1
102
SHADEPLOT
 70
     1
102
SHADEPLOTRESLEVEL
 70
     2
102
SHADEPLOTCUSTOMDPI
 70
   300
  0
XRECORD
  5
39C41
102
{ACAD_REACTORS
330
39C40
102
}
330
39C40
100
AcDbXrecord
280
     1
310
28000000620000008C0000000100080000000000B036000000000000000000000001000000000000FFFFFF0000000000FFFFFF000000000000000000000000000000000000000000000000000000000000000000330000006600000099000000CC000000FF00000000330000333300006633000099330000CC330000FF3300
310
0000660000336600006666000099660000CC660000FF66000000990000339900006699000099990000CC990000FF99000000CC000033CC000066CC000099CC0000CCCC0000FFCC000000FF000033FF000066FF000099FF0000CCFF0000FFFF000000003300330033006600330099003300CC003300FF003300003333003333
310
33006633330099333300CC333300FF33330000663300336633006666330099663300CC663300FF66330000993300339933006699330099993300CC993300FF99330000CC330033CC330066CC330099CC3300CCCC3300FFCC330000FF330033FF330066FF330099FF3300CCFF3300FFFF330000006600330066006600660099
310
006600CC006600FF00660000336600333366006633660099336600CC336600FF33660000666600336666006666660099666600CC666600FF66660000996600339966006699660099996600CC996600FF99660000CC660033CC660066CC660099CC6600CCCC6600FFCC660000FF660033FF660066FF660099FF6600CCFF6600
310
FFFF660000009900330099006600990099009900CC009900FF00990000339900333399006633990099339900CC339900FF33990000669900336699006666990099669900CC669900FF66990000999900339999006699990099999900CC999900FF99990000CC990033CC990066CC990099CC9900CCCC9900FFCC990000FF99
310
0033FF990066FF990099FF9900CCFF9900FFFF99000000CC003300CC006600CC009900CC00CC00CC00FF00CC000033CC003333CC006633CC009933CC00CC33CC00FF33CC000066CC003366CC006666CC009966CC00CC66CC00FF66CC000099CC003399CC006699CC009999CC00CC99CC00FF99CC0000CCCC0033CCCC0066CC
310
CC0099CCCC00CCCCCC00FFCCCC0000FFCC0033FFCC0066FFCC0099FFCC00CCFFCC00FFFFCC000000FF003300FF006600FF009900FF00CC00FF00FF00FF000033FF003333FF006633FF009933FF00CC33FF00FF33FF000066FF003366FF006666FF009966FF00CC66FF00FF66FF000099FF003399FF006699FF009999FF00CC
310
99FF00FF99FF0000CCFF0033CCFF0066CCFF0099CCFF00CCCCFF00FFCCFF0000FFFF0033FFFF0066FFFF0099FFFF00CCFFFF00FFFFFF00000000000D0D0D001A1A1A00282828003535350043434300505050005D5D5D006B6B6B00787878008686860093939300A1A1A100AEAEAE00BBBBBB00C9C9C900D6D6D600E4E4E400
310
F1F1F100FFFFFF0000000000000000000000000000000000000000000000000000000000000000000000000000000000E2E2E2E2E2E2E2E2E2E2E2E2E2E2E2E2E2E2E2E2E2E2E2E2E2E2E2E2E2E2E2E2E2E2E2E2E2E2E2E2E2E2E2E2E2E2E2E2E2E2E2E2E2E2E2E2E2E2E2E2E2E2E2E2E2E2E2E2E2E2E2E2E2E2E2E2E2E2E2
310
E2E2E2E2E2E2E2E2E2E2E2E2E2E2E2E2E2E2E20533E2F5F5F5F5F5F5F5F5F5F5F5F5F5F5F5F5F5F5F5F5F5F5F5F5F5F5F5F5F5F5F5F5F5F5F5F5F5F5F5F5F5F5F5F5F5F5F5F5F5F5F5F5F5F5F5F5F5F5F5F5F5F5F5F5F5F5F5F5F5F5F5F5F5F5F5F5F5F5F5F5F5F5F5F5F5F5F5F5F5F5F5F5F5F5F5F5E20000E2F5F5F5F5F5
310
F5F5F5F5F5F5F5F5F5F5F5F5F5F5F5F5F5F5F5F5F5F5F5F5F5F5F5F5F5F5F5F5F5F5F5F5F5F5F5F5F5F5F5F5F5F5F5F5F5F5F5F5F5F5F5F5F5F5F5F5F5F5F5F5F5F5F5F5F5F5F5F5F5F5F5F5F5F5F5F5F5F5F5F5F5F5F5F5F5F5F5E20000E2F5F5E2E2E2E2E2E2E2E2F5F5F5F5F5F5F5F5E2E2E2E2E2E2E2E2E2E2E2E2E2E2
310
E2F5F5F5F5F5F5F5F5E2E2E2E2E2E2E2E2E2E2E2E2E2E2F5F5F5F5F5F5F5F5E2E2E2E2E2E2E2E2E2E2E2E2E2E2E2F5F5F5F5F5F5F5F5E2E2E2E2E2E2E2E2F5F5E21107E2F5F5E2F5F5F5F5F5F5F5F5F5F5F5F5F5F5F5F5F5F5F5F5F5F5F5F5F5F5F5F5F5F5F5F5F5F5F5F5F5F5F5F5F5F5F5F5F5F5F5F5F5F5F5F5F5F5F5F5
310
F5F5F5F5F5F5F5F5F5F5F5F5F5F5F5F5F5F5F5F5F5F5F5F5F5F5F5F5F5F5F5F5F5F5E2F5F5E20833E2F5F5E2F5F5F5F5F5F5F5F5F5F5F5F5F5F5F5F5F5F5F5F5F5F5F5F5F5F5F5F5F5F5F5F5F5F5F5F5F5F5F5F5F5F5F5F5F5F5F5F5F5F5F5F5F5F5F5F5F5F5F5F5F5F5F5F5F5F5F5F5F5F5F5F5F5F5F5F5F5F5F5F5F5F5F5
310
F5F5F5F5F5F5F5E2F5F5E20000E2F5F5E2F5F5F5F5F5F5F5F5F5F5F5F5F5F5F5F5F5F5F5F5F5F5F5F5F5F5F5F5F5F5F5F5F5F5F5F5F5F5F5F5F5F5F5F5F5F5F5F5F5F5F5F5F5F5F5F5F5F5F5F5F5F5F5F5F5F5F5F5F5F5F5F5F5F5F5F5F5F5F5F5F5F5F5F5F5F5F5F5F5F5E2F5F5E20000E2F5F5E2F5F5F5F5F5F5F5F5F5F5
310
F5F5F5F5F5F5F5F5F5F5F5F5F5F5F5F5F5F5F5F5F5F5F5F5F5F5F5F5F5F5F5F5F5F5F5F5F5F5F5F5F5F5F5F5F5F5F5F5F5F5F5F5F5F5F5F5F5F5F5F5F5F5F5F5F5F5F5F5F5F5F5F5F5F5F5F5F5F5F5F5E2F5F5E21107E2F5F5E2F5F5F5F5F5F5F5F5F5F5F5F5F5F5F5F5F5F5F5F5F5F5F5F5F5F5F5F5F5F5F5F5F5F5F5F5F5
310
F5F5F5F5F5F5F5F5F5F5F5F5F5F5F5F5F5F5F5F5F5F5F5F5F5F5F5F5F5F5F5F5F5F5F5F5F5F5F5F5F5F5F5F5F5F5F5F5F5F5F5F5F5E2F5F5E20000E2F5F5E2F5F5F5F5F5F5F5F5F5F5F5F5F5F5F5F5F5F5F5F5F5F5F5F5F5F5F5F5F5F5F5F5F5F5F5F5F5F5F5F5F5F5F5F5F5F5F5F5F5F5F5F5F5F5F5F5F5F5F5F5F5F5F5F5
310
F5F5F5F5F5F5F5F5F5F5F5F5F5F5F5F5F5F5F5F5F5F5F5F5F5F5E2F5F5E20000E2F5F5E2F5F5F5F5F5F5F5F5F5F5F5F5F5F5F5F5F5F5F5F5F5F5F5F5F5F5F5F5F5F5F5F5F5F5F5F5F5F5F5F5F5F5F5F5F5F5F5F5F5F5F5F5F5F5F5F5F5F5F5F5F5F5F5F5F5F5F5F5F5F5F5F5F5F5F5F5F5F5F5F5F5F5F5F5F5F5F5F5F5F5E2
310
F5F5E20000E2F5F5E2F5F5F5F5F5F5F5F5F5F5F5F5F5F5F5F5F5F5F5F5F5F5F5F5F5F5F5F5F5F5F5F5F5F5F5F5F5F5F5F5F5F5F5F5F5F5F5F5F5F5F5F5F5F5F5F5F5F5F5F5F5F5F5F5F5F5F5F5F5F5F5F5F5F5F5F5F5F5F5F5F5F5F5F5F5F5F5F5F5F5E2F5F5E20000E2F5F5F5F5F5F5F5F5F5F5F5F5F5F5F5F5F5F5F5F5F5
310
F5F5F5F5F5F5F5F5F5F5F5F5F5F5F5F5F5F5F5F5F5F5F5F5F5F5F5F5F5F5F5F5F5F5F5F5F5F5F5F5F5F5F5F5F5F5F5F5F5F5F5F5F5F5F5F5F5F5F5F5F5F5F5F5F5F5F5F5F5F5F5F5F5F5F5E20000E2F5F5F5F5F5F5F5F5F5F5F5F5F5F5F5F5F5F5F5F5F5F5F5F5F5F5F5F5F5F5F5F5F5F5F5F5F5F5F5F5F5F5F5F5F5F5F5F5
310
F5F5F5F5F5F5F5F5F5F5F5F5F5F5F5F5F5F5F5F5F5F5F5F5F5F5F5F5F5F5F5F5F5F5F5F5F5F5F5F5F5F5F5F5F5F5F5F5E20000E2F5F5F5F5F5F5F5F5F5F5F5F5F5F5F5F5F5F5F5F5F5F5F5F5F5F5F5F5F5F5F5F5F5F5F5F5F5F5F5F5F5F5F5F5F5F5F5F5F5F5F5F5F5F5F5F5F5F5F5F5F5F5F5F5F5F5F5F5F5F5F5F5F5F5F5
310
F5F5F5F5F5F5F5F5F5F5F5F5F5F5F5F5F5F5F5F5F5E20000E2F5F5F5F5F5F5F5F5F5F5F5F5F5F5F5F5F5F5F5F5F5F5F5F5F5F5F5F5F5F5F5F5F5F5F5F5F5F5F5F5F5F5F5F5F5F5F5F5F5F5F5F5F5F5F5F5F5F5F5F5F5F5F5F5F5F5F5F5F5F5F5F5F5F5F5F5F5F5F5F5F5F5F5F5F5F5F5F5F5F5F5F5F5F5F5F5E20000E2F5F5
310
F5F5F5F5F5F5F5F5F5F5F5F5F5F5F5F5F5F5F5F5F5F5F5F5F5F5F5F5F5F5F5F5F5F5F5F5F5F5F5F5F5F5F5F5F5F5F5F5F5F5F5F5F5F5F5F5F5F5F5F5F5F5F5F5F5F5F5F5F5F5F5F5F5F5F5F5F5F5F5F5F5F5F5F5F5F5F5F5F5F5F5F5F5F5E20000E2F5F5F5F5F5F5F5F5F5F5F5F5F5F5F5F5F5F5F5F5F5F5F5F5F5F5F5F5F5
310
F5F5F5F5F5F5F5F5F5F5F5F5F5F5F5F5F5F5F5F5F5F5F5F5F5F5F5F5F5F5F5F5F5F5F5F5F5F5F5F5F5F5F5F5F5F5F5F5F5F5F5F5F5F5F5F5F5F5F5F5F5F5F5F5F5F5F5E20000E2F5F5F5F5F5F5F5F5F5F5F5F5F5F5F5F5F5F5F5F5F5F5F5F5F5F5F5F5F5F5F5F5F5F5F5F5F5F5F5F5F5F5F5F5F5F5F5F5F5F5F5F5F5F5F5F5
310
F5F5F5F5F5F5F5F5F5F5F5F5F5F5F5F5F5F5F5F5F5F5F5F5F5F5F5F5F5F5F5F5F5F5F5F5F5F5F5F5E20000E2F5F5F5F5F5F5F5F5F5F5F5F5F5F5F5F5F5F5F5F5F5F5F5F5F5F5F5F5F5F5F5F5F5F5F5F5F5F5F5F5F5F5F5F5F5F5F5F5F5F5F5F5F5F5F5F5F5F5F5F5F5F5F5F5F5F5F5F5F5F5F5F5F5F5F5F5F5F5F5F5F5F5F5
310
F5F5F5F5F5F5F5F5F5F5F5F5F5E20000E2F5F5F5F5F5F5F5F5F5F5F5F5F5F5F5F5F5F5F5F5F5F5F5F5F5F5F5F5F5F5F5F5F5F5F5F5F5F5F5F5F5F5F5F5F5F5F5F5F5F5F5F5F5F5F5F5F5F5F5F5F5F5F5F5F5F5F5F5F5F5F5F5F5F5F5F5F5F5F5F5F5F5F5F5F5F5F5F5F5F5F5F5F5F5F5F5E20000E2F5F5E2F5F5F5F5F5F5F5
310
F5F5F5F5F5F5F5F5F5F5F5F5F5F5F5F5F5F5F5F5F5F5F5F5F5F5F5F5F5F5F5F5F5F5F5F5F5F5F5F5F5F5F5F5F5F5F5F5F5F5F5F5F5F5F5F5F5F5F5F5F5F5F5F5F5F5F5F5F5F5F5F5F5F5F5F5F5F5F5F5F5F5F5E2F5F5E20000E2F5F5E2F5F5F5F5F5F5F5F5F5F5F5F5F5F5F5F5F5F5F5F5F5F5F5F5F5F5F5F5F5F5F5F5F5F5
310
F5F5F5F5F5F5F5F5F5F5F5F5F5F5F5F5F5F5F5F5F5F5F5F5F5F5F5F5F5F5F5F5F5F5F5F5F5F5F5F5F5F5F5F5F5F5F5F5F5F5F5F5F5F5F5F5E2F5F5E20000E2F5F5E2F5F5F5F5F5F5F5F5F5F5F5F5F5F5F5F5F5F5F5F5F5F5F5F5F5F5F5F5F5F5F5F5F5F5F5F5F5F5F5F5F5F5F5F5F5F5F5F5F5F5F5F5F5F5F5F5F5F5F5F5F5
310
F5F5F5F5F5F5F5F5F5F5F5F5F5F5F5F5F5F5F5F5F5F5F5F5F5F5F5F5F5E2F5F5E20000E2F5F5E2F5F5F5F5F5F5F5F5F5F5F5F5F5F5F5F5F5F5F5F5F5F5F5F5F5F5F5F5F5F5F5F5F5F5F5F5F5F5F5F5F5F5F5F5F5F5F5F5F5F5F5F5F5F5F5F5F5F5F5F5F5F5F5F5F5F5F5F5F5F5F5F5F5F5F5F5F5F5F5F5F5F5F5F5F5F5F5F5
310
F5F5E2F5F5E20000E2F5F5E2F5F5F5F5F5F5F5F5F5F5F5F5F5F5F5F5F5F5F5F5F5F5F5F5F5F5F5F5F5F5F5F5F5F5F5F5F5F5F5F5F5F5F5F5F5F5F5F5F5F5F5F5F5F5F5F5F5F5F5F5F5F5F5F5F5F5F5F5F5F5F5F5F5F5F5F5F5F5F5F5F5F5F5F5F5F5F5F5F5F5E2F5F5E20000E2F5F5E2F5F5F5F5F5F5F5F5F5F5F5F5F5F5F5
310
F5F5F5F5F5F5F5F5F5F5F5F5F5F5F5F5F5F5F5F5F5F5F5F5F5F5F5F5F5F5F5F5F5F5F5F5F5F5F5F5F5F5F5F5F5F5F5F5F5F5F5F5F5F5F5F5F5F5F5F5F5F5F5F5F5F5F5F5F5F5F5F5F5F5F5E2F5F5E20000E2F5F5E2F5F5F5F5F5F5F5F5F5F5F5F5F5F5F5F5F5F5F5F5F5F5F5F5F5F5F5F5F5F5F5F5F5F5F5F5F5F5F5F5F5F5
310
F5F5F5F5F5F5F5F5F5F5F5F5F5F5F5F5F5F5F5F5F5F5F5F5F5F5F5F5F5F5F5F5F5F5F5F5F5F5F5F5F5F5F5F5F5F5F5F5E2F5F5E20000E2F5F5E2F5F5F5F5F5F5F5F5F5F5F5F5F5F5F5F5F5F5F5F5F5F5F5F5F5F5F5F5F5F5F5F5F5F5F5F5F5F5F5F5F5F5F5F5F5F5F5F5F5F5F5F5F5F5F5F5F5F5F5F5F5F5F5F5F5F5F5F5F5
310
F5F5F5F5F5F5F5F5F5F5F5F5F5F5F5F5F5F5F5F5F5E2F5F5E20000E2F5F5E2F5F5F5F5F5F5F5F5F5F5F5F5F5F5F5F5F5F5F5F5F5F5F5F5F5F5F5F5F5F5F5F5F5F5F5F5F5F5F5F5F5F5F5F5F5F5F5F5F5F5F5F5F5F5F5F5F5F5F5F5F5F5F5F5F5F5F5F5F5F5F5F5F5F5F5F5F5F5F5F5F5F5F5F5F5F5F5F5F5F5E2F5F5E20000
310
E2F5F5E2F5F5F5F5F5F5F5F5F5F5F5F5F5F5F5F5F5F5F5F5F5F5F5F5F5F5F5F5F5F5F5F5F5F5F5F5F5F5F5F5F5F5F5F5F5F5F5F5F5F5F5F5F5F5F5F5F5F5F5F5F5F5F5F5F5F5F5F5F5F5F5F5F5F5F5F5F5F5F5F5F5F5F5F5F5F5F5F5F5F5E2F5F5E20000E2F5F5E2F5F5F5F5F5F5F5F5F5F5F5F5F5F5F5F5F5F5F5F5F5F5F5
310
F5F5F5F5F5F5F5F5F5F5F5F5F5F5F5F5F5F5F5F5F5F5F5F5F5F5F5F5F5F5F5F5F5F5F5F5F5F5F5F5F5F5F5F5F5F5F5F5F5F5F5F5F5F5F5F5F5F5F5F5F5F5F5F5F5F5F5E2F5F5E20000E2F5F5E2F5F5F5F5F5F5F5F5F5F5F5F5F5F5F5F5F5F5F5F5F5F5F5F5F5F5F5F5F5F5F5F5F5F5F5F5F5F5F5F5F5F5F5F5F5F5F5F5F5F5
310
F5F5F5F5F5F5F5F5F5F5F5F5F5F5F5F5F5F5F5F5F5F5F5F5F5F5F5F5F5F5F5F5F5F5F5F5F5F5F5F5E2F5F5E20000E2F5F5E2F5F5F5F5F5F5F5F5F5F5F5F5F5F5F5F5F5F5F5F5F5F5F5F5F5F5F5F5F5F5F5F5F5F5F5F5F5F5F5F5F5F5F5F5F5F5F5F5F5F5F5F5F5F5F5F5F5F5F5F5F5F5F5F5F5F5F5F5F5F5F5F5F5F5F5F5F5
310
F5F5F5F5F5F5F5F5F5F5F5F5F5E2F5F5E20000E2F5F5E2F5F5F5F5F5F5F5F5F5F5F5F5F5F5F5F5F5F5F5F5F5F5F5F5F5F5F5F5F5F5F5F5F5F5F5F5F5F5F5F5F5F5F5F5F5F5F5F5F5F5F5F5F5F5F5F5F5F5F5F5F5F5F5F5F5F5F5F5F5F5F5F5F5F5F5F5F5F5F5F5F5F5F5F5F5F5F5F5F5F5E2F5F5E20000E2F5F5E2F5F5F5F5
310
F5F5F5F5F5F5F5F5F5F5F5F5F5F5F5F5F5F5F5F5F5F5F5F5F5F5F5F5F5F5F5F5F5F5F5F5F5F5F5F5F5F5F5F5F5F5F5F5F5F5F5F5F5F5F5F5F5F5F5F5F5F5F5F5F5F5F5F5F5F5F5F5F5F5F5F5F5F5F5F5F5F5F5F5F5F5E2F5F5E20000E2F5F5E2F5F5F5F5F5F5F5F5F5F5F5F5F5F5F5F5F5F5F5F5F5F5F5F5F5F5F5F5F5F5F5
310
F5F5F5F5F5F5F5F5F5F5F5F5F5F5F5F5F5F5F5F5F5F5F5F5F5F5F5F5F5F5F5F5F5F5F5F5F5F5F5F5F5F5F5F5F5F5F5F5F5F5F5F5F5F5F5F5F5F5F5E2F5F5E20000E2F5F5E2F5F5F5F5F5F5F5F5F5F5F5F5F5F5F5F5F5F5F5F5F5F5F5F5F5F5F5F5F5F5F5F5F5F5F5F5F5F5F5F5F5F5F5F5F5F5F5F5F5F5F5F5F5F5F5F5F5F5
310
F5F5F5F5F5F5F5F5F5F5F5F5F5F5F5F5F5F5F5F5F5F5F5F5F5F5F5F5F5F5F5F5E2F5F5E20000E2F5F5F5F5F5F5F5F5F5F5F5F5F5F5F5F5F5F5F5F5F5F5F5F5F5F5F5F5F5F5F5F5F5F5F5F5F5F5F5F5F5F5F5F5F5F5F5F5F5F5F5F5F5F5F5F5F5F5F5F5F5F5F5F5F5F5F5F5F5F5F5F5F5F5F5F5F5F5F5F5F5F5F5F5F5F5F5F5
310
F5F5F5F5F5F5F5F5E20000E2F5F5F5F5F5F5F5F5F5F5F5F5F5F5F5F5F5F5F5F5F5F5F5F5F5F5F5F5F5F5F5F5F5F5F5F5F5F5F5F5F5F5F5F5F5F5F5F5F5F5F5F5F5F5F5F5F5F5F5F5F5F5F5F5F5F5F5F5F5F5F5F5F5F5F5F5F5F5F5F5F5F5F5F5F5F5F5F5F5F5F5F5F5F5F5F5E20000E2F5F5F5F5F5F5F5F5F5F5F5F5F5F5F5
310
F5F5F5F5F5F5F5F5F5F5F5F5F5F5F5F5F5F5F5F5F5F5F5F5F5F5F5F5F5F5F5F5F5F5F5F5F5F5F5F5F5F5F5F5F5F5F5F5F5F5F5F5F5F5F5F5F5F5F5F5F5F5F5F5F5F5F5F5F5F5F5F5F5F5F5F5F5F5F5F5F5E20000E2F5F5F5F5F5F5F5F5F5F5F5F5F5F5F5F5F5F5F5F5F5F5F5F5F5F5F5F5F5F5F5F5F5F5F5F5F5F5F5F5F5F5
310
F5F5F5F5F5F5F5F5F5F5F5F5F5F5F5F5F5F5F5F5F5F5F5F5F5F5F5F5F5F5F5F5F5F5F5F5F5F5F5F5F5F5F5F5F5F5F5F5F5F5F5F5F5F5E20000E2F5F5F5F5F5F5F5F5F5F5F5F5F5F5F5F5F5F5F5F5F5F5F5F5F5F5F5F5F5F5F5F5F5F5F5F5F5F5F5F5F5F5F5F5F5F5F5F5F5F5F5F5F5F5F5F5F5F5F5F5F5F5F5F5F5F5F5F5F5
310
F5F5F5F5F5F5F5F5F5F5F5F5F5F5F5F5F5F5F5F5F5F5F5F5F5F5F5E20000E2F5F5F5F5F5F5F5F5F5F5F5F5F5F5F5F5F5F5F5F5F5F5F5F5F5F5F5F5F5F5F5F5F5F5F5F5F5F5F5F5F5F5F5F5F5F5F5F5F5F5F5F5F5F5F5F5F5F5F5F5F5F5F5F5F5F5F5F5F5F5F5F5F5F5F5F5F5F5F5F5F5F5F5F5F5F5F5F5F5F5F5F5F5F5F5F5
310
E20000E2F5F5F5F5F5F5F5F5F5F5F5F5F5F5F5F5F5F5F5F5F5F5F5F5F5F5F5F5F5F5F5F5F5F5F5F5F5F5F5F5F5F5F5F5F5F5F5F5F5F5F5F5F5F5F5F5F5F5F5F5F5F5F5F5F5F5F5F5F5F5F5F5F5F5F5F5F5F5F5F5F5F5F5F5F5F5F5F5F5F5F5F5F5F5F5F5E20000E2F5F5F5F5F5F5F5F5F5F5F5F5F5F5F5F5F5F5F5F5F5F5F5
310
F5F5F5F5F5F5F5F5F5F5F5F5F5F5F5F5F5F5F5F5F5F5F5F5F5F5F5F5F5F5F5F5F5F5F5F5F5F5F5F5F5F5F5F5F5F5F5F5F5F5F5F5F5F5F5F5F5F5F5F5F5F5F5F5F5F5F5F5F5F5F5F5F5E20000E2F5F5F5F5F5F5F5F5F5F5F5F5F5F5F5F5F5F5F5F5F5F5F5F5F5F5F5F5F5F5F5F5F5F5F5F5F5F5F5F5F5F5F5F5F5F5F5F5F5F5
310
F5F5F5F5F5F5F5F5F5F5F5F5F5F5F5F5F5F5F5F5F5F5F5F5F5F5F5F5F5F5F5F5F5F5F5F5F5F5F5F5F5F5F5F5F5F5E20000E2F5F5F5F5F5F5F5F5F5F5F5F5F5F5F5F5F5F5F5F5F5F5F5F5F5F5F5F5F5F5F5F5F5F5F5F5F5F5F5F5F5F5F5F5F5F5F5F5F5F5F5F5F5F5F5F5F5F5F5F5F5F5F5F5F5F5F5F5F5F5F5F5F5F5F5F5F5
310
F5F5F5F5F5F5F5F5F5F5F5F5F5F5F5F5F5F5F5E20000E2F5F5E2F5F5F5F5F5F5F5F5F5F5F5F5F5F5F5F5F5F5F5F5F5F5F5F5F5F5F5F5F5F5F5F5F5F5F5F5F5F5F5F5F5F5F5F5F5F5F5F5F5F5F5F5F5F5F5F5F5F5F5F5F5F5F5F5F5F5F5F5F5F5F5F5F5F5F5F5F5F5F5F5F5F5F5F5F5F5F5F5F5F5E2F5F5E20000E2F5F5E2F5
310
F5F5F5F5F5F5F5F5F5F5F5F5F5F5F5F5F5F5F5F5F5F5F5F5F5F5F5F5F5F5F5F5F5F5F5F5F5F5F5F5F5F5F5F5F5F5F5F5F5F5F5F5F5F5F5F5F5F5F5F5F5F5F5F5F5F5F5F5F5F5F5F5F5F5F5F5F5F5F5F5F5F5F5F5F5F5F5F5F5E2F5F5E20000E2F5F5E2F5F5F5F5F5F5F5F5F5F5F5F5F5F5F5F5F5F5F5F5F5F5F5F5F5F5F5F5
310
F5F5F5F5F5F5F5F5F5F5F5F5F5F5F5F5F5F5F5F5F5F5F5F5F5F5F5F5F5F5F5F5F5F5F5F5F5F5F5F5F5F5F5F5F5F5F5F5F5F5F5F5F5F5F5F5F5F5F5F5F5F5E2F5F5E20000E2F5F5E2F5F5F5F5F5F5F5F5F5F5F5F5F5F5F5F5F5F5F5F5F5F5F5F5F5F5F5F5F5F5F5F5F5F5F5F5F5F5F5F5F5F5F5F5F5F5F5F5F5F5F5F5F5F5F5
310
F5F5F5F5F5F5F5F5F5F5F5F5F5F5F5F5F5F5F5F5F5F5F5F5F5F5F5F5F5F5F5F5F5F5F5E2F5F5E20000E2F5F5E2F5F5F5F5F5F5F5F5F5F5F5F5F5F5F5F5F5F5F5F5F5F5F5F5F5F5F5F5F5F5F5F5F5F5F5F5F5F5F5F5F5F5F5F5F5F5F5F5F5F5F5F5F5F5F5F5F5F5F5F5F5F5F5F5F5F5F5F5F5F5F5F5F5F5F5F5F5F5F5F5F5F5
310
F5F5F5F5F5F5F5F5E2F5F5E20000E2F5F5E2F5F5F5F5F5F5F5F5F5F5F5F5F5F5F5F5F5F5F5F5F5F5F5F5F5F5F5F5F5F5F5F5F5F5F5F5F5F5F5F5F5F5F5F5F5F5F5F5F5F5F5F5F5F5F5F5F5F5F5F5F5F5F5F5F5F5F5F5F5F5F5F5F5F5F5F5F5F5F5F5F5F5F5F5F5F5F5F5F5F5E2F5F5E20000E2F5F5E2F5F5F5F5F5F5F5F5F5
310
F5F5F5F5F5F5F5F5F5F5F5F5F5F5F5F5F5F5F5F5F5F5F5F5F5F5F5F5F5F5F5F5F5F5F5F5F5F5F5F5F5F5F5F5F5F5F5F5F5F5F5F5F5F5F5F5F5F5F5F5F5F5F5F5F5F5F5F5F5F5F5F5F5F5F5F5F5F5F5F5F5E2F5F5E20000E2F5F5E2F5F5F5F5F5F5F5F5F5F5F5F5F5F5F5F5F5F5F5F5F5F5F5F5F5F5F5F5F5F5F5F5F5F5F5F5
310
F5F5F5F5F5F5F5F5F5F5F5F5F5F5F5F5F5F5F5F5F5F5F5F5F5F5F5F5F5F5F5F5F5F5F5F5F5F5F5F5F5F5F5F5F5F5F5F5F5F5F5F5F5F5E2F5F5E20000E2F5F5E2F5F5F5F5F5F5F5F5F5F5F5F5F5F5F5F5F5F5F5F5F5F5F5F5F5F5F5F5F5F5F5F5F5F5F5F5F5F5F5F5F5F5F5F5F5F5F5F5F5F5F5F5F5F5F5F5F5F5F5F5F5F5F5
310
F5F5F5F5F5F5F5F5F5F5F5F5F5F5F5F5F5F5F5F5F5F5F5F5F5F5F5E2F5F5E20000E2F5F5E2F5F5F5F5F5F5F5F5F5F5F5F5F5F5F5F5F5F5F5F5F5F5F5F5F5F5F5F5F5F5F5F5F5F5F5F5F5F5F5F5F5F5F5F5F5F5F5F5F5F5F5F5F5F5F5F5F5F5F5F5F5F5F5F5F5F5F5F5F5F5F5F5F5F5F5F5F5F5F5F5F5F5F5F5F5F5F5F5F5F5
310
E2F5F5E20000E2F5F5E2F5F5F5F5F5F5F5F5F5F5F5F5F5F5F5F5F5F5F5F5F5F5F5F5F5F5F5F5F5F5F5F5F5F5F5F5F5F5F5F5F5F5F5F5F5F5F5F5F5F5F5F5F5F5F5F5F5F5F5F5F5F5F5F5F5F5F5F5F5F5F5F5F5F5F5F5F5F5F5F5F5F5F5F5F5F5F5F5F5F5E2F5F5E20000E2F5F5E2F5F5F5F5F5F5F5F5F5F5F5F5F5F5F5F5F5
310
F5F5F5F5F5F5F5F5F5F5F5F5F5F5F5F5F5F5F5F5F5F5F5F5F5F5F5F5F5F5F5F5F5F5F5F5F5F5F5F5F5F5F5F5F5F5F5F5F5F5F5F5F5F5F5F5F5F5F5F5F5F5F5F5F5F5F5F5F5F5F5F5F5E2F5F5E20000E2F5F5E2F5F5F5F5F5F5F5F5F5F5F5F5F5F5F5F5F5F5F5F5F5F5F5F5F5F5F5F5F5F5F5F5F5F5F5F5F5F5F5F5F5F5F5F5
310
F5F5F5F5F5F5F5F5F5F5F5F5F5F5F5F5F5F5F5F5F5F5F5F5F5F5F5F5F5F5F5F5F5F5F5F5F5F5F5F5F5F5F5F5F5F5E2F5F5E20000E2F5F5E2F5F5F5F5F5F5F5F5F5F5F5F5F5F5F5F5F5F5F5F5F5F5F5F5F5F5F5F5F5F5F5F5F5F5F5F5F5F5F5F5F5F5F5F5F5F5F5F5F5F5F5F5F5F5F5F5F5F5F5F5F5F5F5F5F5F5F5F5F5F5F5
310
F5F5F5F5F5F5F5F5F5F5F5F5F5F5F5F5F5F5F5E2F5F5E20000E2F5F5E2F5F5F5F5F5F5F5F5F5F5F5F5F5F5F5F5F5F5F5F5F5F5F5F5F5F5F5F5F5F5F5F5F5F5F5F5F5F5F5F5F5F5F5F5F5F5F5F5F5F5F5F5F5F5F5F5F5F5F5F5F5F5F5F5F5F5F5F5F5F5F5F5F5F5F5F5F5F5F5F5F5F5F5F5F5F5F5F5F5F5E2F5F5E20000E2F5
310
F5E2F5F5F5F5F5F5F5F5F5F5F5F5F5F5F5F5F5F5F5F5F5F5F5F5F5F5F5F5F5F5F5F5F5F5F5F5F5F5F5F5F5F5F5F5F5F5F5F5F5F5F5F5F5F5F5F5F5F5F5F5F5F5F5F5F5F5F5F5F5F5F5F5F5F5F5F5F5F5F5F5F5F5F5F5F5F5F5F5F5F5E2F5F5E20000E2F5F5E2F5F5F5F5F5F5F5F5F5F5F5F5F5F5F5F5F5F5F5F5F5F5F5F5F5
310
F5F5F5F5F5F5F5F5F5F5F5F5F5F5F5F5F5F5F5F5F5F5F5F5F5F5F5F5F5F5F5F5F5F5F5F5F5F5F5F5F5F5F5F5F5F5F5F5F5F5F5F5F5F5F5F5F5F5F5F5F5F5F5F5F5E2F5F5E20000E2F5F5F5F5F5F5F5F5F5F5F5F5F5F5F5F5F5F5F5F5F5F5F5F5F5F5F5F5F5F5F5F5F5F5F5F5F5F5F5F5F5F5F5F5F5F5F5F5F5F5F5F5F5F5F5
310
F5F5F5F5F5F5F5F5F5F5F5F5F5F5F5F5F5F5F5F5F5F5F5F5F5F5F5F5F5F5F5F5F5F5F5F5F5F5F5F5F5E20000E2F5F5F5F5F5F5F5F5F5F5F5F5F5F5F5F5F5F5F5F5F5F5F5F5F5F5F5F5F5F5F5F5F5F5F5F5F5F5F5F5F5F5F5F5F5F5F5F5F5F5F5F5F5F5F5F5F5F5F5F5F5F5F5F5F5F5F5F5F5F5F5F5F5F5F5F5F5F5F5F5F5F5
310
F5F5F5F5F5F5F5F5F5F5F5F5F5F5E20000E2F5F5F5F5F5F5F5F5F5F5F5F5F5F5F5F5F5F5F5F5F5F5F5F5F5F5F5F5F5F5F5F5F5F5F5F5F5F5F5F5F5F5F5F5F5F5F5F5F5F5F5F5F5F5F5F5F5F5F5F5F5F5F5F5F5F5F5F5F5F5F5F5F5F5F5F5F5F5F5F5F5F5F5F5F5F5F5F5F5F5F5F5F5F5F5F5E20000E2F5F5F5F5F5F5F5F5F5
310
F5F5F5F5F5F5F5F5F5F5F5F5F5F5F5F5F5F5F5F5F5F5F5F5F5F5F5F5F5F5F5F5F5F5F5F5F5F5F5F5F5F5F5F5F5F5F5F5F5F5F5F5F5F5F5F5F5F5F5F5F5F5F5F5F5F5F5F5F5F5F5F5F5F5F5F5F5F5F5F5F5F5F5F5F5F5F5E20000E2F5F5F5F5F5F5F5F5F5F5F5F5F5F5F5F5F5F5F5F5F5F5F5F5F5F5F5F5F5F5F5F5F5F5F5F5
310
F5F5F5F5F5F5F5F5F5F5F5F5F5F5F5F5F5F5F5F5F5F5F5F5F5F5F5F5F5F5F5F5F5F5F5F5F5F5F5F5F5F5F5F5F5F5F5F5F5F5F5F5F5F5F5F5F5F5F5F5E20000E2F5F5F5F5F5F5F5F5F5F5F5F5F5F5F5F5F5F5F5F5F5F5F5F5F5F5F5F5F5F5F5F5F5F5F5F5F5F5F5F5F5F5F5F5F5F5F5F5F5F5F5F5F5F5F5F5F5F5F5F5F5F5F5
310
F5F5F5F5F5F5F5F5F5F5F5F5F5F5F5F5F5F5F5F5F5F5F5F5F5F5F5F5F5F5F5F5F5E20000E2F5F5F5F5F5F5F5F5F5F5F5F5F5F5F5F5F5F5F5F5F5F5F5F5F5F5F5F5F5F5F5F5F5F5F5F5F5F5F5F5F5F5F5F5F5F5F5F5F5F5F5F5F5F5F5F5F5F5F5F5F5F5F5F5F5F5F5F5F5F5F5F5F5F5F5F5F5F5F5F5F5F5F5F5F5F5F5F5F5F5
310
F5F5F5F5F5F5E20000E2F5F5F5F5F5F5F5F5F5F5F5F5F5F5F5F5F5F5F5F5F5F5F5F5F5F5F5F5F5F5F5F5F5F5F5F5F5F5F5F5F5F5F5F5F5F5F5F5F5F5F5F5F5F5F5F5F5F5F5F5F5F5F5F5F5F5F5F5F5F5F5F5F5F5F5F5F5F5F5F5F5F5F5F5F5F5F5F5F5F5F5F5F5F5F5F5E20000E2F5F5F5F5F5F5F5F5F5F5F5F5F5F5F5F5F5
310
F5F5F5F5F5F5F5F5F5F5F5F5F5F5F5F5F5F5F5F5F5F5F5F5F5F5F5F5F5F5F5F5F5F5F5F5F5F5F5F5F5F5F5F5F5F5F5F5F5F5F5F5F5F5F5F5F5F5F5F5F5F5F5F5F5F5F5F5F5F5F5F5F5F5F5F5F5F5F5E20000E2F5F5E2F5F5F5F5F5F5F5F5F5F5F5F5F5F5F5F5F5F5F5F5F5F5F5F5F5F5F5F5F5F5F5F5F5F5F5F5F5F5F5F5F5
310
F5F5F5F5F5F5F5F5F5F5F5F5F5F5F5F5F5F5F5F5F5F5F5F5F5F5F5F5F5F5F5F5F5F5F5F5F5F5F5F5F5F5F5F5F5F5F5F5F5E2F5F5E20000E2F5F5E2F5F5F5F5F5F5F5F5F5F5F5F5F5F5F5F5F5F5F5F5F5F5F5F5F5F5F5F5F5F5F5F5F5F5F5F5F5F5F5F5F5F5F5F5F5F5F5F5F5F5F5F5F5F5F5F5F5F5F5F5F5F5F5F5F5F5F5F5
310
F5F5F5F5F5F5F5F5F5F5F5F5F5F5F5F5F5F5F5F5F5F5E2F5F5E20000E2F5F5E2F5F5F5F5F5F5F5F5F5F5F5F5F5F5F5F5F5F5F5F5F5F5F5F5F5F5F5F5F5F5F5F5F5F5F5F5F5F5F5F5F5F5F5F5F5F5F5F5F5F5F5F5F5F5F5F5F5F5F5F5F5F5F5F5F5F5F5F5F5F5F5F5F5F5F5F5F5F5F5F5F5F5F5F5F5F5F5F5F5F5E2F5F5E200
310
00E2F5F5E2F5F5F5F5F5F5F5F5F5F5F5F5F5F5F5F5F5F5F5F5F5F5F5F5F5F5F5F5F5F5F5F5F5F5F5F5F5F5F5F5F5F5F5F5F5F5F5F5F5F5F5F5F5F5F5F5F5F5F5F5F5F5F5F5F5F5F5F5F5F5F5F5F5F5F5F5F5F5F5F5F5F5F5F5F5F5F5F5F5F5E2F5F5E20000E2F5F5E2F5F5F5F5F5F5F5F5F5F5F5F5F5F5F5F5F5F5F5F5F5F5
310
F5F5F5F5F5F5F5F5F5F5F5F5F5F5F5F5F5F5F5F5F5F5F5F5F5F5F5F5F5F5F5F5F5F5F5F5F5F5F5F5F5F5F5F5F5F5F5F5F5F5F5F5F5F5F5F5F5F5F5F5F5F5F5F5F5F5F5F5E2F5F5E20000E2F5F5E2F5F5F5F5F5F5F5F5F5F5F5F5F5F5F5F5F5F5F5F5F5F5F5F5F5F5F5F5F5F5F5F5F5F5F5F5F5F5F5F5F5F5F5F5F5F5F5F5F5
310
F5F5F5F5F5F5F5F5F5F5F5F5F5F5F5F5F5F5F5F5F5F5F5F5F5F5F5F5F5F5F5F5F5F5F5F5F5F5F5F5F5E2F5F5E20000E2F5F5E2F5F5F5F5F5F5F5F5F5F5F5F5F5F5F5F5F5F5F5F5F5F5F5F5F5F5F5F5F5F5F5F5F5F5F5F5F5F5F5F5F5F5F5F5F5F5F5F5F5F5F5F5F5F5F5F5F5F5F5F5F5F5F5F5F5F5F5F5F5F5F5F5F5F5F5F5
310
F5F5F5F5F5F5F5F5F5F5F5F5F5F5E2F5F5E20000E2F5F5E2F5F5F5F5F5F5F5F5F5F5F5F5F5F5F5F5F5F5F5F5F5F5F5F5F5F5F5F5F5F5F5F5F5F5F5F5F5F5F5F5F5F5F5F5F5F5F5F5F5F5F5F5F5F5F5F5F5F5F5F5F5F5F5F5F5F5F5F5F5F5F5F5F5F5F5F5F5F5F5F5F5F5F5F5F5F5F5F5F5F5E2F5F5E20000E2F5F5E2F5F5F5
310
F5F5F5F5F5F5F5F5F5F5F5F5F5F5F5F5F5F5F5F5F5F5F5F5F5F5F5F5F5F5F5F5F5F5F5F5F5F5F5F5F5F5F5F5F5F5F5F5F5F5F5F5F5F5F5F5F5F5F5F5F5F5F5F5F5F5F5F5F5F5F5F5F5F5F5F5F5F5F5F5F5F5F5F5F5F5F5E2F5F5E20000E2F5F5E2F5F5F5F5F5F5F5F5F5F5F5F5F5F5F5F5F5F5F5F5F5F5F5F5F5F5F5F5F5F5
310
F5F5F5F5F5F5F5F5F5F5F5F5F5F5F5F5F5F5F5F5F5F5F5F5F5F5F5F5F5F5F5F5F5F5F5F5F5F5F5F5F5F5F5F5F5F5F5F5F5F5F5F5F5F5F5F5F5F5F5F5E2F5F5E20000E2F5F5E2F5F5F5F5F5F5F5F5F5F5F5F5F5F5F5F5F5F5F5F5F5F5F5F5F5F5F5F5F5F5F5F5F5F5F5F5F5F5F5F5F5F5F5F5F5F5F5F5F5F5F5F5F5F5F5F5F5
310
F5F5F5F5F5F5F5F5F5F5F5F5F5F5F5F5F5F5F5F5F5F5F5F5F5F5F5F5F5F5F5F5F5E2F5F5E20000E2F5F5E2F5F5F5F5F5F5F5F5F5F5F5F5F5F5F5F5F5F5F5F5F5F5F5F5F5F5F5F5F5F5F5F5F5F5F5F5F5F5F5F5F5F5F5F5F5F5F5F5F5F5F5F5F5F5F5F5F5F5F5F5F5F5F5F5F5F5F5F5F5F5F5F5F5F5F5F5F5F5F5F5F5F5F5F5
310
F5F5F5F5F5F5E2F5F5E20000E2F5F5E2F5F5F5F5F5F5F5F5F5F5F5F5F5F5F5F5F5F5F5F5F5F5F5F5F5F5F5F5F5F5F5F5F5F5F5F5F5F5F5F5F5F5F5F5F5F5F5F5F5F5F5F5F5F5F5F5F5F5F5F5F5F5F5F5F5F5F5F5F5F5F5F5F5F5F5F5F5F5F5F5F5F5F5F5F5F5F5F5F5F5E2F5F5E20000E2F5F5E2F5F5F5F5F5F5F5F5F5F5F5
310
F5F5F5F5F5F5F5F5F5F5F5F5F5F5F5F5F5F5F5F5F5F5F5F5F5F5F5F5F5F5F5F5F5F5F5F5F5F5F5F5F5F5F5F5F5F5F5F5F5F5F5F5F5F5F5F5F5F5F5F5F5F5F5F5F5F5F5F5F5F5F5F5F5F5F5F5F5F5F5E2F5F5E20000E2F5F5E2F5F5F5F5F5F5F5F5F5F5F5F5F5F5F5F5F5F5F5F5F5F5F5F5F5F5F5F5F5F5F5F5F5F5F5F5F5F5
310
F5F5F5F5F5F5F5F5F5F5F5F5F5F5F5F5F5F5F5F5F5F5F5F5F5F5F5F5F5F5F5F5F5F5F5F5F5F5F5F5F5F5F5F5F5F5F5F5F5F5F5F5E2F5F5E20000E2F5F5E2F5F5F5F5F5F5F5F5F5F5F5F5F5F5F5F5F5F5F5F5F5F5F5F5F5F5F5F5F5F5F5F5F5F5F5F5F5F5F5F5F5F5F5F5F5F5F5F5F5F5F5F5F5F5F5F5F5F5F5F5F5F5F5F5F5
310
F5F5F5F5F5F5F5F5F5F5F5F5F5F5F5F5F5F5F5F5F5F5F5F5F5E2F5F5E20000E2F5F5E2F5F5F5F5F5F5F5F5F5F5F5F5F5F5F5F5F5F5F5F5F5F5F5F5F5F5F5F5F5F5F5F5F5F5F5F5F5F5F5F5F5F5F5F5F5F5F5F5F5F5F5F5F5F5F5F5F5F5F5F5F5F5F5F5F5F5F5F5F5F5F5F5F5F5F5F5F5F5F5F5F5F5F5F5F5F5F5F5F5F5E2F5
310
F5E20000E2F5F5F5F5F5F5F5F5F5F5F5F5F5F5F5F5F5F5F5F5F5F5F5F5F5F5F5F5F5F5F5F5F5F5F5F5F5F5F5F5F5F5F5F5F5F5F5F5F5F5F5F5F5F5F5F5F5F5F5F5F5F5F5F5F5F5F5F5F5F5F5F5F5F5F5F5F5F5F5F5F5F5F5F5F5F5F5F5F5F5F5F5F5F5F5F5E20000E2F5F5F5F5F5F5F5F5F5F5F5F5F5F5F5F5F5F5F5F5F5F5
310
F5F5F5F5F5F5F5F5F5F5F5F5F5F5F5F5F5F5F5F5F5F5F5F5F5F5F5F5F5F5F5F5F5F5F5F5F5F5F5F5F5F5F5F5F5F5F5F5F5F5F5F5F5F5F5F5F5F5F5F5F5F5F5F5F5F5F5F5F5F5F5F5F5F5E20000E2F5F5F5F5F5F5F5F5F5F5F5F5F5F5F5F5F5F5F5F5F5F5F5F5F5F5F5F5F5F5F5F5F5F5F5F5F5F5F5F5F5F5F5F5F5F5F5F5F5
310
F5F5F5F5F5F5F5F5F5F5F5F5F5F5F5F5F5F5F5F5F5F5F5F5F5F5F5F5F5F5F5F5F5F5F5F5F5F5F5F5F5F5F5F5F5F5F5E20000E2F5F5F5F5F5F5F5F5F5F5F5F5F5F5F5F5F5F5F5F5F5F5F5F5F5F5F5F5F5F5F5F5F5F5F5F5F5F5F5F5F5F5F5F5F5F5F5F5F5F5F5F5F5F5F5F5F5F5F5F5F5F5F5F5F5F5F5F5F5F5F5F5F5F5F5F5
310
F5F5F5F5F5F5F5F5F5F5F5F5F5F5F5F5F5F5F5F5E20000E2F5F5F5F5F5F5F5F5F5F5F5F5F5F5F5F5F5F5F5F5F5F5F5F5F5F5F5F5F5F5F5F5F5F5F5F5F5F5F5F5F5F5F5F5F5F5F5F5F5F5F5F5F5F5F5F5F5F5F5F5F5F5F5F5F5F5F5F5F5F5F5F5F5F5F5F5F5F5F5F5F5F5F5F5F5F5F5F5F5F5F5F5F5F5F5F5E20000E2F5F5F5
310
F5F5F5F5F5F5F5F5F5F5F5F5F5F5F5F5F5F5F5F5F5F5F5F5F5F5F5F5F5F5F5F5F5F5F5F5F5F5F5F5F5F5F5F5F5F5F5F5F5F5F5F5F5F5F5F5F5F5F5F5F5F5F5F5F5F5F5F5F5F5F5F5F5F5F5F5F5F5F5F5F5F5F5F5F5F5F5F5F5F5F5F5F5E20000E2F5F5F5F5F5F5F5F5F5F5F5F5F5F5F5F5F5F5F5F5F5F5F5F5F5F5F5F5F5F5
310
F5F5F5F5F5F5F5F5F5F5F5F5F5F5F5F5F5F5F5F5F5F5F5F5F5F5F5F5F5F5F5F5F5F5F5F5F5F5F5F5F5F5F5F5F5F5F5F5F5F5F5F5F5F5F5F5F5F5F5F5F5F5F5F5F5F5E20000E2F5F5F5F5F5F5F5F5F5F5F5F5F5F5F5F5F5F5F5F5F5F5F5F5F5F5F5F5F5F5F5F5F5F5F5F5F5F5F5F5F5F5F5F5F5F5F5F5F5F5F5F5F5F5F5F5F5
310
F5F5F5F5F5F5F5F5F5F5F5F5F5F5F5F5F5F5F5F5F5F5F5F5F5F5F5F5F5F5F5F5F5F5F5F5F5F5F5E20000E2F5F5F5F5F5F5F5F5F5F5F5F5F5F5F5F5F5F5F5F5F5F5F5F5F5F5F5F5F5F5F5F5F5F5F5F5F5F5F5F5F5F5F5F5F5F5F5F5F5F5F5F5F5F5F5F5F5F5F5F5F5F5F5F5F5F5F5F5F5F5F5F5F5F5F5F5F5F5F5F5F5F5F5F5
310
F5F5F5F5F5F5F5F5F5F5F5F5E20000E2F5F5F5F5F5F5F5F5F5F5F5F5F5F5F5F5F5F5F5F5F5F5F5F5F5F5F5F5F5F5F5F5F5F5F5F5F5F5F5F5F5F5F5F5F5F5F5F5F5F5F5F5F5F5F5F5F5F5F5F5F5F5F5F5F5F5F5F5F5F5F5F5F5F5F5F5F5F5F5F5F5F5F5F5F5F5F5F5F5F5F5F5F5F5F5F5E20000E2F5F5E2F5F5F5F5F5F5F5F5
310
F5F5F5F5F5F5F5F5F5F5F5F5F5F5F5F5F5F5F5F5F5F5F5F5F5F5F5F5F5F5F5F5F5F5F5F5F5F5F5F5F5F5F5F5F5F5F5F5F5F5F5F5F5F5F5F5F5F5F5F5F5F5F5F5F5F5F5F5F5F5F5F5F5F5F5F5F5F5F5F5F5F5E2F5F5E20000E2F5F5E2F5F5F5F5F5F5F5F5F5F5F5F5F5F5F5F5F5F5F5F5F5F5F5F5F5F5F5F5F5F5F5F5F5F5F5
310
F5F5F5F5F5F5F5F5F5F5F5F5F5F5F5F5F5F5F5F5F5F5F5F5F5F5F5F5F5F5F5F5F5F5F5F5F5F5F5F5F5F5F5F5F5F5F5F5F5F5F5F5F5F5F5E2F5F5E20000E2F5F5E2F5F5F5F5F5F5F5F5F5F5F5F5F5F5F5F5F5F5F5F5F5F5F5F5F5F5F5F5F5F5F5F5F5F5F5F5F5F5F5F5F5F5F5F5F5F5F5F5F5F5F5F5F5F5F5F5F5F5F5F5F5F5
310
F5F5F5F5F5F5F5F5F5F5F5F5F5F5F5F5F5F5F5F5F5F5F5F5F5F5F5F5E2F5F5E20000E2F5F5E2F5F5F5F5F5F5F5F5F5F5F5F5F5F5F5F5F5F5F5F5F5F5F5F5F5F5F5F5F5F5F5F5F5F5F5F5F5F5F5F5F5F5F5F5F5F5F5F5F5F5F5F5F5F5F5F5F5F5F5F5F5F5F5F5F5F5F5F5F5F5F5F5F5F5F5F5F5F5F5F5F5F5F5F5F5F5F5F5F5
310
F5E2F5F5E20000E2F5F5E2F5F5F5F5F5F5F5F5F5F5F5F5F5F5F5F5F5F5F5F5F5F5F5F5F5F5F5F5F5F5F5F5F5F5F5F5F5F5F5F5F5F5F5F5F5F5F5F5F5F5F5F5F5F5F5F5F5F5F5F5F5F5F5F5F5F5F5F5F5F5F5F5F5F5F5F5F5F5F5F5F5F5F5F5F5F5F5F5F5F5E2F5F5E20000E2F5F5E2F5F5F5F5F5F5F5F5F5F5F5F5F5F5F5F5
310
F5F5F5F5F5F5F5F5F5F5F5F5F5F5F5F5F5F5F5F5F5F5F5F5F5F5F5F5F5F5F5F5F5F5F5F5F5F5F5F5F5F5F5F5F5F5F5F5F5F5F5F5F5F5F5F5F5F5F5F5F5F5F5F5F5F5F5F5F5F5F5F5F5F5E2F5F5E20000E2F5F5E2F5F5F5F5F5F5F5F5F5F5F5F5F5F5F5F5F5F5F5F5F5F5F5F5F5F5F5F5F5F5F5F5F5F5F5F5F5F5F5F5F5F5F5
310
F5F5F5F5F5F5F5F5F5F5F5F5F5F5F5F5F5F5F5F5F5F5F5F5F5F5F5F5F5F5F5F5F5F5F5F5F5F5F5F5F5F5F5F5F5F5F5E2F5F5E20000E2F5F5E2F5F5F5F5F5F5F5F5F5F5F5F5F5F5F5F5F5F5F5F5F5F5F5F5F5F5F5F5F5F5F5F5F5F5F5F5F5F5F5F5F5F5F5F5F5F5F5F5F5F5F5F5F5F5F5F5F5F5F5F5F5F5F5F5F5F5F5F5F5F5
310
F5F5F5F5F5F5F5F5F5F5F5F5F5F5F5F5F5F5F5F5E2F5F5E20000E2F5F5E2F5F5F5F5F5F5F5F5F5F5F5F5F5F5F5F5F5F5F5F5F5F5F5F5F5F5F5F5F5F5F5F5F5F5F5F5F5F5F5F5F5F5F5F5F5F5F5F5F5F5F5F5F5F5F5F5F5F5F5F5F5F5F5F5F5F5F5F5F5F5F5F5F5F5F5F5F5F5F5F5F5F5F5F5F5F5F5F5F5F5E2F5F5E20000E2
310
F5F5E2F5F5F5F5F5F5F5F5F5F5F5F5F5F5F5F5F5F5F5F5F5F5F5F5F5F5F5F5F5F5F5F5F5F5F5F5F5F5F5F5F5F5F5F5F5F5F5F5F5F5F5F5F5F5F5F5F5F5F5F5F5F5F5F5F5F5F5F5F5F5F5F5F5F5F5F5F5F5F5F5F5F5F5F5F5F5F5F5F5F5E2F5F5E20000E2F5F5E2F5F5F5F5F5F5F5F5F5F5F5F5F5F5F5F5F5F5F5F5F5F5F5F5
310
F5F5F5F5F5F5F5F5F5F5F5F5F5F5F5F5F5F5F5F5F5F5F5F5F5F5F5F5F5F5F5F5F5F5F5F5F5F5F5F5F5F5F5F5F5F5F5F5F5F5F5F5F5F5F5F5F5F5F5F5F5F5F5F5F5F5E2F5F5E20000E2F5F5E2F5F5F5F5F5F5F5F5F5F5F5F5F5F5F5F5F5F5F5F5F5F5F5F5F5F5F5F5F5F5F5F5F5F5F5F5F5F5F5F5F5F5F5F5F5F5F5F5F5F5F5
310
F5F5F5F5F5F5F5F5F5F5F5F5F5F5F5F5F5F5F5F5F5F5F5F5F5F5F5F5F5F5F5F5F5F5F5F5F5F5F5E2F5F5E20000E2F5F5E2F5F5F5F5F5F5F5F5F5F5F5F5F5F5F5F5F5F5F5F5F5F5F5F5F5F5F5F5F5F5F5F5F5F5F5F5F5F5F5F5F5F5F5F5F5F5F5F5F5F5F5F5F5F5F5F5F5F5F5F5F5F5F5F5F5F5F5F5F5F5F5F5F5F5F5F5F5F5
310
F5F5F5F5F5F5F5F5F5F5F5F5E2F5F5E20000E2F5F5E2F5F5F5F5F5F5F5F5F5F5F5F5F5F5F5F5F5F5F5F5F5F5F5F5F5F5F5F5F5F5F5F5F5F5F5F5F5F5F5F5F5F5F5F5F5F5F5F5F5F5F5F5F5F5F5F5F5F5F5F5F5F5F5F5F5F5F5F5F5F5F5F5F5F5F5F5F5F5F5F5F5F5F5F5F5F5F5F5F5F5E2F5F5E20000E2F5F5E2F5F5F5F5F5
310
F5F5F5F5F5F5F5F5F5F5F5F5F5F5F5F5F5F5F5F5F5F5F5F5F5F5F5F5F5F5F5F5F5F5F5F5F5F5F5F5F5F5F5F5F5F5F5F5F5F5F5F5F5F5F5F5F5F5F5F5F5F5F5F5F5F5F5F5F5F5F5F5F5F5F5F5F5F5F5F5F5F5F5F5F5E2F5F5E20000E2F5F5E2F5F5F5F5F5F5F5F5F5F5F5F5F5F5F5F5F5F5F5F5F5F5F5F5F5F5F5F5F5F5F5F5
310
F5F5F5F5F5F5F5F5F5F5F5F5F5F5F5F5F5F5F5F5F5F5F5F5F5F5F5F5F5F5F5F5F5F5F5F5F5F5F5F5F5F5F5F5F5F5F5F5F5F5F5F5F5F5F5F5F5F5E2F5F5E20000E2F5F5E2F5F5F5F5F5F5F5F5F5F5F5F5F5F5F5F5F5F5F5F5F5F5F5F5F5F5F5F5F5F5F5F5F5F5F5F5F5F5F5F5F5F5F5F5F5F5F5F5F5F5F5F5F5F5F5F5F5F5F5
310
F5F5F5F5F5F5F5F5F5F5F5F5F5F5F5F5F5F5F5F5F5F5F5F5F5F5F5F5F5F5F5E2F5F5E20000E2F5F5F5F5F5F5F5F5F5F5F5F5F5F5F5F5F5F5F5F5F5F5F5F5F5F5F5F5F5F5F5F5F5F5F5F5F5F5F5F5F5F5F5F5F5F5F5F5F5F5F5F5F5F5F5F5F5F5F5F5F5F5F5F5F5F5F5F5F5F5F5F5F5F5F5F5F5F5F5F5F5F5F5F5F5F5F5F5F5
310
F5F5F5F5F5F5F5E20000E2F5F5F5F5F5F5F5F5F5F5F5F5F5F5F5F5F5F5F5F5F5F5F5F5F5F5F5F5F5F5F5F5F5F5F5F5F5F5F5F5F5F5F5F5F5F5F5F5F5F5F5F5F5F5F5F5F5F5F5F5F5F5F5F5F5F5F5F5F5F5F5F5F5F5F5F5F5F5F5F5F5F5F5F5F5F5F5F5F5F5F5F5F5F5F5F5E20000E2F5F5F5F5F5F5F5F5F5F5F5F5F5F5F5F5
310
F5F5F5F5F5F5F5F5F5F5F5F5F5F5F5F5F5F5F5F5F5F5F5F5F5F5F5F5F5F5F5F5F5F5F5F5F5F5F5F5F5F5F5F5F5F5F5F5F5F5F5F5F5F5F5F5F5F5F5F5F5F5F5F5F5F5F5F5F5F5F5F5F5F5F5F5F5F5F5F5E20000E2F5F5F5F5F5F5F5F5F5F5F5F5F5F5F5F5F5F5F5F5F5F5F5F5F5F5F5F5F5F5F5F5F5F5F5F5F5F5F5F5F5F5F5
310
F5F5F5F5F5F5F5F5F5F5F5F5F5F5F5F5F5F5F5F5F5F5F5F5F5F5F5F5F5F5F5F5F5F5F5F5F5F5F5F5F5F5F5F5F5F5F5F5F5F5F5F5F5E20000E2F5F5F5F5F5F5F5F5F5F5F5F5F5F5F5F5F5F5F5F5F5F5F5F5F5F5F5F5F5F5F5F5F5F5F5F5F5F5F5F5F5F5F5F5F5F5F5F5F5F5F5F5F5F5F5F5F5F5F5F5F5F5F5F5F5F5F5F5F5F5
310
F5F5F5F5F5F5F5F5F5F5F5F5F5F5F5F5F5F5F5F5F5F5F5F5F5F5E20000E2F5F5F5F5F5F5F5F5F5F5F5F5F5F5F5F5F5F5F5F5F5F5F5F5F5F5F5F5F5F5F5F5F5F5F5F5F5F5F5F5F5F5F5F5F5F5F5F5F5F5F5F5F5F5F5F5F5F5F5F5F5F5F5F5F5F5F5F5F5F5F5F5F5F5F5F5F5F5F5F5F5F5F5F5F5F5F5F5F5F5F5F5F5F5F5F5E2
310
0000E2F5F5F5F5F5F5F5F5F5F5F5F5F5F5F5F5F5F5F5F5F5F5F5F5F5F5F5F5F5F5F5F5F5F5F5F5F5F5F5F5F5F5F5F5F5F5F5F5F5F5F5F5F5F5F5F5F5F5F5F5F5F5F5F5F5F5F5F5F5F5F5F5F5F5F5F5F5F5F5F5F5F5F5F5F5F5F5F5F5F5F5F5F5F5F5F5E20000E2F5F5F5F5F5F5F5F5F5F5F5F5F5F5F5F5F5F5F5F5F5F5F5F5
310
F5F5F5F5F5F5F5F5F5F5F5F5F5F5F5F5F5F5F5F5F5F5F5F5F5F5F5F5F5F5F5F5F5F5F5F5F5F5F5F5F5F5F5F5F5F5F5F5F5F5F5F5F5F5F5F5F5F5F5F5F5F5F5F5F5F5F5F5F5F5F5F5E20000E2F5F5F5F5F5F5F5F5F5F5F5F5F5F5F5F5F5F5F5F5F5F5F5F5F5F5F5F5F5F5F5F5F5F5F5F5F5F5F5F5F5F5F5F5F5F5F5F5F5F5F5
310
F5F5F5F5F5F5F5F5F5F5F5F5F5F5F5F5F5F5F5F5F5F5F5F5F5F5F5F5F5F5F5F5F5F5F5F5F5F5F5F5F5F5F5F5F5E20000E2F5F5E2F5F5F5F5F5F5F5F5F5F5F5F5F5F5F5F5F5F5F5F5F5F5F5F5F5F5F5F5F5F5F5F5F5F5F5F5F5F5F5F5F5F5F5F5F5F5F5F5F5F5F5F5F5F5F5F5F5F5F5F5F5F5F5F5F5F5F5F5F5F5F5F5F5F5F5
310
F5F5F5F5F5F5F5F5F5F5F5F5F5F5F5E2F5F5E20000E2F5F5E2F5F5F5F5F5F5F5F5F5F5F5F5F5F5F5F5F5F5F5F5F5F5F5F5F5F5F5F5F5F5F5F5F5F5F5F5F5F5F5F5F5F5F5F5F5F5F5F5F5F5F5F5F5F5F5F5F5F5F5F5F5F5F5F5F5F5F5F5F5F5F5F5F5F5F5F5F5F5F5F5F5F5F5F5F5F5F5F5F5F5E2F5F5E20000E2F5F5E2F5F5
310
F5F5F5F5F5F5F5F5F5F5F5F5F5F5F5F5F5F5F5F5F5F5F5F5F5F5F5F5F5F5F5F5F5F5F5F5F5F5F5F5F5F5F5F5F5F5F5F5F5F5F5F5F5F5F5F5F5F5F5F5F5F5F5F5F5F5F5F5F5F5F5F5F5F5F5F5F5F5F5F5F5F5F5F5F5F5F5F5E2F5F5E20000E2F5F5E2F5F5F5F5F5F5F5F5F5F5F5F5F5F5F5F5F5F5F5F5F5F5F5F5F5F5F5F5F5
310
F5F5F5F5F5F5F5F5F5F5F5F5F5F5F5F5F5F5F5F5F5F5F5F5F5F5F5F5F5F5F5F5F5F5F5F5F5F5F5F5F5F5F5F5F5F5F5F5F5F5F5F5F5F5F5F5F5F5F5F5F5E2F5F5E20000E2F5F5E2F5F5F5F5F5F5F5F5F5F5F5F5F5F5F5F5F5F5F5F5F5F5F5F5F5F5F5F5F5F5F5F5F5F5F5F5F5F5F5F5F5F5F5F5F5F5F5F5F5F5F5F5F5F5F5F5
310
F5F5F5F5F5F5F5F5F5F5F5F5F5F5F5F5F5F5F5F5F5F5F5F5F5F5F5F5F5F5F5F5F5F5E2F5F5E20000E2F5F5E2F5F5F5F5F5F5F5F5F5F5F5F5F5F5F5F5F5F5F5F5F5F5F5F5F5F5F5F5F5F5F5F5F5F5F5F5F5F5F5F5F5F5F5F5F5F5F5F5F5F5F5F5F5F5F5F5F5F5F5F5F5F5F5F5F5F5F5F5F5F5F5F5F5F5F5F5F5F5F5F5F5F5F5
310
F5F5F5F5F5F5F5E2F5F5E20000E2F5F5E2F5F5F5F5F5F5F5F5F5F5F5F5F5F5F5F5F5F5F5F5F5F5F5F5F5F5F5F5F5F5F5F5F5F5F5F5F5F5F5F5F5F5F5F5F5F5F5F5F5F5F5F5F5F5F5F5F5F5F5F5F5F5F5F5F5F5F5F5F5F5F5F5F5F5F5F5F5F5F5F5F5F5F5F5F5F5F5F5F5F5E2F5F5E20000E2F5F5E2F5F5F5F5F5F5F5F5F5F5
310
F5F5F5F5F5F5F5F5F5F5F5F5F5F5F5F5F5F5F5F5F5F5F5F5F5F5F5F5F5F5F5F5F5F5F5F5F5F5F5F5F5F5F5F5F5F5F5F5F5F5F5F5F5F5F5F5F5F5F5F5F5F5F5F5F5F5F5F5F5F5F5F5F5F5F5F5F5F5F5F5E2F5F5E20000E2F5F5E2E2E2E2E2E2E2E2F5F5F5F5F5F5F5F5E2E2E2E2E2E2E2E2E2E2E2E2E2E2E2F5F5F5F5F5F5F5
310
F5E2E2E2E2E2E2E2E2E2E2E2E2E2E2F5F5F5F5F5F5F5F5E2E2E2E2E2E2E2E2E2E2E2E2E2E2E2F5F5F5F5F5F5F5F5E2E2E2E2E2E2E2E2F5F5E20000E2F5F5F5F5F5F5F5F5F5F5F5F5F5F5F5F5F5F5F5F5F5F5F5F5F5F5F5F5F5F5F5F5F5F5F5F5F5F5F5F5F5F5F5F5F5F5F5F5F5F5F5F5F5F5F5F5F5F5F5F5F5F5F5F5F5F5F5
310
F5F5F5F5F5F5F5F5F5F5F5F5F5F5F5F5F5F5F5F5F5F5F5F5F5F5F5F5F5E20000E2F5F5F5F5F5F5F5F5F5F5F5F5F5F5F5F5F5F5F5F5F5F5F5F5F5F5F5F5F5F5F5F5F5F5F5F5F5F5F5F5F5F5F5F5F5F5F5F5F5F5F5F5F5F5F5F5F5F5F5F5F5F5F5F5F5F5F5F5F5F5F5F5F5F5F5F5F5F5F5F5F5F5F5F5F5F5F5F5F5F5F5F5F5F5
310
F5F5E20000E2E2E2E2E2E2E2E2E2E2E2E2E2E2E2E2E2E2E2E2E2E2E2E2E2E2E2E2E2E2E2E2E2E2E2E2E2E2E2E2E2E2E2E2E2E2E2E2E2E2E2E2E2E2E2E2E2E2E2E2E2E2E2E2E2E2E2E2E2E2E2E2E2E2E2E2E2E2E2E2E2E2E2E2E2E2E2E2E2E2E2E2E2E2E2E2E2E20000EFEFEFEFEFEFEFEFEFEFEFEFEFEFEFEFEFEFEFEFEFEF
310
EFEFEFEFEFEFEFEFEFEFEFEFEFEFEFEFEFEFEFEFEFEFEFEFEFEFEFEFEFEFEFEFEFEFEFEFEFEFEFEFEFEFEFEFEFEFEFEFEFEFEFEFEFEFEFEFEFEFEFEFEFEFEFEFEFEFEFEFEFEFEFEFEFEFEFEF0000
  0
XRECORD
  5
3BF3E
102
{ACAD_REACTORS
330
3BF3D
102
}
330
3BF3D
100
AcDbXrecord
280
     1
102
SHADEPLOT
 70
     0
102
SHADEPLOTRESLEVEL
 70
     2
102
SHADEPLOTCUSTOMDPI
 70
   300
  0
XRECORD
  5
3BEA1
102
{ACAD_REACTORS
330
3BEA0
102
}
330
3BEA0
100
AcDbXrecord
280
     1
102
MATERIAL
148
0.0
149
0.0
149
0.0
 93
        0
 94
       63
282
     0
 72
     1
 77
     1
171
     1
175
     1
179
     1
273
     0
  0
XRECORD
  5
3BE9F
102
{ACAD_REACTORS
330
3BE9E
102
}
330
3BE9E
100
AcDbXrecord
280
     1
102
MATERIAL
148
0.0
149
0.0
149
0.0
 93
        0
 94
       63
282
     0
 72
     1
 77
     1
171
     1
175
     1
179
     1
273
     0
  0
XRECORD
  5
3BEA3
102
{ACAD_REACTORS
330
3BEA2
102
}
330
3BEA2
100
AcDbXrecord
280
     1
102
MATERIAL
148
0.0
149
0.0
149
0.0
 93
        0
 94
       63
282
     0
 72
     1
 77
     1
171
     1
175
     1
179
     1
273
     0
  0
XRECORD
  5
3BF41
102
{ACAD_REACTORS
330
3BF40
102
}
330
3BF40
100
AcDbXrecord
280
     1
102
ACAD_ROUNDTRIP_PRE2007_TABLESTYLE
 90
      512
 91
        0
  1

 92
      512
 93
        0
  2

 94
      512
 95
        0
  3

  0
ENDSEC
  0
EOF
