  0
SECTION
  2
HEADER
  9
$ACADVER
  1
AC1015
  9
$ACADMAINTVER
 70
    20
  9
$DWGCODEPAGE
  3
ANSI_1252
  9
$INSBASE
 10
0.0
 20
0.0
 30
0.0
  9
$EXTMIN
 10
-80841.98273442657
 20
-74857.70018639502
 30
-0.000000000000161
  9
$EXTMAX
 10
-77774.93400289714
 20
-73552.99064437779
 30
0.0000000000138934
  9
$LIMMIN
 10
0.0
 20
0.0
  9
$LIMMAX
 10
1189.0
 20
841.0
  9
$ORTHOMODE
 70
     0
  9
$REGENMODE
 70
     1
  9
$FILLMODE
 70
     1
  9
$QTEXTMODE
 70
     0
  9
$MIRRTEXT
 70
     1
  9
$LTSCALE
 40
1.0
  9
$ATTMODE
 70
     1
  9
$TEXTSIZE
 40
30.0
  9
$TRACEWID
 40
1.0
  9
$TEXTSTYLE
  7
ROMANS
  9
$CLAYER
  8
0
  9
$CELTYPE
  6
BYLAYER
  9
$CECOLOR
 62
   256
  9
$CELTSCALE
 40
1.0
  9
$DISPSILH
 70
     0
  9
$DIMSCALE
 40
1.0
  9
$DIMASZ
 40
30.0
  9
$DIMEXO
 40
0.0
  9
$DIMDLI
 40
3.75
  9
$DIMRND
 40
0.0
  9
$DIMDLE
 40
0.0
  9
$DIMEXE
 40
10.0
  9
$DIMTP
 40
0.0
  9
$DIMTM
 40
0.0
  9
$DIMTXT
 40
30.0
  9
$DIMCEN
 40
2.5
  9
$DIMTSZ
 40
0.0
  9
$DIMTOL
 70
     0
  9
$DIMLIM
 70
     0
  9
$DIMTIH
 70
     0
  9
$DIMTOH
 70
     0
  9
$DIMSE1
 70
     0
  9
$DIMSE2
 70
     0
  9
$DIMTAD
 70
     1
  9
$DIMZIN
 70
     0
  9
$DIMBLK
  1

  9
$DIMASO
 70
     1
  9
$DIMSHO
 70
     1
  9
$DIMPOST
  1

  9
$DIMAPOST
  1

  9
$DIMALT
 70
     0
  9
$DIMALTD
 70
     2
  9
$DIMALTF
 40
25.4
  9
$DIMLFAC
 40
1.0
  9
$DIMTOFL
 70
     1
  9
$DIMTVP
 40
0.0
  9
$DIMTIX
 70
     0
  9
$DIMSOXD
 70
     0
  9
$DIMSAH
 70
     0
  9
$DIMBLK1
  1

  9
$DIMBLK2
  1

  9
$DIMSTYLE
  2
STANDARD
  9
$DIMCLRD
 70
     0
  9
$DIMCLRE
 70
     0
  9
$DIMCLRT
 70
     0
  9
$DIMTFAC
 40
1.0
  9
$DIMGAP
 40
10.0
  9
$DIMJUST
 70
     0
  9
$DIMSD1
 70
     0
  9
$DIMSD2
 70
     0
  9
$DIMTOLJ
 70
     1
  9
$DIMTZIN
 70
     0
  9
$DIMALTZ
 70
     0
  9
$DIMALTTZ
 70
     0
  9
$DIMUPT
 70
     0
  9
$DIMDEC
 70
     0
  9
$DIMTDEC
 70
     0
  9
$DIMALTU
 70
     2
  9
$DIMALTTD
 70
     2
  9
$DIMTXSTY
  7
STANDARD
  9
$DIMAUNIT
 70
     0
  9
$DIMADEC
 70
     0
  9
$DIMALTRND
 40
0.0
  9
$DIMAZIN
 70
     0
  9
$DIMDSEP
 70
    46
  9
$DIMATFIT
 70
     3
  9
$DIMFRAC
 70
     0
  9
$DIMLDRBLK
  1

  9
$DIMLUNIT
 70
     2
  9
$DIMLWD
 70
    -2
  9
$DIMLWE
 70
    -2
  9
$DIMTMOVE
 70
     0
  9
$LUNITS
 70
     2
  9
$LUPREC
 70
     4
  9
$SKETCHINC
 40
1.0
  9
$FILLETRAD
 40
0.0
  9
$AUNITS
 70
     0
  9
$AUPREC
 70
     0
  9
$MENU
  1
C:\ACADR13\WIN\SUPPORT\ACADFULL
  9
$ELEVATION
 40
0.0
  9
$PELEVATION
 40
0.0
  9
$THICKNESS
 40
0.0
  9
$LIMCHECK
 70
     0
  9
$CHAMFERA
 40
10.0
  9
$CHAMFERB
 40
10.0
  9
$CHAMFERC
 40
0.0
  9
$CHAMFERD
 40
0.0
  9
$SKPOLY
 70
     0
  9
$TDCREATE
 40
2450382.434570139
  9
$TDUCREATE
 40
2450382.351236806
  9
$TDUPDATE
 40
2456469.391927766
  9
$TDUUPDATE
 40
2456469.308594433
  9
$TDINDWG
 40
0.8437325694
  9
$TDUSRTIMER
 40
0.8437291435
  9
$USRTIMER
 70
     1
  9
$ANGBASE
 50
0.0
  9
$ANGDIR
 70
     0
  9
$PDMODE
 70
     0
  9
$PDSIZE
 40
0.0
  9
$PLINEWID
 40
0.0
  9
$SPLFRAME
 70
     0
  9
$SPLINETYPE
 70
     6
  9
$SPLINESEGS
 70
     8
  9
$HANDSEED
  5
3DB05
  9
$SURFTAB1
 70
     6
  9
$SURFTAB2
 70
     6
  9
$SURFTYPE
 70
     6
  9
$SURFU
 70
     6
  9
$SURFV
 70
     6
  9
$UCSBASE
  2

  9
$UCSNAME
  2

  9
$UCSORG
 10
0.0
 20
0.0
 30
0.0
  9
$UCSXDIR
 10
1.0
 20
0.0
 30
0.0
  9
$UCSYDIR
 10
0.0
 20
1.0
 30
0.0
  9
$UCSORTHOREF
  2

  9
$UCSORTHOVIEW
 70
     0
  9
$UCSORGTOP
 10
0.0
 20
0.0
 30
0.0
  9
$UCSORGBOTTOM
 10
0.0
 20
0.0
 30
0.0
  9
$UCSORGLEFT
 10
0.0
 20
0.0
 30
0.0
  9
$UCSORGRIGHT
 10
0.0
 20
0.0
 30
0.0
  9
$UCSORGFRONT
 10
0.0
 20
0.0
 30
0.0
  9
$UCSORGBACK
 10
0.0
 20
0.0
 30
0.0
  9
$PUCSBASE
  2

  9
$PUCSNAME
  2

  9
$PUCSORG
 10
0.0
 20
0.0
 30
0.0
  9
$PUCSXDIR
 10
1.0
 20
0.0
 30
0.0
  9
$PUCSYDIR
 10
0.0
 20
1.0
 30
0.0
  9
$PUCSORTHOREF
  2

  9
$PUCSORTHOVIEW
 70
     0
  9
$PUCSORGTOP
 10
0.0
 20
0.0
 30
0.0
  9
$PUCSORGBOTTOM
 10
0.0
 20
0.0
 30
0.0
  9
$PUCSORGLEFT
 10
0.0
 20
0.0
 30
0.0
  9
$PUCSORGRIGHT
 10
0.0
 20
0.0
 30
0.0
  9
$PUCSORGFRONT
 10
0.0
 20
0.0
 30
0.0
  9
$PUCSORGBACK
 10
0.0
 20
0.0
 30
0.0
  9
$USERI1
 70
     0
  9
$USERI2
 70
     0
  9
$USERI3
 70
     0
  9
$USERI4
 70
     0
  9
$USERI5
 70
     0
  9
$USERR1
 40
0.0
  9
$USERR2
 40
0.0
  9
$USERR3
 40
0.0
  9
$USERR4
 40
0.0
  9
$USERR5
 40
0.0
  9
$WORLDVIEW
 70
     1
  9
$SHADEDGE
 70
     3
  9
$SHADEDIF
 70
    70
  9
$TILEMODE
 70
     1
  9
$MAXACTVP
 70
    16
  9
$PINSBASE
 10
0.0
 20
0.0
 30
0.0
  9
$PLIMCHECK
 70
     0
  9
$PEXTMIN
 10
12.55000000000001
 20
41.32999999999998
 30
0.0
  9
$PEXTMAX
 10
195.5499999999999
 20
284.67
 30
0.0
  9
$PLIMMIN
 10
-0.0980265521206203
 20
-3.678311471965383
  9
$PLIMMAX
 10
207.2988188848241
 20
289.6460551372062
  9
$UNITMODE
 70
     0
  9
$VISRETAIN
 70
     0
  9
$PLINEGEN
 70
     0
  9
$PSLTSCALE
 70
     1
  9
$TREEDEPTH
 70
  3020
  9
$CMLSTYLE
  2
STANDARD
  9
$CMLJUST
 70
     0
  9
$CMLSCALE
 40
1.0
  9
$PROXYGRAPHICS
 70
     1
  9
$MEASUREMENT
 70
     0
  9
$CELWEIGHT
370
    -1
  9
$ENDCAPS
280
     0
  9
$JOINSTYLE
280
     0
  9
$LWDISPLAY
290
     0
  9
$INSUNITS
 70
     0
  9
$HYPERLINKBASE
  1

  9
$STYLESHEET
  1

  9
$XEDIT
290
     1
  9
$CEPSNTYPE
380
     0
  9
$PSTYLEMODE
290
     1
  9
$FINGERPRINTGUID
  2
{408A79E2-F00F-47E2-9806-578BB6257B10}
  9
$VERSIONGUID
  2
{EC30884E-401A-4A17-B54F-135CD34903BE}
  9
$EXTNAMES
290
     1
  9
$PSVPSCALE
 40
0.0
  9
$OLESTARTUP
290
     0
  0
ENDSEC
  0
SECTION
  2
CLASSES
  0
CLASS
  1
DICTIONARYVAR
  2
AcDbDictionaryVar
  3
ObjectDBX Classes
 90
        0
280
     0
281
     0
  0
CLASS
  1
ACDBDICTIONARYWDFLT
  2
AcDbDictionaryWithDefault
  3
ObjectDBX Classes
 90
        0
280
     0
281
     0
  0
CLASS
  1
ACDBPLACEHOLDER
  2
AcDbPlaceHolder
  3
ObjectDBX Classes
 90
        0
280
     0
281
     0
  0
CLASS
  1
LAYOUT
  2
AcDbLayout
  3
ObjectDBX Classes
 90
        0
280
     0
281
     0
  0
CLASS
  1
MATERIAL
  2
AcDbMaterial
  3
ObjectDBX Classes
 90
     1024
280
     0
281
     0
  0
CLASS
  1
VISUALSTYLE
  2
AcDbVisualStyle
  3
ObjectDBX Classes
 90
     4095
280
     0
281
     0
  0
CLASS
  1
TABLESTYLE
  2
AcDbTableStyle
  3
ObjectDBX Classes
 90
     4095
280
     0
281
     0
  0
CLASS
  1
SORTENTSTABLE
  2
AcDbSortentsTable
  3
ObjectDBX Classes
 90
        0
280
     0
281
     0
  0
ENDSEC
  0
SECTION
  2
TABLES
  0
TABLE
  2
VPORT
  5
8
330
0
100
AcDbSymbolTable
 70
     1
  0
VPORT
  5
39C01
330
8
100
AcDbSymbolTableRecord
100
AcDbViewportTableRecord
  2
*Active
 70
     0
 10
0.0
 20
0.0
 11
1.0
 21
1.0
 12
-80366.55390254555
 22
-74756.39315666263
 13
0.0
 23
0.0
 14
10.0
 24
10.0
 15
10.0
 25
10.0
 16
0.0
 26
0.0
 36
1.0
 17
0.0
 27
0.0
 37
0.0
 40
782.6984674098886
 41
1.801178203240058
 42
50.0
 43
0.0
 44
0.0
 50
0.0
 51
0.0
 71
     0
 72
 20000
 73
     1
 74
     1
 75
     0
 76
     0
 77
     0
 78
     0
281
     0
 65
     1
110
0.0
120
0.0
130
0.0
111
1.0
121
0.0
131
0.0
112
0.0
122
1.0
132
0.0
 79
     0
146
0.0
  0
ENDTAB
  0
TABLE
  2
LTYPE
  5
5
330
0
100
AcDbSymbolTable
 70
     2
  0
LTYPE
  5
14
330
5
100
AcDbSymbolTableRecord
100
AcDbLinetypeTableRecord
  2
BYBLOCK
 70
     0
  3

 72
    65
 73
     0
 40
0.0
  0
LTYPE
  5
15
330
5
100
AcDbSymbolTableRecord
100
AcDbLinetypeTableRecord
  2
BYLAYER
 70
     0
  3

 72
    65
 73
     0
 40
0.0
  0
LTYPE
  5
16
330
5
100
AcDbSymbolTableRecord
100
AcDbLinetypeTableRecord
  2
CONTINUOUS
 70
     0
  3
Solid line
 72
    65
 73
     0
 40
0.0
  0
LTYPE
  5
3D524
330
5
100
AcDbSymbolTableRecord
100
AcDbLinetypeTableRecord
  2
CENTER
 70
     0
  3
____ _ ____ _ ____ _ ____
 72
    65
 73
     4
 40
47.4
 49
22.0
 74
     4
 75
     0
340
0
 46
0.0
 50
0.0
 44
0.0
 45
0.0
 49
-8.5
 74
     4
 75
     0
340
0
 46
0.0
 50
0.0
 44
0.0
 45
0.0
 49
8.5
 74
     4
 75
     0
340
0
 46
0.0
 50
0.0
 44
0.0
 45
0.0
 49
-8.5
 74
     4
 75
     0
340
0
 46
0.0
 50
0.0
 44
0.0
 45
0.0
  0
ENDTAB
  0
TABLE
  2
LAYER
  5
2
102
{ACAD_XDICTIONARY
360
39C3D
102
}
330
0
100
AcDbSymbolTable
 70
     5
  0
LAYER
  5
F
330
2
100
AcDbSymbolTableRecord
100
AcDbLayerTableRecord
  2
0
 70
     0
 62
     7
  6
CONTINUOUS
370
    -3
390
39BF2
  0
LAYER
  5
3FD
330
2
100
AcDbSymbolTableRecord
100
AcDbLayerTableRecord
  2
DEFPOINTS
 70
     0
 62
     7
  6
CONTINUOUS
290
     0
370
    -3
390
39BF2
  0
LAYER
  5
3CAA4
330
2
100
AcDbSymbolTableRecord
100
AcDbLayerTableRecord
  2
HEWI
 70
     0
 62
     7
  6
CONTINUOUS
370
    -3
390
39BF2
  0
LAYER
  5
3CFB0
330
2
100
AcDbSymbolTableRecord
100
AcDbLayerTableRecord
  2
1
 70
     0
 62
     7
  6
CONTINUOUS
370
    -3
390
39BF2
  0
LAYER
  5
3D3D9
330
2
100
AcDbSymbolTableRecord
100
AcDbLayerTableRecord
  2
19
 70
     0
 62
     7
  6
CONTINUOUS
370
    -3
390
39BF2
  0
ENDTAB
  0
TABLE
  2
STYLE
  5
3
330
0
100
AcDbSymbolTable
 70
     2
  0
STYLE
  5
10
330
3
100
AcDbSymbolTableRecord
100
AcDbTextStyleTableRecord
  2
STANDARD
 70
     0
 40
0.0
 41
1.0
 50
0.0
 71
     0
 42
2.5
  3
ISOCP
  4

  0
STYLE
  5
3F
330
3
100
AcDbSymbolTableRecord
100
AcDbTextStyleTableRecord
  2
ROMANS
 70
     0
 40
0.0
 41
0.8
 50
0.0
 71
     0
 42
30.0
  3
romans.shx
  4

  0
ENDTAB
  0
TABLE
  2
VIEW
  5
6
330
0
100
AcDbSymbolTable
 70
     0
  0
ENDTAB
  0
TABLE
  2
UCS
  5
7
330
0
100
AcDbSymbolTable
 70
     0
  0
ENDTAB
  0
TABLE
  2
APPID
  5
9
330
0
100
AcDbSymbolTable
 70
     6
  0
APPID
  5
11
330
9
100
AcDbSymbolTableRecord
100
AcDbRegAppTableRecord
  2
ACAD
 70
     0
  0
APPID
  5
36496
330
9
100
AcDbSymbolTableRecord
100
AcDbRegAppTableRecord
  2
ACADIGES
 70
     0
  0
APPID
  5
36497
330
9
100
AcDbSymbolTableRecord
100
AcDbRegAppTableRecord
  2
AUTOCAD_POSTSCRIPT_FIGURE
 70
     0
  0
APPID
  5
3A910
330
9
100
AcDbSymbolTableRecord
100
AcDbRegAppTableRecord
  2
ACAD_PSEXT
 70
     0
  0
APPID
  5
3AB52
330
9
100
AcDbSymbolTableRecord
100
AcDbRegAppTableRecord
  2
AcAecLayerStandard
 70
     0
  0
APPID
  5
3CECD
330
9
100
AcDbSymbolTableRecord
100
AcDbRegAppTableRecord
  2
ACAD_EXEMPT_FROM_CAD_STANDARDS
 70
     0
  0
ENDTAB
  0
TABLE
  2
DIMSTYLE
  5
A
330
0
100
AcDbSymbolTable
 70
     1
100
AcDbDimStyleTable
 71
     1
340
1D
  0
DIMSTYLE
105
1D
330
A
100
AcDbSymbolTableRecord
100
AcDbDimStyleTableRecord
  2
STANDARD
 70
     0
340
10
  0
ENDTAB
  0
TABLE
  2
BLOCK_RECORD
  5
1
330
0
100
AcDbSymbolTable
 70
    19
  0
BLOCK_RECORD
  5
1A
102
{ACAD_XDICTIONARY
360
3B151
102
}
330
1
100
AcDbSymbolTableRecord
100
AcDbBlockTableRecord
  2
*MODEL_SPACE
340
39BF5
  0
BLOCK_RECORD
  5
17
330
1
100
AcDbSymbolTableRecord
100
AcDbBlockTableRecord
  2
*PAPER_SPACE
340
39BF6
  0
BLOCK_RECORD
  5
3D118
330
1
100
AcDbSymbolTableRecord
100
AcDbBlockTableRecord
  2
*D7
340
0
  0
BLOCK_RECORD
  5
3D203
330
1
100
AcDbSymbolTableRecord
100
AcDbBlockTableRecord
  2
*D9
340
0
  0
ENDTAB
  0
ENDSEC
  0
SECTION
  2
BLOCKS
  0
BLOCK
  5
1B
330
1A
100
AcDbEntity
  8
0
100
AcDbBlockBegin
  2
*MODEL_SPACE
 70
     0
 10
0.0
 20
0.0
 30
0.0
  3
*MODEL_SPACE
  1

  0
ENDBLK
  5
1C
330
1A
100
AcDbEntity
  8
0
100
AcDbBlockEnd
  0
BLOCK
  5
18
330
17
100
AcDbEntity
 67
     1
  8
0
100
AcDbBlockBegin
  2
*PAPER_SPACE
 70
     0
 10
0.0
 20
0.0
 30
0.0
  3
*PAPER_SPACE
  1

  0
ENDBLK
  5
19
330
17
100
AcDbEntity
 67
     1
  8
0
100
AcDbBlockEnd
  0
BLOCK
  5
3D124
330
3D118
100
AcDbEntity
  8
0
100
AcDbBlockBegin
  2
*D7
 70
     1
 10
0.0
 20
0.0
 30
0.0
  3
*D7
  1

  0
LINE
  5
3D119
330
3D118
100
AcDbEntity
  8
0
 62
     0
370
    -2
100
AcDbLine
 10
-78018.65327245009
 20
-73785.77324182106
 30
0.0
 11
-78018.65327245009
 21
-73825.40336879654
 31
0.0
  0
LINE
  5
3D11A
330
3D118
100
AcDbEntity
  8
0
 62
     0
370
    -2
100
AcDbLine
 10
-77957.49980123035
 20
-73785.75142693604
 30
0.0
 11
-77957.49980123035
 21
-73825.40336879654
 31
0.0
  0
LINE
  5
3D11B
330
3D118
100
AcDbEntity
  8
0
 62
     0
370
    -2
100
AcDbLine
 10
-78048.65327245009
 20
-73815.40336879654
 30
0.0
 11
-78078.65327245009
 21
-73815.40336879654
 31
0.0
  0
LINE
  5
3D11C
330
3D118
100
AcDbEntity
  8
0
 62
     0
370
    -2
100
AcDbLine
 10
-77927.49980123035
 20
-73815.40336879654
 30
0.0
 11
-77897.49980123035
 21
-73815.40336879654
 31
0.0
  0
LINE
  5
3D11D
330
3D118
100
AcDbEntity
  8
0
 62
     0
370
    -2
100
AcDbLine
 10
-78018.65327245009
 20
-73815.40336879654
 30
0.0
 11
-77957.49980123035
 21
-73815.40336879654
 31
0.0
  0
SOLID
  5
3D11E
330
3D118
100
AcDbEntity
  8
0
 62
     0
100
AcDbTrace
 10
-78048.65327245009
 20
-73810.40336879654
 30
0.0
 11
-78048.65327245009
 21
-73820.40336879654
 31
0.0
 12
-78018.65327245009
 22
-73815.40336879654
 32
0.0
 13
-78018.65327245009
 23
-73815.40336879654
 33
0.0
  0
SOLID
  5
3D11F
330
3D118
100
AcDbEntity
  8
0
 62
     0
100
AcDbTrace
 10
-77927.49980123035
 20
-73810.40336879654
 30
0.0
 11
-77927.49980123035
 21
-73820.40336879654
 31
0.0
 12
-77957.49980123035
 22
-73815.40336879654
 32
0.0
 13
-77957.49980123035
 23
-73815.40336879654
 33
0.0
  0
MTEXT
  5
3D120
330
3D118
100
AcDbEntity
  8
0
 62
     0
100
AcDbMText
 10
-77988.07653684022
 20
-73790.40336879654
 30
0.0
 40
30.0
 41
0.0
 71
     5
 72
     1
  1
\A1;61
 73
     1
 44
1.0
1001
ACAD
1000
MTEXTBEGIN
1070
    73
1070
     1
1070
    44
1040
1.0
1070
    74
1070
     0
1000
MTEXTEND
  0
POINT
  5
3D121
330
3D118
100
AcDbEntity
  8
DEFPOINTS
 62
     0
100
AcDbPoint
 10
-78018.65327245009
 20
-73785.77324182106
 30
0.0
  0
POINT
  5
3D122
330
3D118
100
AcDbEntity
  8
DEFPOINTS
 62
     0
100
AcDbPoint
 10
-77957.49980123035
 20
-73785.75142693604
 30
0.0
  0
POINT
  5
3D123
330
3D118
100
AcDbEntity
  8
DEFPOINTS
 62
     0
100
AcDbPoint
 10
-77957.49980123035
 20
-73815.40336879654
 30
0.0
  0
ENDBLK
  5
3D125
330
3D118
100
AcDbEntity
  8
0
100
AcDbBlockEnd
  0
BLOCK
  5
3D20F
330
3D203
100
AcDbEntity
  8
0
100
AcDbBlockBegin
  2
*D9
 70
     1
 10
0.0
 20
0.0
 30
0.0
  3
*D9
  1

  0
LINE
  5
3D204
330
3D203
100
AcDbEntity
  8
0
 62
     0
370
    -2
100
AcDbLine
 10
-78222.64449077538
 20
-73769.2761231984
 30
0.0
 11
-77902.26727300037
 21
-73769.2761231984
 31
0.0
  0
LINE
  5
3D205
330
3D203
100
AcDbEntity
  8
0
 62
     0
370
    -2
100
AcDbLine
 10
-78222.64449077538
 20
-73779.2761231984
 30
0.0
 11
-77902.26727300037
 21
-73779.2761231984
 31
0.0
  0
LINE
  5
3D206
330
3D203
100
AcDbEntity
  8
0
 62
     0
370
    -2
100
AcDbLine
 10
-77912.26727300037
 20
-73739.27612319841
 30
0.0
 11
-77912.26727300037
 21
-73709.27612319841
 31
0.0
  0
LINE
  5
3D207
330
3D203
100
AcDbEntity
  8
0
 62
     0
370
    -2
100
AcDbLine
 10
-77912.26727300037
 20
-73809.2761231984
 30
0.0
 11
-77912.26727300037
 21
-73886.29974524564
 31
0.0
  0
LINE
  5
3D208
330
3D203
100
AcDbEntity
  8
0
 62
     0
370
    -2
100
AcDbLine
 10
-77912.26727300037
 20
-73769.2761231984
 30
0.0
 11
-77912.26727300037
 21
-73779.2761231984
 31
0.0
  0
SOLID
  5
3D209
330
3D203
100
AcDbEntity
  8
0
 62
     0
100
AcDbTrace
 10
-77917.26727300037
 20
-73739.27612319841
 30
0.0
 11
-77907.26727300037
 21
-73739.27612319841
 31
0.0
 12
-77912.26727300037
 22
-73769.2761231984
 32
0.0
 13
-77912.26727300037
 23
-73769.2761231984
 33
0.0
  0
SOLID
  5
3D20A
330
3D203
100
AcDbEntity
  8
0
 62
     0
100
AcDbTrace
 10
-77917.26727300037
 20
-73809.2761231984
 30
0.0
 11
-77907.26727300037
 21
-73809.2761231984
 31
0.0
 12
-77912.26727300037
 22
-73779.2761231984
 32
0.0
 13
-77912.26727300037
 23
-73779.2761231984
 33
0.0
  0
MTEXT
  5
3D20B
330
3D203
100
AcDbEntity
  8
0
 62
     0
100
AcDbMText
 10
-77937.26727300035
 20
-73862.78793422204
 30
0.0
 40
30.0
 41
0.0
 71
     5
 72
     1
  1
\A1;10
 11
0.0000000000000001
 21
1.0
 31
0.0
 73
     1
 44
1.0
1001
ACAD
1000
MTEXTBEGIN
1070
    73
1070
     1
1070
    44
1040
1.0
1070
    74
1070
     0
1000
MTEXTEND
  0
POINT
  5
3D20C
330
3D203
100
AcDbEntity
  8
DEFPOINTS
 62
     0
100
AcDbPoint
 10
-78222.64449077538
 20
-73769.2761231984
 30
0.0000000000000001
  0
POINT
  5
3D20D
330
3D203
100
AcDbEntity
  8
DEFPOINTS
 62
     0
100
AcDbPoint
 10
-78222.64449077538
 20
-73779.2761231984
 30
-0.0000000000000001
  0
POINT
  5
3D20E
330
3D203
100
AcDbEntity
  8
DEFPOINTS
 62
     0
100
AcDbPoint
 10
-77912.26727300037
 20
-73779.2761231984
 30
0.0
  0
ENDBLK
  5
3D210
330
3D203
100
AcDbEntity
  8
0
100
AcDbBlockEnd
  0
ENDSEC
  0
SECTION
  2
ENTITIES
  0
LINE
  5
3DAA1
330
1A
100
AcDbEntity
  8
HEWI
  6
Continuous
100
AcDbLine
 10
-80811.48273442657
 20
-74653.39031475688
 30
0.0
 11
-80232.48273442657
 21
-74653.39031475688
 31
0.0
  0
LINE
  5
3DAA2
330
1A
100
AcDbEntity
  8
HEWI
  6
Continuous
100
AcDbLine
 10
-80816.98273442658
 20
-74640.82427219818
 30
0.0
 11
-80816.98273442658
 21
-74604.58701389798
 31
0.0
  0
LINE
  5
3DAA3
330
1A
100
AcDbEntity
  8
HEWI
  6
Continuous
100
AcDbLine
 10
-80232.6827344266
 20
-74643.39031475688
 30
0.0
 11
-80811.28273442658
 21
-74643.39031475688
 31
0.0
  0
LINE
  5
3DAA4
330
1A
100
AcDbEntity
  8
HEWI
  6
Continuous
100
AcDbLine
 10
-80216.98273442657
 20
-74640.96569355442
 30
0.0
 11
-80216.98273442657
 21
-74604.58701389798
 31
0.0
  0
LINE
  5
3DAA5
330
1A
100
AcDbEntity
  8
HEWI
  6
Continuous
100
AcDbLine
 10
-80826.98273442657
 20
-74604.58701389798
 30
0.0
 11
-80826.98273442657
 21
-74640.96569355442
 31
0.0
  0
LINE
  5
3DAA6
330
1A
100
AcDbEntity
  8
HEWI
  6
Continuous
100
AcDbLine
 10
-80226.98273442658
 20
-74604.58701389798
 30
0.0
 11
-80226.98273442658
 21
-74640.82427219818
 31
0.0
  0
LINE
  5
3DAA7
330
1A
100
AcDbEntity
  8
HEWI
  6
Continuous
100
AcDbLine
 10
-80226.98273442658
 20
-74604.58701389798
 30
0.0
 11
-80226.98273442658
 21
-74599.75528493442
 31
0.0
  0
LINE
  5
3DAAB
330
1A
100
AcDbEntity
  8
HEWI
  6
Continuous
100
AcDbLine
 10
-80826.98273442657
 20
-74604.58701389798
 30
0.0
 11
-80826.98273442657
 21
-74599.75528493442
 31
0.0
  0
LINE
  5
3DAAC
330
1A
100
AcDbEntity
  8
HEWI
  6
Continuous
100
AcDbLine
 10
-80816.98273442658
 20
-74599.75528493442
 30
0.0
 11
-80816.98273442658
 21
-74604.58701389798
 31
0.0
  0
LINE
  5
3DAAD
330
1A
100
AcDbEntity
  8
HEWI
  6
Continuous
100
AcDbLine
 10
-80216.98273442657
 20
-74599.75528493442
 30
0.0
 11
-80216.98273442657
 21
-74604.58701389798
 31
0.0
  0
LINE
  5
3DAAE
330
1A
100
AcDbEntity
  8
HEWI
  6
Continuous
100
AcDbLine
 10
-80241.98273442658
 20
-74815.00018639503
 30
0.0000000000000008
 11
-80241.98273442658
 21
-74815.78381201031
 31
0.0000000000000009
  0
LINE
  5
3DAAF
330
1A
100
AcDbEntity
  8
HEWI
  6
Continuous
100
AcDbLine
 10
-80201.98273442657
 20
-74815.78381201031
 30
0.0000000000000009
 11
-80201.98273442657
 21
-74815.00018639503
 31
0.0000000000000008
  0
LINE
  5
3DAB0
330
1A
100
AcDbEntity
  8
HEWI
  6
Continuous
100
AcDbLine
 10
-80801.98273442658
 20
-74815.00018639503
 30
0.0000000000000008
 11
-80802.29692559528
 21
-74797.00018639503
 31
-0.0000000000000003
  0
LINE
  5
3DAB1
330
1A
100
AcDbEntity
  8
HEWI
  6
Continuous
100
AcDbLine
 10
-80841.66854325788
 20
-74797.00018639503
 30
-0.0000000000000003
 11
-80841.98273442657
 21
-74815.00018639503
 31
0.0000000000000008
  0
LINE
  5
3DAB2
330
1A
100
AcDbEntity
  8
HEWI
  6
Continuous
100
AcDbLine
 10
-80816.98273442658
 20
-74845.13414383633
 30
0.0000000000000009
 11
-80816.98273442658
 21
-74817.91713181707
 31
0.0000000000000006
  0
LINE
  5
3DAB3
330
1A
100
AcDbEntity
  8
HEWI
  6
Continuous
100
AcDbLine
 10
-80826.98273442657
 20
-74817.91709284031
 30
0.0000000000000001
 11
-80826.98273442657
 21
-74845.27556519257
 31
-0.0000000000000009
  0
LINE
  5
3DAB4
330
1A
100
AcDbEntity
  8
HEWI
  6
Continuous
100
AcDbLine
 10
-80216.98273442657
 20
-74845.27556519257
 30
-0.0000000000000009
 11
-80216.98273442657
 21
-74817.91709284031
 31
0.0000000000000001
  0
LINE
  5
3DAB5
330
1A
100
AcDbEntity
  8
HEWI
  6
Continuous
100
AcDbLine
 10
-80226.98273442658
 20
-74817.91713181707
 30
0.0000000000000006
 11
-80226.98273442658
 21
-74845.13414383633
 31
0.0000000000000009
  0
LINE
  5
3DAB6
330
1A
100
AcDbEntity
  8
HEWI
  6
Continuous
100
AcDbLine
 10
-80841.98273442657
 20
-74815.00018639503
 30
0.0000000000000008
 11
-80841.98273442657
 21
-74815.78381201031
 31
0.0000000000000009
  0
LINE
  5
3DAB7
330
1A
100
AcDbEntity
  8
HEWI
  6
Continuous
100
AcDbLine
 10
-80801.98273442658
 20
-74815.78381201031
 30
0.0000000000000009
 11
-80801.98273442658
 21
-74815.00018639503
 31
0.0000000000000008
  0
LINE
  5
3DAB8
330
1A
100
AcDbEntity
  8
HEWI
  6
Continuous
100
AcDbLine
 10
-80241.66854325788
 20
-74797.00018639503
 30
-0.0000000000000003
 11
-80241.98273442658
 21
-74815.00018639503
 31
0.0000000000000008
  0
LINE
  5
3DAB9
330
1A
100
AcDbEntity
  8
HEWI
  6
Continuous
100
AcDbLine
 10
-80232.6827344266
 20
-74847.70018639503
 30
0.0000000000000002
 11
-80811.28273442658
 21
-74847.70018639503
 31
0.0000000000000002
  0
LINE
  5
3DABA
330
1A
100
AcDbEntity
  8
HEWI
  6
Continuous
100
AcDbLine
 10
-80811.48273442657
 20
-74857.70018639502
 30
-0.0000000000000001
 11
-80232.48273442657
 21
-74857.70018639502
 31
-0.0000000000000001
  0
LINE
  5
3DABB
330
1A
100
AcDbEntity
  8
HEWI
  6
Continuous
100
AcDbLine
 10
-80201.98273442657
 20
-74815.00018639503
 30
0.0000000000000008
 11
-80202.2969255953
 21
-74797.00018639503
 31
-0.0000000000000003
  0
LINE
  5
3DABC
330
1A
100
AcDbEntity
  8
HEWI
  6
Continuous
100
AcDbLine
 10
-80821.98273442658
 20
-74797.00018639503
 30
-0.0000000000000003
 11
-80802.29692559528
 21
-74797.00018639503
 31
-0.0000000000000003
  0
LINE
  5
3DABD
330
1A
100
AcDbEntity
  8
HEWI
  6
Continuous
100
AcDbLine
 10
-80841.66854325788
 20
-74797.00018639503
 30
-0.0000000000000003
 11
-80821.98273442658
 21
-74797.00018639503
 31
-0.0000000000000003
  0
LINE
  5
3DABE
330
1A
100
AcDbEntity
  8
HEWI
  6
Continuous
100
AcDbLine
 10
-80241.98273442658
 20
-74815.00018639503
 30
0.0000000000000008
 11
-80201.98273442657
 21
-74815.00018639503
 31
0.0000000000000008
  0
LINE
  5
3DABF
330
1A
100
AcDbEntity
  8
HEWI
  6
Continuous
100
AcDbLine
 10
-80841.98273442657
 20
-74815.00018639503
 30
0.0000000000000008
 11
-80801.98273442658
 21
-74815.00018639503
 31
0.0000000000000008
  0
LINE
  5
3DAC0
330
1A
100
AcDbEntity
  8
HEWI
  6
Continuous
100
AcDbLine
 10
-80241.98273442658
 20
-74815.00018639503
 30
0.0000000000000008
 11
-80201.98273442657
 21
-74815.00018639503
 31
0.0000000000000008
  0
LINE
  5
3DAC1
330
1A
100
AcDbEntity
  8
HEWI
  6
Continuous
100
AcDbLine
 10
-80221.98273442658
 20
-74797.00018639503
 30
-0.0000000000000003
 11
-80202.2969255953
 21
-74797.00018639503
 31
-0.0000000000000003
  0
LINE
  5
3DAC2
330
1A
100
AcDbEntity
  8
HEWI
  6
Continuous
100
AcDbLine
 10
-80241.66854325788
 20
-74797.00018639503
 30
-0.0000000000000003
 11
-80221.98273442658
 21
-74797.00018639503
 31
-0.0000000000000003
  0
LINE
  5
3DAC3
330
1A
100
AcDbEntity
  8
HEWI
  6
Continuous
100
AcDbLine
 10
-80841.98273442657
 20
-74815.00018639503
 30
0.0000000000000008
 11
-80801.98273442658
 21
-74815.00018639503
 31
0.0000000000000008
  0
LINE
  5
3DAC8
330
1A
100
AcDbEntity
  8
HEWI
  6
Continuous
100
AcDbLine
 10
-80078.44697617292
 20
-74560.39031475688
 30
0.0
 11
-80079.23060178821
 21
-74560.39031475688
 31
0.0
  0
LINE
  5
3DAC9
330
1A
100
AcDbEntity
  8
HEWI
  6
Continuous
100
AcDbLine
 10
-80082.13949258394
 20
-74600.39031475687
 30
0.0
 11
-80078.44697617292
 21
-74600.39031475687
 31
0.0
  0
LINE
  5
3DACA
330
1A
100
AcDbEntity
  8
HEWI
  6
Continuous
100
AcDbLine
 10
-80079.23060178821
 20
-74560.39031475688
 30
0.0
 11
-80097.23060178822
 21
-74560.70450592559
 31
0.0
  0
LINE
  5
3DACB
330
1A
100
AcDbEntity
  8
HEWI
  6
Continuous
100
AcDbLine
 10
-80097.23060178822
 20
-74600.07612358817
 30
0.0
 11
-80092.83057802097
 21
-74600.15292628872
 31
0.0
  0
LINE
  5
3DACC
330
1A
100
AcDbEntity
  8
HEWI
  6
Continuous
100
AcDbLine
 10
-80045.56111044097
 20
-74637.28873829225
 30
0.0
 11
-80081.79836874118
 21
-74601.05147999205
 31
0.0
  0
LINE
  5
3DACD
330
1A
100
AcDbEntity
  8
HEWI
  6
Continuous
100
AcDbLine
 10
-80088.92801519682
 20
-74608.06396916015
 30
0.0
 11
-80052.63217825286
 21
-74644.35980610411
 31
0.0
  0
LINE
  5
3DACE
330
1A
100
AcDbEntity
  8
HEWI
  6
Continuous
100
AcDbLine
 10
-80097.23060178822
 20
-74560.70450592559
 30
0.0
 11
-80097.23060178822
 21
-74600.07612358817
 31
0.0
  0
LINE
  5
3DACF
330
1A
100
AcDbEntity
  8
HEWI
  6
Continuous
100
AcDbLine
 10
-80086.23060178821
 20
-74599.72913581712
 30
0.0
 11
-80086.23060178821
 21
-74599.58873301864
 31
0.0
  0
LINE
  5
3DAD0
330
1A
100
AcDbEntity
  8
HEWI
  6
Continuous
100
AcDbLine
 10
-80086.23060178821
 20
-74599.7549732873
 30
0.0
 11
-80086.23060178821
 21
-74599.72913581712
 31
0.0
  0
LINE
  5
3DAD1
330
1A
100
AcDbEntity
  8
HEWI
  6
Continuous
100
AcDbLine
 10
-80079.23060178821
 20
-74599.64841080219
 30
0.0
 11
-80079.23060178821
 21
-74560.39031475688
 31
0.0
  0
LINE
  5
3DAD2
330
1A
100
AcDbEntity
  8
HEWI
  6
Continuous
100
AcDbLine
 10
-80045.06613569416
 20
-74651.92584866281
 30
0.0
 11
-80052.49075689661
 21
-74644.50122746035
 31
0.0
  0
LINE
  5
3DAD4
330
1A
100
AcDbEntity
  8
HEWI
  6
Continuous
100
AcDbLine
 10
-80052.49075689661
 20
-74644.50122746035
 30
0.0
 11
-80052.63217825286
 21
-74644.35980610411
 31
0.0
  0
LINE
  5
3DAD5
330
1A
100
AcDbEntity
  8
HEWI
  6
Continuous
100
AcDbLine
 10
-80079.23060178821
 20
-74599.66301315413
 30
0.0
 11
-80079.23060178821
 21
-74560.39031475688
 31
0.0
  0
LINE
  5
3DAD6
330
1A
100
AcDbEntity
  8
HEWI
  6
Continuous
100
AcDbLine
 10
-80045.41968908474
 20
-74637.43015964849
 30
0.0
 11
-80037.99506788229
 21
-74644.85478085094
 31
0.0
  0
LINE
  5
3DAD7
330
1A
100
AcDbEntity
  8
HEWI
  6
Continuous
100
AcDbLine
 10
-80045.56111044097
 20
-74637.28873829225
 30
0.0
 11
-80045.41968908474
 21
-74637.43015964849
 31
0.0
  0
CIRCLE
  5
3DAD8
330
1A
100
AcDbEntity
  8
HEWI
  6
Continuous
100
AcDbCircle
 10
-80221.98273442658
 20
-74580.39031475688
 30
0.0
 40
19.12751677852353
  0
CIRCLE
  5
3DAD9
330
1A
100
AcDbEntity
  8
HEWI
  6
Continuous
100
AcDbCircle
 10
80821.98273442658
 20
-74580.39031475688
 30
0.0
 40
20.00000000000004
210
0.0
220
0.0
230
-1.0
  0
CIRCLE
  5
3DADA
330
1A
100
AcDbEntity
  8
HEWI
  6
Continuous
100
AcDbCircle
 10
80221.98273442658
 20
-74580.39031475688
 30
0.0
 40
20.00000000000004
210
0.0
220
0.0
230
-1.0
  0
CIRCLE
  5
3DADB
330
1A
100
AcDbEntity
  8
HEWI
  6
Continuous
100
AcDbCircle
 10
-80821.98273442658
 20
-74580.39031475688
 30
0.0
 40
19.12751677852353
  0
ARC
  5
3DADC
330
1A
100
AcDbEntity
  8
HEWI
  6
Continuous
100
AcDbCircle
 10
-80840.98273442657
 20
-74815.78381201031
 30
0.0000000000000009
 40
1.0
100
AcDbArc
 50
180.0
 51
262.6738800982067
  0
ARC
  5
3DADD
330
1A
100
AcDbEntity
  8
HEWI
  6
Continuous
100
AcDbCircle
 10
-80821.98273442658
 20
-74668.00018639503
 30
-0.0000000000000082
 40
150.0
100
AcDbArc
 50
262.6738800982067
 51
277.3261199017933
  0
ARC
  5
3DADE
330
1A
100
AcDbEntity
  8
HEWI
  6
Continuous
100
AcDbCircle
 10
-80221.98273442658
 20
-74668.00018639503
 30
-0.0000000000000082
 40
150.0
100
AcDbArc
 50
262.6738800982067
 51
277.3261199017933
  0
ARC
  5
3DADF
330
1A
100
AcDbEntity
  8
HEWI
  6
Continuous
100
AcDbCircle
 10
-80802.98273442657
 20
-74815.78381201031
 30
0.0000000000000009
 40
1.0
100
AcDbArc
 50
277.3261199017933
 51
0.0
  0
ARC
  5
3DAE0
330
1A
100
AcDbEntity
  8
HEWI
  6
Continuous
100
AcDbCircle
 10
-80202.98273442659
 20
-74815.78381201031
 30
0.0000000000000009
 40
1.0
100
AcDbArc
 50
277.3261199017933
 51
0.0
  0
ARC
  5
3DAE1
330
1A
100
AcDbEntity
  8
HEWI
  6
Continuous
100
AcDbCircle
 10
-80240.98273442659
 20
-74815.78381201031
 30
0.0000000000000009
 40
1.0
100
AcDbArc
 50
180.0
 51
262.6738800982067
  0
ARC
  5
3DAE2
330
1A
100
AcDbEntity
  8
HEWI
  6
Continuous
100
AcDbCircle
 10
-80226.23060178823
 20
-74580.39031475688
 30
0.0
 40
150.0
100
AcDbArc
 50
0.0
 51
7.326119901791925
  0
ARC
  5
3DAE3
330
1A
100
AcDbEntity
  8
HEWI
  6
Continuous
100
AcDbCircle
 10
-80080.23060178823
 20
-74599.36655575156
 30
0.0
 40
12.3
100
AcDbArc
 50
183.2920310720618
 51
225.0
  0
ARC
  5
3DAE4
330
1A
100
AcDbEntity
  8
HEWI
  6
Continuous
100
AcDbCircle
 10
80080.03060178822
 20
-74599.28371303909
 30
0.0
 40
2.499999999999999
210
0.0
220
0.0
230
-1.0
100
AcDbArc
 50
315.0
 51
332.7468864197527
  0
ARC
  5
3DAE5
330
1A
100
AcDbEntity
  8
HEWI
  6
Continuous
100
AcDbCircle
 10
-80078.44697617292
 20
-74599.39031475688
 30
0.0
 40
1.0
100
AcDbArc
 50
270.0
 51
352.6738800982081
  0
ARC
  5
3DAE6
330
1A
100
AcDbEntity
  8
HEWI
  6
Continuous
100
AcDbCircle
 10
-80078.44697617292
 20
-74561.39031475688
 30
0.0
 40
1.0
100
AcDbArc
 50
7.326119901791925
 51
90.0
  0
ARC
  5
3DAE7
330
1A
100
AcDbEntity
  8
HEWI
  6
Continuous
100
AcDbCircle
 10
-80226.23060178823
 20
-74580.39031475688
 30
0.0
 40
150.0
100
AcDbArc
 50
352.6738800982081
 51
0.0
  0
ARC
  5
3DAE8
330
1A
100
AcDbEntity
  8
HEWI
  6
Continuous
100
AcDbCircle
 10
80041.53060178822
 20
-74648.39031475688
 30
0.0
 40
5.0
210
0.0
220
0.0
230
-1.0
100
AcDbArc
 50
135.0
 51
315.0
  0
ELLIPSE
  5
3DAE9
330
1A
100
AcDbEntity
  8
HEWI
  6
Continuous
100
AcDbEllipse
 10
-79903.62602271622
 20
-74580.39034487601
 30
0.0
 11
-660.500188576432
 21
0.0000081796238881
 31
0.0
210
0.0
220
0.0
230
1.0
 40
0.0302453240726136
 41
1.28831958052735
 42
1.301694128609722
  0
ELLIPSE
  5
3DAEA
330
1A
100
AcDbEntity
  8
HEWI
  6
Continuous
100
AcDbEllipse
 10
-80232.27610042155
 20
-74580.39023615583
 30
0.0
 11
-572.7263102528
 21
0.0000204875720155
 31
0.0
210
0.0
220
0.0
230
1.0
 40
0.0349208309298268
 41
1.828644554044173
 42
1.841306144505227
  0
SPLINE
  5
3DAEB
330
1A
100
AcDbEntity
  8
HEWI
  6
Continuous
100
AcDbSpline
210
0.0
220
0.0
230
1.0
 70
     8
 71
     3
 72
    28
 73
    24
 74
     0
 42
0.0000000001
 43
0.0000000001
 40
0.0
 40
0.0
 40
0.0
 40
0.0
 40
0.0292687305509223
 40
0.0805414057480069
 40
0.131892328850769
 40
0.1833347713024885
 40
0.2348854980053298
 40
0.286550993055563
 40
0.3383220493257333
 40
0.3901606618248912
 40
0.4419927308118262
 40
0.4937237241917069
 40
0.5452347870571934
 40
0.5963937212530506
 40
0.6470717937499515
 40
0.6971624318208411
 40
0.746596465710439
 40
0.7953499523866981
 40
0.843443901008386
 40
0.8909381326591953
 40
0.9379225405201264
 40
0.984508362570609
 40
1.0
 40
1.0
 40
1.0
 40
1.0
 10
-80232.48273442657
 20
-74653.39031475688
 30
0.0
 10
-80232.25333373659
 20
-74653.39031197771
 30
0.0
 10
-80231.62294374735
 20
-74653.37939313086
 30
0.0
 10
-80230.59224259705
 20
-74653.31226300635
 30
0.0
 10
-80229.39954709652
 20
-74653.16085470673
 30
0.0
 10
-80228.22233203335
 20
-74652.93646186918
 30
0.0
 10
-80227.06729451714
 20
-74652.63938558529
 30
0.0
 10
-80225.9410343151
 20
-74652.27011710558
 30
0.0
 10
-80224.8504806678
 20
-74651.82946135049
 30
0.0
 10
-80223.80294098336
 20
-74651.31872419488
 30
0.0
 10
-80222.80603726889
 20
-74650.7399035134
 30
0.0
 10
-80221.8675408811
 20
-74650.09586554709
 30
0.0
 10
-80220.99509761847
 20
-74649.39045035266
 30
0.0
 10
-80220.19595280205
 20
-74648.62855188231
 30
0.0
 10
-80219.4765806441
 20
-74647.81603464171
 30
0.0
 10
-80218.84236371986
 20
-74646.95951611025
 30
0.0
 10
-80218.2974058196
 20
-74646.06606975562
 30
0.0
 10
-80217.84451119621
 20
-74645.14291919126
 30
0.0
 10
-80217.48530404796
 20
-74644.1972126812
 30
0.0
 10
-80217.22042414138
 20
-74643.23580786101
 30
0.0
 10
-80217.0497456915
 20
-74642.26540083582
 30
0.0
 10
-80216.98956240065
 20
-74641.50624067199
 30
0.0
 10
-80216.98273790923
 20
-74641.07373160819
 30
0.0
 10
-80216.98273442657
 20
-74640.96569355442
 30
0.0
  0
SPLINE
  5
3DAEC
330
1A
100
AcDbEntity
  8
HEWI
  6
Continuous
100
AcDbSpline
210
0.0
220
0.0
230
1.0
 70
     8
 71
     3
 72
    23
 73
    19
 74
     0
 42
0.0000000001
 43
0.0000000001
 40
0.0
 40
0.0
 40
0.0
 40
0.0
 40
0.0325963144119647
 40
0.1325798148858083
 40
0.2082439167362568
 40
0.2764246210001048
 40
0.3398577376152416
 40
0.4063053540767388
 40
0.4699013578877301
 40
0.5321439076382091
 40
0.5939251518918044
 40
0.6557238259530953
 40
0.7177260560125727
 40
0.7800804045139538
 40
0.8428204546157404
 40
0.9059048996920164
 40
0.9692449189480758
 40
1.0
 40
1.0
 40
1.0
 40
1.0
 10
-80226.98273442658
 20
-74640.82427219818
 30
0.0
 10
-80226.9825929655
 20
-74640.83175573033
 30
0.0
 10
-80226.98412655119
 20
-74640.86556815655
 30
0.0
 10
-80226.99257177123
 20
-74640.92661790028
 30
0.0
 10
-80227.03865734515
 20
-74641.05955218742
 30
0.0
 10
-80227.1264185744
 20
-74641.22606961765
 30
0.0
 10
-80227.27185781196
 20
-74641.43239941955
 30
0.0
 10
-80227.48741563615
 20
-74641.67211984441
 30
0.0
 10
-80227.78336448181
 20
-74641.9351514683
 30
0.0
 10
-80228.15099724171
 20
-74642.20098272421
 30
0.0
 10
-80228.58894199265
 20
-74642.45977737647
 30
0.0
 10
-80229.09330331389
 20
-74642.70190796289
 30
0.0
 10
-80229.65787220076
 20
-74642.91846369938
 30
0.0
 10
-80230.27450429449
 20
-74643.10162093468
 30
0.0
 10
-80230.93377896032
 20
-74643.24488656059
 30
0.0
 10
-80231.62458844591
 20
-74643.34313680298
 30
0.0
 10
-80232.21325565558
 20
-74643.38426569233
 30
0.0
 10
-80232.56681759026
 20
-74643.39030360976
 30
0.0
 10
-80232.6827344266
 20
-74643.39031475688
 30
0.0
  0
SPLINE
  5
3DAED
330
1A
100
AcDbEntity
  8
HEWI
  6
Continuous
100
AcDbSpline
210
0.0
220
0.0
230
1.0
 70
     8
 71
     3
 72
    28
 73
    24
 74
     0
 42
0.0000000001
 43
0.0000000001
 40
0.0
 40
0.0
 40
0.0
 40
0.0
 40
0.0339496292660155
 40
0.0801043236789653
 40
0.1262238214863688
 40
0.1724434168887362
 40
0.2188951025443624
 40
0.2656998591003007
 40
0.3129611436850025
 40
0.3607575658593649
 40
0.4091356900565014
 40
0.4581046632924707
 40
0.5076347938135024
 40
0.557661769602328
 40
0.6080966621946047
 40
0.6588397386317597
 40
0.7097946130825644
 40
0.7608793810428575
 40
0.812025831938253
 40
0.8631942486014029
 40
0.9143725430233702
 40
0.9655638931531656
 40
1.0
 40
1.0
 40
1.0
 40
1.0
 10
-80826.98273442657
 20
-74640.96569355442
 30
0.0
 10
-80826.98269681534
 20
-74641.20276134685
 30
0.0
 10
-80826.96341335239
 20
-74641.76047795405
 30
0.0
 10
-80826.8611678814
 20
-74642.63619053729
 30
0.0
 10
-80826.65986856001
 20
-74643.58268156265
 30
0.0
 10
-80826.37133675177
 20
-74644.51015168444
 30
0.0
 10
-80825.9974169994
 20
-74645.4141097038
 30
0.0
 10
-80825.53990062944
 20
-74646.29050555243
 30
0.0
 10
-80825.00060712844
 20
-74647.13529105545
 30
0.0
 10
-80824.3815081647
 20
-74647.94437419778
 30
0.0
 10
-80823.68492659401
 20
-74648.71350292055
 30
0.0
 10
-80822.9137700143
 20
-74649.43824153098
 30
0.0
 10
-80822.07174704908
 20
-74650.11402897973
 30
0.0
 10
-80821.16350079546
 20
-74650.73632854412
 30
0.0
 10
-80820.19461060998
 20
-74651.30083431446
 30
0.0
 10
-80819.17145358689
 20
-74651.80367948136
 30
0.0
 10
-80818.10096780808
 20
-74652.24158980356
 30
0.0
 10
-80816.99043045086
 20
-74652.61193251599
 30
0.0
 10
-80815.84720476943
 20
-74652.91272518142
 30
0.0
 10
-80814.67845675543
 20
-74653.14256959898
 30
0.0
 10
-80813.49126868808
 20
-74653.30052574987
 30
0.0
 10
-80812.42282592686
 20
-74653.37665175195
 30
0.0
 10
-80811.75270685726
 20
-74653.39030966327
 30
0.0
 10
-80811.48273442657
 20
-74653.39031475688
 30
0.0
  0
SPLINE
  5
3DAEE
330
1A
100
AcDbEntity
  8
HEWI
  6
Continuous
100
AcDbSpline
210
0.0
220
0.0
230
1.0
 70
     8
 71
     3
 72
    23
 73
    19
 74
     0
 42
0.0000000001
 43
0.0000000001
 40
0.0
 40
0.0
 40
0.0
 40
0.0
 40
0.03080348341235
 40
0.094256933712284
 40
0.157582644091759
 40
0.2206281965932692
 40
0.2833048499586751
 40
0.3455693292528281
 40
0.4074463113598199
 40
0.469058259025911
 40
0.5306650073260295
 40
0.592576304037706
 40
0.6553926612033007
 40
0.7200561489462225
 40
0.7880176689095889
 40
0.8616517464023377
 40
0.9454784880244819
 40
1.0
 40
1.0
 40
1.0
 40
1.0
 10
-80811.28273442658
 20
-74643.39031475688
 30
0.0
 10
-80811.39883555778
 20
-74643.39030353648
 30
0.0
 10
-80811.75300777443
 20
-74643.38424567056
 30
0.0
 10
-80812.34318124012
 20
-74643.34294109045
 30
0.0
 10
-80813.03632043692
 20
-74643.24412920339
 30
0.0
 10
-80813.6983637217
 20
-74643.09980534388
 30
0.0
 10
-80814.31733244309
 20
-74642.91523293032
 30
0.0
 10
-80814.88291136409
 20
-74642.69731677815
 30
0.0
 10
-80815.38638056482
 20
-74642.45449039036
 30
0.0
 10
-80815.82113376038
 20
-74642.19649336311
 30
0.0
 10
-80816.18278817247
 20
-74641.93425581595
 30
0.0
 10
-80816.46991232465
 20
-74641.67939808446
 30
0.0
 10
-80816.68450931841
 20
-74641.44352758677
 30
0.0
 10
-80816.83233599049
 20
-74641.23712184735
 30
0.0
 10
-80816.92267968014
 20
-74641.06866732186
 30
0.0
 10
-80816.96824496344
 20
-74640.94198294615
 30
0.0
 10
-80816.980519738
 20
-74640.87270443932
 30
0.0
 10
-80816.98321409023
 20
-74640.83616029353
 30
0.0
 10
-80816.98273442658
 20
-74640.82427219818
 30
0.0
  0
SPLINE
  5
3DAEF
330
1A
100
AcDbEntity
  8
HEWI
  6
Continuous
100
AcDbSpline
210
0.0
220
0.0
230
1.0
 70
     8
 71
     3
 72
    28
 73
    24
 74
     0
 42
0.0000000001
 43
0.0000000001
 40
0.0
 40
0.0
 40
0.0
 40
0.0
 40
0.0339496292660152
 40
0.0801043236789649
 40
0.1262238214863684
 40
0.1724434168887358
 40
0.2188951025443619
 40
0.2656998591003003
 40
0.3129611436850008
 40
0.3607575658593966
 40
0.4091356900564957
 40
0.4581046632924592
 40
0.5076347938134905
 40
0.5576617696023528
 40
0.6080966621946162
 40
0.6588397386317925
 40
0.7097946130826016
 40
0.7608793810429012
 40
0.8120258319382982
 40
0.8631942486014525
 40
0.9143725430234116
 40
0.9655638931532068
 40
1.0
 40
1.0
 40
1.0
 40
1.0
 10
-80826.98273442657
 20
-74845.27556519257
 30
-0.0000000000000009
 10
-80826.98269681534
 20
-74845.51263298499
 30
-0.0000000000000009
 10
-80826.96341335239
 20
-74846.0703495922
 30
-0.0000000000000008
 10
-80826.8611678814
 20
-74846.94606217543
 30
-0.0000000000000008
 10
-80826.65986856001
 20
-74847.89255320078
 30
-0.0000000000000007
 10
-80826.37133675177
 20
-74848.82002332258
 30
-0.0000000000000007
 10
-80825.9974169994
 20
-74849.72398134194
 30
-0.0000000000000006
 10
-80825.53990062944
 20
-74850.60037719058
 30
-0.0000000000000006
 10
-80825.00060712844
 20
-74851.4451626936
 30
-0.0000000000000005
 10
-80824.3815081647
 20
-74852.25424583593
 30
-0.0000000000000005
 10
-80823.68492659401
 20
-74853.02337455869
 30
-0.0000000000000004
 10
-80822.9137700143
 20
-74853.74811316911
 30
-0.0000000000000004
 10
-80822.07174704908
 20
-74854.42390061789
 30
-0.0000000000000003
 10
-80821.16350079546
 20
-74855.04620018226
 30
-0.0000000000000003
 10
-80820.19461060998
 20
-74855.61070595259
 30
-0.0000000000000003
 10
-80819.17145358689
 20
-74856.1135511195
 30
-0.0000000000000002
 10
-80818.10096780806
 20
-74856.55146144171
 30
-0.0000000000000002
 10
-80816.99043045086
 20
-74856.92180415415
 30
-0.0000000000000002
 10
-80815.84720476943
 20
-74857.22259681957
 30
-0.0000000000000002
 10
-80814.67845675543
 20
-74857.45244123711
 30
-0.0000000000000001
 10
-80813.49126868808
 20
-74857.61039738801
 30
-0.0000000000000001
 10
-80812.42282592686
 20
-74857.6865233901
 30
-0.0000000000000001
 10
-80811.75270685726
 20
-74857.70018130141
 30
-0.0000000000000001
 10
-80811.48273442657
 20
-74857.70018639502
 30
-0.0000000000000001
  0
SPLINE
  5
3DAF0
330
1A
100
AcDbEntity
  8
HEWI
  6
Continuous
100
AcDbSpline
210
0.0
220
0.0
230
1.0
 70
     8
 71
     3
 72
    23
 73
    19
 74
     0
 42
0.0000000001
 43
0.0000000001
 40
0.0
 40
0.0
 40
0.0
 40
0.0
 40
0.0325963144119644
 40
0.1325798148858047
 40
0.2082439167362746
 40
0.276424621000147
 40
0.3398577376152633
 40
0.4063053540767811
 40
0.4699013578877894
 40
0.5321439076382788
 40
0.5939251518918405
 40
0.6557238259531541
 40
0.7177260560125973
 40
0.7800804045139978
 40
0.8428204546157507
 40
0.905904899692037
 40
0.969244918948106
 40
1.0
 40
1.0
 40
1.0
 40
1.0
 10
-80226.98273442658
 20
-74845.13414383633
 30
0.0000000000000009
 10
-80226.9825929655
 20
-74845.14162736848
 30
0.0000000000000009
 10
-80226.98412655119
 20
-74845.17543979469
 30
0.0000000000000009
 10
-80226.99257177123
 20
-74845.23648953842
 30
-0.0000000000000009
 10
-80227.03865734515
 20
-74845.36942382557
 30
-0.0000000000000009
 10
-80227.1264185744
 20
-74845.53594125578
 30
-0.0000000000000009
 10
-80227.27185781196
 20
-74845.7422710577
 30
-0.0000000000000009
 10
-80227.48741563615
 20
-74845.98199148257
 30
-0.0000000000000008
 10
-80227.78336448183
 20
-74846.24502310644
 30
0.0000000000000001
 10
-80228.15099724171
 20
-74846.51085436237
 30
0.0000000000000001
 10
-80228.58894199265
 20
-74846.7696490146
 30
0.0000000000000001
 10
-80229.09330331389
 20
-74847.01177960103
 30
0.0000000000000001
 10
-80229.65787220076
 20
-74847.22833533752
 30
0.0000000000000001
 10
-80230.27450429449
 20
-74847.41149257282
 30
0.0000000000000001
 10
-80230.93377896032
 20
-74847.55475819872
 30
0.0000000000000001
 10
-80231.62458844591
 20
-74847.65300844113
 30
0.0000000000000001
 10
-80232.21325565558
 20
-74847.69413733048
 30
0.0000000000000002
 10
-80232.56681759026
 20
-74847.70017524791
 30
0.0000000000000002
 10
-80232.6827344266
 20
-74847.70018639503
 30
0.0000000000000002
  0
SPLINE
  5
3DAF1
330
1A
100
AcDbEntity
  8
HEWI
  6
Continuous
100
AcDbSpline
210
0.0
220
0.0
230
1.0
 70
     8
 71
     3
 72
    23
 73
    19
 74
     0
 42
0.0000000001
 43
0.0000000001
 40
0.0
 40
0.0
 40
0.0
 40
0.0
 40
0.0308034834123499
 40
0.0942569337122891
 40
0.1575826440917747
 40
0.2206281965932796
 40
0.2833048499586756
 40
0.3455693292528599
 40
0.4074463113598176
 40
0.4690582590259277
 40
0.5306650073260327
 40
0.5925763040377003
 40
0.6553926612033254
 40
0.7200561489462335
 40
0.7880176689096267
 40
0.8616517464023605
 40
0.9454784880245309
 40
1.0
 40
1.0
 40
1.0
 40
1.0
 10
-80811.28273442658
 20
-74847.70018639503
 30
0.0000000000000002
 10
-80811.39883555778
 20
-74847.70017517461
 30
0.0000000000000002
 10
-80811.75300777443
 20
-74847.69411730869
 30
0.0000000000000002
 10
-80812.34318124012
 20
-74847.65281272858
 30
0.0000000000000001
 10
-80813.03632043692
 20
-74847.55400084153
 30
0.0000000000000001
 10
-80813.6983637217
 20
-74847.40967698201
 30
0.0000000000000001
 10
-80814.31733244309
 20
-74847.22510456845
 30
0.0000000000000001
 10
-80814.88291136409
 20
-74847.00718841629
 30
0.0000000000000001
 10
-80815.38638056482
 20
-74846.76436202851
 30
0.0000000000000001
 10
-80815.82113376038
 20
-74846.50636500124
 30
0.0000000000000001
 10
-80816.18278817247
 20
-74846.2441274541
 30
0.0000000000000001
 10
-80816.46991232465
 20
-74845.9892697226
 30
-0.0000000000000008
 10
-80816.68450931841
 20
-74845.75339922492
 30
-0.0000000000000009
 10
-80816.83233599049
 20
-74845.54699348549
 30
-0.0000000000000009
 10
-80816.92267968014
 20
-74845.37853896001
 30
-0.0000000000000009
 10
-80816.96824496344
 20
-74845.25185458429
 30
-0.0000000000000009
 10
-80816.980519738
 20
-74845.18257607747
 30
0.0000000000000009
 10
-80816.98321409023
 20
-74845.14603193167
 30
0.0000000000000009
 10
-80816.98273442658
 20
-74845.13414383633
 30
0.0000000000000009
  0
SPLINE
  5
3DAF2
330
1A
100
AcDbEntity
  8
HEWI
  6
Continuous
100
AcDbSpline
210
0.0
220
0.0
230
1.0
 70
     8
 71
     3
 72
    28
 73
    24
 74
     0
 42
0.0000000001
 43
0.0000000001
 40
0.0
 40
0.0
 40
0.0
 40
0.0
 40
0.0292687305509223
 40
0.0805414057480069
 40
0.131892328850769
 40
0.1833347713024861
 40
0.2348854980053222
 40
0.2865509930555552
 40
0.3383220493257278
 40
0.3901606618248831
 40
0.4419927308118438
 40
0.4937237241917015
 40
0.5452347870572176
 40
0.5963937212530609
 40
0.6470717937499478
 40
0.6971624318208322
 40
0.7465964657104268
 40
0.7953499523866793
 40
0.8434439010083641
 40
0.8909381326591399
 40
0.9379225405200966
 40
0.9845083625705749
 40
1.0
 40
1.0
 40
1.0
 40
1.0
 10
-80232.48273442657
 20
-74857.70018639502
 30
-0.0000000000000001
 10
-80232.25333373659
 20
-74857.70018361584
 30
-0.0000000000000001
 10
-80231.62294374735
 20
-74857.68926476901
 30
-0.0000000000000001
 10
-80230.59224259705
 20
-74857.62213464448
 30
-0.0000000000000001
 10
-80229.39954709652
 20
-74857.47072634486
 30
-0.0000000000000001
 10
-80228.22233203335
 20
-74857.24633350731
 30
-0.0000000000000002
 10
-80227.06729451714
 20
-74856.94925722343
 30
-0.0000000000000002
 10
-80225.9410343151
 20
-74856.57998874372
 30
-0.0000000000000002
 10
-80224.8504806678
 20
-74856.13933298865
 30
-0.0000000000000002
 10
-80223.80294098336
 20
-74855.62859583303
 30
-0.0000000000000003
 10
-80222.80603726889
 20
-74855.04977515153
 30
-0.0000000000000003
 10
-80221.8675408811
 20
-74854.40573718523
 30
-0.0000000000000003
 10
-80220.99509761847
 20
-74853.70032199079
 30
-0.0000000000000004
 10
-80220.19595280205
 20
-74852.93842352045
 30
-0.0000000000000004
 10
-80219.4765806441
 20
-74852.12590627985
 30
-0.0000000000000005
 10
-80218.84236371986
 20
-74851.26938774838
 30
-0.0000000000000005
 10
-80218.2974058196
 20
-74850.37594139375
 30
-0.0000000000000006
 10
-80217.84451119621
 20
-74849.45279082939
 30
-0.0000000000000006
 10
-80217.48530404796
 20
-74848.50708431934
 30
-0.0000000000000007
 10
-80217.22042414138
 20
-74847.54567949917
 30
-0.0000000000000007
 10
-80217.0497456915
 20
-74846.57527247397
 30
-0.0000000000000008
 10
-80216.98956240065
 20
-74845.81611231014
 30
-0.0000000000000009
 10
-80216.98273790923
 20
-74845.38360324632
 30
-0.0000000000000009
 10
-80216.98273442657
 20
-74845.27556519257
 30
-0.0000000000000009
  0
SPLINE
  5
3DAF3
330
1A
100
AcDbEntity
  8
HEWI
  6
Continuous
100
AcDbSpline
210
0.0
220
0.0
230
1.0
 70
     8
 71
     3
 72
    12
 73
     8
 74
     0
 42
0.0000000001
 43
0.0000000001
 40
0.0
 40
0.0
 40
0.0
 40
0.0
 40
0.4999435493239474
 40
0.4999435493239474
 40
0.9998870986478946
 40
0.9998870986478946
 40
1.0
 40
1.0
 40
1.0
 40
1.0
 10
-80087.73060178823
 20
-74599.57565528039
 30
0.0
 10
-80089.08229386532
 20
-74599.55124201122
 30
0.0
 10
-80090.39983303358
 20
-74599.69060976715
 30
0.0
 10
-80092.27322756084
 20
-74600.00454050709
 30
0.0
 10
-80092.83066846419
 20
-74600.15294191663
 30
0.0
 10
-80092.8306026814
 20
-74600.15292608884
 30
0.0
 10
-80092.83060170934
 20
-74600.15292585395
 30
0.0
 10
-80092.83060074166
 20
-74600.15292560139
 30
0.0
  0
SPLINE
  5
3DAF4
330
1A
100
AcDbEntity
  8
HEWI
  6
Continuous
100
AcDbSpline
210
0.0
220
0.0
230
1.0
 70
     8
 71
     3
 72
    12
 73
     8
 74
     0
 42
0.0000000001
 43
0.0000000001
 40
0.0
 40
0.0
 40
0.0
 40
0.0
 40
0.0000772752839135
 40
0.0000772752839135
 40
0.5000386376419569
 40
0.5000386376419569
 40
1.0
 40
1.0
 40
1.0
 40
1.0
 10
-80082.13060311746
 20
-74600.39031441199
 30
0.0
 10
-80082.13060214973
 20
-74600.39031466444
 30
0.0
 10
-80082.13060118071
 20
-74600.3903149118
 30
0.0
 10
-80082.13024338152
 20
-74600.39040615058
 30
0.0
 10
-80082.54943658275
 20
-74600.27444031815
 30
0.0
 10
-80084.0281712901
 20
-74599.97910498882
 30
0.0
 10
-80085.07089164595
 20
-74599.81486126005
 30
0.0
 10
-80086.23060178821
 20
-74599.7549732873
 30
0.0
  0
VIEWPORT
  5
22
102
{ACAD_XDICTIONARY
360
3DAFE
102
}
330
17
100
AcDbEntity
 67
     1
  8
0
100
AcDbViewport
 10
102.801238835773
 20
158.0978495602885
 30
0.0
 40
506.5832670616006
 41
315.7152190709725
 68
     1
 69
     1
 12
102.801238835773
 22
158.0978495602885
 13
0.0
 23
0.0
 14
1.0
 24
1.0
 15
10.0
 25
10.0
 16
0.0
 26
0.0
 36
1.0
 17
0.0
 27
0.0
 37
0.0
 42
50.0
 43
0.0
 44
0.0
 45
315.7152190709725
 50
0.0
 51
0.0
 72
   100
 90
    32800
  1

281
     0
 71
     1
 74
     0
110
0.0
120
0.0
130
0.0
111
1.0
121
0.0
131
0.0
112
0.0
122
1.0
132
0.0
 79
     0
146
0.0
  0
ENDSEC
  0
SECTION
  2
OBJECTS
  0
DICTIONARY
  5
C
330
0
100
AcDbDictionary
281
     1
  3
ACAD_COLOR
350
39BFD
  3
ACAD_GROUP
350
D
  3
ACAD_LAYOUT
350
39BF3
  3
ACAD_MATERIAL
350
39BFC
  3
ACAD_MLINESTYLE
350
E
  3
ACAD_PLOTSETTINGS
350
39BF4
  3
ACAD_PLOTSTYLENAME
350
39BF1
  3
ACAD_TABLESTYLE
350
39C2F
  3
ACAD_VISUALSTYLE
350
39C1E
  3
ACDBVARIABLEDICTIONARY
350
210D7
  3
DWGPROPS
350
3DAFD
  0
DICTIONARY
  5
39C3D
330
2
100
AcDbDictionary
280
     1
281
     1
  3
ACAD_LAYERFILTERS
360
3A6E6
  3
ACAD_LAYERSTATES
360
39C3E
  3
ACLYDICTIONARY
360
3A6E5
  0
DICTIONARY
  5
3B151
330
1A
100
AcDbDictionary
280
     1
281
     1
  3
ACAD_SORTENTS
360
3B152
  0
DICTIONARY
  5
3DAFE
330
22
100
AcDbDictionary
280
     1
281
     1
  3
ACAD_XREC_ROUNDTRIP
360
3DAFF
  0
DICTIONARY
  5
39BFD
102
{ACAD_REACTORS
330
C
102
}
330
C
100
AcDbDictionary
281
     1
  0
DICTIONARY
  5
D
102
{ACAD_REACTORS
330
C
102
}
330
C
100
AcDbDictionary
281
     1
  0
DICTIONARY
  5
39BF3
102
{ACAD_REACTORS
330
C
102
}
330
C
100
AcDbDictionary
281
     1
  3
Layout1
350
39BF6
  3
Model
350
39BF5
  0
DICTIONARY
  5
39BFC
102
{ACAD_REACTORS
330
C
102
}
330
C
100
AcDbDictionary
281
     1
  3
ByBlock
350
39C1C
  3
ByLayer
350
39C1B
  3
Global
350
39C1D
  0
DICTIONARY
  5
E
102
{ACAD_REACTORS
330
C
102
}
330
C
100
AcDbDictionary
281
     1
  3
STANDARD
350
13
  0
DICTIONARY
  5
39BF4
102
{ACAD_REACTORS
330
C
102
}
330
C
100
AcDbDictionary
281
     1
  0
ACDBDICTIONARYWDFLT
  5
39BF1
102
{ACAD_REACTORS
330
C
102
}
330
C
100
AcDbDictionary
281
     1
  3
Normal
350
39BF2
100
AcDbDictionaryWithDefault
340
39BF2
  0
DICTIONARY
  5
39C2F
102
{ACAD_REACTORS
330
C
102
}
330
C
100
AcDbDictionary
281
     1
  3
Standard
350
39C30
  0
DICTIONARY
  5
39C1E
102
{ACAD_REACTORS
330
C
102
}
330
C
100
AcDbDictionary
281
     1
  3
2dWireframe
350
39C24
  3
3D Hidden
350
39C26
  3
3dWireframe
350
39C25
  3
Basic
350
39C23
  3
Brighten
350
39C2A
  3
ColorChange
350
39C2E
  3
Conceptual
350
39C27
  3
Dim
350
39C29
  3
Facepattern
350
39C2D
  3
Flat
350
39C1F
  3
FlatWithEdges
350
39C20
  3
Gouraud
350
39C21
  3
GouraudWithEdges
350
39C22
  3
Linepattern
350
39C2C
  3
Realistic
350
39C28
  3
Thicken
350
39C2B
  0
DICTIONARY
  5
210D7
102
{ACAD_REACTORS
330
C
102
}
330
C
100
AcDbDictionary
281
     1
  3
CTABLESTYLE
350
39C39
  3
DIMASSOC
350
3BD64
  3
INDEXCTL
350
3BD63
  3
SORTENTS
350
210D8
  0
XRECORD
  5
3DAFD
102
{ACAD_REACTORS
330
C
102
}
330
C
100
AcDbXrecord
280
     1
  1
DWGPROPS COOKIE
  2

  3

  4

  6

  7

  8
kaschu
  9

300
=
301
=
302
=
303
=
304
=
305
=
306
=
307
=
308
=
309
=
 40
0.8437323842592592
 41
2450382.434570139
 42
2456469.391927766
  1

 90
        0
  0
DICTIONARY
  5
3A6E6
102
{ACAD_REACTORS
330
39C3D
102
}
330
39C3D
100
AcDbDictionary
281
     1
  0
DICTIONARY
  5
39C3E
102
{ACAD_REACTORS
330
39C3D
102
}
330
39C3D
100
AcDbDictionary
281
     1
  0
DICTIONARY
  5
3A6E5
102
{ACAD_REACTORS
330
39C3D
102
}
330
39C3D
100
AcDbDictionary
281
     1
1001
ACAD
1000
<All
  0
SORTENTSTABLE
  5
3B152
102
{ACAD_REACTORS
330
3B151
102
}
330
3B151
100
AcDbSortentsTable
330
1A
  0
XRECORD
  5
3DAFF
102
{ACAD_REACTORS
330
3DAFE
102
}
330
3DAFE
100
AcDbXrecord
280
     1
102
SHADEPLOT
 70
     0
  0
LAYOUT
  5
39BF6
102
{ACAD_XDICTIONARY
360
39C40
102
}
102
{ACAD_REACTORS
330
39BF3
102
}
330
39BF3
100
AcDbPlotSettings
  1

  2
\\druckserv1\AROABM2L
  4
A4
  6

 40
6.805083274841307
 41
5.069413185119628
 42
6.805084228515625
 43
5.027069091796875
 44
209.9733276367186
 45
296.9683227539062
 46
0.0
 47
0.0
 48
0.0
 49
0.0
140
0.0
141
0.0
142
1.0
143
0.9877294786496324
 70
   688
 72
     1
 73
     0
 74
     1
  7
ctb2004.ctb
 75
     0
147
1.012422957515799
148
-6.623554803105719
149
-1.328897370432399
100
AcDbLayout
  1
Layout1
 70
     1
 71
     1
 10
-0.0980265521206203
 20
-3.678311471965383
 11
207.2988188848241
 21
289.6460551372062
 12
0.0
 22
0.0
 32
0.0
 14
12.55000000000001
 24
41.32999999999998
 34
0.0
 15
195.5499999999999
 25
284.67
 35
0.0
146
0.0
 13
0.0
 23
0.0
 33
0.0
 16
1.0
 26
0.0
 36
0.0
 17
0.0
 27
1.0
 37
0.0
 76
     0
330
17
331
22
  0
LAYOUT
  5
39BF5
102
{ACAD_XDICTIONARY
360
3DB00
102
}
102
{ACAD_REACTORS
330
39BF3
102
}
330
39BF3
100
AcDbPlotSettings
  1

  2
\\PCDRUCK1\AROABM2L
  4

  6

 40
0.0
 41
0.0
 42
0.0
 43
0.0
 44
0.0
 45
0.0
 46
0.0
 47
0.0
 48
0.0
 49
0.0
140
0.0
141
0.0
142
1.0
143
1.0
 70
  1712
 72
     0
 73
     0
 74
     0
  7

 75
     0
147
1.0
148
0.0
149
0.0
100
AcDbLayout
  1
Model
 70
     1
 71
     0
 10
0.0
 20
0.0
 11
12.0
 21
9.0
 12
0.0
 22
0.0
 32
0.0
 14
0.0
 24
0.0
 34
0.0
 15
0.0
 25
0.0
 35
0.0
146
0.0
 13
0.0
 23
0.0
 33
0.0
 16
1.0
 26
0.0
 36
0.0
 17
0.0
 27
1.0
 37
0.0
 76
     0
330
1A
331
39C01
  0
MATERIAL
  5
39C1C
102
{ACAD_XDICTIONARY
360
3BDEF
102
}
102
{ACAD_REACTORS
330
39BFC
102
}
330
39BFC
100
AcDbMaterial
  1
ByBlock
  0
MATERIAL
  5
39C1B
102
{ACAD_XDICTIONARY
360
3BDED
102
}
102
{ACAD_REACTORS
330
39BFC
102
}
330
39BFC
100
AcDbMaterial
  1
ByLayer
  0
MATERIAL
  5
39C1D
102
{ACAD_XDICTIONARY
360
3BDF1
102
}
102
{ACAD_REACTORS
330
39BFC
102
}
330
39BFC
100
AcDbMaterial
  1
Global
  0
MLINESTYLE
  5
13
102
{ACAD_REACTORS
330
E
102
}
330
E
100
AcDbMlineStyle
  2
STANDARD
 70
     0
  3

 62
     0
 51
90.0
 52
90.0
 71
     2
 49
0.5
 62
   256
  6
BYLAYER
 49
-0.5
 62
   256
  6
BYLAYER
  0
ACDBPLACEHOLDER
  5
39BF2
102
{ACAD_REACTORS
330
39BF1
102
}
330
39BF1
  0
TABLESTYLE
  5
39C30
102
{ACAD_XDICTIONARY
360
3DB03
102
}
102
{ACAD_REACTORS
330
39C2F
102
}
330
39C2F
100
AcDbTableStyle
  3
Standard
 70
     0
 71
     0
 40
0.06
 41
0.06
280
     0
281
     0
  7
STANDARD
140
0.18
170
     2
 62
     0
 63
     7
283
     0
274
    -2
284
     1
 64
     0
275
    -2
285
     1
 65
     0
276
    -2
286
     1
 66
     0
277
    -2
287
     1
 67
     0
278
    -2
288
     1
 68
     0
279
    -2
289
     1
 69
     0
  7
STANDARD
140
0.25
170
     5
 62
     0
 63
     7
283
     0
274
    -2
284
     1
 64
     0
275
    -2
285
     1
 65
     0
276
    -2
286
     1
 66
     0
277
    -2
287
     1
 67
     0
278
    -2
288
     1
 68
     0
279
    -2
289
     1
 69
     0
  7
STANDARD
140
0.18
170
     5
 62
     0
 63
     7
283
     0
274
    -2
284
     1
 64
     0
275
    -2
285
     1
 65
     0
276
    -2
286
     1
 66
     0
277
    -2
287
     1
 67
     0
278
    -2
288
     1
 68
     0
279
    -2
289
     1
 69
     0
  0
VISUALSTYLE
  5
39C24
102
{ACAD_REACTORS
330
39C1E
102
}
330
39C1E
100
AcDbVisualStyle
  2
2dWireframe
 70
     4
 71
     0
 72
     2
 73
     0
 90
        0
 40
-0.6
 41
-30.0
 62
     5
 63
     7
 74
     1
 91
        4
 64
     7
 65
   257
 75
     1
175
     1
 42
1.0
 92
        0
 66
   257
 43
1.0
 76
     1
 77
     6
 78
     2
 67
     7
 79
     5
170
     0
171
     0
290
     0
174
     0
 93
        1
 44
0.0
173
     0
291
     0
 45
0.0
1001
ACAD
1000
AcDbSavedByObjectVersion
1070
     0
1000
AcDbSavedByObjectVersion
1070
     0
1000
AcDbSavedByObjectVersion
1070
     0
1000
AcDbSavedByObjectVersion
1070
     0
1000
AcDbSavedByObjectVersion
1070
     0
  0
VISUALSTYLE
  5
39C26
102
{ACAD_REACTORS
330
39C1E
102
}
330
39C1E
100
AcDbVisualStyle
  2
3D Hidden
 70
     6
 71
     1
 72
     2
 73
     2
 90
        0
 40
-0.6
 41
-30.0
 62
     5
 63
     7
 74
     2
 91
        2
 64
     7
 65
   257
 75
     2
175
     1
 42
40.0
 92
        0
 66
   257
 43
1.0
 76
     1
 77
     6
 78
     2
 67
     7
 79
     3
170
     0
171
     0
290
     0
174
     0
 93
        1
 44
0.0
173
     0
291
     0
 45
0.0
1001
ACAD
1000
AcDbSavedByObjectVersion
1070
     0
1000
AcDbSavedByObjectVersion
1070
     0
1000
AcDbSavedByObjectVersion
1070
     0
1000
AcDbSavedByObjectVersion
1070
     0
1000
AcDbSavedByObjectVersion
1070
     0
  0
VISUALSTYLE
  5
39C25
102
{ACAD_REACTORS
330
39C1E
102
}
330
39C1E
100
AcDbVisualStyle
  2
3dWireframe
 70
     5
 71
     0
 72
     2
 73
     0
 90
        0
 40
-0.6
 41
-30.0
 62
     5
 63
     7
 74
     1
 91
        4
 64
     7
 65
   257
 75
     1
175
     1
 42
1.0
 92
        0
 66
   257
 43
1.0
 76
     1
 77
     6
 78
     2
 67
     7
 79
     5
170
     0
171
     0
290
     0
174
     0
 93
        1
 44
0.0
173
     0
291
     0
 45
0.0
1001
ACAD
1000
AcDbSavedByObjectVersion
1070
     0
1000
AcDbSavedByObjectVersion
1070
     0
1000
AcDbSavedByObjectVersion
1070
     0
1000
AcDbSavedByObjectVersion
1070
     0
1000
AcDbSavedByObjectVersion
1070
     0
  0
VISUALSTYLE
  5
39C23
102
{ACAD_REACTORS
330
39C1E
102
}
330
39C1E
100
AcDbVisualStyle
  2
Basic
 70
     7
 71
     1
 72
     0
 73
     1
 90
        0
 40
-0.6
 41
-30.0
 62
     5
 63
     7
 74
     0
 91
        4
 64
     7
 65
   257
 75
     1
175
     1
 42
1.0
 92
        8
 66
     7
 43
1.0
 76
     1
 77
     6
 78
     2
 67
     7
 79
     5
170
     0
171
     0
290
     0
174
     0
 93
        1
 44
0.0
173
     0
291
     1
 45
0.0
1001
ACAD
1000
AcDbSavedByObjectVersion
1070
     0
1000
AcDbSavedByObjectVersion
1070
     0
1000
AcDbSavedByObjectVersion
1070
     0
1000
AcDbSavedByObjectVersion
1070
     0
1000
AcDbSavedByObjectVersion
1070
     0
  0
VISUALSTYLE
  5
39C2A
102
{ACAD_REACTORS
330
39C1E
102
}
330
39C1E
100
AcDbVisualStyle
  2
Brighten
 70
    12
 71
     2
 72
     2
 73
     0
 90
        0
 40
-0.6
 41
-30.0
 62
     5
 63
     7
 74
     1
 91
        4
 64
     7
 65
   257
 75
     1
175
     1
 42
1.0
 92
        8
 66
     7
 43
1.0
 76
     1
 77
     6
 78
     2
 67
     7
 79
     5
170
     0
171
     0
290
     0
174
     0
 93
        1
 44
50.0
173
     0
291
     1
 45
0.0
1001
ACAD
1000
AcDbSavedByObjectVersion
1070
     0
1000
AcDbSavedByObjectVersion
1070
     0
1000
AcDbSavedByObjectVersion
1070
     0
1000
AcDbSavedByObjectVersion
1070
     0
1000
AcDbSavedByObjectVersion
1070
     0
  0
VISUALSTYLE
  5
39C2E
102
{ACAD_REACTORS
330
39C1E
102
}
330
39C1E
100
AcDbVisualStyle
  2
ColorChange
 70
    16
 71
     2
 72
     2
 73
     3
 90
        0
 40
-0.6
 41
-30.0
 62
     5
 63
     8
 74
     1
 91
        4
 64
     7
 65
   257
 75
     1
175
     1
 42
1.0
 92
        8
 66
     8
 43
1.0
 76
     1
 77
     6
 78
     2
 67
     7
 79
     5
170
     0
171
     0
290
     0
174
     0
 93
        1
 44
0.0
173
     0
291
     1
 45
0.0
1001
ACAD
1000
AcDbSavedByObjectVersion
1070
     0
1000
AcDbSavedByObjectVersion
1070
     0
1000
AcDbSavedByObjectVersion
1070
     0
1000
AcDbSavedByObjectVersion
1070
     0
1000
AcDbSavedByObjectVersion
1070
     0
  0
VISUALSTYLE
  5
39C27
102
{ACAD_REACTORS
330
39C1E
102
}
330
39C1E
100
AcDbVisualStyle
  2
Conceptual
 70
     9
 71
     3
 72
     2
 73
     0
 90
        0
 40
-0.6
 41
-30.0
 62
     5
 63
     7
 74
     2
 91
        2
 64
     7
 65
   257
 75
     1
175
     1
 42
40.0
 92
        8
 66
     7
 43
1.0
 76
     1
 77
     6
 78
     2
 67
     7
 79
     3
170
     0
171
     0
290
     0
174
     0
 93
        1
 44
0.0
173
     0
291
     0
 45
0.0
1001
ACAD
1000
AcDbSavedByObjectVersion
1070
     0
1000
AcDbSavedByObjectVersion
1070
     0
1000
AcDbSavedByObjectVersion
1070
     0
1000
AcDbSavedByObjectVersion
1070
     0
1000
AcDbSavedByObjectVersion
1070
     0
  0
VISUALSTYLE
  5
39C29
102
{ACAD_REACTORS
330
39C1E
102
}
330
39C1E
100
AcDbVisualStyle
  2
Dim
 70
    11
 71
     2
 72
     2
 73
     0
 90
        0
 40
-0.6
 41
-30.0
 62
     5
 63
     7
 74
     1
 91
        4
 64
     7
 65
   257
 75
     1
175
     1
 42
1.0
 92
        8
 66
     7
 43
1.0
 76
     1
 77
     6
 78
     2
 67
     7
 79
     5
170
     0
171
     0
290
     0
174
     0
 93
        1
 44
-50.0
173
     0
291
     1
 45
0.0
1001
ACAD
1000
AcDbSavedByObjectVersion
1070
     0
1000
AcDbSavedByObjectVersion
1070
     0
1000
AcDbSavedByObjectVersion
1070
     0
1000
AcDbSavedByObjectVersion
1070
     0
1000
AcDbSavedByObjectVersion
1070
     0
  0
VISUALSTYLE
  5
39C2D
102
{ACAD_REACTORS
330
39C1E
102
}
330
39C1E
100
AcDbVisualStyle
  2
Facepattern
 70
    15
 71
     2
 72
     2
 73
     0
 90
        0
 40
-0.6
 41
-30.0
 62
     5
 63
     7
 74
     1
 91
        4
 64
     7
 65
   257
 75
     1
175
     1
 42
1.0
 92
        8
 66
     7
 43
1.0
 76
     1
 77
     6
 78
     2
 67
     7
 79
     5
170
     0
171
     0
290
     0
174
     0
 93
        1
 44
0.0
173
     0
291
     1
 45
0.0
1001
ACAD
1000
AcDbSavedByObjectVersion
1070
     0
1000
AcDbSavedByObjectVersion
1070
     0
1000
AcDbSavedByObjectVersion
1070
     0
1000
AcDbSavedByObjectVersion
1070
     0
1000
AcDbSavedByObjectVersion
1070
     0
  0
VISUALSTYLE
  5
39C1F
102
{ACAD_REACTORS
330
39C1E
102
}
330
39C1E
100
AcDbVisualStyle
  2
Flat
 70
     0
 71
     2
 72
     1
 73
     1
 90
        2
 40
-0.6
 41
30.0
 62
     5
 63
     7
 74
     0
 91
        4
 64
     7
 65
   257
 75
     1
175
     1
 42
1.0
 92
        8
 66
     7
 43
1.0
 76
     1
 77
     6
 78
     2
 67
     7
 79
     5
170
     0
171
     0
290
     0
174
     0
 93
       13
 44
0.0
173
     0
291
     1
 45
0.0
1001
ACAD
1000
AcDbSavedByObjectVersion
1070
     0
1000
AcDbSavedByObjectVersion
1070
     0
1000
AcDbSavedByObjectVersion
1070
     0
1000
AcDbSavedByObjectVersion
1070
     0
1000
AcDbSavedByObjectVersion
1070
     0
  0
VISUALSTYLE
  5
39C20
102
{ACAD_REACTORS
330
39C1E
102
}
330
39C1E
100
AcDbVisualStyle
  2
FlatWithEdges
 70
     1
 71
     2
 72
     1
 73
     1
 90
        2
 40
-0.6
 41
30.0
 62
     5
 63
     7
 74
     1
 91
        4
 64
     7
 65
   257
 75
     1
175
     1
 42
1.0
 92
        0
 66
   257
 43
1.0
 76
     1
 77
     6
 78
     2
 67
     7
 79
     5
170
     0
171
     0
290
     0
174
     0
 93
       13
 44
0.0
173
     0
291
     1
 45
0.0
1001
ACAD
1000
AcDbSavedByObjectVersion
1070
     0
1000
AcDbSavedByObjectVersion
1070
     0
1000
AcDbSavedByObjectVersion
1070
     0
1000
AcDbSavedByObjectVersion
1070
     0
1000
AcDbSavedByObjectVersion
1070
     0
  0
VISUALSTYLE
  5
39C21
102
{ACAD_REACTORS
330
39C1E
102
}
330
39C1E
100
AcDbVisualStyle
  2
Gouraud
 70
     2
 71
     2
 72
     2
 73
     1
 90
        2
 40
-0.6
 41
30.0
 62
     5
 63
     7
 74
     0
 91
        4
 64
     7
 65
   257
 75
     1
175
     1
 42
1.0
 92
        0
 66
     7
 43
1.0
 76
     1
 77
     6
 78
     2
 67
     7
 79
     5
170
     0
171
     0
290
     0
174
     0
 93
       13
 44
0.0
173
     0
291
     1
 45
0.0
1001
ACAD
1000
AcDbSavedByObjectVersion
1070
     0
1000
AcDbSavedByObjectVersion
1070
     0
1000
AcDbSavedByObjectVersion
1070
     0
1000
AcDbSavedByObjectVersion
1070
     0
1000
AcDbSavedByObjectVersion
1070
     0
  0
VISUALSTYLE
  5
39C22
102
{ACAD_REACTORS
330
39C1E
102
}
330
39C1E
100
AcDbVisualStyle
  2
GouraudWithEdges
 70
     3
 71
     2
 72
     2
 73
     1
 90
        2
 40
-0.6
 41
30.0
 62
     5
 63
     7
 74
     1
 91
        4
 64
     7
 65
   257
 75
     1
175
     1
 42
1.0
 92
        0
 66
   257
 43
1.0
 76
     1
 77
     6
 78
     2
 67
     7
 79
     5
170
     0
171
     0
290
     0
174
     0
 93
       13
 44
0.0
173
     0
291
     1
 45
0.0
1001
ACAD
1000
AcDbSavedByObjectVersion
1070
     0
1000
AcDbSavedByObjectVersion
1070
     0
1000
AcDbSavedByObjectVersion
1070
     0
1000
AcDbSavedByObjectVersion
1070
     0
1000
AcDbSavedByObjectVersion
1070
     0
  0
VISUALSTYLE
  5
39C2C
102
{ACAD_REACTORS
330
39C1E
102
}
330
39C1E
100
AcDbVisualStyle
  2
Linepattern
 70
    14
 71
     2
 72
     2
 73
     0
 90
        0
 40
-0.6
 41
-30.0
 62
     5
 63
     7
 74
     1
 91
        4
 64
     7
 65
   257
 75
     7
175
     7
 42
1.0
 92
        8
 66
     7
 43
1.0
 76
     1
 77
     6
 78
     2
 67
     7
 79
     5
170
     0
171
     0
290
     0
174
     0
 93
        1
 44
0.0
173
     0
291
     1
 45
0.0
1001
ACAD
1000
AcDbSavedByObjectVersion
1070
     0
1000
AcDbSavedByObjectVersion
1070
     0
1000
AcDbSavedByObjectVersion
1070
     0
1000
AcDbSavedByObjectVersion
1070
     0
1000
AcDbSavedByObjectVersion
1070
     0
  0
VISUALSTYLE
  5
39C28
102
{ACAD_REACTORS
330
39C1E
102
}
330
39C1E
100
AcDbVisualStyle
  2
Realistic
 70
     8
 71
     2
 72
     2
 73
     0
 90
        0
 40
-0.6
 41
-30.0
 62
     5
 63
     7
 74
     1
 91
        0
 64
     7
 65
   257
 75
     1
175
     1
 42
1.0
 92
        8
 66
     8
 43
1.0
 76
     1
 77
     6
 78
     2
 67
     7
 79
     5
170
     0
171
     0
290
     0
174
     0
 93
       13
 44
0.0
173
     0
291
     0
 45
0.0
1001
ACAD
1000
AcDbSavedByObjectVersion
1070
     0
1000
AcDbSavedByObjectVersion
1070
     0
1000
AcDbSavedByObjectVersion
1070
     0
1000
AcDbSavedByObjectVersion
1070
     0
1000
AcDbSavedByObjectVersion
1070
     0
  0
VISUALSTYLE
  5
39C2B
102
{ACAD_REACTORS
330
39C1E
102
}
330
39C1E
100
AcDbVisualStyle
  2
Thicken
 70
    13
 71
     2
 72
     2
 73
     0
 90
        0
 40
-0.6
 41
-30.0
 62
     5
 63
     7
 74
     1
 91
        4
 64
     7
 65
   257
 75
     1
175
     1
 42
1.0
 92
       12
 66
     7
 43
1.0
 76
     1
 77
     6
 78
     2
 67
     7
 79
     5
170
     0
171
     0
290
     0
174
     0
 93
        1
 44
0.0
173
     0
291
     1
 45
0.0
1001
ACAD
1000
AcDbSavedByObjectVersion
1070
     0
1000
AcDbSavedByObjectVersion
1070
     0
1000
AcDbSavedByObjectVersion
1070
     0
1000
AcDbSavedByObjectVersion
1070
     0
1000
AcDbSavedByObjectVersion
1070
     0
  0
DICTIONARYVAR
  5
39C39
102
{ACAD_REACTORS
330
210D7
102
}
330
210D7
100
DictionaryVariables
280
     0
  1
STANDARD
  0
DICTIONARYVAR
  5
3BD64
102
{ACAD_REACTORS
330
210D7
102
}
330
210D7
100
DictionaryVariables
280
     0
  1
1
  0
DICTIONARYVAR
  5
3BD63
102
{ACAD_REACTORS
330
210D7
102
}
330
210D7
100
DictionaryVariables
280
     0
  1
0
  0
DICTIONARYVAR
  5
210D8
102
{ACAD_REACTORS
330
210D7
102
}
330
210D7
100
DictionaryVariables
280
     0
  1
96
  0
DICTIONARY
  5
39C40
330
39BF6
100
AcDbDictionary
280
     1
281
     1
  3
ACAD_XREC_ROUNDTRIP
360
3DB02
  3
ADSK_XREC_LAYOUTTHUMBNAIL
360
39C41
  0
DICTIONARY
  5
3DB00
330
39BF5
100
AcDbDictionary
280
     1
281
     1
  3
ACAD_XREC_ROUNDTRIP
360
3DB01
  0
DICTIONARY
  5
3BDEF
330
39C1C
100
AcDbDictionary
280
     1
281
     1
  3
ACAD_XREC_ROUNDTRIP
360
3BDF0
  0
DICTIONARY
  5
3BDED
330
39C1B
100
AcDbDictionary
280
     1
281
     1
  3
ACAD_XREC_ROUNDTRIP
360
3BDEE
  0
DICTIONARY
  5
3BDF1
330
39C1D
100
AcDbDictionary
280
     1
281
     1
  3
ACAD_XREC_ROUNDTRIP
360
3BDF2
  0
DICTIONARY
  5
3DB03
330
39C30
100
AcDbDictionary
280
     1
281
     1
  3
ACAD_XREC_ROUNDTRIP
360
3DB04
  0
XRECORD
  5
3DB02
102
{ACAD_REACTORS
330
39C40
102
}
330
39C40
100
AcDbXrecord
280
     1
102
SHADEPLOT
 70
     1
102
SHADEPLOTRESLEVEL
 70
     2
102
SHADEPLOTCUSTOMDPI
 70
   300
  0
XRECORD
  5
39C41
102
{ACAD_REACTORS
330
39C40
102
}
330
39C40
100
AcDbXrecord
280
     1
310
28000000620000008C0000000100080000000000B036000000000000000000000001000000000000FFFFFF0000000000FFFFFF000000000000000000000000000000000000000000000000000000000000000000330000006600000099000000CC000000FF00000000330000333300006633000099330000CC330000FF3300
310
0000660000336600006666000099660000CC660000FF66000000990000339900006699000099990000CC990000FF99000000CC000033CC000066CC000099CC0000CCCC0000FFCC000000FF000033FF000066FF000099FF0000CCFF0000FFFF000000003300330033006600330099003300CC003300FF003300003333003333
310
33006633330099333300CC333300FF33330000663300336633006666330099663300CC663300FF66330000993300339933006699330099993300CC993300FF99330000CC330033CC330066CC330099CC3300CCCC3300FFCC330000FF330033FF330066FF330099FF3300CCFF3300FFFF330000006600330066006600660099
310
006600CC006600FF00660000336600333366006633660099336600CC336600FF33660000666600336666006666660099666600CC666600FF66660000996600339966006699660099996600CC996600FF99660000CC660033CC660066CC660099CC6600CCCC6600FFCC660000FF660033FF660066FF660099FF6600CCFF6600
310
FFFF660000009900330099006600990099009900CC009900FF00990000339900333399006633990099339900CC339900FF33990000669900336699006666990099669900CC669900FF66990000999900339999006699990099999900CC999900FF99990000CC990033CC990066CC990099CC9900CCCC9900FFCC990000FF99
310
0033FF990066FF990099FF9900CCFF9900FFFF99000000CC003300CC006600CC009900CC00CC00CC00FF00CC000033CC003333CC006633CC009933CC00CC33CC00FF33CC000066CC003366CC006666CC009966CC00CC66CC00FF66CC000099CC003399CC006699CC009999CC00CC99CC00FF99CC0000CCCC0033CCCC0066CC
310
CC0099CCCC00CCCCCC00FFCCCC0000FFCC0033FFCC0066FFCC0099FFCC00CCFFCC00FFFFCC000000FF003300FF006600FF009900FF00CC00FF00FF00FF000033FF003333FF006633FF009933FF00CC33FF00FF33FF000066FF003366FF006666FF009966FF00CC66FF00FF66FF000099FF003399FF006699FF009999FF00CC
310
99FF00FF99FF0000CCFF0033CCFF0066CCFF0099CCFF00CCCCFF00FFCCFF0000FFFF0033FFFF0066FFFF0099FFFF00CCFFFF00FFFFFF00000000000D0D0D001A1A1A00282828003535350043434300505050005D5D5D006B6B6B00787878008686860093939300A1A1A100AEAEAE00BBBBBB00C9C9C900D6D6D600E4E4E400
310
F1F1F100FFFFFF0000000000000000000000000000000000000000000000000000000000000000000000000000000000E2E2E2E2E2E2E2E2E2E2E2E2E2E2E2E2E2E2E2E2E2E2E2E2E2E2E2E2E2E2E2E2E2E2E2E2E2E2E2E2E2E2E2E2E2E2E2E2E2E2E2E2E2E2E2E2E2E2E2E2E2E2E2E2E2E2E2E2E2E2E2E2E2E2E2E2E2E2E2
310
E2E2E2E2E2E2E2E2E2E2E2E2E2E2E2E2E2E2E2813EE2F5F5F5F5F5F5F5F5F5F5F5F5F5F5F5F5F5F5F5F5F5F5F5F5F5F5F5F5F5F5F5F5F5F5F5F5F5F5F5F5F5F5F5F5F5F5F5F5F5F5F5F5F5F5F5F5F5F5F5F5F5F5F5F5F5F5F5F5F5F5F5F5F5F5F5F5F5F5F5F5F5F5F5F5F5F5F5F5F5F5F5F5F5F5F5F5F5AC45E2F5F5F5F5F5
310
F5F5F5F5F5F5F5F5F5F5F5F5F5F5F5F5F5F5F5F5F5F5F5F5F5F5F5F5F5F5F5F5F5F5F5F5F5F5F5F5F5F5F5F5F5F5F5F5F5F5F5F5F5F5F5F5F5F5F5F5F5F5F5F5F5F5F5F5F5F5F5F5F5F5F5F5F5F5F5F5F5F5F5F5F5F5F5F5F5F5F5F5B33EE2F5F5E2E2E2E2E2E2E2E2F5F5F5F5F5F5F5F5E2E2E2E2E2E2E2E2E2E2E2E2E2E2
310
E2F5F5F5F5F5F5F5F5E2E2E2E2E2E2E2E2E2E2E2E2E2E2E2F5F5F5F5F5F5F5F5E2E2E2E2E2E2E2E2E2E2E2E2E2E2E2F5F5F5F5F5F5F5F5E2E2E2E2E2E2E2E2F5F5B645E2F5F5E2F5F5F5F5F5F5F5F5F5F5F5F5F5F5F5F5F5F5F5F5F5F5F5F5F5F5F5F5F5F5F5F5F5F5F5F5F5F5F5F5F5F5F5F5F5F5F5F5F5F5F5F5F5F5F5F5
310
F5F5F5F5F5F5F5F5F5F5F5F5F5F5F5F5F5F5F5F5F5F5F5F5F5F5F5F5F5F5F5F5F5F5F5E2F5F5053FE2F5F5E2F5F5F5F5F5F5F5F5F5F5F5F5F5F5F5F5F5F5F5F5F5F5F5F5F5F5F5F5F5F5F5F5F5F5F5F5F5F5F5F5F5F5F5F5F5F5F5F5F5F5F5F5F5F5F5F5F5F5F5F5F5F5F5F5F5F5F5F5F5F5F5F5F5F5F5F5F5F5F5F5F5F5F5
310
F5F5F5F5F5F5F5F5E2F5F5C745E2F5F5E2F5F5F5F5F5F5F5F5F5F5F5F5F5F5F5F5F5F5F5F5F5F5F5F5F5F5F5F5F5F5F5F5F5F5F5F5F5F5F5F5F5F5F5F5F5F5F5F5F5F5F5F5F5F5F5F5F5F5F5F5F5F5F5F5F5F5F5F5F5F5F5F5F5F5F5F5F5F5F5F5F5F5F5F5F5F5F5F5F5F5F5E2F5F5303FE2F5F5E2F5F5F5F5F5F5F5F5F5F5
310
F5F5F5F5F5F5F5F5F5F5F5F5F5F5F5F5F5F5F5F5F5F5F5F5F5F5F5F5F5F5F5F5F5F5F5F5F5F5F5F5F5F5F5F5F5F5F5F5F5F5F5F5F5F5F5F5F5F5F5F5F5F5F5F5F5F5F5F5F5F5F5F5F5F5F5F5F5F5F5F5F5E2F5F59745E2F5F5E2F5F5F5F5F5F5F5F5F5F5F5F5F5F5F5F5F5F5F5F5F5F5F5F5F5F5F5F5F5F5F5F5F5F5F5F5F5
310
F5F5F5F5F5F5F5F5F5F5F5F5F5F5F5F5F5F5F5F5F5F5F5F5F5F5F5F5F5F5F5F5F5F5F5F5F5F5F5F5F5F5F5F5F5F5F5F5F5F5F5F5F5F5E2F5F5043DE2F5F5E2F5F5F5F5F5F5F5F5F5F5F5F5F5F5F5F5F5F5F5F5F5F5F5F5F5F5F5F5F5F5F5F5F5F5F5F5F5F5F5F5F5F5F5F5F5F5F5F5F5F5F5F5F5F5F5F5F5F5F5F5F5F5F5F5
310
F5F5F5F5F5F5F5F5F5F5F5F5F5F5F5F5F5F5F5F5F5F5F5F5F5F5F5E2F5F57045E2F5F5E2F5F5F5F5F5F5F5F5F5F5F5F5F5F5F5F5F5F5F5F5F5F5F5F5F5F5F5F5F5F5F5F5F5F5F5F5F5F5F5F5F5F5F5F5F5F5F5F5F5F5F5F5F5F5F5F5F5F5F5F5F5F5F5F5F5F5F5F5F5F5F5F5F5F5F5F5F5F5F5F5F5F5F5F5F5F5F5F5F5F5F5
310
E2F5F5473DE2F5F5E2F5F5F5F5F5F5F5F5F5F5F5F5F5F5F5F5F5F5F5F5F5F5F5F5F5F5F5F5F5F5F5F5F5F5F5F5F5F5F5F5F5F5F5F5F5F5F5F5F5F5F5F5F5F5F5F5F5F5F5F5F5F5F5F5F5F5F5F5F5F5F5F5F5F5F5F5F5F5F5F5F5F5F5F5F5F5F5F5F5F5F5E2F5F54345E2F5F5F5F5F5F5F5F5F5F5F5F5F5F5F5F5F5F5F5F5F5
310
F5F5F5F5F5F5F5F5F5F5F5F5F5F5F5F5F5F5F5F5F5F5F5F5F5F5F5F5F5F5F5F5F5F5F5F5F5F5F5F5F5F5F5F5F5F5F5F5F5F5F5F5F5F5F5F5F5F5F5F5F5F5F5F5F5F5F5F5F5F5F5F5F5F5F5F57D3DE2F5F5F5F5F5F5F5F5F5F5F5F5F5F5F5F5F5F5F5F5F5F5F5F5F5F5F5F5F5F5F5F5F5F5F5F5F5F5F5F5F5F5F5F5F5F5F5F5
310
F5F5F5F5F5F5F5F5F5F5F5F5F5F5F5F5F5F5F5F5F5F5F5F5F5F5F5F5F5F5F5F5F5F5F5F5F5F5F5F5F5F5F5F5F5F5F5F5F57045E2F5F5F5F5F5F5F5F5F5F5F5F5F5F5F5F5F5F5F5F5F5F5F5F5F5F5F5F5F5F5F5F5F5F5F5F5F5F5F5F5F5F5F5F5F5F5F5F5F5F5F5F5F5F5F5F5F5F5F5F5F5F5F5F5F5F5F5F5F5F5F5F5F5F5F5
310
F5F5F5F5F5F5F5F5F5F5F5F5F5F5F5F5F5F5F5F5F5F5B33DE2F5F5F5F5F5F5F5F5F5F5F5F5F5F5F5F5F5F5F5F5F5F5F5F5F5F5F5F5F5F5F5F5F5F5F5F5F5F5F5F5F5F5F5F5F5F5F5F5F5F5F5F5F5F5F5F5F5F5F5F5F5F5F5F5F5F5F5F5F5F5F5F5F5F5F5F5F5F5F5F5F5F5F5F5F5F5F5F5F5F5F5F5F5F5F5F5F54345E2F5F5
310
F5F5F5F5F5F5F5F5F5F5F5F5F5F5F5F5F5F5F5F5F5F5F5F5F5F5F5F5F5F5F5F5F5F5F5F5F5F5F5F5F5F5F5F5F5F5F5F5F5F5F5F5F5F5F5F5F5F5F5F5F5F5F5F5F5F5F5F5F5F5F5F5F5F5F5F5F5F5F5F5F5F5F5F5F5F5F5F5F5F5F5F5F5F5F5EA3DE2F5F5F5F5F5F5F5F5F5F5F5F5F5F5F5F5F5F5F5F5F5F5F5F5F5F5F5F5F5
310
F5F5F5F5F5F5F5F5F5F5F5F5F5F5F5F5F5F5F5F5F5F5F5F5F5F5F5F5F5F5F5F5F5F5F5F5F5F5F5F5F5F5F5F5F5F5F5F5F5F5F5F5F5F5F5F5F5F5F5F5F5F5F5F5F5F5F5F54045E2F5F5F5F5F5F5F5F5F5F5F5F5F5F5F5F5F5F5F5F5F5F5F5F5F5F5F5F5F5F5F5F5F5F5F5F5F5F5F5F5F5F5F5F5F5F5F5F5F5F5F5F5F5F5F5F5
310
F5F5F5F5F5F5F5F5F5F5F5F5F5F5F5F5F5F5F5F5F5F5F5F5F5F5F5F5F5F5F5F5F5F5F5F5F5F5F5F5F5513EE2F5F5F5F5F5F5F5F5F5F5F5F5F5F5F5F5F5F5F5F5F5F5F5F5F5F5F5F5F5F5F5F5F5F5F5F5F5F5F5F5F5F5F5F5F5F5F5F5F5F5F5F5F5F5F5F5F5F5F5F5F5F5F5F5F5F5F5F5F5F5F5F5F5F5F5F5F5F5F5F5F5F5F5
310
F5F5F5F5F5F5F5F5F5F5F5F5F5F55445E2F5F5F5F5F5F5F5F5F5F5F5F5F5F5F5F5F5F5F5F5F5F5F5F5F5F5F5F5F5F5F5F5F5F5F5F5F5F5F5F5F5F5F5F5F5F5F5F5F5F5F5F5F5F5F5F5F5F5F5F5F5F5F5F5F5F5F5F5F5F5F5F5F5F5F5F5F5F5F5F5F5F5F5F5F5F5F5F5F5F5F5F5F5F5F5F5F5913EE2F5F5E2F5F5F5F5F5F5F5
310
F5F5F5F5F5F5F5F5F5F5F5F5F5F5F5F5F5F5F5F5F5F5F5F5F5F5F5F5F5F5F5F5F5F5F5F5F5F5F5F5F5F5F5F5F5F5F5F5F5F5F5F5F5F5F5F5F5F5F5F5F5F5F5F5F5F5F5F5F5F5F5F5F5F5F5F5F5F5F5F5F5F5F5F5E2F5F57345E2F5F5E2F5F5F5F5F5F5F5F5F5F5F5F5F5F5F5F5F5F5F5F5F5F5F5F5F5F5F5F5F5F5F5F5F5F5
310
F5F5F5F5F5F5F5F5F5F5F5F5F5F5F5F5F5F5F5F5F5F5F5F5F5F5F5F5F5F5F5F5F5F5F5F5F5F5F5F5F5F5F5F5F5F5F5F5F5F5F5F5F5F5F5F5F5E2F5F5C03EE2F5F5E2F5F5F5F5F5F5F5F5F5F5F5F5F5F5F5F5F5F5F5F5F5F5F5F5F5F5F5F5F5F5F5F5F5F5F5F5F5F5F5F5F5F5F5F5F5F5F5F5F5F5F5F5F5F5F5F5F5F5F5F5F5
310
F5F5F5F5F5F5F5F5F5F5F5F5F5F5F5F5F5F5F5F5F5F5F5F5F5F5F5F5F5F5E2F5F54045E2F5F5E2F5F5F5F5F5F5F5F5F5F5F5F5F5F5F5F5F5F5F5F5F5F5F5F5F5F5F5F5F5F5F5F5F5F5F5F5F5F5F5F5F5F5F5F5F5F5F5F5F5F5F5F5F5F5F5F5F5F5F5F5F5F5F5F5F5F5F5F5F5F5F5F5F5F5F5F5F5F5F5F5F5F5F5F5F5F5F5F5
310
F5F5F5E2F5F5243FE2F5F5E2F5F5F5F5F5F5F5F5F5F5F5F5F5F5F5F5F5F5F5F5F5F5F5F5F5F5F5F5F5F5F5F5F5F5F5F5F5F5F5F5F5F5F5F5F5F5F5F5F5F5F5F5F5F5F5F5F5F5F5F5F5F5F5F5F5F5F5F5F5F5F5F5F5F5F5F5F5F5F5F5F5F5F5F5F5F5F5F5F5F5F5E2F5F54345E2F5F5E2F5F5F5F5F5F5F5F5F5F5F5F5F5F5F5
310
F5F5F5F5F5F5F5F5F5F5F5F5F5F5F5F5F5F5F5F5F5F5F5F5F5F5F5F5F5F5F5F5F5F5F5F5F5F5F5F5F5F5F5F5F5F5F5F5F5F5F5F5F5F5F5F5F5F5F5F5F5F5F5F5F5F5F5F5F5F5F5F5F5F5F5F5E2F5F5443FE2F5F5E2F5F5F5F5F5F5F5F5F5F5F5F5F5F5F5F5F5F5F5F5F5F5F5F5F5F5F5F5F5F5F5F5F5F5F5F5F5F5F5F5F5F5
310
F5F5F5F5F5F5F5F5F5F5F5F5F5F5F5F5F5F5F5F5F5F5F5F5F5F5F5F5F5F5F5F5F5F5F5F5F5F5F5F5F5F5F5F5F5F5F5F5F5E2F5F55B45E2F5F5E2F5F5F5F5F5F5F5F5F5F5F5F5F5F5F5F5F5F5F5F5F5F5F5F5F5F5F5F5F5F5F5F5F5F5F5F5F5F5F5F5F5F5F5F5F5F5F5F5F5F5F5F5F5F5F5F5F5F5F5F5F5F5F5F5F5F5F5F5F5
310
F5F5F5F5F5F5F5F5F5F5F5F5F5F5F5F5F5F5F5F5F5F5E2F5F5483FE2F5F5E2F5F5F5F5F5F5F5F5F5F5F5F5F5F5F5F5F5F5F5F5F5F5F5F5F5F5F5F5F5F5F5F5F5F5F5F5F5F5F5F5F5F5F5F5F5F5F5F5F5F5F5F5F5F5F5F5F5F5F5F5F5F5F5F5F5F5F5F5F5F5F5F5F5F5F5F5F5F5F5F5F5F5F5F5F5F5F5F5F5F5F5E2F5F5EC44
310
E2F5F5E2F5F5F5F5F5F5F5F5F5F5F5F5F5F5F5F5F5F5F5F5F5F5F5F5F5F5F5F5F5F5F5F5F5F5F5F5F5F5F5F5F5F5F5F5F5F5F5F5F5F5F5F5F5F5F5F5F5F5F5F5F5F5F5F5F5F5F5F5F5F5F5F5F5F5F5F5F5F5F5F5F5F5F5F5F5F5F5F5F5F5F5E2F5F5583DE2F5F5E2F5F5F5F5F5F5F5F5F5F5F5F5F5F5F5F5F5F5F5F5F5F5F5
310
F5F5F5F5F5F5F5F5F5F5F5F5F5F5F5F5F5F5F5F5F5F5F5F5F5F5F5F5F5F5F5F5F5F5F5F5F5F5F5F5F5F5F5F5F5F5F5F5F5F5F5F5F5F5F5F5F5F5F5F5F5F5F5F5F5F5F5F5E2F5F50B45E2F5F5E2F5F5F5F5F5F5F5F5F5F5F5F5F5F5F5F5F5F5F5F5F5F5F5F5F5F5F5F5F5F5F5F5F5F5F5F5F5F5F5F5F5F5F5F5F5F5F5F5F5F5
310
F5F5F5F5F5F5F5F5F5F5F5F5F5F5F5F5F5F5F5F5F5F5F5F5F5F5F5F5F5F5F5F5F5F5F5F5F5F5F5F5F5E2F5F57C3DE2F5F5E2F5F5F5F5F5F5F5F5F5F5F5F5F5F5F5F5F5F5F5F5F5F5F5F5F5F5F5F5F5F5F5F5F5F5F5F5F5F5F5F5F5F5F5F5F5F5F5F5F5F5F5F5F5F5F5F5F5F5F5F5F5F5F5F5F5F5F5F5F5F5F5F5F5F5F5F5F5
310
F5F5F5F5F5F5F5F5F5F5F5F5F5F5E2F5F50E45E2F5F5E2F5F5F5F5F5F5F5F5F5F5F5F5F5F5F5F5F5F5F5F5F5F5F5F5F5F5F5F5F5F5F5F5F5F5F5F5F5F5F5F5F5F5F5F5F5F5F5F5F5F5F5F5F5F5F5F5F5F5F5F5F5F5F5F5F5F5F5F5F5F5F5F5F5F5F5F5F5F5F5F5F5F5F5F5F5F5F5F5F5F5F5E2F5F5A73DE2F5F5E2F5F5F5F5
310
F5F5F5F5F5F5F5F5F5F5F5F5F5F5F5F5F5F5F5F5F5F5F5F5F5F5F5F5F5F5F5F5F5F5F5F5F5F5F5F5F5F5F5F5F5F5F5F5F5F5F5F5F5F5F5F5F5F5F5F5F5F5F5F5F5F5F5F5F5F5F5F5F5F5F5F5F5F5F5F5F5F5F5F5F5F5F5E2F5F5EC44E2F5F5E2F5F5F5F5F5F5F5F5F5F5F5F5F5F5F5F5F5F5F5F5F5F5F5F5F5F5F5F5F5F5F5
310
F5F5F5F5F5F5F5F5F5F5F5F5F5F5F5F5F5F5F5F5F5F5F5F5F5F5F5F5F5F5F5F5F5F5F5F5F5F5F5F5F5F5F5F5F5F5F5F5F5F5F5F5F5F5F5F5F5F5F5F5E2F5F5D93DE2F5F5E2F5F5F5F5F5F5F5F5F5F5F5F5F5F5F5F5F5F5F5F5F5F5F5F5F5F5F5F5F5F5F5F5F5F5F5F5F5F5F5F5F5F5F5F5F5F5F5F5F5F5F5F5F5F5F5F5F5F5
310
F5F5F5F5F5F5F5F5F5F5F5F5F5F5F5F5F5F5F5F5F5F5F5F5F5F5F5F5F5F5F5F5F5E2F5F5F344E2F5F5F5F5F5F5F5F5F5F5F5F5F5F5F5F5F5F5F5F5F5F5F5F5F5F5F5F5F5F5F5F5F5F5F5F5F5F5F5F5F5F5F5F5F5F5F5F5F5F5F5F5F5F5F5F5F5F5F5F5F5F5F5F5F5F5F5F5F5F5F5F5F5F5F5F5F5F5F5F5F5F5F5F5F5F5F5F5
310
F5F5F5F5F5F5F5F5F5F73CE2F5F5F5F5F5F5F5F5F5F5F5F5F5F5F5F5F5F5F5F5F5F5F5F5F5F5F5F5F5F5F5F5F5F5F5F5F5F5F5F5F5F5F5F5F5F5F5F5F5F5F5F5F5F5F5F5F5F5F5F5F5F5F5F5F5F5F5F5F5F5F5F5F5F5F5F5F5F5F5F5F5F5F5F5F5F5F5F5F5F5F5F5F5F5F5F5F5B344E2F5F5F5F5F5F5F5F5F5F5F5F5F5F5F5
310
F5F5F5F5F5F5F5F5F5F5F5F5F5F5F5F5F5F5F5F5F5F5F5F5F5F5F5F5F5F5F5F5F5F5F5F5F5F5F5F5F5F5F5F5F5F5F5F5F5F5F5F5F5F5F5F5F5F5F5F5F5F5F5F5F5F5F5F5F5F5F5F5F5F5F5F5F5F5F5F5F5F56A3DE2F5F5F5F5F5F5F5F5F5F5F5F5F5F5F5F5F5F5F5F5F5F5F5F5F5F5F5F5F5F5F5F5F5F5F5F5F5F5F5F5F5F5
310
F5F5F5F5F5F5F5F5F5F5F5F5F5F5F5F5F5F5F5F5F5F5F5F5F5F5F5F5F5F5F5F5F5F5F5F5F5F5F5F5F5F5F5F5F5F5F5F5F5F5F5F5F5F5F5BA44E2F5F5F5F5F5F5F5F5F5F5F5F5F5F5F5F5F5F5F5F5F5F5F5F5F5F5F5F5F5F5F5F5F5F5F5F5F5F5F5F5F5F5F5F5F5F5F5F5F5F5F5F5F5F5F5F5F5F5F5F5F5F5F5F5F5F5F5F5F5
310
F5F5F5F5F5F5F5F5F5F5F5F5F5F5F5F5F5F5F5F5F5F5F5F5F5F5F5F59D3DE2F5F5F5F5F5F5F5F5F5F5F5F5F5F5F5F5F5F5F5F5F5F5F5F5F5F5F5F5F5F5F5F5F5F5F5F5F5F5F5F5F5F5F5F5F5F5F5F5F5F5F5F5F5F5F5F5F5F5F5F5F5F5F5F5F5F5F5F5F5F5F5F5F5F5F5F5F5F5F5F5F5F5F5F5F5F5F5F5F5F5F5F5F5F5F5F5
310
F5AB44E2F5F5F5F5F5F5F5F5F5F5F5F5F5F5F5F5F5F5F5F5F5F5F5F5F5F5F5F5F5F5F5F5F5F5F5F5F5F5F5F5F5F5F5F5F5F5F5F5F5F5F5F5F5F5F5F5F5F5F5F5F5F5F5F5F5F5F5F5F5F5F5F5F5F5F5F5F5F5F5F5F5F5F5F5F5F5F5F5F5F5F5F5F5F5F5F5F5EA3DE2F5F5F5F5F5F5F5F5F5F5F5F5F5F5F5F5F5F5F5F5F5F5F5
310
F5F5F5F5F5F5F5F5F5F5F5F5F5F5F5F5F5F5F5F5F5F5F5F5F5F5F5F5F5F5F5F5F5F5F5F5F5F5F5F5F5F5F5F5F5F5F5F5F5F5F5F5F5F5F5F5F5F5F5F5F5F5F5F5F5F5F5F5F5F5F5F5F5F5C844E2F5F5F5F5F5F5F5F5F5F5F5F5F5F5F5F5F5F5F5F5F5F5F5F5F5F5F5F5F5F5F5F5F5F5F5F5F5F5F5F5F5F5F5F5F5F5F5F5F5F5
310
F5F5F5F5F5F5F5F5F5F5F5F5F5F5F5F5F5F5F5F5F5F5F5F5F5F5F5F5F5F5F5F5F5F5F5F5F5F5F5F5F5F5F5F5F5F5F5F93CE2F5F5F5F5F5F5F5F5F5F5F5F5F5F5F5F5F5F5F5F5F5F5F5F5F5F5F5F5F5F5F5F5F5F5F5F5F5F5F5F5F5F5F5F5F5F5F5F5F5F5F5F5F5F5F5F5F5F5F5F5F5F5F5F5F5F5F5F5F5F5F5F5F5F5F5F5F5
310
F5F5F5F5F5F5F5F5F5F5F5F5F5F5F5F5F5F5F5F54444E2F5F5E2F5F5F5F5F5F5F5F5F5F5F5F5F5F5F5F5F5F5F5F5F5F5F5F5F5F5F5F5F5F5F5F5F5F5F5F5F5F5F5F5F5F5F5F5F5F5F5F5F5F5F5F5F5F5F5F5F5F5F5F5F5F5F5F5F5F5F5F5F5F5F5F5F5F5F5F5F5F5F5F5F5F5F5F5F5F5F5F5F5F5F5E2F5F5673DE2F5F5E2F5
310
F5F5F5F5F5F5F5F5F5F5F5F5F5F5F5F5F5F5F5F5F5F5F5F5F5F5F5F5F5F5F5F5F5F5F5F5F5F5F5F5F5F5F5F5F5F5F5F5F5F5F5F5F5F5F5F5F5F5F5F5F5F5F5F5F5F5F5F5F5F5F5F5F5F5F5F5F5F5F5F5F5F5F5F5F5F5F5F5F5F5E2F5F54B44E2F5F5E2F5F5F5F5F5F5F5F5F5F5F5F5F5F5F5F5F5F5F5F5F5F5F5F5F5F5F5F5
310
F5F5F5F5F5F5F5F5F5F5F5F5F5F5F5F5F5F5F5F5F5F5F5F5F5F5F5F5F5F5F5F5F5F5F5F5F5F5F5F5F5F5F5F5F5F5F5F5F5F5F5F5F5F5F5F5F5F5F5F5F5F5F5E2F5F58D3DE2F5F5E2F5F5F5F5F5F5F5F5F5F5F5F5F5F5F5F5F5F5F5F5F5F5F5F5F5F5F5F5F5F5F5F5F5F5F5F5F5F5F5F5F5F5F5F5F5F5F5F5F5F5F5F5F5F5F5
310
F5F5F5F5F5F5F5F5F5F5F5F5F5F5F5F5F5F5F5F5F5F5F5F5F5F5F5F5F5F5F5F5F5F5F5F5E2F5F54444E2F5F5E2F5F5F5F5F5F5F5F5F5F5F5F5F5F5F5F5F5F5F5F5F5F5F5F5F5F5F5F5F5F5F5F5F5F5F5F5F5F5F5F5F5F5F5F5F5F5F5F5F5F5F5F5F5F5F5F5F5F5F5F5F5F5F5F5F5F5F5F5F5F5F5F5F5F5F5F5F5F5F5F5F5F5
310
F5F5F5F5F5F5F5F5F5E2F5F5D23DE2F5F5E2F5F5F5F5F5F5F5F5F5F5F5F5F5F5F5F5F5F5F5F5F5F5F5F5F5F5F5F5F5F5F5F5F5F5F5F5F5F5F5F5F5F5F5F5F5F5F5F5F5F5F5F5F5F5F5F5F5F5F5F5F5F5F5F5F5F5F5F5F5F5F5F5F5F5F5F5F5F5F5F5F5F5F5F5F5F5F5F5F5F5F5E2F5F54444E2F5F5E2F5F5F5F5F5F5F5F5F5
310
F5F5F5F5F5F5F5F5F5F5F5F5F5F5F5F5F5F5F5F5F5F5F5F5F5F5F5F5F5F5F5F5F5F5F5F5F5F5F5F5F5F5F5F5F5F5F5F5F5F5F5F5F5F5F5F5F5F5F5F5F5F5F5F5F5F5F5F5F5F5F5F5F5F5F5F5F5F5F5F5F5F5E2F5F5F43DE2F5F5E2F5F5F5F5F5F5F5F5F5F5F5F5F5F5F5F5F5F5F5F5F5F5F5F5F5F5F5F5F5F5F5F5F5F5F5F5
310
F5F5F5F5F5F5F5F5F5F5F5F5F5F5F5F5F5F5F5F5F5F5F5F5F5F5F5F5F5F5F5F5F5F5F5F5F5F5F5F5F5F5F5F5F5F5F5F5F5F5F5F5F5F5F5E2F5F56344E2F5F5E2F5F5F5F5F5F5F5F5F5F5F5F5F5F5F5F5F5F5F5F5F5F5F5F5F5F5F5F5F5F5F5F5F5F5F5F5F5F5F5F5F5F5F5F5F5F5F5F5F5F5F5F5F5F5F5F5F5F5F5F5F5F5F5
310
F5F5F5F5F5F5F5F5F5F5F5F5F5F5F5F5F5F5F5F5F5F5F5F5F5F5F5F5E2F5F5163EE2F5F5E2F5F5F5F5F5F5F5F5F5F5F5F5F5F5F5F5F5F5F5F5F5F5F5F5F5F5F5F5F5F5F5F5F5F5F5F5F5F5F5F5F5F5F5F5F5F5F5F5F5F5F5F5F5F5F5F5F5F5F5F5F5F5F5F5F5F5F5F5F5F5F5F5F5F5F5F5F5F5F5F5F5F5F5F5F5F5F5F5F5F5
310
F5E2F5F54444E2F5F5E2F5F5F5F5F5F5F5F5F5F5F5F5F5F5F5F5F5F5F5F5F5F5F5F5F5F5F5F5F5F5F5F5F5F5F5F5F5F5F5F5F5F5F5F5F5F5F5F5F5F5F5F5F5F5F5F5F5F5F5F5F5F5F5F5F5F5F5F5F5F5F5F5F5F5F5F5F5F5F5F5F5F5F5F5F5F5F5F5F5F5F5E2F5F5F73CE2F5F5E2F5F5F5F5F5F5F5F5F5F5F5F5F5F5F5F5F5
310
F5F5F5F5F5F5F5F5F5F5F5F5F5F5F5F5F5F5F5F5F5F5F5F5F5F5F5F5F5F5F5F5F5F5F5F5F5F5F5F5F5F5F5F5F5F5F5F5F5F5F5F5F5F5F5F5F5F5F5F5F5F5F5F5F5F5F5F5F5F5F5F5F5F5E2F5F50F44E2F5F5E2F5F5F5F5F5F5F5F5F5F5F5F5F5F5F5F5F5F5F5F5F5F5F5F5F5F5F5F5F5F5F5F5F5F5F5F5F5F5F5F5F5F5F5F5
310
F5F5F5F5F5F5F5F5F5F5F5F5F5F5F5F5F5F5F5F5F5F5F5F5F5F5F5F5F5F5F5F5F5F5F5F5F5F5F5F5F5F5F5F5F5F5F5E2F5F5453DE2F5F5E2F5F5F5F5F5F5F5F5F5F5F5F5F5F5F5F5F5F5F5F5F5F5F5F5F5F5F5F5F5F5F5F5F5F5F5F5F5F5F5F5F5F5F5F5F5F5F5F5F5F5F5F5F5F5F5F5F5F5F5F5F5F5F5F5F5F5F5F5F5F5F5
310
F5F5F5F5F5F5F5F5F5F5F5F5F5F5F5F5F5F5F5F5E2F5F50344E2F5F5E2F5F5F5F5F5F5F5F5F5F5F5F5F5F5F5F5F5F5F5F5F5F5F5F5F5F5F5F5F5F5F5F5F5F5F5F5F5F5F5F5F5F5F5F5F5F5F5F5F5F5F5F5F5F5F5F5F5F5F5F5F5F5F5F5F5F5F5F5F5F5F5F5F5F5F5F5F5F5F5F5F5F5F5F5F5F5F5F5F5F5F5E2F5F5613DE2F5
310
F5E2F5F5F5F5F5F5F5F5F5F5F5F5F5F5F5F5F5F5F5F5F5F5F5F5F5F5F5F5F5F5F5F5F5F5F5F5F5F5F5F5F5F5F5F5F5F5F5F5F5F5F5F5F5F5F5F5F5F5F5F5F5F5F5F5F5F5F5F5F5F5F5F5F5F5F5F5F5F5F5F5F5F5F5F5F5F5F5F5F5F5F5E2F5F52044E2F5F5E2F5F5F5F5F5F5F5F5F5F5F5F5F5F5F5F5F5F5F5F5F5F5F5F5F5
310
F5F5F5F5F5F5F5F5F5F5F5F5F5F5F5F5F5F5F5F5F5F5F5F5F5F5F5F5F5F5F5F5F5F5F5F5F5F5F5F5F5F5F5F5F5F5F5F5F5F5F5F5F5F5F5F5F5F5F5F5F5F5F5F5F5F5E2F5F5873DE2F5F5F5F5F5F5F5F5F5F5F5F5F5F5F5F5F5F5F5F5F5F5F5F5F5F5F5F5F5F5F5F5F5F5F5F5F5F5F5F5F5F5F5F5F5F5F5F5F5F5F5F5F5F5F5
310
F5F5F5F5F5F5F5F5F5F5F5F5F5F5F5F5F5F5F5F5F5F5F5F5F5F5F5F5F5F5F5F5F5F5F5F5F5F5F5F5F5F50F44E2F5F5F5F5F5F5F5F5F5F5F5F5F5F5F5F5F5F5F5F5F5F5F5F5F5F5F5F5F5F5F5F5F5F5F5F5F5F5F5F5F5F5F5F5F5F5F5F5F5F5F5F5F5F5F5F5F5F5F5F5F5F5F5F5F5F5F5F5F5F5F5F5F5F5F5F5F5F5F5F5F5F5
310
F5F5F5F5F5F5F5F5F5F5F5F5F5F5F5B53DE2F5F5F5F5F5F5F5F5F5F5F5F5F5F5F5F5F5F5F5F5F5F5F5F5F5F5F5F5F5F5F5F5F5F5F5F5F5F5F5F5F5F5F5F5F5F5F5F5F5F5F5F5F5F5F5F5F5F5F5F5F5F5F5F5F5F5F5F5F5F5F5F5F5F5F5F5F5F5F5F5F5F5F5F5F5F5F5F5F5F5F5F5F5F5F5F5F50A44E2F5F5F5F5F5F5F5F5F5
310
F5F5F5F5F5F5F5F5F5F5F5F5F5F5F5F5F5F5F5F5F5F5F5F5F5F5F5F5F5F5F5F5F5F5F5F5F5F5F5F5F5F5F5F5F5F5F5F5F5F5F5F5F5F5F5F5F5F5F5F5F5F5F5F5F5F5F5F5F5F5F5F5F5F5F5F5F5F5F5F5F5F5F5F5F5F5F5F5C73DE2F5F5F5F5F5F5F5F5F5F5F5F5F5F5F5F5F5F5F5F5F5F5F5F5F5F5F5F5F5F5F5F5F5F5F5F5
310
F5F5F5F5F5F5F5F5F5F5F5F5F5F5F5F5F5F5F5F5F5F5F5F5F5F5F5F5F5F5F5F5F5F5F5F5F5F5F5F5F5F5F5F5F5F5F5F5F5F5F5F5F5F5F5F5F5F5F5F5F5F743E2F5F5F5F5F5F5F5F5F5F5F5F5F5F5F5F5F5F5F5F5F5F5F5F5F5F5F5F5F5F5F5F5F5F5F5F5F5F5F5F5F5F5F5F5F5F5F5F5F5F5F5F5F5F5F5F5F5F5F5F5F5F5F5
310
F5F5F5F5F5F5F5F5F5F5F5F5F5F5F5F5F5F5F5F5F5F5F5F5F5F5F5F5F5F5F5F5F5F5013EE2F5F5F5F5F5F5F5F5F5F5F5F5F5F5F5F5F5F5F5F5F5F5F5F5F5F5F5F5F5F5F5F5F5F5F5F5F5F5F5F5F5F5F5F5F5F5F5F5F5F5F5F5F5F5F5F5F5F5F5F5F5F5F5F5F5F5F5F5F5F5F5F5F5F5F5F5F5F5F5F5F5F5F5F5F5F5F5F5F5F5
310
F5F5F5F5F5F5F5F743E2F5F5F5F5F5F5F5F5F5F5F5F5F5F5F5F5F5F5F5F5F5F5F5F5F5F5F5F5F5F5F5F5F5F5F5F5F5F5F5F5F5F5F5F5F5F5F5F5F5F5F5F5F5F5F5F5F5F5F5F5F5F5F5F5F5F5F5F5F5F5F5F5F5F5F5F5F5F5F5F5F5F5F5F5F5F5F5F5F5F5F5F5F5F5F5F5F5243EE2F5F5F5F5F5F5F5F5F5F5F5F5F5F5F5F5F5
310
F5F5F5F5F5F5F5F5F5F5F5F5F5F5F5F5F5F5F5F5F5F5F5F5F5F5F5F5F5F5F5F5F5F5F5F5F5F5F5F5F5F5F5F5F5F5F5F5F5F5F5F5F5F5F5F5F5F5F5F5F5F5F5F5F5F5F5F5F5F5F5F5F5F5F5F5F5F5F5F50344E2F5F5E2F5F5F5F5F5F5F5F5F5F5F5F5F5F5F5F5F5F5F5F5F5F5F5F5F5F5F5F5F5F5F5F5F5F5F5F5F5F5F5F5F5
310
F5F5F5F5F5F5F5F5F5F5F5F5F5F5F5F5F5F5F5F5F5F5F5F5F5F5F5F5F5F5F5F5F5F5F5F5F5F5F5F5F5F5F5F5F5F5F5F5F5F5E2F5F5423DE2F5F5E2F5F5F5F5F5F5F5F5F5F5F5F5F5F5F5F5F5F5F5F5F5F5F5F5F5F5F5F5F5F5F5F5F5F5F5F5F5F5F5F5F5F5F5F5F5F5F5F5F5F5F5F5F5F5F5F5F5F5F5F5F5F5F5F5F5F5F5F5
310
F5F5F5F5F5F5F5F5F5F5F5F5F5F5F5F5F5F5F5F5F5F5F5E2F5F5A343E2F5F5E2F5F5F5F5F5F5F5F5F5F5F5F5F5F5F5F5F5F5F5F5F5F5F5F5F5F5F5F5F5F5F5F5F5F5F5F5F5F5F5F5F5F5F5F5F5F5F5F5F5F5F5F5F5F5F5F5F5F5F5F5F5F5F5F5F5F5F5F5F5F5F5F5F5F5F5F5F5F5F5F5F5F5F5F5F5F5F5F5F5F5F5E2F5F57B
310
3DE2F5F5E2F5F5F5F5F5F5F5F5F5F5F5F5F5F5F5F5F5F5F5F5F5F5F5F5F5F5F5F5F5F5F5F5F5F5F5F5F5F5F5F5F5F5F5F5F5F5F5F5F5F5F5F5F5F5F5F5F5F5F5F5F5F5F5F5F5F5F5F5F5F5F5F5F5F5F5F5F5F5F5F5F5F5F5F5F5F5F5F5F5F5F5E2F5F5AA43E2F5F5E2F5F5F5F5F5F5F5F5F5F5F5F5F5F5F5F5F5F5F5F5F5F5
310
F5F5F5F5F5F5F5F5F5F5F5F5F5F5F5F5F5F5F5F5F5F5F5F5F5F5F5F5F5F5F5F5F5F5F5F5F5F5F5F5F5F5F5F5F5F5F5F5F5F5F5F5F5F5F5F5F5F5F5F5F5F5F5F5F5F5F5F5F5E2F5F5A33DE2F5F5E2F5F5F5F5F5F5F5F5F5F5F5F5F5F5F5F5F5F5F5F5F5F5F5F5F5F5F5F5F5F5F5F5F5F5F5F5F5F5F5F5F5F5F5F5F5F5F5F5F5
310
F5F5F5F5F5F5F5F5F5F5F5F5F5F5F5F5F5F5F5F5F5F5F5F5F5F5F5F5F5F5F5F5F5F5F5F5F5F5F5F5F5F5E2F5F59C43E2F5F5E2F5F5F5F5F5F5F5F5F5F5F5F5F5F5F5F5F5F5F5F5F5F5F5F5F5F5F5F5F5F5F5F5F5F5F5F5F5F5F5F5F5F5F5F5F5F5F5F5F5F5F5F5F5F5F5F5F5F5F5F5F5F5F5F5F5F5F5F5F5F5F5F5F5F5F5F5
310
F5F5F5F5F5F5F5F5F5F5F5F5F5F5F5E2F5F5C73DE2F5F5E2F5F5F5F5F5F5F5F5F5F5F5F5F5F5F5F5F5F5F5F5F5F5F5F5F5F5F5F5F5F5F5F5F5F5F5F5F5F5F5F5F5F5F5F5F5F5F5F5F5F5F5F5F5F5F5F5F5F5F5F5F5F5F5F5F5F5F5F5F5F5F5F5F5F5F5F5F5F5F5F5F5F5F5F5F5F5F5F5F5F5F5E2F5F5CE43E2F5F5E2F5F5F5
310
F5F5F5F5F5F5F5F5F5F5F5F5F5F5F5F5F5F5F5F5F5F5F5F5F5F5F5F5F5F5F5F5F5F5F5F5F5F5F5F5F5F5F5F5F5F5F5F5F5F5F5F5F5F5F5F5F5F5F5F5F5F5F5F5F5F5F5F5F5F5F5F5F5F5F5F5F5F5F5F5F5F5F5F5F5F5F5F5E2F5F5163EE2F5F5E2F5F5F5F5F5F5F5F5F5F5F5F5F5F5F5F5F5F5F5F5F5F5F5F5F5F5F5F5F5F5
310
F5F5F5F5F5F5F5F5F5F5F5F5F5F5F5F5F5F5F5F5F5F5F5F5F5F5F5F5F5F5F5F5F5F5F5F5F5F5F5F5F5F5F5F5F5F5F5F5F5F5F5F5F5F5F5F5F5F5F5F5F5E2F5F5B143E2F5F5E2F5F5F5F5F5F5F5F5F5F5F5F5F5F5F5F5F5F5F5F5F5F5F5F5F5F5F5F5F5F5F5F5F5F5F5F5F5F5F5F5F5F5F5F5F5F5F5F5F5F5F5F5F5F5F5F5F5
310
F5F5F5F5F5F5F5F5F5F5F5F5F5F5F5F5F5F5F5F5F5F5F5F5F5F5F5F5F5F5F5F5F5F5E2F5F53D3EE2F5F5E2F5F5F5F5F5F5F5F5F5F5F5F5F5F5F5F5F5F5F5F5F5F5F5F5F5F5F5F5F5F5F5F5F5F5F5F5F5F5F5F5F5F5F5F5F5F5F5F5F5F5F5F5F5F5F5F5F5F5F5F5F5F5F5F5F5F5F5F5F5F5F5F5F5F5F5F5F5F5F5F5F5F5F5F5
310
F5F5F5F5F5F5F5E2F5F5B943E2F5F5E2F5F5F5F5F5F5F5F5F5F5F5F5F5F5F5F5F5F5F5F5F5F5F5F5F5F5F5F5F5F5F5F5F5F5F5F5F5F5F5F5F5F5F5F5F5F5F5F5F5F5F5F5F5F5F5F5F5F5F5F5F5F5F5F5F5F5F5F5F5F5F5F5F5F5F5F5F5F5F5F5F5F5F5F5F5F5F5F5F5F5F5E2F5F5753EE2F5F5E2F5F5F5F5F5F5F5F5F5F5F5
310
F5F5F5F5F5F5F5F5F5F5F5F5F5F5F5F5F5F5F5F5F5F5F5F5F5F5F5F5F5F5F5F5F5F5F5F5F5F5F5F5F5F5F5F5F5F5F5F5F5F5F5F5F5F5F5F5F5F5F5F5F5F5F5F5F5F5F5F5F5F5F5F5F5F5F5F5F5F5F5F5E2F5F5BD43E2F5F5E2F5F5F5F5F5F5F5F5F5F5F5F5F5F5F5F5F5F5F5F5F5F5F5F5F5F5F5F5F5F5F5F5F5F5F5F5F5F5
310
F5F5F5F5F5F5F5F5F5F5F5F5F5F5F5F5F5F5F5F5F5F5F5F5F5F5F5F5F5F5F5F5F5F5F5F5F5F5F5F5F5F5F5F5F5F5F5F5F5F5F5F5F5E2F5F5F93CE2F5F5E2F5F5F5F5F5F5F5F5F5F5F5F5F5F5F5F5F5F5F5F5F5F5F5F5F5F5F5F5F5F5F5F5F5F5F5F5F5F5F5F5F5F5F5F5F5F5F5F5F5F5F5F5F5F5F5F5F5F5F5F5F5F5F5F5F5
310
F5F5F5F5F5F5F5F5F5F5F5F5F5F5F5F5F5F5F5F5F5F5F5F5F5F5E2F5F54843E2F5F5E2F5F5F5F5F5F5F5F5F5F5F5F5F5F5F5F5F5F5F5F5F5F5F5F5F5F5F5F5F5F5F5F5F5F5F5F5F5F5F5F5F5F5F5F5F5F5F5F5F5F5F5F5F5F5F5F5F5F5F5F5F5F5F5F5F5F5F5F5F5F5F5F5F5F5F5F5F5F5F5F5F5F5F5F5F5F5F5F5F5F5F5E2
310
F5F5053DE2F5F5F5F5F5F5F5F5F5F5F5F5F5F5F5F5F5F5F5F5F5F5F5F5F5F5F5F5F5F5F5F5F5F5F5F5F5F5F5F5F5F5F5F5F5F5F5F5F5F5F5F5F5F5F5F5F5F5F5F5F5F5F5F5F5F5F5F5F5F5F5F5F5F5F5F5F5F5F5F5F5F5F5F5F5F5F5F5F5F5F5F5F5F5F5F5F56543E2F5F5F5F5F5F5F5F5F5F5F5F5F5F5F5F5F5F5F5F5F5F5
310
F5F5F5F5F5F5F5F5F5F5F5F5F5F5F5F5F5F5F5F5F5F5F5F5F5F5F5F5F5F5F5F5F5F5F5F5F5F5F5F5F5F5F5F5F5F5F5F5F5F5F5F5F5F5F5F5F5F5F5F5F5F5F5F5F5F5F5F5F5F5F5F5F5F5F55B3DE2F5F5F5F5F5F5F5F5F5F5F5F5F5F5F5F5F5F5F5F5F5F5F5F5F5F5F5F5F5F5F5F5F5F5F5F5F5F5F5F5F5F5F5F5F5F5F5F5F5
310
F5F5F5F5F5F5F5F5F5F5F5F5F5F5F5F5F5F5F5F5F5F5F5F5F5F5F5F5F5F5F5F5F5F5F5F5F5F5F5F5F5F5F5F5F5F5F5F56943E2F5F5F5F5F5F5F5F5F5F5F5F5F5F5F5F5F5F5F5F5F5F5F5F5F5F5F5F5F5F5F5F5F5F5F5F5F5F5F5F5F5F5F5F5F5F5F5F5F5F5F5F5F5F5F5F5F5F5F5F5F5F5F5F5F5F5F5F5F5F5F5F5F5F5F5F5
310
F5F5F5F5F5F5F5F5F5F5F5F5F5F5F5F5F5F5F5F5F5703DE2F5F5F5F5F5F5F5F5F5F5F5F5F5F5F5F5F5F5F5F5F5F5F5F5F5F5F5F5F5F5F5F5F5F5F5F5F5F5F5F5F5F5F5F5F5F5F5F5F5F5F5F5F5F5F5F5F5F5F5F5F5F5F5F5F5F5F5F5F5F5F5F5F5F5F5F5F5F5F5F5F5F5F5F5F5F5F5F5F5F5F5F5F5F5F5F5F54F43E2F5F5F5
310
F5F5F5F5F5F5F5F5F5F5F5F5F5F5F5F5F5F5F5F5F5F5F5F5F5F5F5F5F5F5F5F5F5F5F5F5F5F5F5F5F5F5F5F5F5F5F5F5F5F5F5F5F5F5F5F5F5F5F5F5F5F5F5F5F5F5F5F5F5F5F5F5F5F5F5F5F5F5F5F5F5F5F5F5F5F5F5F5F5F5F5F5F5F5A83DE2F5F5F5F5F5F5F5F5F5F5F5F5F5F5F5F5F5F5F5F5F5F5F5F5F5F5F5F5F5F5
310
F5F5F5F5F5F5F5F5F5F5F5F5F5F5F5F5F5F5F5F5F5F5F5F5F5F5F5F5F5F5F5F5F5F5F5F5F5F5F5F5F5F5F5F5F5F5F5F5F5F5F5F5F5F5F5F5F5F5F5F5F5F5F5F5F5F5F55B43E2F5F5F5F5F5F5F5F5F5F5F5F5F5F5F5F5F5F5F5F5F5F5F5F5F5F5F5F5F5F5F5F5F5F5F5F5F5F5F5F5F5F5F5F5F5F5F5F5F5F5F5F5F5F5F5F5F5
310
F5F5F5F5F5F5F5F5F5F5F5F5F5F5F5F5F5F5F5F5F5F5F5F5F5F5F5F5F5F5F5F5F5F5F5F5F5F5F5F5DD3DE2F5F5F5F5F5F5F5F5F5F5F5F5F5F5F5F5F5F5F5F5F5F5F5F5F5F5F5F5F5F5F5F5F5F5F5F5F5F5F5F5F5F5F5F5F5F5F5F5F5F5F5F5F5F5F5F5F5F5F5F5F5F5F5F5F5F5F5F5F5F5F5F5F5F5F5F5F5F5F5F5F5F5F5F5
310
F5F5F5F5F5F5F5F5F5F5F5F5F55B43E2F5F5F5F5F5F5F5F5F5F5F5F5F5F5F5F5F5F5F5F5F5F5F5F5F5F5F5F5F5F5F5F5F5F5F5F5F5F5F5F5F5F5F5F5F5F5F5F5F5F5F5F5F5F5F5F5F5F5F5F5F5F5F5F5F5F5F5F5F5F5F5F5F5F5F5F5F5F5F5F5F5F5F5F5F5F5F5F5F5F5F5F5F5F5F5F5F50F3EE2F5F5E2F5F5F5F5F5F5F5F5
310
F5F5F5F5F5F5F5F5F5F5F5F5F5F5F5F5F5F5F5F5F5F5F5F5F5F5F5F5F5F5F5F5F5F5F5F5F5F5F5F5F5F5F5F5F5F5F5F5F5F5F5F5F5F5F5F5F5F5F5F5F5F5F5F5F5F5F5F5F5F5F5F5F5F5F5F5F5F5F5F5F5F5F5E2F5F56243E2F5F5E2F5F5F5F5F5F5F5F5F5F5F5F5F5F5F5F5F5F5F5F5F5F5F5F5F5F5F5F5F5F5F5F5F5F5F5
310
F5F5F5F5F5F5F5F5F5F5F5F5F5F5F5F5F5F5F5F5F5F5F5F5F5F5F5F5F5F5F5F5F5F5F5F5F5F5F5F5F5F5F5F5F5F5F5F5F5F5F5F5F5F5F5F5E2F5F5323EE2F5F5E2F5F5F5F5F5F5F5F5F5F5F5F5F5F5F5F5F5F5F5F5F5F5F5F5F5F5F5F5F5F5F5F5F5F5F5F5F5F5F5F5F5F5F5F5F5F5F5F5F5F5F5F5F5F5F5F5F5F5F5F5F5F5
310
F5F5F5F5F5F5F5F5F5F5F5F5F5F5F5F5F5F5F5F5F5F5F5F5F5F5F5F5F5E2F5F51F43E2F5F5E2F5F5F5F5F5F5F5F5F5F5F5F5F5F5F5F5F5F5F5F5F5F5F5F5F5F5F5F5F5F5F5F5F5F5F5F5F5F5F5F5F5F5F5F5F5F5F5F5F5F5F5F5F5F5F5F5F5F5F5F5F5F5F5F5F5F5F5F5F5F5F5F5F5F5F5F5F5F5F5F5F5F5F5F5F5F5F5F5F5
310
F5F5E2F5F5F83CE2F5F5E2F5F5F5F5F5F5F5F5F5F5F5F5F5F5F5F5F5F5F5F5F5F5F5F5F5F5F5F5F5F5F5F5F5F5F5F5F5F5F5F5F5F5F5F5F5F5F5F5F5F5F5F5F5F5F5F5F5F5F5F5F5F5F5F5F5F5F5F5F5F5F5F5F5F5F5F5F5F5F5F5F5F5F5F5F5F5F5F5F5F5F5E2F5F50C43E2F5F5E2F5F5F5F5F5F5F5F5F5F5F5F5F5F5F5F5
310
F5F5F5F5F5F5F5F5F5F5F5F5F5F5F5F5F5F5F5F5F5F5F5F5F5F5F5F5F5F5F5F5F5F5F5F5F5F5F5F5F5F5F5F5F5F5F5F5F5F5F5F5F5F5F5F5F5F5F5F5F5F5F5F5F5F5F5F5F5F5F5F5F5F5F5E2F5F5603DE2F5F5E2F5F5F5F5F5F5F5F5F5F5F5F5F5F5F5F5F5F5F5F5F5F5F5F5F5F5F5F5F5F5F5F5F5F5F5F5F5F5F5F5F5F5F5
310
F5F5F5F5F5F5F5F5F5F5F5F5F5F5F5F5F5F5F5F5F5F5F5F5F5F5F5F5F5F5F5F5F5F5F5F5F5F5F5F5F5F5F5F5F5F5F5F5E2F5F50743E2F5F5E2F5F5F5F5F5F5F5F5F5F5F5F5F5F5F5F5F5F5F5F5F5F5F5F5F5F5F5F5F5F5F5F5F5F5F5F5F5F5F5F5F5F5F5F5F5F5F5F5F5F5F5F5F5F5F5F5F5F5F5F5F5F5F5F5F5F5F5F5F5F5
310
F5F5F5F5F5F5F5F5F5F5F5F5F5F5F5F5F5F5F5F5F5E2F5F5893DE2F5F5E2F5F5F5F5F5F5F5F5F5F5F5F5F5F5F5F5F5F5F5F5F5F5F5F5F5F5F5F5F5F5F5F5F5F5F5F5F5F5F5F5F5F5F5F5F5F5F5F5F5F5F5F5F5F5F5F5F5F5F5F5F5F5F5F5F5F5F5F5F5F5F5F5F5F5F5F5F5F5F5F5F5F5F5F5F5F5F5F5F5F5F5E2F5F50243E2
310
F5F5E2F5F5F5F5F5F5F5F5F5F5F5F5F5F5F5F5F5F5F5F5F5F5F5F5F5F5F5F5F5F5F5F5F5F5F5F5F5F5F5F5F5F5F5F5F5F5F5F5F5F5F5F5F5F5F5F5F5F5F5F5F5F5F5F5F5F5F5F5F5F5F5F5F5F5F5F5F5F5F5F5F5F5F5F5F5F5F5F5F5F5F5E2F5F5B23DE2F5F5E2F5F5F5F5F5F5F5F5F5F5F5F5F5F5F5F5F5F5F5F5F5F5F5F5
310
F5F5F5F5F5F5F5F5F5F5F5F5F5F5F5F5F5F5F5F5F5F5F5F5F5F5F5F5F5F5F5F5F5F5F5F5F5F5F5F5F5F5F5F5F5F5F5F5F5F5F5F5F5F5F5F5F5F5F5F5F5F5F5F5F5F5F5E2F5F50E43E2F5F5E2F5F5F5F5F5F5F5F5F5F5F5F5F5F5F5F5F5F5F5F5F5F5F5F5F5F5F5F5F5F5F5F5F5F5F5F5F5F5F5F5F5F5F5F5F5F5F5F5F5F5F5
310
F5F5F5F5F5F5F5F5F5F5F5F5F5F5F5F5F5F5F5F5F5F5F5F5F5F5F5F5F5F5F5F5F5F5F5F5F5F5F5F5E2F5F5DC3DE2F5F5E2F5F5F5F5F5F5F5F5F5F5F5F5F5F5F5F5F5F5F5F5F5F5F5F5F5F5F5F5F5F5F5F5F5F5F5F5F5F5F5F5F5F5F5F5F5F5F5F5F5F5F5F5F5F5F5F5F5F5F5F5F5F5F5F5F5F5F5F5F5F5F5F5F5F5F5F5F5F5
310
F5F5F5F5F5F5F5F5F5F5F5F5F5E2F5F50C43E2F5F5E2F5F5F5F5F5F5F5F5F5F5F5F5F5F5F5F5F5F5F5F5F5F5F5F5F5F5F5F5F5F5F5F5F5F5F5F5F5F5F5F5F5F5F5F5F5F5F5F5F5F5F5F5F5F5F5F5F5F5F5F5F5F5F5F5F5F5F5F5F5F5F5F5F5F5F5F5F5F5F5F5F5F5F5F5F5F5F5F5F5F5F5E2F5F5083EE2F5F5E2F5F5F5F5F5
310
F5F5F5F5F5F5F5F5F5F5F5F5F5F5F5F5F5F5F5F5F5F5F5F5F5F5F5F5F5F5F5F5F5F5F5F5F5F5F5F5F5F5F5F5F5F5F5F5F5F5F5F5F5F5F5F5F5F5F5F5F5F5F5F5F5F5F5F5F5F5F5F5F5F5F5F5F5F5F5F5F5F5F5F5F5F5E2F5F59F42E2F5F5E2F5F5F5F5F5F5F5F5F5F5F5F5F5F5F5F5F5F5F5F5F5F5F5F5F5F5F5F5F5F5F5F5
310
F5F5F5F5F5F5F5F5F5F5F5F5F5F5F5F5F5F5F5F5F5F5F5F5F5F5F5F5F5F5F5F5F5F5F5F5F5F5F5F5F5F5F5F5F5F5F5F5F5F5F5F5F5F5F5F5F5F5F5E2F5F51C3DE2F5F5E2F5F5F5F5F5F5F5F5F5F5F5F5F5F5F5F5F5F5F5F5F5F5F5F5F5F5F5F5F5F5F5F5F5F5F5F5F5F5F5F5F5F5F5F5F5F5F5F5F5F5F5F5F5F5F5F5F5F5F5
310
F5F5F5F5F5F5F5F5F5F5F5F5F5F5F5F5F5F5F5F5F5F5F5F5F5F5F5F5F5F5F5F5E2F5F5C442E2F5F5F5F5F5F5F5F5F5F5F5F5F5F5F5F5F5F5F5F5F5F5F5F5F5F5F5F5F5F5F5F5F5F5F5F5F5F5F5F5F5F5F5F5F5F5F5F5F5F5F5F5F5F5F5F5F5F5F5F5F5F5F5F5F5F5F5F5F5F5F5F5F5F5F5F5F5F5F5F5F5F5F5F5F5F5F5F5F5
310
F5F5F5F5F5F5F5F5573DE2F5F5F5F5F5F5F5F5F5F5F5F5F5F5F5F5F5F5F5F5F5F5F5F5F5F5F5F5F5F5F5F5F5F5F5F5F5F5F5F5F5F5F5F5F5F5F5F5F5F5F5F5F5F5F5F5F5F5F5F5F5F5F5F5F5F5F5F5F5F5F5F5F5F5F5F5F5F5F5F5F5F5F5F5F5F5F5F5F5F5F5F5F5F5F5F5F5A942E2F5F5F5F5F5F5F5F5F5F5F5F5F5F5F5F5
310
F5F5F5F5F5F5F5F5F5F5F5F5F5F5F5F5F5F5F5F5F5F5F5F5F5F5F5F5F5F5F5F5F5F5F5F5F5F5F5F5F5F5F5F5F5F5F5F5F5F5F5F5F5F5F5F5F5F5F5F5F5F5F5F5F5F5F5F5F5F5F5F5F5F5F5F5F5F5F5F5F58D3DE2F5F5F5F5F5F5F5F5F5F5F5F5F5F5F5F5F5F5F5F5F5F5F5F5F5F5F5F5F5F5F5F5F5F5F5F5F5F5F5F5F5F5F5
310
F5F5F5F5F5F5F5F5F5F5F5F5F5F5F5F5F5F5F5F5F5F5F5F5F5F5F5F5F5F5F5F5F5F5F5F5F5F5F5F5F5F5F5F5F5F5F5F5F5F5F5F5F5F5A942E2F5F5F5F5F5F5F5F5F5F5F5F5F5F5F5F5F5F5F5F5F5F5F5F5F5F5F5F5F5F5F5F5F5F5F5F5F5F5F5F5F5F5F5F5F5F5F5F5F5F5F5F5F5F5F5F5F5F5F5F5F5F5F5F5F5F5F5F5F5F5
310
F5F5F5F5F5F5F5F5F5F5F5F5F5F5F5F5F5F5F5F5F5F5F5F5F5F5F5B13DE2F5F5F5F5F5F5F5F5F5F5F5F5F5F5F5F5F5F5F5F5F5F5F5F5F5F5F5F5F5F5F5F5F5F5F5F5F5F5F5F5F5F5F5F5F5F5F5F5F5F5F5F5F5F5F5F5F5F5F5F5F5F5F5F5F5F5F5F5F5F5F5F5F5F5F5F5F5F5F5F5F5F5F5F5F5F5F5F5F5F5F5F5F5F5F5F5F5
310
A742E2F5F5F5F5F5F5F5F5F5F5F5F5F5F5F5F5F5F5F5F5F5F5F5F5F5F5F5F5F5F5F5F5F5F5F5F5F5F5F5F5F5F5F5F5F5F5F5F5F5F5F5F5F5F5F5F5F5F5F5F5F5F5F5F5F5F5F5F5F5F5F5F5F5F5F5F5F5F5F5F5F5F5F5F5F5F5F5F5F5F5F5F5F5F5F5F5F50000E2F5F5F5F5F5F5F5F5F5F5F5F5F5F5F5F5F5F5F5F5F5F5F5F5
310
F5F5F5F5F5F5F5F5F5F5F5F5F5F5F5F5F5F5F5F5F5F5F5F5F5F5F5F5F5F5F5F5F5F5F5F5F5F5F5F5F5F5F5F5F5F5F5F5F5F5F5F5F5F5F5F5F5F5F5F5F5F5F5F5F5F5F5F5F5F5F5F5F50000E2F5F5F5F5F5F5F5F5F5F5F5F5F5F5F5F5F5F5F5F5F5F5F5F5F5F5F5F5F5F5F5F5F5F5F5F5F5F5F5F5F5F5F5F5F5F5F5F5F5F5F5
310
F5F5F5F5F5F5F5F5F5F5F5F5F5F5F5F5F5F5F5F5F5F5F5F5F5F5F5F5F5F5F5F5F5F5F5F5F5F5F5F5F5F5F5F5F5F50000E2F5F5E2F5F5F5F5F5F5F5F5F5F5F5F5F5F5F5F5F5F5F5F5F5F5F5F5F5F5F5F5F5F5F5F5F5F5F5F5F5F5F5F5F5F5F5F5F5F5F5F5F5F5F5F5F5F5F5F5F5F5F5F5F5F5F5F5F5F5F5F5F5F5F5F5F5F5F5
310
F5F5F5F5F5F5F5F5F5F5F5F5F5F5F5F5E2F5F50000E2F5F5E2F5F5F5F5F5F5F5F5F5F5F5F5F5F5F5F5F5F5F5F5F5F5F5F5F5F5F5F5F5F5F5F5F5F5F5F5F5F5F5F5F5F5F5F5F5F5F5F5F5F5F5F5F5F5F5F5F5F5F5F5F5F5F5F5F5F5F5F5F5F5F5F5F5F5F5F5F5F5F5F5F5F5F5F5F5F5F5F5F5F5F5E2F5F50000E2F5F5E2F5F5
310
F5F5F5F5F5F5F5F5F5F5F5F5F5F5F5F5F5F5F5F5F5F5F5F5F5F5F5F5F5F5F5F5F5F5F5F5F5F5F5F5F5F5F5F5F5F5F5F5F5F5F5F5F5F5F5F5F5F5F5F5F5F5F5F5F5F5F5F5F5F5F5F5F5F5F5F5F5F5F5F5F5F5F5F5F5F5F5F5F5E2F5F50000E2F5F5E2F5F5F5F5F5F5F5F5F5F5F5F5F5F5F5F5F5F5F5F5F5F5F5F5F5F5F5F5F5
310
F5F5F5F5F5F5F5F5F5F5F5F5F5F5F5F5F5F5F5F5F5F5F5F5F5F5F5F5F5F5F5F5F5F5F5F5F5F5F5F5F5F5F5F5F5F5F5F5F5F5F5F5F5F5F5F5F5F5F5F5F5F5E2F5F50000E2F5F5E2F5F5F5F5F5F5F5F5F5F5F5F5F5F5F5F5F5F5F5F5F5F5F5F5F5F5F5F5F5F5F5F5F5F5F5F5F5F5F5F5F5F5F5F5F5F5F5F5F5F5F5F5F5F5F5F5
310
F5F5F5F5F5F5F5F5F5F5F5F5F5F5F5F5F5F5F5F5F5F5F5F5F5F5F5F5F5F5F5F5F5F5F5E2F5F50000E2F5F5E2F5F5F5F5F5F5F5F5F5F5F5F5F5F5F5F5F5F5F5F5F5F5F5F5F5F5F5F5F5F5F5F5F5F5F5F5F5F5F5F5F5F5F5F5F5F5F5F5F5F5F5F5F5F5F5F5F5F5F5F5F5F5F5F5F5F5F5F5F5F5F5F5F5F5F5F5F5F5F5F5F5F5F5
310
F5F5F5F5F5F5F5F5E2F5F50000E2F5F5E2F5F5F5F5F5F5F5F5F5F5F5F5F5F5F5F5F5F5F5F5F5F5F5F5F5F5F5F5F5F5F5F5F5F5F5F5F5F5F5F5F5F5F5F5F5F5F5F5F5F5F5F5F5F5F5F5F5F5F5F5F5F5F5F5F5F5F5F5F5F5F5F5F5F5F5F5F5F5F5F5F5F5F5F5F5F5F5F5F5F5F5E2F5F52801E2F5F5E2F5F5F5F5F5F5F5F5F5F5
310
F5F5F5F5F5F5F5F5F5F5F5F5F5F5F5F5F5F5F5F5F5F5F5F5F5F5F5F5F5F5F5F5F5F5F5F5F5F5F5F5F5F5F5F5F5F5F5F5F5F5F5F5F5F5F5F5F5F5F5F5F5F5F5F5F5F5F5F5F5F5F5F5F5F5F5F5F5F5F5F5F5E2F5F57FF5E2F5F5E2E2E2E2E2E2E2E2F5F5F5F5F5F5F5F5E2E2E2E2E2E2E2E2E2E2E2E2E2E2E2F5F5F5F5F5F5F5
310
F5E2E2E2E2E2E2E2E2E2E2E2E2E2E2E2F5F5F5F5F5F5F5F5E2E2E2E2E2E2E2E2E2E2E2E2E2E2E2F5F5F5F5F5F5F5F5E2E2E2E2E2E2E2E2F5F5F5F5E2F5F5F5F5F5F5F5F5F5F5F5F5F5F5F5F5F5F5F5F5F5F5F5F5F5F5F5F5F5F5F5F5F5F5F5F5F5F5F5F5F5F5F5F5F5F5F5F5F5F5F5F5F5F5F5F5F5F5F5F5F5F5F5F5F5F5F5
310
F5F5F5F5F5F5F5F5F5F5F5F5F5F5F5F5F5F5F5F5F5F5F5F5F5F5F5F5F5F5F5F5E2F5F5F5F5F5F5F5F5F5F5F5F5F5F5F5F5F5F5F5F5F5F5F5F5F5F5F5F5F5F5F5F5F5F5F5F5F5F5F5F5F5F5F5F5F5F5F5F5F5F5F5F5F5F5F5F5F5F5F5F5F5F5F5F5F5F5F5F5F5F5F5F5F5F5F5F5F5F5F5F5F5F5F5F5F5F5F5F5F5F5F5F5F5F5
310
F5F5F5F5F5E2E2E2E2E2E2E2E2E2E2E2E2E2E2E2E2E2E2E2E2E2E2E2E2E2E2E2E2E2E2E2E2E2E2E2E2E2E2E2E2E2E2E2E2E2E2E2E2E2E2E2E2E2E2E2E2E2E2E2E2E2E2E2E2E2E2E2E2E2E2E2E2E2E2E2E2E2E2E2E2E2E2E2E2E2E2E2E2E2E2E2E2E2E2E2E2E2E2BEBEEFEFEFEFEFEFEFEFEFEFEFEFEFEFEFEFEFEFEFEFEFEF
310
EFEFEFEFEFEFEFEFEFEFEFEFEFEFEFEFEFEFEFEFEFEFEFEFEFEFEFEFEFEFEFEFEFEFEFEFEFEFEFEFEFEFEFEFEFEFEFEFEFEFEFEFEFEFEFEFEFEFEFEFEFEFEFEFEFEFEFEFEFEFEFEFEFEFEFEFF5F5
  0
XRECORD
  5
3DB01
102
{ACAD_REACTORS
330
3DB00
102
}
330
3DB00
100
AcDbXrecord
280
     1
102
SHADEPLOT
 70
     0
102
SHADEPLOTRESLEVEL
 70
     2
102
SHADEPLOTCUSTOMDPI
 70
   300
  0
XRECORD
  5
3BDF0
102
{ACAD_REACTORS
330
3BDEF
102
}
330
3BDEF
100
AcDbXrecord
280
     1
102
MATERIAL
148
0.0
149
0.0
149
0.0
 93
        0
 94
       63
282
     0
 72
     1
 77
     1
171
     1
175
     1
179
     1
273
     0
  0
XRECORD
  5
3BDEE
102
{ACAD_REACTORS
330
3BDED
102
}
330
3BDED
100
AcDbXrecord
280
     1
102
MATERIAL
148
0.0
149
0.0
149
0.0
 93
        0
 94
       63
282
     0
 72
     1
 77
     1
171
     1
175
     1
179
     1
273
     0
  0
XRECORD
  5
3BDF2
102
{ACAD_REACTORS
330
3BDF1
102
}
330
3BDF1
100
AcDbXrecord
280
     1
102
MATERIAL
148
0.0
149
0.0
149
0.0
 93
        0
 94
       63
282
     0
 72
     1
 77
     1
171
     1
175
     1
179
     1
273
     0
  0
XRECORD
  5
3DB04
102
{ACAD_REACTORS
330
3DB03
102
}
330
3DB03
100
AcDbXrecord
280
     1
102
ACAD_ROUNDTRIP_PRE2007_TABLESTYLE
 90
      512
 91
        0
  1

 92
      512
 93
        0
  2

 94
      512
 95
        0
  3

  0
ENDSEC
  0
EOF
