  0
SECTION
  2
HEADER
  9
$ACADVER
  1
AC1024
  9
$ACADMAINTVER
 70
   205
  9
$DWGCODEPAGE
  3
ANSI_1252
  9
$LASTSAVEDBY
  1
kaschu
  9
$INSBASE
 10
0.0
 20
0.0
 30
0.0
  9
$EXTMIN
 10
-1647.601279472922
 20
128.1162535859706
 30
0.0
  9
$EXTMAX
 10
-259.8311704351208
 20
1513.032886763095
 30
0.0
  9
$LIMMIN
 10
0.0
 20
0.0
  9
$LIMMAX
 10
0.0
 20
0.0
  9
$ORTHOMODE
 70
     1
  9
$REGENMODE
 70
     1
  9
$FILLMODE
 70
     1
  9
$QTEXTMODE
 70
     0
  9
$MIRRTEXT
 70
     1
  9
$LTSCALE
 40
1.0
  9
$ATTMODE
 70
     1
  9
$TEXTSIZE
 40
0.0
  9
$TRACEWID
 40
0.05
  9
$TEXTSTYLE
  7
STANDARD
  9
$CLAYER
  8
0
  9
$CELTYPE
  6
CONTINUOUS
  9
$CECOLOR
 62
   256
  9
$CELTSCALE
 40
1.0
  9
$DISPSILH
 70
     0
  9
$DIMSCALE
 40
1.0
  9
$DIMASZ
 40
0.18
  9
$DIMEXO
 40
0.0625
  9
$DIMDLI
 40
0.38
  9
$DIMRND
 40
0.0
  9
$DIMDLE
 40
0.0
  9
$DIMEXE
 40
0.18
  9
$DIMTP
 40
0.0
  9
$DIMTM
 40
0.0
  9
$DIMTXT
 40
0.18
  9
$DIMCEN
 40
0.09
  9
$DIMTSZ
 40
0.0
  9
$DIMTOL
 70
     0
  9
$DIMLIM
 70
     0
  9
$DIMTIH
 70
     1
  9
$DIMTOH
 70
     1
  9
$DIMSE1
 70
     0
  9
$DIMSE2
 70
     0
  9
$DIMTAD
 70
     0
  9
$DIMZIN
 70
     0
  9
$DIMBLK
  1

  9
$DIMASO
 70
     1
  9
$DIMSHO
 70
     1
  9
$DIMPOST
  1

  9
$DIMAPOST
  1

  9
$DIMALT
 70
     0
  9
$DIMALTD
 70
     2
  9
$DIMALTF
 40
25.4
  9
$DIMLFAC
 40
1.0
  9
$DIMTOFL
 70
     0
  9
$DIMTVP
 40
0.0
  9
$DIMTIX
 70
     0
  9
$DIMSOXD
 70
     0
  9
$DIMSAH
 70
     0
  9
$DIMBLK1
  1

  9
$DIMBLK2
  1

  9
$DIMSTYLE
  2
STANDARD
  9
$DIMCLRD
 70
     0
  9
$DIMCLRE
 70
     0
  9
$DIMCLRT
 70
     0
  9
$DIMTFAC
 40
1.0
  9
$DIMGAP
 40
0.09
  9
$DIMJUST
 70
     0
  9
$DIMSD1
 70
     0
  9
$DIMSD2
 70
     0
  9
$DIMTOLJ
 70
     1
  9
$DIMTZIN
 70
     0
  9
$DIMALTZ
 70
     0
  9
$DIMALTTZ
 70
     0
  9
$DIMUPT
 70
     0
  9
$DIMDEC
 70
     4
  9
$DIMTDEC
 70
     4
  9
$DIMALTU
 70
     2
  9
$DIMALTTD
 70
     2
  9
$DIMTXSTY
  7
STANDARD
  9
$DIMAUNIT
 70
     0
  9
$DIMADEC
 70
     0
  9
$DIMALTRND
 40
0.0
  9
$DIMAZIN
 70
     0
  9
$DIMDSEP
 70
    46
  9
$DIMATFIT
 70
     3
  9
$DIMFRAC
 70
     0
  9
$DIMLDRBLK
  1

  9
$DIMLUNIT
 70
     2
  9
$DIMLWD
 70
    -2
  9
$DIMLWE
 70
    -2
  9
$DIMTMOVE
 70
     0
  9
$DIMFXL
 40
1.0
  9
$DIMFXLON
 70
     0
  9
$DIMJOGANG
 40
0.7853981633974483
  9
$DIMTFILL
 70
     0
  9
$DIMTFILLCLR
 70
     0
  9
$DIMARCSYM
 70
     0
  9
$DIMLTYPE
  6

  9
$DIMLTEX1
  6

  9
$DIMLTEX2
  6

  9
$DIMTXTDIRECTION
 70
     0
  9
$LUNITS
 70
     2
  9
$LUPREC
 70
     4
  9
$SKETCHINC
 40
0.1
  9
$FILLETRAD
 40
0.0
  9
$AUNITS
 70
     0
  9
$AUPREC
 70
     0
  9
$MENU
  1
acad
  9
$ELEVATION
 40
0.0
  9
$PELEVATION
 40
0.0
  9
$THICKNESS
 40
0.0
  9
$LIMCHECK
 70
     0
  9
$CHAMFERA
 40
0.0
  9
$CHAMFERB
 40
0.0
  9
$CHAMFERC
 40
0.0
  9
$CHAMFERD
 40
0.0
  9
$SKPOLY
 70
     0
  9
$TDCREATE
 40
2444972.083333333
  9
$TDUCREATE
 40
2444972.000000000
  9
$TDUPDATE
 40
2458417.682537338
  9
$TDUUPDATE
 40
2458417.599204005
  9
$TDINDWG
 40
0.0011258449
  9
$TDUSRTIMER
 40
0.0011258449
  9
$USRTIMER
 70
     1
  9
$ANGBASE
 50
0.0
  9
$ANGDIR
 70
     0
  9
$PDMODE
 70
     0
  9
$PDSIZE
 40
0.0
  9
$PLINEWID
 40
0.0
  9
$SPLFRAME
 70
     0
  9
$SPLINETYPE
 70
     6
  9
$SPLINESEGS
 70
     8
  9
$HANDSEED
  5
303
  9
$SURFTAB1
 70
     6
  9
$SURFTAB2
 70
     6
  9
$SURFTYPE
 70
     6
  9
$SURFU
 70
     6
  9
$SURFV
 70
     6
  9
$UCSBASE
  2

  9
$UCSNAME
  2

  9
$UCSORG
 10
0.0
 20
0.0
 30
0.0
  9
$UCSXDIR
 10
1.0
 20
0.0
 30
0.0
  9
$UCSYDIR
 10
0.0
 20
1.0
 30
0.0
  9
$UCSORTHOREF
  2

  9
$UCSORTHOVIEW
 70
     0
  9
$UCSORGTOP
 10
0.0
 20
0.0
 30
0.0
  9
$UCSORGBOTTOM
 10
0.0
 20
0.0
 30
0.0
  9
$UCSORGLEFT
 10
0.0
 20
0.0
 30
0.0
  9
$UCSORGRIGHT
 10
0.0
 20
0.0
 30
0.0
  9
$UCSORGFRONT
 10
0.0
 20
0.0
 30
0.0
  9
$UCSORGBACK
 10
0.0
 20
0.0
 30
0.0
  9
$PUCSBASE
  2

  9
$PUCSNAME
  2

  9
$PUCSORG
 10
0.0
 20
0.0
 30
0.0
  9
$PUCSXDIR
 10
1.0
 20
0.0
 30
0.0
  9
$PUCSYDIR
 10
0.0
 20
1.0
 30
0.0
  9
$PUCSORTHOREF
  2

  9
$PUCSORTHOVIEW
 70
     0
  9
$PUCSORGTOP
 10
0.0
 20
0.0
 30
0.0
  9
$PUCSORGBOTTOM
 10
0.0
 20
0.0
 30
0.0
  9
$PUCSORGLEFT
 10
0.0
 20
0.0
 30
0.0
  9
$PUCSORGRIGHT
 10
0.0
 20
0.0
 30
0.0
  9
$PUCSORGFRONT
 10
0.0
 20
0.0
 30
0.0
  9
$PUCSORGBACK
 10
0.0
 20
0.0
 30
0.0
  9
$USERI1
 70
     0
  9
$USERI2
 70
     0
  9
$USERI3
 70
     0
  9
$USERI4
 70
     0
  9
$USERI5
 70
     0
  9
$USERR1
 40
0.0
  9
$USERR2
 40
0.0
  9
$USERR3
 40
0.0
  9
$USERR4
 40
0.0
  9
$USERR5
 40
0.0
  9
$WORLDVIEW
 70
     1
  9
$SHADEDGE
 70
     3
  9
$SHADEDIF
 70
    70
  9
$TILEMODE
 70
     1
  9
$MAXACTVP
 70
    16
  9
$PINSBASE
 10
0.0
 20
0.0
 30
0.0
  9
$PLIMCHECK
 70
     0
  9
$PEXTMIN
 10
1.000000000000000E+20
 20
1.000000000000000E+20
 30
1.000000000000000E+20
  9
$PEXTMAX
 10
-1.000000000000000E+20
 20
-1.000000000000000E+20
 30
-1.000000000000000E+20
  9
$PLIMMIN
 10
0.0
 20
0.0
  9
$PLIMMAX
 10
12.0
 20
9.0
  9
$UNITMODE
 70
     0
  9
$VISRETAIN
 70
     0
  9
$PLINEGEN
 70
     1
  9
$PSLTSCALE
 70
     0
  9
$TREEDEPTH
 70
  3020
  9
$CMLSTYLE
  2
STANDARD
  9
$CMLJUST
 70
     0
  9
$CMLSCALE
 40
1.0
  9
$PROXYGRAPHICS
 70
     1
  9
$MEASUREMENT
 70
     0
  9
$CELWEIGHT
370
    -1
  9
$ENDCAPS
280
     0
  9
$JOINSTYLE
280
     0
  9
$LWDISPLAY
290
     0
  9
$INSUNITS
 70
     0
  9
$HYPERLINKBASE
  1

  9
$STYLESHEET
  1

  9
$XEDIT
290
     1
  9
$CEPSNTYPE
380
     0
  9
$PSTYLEMODE
290
     1
  9
$FINGERPRINTGUID
  2
{A217CB39-126F-48B8-B3A4-338CA449BEB6}
  9
$VERSIONGUID
  2
{BBE4680A-CD57-4FC1-8581-C8AE118AB4C0}
  9
$EXTNAMES
290
     1
  9
$PSVPSCALE
 40
0.0
  9
$OLESTARTUP
290
     0
  9
$SORTENTS
280
   127
  9
$INDEXCTL
280
     0
  9
$HIDETEXT
280
     0
  9
$XCLIPFRAME
280
     2
  9
$HALOGAP
280
     0
  9
$OBSCOLOR
 70
   257
  9
$OBSLTYPE
280
     0
  9
$INTERSECTIONDISPLAY
280
     0
  9
$INTERSECTIONCOLOR
 70
   257
  9
$DIMASSOC
280
     1
  9
$PROJECTNAME
  1

  9
$CAMERADISPLAY
290
     0
  9
$LENSLENGTH
 40
50.0
  9
$CAMERAHEIGHT
 40
0.0
  9
$STEPSPERSEC
 40
2.0
  9
$STEPSIZE
 40
6.0
  9
$3DDWFPREC
 40
2.0
  9
$PSOLWIDTH
 40
0.25
  9
$PSOLHEIGHT
 40
4.0
  9
$LOFTANG1
 40
1.570796326794896
  9
$LOFTANG2
 40
1.570796326794896
  9
$LOFTMAG1
 40
0.0
  9
$LOFTMAG2
 40
0.0
  9
$LOFTPARAM
 70
     7
  9
$LOFTNORMALS
280
     1
  9
$LATITUDE
 40
37.795
  9
$LONGITUDE
 40
-122.394
  9
$NORTHDIRECTION
 40
0.0
  9
$TIMEZONE
 70
 -8000
  9
$LIGHTGLYPHDISPLAY
280
     1
  9
$TILEMODELIGHTSYNCH
280
     1
  9
$CMATERIAL
347
1A5
  9
$SOLIDHIST
280
     0
  9
$SHOWHIST
280
     1
  9
$DWFFRAME
280
     2
  9
$DGNFRAME
280
     0
  9
$REALWORLDSCALE
290
     1
  9
$INTERFERECOLOR
 62
     1
  9
$INTERFEREOBJVS
345
1C7
  9
$INTERFEREVPVS
346
1C4
  9
$CSHADOW
280
     0
  9
$SHADOWPLANELOCATION
 40
0.0
  0
ENDSEC
  0
SECTION
  2
CLASSES
  0
CLASS
  1
IMAGE
  2
AcDbRasterImage
  3
ISM
 90
     2175
 91
        0
280
     0
281
     1
  0
CLASS
  1
DICTIONARYVAR
  2
AcDbDictionaryVar
  3
ObjectDBX Classes
 90
        0
 91
        9
280
     0
281
     0
  0
CLASS
  1
RASTERVARIABLES
  2
AcDbRasterVariables
  3
ISM
 90
        0
 91
        0
280
     0
281
     0
  0
CLASS
  1
IMAGEDEF
  2
AcDbRasterImageDef
  3
ISM
 90
        0
 91
        0
280
     0
281
     0
  0
CLASS
  1
IMAGEDEF_REACTOR
  2
AcDbRasterImageDefReactor
  3
ISM
 90
        1
 91
        0
280
     0
281
     0
  0
CLASS
  1
IDBUFFER
  2
AcDbIdBuffer
  3
ObjectDBX Classes
 90
        0
 91
        0
280
     0
281
     0
  0
CLASS
  1
SPATIAL_FILTER
  2
AcDbSpatialFilter
  3
ObjectDBX Classes
 90
        0
 91
        0
280
     0
281
     0
  0
CLASS
  1
SORTENTSTABLE
  2
AcDbSortentsTable
  3
ObjectDBX Classes
 90
        0
 91
        0
280
     0
281
     0
  0
CLASS
  1
LAYER_INDEX
  2
AcDbLayerIndex
  3
ObjectDBX Classes
 90
        0
 91
        0
280
     0
281
     0
  0
CLASS
  1
SPATIAL_INDEX
  2
AcDbSpatialIndex
  3
ObjectDBX Classes
 90
        0
 91
        0
280
     0
281
     0
  0
CLASS
  1
OBJECT_PTR
  2
CAseDLPNTableRecord
  3
"ASE-LPNTableRecord"
 90
        0
 91
        0
280
     0
281
     0
  0
CLASS
  1
PLOTSETTINGS
  2
AcDbPlotSettings
  3
ObjectDBX Classes
 90
        0
 91
        0
280
     0
281
     0
  0
CLASS
  1
ACDBDICTIONARYWDFLT
  2
AcDbDictionaryWithDefault
  3
ObjectDBX Classes
 90
        0
 91
        1
280
     0
281
     0
  0
CLASS
  1
WIPEOUT
  2
AcDbWipeout
  3
WipeOut|Product Desc: Object Enabler for WipeOut entity | Company: Autodesk, Inc. | WEB Address: www.autodesk.com
 90
     2175
 91
        0
280
     0
281
     1
  0
CLASS
  1
WIPEOUTVARIABLES
  2
AcDbWipeoutVariables
  3
"WipeOut|Product Desc:     WipeOut Dbx Application|Company:          Autodesk, Inc.|WEB Address:      www.autodesk.com"
 90
        0
 91
        0
280
     0
281
     0
  0
CLASS
  1
RTEXT
  2
RText
  3
RText|AutoCAD Express Tool|expresstools@autodesk.com
 90
        0
 91
        0
280
     0
281
     1
  0
CLASS
  1
ARCALIGNEDTEXT
  2
AcDbArcAlignedText
  3
ATEXT|AutoCAD Express Tool|expresstools@autodesk.com
 90
        0
 91
        0
280
     0
281
     1
  0
CLASS
  1
MATERIAL
  2
AcDbMaterial
  3
ObjectDBX Classes
 90
     1153
 91
        3
280
     0
281
     0
  0
CLASS
  1
VISUALSTYLE
  2
AcDbVisualStyle
  3
ObjectDBX Classes
 90
     4095
 91
       24
280
     0
281
     0
  0
CLASS
  1
TABLESTYLE
  2
AcDbTableStyle
  3
ObjectDBX Classes
 90
     4095
 91
        1
280
     0
281
     0
  0
CLASS
  1
SCALE
  2
AcDbScale
  3
ObjectDBX Classes
 90
     1153
 91
       17
280
     0
281
     0
  0
CLASS
  1
MLEADERSTYLE
  2
AcDbMLeaderStyle
  3
ACDB_MLEADERSTYLE_CLASS
 90
     4095
 91
        1
280
     0
281
     0
  0
CLASS
  1
ACDBSECTIONVIEWSTYLE
  2
AcDbSectionViewStyle
  3
ObjectDBX Classes
 90
     1025
 91
        2
280
     0
281
     0
  0
CLASS
  1
ACDBDETAILVIEWSTYLE
  2
AcDbDetailViewStyle
  3
ObjectDBX Classes
 90
     1025
 91
        2
280
     0
281
     0
  0
CLASS
  1
CELLSTYLEMAP
  2
AcDbCellStyleMap
  3
ObjectDBX Classes
 90
     1152
 91
        1
280
     0
281
     0
  0
ENDSEC
  0
SECTION
  2
TABLES
  0
TABLE
  2
VPORT
  5
7
330
0
100
AcDbSymbolTable
 70
     1
  0
VPORT
  5
15
330
7
100
AcDbSymbolTableRecord
100
AcDbViewportTableRecord
  2
*ACTIVE
 70
     0
 10
0.0
 20
0.0
 11
1.0
 21
1.0
 12
-535.2139354719315
 22
948.7290266541418
 13
0.0
 23
0.0
 14
1.0
 24
1.0
 15
0.0
 25
0.0
 16
0.0
 26
0.0
 36
1.0
 17
0.0
 27
0.0
 37
0.0
 40
1985.807325255307
 41
2.250340136054421
 42
50.0
 43
0.0
 44
0.0
 50
0.0
 51
0.0
 71
     0
 72
   100
 73
     1
 74
     1
 75
     0
 76
     0
 77
     0
 78
     0
281
     0
 65
     1
110
0.0
120
0.0
130
0.0
111
1.0
121
0.0
131
0.0
112
0.0
122
1.0
132
0.0
 79
     0
146
0.0
348
1C3
 60
     3
 61
     5
292
     1
282
     1
141
0.0
142
0.0
 63
   250
421
  3355443
1001
ACAD_NAV_VCDISPLAY
1070
     3
  0
ENDTAB
  0
TABLE
  2
LTYPE
  5
4
330
0
100
AcDbSymbolTable
 70
     3
  0
LTYPE
  5
11
330
4
100
AcDbSymbolTableRecord
100
AcDbLinetypeTableRecord
  2
BYBLOCK
 70
     0
  3

 72
    65
 73
     0
 40
0.0
  0
LTYPE
  5
12
330
4
100
AcDbSymbolTableRecord
100
AcDbLinetypeTableRecord
  2
BYLAYER
 70
     0
  3

 72
    65
 73
     0
 40
0.0
  0
LTYPE
  5
13
330
4
100
AcDbSymbolTableRecord
100
AcDbLinetypeTableRecord
  2
CONTINUOUS
 70
     0
  3
Solid line
 72
    65
 73
     0
 40
0.0
  0
LTYPE
  5
1E
330
4
100
AcDbSymbolTableRecord
100
AcDbLinetypeTableRecord
  2
STANDARD
 70
     0
  3

 72
    65
 73
     0
 40
0.0
  0
LTYPE
  5
1EE
330
4
100
AcDbSymbolTableRecord
100
AcDbLinetypeTableRecord
  2
PHANTOM2
 70
     0
  3
___ _ _ ___ _ _ ___ _ _ ___ _ _
 72
    65
 73
     6
 40
1.25
 49
0.625
 74
     0
 49
-0.125
 74
     0
 49
0.125
 74
     0
 49
-0.125
 74
     0
 49
0.125
 74
     0
 49
-0.125
 74
     0
  0
ENDTAB
  0
TABLE
  2
LAYER
  5
2
102
{ACAD_XDICTIONARY
360
200
102
}
330
0
100
AcDbSymbolTable
 70
     3
  0
LAYER
  5
14
102
{ACAD_XDICTIONARY
360
1F9
102
}
330
2
100
AcDbSymbolTableRecord
100
AcDbLayerTableRecord
  2
0
 70
     0
 62
     7
  6
CONTINUOUS
370
    -3
390
1A3
347
1B5
  0
LAYER
  5
1D
102
{ACAD_XDICTIONARY
360
1FB
102
}
330
2
100
AcDbSymbolTableRecord
100
AcDbLayerTableRecord
  2
BEMA_UNG
 70
     0
 62
   171
  6
CONTINUOUS
370
    -3
390
1A3
347
1B5
  0
LAYER
  5
29D
330
2
100
AcDbSymbolTableRecord
100
AcDbLayerTableRecord
  2
HEWI
 70
     0
 62
     7
  6
CONTINUOUS
370
     9
390
1A3
347
1B5
1001
AcAecLayerStandard
1000

1000

1001
AcCmTransparency
1071
        0
  0
ENDTAB
  0
TABLE
  2
STYLE
  5
3
330
0
100
AcDbSymbolTable
 70
     1
  0
STYLE
  5
17
330
3
100
AcDbSymbolTableRecord
100
AcDbTextStyleTableRecord
  2
STANDARD
 70
     0
 40
0.0
 41
1.0
 50
0.0
 71
     0
 42
0.0
  3
txt
  4

  0
ENDTAB
  0
TABLE
  2
VIEW
  5
5
330
0
100
AcDbSymbolTable
 70
     0
  0
ENDTAB
  0
TABLE
  2
UCS
  5
6
330
0
100
AcDbSymbolTable
 70
     0
  0
ENDTAB
  0
TABLE
  2
APPID
  5
8
330
0
100
AcDbSymbolTable
 70
     4
  0
APPID
  5
16
330
8
100
AcDbSymbolTableRecord
100
AcDbRegAppTableRecord
  2
ACAD
 70
     0
  0
APPID
  5
206
330
8
100
AcDbSymbolTableRecord
100
AcDbRegAppTableRecord
  2
ACAD_NAV_VCDISPLAY
 70
     0
  0
APPID
  5
29E
330
8
100
AcDbSymbolTableRecord
100
AcDbRegAppTableRecord
  2
AcAecLayerStandard
 70
     0
  0
APPID
  5
29F
330
8
100
AcDbSymbolTableRecord
100
AcDbRegAppTableRecord
  2
AcCmTransparency
 70
     0
  0
ENDTAB
  0
TABLE
  2
DIMSTYLE
  5
9
330
0
100
AcDbSymbolTable
 70
     1
100
AcDbDimStyleTable
 71
     0
  0
DIMSTYLE
105
18
330
9
100
AcDbSymbolTableRecord
100
AcDbDimStyleTableRecord
  2
STANDARD
 70
     0
289
     0
340
17
  0
ENDTAB
  0
TABLE
  2
BLOCK_RECORD
  5
1
330
0
100
AcDbSymbolTable
 70
     1
  0
BLOCK_RECORD
  5
A
330
1
100
AcDbSymbolTableRecord
100
AcDbBlockTableRecord
  2
*MODEL_SPACE
340
1F4
 70
     0
280
     1
281
     0
  0
BLOCK_RECORD
  5
B
330
1
100
AcDbSymbolTableRecord
100
AcDbBlockTableRecord
  2
*PAPER_SPACE
340
1F5
 70
     0
280
     1
281
     0
  0
ENDTAB
  0
ENDSEC
  0
SECTION
  2
BLOCKS
  0
BLOCK
  5
D
330
A
100
AcDbEntity
  8
0
100
AcDbBlockBegin
  2
*MODEL_SPACE
 70
     0
 10
0.0
 20
0.0
 30
0.0
  3
*MODEL_SPACE
  1

  0
ENDBLK
  5
E
330
A
100
AcDbEntity
  8
0
100
AcDbBlockEnd
  0
BLOCK
  5
F
330
B
100
AcDbEntity
 67
     1
  8
0
100
AcDbBlockBegin
  2
*PAPER_SPACE
 70
     0
 10
0.0
 20
0.0
 30
0.0
  3
*PAPER_SPACE
  1

  0
ENDBLK
  5
10
330
B
100
AcDbEntity
 67
     1
  8
0
100
AcDbBlockEnd
  0
ENDSEC
  0
SECTION
  2
ENTITIES
  0
LINE
  5
1F
330
A
100
AcDbEntity
  8
HEWI
100
AcDbLine
 10
-718.2636073718056
 20
990.8050643874574
 30
0.0
 11
-674.7636226305947
 21
990.8050643874574
 31
0.0
  0
LINE
  5
20
330
A
100
AcDbEntity
  8
HEWI
100
AcDbLine
 10
-1371.763592113016
 20
990.8050643874574
 30
0.0
 11
-1328.263683665751
 21
990.8050643874574
 31
0.0
  0
LINE
  5
21
330
A
100
AcDbEntity
  8
HEWI
100
AcDbLine
 10
-718.2636073718056
 20
985.8050643874575
 30
0.0
 11
-674.7636226305947
 21
985.8050643874575
 31
0.0
  0
LINE
  5
22
330
A
100
AcDbEntity
  8
HEWI
100
AcDbLine
 10
-1371.763592113016
 20
985.8050643874575
 30
0.0
 11
-1328.263683665751
 21
985.8050643874575
 31
0.0
  0
LINE
  5
23
330
A
100
AcDbEntity
  8
HEWI
100
AcDbLine
 10
-1383.263683665751
 20
803.3050643874574
 30
0.0
 11
-663.2636073718056
 21
803.3050643874574
 31
0.0
  0
LINE
  5
24
330
A
100
AcDbEntity
  8
HEWI
100
AcDbLine
 10
-669.2635921130166
 20
959.8050796462466
 30
0.0
 11
-668.2636073718056
 21
959.8050796462466
 31
0.0
  0
LINE
  5
25
330
A
100
AcDbEntity
  8
HEWI
100
AcDbLine
 10
-1378.263683665751
 20
959.8050796462466
 30
0.0
 11
-1377.263622630594
 21
959.8050796462466
 31
0.0
  0
LINE
  5
26
330
A
100
AcDbEntity
  8
HEWI
100
AcDbLine
 10
-669.2635921130166
 20
952.3050796462465
 30
0.0
 11
-668.2636073718056
 21
952.3050796462465
 31
0.0
  0
LINE
  5
27
330
A
100
AcDbEntity
  8
HEWI
100
AcDbLine
 10
-1378.263683665751
 20
952.3050796462465
 30
0.0
 11
-1377.263622630594
 21
952.3050796462465
 31
0.0
  0
LINE
  5
28
330
A
100
AcDbEntity
  8
HEWI
100
AcDbLine
 10
-669.2635921130166
 20
885.305072016852
 30
0.0
 11
-668.2636073718056
 21
885.305072016852
 31
0.0
  0
LINE
  5
29
330
A
100
AcDbEntity
  8
HEWI
100
AcDbLine
 10
-1378.263683665751
 20
885.305072016852
 30
0.0
 11
-1377.263622630594
 21
885.305072016852
 31
0.0
  0
LINE
  5
2A
330
A
100
AcDbEntity
  8
HEWI
100
AcDbLine
 10
-669.2635921130166
 20
877.805072016852
 30
0.0
 11
-668.2636073718056
 21
877.805072016852
 31
0.0
  0
LINE
  5
2B
330
A
100
AcDbEntity
  8
HEWI
100
AcDbLine
 10
-1378.263683665751
 20
877.805072016852
 30
0.0
 11
-1377.263622630594
 21
877.805072016852
 31
0.0
  0
LINE
  5
2C
330
A
100
AcDbEntity
  8
HEWI
100
AcDbLine
 10
-703.2636073718056
 20
979.8050796462465
 30
0.0
 11
-695.2635768542275
 21
979.8050796462465
 31
0.0
  0
LINE
  5
2D
330
A
100
AcDbEntity
  8
HEWI
100
AcDbLine
 10
-713.2636073718056
 20
979.8050796462465
 30
0.0
 11
-705.2635768542274
 21
979.8050796462465
 31
0.0
  0
LINE
  5
2E
330
A
100
AcDbEntity
  8
HEWI
100
AcDbLine
 10
-1341.263561595438
 20
979.8050796462465
 30
0.0
 11
-1333.263683665751
 21
979.8050796462465
 31
0.0
  0
LINE
  5
2F
330
A
100
AcDbEntity
  8
HEWI
100
AcDbLine
 10
-1351.263561595438
 20
979.8050796462465
 30
0.0
 11
-1343.263683665751
 21
979.8050796462465
 31
0.0
  0
LINE
  5
30
330
A
100
AcDbEntity
  8
HEWI
100
AcDbLine
 10
-1372.263622630595
 20
972.8050338698793
 30
0.0
 11
-674.2635921130165
 21
972.8050338698793
 31
0.0
  0
LINE
  5
31
330
A
100
AcDbEntity
  8
HEWI
100
AcDbLine
 10
-1372.263622630595
 20
973.8050949050355
 30
0.0
 11
-674.2635921130165
 21
973.8050949050355
 31
0.0
  0
LINE
  5
32
330
A
100
AcDbEntity
  8
HEWI
100
AcDbLine
 10
-1374.763622630595
 20
864.8050796462465
 30
0.0
 11
-671.7635921130165
 21
864.8050796462465
 31
0.0
  0
LINE
  5
33
330
A
100
AcDbEntity
  8
HEWI
100
AcDbLine
 10
-1374.763622630595
 20
863.8050567580629
 30
0.0
 11
-671.7635921130165
 21
863.8050567580629
 31
0.0
  0
LINE
  5
34
330
A
100
AcDbEntity
  8
HEWI
100
AcDbLine
 10
-1378.263683665751
 20
828.3050643874574
 30
0.0
 11
-668.2636073718056
 21
828.3050643874574
 31
0.0
  0
LINE
  5
35
330
A
100
AcDbEntity
  8
HEWI
100
AcDbLine
 10
-668.2636073718056
 20
803.3050643874574
 30
0.0
 11
-668.2636073718056
 21
979.3050491286685
 31
0.0
  0
LINE
  5
36
330
A
100
AcDbEntity
  8
HEWI
100
AcDbLine
 10
-663.2636073718056
 20
803.3050643874574
 30
0.0
 11
-663.2636073718056
 21
979.3050491286685
 31
0.0
  0
LINE
  5
37
330
A
100
AcDbEntity
  8
HEWI
100
AcDbLine
 10
-718.2636073718056
 20
985.8050643874575
 30
0.0
 11
-718.2636073718056
 21
990.8050643874574
 31
0.0
  0
LINE
  5
38
330
A
100
AcDbEntity
  8
HEWI
100
AcDbLine
 10
-1352.263622630595
 20
980.8050643874574
 30
0.0
 11
-1352.263622630595
 21
985.8050643874575
 31
0.0
  0
LINE
  5
39
330
A
100
AcDbEntity
  8
HEWI
100
AcDbLine
 10
-694.2635921130166
 20
980.8050643874574
 30
0.0
 11
-694.2635921130166
 21
985.8050643874575
 31
0.0
  0
LINE
  5
3A
330
A
100
AcDbEntity
  8
HEWI
100
AcDbLine
 10
-1378.263683665751
 20
803.3050643874574
 30
0.0
 11
-1378.263683665751
 21
979.3050491286685
 31
0.0
  0
LINE
  5
3B
330
A
100
AcDbEntity
  8
HEWI
100
AcDbLine
 10
-1383.263683665751
 20
803.3050643874574
 30
0.0
 11
-1383.263683665751
 21
979.3050491286685
 31
0.0
  0
LINE
  5
3C
330
A
100
AcDbEntity
  8
HEWI
100
AcDbLine
 10
-1328.263683665751
 20
985.8050643874575
 30
0.0
 11
-1328.263683665751
 21
990.8050643874574
 31
0.0
  0
LINE
  5
3D
330
A
100
AcDbEntity
  8
HEWI
100
AcDbLine
 10
-714.2635921130165
 20
980.8050643874574
 30
0.0
 11
-714.2635921130165
 21
985.8050643874575
 31
0.0
  0
LINE
  5
3E
330
A
100
AcDbEntity
  8
HEWI
100
AcDbLine
 10
-1332.263622630595
 20
980.8050643874574
 30
0.0
 11
-1332.263622630595
 21
985.8050643874575
 31
0.0
  0
LINE
  5
3F
330
A
100
AcDbEntity
  8
HEWI
100
AcDbLine
 10
-1377.263622630594
 20
866.3050567580629
 30
0.0
 11
-1377.263622630594
 21
968.8050949050357
 31
0.0
  0
LINE
  5
40
330
A
100
AcDbEntity
  8
HEWI
100
AcDbLine
 10
-1376.263561595438
 20
866.3050567580629
 30
0.0
 11
-1376.263561595438
 21
968.8050949050357
 31
0.0
  0
LINE
  5
41
330
A
100
AcDbEntity
  8
HEWI
100
AcDbLine
 10
-670.2635768542275
 20
866.3050567580629
 30
0.0
 11
-670.2635768542275
 21
968.8050949050357
 31
0.0
  0
LINE
  5
42
330
A
100
AcDbEntity
  8
HEWI
100
AcDbLine
 10
-669.2635921130166
 20
866.3050567580629
 30
0.0
 11
-669.2635921130166
 21
968.8050949050357
 31
0.0
  0
LINE
  5
43
330
A
100
AcDbEntity
  8
HEWI
100
AcDbLine
 10
-694.8956111559852
 20
979.875041194098
 30
0.0
 11
-694.5565608630166
 21
980.0980483962465
 31
0.0
  0
LINE
  5
44
330
A
100
AcDbEntity
  8
HEWI
100
AcDbLine
 10
-1332.895641673563
 20
979.875041194098
 30
0.0
 11
-1332.556591380595
 21
980.0980483962465
 31
0.0
  0
LINE
  5
45
330
A
100
AcDbEntity
  8
HEWI
100
AcDbLine
 10
-1352.193584788798
 20
980.4370986892152
 30
0.0
 11
-1351.970653880594
 21
980.0980483962465
 31
0.0
  0
LINE
  5
46
330
A
100
AcDbEntity
  8
HEWI
100
AcDbLine
 10
-714.1935542712197
 20
980.4370986892152
 30
0.0
 11
-713.9706233630165
 21
980.0980483962465
 31
0.0
  0
LINE
  5
47
330
A
100
AcDbEntity
  8
HEWI
100
AcDbLine
 10
-670.1675990710243
 20
983.9010726882387
 30
0.0
 11
-668.7196162829384
 21
981.6980850173402
 31
0.0
  0
LINE
  5
48
330
A
100
AcDbEntity
  8
HEWI
100
AcDbLine
 10
-1376.359691966532
 20
983.9010726882387
 30
0.0
 11
-1374.156628001688
 21
985.3490554763247
 31
0.0
  0
LINE
  5
49
330
A
100
AcDbEntity
  8
HEWI
100
AcDbLine
 10
-671.435604442118
 20
971.6330825759341
 30
0.0
 11
-670.5445674548134
 21
970.2770339919496
 31
0.0
  0
LINE
  5
4A
330
A
100
AcDbEntity
  8
HEWI
100
AcDbLine
 10
-1375.091686595438
 20
971.6330825759341
 30
0.0
 11
-1373.735638011454
 21
972.5240432692935
 31
0.0
  0
LINE
  5
4B
330
A
100
AcDbEntity
  8
HEWI
100
AcDbLine
 10
-666.6316035876259
 20
987.4370681716371
 30
0.0
 11
-664.0705684313759
 21
983.5380660964418
 31
0.0
  0
LINE
  5
4C
330
A
100
AcDbEntity
  8
HEWI
100
AcDbLine
 10
-1379.895611155985
 20
987.4370681716371
 30
0.0
 11
-1375.996685374735
 21
989.9980270339419
 31
0.0
  0
LINE
  5
4D
330
A
100
AcDbEntity
  8
HEWI
100
AcDbLine
 10
-1375.799541820048
 20
972.3410903884341
 30
0.0
 11
-1374.103680003641
 21
973.4540664626528
 31
0.0
  0
LINE
  5
4E
330
A
100
AcDbEntity
  8
HEWI
100
AcDbLine
 10
-670.727596629618
 20
972.3410903884341
 30
0.0
 11
-669.6146205553993
 21
970.6450759841372
 31
0.0
  0
LINE
  5
4F
330
A
100
AcDbEntity
  8
HEWI
100
AcDbLine
 10
-1376.158581126688
 20
865.753070063727
 30
0.0
 11
-1375.82456623411
 21
865.2440750075747
 31
0.0
  0
LINE
  5
50
330
A
100
AcDbEntity
  8
HEWI
100
AcDbLine
 10
-671.2116054186806
 20
864.9100601149966
 30
0.0
 11
-670.7025722155556
 21
865.2440750075747
 31
0.0
  0
LINE
  5
51
330
A
100
AcDbEntity
  8
HEWI
100
AcDbLine
 10
-1377.087688792704
 20
865.3850662185121
 30
0.0
 11
-1376.531658519266
 21
864.5370590163636
 31
0.0
  0
LINE
  5
52
330
A
100
AcDbEntity
  8
HEWI
100
AcDbLine
 10
-670.843563426493
 20
863.9810668898988
 30
0.0
 11
-669.9955562243446
 21
864.5370590163636
 31
0.0
  0
LINE
  5
53
330
A
100
AcDbEntity
  8
HEWI
100
AcDbLine
 10
-671.7635921130165
 20
863.8050567580629
 30
0.0
 11
-670.843563426493
 21
863.9810668898988
 31
0.0
  0
LINE
  5
54
330
A
100
AcDbEntity
  8
HEWI
100
AcDbLine
 10
-1377.263622630594
 20
866.3050567580629
 30
0.0
 11
-1377.087688792704
 21
865.3850662185121
 31
0.0
  0
LINE
  5
55
330
A
100
AcDbEntity
  8
HEWI
100
AcDbLine
 10
-670.5445674548134
 20
970.2770339919496
 30
0.0
 11
-670.2635768542275
 21
968.8050949050357
 31
0.0
  0
LINE
  5
56
330
A
100
AcDbEntity
  8
HEWI
100
AcDbLine
 10
-1373.735638011454
 20
972.5240432692935
 30
0.0
 11
-1372.263622630595
 21
972.8050338698793
 31
0.0
  0
LINE
  5
57
330
A
100
AcDbEntity
  8
HEWI
100
AcDbLine
 10
-669.6146205553993
 20
970.6450759841372
 30
0.0
 11
-669.2635921130166
 21
968.8050949050357
 31
0.0
  0
LINE
  5
58
330
A
100
AcDbEntity
  8
HEWI
100
AcDbLine
 10
-1374.103680003641
 20
973.4540664626528
 30
0.0
 11
-1372.263622630595
 21
973.8050949050355
 31
0.0
  0
LINE
  5
59
330
A
100
AcDbEntity
  8
HEWI
100
AcDbLine
 10
-1375.996685374735
 20
989.9980270339419
 30
0.0
 11
-1371.763592113016
 21
990.8050643874574
 31
0.0
  0
LINE
  5
5A
330
A
100
AcDbEntity
  8
HEWI
100
AcDbLine
 10
-664.0705684313759
 20
983.5380660964418
 30
0.0
 11
-663.2636073718056
 21
979.3050491286685
 31
0.0
  0
LINE
  5
5B
330
A
100
AcDbEntity
  8
HEWI
100
AcDbLine
 10
-668.7196162829384
 20
981.6980850173402
 30
0.0
 11
-668.2636073718056
 21
979.3050491286685
 31
0.0
  0
LINE
  5
5C
330
A
100
AcDbEntity
  8
HEWI
100
AcDbLine
 10
-1374.156628001688
 20
985.3490554763247
 30
0.0
 11
-1371.763592113016
 21
985.8050643874575
 31
0.0
  0
LINE
  5
5D
330
A
100
AcDbEntity
  8
HEWI
100
AcDbLine
 10
-1352.263622630595
 20
980.8050643874574
 30
0.0
 11
-1352.193584788798
 21
980.4370986892152
 31
0.0
  0
LINE
  5
5E
330
A
100
AcDbEntity
  8
HEWI
100
AcDbLine
 10
-714.2635921130165
 20
980.8050643874574
 30
0.0
 11
-714.1935542712197
 21
980.4370986892152
 31
0.0
  0
LINE
  5
5F
330
A
100
AcDbEntity
  8
HEWI
100
AcDbLine
 10
-1376.263561595438
 20
866.3050567580629
 30
0.0
 11
-1376.158581126688
 21
865.753070063727
 31
0.0
  0
LINE
  5
60
330
A
100
AcDbEntity
  8
HEWI
100
AcDbLine
 10
-671.7635921130165
 20
864.8050796462465
 30
0.0
 11
-671.2116054186806
 21
864.9100601149966
 31
0.0
  0
LINE
  5
61
330
A
100
AcDbEntity
  8
HEWI
100
AcDbLine
 10
-695.2635768542275
 20
979.8050796462465
 30
0.0
 11
-694.8956111559852
 21
979.875041194098
 31
0.0
  0
LINE
  5
62
330
A
100
AcDbEntity
  8
HEWI
100
AcDbLine
 10
-1333.263683665751
 20
979.8050796462465
 30
0.0
 11
-1332.895641673563
 21
979.875041194098
 31
0.0
  0
LINE
  5
63
330
A
100
AcDbEntity
  8
HEWI
100
AcDbLine
 10
-1351.631603587626
 20
979.875041194098
 30
0.0
 11
-1351.263561595438
 21
979.8050796462465
 31
0.0
  0
LINE
  5
64
330
A
100
AcDbEntity
  8
HEWI
100
AcDbLine
 10
-694.3335536608681
 20
980.4370986892152
 30
0.0
 11
-694.2635921130166
 21
980.8050643874574
 31
0.0
  0
LINE
  5
65
330
A
100
AcDbEntity
  8
HEWI
100
AcDbLine
 10
-713.6315730700478
 20
979.875041194098
 30
0.0
 11
-713.2636073718056
 21
979.8050796462465
 31
0.0
  0
LINE
  5
66
330
A
100
AcDbEntity
  8
HEWI
100
AcDbLine
 10
-1375.315685618876
 20
864.9100601149966
 30
0.0
 11
-1374.763622630595
 21
864.8050796462465
 31
0.0
  0
LINE
  5
67
330
A
100
AcDbEntity
  8
HEWI
100
AcDbLine
 10
-670.3685573229774
 20
865.753070063727
 30
0.0
 11
-670.2635768542275
 21
866.3050567580629
 31
0.0
  0
LINE
  5
68
330
A
100
AcDbEntity
  8
HEWI
100
AcDbLine
 10
-1332.333660472391
 20
980.4370986892152
 30
0.0
 11
-1332.263622630595
 21
980.8050643874574
 31
0.0
  0
LINE
  5
69
330
A
100
AcDbEntity
  8
HEWI
100
AcDbLine
 10
-674.7636226305947
 20
985.8050643874575
 30
0.0
 11
-672.3705867419227
 21
985.3490554763247
 31
0.0
  0
LINE
  5
6A
330
A
100
AcDbEntity
  8
HEWI
100
AcDbLine
 10
-1378.263683665751
 20
979.3050491286685
 30
0.0
 11
-1377.807598460673
 21
981.6980850173402
 31
0.0
  0
LINE
  5
6B
330
A
100
AcDbEntity
  8
HEWI
100
AcDbLine
 10
-1383.263683665751
 20
979.3050491286685
 30
0.0
 11
-1382.456646312235
 21
983.5380660964418
 31
0.0
  0
LINE
  5
6C
330
A
100
AcDbEntity
  8
HEWI
100
AcDbLine
 10
-674.7636226305947
 20
990.8050643874574
 30
0.0
 11
-670.5306056628212
 21
989.9980270339419
 31
0.0
  0
LINE
  5
6D
330
A
100
AcDbEntity
  8
HEWI
100
AcDbLine
 10
-1377.263622630594
 20
968.8050949050357
 30
0.0
 11
-1376.912670482157
 21
970.6450759841372
 31
0.0
  0
LINE
  5
6E
330
A
100
AcDbEntity
  8
HEWI
100
AcDbLine
 10
-674.2635921130165
 20
973.8050949050355
 30
0.0
 11
-672.4236110339149
 21
973.4540664626528
 31
0.0
  0
LINE
  5
6F
330
A
100
AcDbEntity
  8
HEWI
100
AcDbLine
 10
-1376.263561595438
 20
968.8050949050357
 30
0.0
 11
-1375.982647288798
 21
970.2770339919496
 31
0.0
  0
LINE
  5
70
330
A
100
AcDbEntity
  8
HEWI
100
AcDbLine
 10
-674.2635921130165
 20
972.8050338698793
 30
0.0
 11
-672.7915767321571
 21
972.5240432692935
 31
0.0
  0
LINE
  5
71
330
A
100
AcDbEntity
  8
HEWI
100
AcDbLine
 10
-669.4396022448525
 20
865.3850662185121
 30
0.0
 11
-669.2635921130166
 21
866.3050567580629
 31
0.0
  0
LINE
  5
72
330
A
100
AcDbEntity
  8
HEWI
100
AcDbLine
 10
-1375.683575023173
 20
863.9810668898988
 30
0.0
 11
-1374.763622630595
 21
863.8050567580629
 31
0.0
  0
LINE
  5
73
330
A
100
AcDbEntity
  8
HEWI
100
AcDbLine
 10
-1376.531658519266
 20
864.5370590163636
 30
0.0
 11
-1375.683575023173
 21
863.9810668898988
 31
0.0
  0
LINE
  5
74
330
A
100
AcDbEntity
  8
HEWI
100
AcDbLine
 10
-669.9955562243446
 20
864.5370590163636
 30
0.0
 11
-669.4396022448525
 21
865.3850662185121
 31
0.0
  0
LINE
  5
75
330
A
100
AcDbEntity
  8
HEWI
100
AcDbLine
 10
-670.7025722155556
 20
865.2440750075747
 30
0.0
 11
-670.3685573229774
 21
865.753070063727
 31
0.0
  0
LINE
  5
76
330
A
100
AcDbEntity
  8
HEWI
100
AcDbLine
 10
-672.4236110339149
 20
973.4540664626528
 30
0.0
 11
-670.727596629618
 21
972.3410903884341
 31
0.0
  0
LINE
  5
77
330
A
100
AcDbEntity
  8
HEWI
100
AcDbLine
 10
-1376.912670482157
 20
970.6450759841372
 30
0.0
 11
-1375.799541820048
 21
972.3410903884341
 31
0.0
  0
LINE
  5
78
330
A
100
AcDbEntity
  8
HEWI
100
AcDbLine
 10
-1375.82456623411
 20
865.2440750075747
 30
0.0
 11
-1375.315685618876
 21
864.9100601149966
 31
0.0
  0
LINE
  5
79
330
A
100
AcDbEntity
  8
HEWI
100
AcDbLine
 10
-670.5306056628212
 20
989.9980270339419
 30
0.0
 11
-666.6316035876259
 21
987.4370681716371
 31
0.0
  0
LINE
  5
7A
330
A
100
AcDbEntity
  8
HEWI
100
AcDbLine
 10
-1382.456646312235
 20
983.5380660964418
 30
0.0
 11
-1379.895611155985
 21
987.4370681716371
 31
0.0
  0
LINE
  5
7B
330
A
100
AcDbEntity
  8
HEWI
100
AcDbLine
 10
-1375.982647288798
 20
970.2770339919496
 30
0.0
 11
-1375.091686595438
 21
971.6330825759341
 31
0.0
  0
LINE
  5
7C
330
A
100
AcDbEntity
  8
HEWI
100
AcDbLine
 10
-672.7915767321571
 20
972.5240432692935
 30
0.0
 11
-671.435604442118
 21
971.6330825759341
 31
0.0
  0
LINE
  5
7D
330
A
100
AcDbEntity
  8
HEWI
100
AcDbLine
 10
-1377.807598460673
 20
981.6980850173402
 30
0.0
 11
-1376.359691966532
 21
983.9010726882387
 31
0.0
  0
LINE
  5
7E
330
A
100
AcDbEntity
  8
HEWI
100
AcDbLine
 10
-672.3705867419227
 20
985.3490554763247
 30
0.0
 11
-670.1675990710243
 21
983.9010726882387
 31
0.0
  0
LINE
  5
7F
330
A
100
AcDbEntity
  8
HEWI
100
AcDbLine
 10
-1332.556591380595
 20
980.0980483962465
 30
0.0
 11
-1332.333660472391
 21
980.4370986892152
 31
0.0
  0
LINE
  5
80
330
A
100
AcDbEntity
  8
HEWI
100
AcDbLine
 10
-694.5565608630166
 20
980.0980483962465
 30
0.0
 11
-694.3335536608681
 21
980.4370986892152
 31
0.0
  0
LINE
  5
81
330
A
100
AcDbEntity
  8
HEWI
100
AcDbLine
 10
-1351.970653880594
 20
980.0980483962465
 30
0.0
 11
-1351.631603587626
 21
979.875041194098
 31
0.0
  0
LINE
  5
82
330
A
100
AcDbEntity
  8
HEWI
100
AcDbLine
 10
-713.9706233630165
 20
980.0980483962465
 30
0.0
 11
-713.6315730700478
 21
979.875041194098
 31
0.0
  0
LINE
  5
83
330
A
100
AcDbEntity
  8
HEWI
100
AcDbLine
 10
-713.2635692248328
 20
1198.942351238987
 30
0.0
 11
-663.2635692248328
 21
1198.942351238987
 31
0.0
  0
LINE
  5
84
330
A
100
AcDbEntity
  8
HEWI
100
AcDbLine
 10
-1383.263569224833
 20
1198.942351238987
 30
0.0
 11
-1333.263569224833
 21
1198.942351238987
 31
0.0
  0
LINE
  5
85
330
A
100
AcDbEntity
  8
HEWI
100
AcDbLine
 10
-1383.263569224833
 20
1151.442351238987
 30
0.0
 11
-663.2635692248328
 21
1151.442351238987
 31
0.0
  0
LINE
  5
86
330
A
100
AcDbEntity
  8
HEWI
100
AcDbLine
 10
-713.2635692248328
 20
1128.942351238987
 30
0.0
 11
-690.545597423075
 21
1128.942351238987
 31
0.0
  0
LINE
  5
87
330
A
100
AcDbEntity
  8
HEWI
100
AcDbLine
 10
-1355.981617320536
 20
1128.942351238987
 30
0.0
 11
-1333.263569224833
 21
1128.942351238987
 31
0.0
  0
LINE
  5
88
330
A
100
AcDbEntity
  8
HEWI
100
AcDbLine
 10
-678.2635692248328
 20
1190.442366497776
 30
0.0
 11
-669.7635844836219
 21
1190.442366497776
 31
0.0
  0
LINE
  5
89
330
A
100
AcDbEntity
  8
HEWI
100
AcDbLine
 10
-1376.763630259989
 20
1190.442366497776
 30
0.0
 11
-1368.263569224833
 21
1190.442366497776
 31
0.0
  0
LINE
  5
8A
330
A
100
AcDbEntity
  8
HEWI
100
AcDbLine
 10
-678.2635692248328
 20
1184.442343609592
 30
0.0
 11
-669.7635844836219
 21
1184.442343609592
 31
0.0
  0
LINE
  5
8B
330
A
100
AcDbEntity
  8
HEWI
100
AcDbLine
 10
-1376.763630259989
 20
1184.442343609592
 30
0.0
 11
-1368.263569224833
 21
1184.442343609592
 31
0.0
  0
LINE
  5
8C
330
A
100
AcDbEntity
  8
HEWI
100
AcDbLine
 10
-669.7635844836219
 20
1191.192335980198
 30
0.0
 11
-668.2635692248328
 21
1191.192335980198
 31
0.0
  0
LINE
  5
8D
330
A
100
AcDbEntity
  8
HEWI
100
AcDbLine
 10
-1378.263569224833
 20
1191.192335980198
 30
0.0
 11
-1376.763630259989
 21
1191.192335980198
 31
0.0
  0
LINE
  5
8E
330
A
100
AcDbEntity
  8
HEWI
100
AcDbLine
 10
-669.7635844836219
 20
1183.692335980198
 30
0.0
 11
-668.2635692248328
 21
1183.692335980198
 31
0.0
  0
LINE
  5
8F
330
A
100
AcDbEntity
  8
HEWI
100
AcDbLine
 10
-1378.263569224833
 20
1183.692335980198
 30
0.0
 11
-1376.763630259989
 21
1183.692335980198
 31
0.0
  0
LINE
  5
90
330
A
100
AcDbEntity
  8
HEWI
100
AcDbLine
 10
-1376.263599742411
 20
1198.642363446018
 30
0.0
 11
-670.2636150012
 21
1198.642363446018
 31
0.0
  0
LINE
  5
91
330
A
100
AcDbEntity
  8
HEWI
100
AcDbLine
 10
-1376.263599742411
 20
1192.642340557835
 30
0.0
 11
-670.2636150012
 21
1192.642340557835
 31
0.0
  0
LINE
  5
92
330
A
100
AcDbEntity
  8
HEWI
100
AcDbLine
 10
-1378.263569224833
 20
1176.442351238987
 30
0.0
 11
-668.2635692248328
 21
1176.442351238987
 31
0.0
  0
LINE
  5
93
330
A
100
AcDbEntity
  8
HEWI
100
AcDbLine
 10
-668.2635692248328
 20
1151.442351238987
 30
0.0
 11
-668.2635692248328
 21
1198.942351238987
 31
0.0
  0
LINE
  5
94
330
A
100
AcDbEntity
  8
HEWI
100
AcDbLine
 10
-663.2635692248328
 20
1151.442351238987
 30
0.0
 11
-663.2635692248328
 21
1198.942351238987
 31
0.0
  0
LINE
  5
95
330
A
100
AcDbEntity
  8
HEWI
100
AcDbLine
 10
-669.7635844836219
 20
1183.692335980198
 30
0.0
 11
-669.7635844836219
 21
1191.192335980198
 31
0.0
  0
LINE
  5
96
330
A
100
AcDbEntity
  8
HEWI
100
AcDbLine
 10
-678.2635692248328
 20
1184.442343609592
 30
0.0
 11
-678.2635692248328
 21
1190.442366497776
 31
0.0
  0
LINE
  5
97
330
A
100
AcDbEntity
  8
HEWI
100
AcDbLine
 10
-718.2635692248328
 20
1176.442351238987
 30
0.0
 11
-718.2635692248328
 21
1192.642340557835
 31
0.0
  0
LINE
  5
98
330
A
100
AcDbEntity
  8
HEWI
100
AcDbLine
 10
-718.2635692248328
 20
1133.942351238987
 30
0.0
 11
-718.2635692248328
 21
1151.442351238987
 31
0.0
  0
LINE
  5
99
330
A
100
AcDbEntity
  8
HEWI
100
AcDbLine
 10
-1378.263569224833
 20
1151.442351238987
 30
0.0
 11
-1378.263569224833
 21
1198.942351238987
 31
0.0
  0
LINE
  5
9A
330
A
100
AcDbEntity
  8
HEWI
100
AcDbLine
 10
-1383.263569224833
 20
1151.442351238987
 30
0.0
 11
-1383.263569224833
 21
1198.942351238987
 31
0.0
  0
LINE
  5
9B
330
A
100
AcDbEntity
  8
HEWI
100
AcDbLine
 10
-1376.763630259989
 20
1183.692335980198
 30
0.0
 11
-1376.763630259989
 21
1191.192335980198
 31
0.0
  0
LINE
  5
9C
330
A
100
AcDbEntity
  8
HEWI
100
AcDbLine
 10
-1368.263569224833
 20
1184.442343609592
 30
0.0
 11
-1368.263569224833
 21
1190.442366497776
 31
0.0
  0
LINE
  5
9D
330
A
100
AcDbEntity
  8
HEWI
100
AcDbLine
 10
-1328.263569224833
 20
1176.442351238987
 30
0.0
 11
-1328.263569224833
 21
1192.642340557835
 31
0.0
  0
LINE
  5
9E
330
A
100
AcDbEntity
  8
HEWI
100
AcDbLine
 10
-1328.263569224833
 20
1133.942351238987
 30
0.0
 11
-1328.263569224833
 21
1151.442351238987
 31
0.0
  0
LINE
  5
9F
330
A
100
AcDbEntity
  8
HEWI
100
AcDbLine
 10
-669.2636302599891
 20
1193.642363446018
 30
0.0
 11
-669.2636302599891
 21
1197.642340557835
 31
0.0
  0
LINE
  5
A0
330
A
100
AcDbEntity
  8
HEWI
100
AcDbLine
 10
-1377.263660777567
 20
1193.642363446018
 30
0.0
 11
-1377.263660777567
 21
1197.642340557835
 31
0.0
  0
LINE
  5
A1
330
A
100
AcDbEntity
  8
HEWI
100
AcDbLine
 10
-670.2636150012
 20
1198.642363446018
 30
0.0
 11
-669.2636302599891
 21
1197.642340557835
 31
0.0
  0
LINE
  5
A2
330
A
100
AcDbEntity
  8
HEWI
100
AcDbLine
 10
-1377.263660777567
 20
1197.642340557835
 30
0.0
 11
-1376.263599742411
 21
1198.642363446018
 31
0.0
  0
LINE
  5
A3
330
A
100
AcDbEntity
  8
HEWI
100
AcDbLine
 10
-1359.382801402567
 20
1130.328879254124
 30
0.0
 11
-1359.233570445536
 21
1130.144324200413
 31
0.0
  0
LINE
  5
A4
330
A
100
AcDbEntity
  8
HEWI
100
AcDbLine
 10
-1360.376606334208
 20
1131.558356182835
 30
0.0
 11
-1359.863911021708
 21
1130.924162762425
 31
0.0
  0
LINE
  5
A5
330
A
100
AcDbEntity
  8
HEWI
100
AcDbLine
 10
-1359.863911021708
 20
1130.924162762425
 30
0.0
 11
-1359.382801402567
 21
1130.328879254124
 31
0.0
  0
LINE
  5
A6
330
A
100
AcDbEntity
  8
HEWI
100
AcDbLine
 10
-687.1444133410437
 20
1130.328879254124
 30
0.0
 11
-686.9735911974891
 21
1130.443358319065
 31
0.0
  0
LINE
  5
A7
330
A
100
AcDbEntity
  8
HEWI
100
AcDbLine
 10
-688.6676219592078
 20
1129.308333294651
 30
0.0
 11
-688.2350352892859
 21
1129.598173992893
 31
0.0
  0
LINE
  5
A8
330
A
100
AcDbEntity
  8
HEWI
100
AcDbLine
 10
-688.2350352892859
 20
1129.598173992893
 30
0.0
 11
-687.1444133410437
 21
1130.328879254124
 31
0.0
  0
LINE
  5
A9
330
A
100
AcDbEntity
  8
HEWI
100
AcDbLine
 10
-1351.631641734598
 20
1138.129324810765
 30
0.0
 11
-1349.62755237913
 21
1135.078329937718
 31
0.0
  0
LINE
  5
AA
330
A
100
AcDbEntity
  8
HEWI
100
AcDbLine
 10
-1351.631641734598
 20
1183.129362957737
 30
0.0
 11
-1349.62755237913
 21
1180.07836808469
 31
0.0
  0
LINE
  5
AB
330
A
100
AcDbEntity
  8
HEWI
100
AcDbLine
 10
-1334.791889537332
 20
1192.642340557835
 30
0.0
 11
-1332.895527232645
 21
1189.755339520237
 31
0.0
  0
LINE
  5
AC
330
A
100
AcDbEntity
  8
HEWI
100
AcDbLine
 10
-696.8995860705359
 20
1147.806334393284
 30
0.0
 11
-694.8955730090125
 21
1144.755339520237
 31
0.0
  0
LINE
  5
AD
330
A
100
AcDbEntity
  8
HEWI
100
AcDbLine
 10
-713.6316112170203
 20
1183.129362957737
 30
0.0
 11
-711.6275981554969
 21
1180.07836808469
 31
0.0
  0
LINE
  5
AE
330
A
100
AcDbEntity
  8
HEWI
100
AcDbLine
 10
-713.3815959582313
 20
1138.379340069554
 30
0.0
 11
-711.3775828967078
 21
1135.328345196507
 31
0.0
  0
LINE
  5
AF
330
A
100
AcDbEntity
  8
HEWI
100
AcDbLine
 10
-1349.62755237913
 20
1147.806334393284
 30
0.0
 11
-1346.576557506083
 21
1149.810347454808
 31
0.0
  0
LINE
  5
B0
330
A
100
AcDbEntity
  8
HEWI
100
AcDbLine
 10
-699.9505809435828
 20
1178.074355023167
 30
0.0
 11
-696.8995860705359
 21
1180.07836808469
 31
0.0
  0
LINE
  5
B1
330
A
100
AcDbEntity
  8
HEWI
100
AcDbLine
 10
-1338.200550426005
 20
1133.324332134983
 30
0.0
 11
-1335.149555552958
 21
1135.328345196507
 31
0.0
  0
LINE
  5
B2
330
A
100
AcDbEntity
  8
HEWI
100
AcDbLine
 10
-1337.950611461161
 20
1178.074355023167
 30
0.0
 11
-1334.899616588114
 21
1180.07836808469
 31
0.0
  0
LINE
  5
B3
330
A
100
AcDbEntity
  8
HEWI
100
AcDbLine
 10
-696.7918590197547
 20
1192.642340557835
 30
0.0
 11
-694.8955730090125
 21
1189.755339520237
 31
0.0
  0
LINE
  5
B4
330
A
100
AcDbEntity
  8
HEWI
100
AcDbLine
 10
-699.9505809435828
 20
1133.074355023167
 30
0.0
 11
-696.8995860705359
 21
1135.078329937718
 31
0.0
  0
LINE
  5
B5
330
A
100
AcDbEntity
  8
HEWI
100
AcDbLine
 10
-711.3775828967078
 20
1148.056349652073
 30
0.0
 11
-708.3265880236609
 21
1150.060324566624
 31
0.0
  0
LINE
  5
B6
330
A
100
AcDbEntity
  8
HEWI
100
AcDbLine
 10
-1335.149555552958
 20
1148.056349652073
 30
0.0
 11
-1333.145618785379
 21
1145.005354779026
 31
0.0
  0
LINE
  5
B7
330
A
100
AcDbEntity
  8
HEWI
100
AcDbLine
 10
-717.9126170763953
 20
1132.101340191624
 30
0.0
 11
-716.7995647082313
 21
1130.406355755589
 31
0.0
  0
LINE
  5
B8
330
A
100
AcDbEntity
  8
HEWI
100
AcDbLine
 10
-1331.423664439676
 20
1129.293341534397
 30
0.0
 11
-1329.727650035379
 21
1130.406355755589
 31
0.0
  0
LINE
  5
B9
330
A
100
AcDbEntity
  8
HEWI
100
AcDbLine
 10
-1360.640583384989
 20
1132.127356426976
 30
0.0
 11
-1360.489673961161
 21
1131.893668072483
 31
0.0
  0
LINE
  5
BA
330
A
100
AcDbEntity
  8
HEWI
100
AcDbLine
 10
-1359.863911021708
 20
1130.924162762425
 30
0.0
 11
-1359.553547252176
 21
1130.443358319065
 31
0.0
  0
LINE
  5
BB
330
A
100
AcDbEntity
  8
HEWI
100
AcDbLine
 10
-1360.489673961161
 20
1131.893668072483
 30
0.0
 11
-1359.863911021708
 21
1130.924162762425
 31
0.0
  0
LINE
  5
BC
330
A
100
AcDbEntity
  8
HEWI
100
AcDbLine
 10
-688.768482554911
 20
1129.288687603733
 30
0.0
 11
-688.2350352892859
 21
1129.598173992893
 31
0.0
  0
LINE
  5
BD
330
A
100
AcDbEntity
  8
HEWI
100
AcDbLine
 10
-688.8656047472937
 20
1129.23234452512
 30
0.0
 11
-688.768482554911
 21
1129.288687603733
 31
0.0
  0
LINE
  5
BE
330
A
100
AcDbEntity
  8
HEWI
100
AcDbLine
 10
-688.2350352892859
 20
1129.598173992893
 30
0.0
 11
-687.2935680041297
 21
1130.144324200413
 31
0.0
  0
LINE
  5
BF
330
A
100
AcDbEntity
  8
HEWI
100
AcDbLine
 10
-1360.92165027952
 20
1133.17334641721
 30
0.0
 11
-1360.489673961161
 21
1131.893668072483
 31
0.0
  0
LINE
  5
C0
330
A
100
AcDbEntity
  8
HEWI
100
AcDbLine
 10
-1360.489673961161
 20
1131.893668072483
 30
0.0
 11
-1360.376606334208
 21
1131.558356182835
 31
0.0
  0
LINE
  5
C1
330
A
100
AcDbEntity
  8
HEWI
100
AcDbLine
 10
-1360.92165027952
 20
1133.17334641721
 30
0.0
 11
-1360.640583384989
 21
1132.127356426976
 31
0.0
  0
LINE
  5
C2
330
A
100
AcDbEntity
  8
HEWI
100
AcDbLine
 10
-690.545597423075
 20
1128.942351238987
 30
0.0
 11
-688.768482554911
 21
1129.288687603733
 31
0.0
  0
LINE
  5
C3
330
A
100
AcDbEntity
  8
HEWI
100
AcDbLine
 10
-688.768482554911
 20
1129.288687603733
 30
0.0
 11
-688.6676219592078
 21
1129.308333294651
 31
0.0
  0
LINE
  5
C4
330
A
100
AcDbEntity
  8
HEWI
100
AcDbLine
 10
-705.0135997424109
 20
1132.692351238987
 30
0.0
 11
-704.7938731799109
 21
1132.734274761936
 31
0.0
  0
LINE
  5
C5
330
A
100
AcDbEntity
  8
HEWI
100
AcDbLine
 10
-1343.263569224833
 20
1177.442335980198
 30
0.0
 11
-1342.263660777567
 21
1177.633108990452
 31
0.0
  0
LINE
  5
C6
330
A
100
AcDbEntity
  8
HEWI
100
AcDbLine
 10
-705.2636150012
 20
1177.442335980198
 30
0.0
 11
-704.263630259989
 21
1177.633108990452
 31
0.0
  0
LINE
  5
C7
330
A
100
AcDbEntity
  8
HEWI
100
AcDbLine
 10
-1343.263569224833
 20
1132.442335980198
 30
0.0
 11
-1341.733265269754
 21
1132.734274761936
 31
0.0
  0
LINE
  5
C8
330
A
100
AcDbEntity
  8
HEWI
100
AcDbLine
 10
-1352.263660777567
 20
1186.442351238987
 30
0.0
 11
-1351.631641734598
 21
1183.129362957737
 31
0.0
  0
LINE
  5
C9
330
A
100
AcDbEntity
  8
HEWI
100
AcDbLine
 10
-714.2636302599891
 20
1186.442351238987
 30
0.0
 11
-713.6316112170203
 21
1183.129362957737
 31
0.0
  0
LINE
  5
CA
330
A
100
AcDbEntity
  8
HEWI
100
AcDbLine
 10
-714.0136150012
 20
1141.692328350804
 30
0.0
 11
-713.3815959582313
 21
1138.379340069554
 31
0.0
  0
LINE
  5
CB
330
A
100
AcDbEntity
  8
HEWI
100
AcDbLine
 10
-703.2635692248328
 20
1132.442335980198
 30
0.0
 11
-699.9505809435828
 21
1133.074355023167
 31
0.0
  0
LINE
  5
CC
330
A
100
AcDbEntity
  8
HEWI
100
AcDbLine
 10
-703.2635692248328
 20
1177.442335980198
 30
0.0
 11
-699.9505809435828
 21
1178.074355023167
 31
0.0
  0
LINE
  5
CD
330
A
100
AcDbEntity
  8
HEWI
100
AcDbLine
 10
-1341.263599742411
 20
1177.442335980198
 30
0.0
 11
-1337.950611461161
 21
1178.074355023167
 31
0.0
  0
LINE
  5
CE
330
A
100
AcDbEntity
  8
HEWI
100
AcDbLine
 10
-708.3265880236609
 20
1150.060324566624
 30
0.0
 11
-705.0135997424109
 21
1150.692343609593
 31
0.0
  0
LINE
  5
CF
330
A
100
AcDbEntity
  8
HEWI
100
AcDbLine
 10
-1352.263660777567
 20
1141.442351238987
 30
0.0
 11
-1351.631641734598
 21
1138.129324810765
 31
0.0
  0
LINE
  5
D0
330
A
100
AcDbEntity
  8
HEWI
100
AcDbLine
 10
-1333.145618785379
 20
1145.005354779026
 30
0.0
 11
-1332.513599742411
 21
1141.692328350804
 31
0.0
  0
LINE
  5
D1
330
A
100
AcDbEntity
  8
HEWI
100
AcDbLine
 10
-1333.263569224833
 20
1128.942351238987
 30
0.0
 11
-1331.423664439676
 21
1129.293341534397
 31
0.0
  0
LINE
  5
D2
330
A
100
AcDbEntity
  8
HEWI
100
AcDbLine
 10
-1346.576557506083
 20
1149.810347454808
 30
0.0
 11
-1343.263569224833
 21
1150.442328350804
 31
0.0
  0
LINE
  5
D3
330
A
100
AcDbEntity
  8
HEWI
100
AcDbLine
 10
-1341.513538707254
 20
1132.692351238987
 30
0.0
 11
-1338.200550426005
 21
1133.324332134983
 31
0.0
  0
LINE
  5
D4
330
A
100
AcDbEntity
  8
HEWI
100
AcDbLine
 10
-714.8362163195594
 20
1198.642363446018
 30
0.0
 11
-713.2635692248328
 21
1198.942351238987
 31
0.0
  0
LINE
  5
D5
330
A
100
AcDbEntity
  8
HEWI
100
AcDbLine
 10
-694.8955730090125
 20
1144.755339520237
 30
0.0
 11
-694.2636302599891
 21
1141.442351238987
 31
0.0
  0
LINE
  5
D6
330
A
100
AcDbEntity
  8
HEWI
100
AcDbLine
 10
-694.8955730090125
 20
1189.755339520237
 30
0.0
 11
-694.2636302599891
 21
1186.442351238987
 31
0.0
  0
LINE
  5
D7
330
A
100
AcDbEntity
  8
HEWI
100
AcDbLine
 10
-1343.043842662333
 20
1150.400442974827
 30
0.0
 11
-1341.513538707254
 21
1150.692343609593
 31
0.0
  0
LINE
  5
D8
330
A
100
AcDbEntity
  8
HEWI
100
AcDbLine
 10
-1332.895527232645
 20
1189.755339520237
 30
0.0
 11
-1332.263660777567
 21
1186.442351238987
 31
0.0
  0
LINE
  5
D9
330
A
100
AcDbEntity
  8
HEWI
100
AcDbLine
 10
-718.2635692248328
 20
1133.942351238987
 30
0.0
 11
-717.9126170763953
 21
1132.101340191624
 31
0.0
  0
LINE
  5
DA
330
A
100
AcDbEntity
  8
HEWI
100
AcDbLine
 10
-703.4832957873328
 20
1150.400442974827
 30
0.0
 11
-703.2635692248328
 21
1150.442328350804
 31
0.0
  0
LINE
  5
DB
330
A
100
AcDbEntity
  8
HEWI
100
AcDbLine
 10
-690.545597423075
 20
1128.942351238987
 30
0.0
 11
-688.8656047472937
 21
1129.23234452512
 31
0.0
  0
LINE
  5
DC
330
A
100
AcDbEntity
  8
HEWI
100
AcDbLine
 10
-1363.763599742411
 20
1151.442351238987
 30
0.0
 11
-1360.92165027952
 21
1133.17334641721
 31
0.0
  0
LINE
  5
DD
330
A
100
AcDbEntity
  8
HEWI
100
AcDbLine
 10
-685.6055644640906
 20
1133.17334641721
 30
0.0
 11
-682.7635387072547
 21
1151.442351238987
 31
0.0
  0
LINE
  5
DE
330
A
100
AcDbEntity
  8
HEWI
100
AcDbLine
 10
-1357.661609996317
 20
1129.23234452512
 30
0.0
 11
-1355.981617320536
 21
1128.942351238987
 31
0.0
  0
LINE
  5
DF
330
A
100
AcDbEntity
  8
HEWI
100
AcDbLine
 10
-1343.263569224833
 20
1150.442328350804
 30
0.0
 11
-1343.043842662333
 21
1150.400442974827
 31
0.0
  0
LINE
  5
E0
330
A
100
AcDbEntity
  8
HEWI
100
AcDbLine
 10
-1328.61452137327
 20
1132.101340191624
 30
0.0
 11
-1328.263569224833
 21
1133.942351238987
 31
0.0
  0
LINE
  5
E1
330
A
100
AcDbEntity
  8
HEWI
100
AcDbLine
 10
-1332.895527232645
 20
1183.129362957737
 30
0.0
 11
-1332.263660777567
 21
1186.442351238987
 31
0.0
  0
LINE
  5
E2
330
A
100
AcDbEntity
  8
HEWI
100
AcDbLine
 10
-694.8955730090125
 20
1138.129324810765
 30
0.0
 11
-694.2636302599891
 21
1141.442351238987
 31
0.0
  0
LINE
  5
E3
330
A
100
AcDbEntity
  8
HEWI
100
AcDbLine
 10
-705.0135997424109
 20
1150.692343609593
 30
0.0
 11
-703.4832957873328
 21
1150.400442974827
 31
0.0
  0
LINE
  5
E4
330
A
100
AcDbEntity
  8
HEWI
100
AcDbLine
 10
-694.8955730090125
 20
1183.129362957737
 30
0.0
 11
-694.2636302599891
 21
1186.442351238987
 31
0.0
  0
LINE
  5
E5
330
A
100
AcDbEntity
  8
HEWI
100
AcDbLine
 10
-715.1036265978797
 20
1129.293341534397
 30
0.0
 11
-713.2635692248328
 21
1128.942351238987
 31
0.0
  0
LINE
  5
E6
330
A
100
AcDbEntity
  8
HEWI
100
AcDbLine
 10
-703.2635692248328
 20
1150.442328350804
 30
0.0
 11
-699.9505809435828
 21
1149.810347454808
 31
0.0
  0
LINE
  5
E7
330
A
100
AcDbEntity
  8
HEWI
100
AcDbLine
 10
-708.3265880236609
 20
1133.324332134983
 30
0.0
 11
-705.0135997424109
 21
1132.692351238987
 31
0.0
  0
LINE
  5
E8
330
A
100
AcDbEntity
  8
HEWI
100
AcDbLine
 10
-704.263630259989
 20
1177.633108990452
 30
0.0
 11
-703.2635692248328
 21
1177.442335980198
 31
0.0
  0
LINE
  5
E9
330
A
100
AcDbEntity
  8
HEWI
100
AcDbLine
 10
-1342.263660777567
 20
1177.633108990452
 30
0.0
 11
-1341.263599742411
 21
1177.442335980198
 31
0.0
  0
LINE
  5
EA
330
A
100
AcDbEntity
  8
HEWI
100
AcDbLine
 10
-1333.263569224833
 20
1198.942351238987
 30
0.0
 11
-1331.690998424051
 21
1198.642363446018
 31
0.0
  0
LINE
  5
EB
330
A
100
AcDbEntity
  8
HEWI
100
AcDbLine
 10
-714.0136150012
 20
1141.692328350804
 30
0.0
 11
-713.3815959582313
 21
1145.005354779026
 31
0.0
  0
LINE
  5
EC
330
A
100
AcDbEntity
  8
HEWI
100
AcDbLine
 10
-1352.263660777567
 20
1141.442351238987
 30
0.0
 11
-1351.631641734598
 21
1144.755339520237
 31
0.0
  0
LINE
  5
ED
330
A
100
AcDbEntity
  8
HEWI
100
AcDbLine
 10
-1352.263660777567
 20
1186.442351238987
 30
0.0
 11
-1351.631641734598
 21
1189.755339520237
 31
0.0
  0
LINE
  5
EE
330
A
100
AcDbEntity
  8
HEWI
100
AcDbLine
 10
-714.2636302599891
 20
1186.442351238987
 30
0.0
 11
-713.6316112170203
 21
1189.755339520237
 31
0.0
  0
LINE
  5
EF
330
A
100
AcDbEntity
  8
HEWI
100
AcDbLine
 10
-1333.145618785379
 20
1138.379340069554
 30
0.0
 11
-1332.513599742411
 21
1141.692328350804
 31
0.0
  0
LINE
  5
F0
330
A
100
AcDbEntity
  8
HEWI
100
AcDbLine
 10
-1346.576557506083
 20
1133.074355023167
 30
0.0
 11
-1343.263569224833
 21
1132.442335980198
 31
0.0
  0
LINE
  5
F1
330
A
100
AcDbEntity
  8
HEWI
100
AcDbLine
 10
-1346.576557506083
 20
1178.074355023167
 30
0.0
 11
-1343.263569224833
 21
1177.442335980198
 31
0.0
  0
LINE
  5
F2
330
A
100
AcDbEntity
  8
HEWI
100
AcDbLine
 10
-708.57660328245
 20
1178.074355023167
 30
0.0
 11
-705.2636150012
 21
1177.442335980198
 31
0.0
  0
LINE
  5
F3
330
A
100
AcDbEntity
  8
HEWI
100
AcDbLine
 10
-1341.513538707254
 20
1150.692343609593
 30
0.0
 11
-1338.200550426005
 21
1150.060324566624
 31
0.0
  0
LINE
  5
F4
330
A
100
AcDbEntity
  8
HEWI
100
AcDbLine
 10
-704.7938731799109
 20
1132.734274761936
 30
0.0
 11
-703.2635692248328
 21
1132.442335980198
 31
0.0
  0
LINE
  5
F5
330
A
100
AcDbEntity
  8
HEWI
100
AcDbLine
 10
-1341.733265269754
 20
1132.734274761936
 30
0.0
 11
-1341.513538707254
 21
1132.692351238987
 31
0.0
  0
LINE
  5
F6
330
A
100
AcDbEntity
  8
HEWI
100
AcDbLine
 10
-1357.859669078348
 20
1129.308333294651
 30
0.0
 11
-1357.758655894754
 21
1129.288687603733
 31
0.0
  0
LINE
  5
F7
330
A
100
AcDbEntity
  8
HEWI
100
AcDbLine
 10
-1357.758655894754
 20
1129.288687603733
 30
0.0
 11
-1355.981617320536
 21
1128.942351238987
 31
0.0
  0
LINE
  5
F8
330
A
100
AcDbEntity
  8
HEWI
100
AcDbLine
 10
-685.8866313586219
 20
1132.127356426976
 30
0.0
 11
-685.6055644640906
 21
1133.17334641721
 31
0.0
  0
LINE
  5
F9
330
A
100
AcDbEntity
  8
HEWI
100
AcDbLine
 10
-686.1506084094031
 20
1131.558356182835
 30
0.0
 11
-686.0374644885047
 21
1131.893668072483
 31
0.0
  0
LINE
  5
FA
330
A
100
AcDbEntity
  8
HEWI
100
AcDbLine
 10
-686.0374644885047
 20
1131.893668072483
 30
0.0
 11
-685.6055644640906
 21
1133.17334641721
 31
0.0
  0
LINE
  5
FB
330
A
100
AcDbEntity
  8
HEWI
100
AcDbLine
 10
-1359.233570445536
 20
1130.144324200413
 30
0.0
 11
-1358.292103160379
 21
1129.598173992893
 31
0.0
  0
LINE
  5
FC
330
A
100
AcDbEntity
  8
HEWI
100
AcDbLine
 10
-1358.292103160379
 20
1129.598173992893
 30
0.0
 11
-1357.758655894754
 21
1129.288687603733
 31
0.0
  0
LINE
  5
FD
330
A
100
AcDbEntity
  8
HEWI
100
AcDbLine
 10
-1357.758655894754
 20
1129.288687603733
 30
0.0
 11
-1357.661609996317
 21
1129.23234452512
 31
0.0
  0
LINE
  5
FE
330
A
100
AcDbEntity
  8
HEWI
100
AcDbLine
 10
-686.6632274279578
 20
1130.924162762425
 30
0.0
 11
-686.0374644885047
 21
1131.893668072483
 31
0.0
  0
LINE
  5
FF
330
A
100
AcDbEntity
  8
HEWI
100
AcDbLine
 10
-686.0374644885047
 20
1131.893668072483
 30
0.0
 11
-685.8866313586219
 21
1132.127356426976
 31
0.0
  0
LINE
  5
100
330
A
100
AcDbEntity
  8
HEWI
100
AcDbLine
 10
-686.9735911974891
 20
1130.443358319065
 30
0.0
 11
-686.6632274279578
 21
1130.924162762425
 31
0.0
  0
LINE
  5
101
330
A
100
AcDbEntity
  8
HEWI
100
AcDbLine
 10
-716.7995647082313
 20
1130.406355755589
 30
0.0
 11
-715.1036265978797
 21
1129.293341534397
 31
0.0
  0
LINE
  5
102
330
A
100
AcDbEntity
  8
HEWI
100
AcDbLine
 10
-1329.727650035379
 20
1130.406355755589
 30
0.0
 11
-1328.61452137327
 21
1132.101340191624
 31
0.0
  0
LINE
  5
103
330
A
100
AcDbEntity
  8
HEWI
100
AcDbLine
 10
-1335.149555552958
 20
1135.328345196507
 30
0.0
 11
-1333.145618785379
 21
1138.379340069554
 31
0.0
  0
LINE
  5
104
330
A
100
AcDbEntity
  8
HEWI
100
AcDbLine
 10
-1349.62755237913
 20
1135.078329937718
 30
0.0
 11
-1346.576557506083
 21
1133.074355023167
 31
0.0
  0
LINE
  5
105
330
A
100
AcDbEntity
  8
HEWI
100
AcDbLine
 10
-1338.200550426005
 20
1150.060324566624
 30
0.0
 11
-1335.149555552958
 21
1148.056349652073
 31
0.0
  0
LINE
  5
106
330
A
100
AcDbEntity
  8
HEWI
100
AcDbLine
 10
-713.6316112170203
 20
1189.755339520237
 30
0.0
 11
-711.7353252062781
 21
1192.642340557835
 31
0.0
  0
LINE
  5
107
330
A
100
AcDbEntity
  8
HEWI
100
AcDbLine
 10
-696.8995860705359
 20
1135.078329937718
 30
0.0
 11
-694.8955730090125
 21
1138.129324810765
 31
0.0
  0
LINE
  5
108
330
A
100
AcDbEntity
  8
HEWI
100
AcDbLine
 10
-696.8995860705359
 20
1180.07836808469
 30
0.0
 11
-694.8955730090125
 21
1183.129362957737
 31
0.0
  0
LINE
  5
109
330
A
100
AcDbEntity
  8
HEWI
100
AcDbLine
 10
-713.3815959582313
 20
1145.005354779026
 30
0.0
 11
-711.3775828967078
 21
1148.056349652073
 31
0.0
  0
LINE
  5
10A
330
A
100
AcDbEntity
  8
HEWI
100
AcDbLine
 10
-1349.62755237913
 20
1180.07836808469
 30
0.0
 11
-1346.576557506083
 21
1178.074355023167
 31
0.0
  0
LINE
  5
10B
330
A
100
AcDbEntity
  8
HEWI
100
AcDbLine
 10
-699.9505809435828
 20
1149.810347454808
 30
0.0
 11
-696.8995860705359
 21
1147.806334393284
 31
0.0
  0
LINE
  5
10C
330
A
100
AcDbEntity
  8
HEWI
100
AcDbLine
 10
-711.6275981554969
 20
1180.07836808469
 30
0.0
 11
-708.57660328245
 21
1178.074355023167
 31
0.0
  0
LINE
  5
10D
330
A
100
AcDbEntity
  8
HEWI
100
AcDbLine
 10
-711.3775828967078
 20
1135.328345196507
 30
0.0
 11
-708.3265880236609
 21
1133.324332134983
 31
0.0
  0
LINE
  5
10E
330
A
100
AcDbEntity
  8
HEWI
100
AcDbLine
 10
-1351.631641734598
 20
1189.755339520237
 30
0.0
 11
-1349.735279429911
 21
1192.642340557835
 31
0.0
  0
LINE
  5
10F
330
A
100
AcDbEntity
  8
HEWI
100
AcDbLine
 10
-1351.631641734598
 20
1144.755339520237
 30
0.0
 11
-1349.62755237913
 21
1147.806334393284
 31
0.0
  0
LINE
  5
110
330
A
100
AcDbEntity
  8
HEWI
100
AcDbLine
 10
-1334.899616588114
 20
1180.07836808469
 30
0.0
 11
-1332.895527232645
 21
1183.129362957737
 31
0.0
  0
LINE
  5
111
330
A
100
AcDbEntity
  8
HEWI
100
AcDbLine
 10
-1359.382801402567
 20
1130.328879254124
 30
0.0
 11
-1358.292103160379
 21
1129.598173992893
 31
0.0
  0
LINE
  5
112
330
A
100
AcDbEntity
  8
HEWI
100
AcDbLine
 10
-1358.292103160379
 20
1129.598173992893
 30
0.0
 11
-1357.859669078348
 21
1129.308333294651
 31
0.0
  0
LINE
  5
113
330
A
100
AcDbEntity
  8
HEWI
100
AcDbLine
 10
-1359.553547252176
 20
1130.443358319065
 30
0.0
 11
-1359.382801402567
 21
1130.328879254124
 31
0.0
  0
LINE
  5
114
330
A
100
AcDbEntity
  8
HEWI
100
AcDbLine
 10
-687.2935680041297
 20
1130.144324200413
 30
0.0
 11
-687.1444133410437
 21
1130.328879254124
 31
0.0
  0
LINE
  5
115
330
A
100
AcDbEntity
  8
HEWI
100
AcDbLine
 10
-686.6632274279578
 20
1130.924162762425
 30
0.0
 11
-686.1506084094031
 21
1131.558356182835
 31
0.0
  0
LINE
  5
116
330
A
100
AcDbEntity
  8
HEWI
100
AcDbLine
 10
-687.1444133410437
 20
1130.328879254124
 30
0.0
 11
-686.6632274279578
 21
1130.924162762425
 31
0.0
  0
LINE
  5
117
330
A
100
AcDbEntity
  8
HEWI
100
AcDbLine
 10
-670.2636150012
 20
1192.642340557835
 30
0.0
 11
-669.2636302599891
 21
1193.642363446018
 31
0.0
  0
LINE
  5
118
330
A
100
AcDbEntity
  8
HEWI
100
AcDbLine
 10
-1377.263660777567
 20
1193.642363446018
 30
0.0
 11
-1376.263599742411
 21
1192.642340557835
 31
0.0
  0
LINE
  5
119
330
A
100
AcDbEntity
  8
HEWI
100
AcDbLine
 10
-1588.228279804801
 20
1173.642363446018
 30
0.0
 11
-1460.101293778037
 21
1173.642363446018
 31
0.0
  0
LINE
  5
11A
330
A
100
AcDbEntity
  8
HEWI
100
AcDbLine
 10
-1591.419278835868
 20
1198.642363446018
 30
0.0
 11
-1460.101293778037
 21
1198.642363446018
 31
0.0
  0
LINE
  5
11B
330
A
100
AcDbEntity
  8
HEWI
100
AcDbLine
 10
-1465.101293778037
 20
1128.642363446018
 30
0.0
 11
-1460.101293778037
 21
1128.642363446018
 31
0.0
  0
LINE
  5
11C
330
A
100
AcDbEntity
  8
HEWI
100
AcDbLine
 10
-1470.101293778037
 20
1132.142348187229
 30
0.0
 11
-1465.101293778037
 21
1132.142348187229
 31
0.0
  0
LINE
  5
11D
330
A
100
AcDbEntity
  8
HEWI
100
AcDbLine
 10
-1470.101293778037
 20
1150.142378704807
 30
0.0
 11
-1465.101293778037
 21
1150.142378704807
 31
0.0
  0
LINE
  5
11E
330
A
100
AcDbEntity
  8
HEWI
100
AcDbLine
 10
-1470.101293778037
 20
1150.392355816624
 30
0.0
 11
-1465.101293778037
 21
1150.392355816624
 31
0.0
  0
LINE
  5
11F
330
A
100
AcDbEntity
  8
HEWI
100
AcDbLine
 10
-1460.101293778037
 20
1128.642363446018
 30
0.0
 11
-1460.101293778037
 21
1198.642363446018
 31
0.0
  0
LINE
  5
120
330
A
100
AcDbEntity
  8
HEWI
100
AcDbLine
 10
-1465.101293778037
 20
1128.642363446018
 30
0.0
 11
-1465.101293778037
 21
1173.642363446018
 31
0.0
  0
LINE
  5
121
330
A
100
AcDbEntity
  8
HEWI
100
AcDbLine
 10
-1471.101288055991
 20
1133.142371075413
 30
0.0
 11
-1471.101288055991
 21
1149.392371075413
 31
0.0
  0
LINE
  5
122
330
A
100
AcDbEntity
  8
HEWI
100
AcDbLine
 10
-1644.031438088035
 20
1172.232108013889
 30
0.0
 11
-1640.889281487082
 21
1174.7213505676
 31
0.0
  0
LINE
  5
123
330
A
100
AcDbEntity
  8
HEWI
100
AcDbLine
 10
-1644.561280464744
 20
1171.812376873752
 30
0.0
 11
-1644.031438088035
 21
1172.232108013889
 31
0.0
  0
LINE
  5
124
330
A
100
AcDbEntity
  8
HEWI
100
AcDbLine
 10
-1643.689908241843
 20
1154.70971574094
 30
0.0
 11
-1643.272279953574
 21
1154.18237199094
 31
0.0
  0
LINE
  5
125
330
A
100
AcDbEntity
  8
HEWI
100
AcDbLine
 10
-1645.165619110679
 20
1156.573119061253
 30
0.0
 11
-1643.689908241843
 21
1154.70971574094
 31
0.0
  0
LINE
  5
126
330
A
100
AcDbEntity
  8
HEWI
100
AcDbLine
 10
-1646.180280899619
 20
1157.854361431858
 30
0.0
 11
-1645.165619110679
 21
1156.573119061253
 31
0.0
  0
LINE
  5
127
330
A
100
AcDbEntity
  8
HEWI
100
AcDbLine
 10
-1643.677281593894
 20
1172.735381024143
 30
0.0
 11
-1640.889281487082
 21
1174.7213505676
 31
0.0
  0
LINE
  5
128
330
A
100
AcDbEntity
  8
HEWI
100
AcDbLine
 10
-1633.849281525229
 20
1160.480360882542
 30
0.0
 11
-1632.697281097983
 21
1161.238379376194
 31
0.0
  0
LINE
  5
129
330
A
100
AcDbEntity
  8
HEWI
100
AcDbLine
 10
-1470.808290695762
 20
1149.849371807835
 30
0.0
 11
-1470.469288086509
 21
1150.072379009983
 31
0.0
  0
LINE
  5
12A
330
A
100
AcDbEntity
  8
HEWI
100
AcDbLine
 10
-1470.808290695762
 20
1150.099348919651
 30
0.0
 11
-1470.469288086509
 21
1150.322356121799
 31
0.0
  0
LINE
  5
12B
330
A
100
AcDbEntity
  8
HEWI
100
AcDbLine
 10
-1471.031288361167
 20
1132.774367230198
 30
0.0
 11
-1470.808290695762
 21
1132.435355084202
 31
0.0
  0
LINE
  5
12C
330
A
100
AcDbEntity
  8
HEWI
100
AcDbLine
 10
-1637.505277847861
 20
1166.046347515842
 30
0.0
 11
-1636.353277420615
 21
1166.803374188206
 31
0.0
  0
LINE
  5
12D
330
A
100
AcDbEntity
  8
HEWI
100
AcDbLine
 10
-1638.262280678367
 20
1162.39037980344
 30
0.0
 11
-1637.505277847861
 21
1161.238379376194
 31
0.0
  0
LINE
  5
12E
330
A
100
AcDbEntity
  8
HEWI
100
AcDbLine
 10
-1630.444559311484
 20
1152.055945294163
 30
0.0
 11
-1629.976929878806
 21
1152.363142864963
 31
0.0
  0
LINE
  5
12F
330
A
100
AcDbEntity
  8
HEWI
100
AcDbLine
 10
-1644.041060661887
 20
1154.956831829807
 30
0.0
 11
-1643.940281128501
 21
1154.803366558811
 31
0.0
  0
LINE
  5
130
330
A
100
AcDbEntity
  8
HEWI
100
AcDbLine
 10
-1643.783649658774
 20
1172.584204571506
 30
0.0
 11
-1642.634057259177
 21
1173.339133160374
 31
0.0
  0
LINE
  5
131
330
A
100
AcDbEntity
  8
HEWI
100
AcDbLine
 10
-1644.795741295432
 20
1156.106085675022
 30
0.0
 11
-1644.041060661887
 21
1154.956831829807
 31
0.0
  0
LINE
  5
132
330
A
100
AcDbEntity
  8
HEWI
100
AcDbLine
 10
-1646.688098167991
 20
1158.987784283421
 30
0.0
 11
-1646.381320213889
 21
1158.5205983093
 31
0.0
  0
LINE
  5
133
330
A
100
AcDbEntity
  8
HEWI
100
AcDbLine
 10
-1643.940281128501
 20
1172.481360333225
 30
0.0
 11
-1643.783649658774
 21
1172.584204571506
 31
0.0
  0
LINE
  5
134
330
A
100
AcDbEntity
  8
HEWI
100
AcDbLine
 10
-1630.50027773342
 20
1152.019362347386
 30
0.0
 11
-1630.444559311484
 21
1152.055945294163
 31
0.0
  0
LINE
  5
135
330
A
100
AcDbEntity
  8
HEWI
100
AcDbLine
 10
-1632.697281097983
 20
1166.046347515842
 30
0.0
 11
-1631.940278267478
 21
1164.893355267307
 31
0.0
  0
LINE
  5
136
330
A
100
AcDbEntity
  8
HEWI
100
AcDbLine
 10
-1646.723279213523
 20
1159.041380780003
 30
0.0
 11
-1646.688098167991
 21
1158.987784283421
 31
0.0
  0
LINE
  5
137
330
A
100
AcDbEntity
  8
HEWI
100
AcDbLine
 10
-1646.348098969077
 20
1158.410506146213
 30
0.0
 11
-1645.165619110679
 21
1156.573119061253
 31
0.0
  0
LINE
  5
138
330
A
100
AcDbEntity
  8
HEWI
100
AcDbLine
 10
-1645.165619110679
 20
1156.573119061253
 30
0.0
 11
-1644.195279335593
 21
1155.065359967014
 31
0.0
  0
LINE
  5
139
330
A
100
AcDbEntity
  8
HEWI
100
AcDbLine
 10
-1646.674279427146
 20
1158.917364971897
 30
0.0
 11
-1646.348098969077
 21
1158.410506146213
 31
0.0
  0
LINE
  5
13A
330
A
100
AcDbEntity
  8
HEWI
100
AcDbLine
 10
-1640.889281487082
 20
1174.7213505676
 30
0.0
 11
-1598.365279888724
 21
1196.937346356174
 31
0.0
  0
LINE
  5
13B
330
A
100
AcDbEntity
  8
HEWI
100
AcDbLine
 10
-1629.313277458762
 20
1152.563376324436
 30
0.0
 11
-1589.61727902851
 21
1173.301367657444
 31
0.0
  0
LINE
  5
13C
330
A
100
AcDbEntity
  8
HEWI
100
AcDbLine
 10
-1630.376280998801
 20
1152.069373028538
 30
0.0
 11
-1629.313277458762
 21
1152.563376324436
 31
0.0
  0
LINE
  5
13D
330
A
100
AcDbEntity
  8
HEWI
100
AcDbLine
 10
-1598.365279888724
 20
1196.937346356174
 30
0.0
 11
-1597.016278957938
 21
1197.558379071018
 31
0.0
  0
LINE
  5
13E
330
A
100
AcDbEntity
  8
HEWI
100
AcDbLine
 10
-1589.61727902851
 20
1173.301367657444
 30
0.0
 11
-1589.347279524421
 21
1173.425345318577
 31
0.0
  0
LINE
  5
13F
330
A
100
AcDbEntity
  8
HEWI
100
AcDbLine
 10
-1638.037280296897
 20
1163.026366131565
 30
0.0
 11
-1637.551278328513
 21
1161.911368267795
 31
0.0
  0
LINE
  5
140
330
A
100
AcDbEntity
  8
HEWI
100
AcDbLine
 10
-1636.832279419516
 20
1166.092352764866
 30
0.0
 11
-1635.717281555747
 21
1166.578345196507
 31
0.0
  0
LINE
  5
141
330
A
100
AcDbEntity
  8
HEWI
100
AcDbLine
 10
-1634.485277390098
 20
1160.70638169553
 30
0.0
 11
-1633.370279526328
 21
1161.192374127171
 31
0.0
  0
LINE
  5
142
330
A
100
AcDbEntity
  8
HEWI
100
AcDbLine
 10
-1632.651280617331
 20
1165.373358624241
 30
0.0
 11
-1632.165278648948
 21
1164.257368939182
 31
0.0
  0
LINE
  5
143
330
A
100
AcDbEntity
  8
HEWI
100
AcDbLine
 10
-1598.365279888724
 20
1196.937346356174
 30
0.0
 11
-1596.407798981284
 21
1197.676215069553
 31
0.0
  0
LINE
  5
144
330
A
100
AcDbEntity
  8
HEWI
100
AcDbLine
 10
-1596.407798981284
 20
1197.676215069553
 30
0.0
 11
-1594.995278572654
 21
1198.209357159397
 31
0.0
  0
LINE
  5
145
330
A
100
AcDbEntity
  8
HEWI
100
AcDbLine
 10
-1589.61727902851
 20
1173.301367657444
 30
0.0
 11
-1589.225659823035
 21
1173.448958294651
 31
0.0
  0
LINE
  5
146
330
A
100
AcDbEntity
  8
HEWI
100
AcDbLine
 10
-1589.225659823035
 20
1173.448958294651
 30
0.0
 11
-1588.943279242133
 21
1173.555350201389
 31
0.0
  0
LINE
  5
147
330
A
100
AcDbEntity
  8
HEWI
100
AcDbLine
 10
-1646.348098969077
 20
1158.410506146213
 30
0.0
 11
-1646.180280899619
 21
1157.854361431858
 31
0.0
  0
LINE
  5
148
330
A
100
AcDbEntity
  8
HEWI
100
AcDbLine
 10
-1647.533277725791
 20
1162.338347332737
 30
0.0
 11
-1646.996311401938
 21
1160.558791058323
 31
0.0
  0
LINE
  5
149
330
A
100
AcDbEntity
  8
HEWI
100
AcDbLine
 10
-1646.996311401938
 20
1160.558791058323
 30
0.0
 11
-1646.348098969077
 21
1158.410506146213
 31
0.0
  0
LINE
  5
14A
330
A
100
AcDbEntity
  8
HEWI
100
AcDbLine
 10
-1632.019428467368
 20
1151.74699296262
 30
0.0
 11
-1629.313277458762
 21
1152.563376324436
 31
0.0
  0
LINE
  5
14B
330
A
100
AcDbEntity
  8
HEWI
100
AcDbLine
 10
-1633.798279022788
 20
1151.210379498264
 30
0.0
 11
-1632.019428467368
 21
1151.74699296262
 31
0.0
  0
LINE
  5
14C
330
A
100
AcDbEntity
  8
HEWI
100
AcDbLine
 10
-1635.101279472922
 20
1151.142363446018
 30
0.0
 11
-1634.431528305625
 21
1151.273779766819
 31
0.0
  0
LINE
  5
14D
330
A
100
AcDbEntity
  8
HEWI
100
AcDbLine
 10
-1632.019428467368
 20
1151.74699296262
 30
0.0
 11
-1630.376280998801
 21
1152.069373028538
 31
0.0
  0
LINE
  5
14E
330
A
100
AcDbEntity
  8
HEWI
100
AcDbLine
 10
-1647.601279472922
 20
1163.642363446018
 30
0.0
 11
-1647.469820236777
 21
1162.972311871311
 31
0.0
  0
LINE
  5
14F
330
A
100
AcDbEntity
  8
HEWI
100
AcDbLine
 10
-1646.996311401938
 20
1160.558791058323
 30
0.0
 11
-1646.674279427146
 21
1158.917364971897
 31
0.0
  0
LINE
  5
150
330
A
100
AcDbEntity
  8
HEWI
100
AcDbLine
 10
-1647.469820236777
 20
1162.972311871311
 30
0.0
 11
-1646.996311401938
 21
1160.558791058323
 31
0.0
  0
LINE
  5
151
330
A
100
AcDbEntity
  8
HEWI
100
AcDbLine
 10
-1634.431528305625
 20
1151.273779766819
 30
0.0
 11
-1632.019428467368
 21
1151.74699296262
 31
0.0
  0
LINE
  5
152
330
A
100
AcDbEntity
  8
HEWI
100
AcDbLine
 10
-1589.347279524421
 20
1173.425345318577
 30
0.0
 11
-1589.225659823035
 21
1173.448958294651
 31
0.0
  0
LINE
  5
153
330
A
100
AcDbEntity
  8
HEWI
100
AcDbLine
 10
-1589.225659823035
 20
1173.448958294651
 30
0.0
 11
-1588.228279804801
 21
1173.642363446018
 31
0.0
  0
LINE
  5
154
330
A
100
AcDbEntity
  8
HEWI
100
AcDbLine
 10
-1596.407798981284
 20
1197.676215069553
 30
0.0
 11
-1591.419278835868
 21
1198.642363446018
 31
0.0
  0
LINE
  5
155
330
A
100
AcDbEntity
  8
HEWI
100
AcDbLine
 10
-1597.016278957938
 20
1197.558379071018
 30
0.0
 11
-1596.407798981284
 21
1197.676215069553
 31
0.0
  0
LINE
  5
156
330
A
100
AcDbEntity
  8
HEWI
100
AcDbLine
 10
-1631.940278267478
 20
1164.893355267307
 30
0.0
 11
-1631.701277947043
 21
1163.642363446018
 31
0.0
  0
LINE
  5
157
330
A
100
AcDbEntity
  8
HEWI
100
AcDbLine
 10
-1638.501280998801
 20
1163.642363446018
 30
0.0
 11
-1638.262280678367
 21
1162.39037980344
 31
0.0
  0
LINE
  5
158
330
A
100
AcDbEntity
  8
HEWI
100
AcDbLine
 10
-1636.353277420615
 20
1166.803374188206
 30
0.0
 11
-1635.101279472922
 21
1167.042364971897
 31
0.0
  0
LINE
  5
159
330
A
100
AcDbEntity
  8
HEWI
100
AcDbLine
 10
-1647.041300987815
 20
1160.707869427463
 30
0.0
 11
-1646.723279213523
 21
1159.041380780003
 31
0.0
  0
LINE
  5
15A
330
A
100
AcDbEntity
  8
HEWI
100
AcDbLine
 10
-1647.601279472922
 20
1163.642363446018
 30
0.0
 11
-1647.471060013389
 21
1162.959952252171
 31
0.0
  0
LINE
  5
15B
330
A
100
AcDbEntity
  8
HEWI
100
AcDbLine
 10
-1635.101279472922
 20
1151.142363446018
 30
0.0
 11
-1634.418668007468
 21
1151.272482769749
 31
0.0
  0
LINE
  5
15C
330
A
100
AcDbEntity
  8
HEWI
100
AcDbLine
 10
-1632.174271797751
 20
1151.700301068089
 30
0.0
 11
-1630.50027773342
 21
1152.019362347386
 31
0.0
  0
LINE
  5
15D
330
A
100
AcDbEntity
  8
HEWI
100
AcDbLine
 10
-1470.469288086509
 20
1150.072379009983
 30
0.0
 11
-1470.101293778037
 21
1150.142378704807
 31
0.0
  0
LINE
  5
15E
330
A
100
AcDbEntity
  8
HEWI
100
AcDbLine
 10
-1470.469288086509
 20
1150.322356121799
 30
0.0
 11
-1470.101293778037
 21
1150.392355816624
 31
0.0
  0
LINE
  5
15F
330
A
100
AcDbEntity
  8
HEWI
100
AcDbLine
 10
-1471.101288055991
 20
1133.142371075413
 30
0.0
 11
-1471.031288361167
 21
1132.774367230198
 31
0.0
  0
LINE
  5
160
330
A
100
AcDbEntity
  8
HEWI
100
AcDbLine
 10
-1635.101279472922
 20
1160.242361920139
 30
0.0
 11
-1633.849281525229
 21
1160.480360882542
 31
0.0
  0
LINE
  5
161
330
A
100
AcDbEntity
  8
HEWI
100
AcDbLine
 10
-1588.943279242133
 20
1173.555350201389
 30
0.0
 11
-1588.228279804801
 21
1173.642363446018
 31
0.0
  0
LINE
  5
162
330
A
100
AcDbEntity
  8
HEWI
100
AcDbLine
 10
-1594.995278572654
 20
1198.209357159397
 30
0.0
 11
-1591.419278835868
 21
1198.642363446018
 31
0.0
  0
LINE
  5
163
330
A
100
AcDbEntity
  8
HEWI
100
AcDbLine
 10
-1635.717281555747
 20
1166.578345196507
 30
0.0
 11
-1634.500278687095
 21
1166.581358807346
 31
0.0
  0
LINE
  5
164
330
A
100
AcDbEntity
  8
HEWI
100
AcDbLine
 10
-1635.70228025875
 20
1160.70336808469
 30
0.0
 11
-1634.485277390098
 21
1160.70638169553
 31
0.0
  0
LINE
  5
165
330
A
100
AcDbEntity
  8
HEWI
100
AcDbLine
 10
-1632.165278648948
 20
1164.257368939182
 30
0.0
 11
-1632.162279343222
 21
1163.041357891819
 31
0.0
  0
LINE
  5
166
330
A
100
AcDbEntity
  8
HEWI
100
AcDbLine
 10
-1638.040279602622
 20
1164.243369000217
 30
0.0
 11
-1638.037280296897
 21
1163.026366131565
 31
0.0
  0
LINE
  5
167
330
A
100
AcDbEntity
  8
HEWI
100
AcDbLine
 10
-1647.533277725791
 20
1162.338347332737
 30
0.0
 11
-1647.469820236777
 21
1162.972311871311
 31
0.0
  0
LINE
  5
168
330
A
100
AcDbEntity
  8
HEWI
100
AcDbLine
 10
-1647.469820236777
 20
1162.972311871311
 30
0.0
 11
-1647.220129227256
 21
1165.466780560276
 31
0.0
  0
LINE
  5
169
330
A
100
AcDbEntity
  8
HEWI
100
AcDbLine
 10
-1647.220129227256
 20
1165.466780560276
 30
0.0
 11
-1647.028278565024
 21
1167.383360760471
 31
0.0
  0
LINE
  5
16A
330
A
100
AcDbEntity
  8
HEWI
100
AcDbLine
 10
-1638.842281555747
 20
1151.715369122288
 30
0.0
 11
-1636.929420685386
 21
1151.523871319553
 31
0.0
  0
LINE
  5
16B
330
A
100
AcDbEntity
  8
HEWI
100
AcDbLine
 10
-1634.431528305625
 20
1151.273779766819
 30
0.0
 11
-1633.798279022788
 21
1151.210379498264
 31
0.0
  0
LINE
  5
16C
330
A
100
AcDbEntity
  8
HEWI
100
AcDbLine
 10
-1636.929420685386
 20
1151.523871319553
 30
0.0
 11
-1634.431528305625
 21
1151.273779766819
 31
0.0
  0
LINE
  5
16D
330
A
100
AcDbEntity
  8
HEWI
100
AcDbLine
 10
-1636.353277420615
 20
1160.480360882542
 30
0.0
 11
-1635.101279472922
 21
1160.242361920139
 31
0.0
  0
LINE
  5
16E
330
A
100
AcDbEntity
  8
HEWI
100
AcDbLine
 10
-1471.101288055991
 20
1149.142355816624
 30
0.0
 11
-1471.031288361167
 21
1149.510359661839
 31
0.0
  0
LINE
  5
16F
330
A
100
AcDbEntity
  8
HEWI
100
AcDbLine
 10
-1471.101288055991
 20
1149.392371075413
 30
0.0
 11
-1471.031288361167
 21
1149.760374920627
 31
0.0
  0
LINE
  5
170
330
A
100
AcDbEntity
  8
HEWI
100
AcDbLine
 10
-1470.469288086509
 20
1132.212347882053
 30
0.0
 11
-1470.101293778037
 21
1132.142348187229
 31
0.0
  0
LINE
  5
171
330
A
100
AcDbEntity
  8
HEWI
100
AcDbLine
 10
-1639.702281212424
 20
1152.019362347386
 30
0.0
 11
-1639.224709724998
 21
1151.928343670628
 31
0.0
  0
LINE
  5
172
330
A
100
AcDbEntity
  8
HEWI
100
AcDbLine
 10
-1637.29434893093
 20
1151.560377972385
 30
0.0
 11
-1635.101279472922
 21
1151.142363446018
 31
0.0
  0
LINE
  5
173
330
A
100
AcDbEntity
  8
HEWI
100
AcDbLine
 10
-1647.601279472922
 20
1163.642363446018
 30
0.0
 11
-1647.183717941856
 21
1165.830511944554
 31
0.0
  0
LINE
  5
174
330
A
100
AcDbEntity
  8
HEWI
100
AcDbLine
 10
-1646.813968872641
 20
1167.768111126682
 30
0.0
 11
-1646.723279213523
 21
1168.243346112034
 31
0.0
  0
LINE
  5
175
330
A
100
AcDbEntity
  8
HEWI
100
AcDbLine
 10
-1635.101279472922
 20
1167.042364971897
 30
0.0
 11
-1633.849281525229
 21
1166.803374188206
 31
0.0
  0
LINE
  5
176
330
A
100
AcDbEntity
  8
HEWI
100
AcDbLine
 10
-1631.940278267478
 20
1162.39037980344
 30
0.0
 11
-1631.701277947043
 21
1163.642363446018
 31
0.0
  0
LINE
  5
177
330
A
100
AcDbEntity
  8
HEWI
100
AcDbLine
 10
-1638.501280998801
 20
1163.642363446018
 30
0.0
 11
-1638.262280678367
 21
1164.893355267307
 31
0.0
  0
LINE
  5
178
330
A
100
AcDbEntity
  8
HEWI
100
AcDbLine
 10
-1639.438618874168
 20
1152.04743851926
 30
0.0
 11
-1636.929420685386
 21
1151.523871319553
 31
0.0
  0
LINE
  5
179
330
A
100
AcDbEntity
  8
HEWI
100
AcDbLine
 10
-1636.929420685386
 20
1151.523871319553
 30
0.0
 11
-1635.101279472922
 21
1151.142363446018
 31
0.0
  0
LINE
  5
17A
330
A
100
AcDbEntity
  8
HEWI
100
AcDbLine
 10
-1640.104278778647
 20
1152.186369793674
 30
0.0
 11
-1639.438618874168
 21
1152.04743851926
 31
0.0
  0
LINE
  5
17B
330
A
100
AcDbEntity
  8
HEWI
100
AcDbLine
 10
-1647.220129227256
 20
1165.466780560276
 30
0.0
 11
-1646.694559311484
 21
1167.98249711301
 31
0.0
  0
LINE
  5
17C
330
A
100
AcDbEntity
  8
HEWI
100
AcDbLine
 10
-1647.601279472922
 20
1163.642363446018
 30
0.0
 11
-1647.220129227256
 21
1165.466780560276
 31
0.0
  0
LINE
  5
17D
330
A
100
AcDbEntity
  8
HEWI
100
AcDbLine
 10
-1646.694559311484
 20
1167.98249711301
 30
0.0
 11
-1646.556281303977
 21
1168.644347088596
 31
0.0
  0
LINE
  5
17E
330
A
100
AcDbEntity
  8
HEWI
100
AcDbLine
 10
-1636.742281174277
 20
1161.130347149631
 30
0.0
 11
-1635.70228025875
 21
1160.70336808469
 31
0.0
  0
LINE
  5
17F
330
A
100
AcDbEntity
  8
HEWI
100
AcDbLine
 10
-1638.040279602622
 20
1164.243369000217
 30
0.0
 11
-1637.613281464194
 21
1165.283369915745
 31
0.0
  0
LINE
  5
180
330
A
100
AcDbEntity
  8
HEWI
100
AcDbLine
 10
-1632.58927748165
 20
1162.001356976292
 30
0.0
 11
-1632.162279343222
 21
1163.041357891819
 31
0.0
  0
LINE
  5
181
330
A
100
AcDbEntity
  8
HEWI
100
AcDbLine
 10
-1634.500278687095
 20
1166.581358807346
 30
0.0
 11
-1633.460277771567
 21
1166.153349774143
 31
0.0
  0
LINE
  5
182
330
A
100
AcDbEntity
  8
HEWI
100
AcDbLine
 10
-1639.438628410911
 20
1152.04743851926
 30
0.0
 11
-1638.842281555747
 21
1151.715369122288
 31
0.0
  0
LINE
  5
183
330
A
100
AcDbEntity
  8
HEWI
100
AcDbLine
 10
-1641.682628845786
 20
1153.297095196506
 30
0.0
 11
-1639.438628410911
 21
1152.04743851926
 31
0.0
  0
LINE
  5
184
330
A
100
AcDbEntity
  8
HEWI
100
AcDbLine
 10
-1643.272279953574
 20
1154.18237199094
 30
0.0
 11
-1641.682628845786
 21
1153.297095196506
 31
0.0
  0
LINE
  5
185
330
A
100
AcDbEntity
  8
HEWI
100
AcDbLine
 10
-1645.451287483786
 20
1170.2145146301
 30
0.0
 11
-1644.561280464744
 21
1171.812376873752
 31
0.0
  0
LINE
  5
186
330
A
100
AcDbEntity
  8
HEWI
100
AcDbLine
 10
-1647.028278565024
 20
1167.383360760471
 30
0.0
 11
-1646.694559311484
 21
1167.98249711301
 31
0.0
  0
LINE
  5
187
330
A
100
AcDbEntity
  8
HEWI
100
AcDbLine
 10
-1646.694559311484
 20
1167.98249711301
 30
0.0
 11
-1645.451287483786
 21
1170.2145146301
 31
0.0
  0
LINE
  5
188
330
A
100
AcDbEntity
  8
HEWI
100
AcDbLine
 10
-1638.262280678367
 20
1164.893355267307
 30
0.0
 11
-1637.505277847861
 21
1166.046347515842
 31
0.0
  0
LINE
  5
189
330
A
100
AcDbEntity
  8
HEWI
100
AcDbLine
 10
-1646.723279213523
 20
1168.243346112034
 30
0.0
 11
-1646.601227974509
 21
1168.429236309788
 31
0.0
  0
LINE
  5
18A
330
A
100
AcDbEntity
  8
HEWI
100
AcDbLine
 10
-1646.601227974509
 20
1168.429236309788
 30
0.0
 11
-1645.576647972678
 21
1169.989447491428
 31
0.0
  0
LINE
  5
18B
330
A
100
AcDbEntity
  8
HEWI
100
AcDbLine
 10
-1644.182600235557
 20
1172.112364666721
 30
0.0
 11
-1643.940281128501
 21
1172.481360333225
 31
0.0
  0
LINE
  5
18C
330
A
100
AcDbEntity
  8
HEWI
100
AcDbLine
 10
-1639.887699341391
 20
1152.141165631077
 30
0.0
 11
-1639.702281212424
 21
1152.019362347386
 31
0.0
  0
LINE
  5
18D
330
A
100
AcDbEntity
  8
HEWI
100
AcDbLine
 10
-1641.450990891074
 20
1153.168120281956
 30
0.0
 11
-1639.887699341391
 21
1152.141165631077
 31
0.0
  0
LINE
  5
18E
330
A
100
AcDbEntity
  8
HEWI
100
AcDbLine
 10
-1643.940281128501
 20
1154.803366558811
 30
0.0
 11
-1643.57301161251
 21
1154.56208695676
 31
0.0
  0
LINE
  5
18F
330
A
100
AcDbEntity
  8
HEWI
100
AcDbLine
 10
-1632.697281097983
 20
1161.238379376194
 30
0.0
 11
-1631.940278267478
 21
1162.39037980344
 31
0.0
  0
LINE
  5
190
330
A
100
AcDbEntity
  8
HEWI
100
AcDbLine
 10
-1633.849281525229
 20
1166.803374188206
 30
0.0
 11
-1632.697281097983
 21
1166.046347515842
 31
0.0
  0
LINE
  5
191
330
A
100
AcDbEntity
  8
HEWI
100
AcDbLine
 10
-1471.031288361167
 20
1149.510359661839
 30
0.0
 11
-1470.808290695762
 21
1149.849371807835
 31
0.0
  0
LINE
  5
192
330
A
100
AcDbEntity
  8
HEWI
100
AcDbLine
 10
-1470.808290695762
 20
1132.435355084202
 30
0.0
 11
-1470.469288086509
 21
1132.212347882053
 31
0.0
  0
LINE
  5
193
330
A
100
AcDbEntity
  8
HEWI
100
AcDbLine
 10
-1471.031288361167
 20
1149.760374920627
 30
0.0
 11
-1470.808290695762
 21
1150.099348919651
 31
0.0
  0
LINE
  5
194
330
A
100
AcDbEntity
  8
HEWI
100
AcDbLine
 10
-1637.505277847861
 20
1161.238379376194
 30
0.0
 11
-1636.353277420615
 21
1160.480360882542
 31
0.0
  0
LINE
  5
195
330
A
100
AcDbEntity
  8
HEWI
100
AcDbLine
 10
-1644.031438088035
 20
1172.232108013889
 30
0.0
 11
-1643.677281593894
 21
1172.735381024143
 31
0.0
  0
LINE
  5
196
330
A
100
AcDbEntity
  8
HEWI
100
AcDbLine
 10
-1641.682628845786
 20
1153.297095196506
 30
0.0
 11
-1640.104278778647
 21
1152.186369793674
 31
0.0
  0
LINE
  5
197
330
A
100
AcDbEntity
  8
HEWI
100
AcDbLine
 10
-1644.195279335593
 20
1155.065359967014
 30
0.0
 11
-1643.689908241843
 21
1154.70971574094
 31
0.0
  0
LINE
  5
198
330
A
100
AcDbEntity
  8
HEWI
100
AcDbLine
 10
-1645.451287483786
 20
1170.2145146301
 30
0.0
 11
-1644.031438088035
 21
1172.232108013889
 31
0.0
  0
LINE
  5
199
330
A
100
AcDbEntity
  8
HEWI
100
AcDbLine
 10
-1646.556281303977
 20
1168.644347088596
 30
0.0
 11
-1645.451287483786
 21
1170.2145146301
 31
0.0
  0
LINE
  5
19A
330
A
100
AcDbEntity
  8
HEWI
100
AcDbLine
 10
-1643.689908241843
 20
1154.70971574094
 30
0.0
 11
-1641.682628845786
 21
1153.297095196506
 31
0.0
  0
LINE
  5
19B
330
A
100
AcDbEntity
  8
HEWI
100
AcDbLine
 10
-1633.460277771567
 20
1166.153349774143
 30
0.0
 11
-1632.651280617331
 21
1165.373358624241
 31
0.0
  0
LINE
  5
19C
330
A
100
AcDbEntity
  8
HEWI
100
AcDbLine
 10
-1637.613281464194
 20
1165.283369915745
 30
0.0
 11
-1636.832279419516
 21
1166.092352764866
 31
0.0
  0
LINE
  5
19D
330
A
100
AcDbEntity
  8
HEWI
100
AcDbLine
 10
-1633.370279526328
 20
1161.192374127171
 30
0.0
 11
-1632.58927748165
 21
1162.001356976292
 31
0.0
  0
LINE
  5
19E
330
A
100
AcDbEntity
  8
HEWI
100
AcDbLine
 10
-1637.551278328513
 20
1161.911368267795
 30
0.0
 11
-1636.742281174277
 21
1161.130347149631
 31
0.0
  0
LINE
  5
217
330
A
100
AcDbEntity
  8
HEWI
100
AcDbLine
 10
-458.2989349388099
 20
1173.642363446018
 30
0.0
 11
-586.4259209655738
 21
1173.642363446018
 31
0.0
  0
LINE
  5
218
330
A
100
AcDbEntity
  8
HEWI
100
AcDbLine
 10
-455.107935907743
 20
1198.642363446018
 30
0.0
 11
-586.4259209655738
 21
1198.642363446018
 31
0.0
  0
LINE
  5
219
330
A
100
AcDbEntity
  8
HEWI
100
AcDbLine
 10
-581.4259209655737
 20
1128.642363446018
 30
0.0
 11
-586.4259209655738
 21
1128.642363446018
 31
0.0
  0
LINE
  5
21A
330
A
100
AcDbEntity
  8
HEWI
100
AcDbLine
 10
-576.4259209655738
 20
1132.142348187229
 30
0.0
 11
-581.4259209655737
 21
1132.142348187229
 31
0.0
  0
LINE
  5
21B
330
A
100
AcDbEntity
  8
HEWI
100
AcDbLine
 10
-576.4259209655738
 20
1150.142378704807
 30
0.0
 11
-581.4259209655737
 21
1150.142378704807
 31
0.0
  0
LINE
  5
21C
330
A
100
AcDbEntity
  8
HEWI
100
AcDbLine
 10
-576.4259209655738
 20
1150.392355816624
 30
0.0
 11
-581.4259209655737
 21
1150.392355816624
 31
0.0
  0
LINE
  5
21D
330
A
100
AcDbEntity
  8
HEWI
100
AcDbLine
 10
-586.4259209655738
 20
1128.642363446018
 30
0.0
 11
-586.4259209655738
 21
1198.642363446018
 31
0.0
  0
LINE
  5
21E
330
A
100
AcDbEntity
  8
HEWI
100
AcDbLine
 10
-581.4259209655737
 20
1128.642363446018
 30
0.0
 11
-581.4259209655737
 21
1173.642363446018
 31
0.0
  0
LINE
  5
21F
330
A
100
AcDbEntity
  8
HEWI
100
AcDbLine
 10
-575.4259266876196
 20
1133.142371075413
 30
0.0
 11
-575.4259266876196
 21
1149.392371075413
 31
0.0
  0
LINE
  5
220
330
A
100
AcDbEntity
  8
HEWI
100
AcDbLine
 10
-402.4957766555762
 20
1172.232108013889
 30
0.0
 11
-405.6379332565284
 21
1174.7213505676
 31
0.0
  0
LINE
  5
221
330
A
100
AcDbEntity
  8
HEWI
100
AcDbLine
 10
-401.9659342788672
 20
1171.812376873752
 30
0.0
 11
-402.4957766555762
 21
1172.232108013889
 31
0.0
  0
LINE
  5
222
330
A
100
AcDbEntity
  8
HEWI
100
AcDbLine
 10
-402.8373065017676
 20
1154.70971574094
 30
0.0
 11
-403.2549347900367
 21
1154.18237199094
 31
0.0
  0
LINE
  5
223
330
A
100
AcDbEntity
  8
HEWI
100
AcDbLine
 10
-401.3615956329322
 20
1156.573119061253
 30
0.0
 11
-402.8373065017676
 21
1154.70971574094
 31
0.0
  0
LINE
  5
224
330
A
100
AcDbEntity
  8
HEWI
100
AcDbLine
 10
-400.3469338439917
 20
1157.854361431858
 30
0.0
 11
-401.3615956329322
 21
1156.573119061253
 31
0.0
  0
LINE
  5
225
330
A
100
AcDbEntity
  8
HEWI
100
AcDbLine
 10
-402.8499331497169
 20
1172.735381024143
 30
0.0
 11
-405.6379332565284
 21
1174.7213505676
 31
0.0
  0
LINE
  5
226
330
A
100
AcDbEntity
  8
HEWI
100
AcDbLine
 10
-412.6779332183814
 20
1160.480360882542
 30
0.0
 11
-413.8299336456275
 21
1161.238379376194
 31
0.0
  0
LINE
  5
227
330
A
100
AcDbEntity
  8
HEWI
100
AcDbLine
 10
-575.7189240478492
 20
1149.849371807835
 30
0.0
 11
-576.0579266571021
 21
1150.072379009983
 31
0.0
  0
LINE
  5
228
330
A
100
AcDbEntity
  8
HEWI
100
AcDbLine
 10
-575.7189240478492
 20
1150.099348919651
 30
0.0
 11
-576.0579266571021
 21
1150.322356121799
 31
0.0
  0
LINE
  5
229
330
A
100
AcDbEntity
  8
HEWI
100
AcDbLine
 10
-575.4959263824439
 20
1132.774367230198
 30
0.0
 11
-575.7189240478492
 21
1132.435355084202
 31
0.0
  0
LINE
  5
22A
330
A
100
AcDbEntity
  8
HEWI
100
AcDbLine
 10
-409.0219368957495
 20
1166.046347515842
 30
0.0
 11
-410.1739373229957
 21
1166.803374188206
 31
0.0
  0
LINE
  5
22B
330
A
100
AcDbEntity
  8
HEWI
100
AcDbLine
 10
-408.2649340652442
 20
1162.39037980344
 30
0.0
 11
-409.0219368957495
 21
1161.238379376194
 31
0.0
  0
LINE
  5
22C
330
A
100
AcDbEntity
  8
HEWI
100
AcDbLine
 10
-416.0826554321265
 20
1152.055945294163
 30
0.0
 11
-416.5502848648047
 21
1152.363142864963
 31
0.0
  0
LINE
  5
22D
330
A
100
AcDbEntity
  8
HEWI
100
AcDbLine
 10
-402.4861540817237
 20
1154.956831829807
 30
0.0
 11
-402.5869336151099
 21
1154.803366558811
 31
0.0
  0
LINE
  5
22E
330
A
100
AcDbEntity
  8
HEWI
100
AcDbLine
 10
-402.7435650848365
 20
1172.584204571506
 30
0.0
 11
-403.8931574844337
 21
1173.339133160374
 31
0.0
  0
LINE
  5
22F
330
A
100
AcDbEntity
  8
HEWI
100
AcDbLine
 10
-401.7314734481788
 20
1156.106085675022
 30
0.0
 11
-402.4861540817237
 21
1154.956831829807
 31
0.0
  0
LINE
  5
230
330
A
100
AcDbEntity
  8
HEWI
100
AcDbLine
 10
-399.8391165756202
 20
1158.987784283421
 30
0.0
 11
-400.1458945297217
 21
1158.5205983093
 31
0.0
  0
LINE
  5
231
330
A
100
AcDbEntity
  8
HEWI
100
AcDbLine
 10
-402.5869336151099
 20
1172.481360333225
 30
0.0
 11
-402.7435650848365
 21
1172.584204571506
 31
0.0
  0
LINE
  5
232
330
A
100
AcDbEntity
  8
HEWI
100
AcDbLine
 10
-416.0269370101905
 20
1152.019362347386
 30
0.0
 11
-416.0826554321265
 21
1152.055945294163
 31
0.0
  0
LINE
  5
233
330
A
100
AcDbEntity
  8
HEWI
100
AcDbLine
 10
-413.8299336456275
 20
1166.046347515842
 30
0.0
 11
-414.5869364761328
 21
1164.893355267307
 31
0.0
  0
LINE
  5
234
330
A
100
AcDbEntity
  8
HEWI
100
AcDbLine
 10
-399.803935530088
 20
1159.041380780003
 30
0.0
 11
-399.8391165756202
 21
1158.987784283421
 31
0.0
  0
LINE
  5
235
330
A
100
AcDbEntity
  8
HEWI
100
AcDbLine
 10
-400.1791157745337
 20
1158.410506146213
 30
0.0
 11
-401.3615956329322
 21
1156.573119061253
 31
0.0
  0
LINE
  5
236
330
A
100
AcDbEntity
  8
HEWI
100
AcDbLine
 10
-401.3615956329322
 20
1156.573119061253
 30
0.0
 11
-402.3319354080176
 21
1155.065359967014
 31
0.0
  0
LINE
  5
237
330
A
100
AcDbEntity
  8
HEWI
100
AcDbLine
 10
-399.8529353164649
 20
1158.917364971897
 30
0.0
 11
-400.1791157745337
 21
1158.410506146213
 31
0.0
  0
LINE
  5
238
330
A
100
AcDbEntity
  8
HEWI
100
AcDbLine
 10
-405.6379332565284
 20
1174.7213505676
 30
0.0
 11
-448.1619348548865
 21
1196.937346356174
 31
0.0
  0
LINE
  5
239
330
A
100
AcDbEntity
  8
HEWI
100
AcDbLine
 10
-417.2139372848487
 20
1152.563376324436
 30
0.0
 11
-456.9099357151007
 21
1173.301367657444
 31
0.0
  0
LINE
  5
23A
330
A
100
AcDbEntity
  8
HEWI
100
AcDbLine
 10
-416.1509337448096
 20
1152.069373028538
 30
0.0
 11
-417.2139372848487
 21
1152.563376324436
 31
0.0
  0
LINE
  5
23B
330
A
100
AcDbEntity
  8
HEWI
100
AcDbLine
 10
-448.1619348548865
 20
1196.937346356174
 30
0.0
 11
-449.5109357856726
 21
1197.558379071018
 31
0.0
  0
LINE
  5
23C
330
A
100
AcDbEntity
  8
HEWI
100
AcDbLine
 10
-456.9099357151007
 20
1173.301367657444
 30
0.0
 11
-457.1799352191901
 21
1173.425345318577
 31
0.0
  0
LINE
  5
23D
330
A
100
AcDbEntity
  8
HEWI
100
AcDbLine
 10
-408.4899344467139
 20
1163.026366131565
 30
0.0
 11
-408.9759364150977
 21
1161.911368267795
 31
0.0
  0
LINE
  5
23E
330
A
100
AcDbEntity
  8
HEWI
100
AcDbLine
 10
-409.6949353240943
 20
1166.092352764866
 30
0.0
 11
-410.8099331878638
 21
1166.578345196507
 31
0.0
  0
LINE
  5
23F
330
A
100
AcDbEntity
  8
HEWI
100
AcDbLine
 10
-412.0419373535132
 20
1160.70638169553
 30
0.0
 11
-413.1569352172828
 21
1161.192374127171
 31
0.0
  0
LINE
  5
240
330
A
100
AcDbEntity
  8
HEWI
100
AcDbLine
 10
-413.8759341262794
 20
1165.373358624241
 30
0.0
 11
-414.3619360946631
 21
1164.257368939182
 31
0.0
  0
LINE
  5
241
330
A
100
AcDbEntity
  8
HEWI
100
AcDbLine
 10
-448.1619348548865
 20
1196.937346356174
 30
0.0
 11
-450.1194157623267
 21
1197.676215069553
 31
0.0
  0
LINE
  5
242
330
A
100
AcDbEntity
  8
HEWI
100
AcDbLine
 10
-450.1194157623267
 20
1197.676215069553
 30
0.0
 11
-451.5319361709571
 21
1198.209357159397
 31
0.0
  0
LINE
  5
243
330
A
100
AcDbEntity
  8
HEWI
100
AcDbLine
 10
-456.9099357151007
 20
1173.301367657444
 30
0.0
 11
-457.3015549205756
 21
1173.448958294651
 31
0.0
  0
LINE
  5
244
330
A
100
AcDbEntity
  8
HEWI
100
AcDbLine
 10
-457.3015549205756
 20
1173.448958294651
 30
0.0
 11
-457.5839355014777
 21
1173.555350201389
 31
0.0
  0
LINE
  5
245
330
A
100
AcDbEntity
  8
HEWI
100
AcDbLine
 10
-400.1791157745337
 20
1158.410506146213
 30
0.0
 11
-400.3469338439917
 21
1157.854361431858
 31
0.0
  0
LINE
  5
246
330
A
100
AcDbEntity
  8
HEWI
100
AcDbLine
 10
-398.9939370178199
 20
1162.338347332737
 30
0.0
 11
-399.5309033416725
 21
1160.558791058323
 31
0.0
  0
LINE
  5
247
330
A
100
AcDbEntity
  8
HEWI
100
AcDbLine
 10
-399.5309033416725
 20
1160.558791058323
 30
0.0
 11
-400.1791157745337
 21
1158.410506146213
 31
0.0
  0
LINE
  5
248
330
A
100
AcDbEntity
  8
HEWI
100
AcDbLine
 10
-414.5077862762427
 20
1151.74699296262
 30
0.0
 11
-417.2139372848487
 21
1152.563376324436
 31
0.0
  0
LINE
  5
249
330
A
100
AcDbEntity
  8
HEWI
100
AcDbLine
 10
-412.7289357208228
 20
1151.210379498264
 30
0.0
 11
-414.5077862762427
 21
1151.74699296262
 31
0.0
  0
LINE
  5
24A
330
A
100
AcDbEntity
  8
HEWI
100
AcDbLine
 10
-411.4259352706885
 20
1151.142363446018
 30
0.0
 11
-412.0956864379859
 21
1151.273779766819
 31
0.0
  0
LINE
  5
24B
330
A
100
AcDbEntity
  8
HEWI
100
AcDbLine
 10
-414.5077862762427
 20
1151.74699296262
 30
0.0
 11
-416.1509337448096
 21
1152.069373028538
 31
0.0
  0
LINE
  5
24C
330
A
100
AcDbEntity
  8
HEWI
100
AcDbLine
 10
-398.9259352706886
 20
1163.642363446018
 30
0.0
 11
-399.0573945068336
 21
1162.972311871311
 31
0.0
  0
LINE
  5
24D
330
A
100
AcDbEntity
  8
HEWI
100
AcDbLine
 10
-399.5309033416725
 20
1160.558791058323
 30
0.0
 11
-399.8529353164649
 21
1158.917364971897
 31
0.0
  0
LINE
  5
24E
330
A
100
AcDbEntity
  8
HEWI
100
AcDbLine
 10
-399.0573945068336
 20
1162.972311871311
 30
0.0
 11
-399.5309033416725
 21
1160.558791058323
 31
0.0
  0
LINE
  5
24F
330
A
100
AcDbEntity
  8
HEWI
100
AcDbLine
 10
-412.0956864379859
 20
1151.273779766819
 30
0.0
 11
-414.5077862762427
 21
1151.74699296262
 31
0.0
  0
LINE
  5
250
330
A
100
AcDbEntity
  8
HEWI
100
AcDbLine
 10
-457.1799352191901
 20
1173.425345318577
 30
0.0
 11
-457.3015549205756
 21
1173.448958294651
 31
0.0
  0
LINE
  5
251
330
A
100
AcDbEntity
  8
HEWI
100
AcDbLine
 10
-457.3015549205756
 20
1173.448958294651
 30
0.0
 11
-458.2989349388099
 21
1173.642363446018
 31
0.0
  0
LINE
  5
252
330
A
100
AcDbEntity
  8
HEWI
100
AcDbLine
 10
-450.1194157623267
 20
1197.676215069553
 30
0.0
 11
-455.107935907743
 21
1198.642363446018
 31
0.0
  0
LINE
  5
253
330
A
100
AcDbEntity
  8
HEWI
100
AcDbLine
 10
-449.5109357856726
 20
1197.558379071018
 30
0.0
 11
-450.1194157623267
 21
1197.676215069553
 31
0.0
  0
LINE
  5
254
330
A
100
AcDbEntity
  8
HEWI
100
AcDbLine
 10
-414.5869364761328
 20
1164.893355267307
 30
0.0
 11
-414.8259367965675
 21
1163.642363446018
 31
0.0
  0
LINE
  5
255
330
A
100
AcDbEntity
  8
HEWI
100
AcDbLine
 10
-408.0259337448096
 20
1163.642363446018
 30
0.0
 11
-408.2649340652442
 21
1162.39037980344
 31
0.0
  0
LINE
  5
256
330
A
100
AcDbEntity
  8
HEWI
100
AcDbLine
 10
-410.1739373229957
 20
1166.803374188206
 30
0.0
 11
-411.4259352706885
 21
1167.042364971897
 31
0.0
  0
LINE
  5
257
330
A
100
AcDbEntity
  8
HEWI
100
AcDbLine
 10
-399.485913755796
 20
1160.707869427463
 30
0.0
 11
-399.803935530088
 21
1159.041380780003
 31
0.0
  0
LINE
  5
258
330
A
100
AcDbEntity
  8
HEWI
100
AcDbLine
 10
-398.9259352706886
 20
1163.642363446018
 30
0.0
 11
-399.0561547302223
 21
1162.959952252171
 31
0.0
  0
LINE
  5
259
330
A
100
AcDbEntity
  8
HEWI
100
AcDbLine
 10
-411.4259352706885
 20
1151.142363446018
 30
0.0
 11
-412.1085467361426
 21
1151.272482769749
 31
0.0
  0
LINE
  5
25A
330
A
100
AcDbEntity
  8
HEWI
100
AcDbLine
 10
-414.3529429458594
 20
1151.700301068089
 30
0.0
 11
-416.0269370101905
 21
1152.019362347386
 31
0.0
  0
LINE
  5
25B
330
A
100
AcDbEntity
  8
HEWI
100
AcDbLine
 10
-576.0579266571021
 20
1150.072379009983
 30
0.0
 11
-576.4259209655738
 21
1150.142378704807
 31
0.0
  0
LINE
  5
25C
330
A
100
AcDbEntity
  8
HEWI
100
AcDbLine
 10
-576.0579266571021
 20
1150.322356121799
 30
0.0
 11
-576.4259209655738
 21
1150.392355816624
 31
0.0
  0
LINE
  5
25D
330
A
100
AcDbEntity
  8
HEWI
100
AcDbLine
 10
-575.4259266876196
 20
1133.142371075413
 30
0.0
 11
-575.4959263824439
 21
1132.774367230198
 31
0.0
  0
LINE
  5
25E
330
A
100
AcDbEntity
  8
HEWI
100
AcDbLine
 10
-411.4259352706885
 20
1160.242361920139
 30
0.0
 11
-412.6779332183814
 21
1160.480360882542
 31
0.0
  0
LINE
  5
25F
330
A
100
AcDbEntity
  8
HEWI
100
AcDbLine
 10
-457.5839355014777
 20
1173.555350201389
 30
0.0
 11
-458.2989349388099
 21
1173.642363446018
 31
0.0
  0
LINE
  5
260
330
A
100
AcDbEntity
  8
HEWI
100
AcDbLine
 10
-451.5319361709571
 20
1198.209357159397
 30
0.0
 11
-455.107935907743
 21
1198.642363446018
 31
0.0
  0
LINE
  5
261
330
A
100
AcDbEntity
  8
HEWI
100
AcDbLine
 10
-410.8099331878638
 20
1166.578345196507
 30
0.0
 11
-412.0269360565162
 21
1166.581358807346
 31
0.0
  0
LINE
  5
262
330
A
100
AcDbEntity
  8
HEWI
100
AcDbLine
 10
-410.8249344848609
 20
1160.70336808469
 30
0.0
 11
-412.0419373535132
 21
1160.70638169553
 31
0.0
  0
LINE
  5
263
330
A
100
AcDbEntity
  8
HEWI
100
AcDbLine
 10
-414.3619360946631
 20
1164.257368939182
 30
0.0
 11
-414.3649354003883
 21
1163.041357891819
 31
0.0
  0
LINE
  5
264
330
A
100
AcDbEntity
  8
HEWI
100
AcDbLine
 10
-408.4869351409889
 20
1164.243369000217
 30
0.0
 11
-408.4899344467139
 21
1163.026366131565
 31
0.0
  0
LINE
  5
265
330
A
100
AcDbEntity
  8
HEWI
100
AcDbLine
 10
-398.9939370178199
 20
1162.338347332737
 30
0.0
 11
-399.0573945068336
 21
1162.972311871311
 31
0.0
  0
LINE
  5
266
330
A
100
AcDbEntity
  8
HEWI
100
AcDbLine
 10
-399.0573945068336
 20
1162.972311871311
 30
0.0
 11
-399.3070855163551
 21
1165.466780560276
 31
0.0
  0
LINE
  5
267
330
A
100
AcDbEntity
  8
HEWI
100
AcDbLine
 10
-399.3070855163551
 20
1165.466780560276
 30
0.0
 11
-399.4989361785865
 21
1167.383360760471
 31
0.0
  0
LINE
  5
268
330
A
100
AcDbEntity
  8
HEWI
100
AcDbLine
 10
-407.6849331878638
 20
1151.715369122288
 30
0.0
 11
-409.5977940582251
 21
1151.523871319553
 31
0.0
  0
LINE
  5
269
330
A
100
AcDbEntity
  8
HEWI
100
AcDbLine
 10
-412.0956864379859
 20
1151.273779766819
 30
0.0
 11
-412.7289357208228
 21
1151.210379498264
 31
0.0
  0
LINE
  5
26A
330
A
100
AcDbEntity
  8
HEWI
100
AcDbLine
 10
-409.5977940582251
 20
1151.523871319553
 30
0.0
 11
-412.0956864379859
 21
1151.273779766819
 31
0.0
  0
LINE
  5
26B
330
A
100
AcDbEntity
  8
HEWI
100
AcDbLine
 10
-410.1739373229957
 20
1160.480360882542
 30
0.0
 11
-411.4259352706885
 21
1160.242361920139
 31
0.0
  0
LINE
  5
26C
330
A
100
AcDbEntity
  8
HEWI
100
AcDbLine
 10
-575.4259266876196
 20
1149.142355816624
 30
0.0
 11
-575.4959263824439
 21
1149.510359661839
 31
0.0
  0
LINE
  5
26D
330
A
100
AcDbEntity
  8
HEWI
100
AcDbLine
 10
-575.4259266876196
 20
1149.392371075413
 30
0.0
 11
-575.4959263824439
 21
1149.760374920627
 31
0.0
  0
LINE
  5
26E
330
A
100
AcDbEntity
  8
HEWI
100
AcDbLine
 10
-576.0579266571021
 20
1132.212347882053
 30
0.0
 11
-576.4259209655738
 21
1132.142348187229
 31
0.0
  0
LINE
  5
26F
330
A
100
AcDbEntity
  8
HEWI
100
AcDbLine
 10
-406.8249335311866
 20
1152.019362347386
 30
0.0
 11
-407.3025050186133
 21
1151.928343670628
 31
0.0
  0
LINE
  5
270
330
A
100
AcDbEntity
  8
HEWI
100
AcDbLine
 10
-409.2328658126807
 20
1151.560377972385
 30
0.0
 11
-411.4259352706885
 21
1151.142363446018
 31
0.0
  0
LINE
  5
271
330
A
100
AcDbEntity
  8
HEWI
100
AcDbLine
 10
-398.9259352706886
 20
1163.642363446018
 30
0.0
 11
-399.3434968017555
 21
1165.830511944554
 31
0.0
  0
LINE
  5
272
330
A
100
AcDbEntity
  8
HEWI
100
AcDbLine
 10
-399.7132458709693
 20
1167.768111126682
 30
0.0
 11
-399.803935530088
 21
1168.243346112034
 31
0.0
  0
LINE
  5
273
330
A
100
AcDbEntity
  8
HEWI
100
AcDbLine
 10
-411.4259352706885
 20
1167.042364971897
 30
0.0
 11
-412.6779332183814
 21
1166.803374188206
 31
0.0
  0
LINE
  5
274
330
A
100
AcDbEntity
  8
HEWI
100
AcDbLine
 10
-414.5869364761328
 20
1162.39037980344
 30
0.0
 11
-414.8259367965675
 21
1163.642363446018
 31
0.0
  0
LINE
  5
275
330
A
100
AcDbEntity
  8
HEWI
100
AcDbLine
 10
-408.0259337448096
 20
1163.642363446018
 30
0.0
 11
-408.2649340652442
 21
1164.893355267307
 31
0.0
  0
LINE
  5
276
330
A
100
AcDbEntity
  8
HEWI
100
AcDbLine
 10
-407.0885958694434
 20
1152.04743851926
 30
0.0
 11
-409.5977940582251
 21
1151.523871319553
 31
0.0
  0
LINE
  5
277
330
A
100
AcDbEntity
  8
HEWI
100
AcDbLine
 10
-409.5977940582251
 20
1151.523871319553
 30
0.0
 11
-411.4259352706885
 21
1151.142363446018
 31
0.0
  0
LINE
  5
278
330
A
100
AcDbEntity
  8
HEWI
100
AcDbLine
 10
-406.4229359649634
 20
1152.186369793674
 30
0.0
 11
-407.0885958694434
 21
1152.04743851926
 31
0.0
  0
LINE
  5
279
330
A
100
AcDbEntity
  8
HEWI
100
AcDbLine
 10
-399.3070855163551
 20
1165.466780560276
 30
0.0
 11
-399.8326554321266
 21
1167.98249711301
 31
0.0
  0
LINE
  5
27A
330
A
100
AcDbEntity
  8
HEWI
100
AcDbLine
 10
-398.9259352706886
 20
1163.642363446018
 30
0.0
 11
-399.3070855163551
 21
1165.466780560276
 31
0.0
  0
LINE
  5
27B
330
A
100
AcDbEntity
  8
HEWI
100
AcDbLine
 10
-399.8326554321266
 20
1167.98249711301
 30
0.0
 11
-399.9709334396339
 21
1168.644347088596
 31
0.0
  0
LINE
  5
27C
330
A
100
AcDbEntity
  8
HEWI
100
AcDbLine
 10
-409.7849335693336
 20
1161.130347149631
 30
0.0
 11
-410.8249344848609
 21
1160.70336808469
 31
0.0
  0
LINE
  5
27D
330
A
100
AcDbEntity
  8
HEWI
100
AcDbLine
 10
-408.4869351409889
 20
1164.243369000217
 30
0.0
 11
-408.9139332794165
 21
1165.283369915745
 31
0.0
  0
LINE
  5
27E
330
A
100
AcDbEntity
  8
HEWI
100
AcDbLine
 10
-413.9379372619605
 20
1162.001356976292
 30
0.0
 11
-414.3649354003883
 21
1163.041357891819
 31
0.0
  0
LINE
  5
27F
330
A
100
AcDbEntity
  8
HEWI
100
AcDbLine
 10
-412.0269360565162
 20
1166.581358807346
 30
0.0
 11
-413.0669369720435
 21
1166.153349774143
 31
0.0
  0
LINE
  5
280
330
A
100
AcDbEntity
  8
HEWI
100
AcDbLine
 10
-407.0885863327003
 20
1152.04743851926
 30
0.0
 11
-407.6849331878638
 21
1151.715369122288
 31
0.0
  0
LINE
  5
281
330
A
100
AcDbEntity
  8
HEWI
100
AcDbLine
 10
-404.8445858978247
 20
1153.297095196506
 30
0.0
 11
-407.0885863327003
 21
1152.04743851926
 31
0.0
  0
LINE
  5
282
330
A
100
AcDbEntity
  8
HEWI
100
AcDbLine
 10
-403.2549347900367
 20
1154.18237199094
 30
0.0
 11
-404.8445858978247
 21
1153.297095196506
 31
0.0
  0
LINE
  5
283
330
A
100
AcDbEntity
  8
HEWI
100
AcDbLine
 10
-401.0759272598242
 20
1170.2145146301
 30
0.0
 11
-401.9659342788672
 21
1171.812376873752
 31
0.0
  0
LINE
  5
284
330
A
100
AcDbEntity
  8
HEWI
100
AcDbLine
 10
-399.4989361785865
 20
1167.383360760471
 30
0.0
 11
-399.8326554321266
 21
1167.98249711301
 31
0.0
  0
LINE
  5
285
330
A
100
AcDbEntity
  8
HEWI
100
AcDbLine
 10
-399.8326554321266
 20
1167.98249711301
 30
0.0
 11
-401.0759272598242
 21
1170.2145146301
 31
0.0
  0
LINE
  5
286
330
A
100
AcDbEntity
  8
HEWI
100
AcDbLine
 10
-408.2649340652442
 20
1164.893355267307
 30
0.0
 11
-409.0219368957495
 21
1166.046347515842
 31
0.0
  0
LINE
  5
287
330
A
100
AcDbEntity
  8
HEWI
100
AcDbLine
 10
-399.803935530088
 20
1168.243346112034
 30
0.0
 11
-399.9259867691017
 21
1168.429236309788
 31
0.0
  0
LINE
  5
288
330
A
100
AcDbEntity
  8
HEWI
100
AcDbLine
 10
-399.9259867691017
 20
1168.429236309788
 30
0.0
 11
-400.9505667709326
 21
1169.989447491428
 31
0.0
  0
LINE
  5
289
330
A
100
AcDbEntity
  8
HEWI
100
AcDbLine
 10
-402.3446145080542
 20
1172.112364666721
 30
0.0
 11
-402.5869336151099
 21
1172.481360333225
 31
0.0
  0
LINE
  5
28A
330
A
100
AcDbEntity
  8
HEWI
100
AcDbLine
 10
-406.6395154022193
 20
1152.141165631077
 30
0.0
 11
-406.8249335311866
 21
1152.019362347386
 31
0.0
  0
LINE
  5
28B
330
A
100
AcDbEntity
  8
HEWI
100
AcDbLine
 10
-405.0762238525367
 20
1153.168120281956
 30
0.0
 11
-406.6395154022193
 21
1152.141165631077
 31
0.0
  0
LINE
  5
28C
330
A
100
AcDbEntity
  8
HEWI
100
AcDbLine
 10
-402.5869336151099
 20
1154.803366558811
 30
0.0
 11
-402.9542031311011
 21
1154.56208695676
 31
0.0
  0
LINE
  5
28D
330
A
100
AcDbEntity
  8
HEWI
100
AcDbLine
 10
-413.8299336456275
 20
1161.238379376194
 30
0.0
 11
-414.5869364761328
 21
1162.39037980344
 31
0.0
  0
LINE
  5
28E
330
A
100
AcDbEntity
  8
HEWI
100
AcDbLine
 10
-412.6779332183814
 20
1166.803374188206
 30
0.0
 11
-413.8299336456275
 21
1166.046347515842
 31
0.0
  0
LINE
  5
28F
330
A
100
AcDbEntity
  8
HEWI
100
AcDbLine
 10
-575.4959263824439
 20
1149.510359661839
 30
0.0
 11
-575.7189240478492
 21
1149.849371807835
 31
0.0
  0
LINE
  5
290
330
A
100
AcDbEntity
  8
HEWI
100
AcDbLine
 10
-575.7189240478492
 20
1132.435355084202
 30
0.0
 11
-576.0579266571021
 21
1132.212347882053
 31
0.0
  0
LINE
  5
291
330
A
100
AcDbEntity
  8
HEWI
100
AcDbLine
 10
-575.4959263824439
 20
1149.760374920627
 30
0.0
 11
-575.7189240478492
 21
1150.099348919651
 31
0.0
  0
LINE
  5
292
330
A
100
AcDbEntity
  8
HEWI
100
AcDbLine
 10
-409.0219368957495
 20
1161.238379376194
 30
0.0
 11
-410.1739373229957
 21
1160.480360882542
 31
0.0
  0
LINE
  5
293
330
A
100
AcDbEntity
  8
HEWI
100
AcDbLine
 10
-402.4957766555762
 20
1172.232108013889
 30
0.0
 11
-402.8499331497169
 21
1172.735381024143
 31
0.0
  0
LINE
  5
294
330
A
100
AcDbEntity
  8
HEWI
100
AcDbLine
 10
-404.8445858978247
 20
1153.297095196506
 30
0.0
 11
-406.4229359649634
 21
1152.186369793674
 31
0.0
  0
LINE
  5
295
330
A
100
AcDbEntity
  8
HEWI
100
AcDbLine
 10
-402.3319354080176
 20
1155.065359967014
 30
0.0
 11
-402.8373065017676
 21
1154.70971574094
 31
0.0
  0
LINE
  5
296
330
A
100
AcDbEntity
  8
HEWI
100
AcDbLine
 10
-401.0759272598242
 20
1170.2145146301
 30
0.0
 11
-402.4957766555762
 21
1172.232108013889
 31
0.0
  0
LINE
  5
297
330
A
100
AcDbEntity
  8
HEWI
100
AcDbLine
 10
-399.9709334396339
 20
1168.644347088596
 30
0.0
 11
-401.0759272598242
 21
1170.2145146301
 31
0.0
  0
LINE
  5
298
330
A
100
AcDbEntity
  8
HEWI
100
AcDbLine
 10
-402.8373065017676
 20
1154.70971574094
 30
0.0
 11
-404.8445858978247
 21
1153.297095196506
 31
0.0
  0
LINE
  5
299
330
A
100
AcDbEntity
  8
HEWI
100
AcDbLine
 10
-413.0669369720435
 20
1166.153349774143
 30
0.0
 11
-413.8759341262794
 21
1165.373358624241
 31
0.0
  0
LINE
  5
29A
330
A
100
AcDbEntity
  8
HEWI
100
AcDbLine
 10
-408.9139332794165
 20
1165.283369915745
 30
0.0
 11
-409.6949353240943
 21
1166.092352764866
 31
0.0
  0
LINE
  5
29B
330
A
100
AcDbEntity
  8
HEWI
100
AcDbLine
 10
-413.1569352172828
 20
1161.192374127171
 30
0.0
 11
-413.9379372619605
 21
1162.001356976292
 31
0.0
  0
LINE
  5
29C
330
A
100
AcDbEntity
  8
HEWI
100
AcDbLine
 10
-408.9759364150977
 20
1161.911368267795
 30
0.0
 11
-409.7849335693336
 21
1161.130347149631
 31
0.0
  0
ENDSEC
  0
SECTION
  2
OBJECTS
  0
DICTIONARY
  5
19
330
0
100
AcDbDictionary
281
     1
  3
ACAD_CIP_PREVIOUS_PRODUCT_INFO
350
1F8
  3
ACAD_COLOR
350
1D6
  3
ACAD_DETAILVIEWSTYLE
350
1F0
  3
ACAD_GROUP
350
1A
  3
ACAD_LAYOUT
350
1F2
  3
ACAD_MATERIAL
350
1A4
  3
ACAD_MLEADERSTYLE
350
1EB
  3
ACAD_MLINESTYLE
350
1B
  3
ACAD_PLOTSETTINGS
350
1F3
  3
ACAD_PLOTSTYLENAME
350
1A2
  3
ACAD_SCALELIST
350
1D9
  3
ACAD_SECTIONVIEWSTYLE
350
1ED
  3
ACAD_TABLESTYLE
350
1D7
  3
ACAD_VISUALSTYLE
350
1BD
  3
ACDB_RECOMPOSE_DATA
350
2C0
  3
AcDbVariableDictionary
350
207
  3
AcDsDecomposeData
350
2C6
  0
DICTIONARY
  5
200
330
2
100
AcDbDictionary
280
     1
281
     1
  3
ACAD_LAYERSTATES
360
201
  0
DICTIONARY
  5
1F9
330
14
100
AcDbDictionary
280
     1
281
     1
  3
ADSK_XREC_LAYER_RECONCILED
360
1FA
  0
DICTIONARY
  5
1FB
330
1D
100
AcDbDictionary
280
     1
281
     1
  3
ADSK_XREC_LAYER_RECONCILED
360
1FC
  0
XRECORD
  5
1F8
102
{ACAD_REACTORS
330
19
102
}
330
19
100
AcDbXrecord
280
     1
300
ACDLT
300
2016
300
ACDLT_F_S
  0
DICTIONARY
  5
1D6
102
{ACAD_REACTORS
330
19
102
}
330
19
100
AcDbDictionary
281
     1
  0
DICTIONARY
  5
1F0
102
{ACAD_REACTORS
330
19
102
}
330
19
100
AcDbDictionary
281
     1
  3
Imperial24
350
1F1
  3
Metric50
350
2A1
  0
DICTIONARY
  5
1A
102
{ACAD_REACTORS
330
19
102
}
330
19
100
AcDbDictionary
281
     1
  0
DICTIONARY
  5
1F2
102
{ACAD_REACTORS
330
19
102
}
330
19
100
AcDbDictionary
281
     1
  3
Layout1
350
1F5
  3
Model
350
1F4
  0
DICTIONARY
  5
1A4
102
{ACAD_REACTORS
330
19
102
}
330
19
100
AcDbDictionary
281
     1
  3
ByBlock
350
1AD
  3
ByLayer
350
1A5
  3
Global
350
1B5
  0
DICTIONARY
  5
1EB
102
{ACAD_REACTORS
330
19
102
}
330
19
100
AcDbDictionary
281
     1
  3
Standard
350
1EC
  0
DICTIONARY
  5
1B
102
{ACAD_REACTORS
330
19
102
}
330
19
100
AcDbDictionary
281
     1
  3
STANDARD
350
1C
  0
DICTIONARY
  5
1F3
102
{ACAD_REACTORS
330
19
102
}
330
19
100
AcDbDictionary
281
     1
  0
ACDBDICTIONARYWDFLT
  5
1A2
102
{ACAD_REACTORS
330
19
102
}
330
19
100
AcDbDictionary
281
     1
  3
Normal
350
1A3
100
AcDbDictionaryWithDefault
340
1A3
  0
DICTIONARY
  5
1D9
102
{ACAD_REACTORS
330
19
102
}
330
19
100
AcDbDictionary
281
     1
  3
A0
350
1DA
  3
A1
350
1DB
  3
A2
350
1DC
  3
A3
350
1DD
  3
A4
350
1DE
  3
A5
350
1DF
  3
A6
350
1E0
  3
A7
350
1E1
  3
A8
350
1E2
  3
A9
350
1E3
  3
B0
350
1E4
  3
B1
350
1E5
  3
B2
350
1E6
  3
B3
350
1E7
  3
B4
350
1E8
  3
B5
350
1E9
  3
B6
350
1EA
  0
DICTIONARY
  5
1ED
102
{ACAD_REACTORS
330
19
102
}
330
19
100
AcDbDictionary
281
     1
  3
Imperial24
350
1EF
  3
Metric50
350
2A0
  0
DICTIONARY
  5
1D7
102
{ACAD_REACTORS
330
19
102
}
330
19
100
AcDbDictionary
281
     1
  3
Standard
350
1D8
  0
DICTIONARY
  5
1BD
102
{ACAD_REACTORS
330
19
102
}
330
19
100
AcDbDictionary
281
     1
  3
2dWireframe
350
1C3
  3
Basic
350
1C2
  3
Brighten
350
1C9
  3
ColorChange
350
1CD
  3
Conceptual
350
1C6
  3
Dim
350
1C8
  3
EdgeColorOff
350
1D5
  3
Facepattern
350
1CC
  3
Flat
350
1BE
  3
FlatWithEdges
350
1BF
  3
Gouraud
350
1C0
  3
GouraudWithEdges
350
1C1
  3
Hidden
350
1C5
  3
JitterOff
350
1D3
  3
Linepattern
350
1CB
  3
OverhangOff
350
1D4
  3
Realistic
350
1C7
  3
Shaded
350
1D2
  3
Shaded with edges
350
1D1
  3
Shades of Gray
350
1CE
  3
Sketchy
350
1CF
  3
Thicken
350
1CA
  3
Wireframe
350
1C4
  3
X-Ray
350
1D0
  0
XRECORD
  5
2C0
102
{ACAD_REACTORS
330
19
102
}
330
19
100
AcDbXrecord
280
     1
 90
        1
330
1D8
  0
DICTIONARY
  5
207
102
{ACAD_REACTORS
330
19
102
}
330
19
100
AcDbDictionary
281
     1
  3
CANNOSCALE
350
20D
  3
CMLEADERSTYLE
350
209
  3
CTABLESTYLE
350
208
  3
CVIEWDETAILSTYLE
350
20A
  3
CVIEWSECTIONSTYLE
350
20B
  3
LAYEREVAL
350
20F
  3
LAYERNOTIFY
350
210
  3
LIGHTINGUNITS
350
20E
  3
MSLTSCALE
350
20C
  0
DICTIONARY
  5
2C6
102
{ACAD_REACTORS
330
19
102
}
330
19
100
AcDbDictionary
281
     1
  3
AcDsRecords
350
2C8
  3
AcDsSchemas
350
2C7
1001
ACAD
1070
     2
  0
DICTIONARY
  5
201
102
{ACAD_REACTORS
330
200
102
}
330
200
100
AcDbDictionary
281
     1
  0
XRECORD
  5
1FA
102
{ACAD_REACTORS
330
1F9
102
}
330
1F9
100
AcDbXrecord
280
     1
290
     1
  0
XRECORD
  5
1FC
102
{ACAD_REACTORS
330
1FB
102
}
330
1FB
100
AcDbXrecord
280
     1
290
     1
  0
ACDBDETAILVIEWSTYLE
  5
1F1
102
{ACAD_XDICTIONARY
360
2FD
102
}
102
{ACAD_REACTORS
330
1F0
102
}
330
1F0
100
AcDbModelDocViewStyle
 70
     0
  3
Imperial24
290
     0
100
AcDbDetailViewStyle
 70
     0
 71
     0
 90
        3
 71
     1
340
17
 62
   256
 40
0.24
340
0
 62
   256
 40
0.24
300

 40
0.36
280
     3
 71
     2
340
13
 90
       25
 62
   256
 71
     3
340
17
 62
   256
 40
0.24
 90
        1
 40
0.75
 90
        1
300
%<\AcVar ViewType \f "%tc1">% %<\AcVar ViewDetailId>%\PVARIA %<\AcVar ViewScale \f "%sn">%
 71
     4
340
13
 90
       25
 62
   256
340
13
 90
       25
 62
   256
280
     0
  0
ACDBDETAILVIEWSTYLE
  5
2A1
102
{ACAD_XDICTIONARY
360
301
102
}
102
{ACAD_REACTORS
330
1F0
102
}
330
1F0
100
AcDbModelDocViewStyle
 70
     0
  3
Metric50
290
     0
100
AcDbDetailViewStyle
 70
     0
 71
     0
 90
        3
 71
     1
340
17
 62
   256
 40
5.0
340
0
 62
   256
 40
5.0
300

 40
0.0
280
     1
 71
     2
340
13
 90
       25
 62
   256
 71
     3
340
17
 62
   256
 40
5.0
 90
        0
 40
15.0
 90
        1
300
%<\AcVar ViewDetailId>% (%<\AcVar ViewScale \f "%sn">%)
 71
     4
340
13
 90
       25
 62
   256
340
13
 90
       25
 62
   256
280
     0
  0
LAYOUT
  5
1F5
102
{ACAD_REACTORS
330
1F2
102
}
330
1F2
100
AcDbPlotSettings
  1

  2
\\srvadruck01\MFSA15
  4

  6

 40
0.0
 41
0.0
 42
0.0
 43
0.0
 44
0.0
 45
0.0
 46
0.0
 47
0.0
 48
0.0
 49
0.0
140
0.0
141
0.0
142
1.0
143
1.0
 70
   688
 72
     0
 73
     0
 74
     5
  7

 75
    16
147
1.0
 76
     0
 77
     2
 78
   300
148
0.0
149
0.0
100
AcDbLayout
  1
Layout1
 70
     0
 71
     1
 10
0.0
 20
0.0
 11
12.0
 21
9.0
 12
0.0
 22
0.0
 32
0.0
 14
1.000000000000000E+20
 24
1.000000000000000E+20
 34
1.000000000000000E+20
 15
-1.000000000000000E+20
 25
-1.000000000000000E+20
 35
-1.000000000000000E+20
146
0.0
 13
0.0
 23
0.0
 33
0.0
 16
1.0
 26
0.0
 36
0.0
 17
0.0
 27
1.0
 37
0.0
 76
     0
330
B
  0
LAYOUT
  5
1F4
102
{ACAD_REACTORS
330
1F2
102
}
330
1F2
100
AcDbPlotSettings
  1

  2
\\srvadruck01\MFSA15
  4

  6

 40
0.0
 41
0.0
 42
0.0
 43
0.0
 44
0.0
 45
0.0
 46
0.0
 47
0.0
 48
0.0
 49
0.0
140
0.0
141
0.0
142
1.0
143
1.0
 70
  1712
 72
     0
 73
     0
 74
     0
  7

 75
     0
147
1.0
 76
     0
 77
     2
 78
   300
148
0.0
149
0.0
100
AcDbLayout
  1
Model
 70
     1
 71
     0
 10
0.0
 20
0.0
 11
12.0
 21
9.0
 12
0.0
 22
0.0
 32
0.0
 14
0.0
 24
0.0
 34
0.0
 15
0.0
 25
0.0
 35
0.0
146
0.0
 13
0.0
 23
0.0
 33
0.0
 16
1.0
 26
0.0
 36
0.0
 17
0.0
 27
1.0
 37
0.0
 76
     0
330
A
331
15
  0
MATERIAL
  5
1AD
102
{ACAD_XDICTIONARY
360
1AE
102
}
102
{ACAD_REACTORS
330
1A4
102
}
330
1A4
100
AcDbMaterial
  1
ByBlock
 72
     0
 43
0.0208333333333333
 43
0.0
 43
0.0
 43
0.0
 43
0.0
 43
0.0208333333333333
 43
0.0
 43
0.0
 43
0.0
 43
0.0
 43
1.0
 43
0.0
 43
0.0
 43
0.0
 43
0.0
 43
1.0
 77
     0
 47
0.0208333333333333
 47
0.0
 47
0.0
 47
0.0
 47
0.0
 47
0.0208333333333333
 47
0.0
 47
0.0
 47
0.0
 47
0.0
 47
1.0
 47
0.0
 47
0.0
 47
0.0
 47
0.0
 47
1.0
171
     0
 49
0.0208333333333333
 49
0.0
 49
0.0
 49
0.0
 49
0.0
 49
0.0208333333333333
 49
0.0
 49
0.0
 49
0.0
 49
0.0
 49
1.0
 49
0.0
 49
0.0
 49
0.0
 49
0.0
 49
1.0
175
     0
142
0.0208333333333333
142
0.0
142
0.0
142
0.0
142
0.0
142
0.0208333333333333
142
0.0
142
0.0
142
0.0
142
0.0
142
1.0
142
0.0
142
0.0
142
0.0
142
0.0
142
1.0
179
     0
144
0.0208333333333333
144
0.0
144
0.0
144
0.0
144
0.0
144
0.0208333333333333
144
0.0
144
0.0
144
0.0
144
0.0
144
1.0
144
0.0
144
0.0
144
0.0
144
0.0
144
1.0
147
0.0208333333333333
147
0.0
147
0.0
147
0.0
147
0.0
147
0.0208333333333333
147
0.0
147
0.0
147
0.0
147
0.0
147
1.0
147
0.0
147
0.0
147
0.0
147
0.0
147
1.0
  0
MATERIAL
  5
1A5
102
{ACAD_XDICTIONARY
360
1A6
102
}
102
{ACAD_REACTORS
330
1A4
102
}
330
1A4
100
AcDbMaterial
  1
ByLayer
 72
     0
 43
0.0208333333333333
 43
0.0
 43
0.0
 43
0.0
 43
0.0
 43
0.0208333333333333
 43
0.0
 43
0.0
 43
0.0
 43
0.0
 43
1.0
 43
0.0
 43
0.0
 43
0.0
 43
0.0
 43
1.0
 77
     0
 47
0.0208333333333333
 47
0.0
 47
0.0
 47
0.0
 47
0.0
 47
0.0208333333333333
 47
0.0
 47
0.0
 47
0.0
 47
0.0
 47
1.0
 47
0.0
 47
0.0
 47
0.0
 47
0.0
 47
1.0
171
     0
 49
0.0208333333333333
 49
0.0
 49
0.0
 49
0.0
 49
0.0
 49
0.0208333333333333
 49
0.0
 49
0.0
 49
0.0
 49
0.0
 49
1.0
 49
0.0
 49
0.0
 49
0.0
 49
0.0
 49
1.0
175
     0
142
0.0208333333333333
142
0.0
142
0.0
142
0.0
142
0.0
142
0.0208333333333333
142
0.0
142
0.0
142
0.0
142
0.0
142
1.0
142
0.0
142
0.0
142
0.0
142
0.0
142
1.0
179
     0
144
0.0208333333333333
144
0.0
144
0.0
144
0.0
144
0.0
144
0.0208333333333333
144
0.0
144
0.0
144
0.0
144
0.0
144
1.0
144
0.0
144
0.0
144
0.0
144
0.0
144
1.0
147
0.0208333333333333
147
0.0
147
0.0
147
0.0
147
0.0
147
0.0208333333333333
147
0.0
147
0.0
147
0.0
147
0.0
147
1.0
147
0.0
147
0.0
147
0.0
147
0.0
147
1.0
  0
MATERIAL
  5
1B5
102
{ACAD_XDICTIONARY
360
1B6
102
}
102
{ACAD_REACTORS
330
1A4
102
}
330
1A4
100
AcDbMaterial
  1
Global
 72
     0
 43
0.0208333333333333
 43
0.0
 43
0.0
 43
0.0
 43
0.0
 43
0.0208333333333333
 43
0.0
 43
0.0
 43
0.0
 43
0.0
 43
1.0
 43
0.0
 43
0.0
 43
0.0
 43
0.0
 43
1.0
 77
     0
 47
0.0208333333333333
 47
0.0
 47
0.0
 47
0.0
 47
0.0
 47
0.0208333333333333
 47
0.0
 47
0.0
 47
0.0
 47
0.0
 47
1.0
 47
0.0
 47
0.0
 47
0.0
 47
0.0
 47
1.0
171
     0
 49
0.0208333333333333
 49
0.0
 49
0.0
 49
0.0
 49
0.0
 49
0.0208333333333333
 49
0.0
 49
0.0
 49
0.0
 49
0.0
 49
1.0
 49
0.0
 49
0.0
 49
0.0
 49
0.0
 49
1.0
175
     0
142
0.0208333333333333
142
0.0
142
0.0
142
0.0
142
0.0
142
0.0208333333333333
142
0.0
142
0.0
142
0.0
142
0.0
142
1.0
142
0.0
142
0.0
142
0.0
142
0.0
142
1.0
179
     0
144
0.0208333333333333
144
0.0
144
0.0
144
0.0
144
0.0
144
0.0208333333333333
144
0.0
144
0.0
144
0.0
144
0.0
144
1.0
144
0.0
144
0.0
144
0.0
144
0.0
144
1.0
147
0.0208333333333333
147
0.0
147
0.0
147
0.0
147
0.0
147
0.0208333333333333
147
0.0
147
0.0
147
0.0
147
0.0
147
1.0
147
0.0
147
0.0
147
0.0
147
0.0
147
1.0
  0
MLEADERSTYLE
  5
1EC
102
{ACAD_XDICTIONARY
360
2F9
102
}
102
{ACAD_REACTORS
330
1EB
102
}
330
1EB
100
AcDbMLeaderStyle
179
     2
170
     2
171
     1
172
     0
 90
        2
 40
0.0
 41
0.0
173
     1
 91
-1056964608
340
11
 92
       -2
290
     1
 42
0.09
291
     1
 43
0.36
  3
Standard
 44
0.18
300

342
17
174
     1
178
     6
175
     1
176
     0
 93
-1056964608
 45
0.18
292
     0
297
     0
 46
0.18
 94
-1056964608
 47
1.0
 49
1.0
140
1.0
293
     1
141
0.0
294
     1
177
     0
142
1.0
295
     0
296
     0
143
0.125
271
     0
272
     9
273
     9
  0
MLINESTYLE
  5
1C
102
{ACAD_REACTORS
330
1B
102
}
330
1B
100
AcDbMlineStyle
  2
STANDARD
 70
     0
  3

 62
     0
 51
90.0
 52
90.0
 71
     2
 49
0.5
 62
   256
  6
BYLAYER
 49
-0.5
 62
   256
  6
BYLAYER
  0
ACDBPLACEHOLDER
  5
1A3
102
{ACAD_REACTORS
330
1A2
102
}
330
1A2
  0
SCALE
  5
1DA
102
{ACAD_REACTORS
330
1D9
102
}
330
1D9
100
AcDbScale
 70
     0
300
1:1
140
1.0
141
1.0
290
     1
  0
SCALE
  5
1DB
102
{ACAD_REACTORS
330
1D9
102
}
330
1D9
100
AcDbScale
 70
     0
300
1/128" = 1'-0"
140
0.0078125
141
12.0
290
     0
  0
SCALE
  5
1DC
102
{ACAD_REACTORS
330
1D9
102
}
330
1D9
100
AcDbScale
 70
     0
300
1/64" = 1'-0"
140
0.015625
141
12.0
290
     0
  0
SCALE
  5
1DD
102
{ACAD_REACTORS
330
1D9
102
}
330
1D9
100
AcDbScale
 70
     0
300
1/32" = 1'-0"
140
0.03125
141
12.0
290
     0
  0
SCALE
  5
1DE
102
{ACAD_REACTORS
330
1D9
102
}
330
1D9
100
AcDbScale
 70
     0
300
1/16" = 1'-0"
140
0.0625
141
12.0
290
     0
  0
SCALE
  5
1DF
102
{ACAD_REACTORS
330
1D9
102
}
330
1D9
100
AcDbScale
 70
     0
300
3/32" = 1'-0"
140
0.09375
141
12.0
290
     0
  0
SCALE
  5
1E0
102
{ACAD_REACTORS
330
1D9
102
}
330
1D9
100
AcDbScale
 70
     0
300
1/8" = 1'-0"
140
0.125
141
12.0
290
     0
  0
SCALE
  5
1E1
102
{ACAD_REACTORS
330
1D9
102
}
330
1D9
100
AcDbScale
 70
     0
300
3/16" = 1'-0"
140
0.1875
141
12.0
290
     0
  0
SCALE
  5
1E2
102
{ACAD_REACTORS
330
1D9
102
}
330
1D9
100
AcDbScale
 70
     0
300
1/4" = 1'-0"
140
0.25
141
12.0
290
     0
  0
SCALE
  5
1E3
102
{ACAD_REACTORS
330
1D9
102
}
330
1D9
100
AcDbScale
 70
     0
300
3/8" = 1'-0"
140
0.375
141
12.0
290
     0
  0
SCALE
  5
1E4
102
{ACAD_REACTORS
330
1D9
102
}
330
1D9
100
AcDbScale
 70
     0
300
1/2" = 1'-0"
140
0.5
141
12.0
290
     0
  0
SCALE
  5
1E5
102
{ACAD_REACTORS
330
1D9
102
}
330
1D9
100
AcDbScale
 70
     0
300
3/4" = 1'-0"
140
0.75
141
12.0
290
     0
  0
SCALE
  5
1E6
102
{ACAD_REACTORS
330
1D9
102
}
330
1D9
100
AcDbScale
 70
     0
300
1" = 1'-0"
140
1.0
141
12.0
290
     0
  0
SCALE
  5
1E7
102
{ACAD_REACTORS
330
1D9
102
}
330
1D9
100
AcDbScale
 70
     0
300
1-1/2" = 1'-0"
140
1.5
141
12.0
290
     0
  0
SCALE
  5
1E8
102
{ACAD_REACTORS
330
1D9
102
}
330
1D9
100
AcDbScale
 70
     0
300
3" = 1'-0"
140
3.0
141
12.0
290
     0
  0
SCALE
  5
1E9
102
{ACAD_REACTORS
330
1D9
102
}
330
1D9
100
AcDbScale
 70
     0
300
6" = 1'-0"
140
6.0
141
12.0
290
     0
  0
SCALE
  5
1EA
102
{ACAD_REACTORS
330
1D9
102
}
330
1D9
100
AcDbScale
 70
     0
300
1'-0" = 1'-0"
140
12.0
141
12.0
290
     0
  0
ACDBSECTIONVIEWSTYLE
  5
1EF
102
{ACAD_XDICTIONARY
360
2FB
102
}
102
{ACAD_REACTORS
330
1ED
102
}
330
1ED
100
AcDbModelDocViewStyle
 70
     0
  3
Imperial24
290
     0
100
AcDbSectionViewStyle
 70
     0
 71
     0
 90
       78
 71
     1
340
17
 62
   256
 40
0.24
340
0
340
0
 62
   256
 40
0.24
300
I, O, Q, S, X, Z
 40
0.48
 90
        3
 40
0.18
 90
        1
 71
     2
340
1EE
 90
       25
 62
   256
340
13
 90
       50
 62
   256
 40
0.24
 40
0.0
 40
0.24
 71
     3
340
17
 62
   256
 40
0.24
 90
        1
 40
0.75
 90
        1
300
%<\AcVar ViewType \f "%tc1">% %<\AcVar ViewSectionStartId>%-%<\AcVar ViewSectionEndId>%\PVARIA %<\AcVar ViewScale \f "%sn">%
 71
     4
 62
   256
 62
   257
300
ANSI31
 40
1.0
 90
        0
290
     0
290
     0
 90
        6
 40
0.0
 40
1.570796326794896
 40
0.2617993877991494
 40
1.308996938995747
 40
-0.2617993877991494
 40
1.832595714594046
  0
ACDBSECTIONVIEWSTYLE
  5
2A0
102
{ACAD_XDICTIONARY
360
2FF
102
}
102
{ACAD_REACTORS
330
1ED
102
}
330
1ED
100
AcDbModelDocViewStyle
 70
     0
  3
Metric50
290
     0
100
AcDbSectionViewStyle
 70
     0
 71
     0
 90
      102
 71
     1
340
17
 62
   256
 40
5.0
340
0
340
0
 62
   256
 40
5.0
300
I, O, Q, S, X, Z
 40
10.0
 90
        0
 40
2.5
 90
        0
 71
     2
340
13
 90
       25
 62
   256
340
13
 90
       50
 62
   256
 40
5.0
 40
2.5
 40
5.0
 71
     3
340
17
 62
   256
 40
5.0
 90
        0
 40
15.0
 90
        1
300
%<\AcVar ViewSectionStartId>%-%<\AcVar ViewSectionEndId>% (%<\AcVar ViewScale \f "%sn">%)
 71
     4
 62
   256
 62
   257
300
ANSI31
 40
1.0
 90
        0
290
     0
290
     0
 90
        6
 40
0.0
 40
1.570796326794896
 40
0.2617993877991494
 40
1.308996938995747
 40
-0.2617993877991494
 40
1.832595714594046
  0
TABLESTYLE
  5
1D8
102
{ACAD_XDICTIONARY
360
2BE
102
}
102
{ACAD_REACTORS
330
1D7
102
}
330
1D7
100
AcDbTableStyle
280
     0
  3
Standard
 70
     0
 71
     0
 40
0.06
 41
0.06
280
     0
281
     0
  7
STANDARD
140
0.18
170
     2
 62
     0
 63
     7
283
     0
 90
      512
 91
        0
  1

274
    -2
284
     1
 64
     0
275
    -2
285
     1
 65
     0
276
    -2
286
     1
 66
     0
277
    -2
287
     1
 67
     0
278
    -2
288
     1
 68
     0
279
    -2
289
     1
 69
     0
  7
STANDARD
140
0.25
170
     5
 62
     0
 63
     7
283
     0
 90
      512
 91
        0
  1

274
    -2
284
     1
 64
     0
275
    -2
285
     1
 65
     0
276
    -2
286
     1
 66
     0
277
    -2
287
     1
 67
     0
278
    -2
288
     1
 68
     0
279
    -2
289
     1
 69
     0
  7
STANDARD
140
0.18
170
     5
 62
     0
 63
     7
283
     0
 90
      512
 91
        0
  1

274
    -2
284
     1
 64
     0
275
    -2
285
     1
 65
     0
276
    -2
286
     1
 66
     0
277
    -2
287
     1
 67
     0
278
    -2
288
     1
 68
     0
279
    -2
289
     1
 69
     0
  0
VISUALSTYLE
  5
1C3
102
{ACAD_XDICTIONARY
360
2D3
102
}
102
{ACAD_REACTORS
330
1BD
102
}
330
1BD
100
AcDbVisualStyle
  2
2dWireframe
 70
     4
177
     2
291
     0
 71
     0
176
     1
 72
     2
176
     1
 73
     0
176
     1
 90
        0
176
     1
 40
0.6
176
     1
 41
30.0
176
     1
 63
     7
421
 16777215
176
     1
 74
     1
176
     1
 91
        4
176
     1
 64
     7
176
     1
 65
   257
176
     1
 75
     1
176
     1
175
     1
176
     1
 42
1.0
176
     1
 92
        0
176
     1
 66
   257
176
     1
 43
1.0
176
     1
 76
     1
176
     1
 77
     6
176
     1
 78
     2
176
     1
 67
     7
176
     1
 79
     5
176
     1
170
     0
176
     1
171
     0
176
     1
290
     0
176
     1
 93
        1
176
     1
 44
0.0
176
     1
173
     0
176
     1
1001
ACAD
1000
AcDbSavedByObjectVersion
1070
     0
  0
VISUALSTYLE
  5
1C2
102
{ACAD_XDICTIONARY
360
2D1
102
}
102
{ACAD_REACTORS
330
1BD
102
}
330
1BD
100
AcDbVisualStyle
  2
Basic
 70
     7
177
     2
291
     1
 71
     1
176
     1
 72
     0
176
     1
 73
     1
176
     1
 90
        0
176
     1
 40
0.6
176
     1
 41
30.0
176
     1
 63
     7
421
 16777215
176
     1
 74
     0
176
     1
 91
        4
176
     1
 64
     7
176
     1
 65
   257
176
     1
 75
     1
176
     1
175
     1
176
     1
 42
1.0
176
     1
 92
        8
176
     1
 66
     7
176
     1
 43
1.0
176
     1
 76
     1
176
     1
 77
     6
176
     1
 78
     2
176
     1
 67
     7
176
     1
 79
     5
176
     1
170
     0
176
     1
171
     0
176
     1
290
     0
176
     1
 93
        1
176
     1
 44
0.0
176
     1
173
     0
176
     1
1001
ACAD
1000
AcDbSavedByObjectVersion
1070
     0
  0
VISUALSTYLE
  5
1C9
102
{ACAD_XDICTIONARY
360
2DF
102
}
102
{ACAD_REACTORS
330
1BD
102
}
330
1BD
100
AcDbVisualStyle
  2
Brighten
 70
    12
177
     2
291
     1
 71
     2
176
     1
 72
     2
176
     1
 73
     0
176
     1
 90
        0
176
     1
 40
0.6
176
     1
 41
30.0
176
     1
 63
     7
421
 16777215
176
     1
 74
     1
176
     1
 91
        4
176
     1
 64
     7
176
     1
 65
   257
176
     1
 75
     1
176
     1
175
     1
176
     1
 42
1.0
176
     1
 92
        8
176
     1
 66
     7
176
     1
 43
1.0
176
     1
 76
     1
176
     1
 77
     6
176
     1
 78
     2
176
     1
 67
     7
176
     1
 79
     5
176
     1
170
     0
176
     1
171
     0
176
     1
290
     0
176
     1
 93
        1
176
     1
 44
50.0
176
     1
173
     0
176
     1
1001
ACAD
1000
AcDbSavedByObjectVersion
1070
     0
  0
VISUALSTYLE
  5
1CD
102
{ACAD_XDICTIONARY
360
2E7
102
}
102
{ACAD_REACTORS
330
1BD
102
}
330
1BD
100
AcDbVisualStyle
  2
ColorChange
 70
    16
177
     2
291
     1
 71
     2
176
     1
 72
     2
176
     1
 73
     3
176
     1
 90
        0
176
     1
 40
0.6
176
     1
 41
30.0
176
     1
 63
     8
421
  8421504
176
     1
 74
     1
176
     1
 91
        4
176
     1
 64
     7
176
     1
 65
   257
176
     1
 75
     1
176
     1
175
     1
176
     1
 42
1.0
176
     1
 92
        8
176
     1
 66
     8
424
  8421504
176
     1
 43
1.0
176
     1
 76
     1
176
     1
 77
     6
176
     1
 78
     2
176
     1
 67
     7
176
     1
 79
     5
176
     1
170
     0
176
     1
171
     0
176
     1
290
     0
176
     1
 93
        1
176
     1
 44
0.0
176
     1
173
     0
176
     1
1001
ACAD
1000
AcDbSavedByObjectVersion
1070
     0
  0
VISUALSTYLE
  5
1C6
102
{ACAD_XDICTIONARY
360
2D9
102
}
102
{ACAD_REACTORS
330
1BD
102
}
330
1BD
100
AcDbVisualStyle
  2
Conceptual
 70
     9
177
     2
291
     0
 71
     3
176
     1
 72
     2
176
     1
 73
     0
176
     1
 90
        0
176
     1
 40
0.6
176
     1
 41
30.0
176
     1
 63
     7
421
 16777215
176
     1
 74
     2
176
     1
 91
        2
176
     1
 64
     7
176
     1
 65
   257
176
     1
 75
     1
176
     1
175
     1
176
     1
 42
179.0
176
     1
 92
        8
176
     1
 66
     7
176
     1
 43
1.0
176
     1
 76
     1
176
     1
 77
     6
176
     1
 78
     2
176
     1
 67
     7
176
     1
 79
     3
176
     1
170
     0
176
     1
171
     0
176
     1
290
     0
176
     1
 93
        1
176
     1
 44
0.0
176
     1
173
     0
176
     1
1001
ACAD
1000
AcDbSavedByObjectVersion
1070
     0
  0
VISUALSTYLE
  5
1C8
102
{ACAD_XDICTIONARY
360
2DD
102
}
102
{ACAD_REACTORS
330
1BD
102
}
330
1BD
100
AcDbVisualStyle
  2
Dim
 70
    11
177
     2
291
     1
 71
     2
176
     1
 72
     2
176
     1
 73
     0
176
     1
 90
        0
176
     1
 40
0.6
176
     1
 41
30.0
176
     1
 63
     7
421
 16777215
176
     1
 74
     1
176
     1
 91
        4
176
     1
 64
     7
176
     1
 65
   257
176
     1
 75
     1
176
     1
175
     1
176
     1
 42
1.0
176
     1
 92
        8
176
     1
 66
     7
176
     1
 43
1.0
176
     1
 76
     1
176
     1
 77
     6
176
     1
 78
     2
176
     1
 67
     7
176
     1
 79
     5
176
     1
170
     0
176
     1
171
     0
176
     1
290
     0
176
     1
 93
        1
176
     1
 44
-50.0
176
     1
173
     0
176
     1
1001
ACAD
1000
AcDbSavedByObjectVersion
1070
     0
  0
VISUALSTYLE
  5
1D5
102
{ACAD_XDICTIONARY
360
2F7
102
}
102
{ACAD_REACTORS
330
1BD
102
}
330
1BD
100
AcDbVisualStyle
  2
EdgeColorOff
 70
    22
177
     2
291
     1
 71
     2
176
     0
 72
     2
176
     0
 73
     0
176
     0
 90
        0
176
     0
 40
0.6
176
     0
 41
30.0
176
     0
 63
     7
421
 16777215
176
     0
 74
     1
176
     0
 91
        4
176
     0
 64
     7
176
     0
 65
   257
176
     0
 75
     1
176
     0
175
     1
176
     0
 42
1.0
176
     0
 92
        8
176
     2
 66
     7
176
     0
 43
1.0
176
     0
 76
     1
176
     0
 77
     6
176
     0
 78
     2
176
     0
 67
     7
176
     0
 79
     5
176
     0
170
     0
176
     0
171
     0
176
     0
290
     0
176
     0
 93
        1
176
     0
 44
0.0
176
     0
173
     0
176
     0
1001
ACAD
1000
AcDbSavedByObjectVersion
1070
     0
  0
VISUALSTYLE
  5
1CC
102
{ACAD_XDICTIONARY
360
2E5
102
}
102
{ACAD_REACTORS
330
1BD
102
}
330
1BD
100
AcDbVisualStyle
  2
Facepattern
 70
    15
177
     2
291
     1
 71
     2
176
     1
 72
     2
176
     1
 73
     0
176
     1
 90
        0
176
     1
 40
0.6
176
     1
 41
30.0
176
     1
 63
     7
421
 16777215
176
     1
 74
     1
176
     1
 91
        4
176
     1
 64
     7
176
     1
 65
   257
176
     1
 75
     1
176
     1
175
     1
176
     1
 42
1.0
176
     1
 92
        8
176
     1
 66
     7
176
     1
 43
1.0
176
     1
 76
     1
176
     1
 77
     6
176
     1
 78
     2
176
     1
 67
     7
176
     1
 79
     5
176
     1
170
     0
176
     1
171
     0
176
     1
290
     0
176
     1
 93
        1
176
     1
 44
0.0
176
     1
173
     0
176
     1
1001
ACAD
1000
AcDbSavedByObjectVersion
1070
     0
  0
VISUALSTYLE
  5
1BE
102
{ACAD_XDICTIONARY
360
2C9
102
}
102
{ACAD_REACTORS
330
1BD
102
}
330
1BD
100
AcDbVisualStyle
  2
Flat
 70
     0
177
     2
291
     1
 71
     2
176
     1
 72
     1
176
     1
 73
     1
176
     1
 90
        2
176
     1
 40
0.6
176
     1
 41
30.0
176
     1
 63
     7
421
 16777215
176
     1
 74
     0
176
     1
 91
        0
176
     1
 64
     7
176
     1
 65
   257
176
     1
 75
     1
176
     1
175
     1
176
     1
 42
1.0
176
     1
 92
        8
176
     1
 66
     7
176
     1
 43
1.0
176
     1
 76
     1
176
     1
 77
     6
176
     1
 78
     2
176
     1
 67
     7
176
     1
 79
     5
176
     1
170
     0
176
     1
171
     0
176
     1
290
     0
176
     1
 93
       13
176
     1
 44
0.0
176
     1
173
     0
176
     1
1001
ACAD
1000
AcDbSavedByObjectVersion
1070
     0
  0
VISUALSTYLE
  5
1BF
102
{ACAD_XDICTIONARY
360
2CB
102
}
102
{ACAD_REACTORS
330
1BD
102
}
330
1BD
100
AcDbVisualStyle
  2
FlatWithEdges
 70
     1
177
     2
291
     1
 71
     2
176
     1
 72
     1
176
     1
 73
     1
176
     1
 90
        2
176
     1
 40
0.6
176
     1
 41
30.0
176
     1
 63
     7
421
 16777215
176
     1
 74
     1
176
     1
 91
        0
176
     1
 64
     7
176
     1
 65
   257
176
     1
 75
     1
176
     1
175
     1
176
     1
 42
1.0
176
     1
 92
        0
176
     1
 66
   257
176
     1
 43
1.0
176
     1
 76
     1
176
     1
 77
     6
176
     1
 78
     2
176
     1
 67
     7
176
     1
 79
     5
176
     1
170
     0
176
     1
171
     0
176
     1
290
     0
176
     1
 93
       13
176
     1
 44
0.0
176
     1
173
     0
176
     1
1001
ACAD
1000
AcDbSavedByObjectVersion
1070
     0
  0
VISUALSTYLE
  5
1C0
102
{ACAD_XDICTIONARY
360
2CD
102
}
102
{ACAD_REACTORS
330
1BD
102
}
330
1BD
100
AcDbVisualStyle
  2
Gouraud
 70
     2
177
     2
291
     1
 71
     2
176
     1
 72
     2
176
     1
 73
     1
176
     1
 90
        2
176
     1
 40
0.6
176
     1
 41
30.0
176
     1
 63
     7
421
 16777215
176
     1
 74
     0
176
     1
 91
        0
176
     1
 64
     7
176
     1
 65
   257
176
     1
 75
     1
176
     1
175
     1
176
     1
 42
1.0
176
     1
 92
        0
176
     1
 66
     7
176
     1
 43
1.0
176
     1
 76
     1
176
     1
 77
     6
176
     1
 78
     2
176
     1
 67
     7
176
     1
 79
     5
176
     1
170
     0
176
     1
171
     0
176
     1
290
     0
176
     1
 93
       13
176
     1
 44
0.0
176
     1
173
     0
176
     1
1001
ACAD
1000
AcDbSavedByObjectVersion
1070
     0
  0
VISUALSTYLE
  5
1C1
102
{ACAD_XDICTIONARY
360
2CF
102
}
102
{ACAD_REACTORS
330
1BD
102
}
330
1BD
100
AcDbVisualStyle
  2
GouraudWithEdges
 70
     3
177
     2
291
     1
 71
     2
176
     1
 72
     2
176
     1
 73
     1
176
     1
 90
        2
176
     1
 40
0.6
176
     1
 41
30.0
176
     1
 63
     7
421
 16777215
176
     1
 74
     1
176
     1
 91
        0
176
     1
 64
     7
176
     1
 65
   257
176
     1
 75
     1
176
     1
175
     1
176
     1
 42
1.0
176
     1
 92
        0
176
     1
 66
   257
176
     1
 43
1.0
176
     1
 76
     1
176
     1
 77
     6
176
     1
 78
     2
176
     1
 67
     7
176
     1
 79
     5
176
     1
170
     0
176
     1
171
     0
176
     1
290
     0
176
     1
 93
       13
176
     1
 44
0.0
176
     1
173
     0
176
     1
1001
ACAD
1000
AcDbSavedByObjectVersion
1070
     0
  0
VISUALSTYLE
  5
1C5
102
{ACAD_XDICTIONARY
360
2D7
102
}
102
{ACAD_REACTORS
330
1BD
102
}
330
1BD
100
AcDbVisualStyle
  2
Hidden
 70
     6
177
     2
291
     0
 71
     1
176
     1
 72
     2
176
     1
 73
     2
176
     1
 90
        0
176
     1
 40
0.6
176
     1
 41
30.0
176
     1
 63
     7
421
 16777215
176
     1
 74
     2
176
     1
 91
        2
176
     1
 64
     7
176
     1
 65
   257
176
     1
 75
     2
176
     1
175
     1
176
     1
 42
40.0
176
     1
 92
        0
176
     1
 66
   257
176
     1
 43
1.0
176
     1
 76
     1
176
     1
 77
     6
176
     1
 78
     2
176
     1
 67
     7
176
     1
 79
     3
176
     1
170
     0
176
     1
171
     0
176
     1
290
     0
176
     1
 93
        1
176
     1
 44
0.0
176
     1
173
     0
176
     1
1001
ACAD
1000
AcDbSavedByObjectVersion
1070
     0
  0
VISUALSTYLE
  5
1D3
102
{ACAD_XDICTIONARY
360
2F3
102
}
102
{ACAD_REACTORS
330
1BD
102
}
330
1BD
100
AcDbVisualStyle
  2
JitterOff
 70
    20
177
     2
291
     1
 71
     2
176
     0
 72
     2
176
     0
 73
     0
176
     0
 90
        0
176
     0
 40
0.6
176
     0
 41
30.0
176
     0
 63
     7
421
 16777215
176
     0
 74
     1
176
     0
 91
        4
176
     0
 64
     7
176
     0
 65
   257
176
     0
 75
     1
176
     0
175
     1
176
     0
 42
1.0
176
     0
 92
       10
176
     2
 66
     7
176
     0
 43
1.0
176
     0
 76
     1
176
     0
 77
     6
176
     0
 78
     2
176
     0
 67
     7
176
     0
 79
     5
176
     0
170
     0
176
     0
171
     0
176
     0
290
     0
176
     0
 93
        1
176
     0
 44
0.0
176
     0
173
     0
176
     0
1001
ACAD
1000
AcDbSavedByObjectVersion
1070
     0
  0
VISUALSTYLE
  5
1CB
102
{ACAD_XDICTIONARY
360
2E3
102
}
102
{ACAD_REACTORS
330
1BD
102
}
330
1BD
100
AcDbVisualStyle
  2
Linepattern
 70
    14
177
     2
291
     1
 71
     2
176
     1
 72
     2
176
     1
 73
     0
176
     1
 90
        0
176
     1
 40
0.6
176
     1
 41
30.0
176
     1
 63
     7
421
 16777215
176
     1
 74
     1
176
     1
 91
        4
176
     1
 64
     7
176
     1
 65
   257
176
     1
 75
     7
176
     1
175
     7
176
     1
 42
1.0
176
     1
 92
        8
176
     1
 66
     7
176
     1
 43
1.0
176
     1
 76
     1
176
     1
 77
     6
176
     1
 78
     2
176
     1
 67
     7
176
     1
 79
     5
176
     1
170
     0
176
     1
171
     0
176
     1
290
     0
176
     1
 93
        1
176
     1
 44
0.0
176
     1
173
     0
176
     1
1001
ACAD
1000
AcDbSavedByObjectVersion
1070
     0
  0
VISUALSTYLE
  5
1D4
102
{ACAD_XDICTIONARY
360
2F5
102
}
102
{ACAD_REACTORS
330
1BD
102
}
330
1BD
100
AcDbVisualStyle
  2
OverhangOff
 70
    21
177
     2
291
     1
 71
     2
176
     0
 72
     2
176
     0
 73
     0
176
     0
 90
        0
176
     0
 40
0.6
176
     0
 41
30.0
176
     0
 63
     7
421
 16777215
176
     0
 74
     1
176
     0
 91
        4
176
     0
 64
     7
176
     0
 65
   257
176
     0
 75
     1
176
     0
175
     1
176
     0
 42
1.0
176
     0
 92
        9
176
     2
 66
     7
176
     0
 43
1.0
176
     0
 76
     1
176
     0
 77
     6
176
     0
 78
     2
176
     0
 67
     7
176
     0
 79
     5
176
     0
170
     0
176
     0
171
     0
176
     0
290
     0
176
     0
 93
        1
176
     0
 44
0.0
176
     0
173
     0
176
     0
1001
ACAD
1000
AcDbSavedByObjectVersion
1070
     0
  0
VISUALSTYLE
  5
1C7
102
{ACAD_XDICTIONARY
360
2DB
102
}
102
{ACAD_REACTORS
330
1BD
102
}
330
1BD
100
AcDbVisualStyle
  2
Realistic
 70
     8
177
     2
291
     0
 71
     2
176
     1
 72
     3
176
     1
 73
     0
176
     1
 90
        2
176
     1
 40
0.6
176
     1
 41
30.0
176
     1
 63
     7
421
 16777215
176
     1
 74
     0
176
     1
 91
        0
176
     1
 64
     7
176
     1
 65
   257
176
     1
 75
     1
176
     1
175
     1
176
     1
 42
1.0
176
     1
 92
        8
176
     1
 66
   257
176
     1
 43
1.0
176
     1
 76
     1
176
     1
 77
     6
176
     1
 78
     2
176
     1
 67
     7
176
     1
 79
     3
176
     1
170
     0
176
     1
171
     0
176
     1
290
     0
176
     1
 93
       13
176
     1
 44
0.0
176
     1
173
     0
176
     1
1001
ACAD
1000
AcDbSavedByObjectVersion
1070
     0
  0
VISUALSTYLE
  5
1D2
102
{ACAD_XDICTIONARY
360
2F1
102
}
102
{ACAD_REACTORS
330
1BD
102
}
330
1BD
100
AcDbVisualStyle
  2
Shaded
 70
    27
177
     2
291
     0
 71
     2
176
     1
 72
     2
176
     1
 73
     1
176
     1
 90
        2
176
     1
 40
0.6
176
     1
 41
30.0
176
     1
 63
     7
421
 16777215
176
     1
 74
     0
176
     1
 91
        4
176
     1
 64
     7
176
     1
 65
   257
176
     1
 75
     1
176
     1
175
     1
176
     1
 42
1.0
176
     1
 92
        8
176
     1
 66
   257
176
     1
 43
1.0
176
     1
 76
     1
176
     1
 77
     6
176
     1
 78
     2
176
     1
 67
     8
425
  7895160
176
     1
 79
     3
176
     1
170
     0
176
     1
171
     0
176
     1
290
     0
176
     1
 93
        5
176
     1
 44
0.0
176
     1
173
     0
176
     1
1001
ACAD
1000
AcDbSavedByObjectVersion
1070
     0
  0
VISUALSTYLE
  5
1D1
102
{ACAD_XDICTIONARY
360
2EF
102
}
102
{ACAD_REACTORS
330
1BD
102
}
330
1BD
100
AcDbVisualStyle
  2
Shaded with edges
 70
    26
177
     2
291
     0
 71
     2
176
     1
 72
     2
176
     1
 73
     1
176
     1
 90
        2
176
     1
 40
0.6
176
     1
 41
30.0
176
     1
 63
     7
421
 16777215
176
     1
 74
     1
176
     1
 91
       10
176
     1
 64
     7
176
     1
 65
   257
176
     1
 75
     2
176
     1
175
     1
176
     1
 42
1.0
176
     1
 92
        8
176
     1
 66
   257
176
     1
 43
1.0
176
     1
 76
     1
176
     1
 77
     6
176
     1
 78
     2
176
     1
 67
     7
176
     1
 79
     3
176
     1
170
     0
176
     1
171
     0
176
     1
290
     0
176
     1
 93
        5
176
     1
 44
0.0
176
     1
173
     0
176
     1
1001
ACAD
1000
AcDbSavedByObjectVersion
1070
     0
  0
VISUALSTYLE
  5
1CE
102
{ACAD_XDICTIONARY
360
2E9
102
}
102
{ACAD_REACTORS
330
1BD
102
}
330
1BD
100
AcDbVisualStyle
  2
Shades of Gray
 70
    23
177
     2
291
     0
 71
     2
176
     1
 72
     2
176
     1
 73
     3
176
     1
 90
        0
176
     1
 40
0.6
176
     1
 41
30.0
176
     1
 63
     7
421
 16777215
176
     1
 74
     2
176
     1
 91
        2
176
     1
 64
     7
176
     1
 65
     7
176
     1
 75
     1
176
     1
175
     1
176
     1
 42
40.0
176
     1
 92
        8
176
     1
 66
     7
176
     1
 43
1.0
176
     1
 76
     1
176
     1
 77
     6
176
     1
 78
     2
176
     1
 67
     7
176
     1
 79
     3
176
     1
170
     0
176
     1
171
     0
176
     1
290
     0
176
     1
 93
        1
176
     1
 44
0.0
176
     1
173
     0
176
     1
1001
ACAD
1000
AcDbSavedByObjectVersion
1070
     0
  0
VISUALSTYLE
  5
1CF
102
{ACAD_XDICTIONARY
360
2EB
102
}
102
{ACAD_REACTORS
330
1BD
102
}
330
1BD
100
AcDbVisualStyle
  2
Sketchy
 70
    24
177
     2
291
     0
 71
     1
176
     1
 72
     2
176
     1
 73
     2
176
     1
 90
        0
176
     1
 40
0.6
176
     1
 41
30.0
176
     1
 63
     7
421
 16777215
176
     1
 74
     2
176
     1
 91
        2
176
     1
 64
     7
176
     1
 65
     7
176
     1
 75
     1
176
     1
175
     1
176
     1
 42
40.0
176
     1
 92
       11
176
     1
 66
     7
176
     1
 43
1.0
176
     1
 76
     1
176
     1
 77
     6
176
     1
 78
     2
176
     1
 67
     7
176
     1
 79
     6
176
     1
170
     0
176
     1
171
     0
176
     1
290
     0
176
     1
 93
        1
176
     1
 44
0.0
176
     1
173
     0
176
     1
1001
ACAD
1000
AcDbSavedByObjectVersion
1070
     0
  0
VISUALSTYLE
  5
1CA
102
{ACAD_XDICTIONARY
360
2E1
102
}
102
{ACAD_REACTORS
330
1BD
102
}
330
1BD
100
AcDbVisualStyle
  2
Thicken
 70
    13
177
     2
291
     1
 71
     2
176
     1
 72
     2
176
     1
 73
     0
176
     1
 90
        0
176
     1
 40
0.6
176
     1
 41
30.0
176
     1
 63
     7
421
 16777215
176
     1
 74
     1
176
     1
 91
        4
176
     1
 64
     7
176
     1
 65
   257
176
     1
 75
     1
176
     1
175
     1
176
     1
 42
1.0
176
     1
 92
       12
176
     1
 66
     7
176
     1
 43
1.0
176
     1
 76
     1
176
     1
 77
     6
176
     1
 78
     2
176
     1
 67
     7
176
     1
 79
     5
176
     1
170
     0
176
     1
171
     0
176
     1
290
     0
176
     1
 93
        1
176
     1
 44
0.0
176
     1
173
     0
176
     1
1001
ACAD
1000
AcDbSavedByObjectVersion
1070
     0
  0
VISUALSTYLE
  5
1C4
102
{ACAD_XDICTIONARY
360
2D5
102
}
102
{ACAD_REACTORS
330
1BD
102
}
330
1BD
100
AcDbVisualStyle
  2
Wireframe
 70
     5
177
     2
291
     0
 71
     0
176
     1
 72
     2
176
     1
 73
     0
176
     1
 90
        0
176
     1
 40
0.6
176
     1
 41
30.0
176
     1
 63
     7
421
 16777215
176
     1
 74
     1
176
     1
 91
        4
176
     1
 64
     7
176
     1
 65
   257
176
     1
 75
     1
176
     1
175
     1
176
     1
 42
1.0
176
     1
 92
        0
176
     1
 66
   257
176
     1
 43
1.0
176
     1
 76
     1
176
     1
 77
     6
176
     1
 78
     2
176
     1
 67
     7
176
     1
 79
     3
176
     1
170
     0
176
     1
171
     0
176
     1
290
     0
176
     1
 93
        1
176
     1
 44
0.0
176
     1
173
     0
176
     1
1001
ACAD
1000
AcDbSavedByObjectVersion
1070
     0
  0
VISUALSTYLE
  5
1D0
102
{ACAD_XDICTIONARY
360
2ED
102
}
102
{ACAD_REACTORS
330
1BD
102
}
330
1BD
100
AcDbVisualStyle
  2
X-Ray
 70
    25
177
     2
291
     0
 71
     2
176
     1
 72
     2
176
     1
 73
     1
176
     1
 90
        1
176
     1
 40
0.5
176
     1
 41
30.0
176
     1
 63
     7
421
 16777215
176
     1
 74
     1
176
     1
 91
        0
176
     1
 64
     7
176
     1
 65
   257
176
     1
 75
     1
176
     1
175
     1
176
     1
 42
1.0
176
     1
 92
        8
176
     1
 66
     7
176
     1
 43
1.0
176
     1
 76
     1
176
     1
 77
     6
176
     1
 78
     2
176
     1
 67
     7
176
     1
 79
     3
176
     1
170
     0
176
     1
171
     0
176
     1
290
     0
176
     1
 93
       13
176
     1
 44
0.0
176
     1
173
     0
176
     1
1001
ACAD
1000
AcDbSavedByObjectVersion
1070
     0
  0
DICTIONARYVAR
  5
20D
102
{ACAD_REACTORS
330
207
102
}
330
207
100
DictionaryVariables
280
     0
  1
1:1
  0
DICTIONARYVAR
  5
209
102
{ACAD_REACTORS
330
207
102
}
330
207
100
DictionaryVariables
280
     0
  1
STANDARD
  0
DICTIONARYVAR
  5
208
102
{ACAD_REACTORS
330
207
102
}
330
207
100
DictionaryVariables
280
     0
  1
STANDARD
  0
DICTIONARYVAR
  5
20A
102
{ACAD_REACTORS
330
207
102
}
330
207
100
DictionaryVariables
280
     0
  1
Imperial24
  0
DICTIONARYVAR
  5
20B
102
{ACAD_REACTORS
330
207
102
}
330
207
100
DictionaryVariables
280
     0
  1
Imperial24
  0
DICTIONARYVAR
  5
20F
102
{ACAD_REACTORS
330
207
102
}
330
207
100
DictionaryVariables
280
     0
  1
1
  0
DICTIONARYVAR
  5
210
102
{ACAD_REACTORS
330
207
102
}
330
207
100
DictionaryVariables
280
     0
  1
15
  0
DICTIONARYVAR
  5
20E
102
{ACAD_REACTORS
330
207
102
}
330
207
100
DictionaryVariables
280
     0
  1
0
  0
DICTIONARYVAR
  5
20C
102
{ACAD_REACTORS
330
207
102
}
330
207
100
DictionaryVariables
280
     0
  1
0
  0
DICTIONARY
  5
2C8
102
{ACAD_REACTORS
330
2C6
102
}
330
2C6
100
AcDbDictionary
281
     1
  0
DICTIONARY
  5
2C7
102
{ACAD_REACTORS
330
2C6
102
}
330
2C6
100
AcDbDictionary
281
     1
  3
8796087109264
350
2C1
  3
8796087109280
350
2C2
  3
8796087109296
350
2C3
  3
8796087109312
350
2C4
  3
8796087109328
350
2C5
  0
DICTIONARY
  5
2FD
330
1F1
100
AcDbDictionary
280
     1
281
     1
  3
ACAD_XREC_ROUNDTRIP
360
2FE
  0
DICTIONARY
  5
301
330
2A1
100
AcDbDictionary
280
     1
281
     1
  3
ACAD_XREC_ROUNDTRIP
360
302
  0
DICTIONARY
  5
1AE
330
1AD
100
AcDbDictionary
280
     1
281
     1
  3
BUMPTILE
360
1B0
  3
DIFFUSETILE
360
1AF
  3
OPACITYTILE
360
1B3
  3
REFLECTIONTILE
360
1B2
  3
REFRACTIONTILE
360
1B4
  3
SPECULARTILE
360
1B1
  0
DICTIONARY
  5
1A6
330
1A5
100
AcDbDictionary
280
     1
281
     1
  3
BUMPTILE
360
1A8
  3
DIFFUSETILE
360
1A7
  3
OPACITYTILE
360
1AB
  3
REFLECTIONTILE
360
1AA
  3
REFRACTIONTILE
360
1AC
  3
SPECULARTILE
360
1A9
  0
DICTIONARY
  5
1B6
330
1B5
100
AcDbDictionary
280
     1
281
     1
  3
BUMPTILE
360
1B8
  3
DIFFUSETILE
360
1B7
  3
OPACITYTILE
360
1BB
  3
REFLECTIONTILE
360
1BA
  3
REFRACTIONTILE
360
1BC
  3
SPECULARTILE
360
1B9
  0
DICTIONARY
  5
2F9
330
1EC
100
AcDbDictionary
280
     1
281
     1
  3
ACAD_XREC_ROUNDTRIP
360
2FA
  0
DICTIONARY
  5
2FB
330
1EF
100
AcDbDictionary
280
     1
281
     1
  3
ACAD_XREC_ROUNDTRIP
360
2FC
  0
DICTIONARY
  5
2FF
330
2A0
100
AcDbDictionary
280
     1
281
     1
  3
ACAD_XREC_ROUNDTRIP
360
300
  0
DICTIONARY
  5
2BE
330
1D8
100
AcDbDictionary
280
     1
281
     1
  3
ACAD_ROUNDTRIP_2008_TABLESTYLE_CELLSTYLEMAP
360
2BF
  0
DICTIONARY
  5
2D3
330
1C3
100
AcDbDictionary
280
     1
281
     1
  3
ACAD_XREC_ROUNDTRIP
360
2D4
  0
DICTIONARY
  5
2D1
330
1C2
100
AcDbDictionary
280
     1
281
     1
  3
ACAD_XREC_ROUNDTRIP
360
2D2
  0
DICTIONARY
  5
2DF
330
1C9
100
AcDbDictionary
280
     1
281
     1
  3
ACAD_XREC_ROUNDTRIP
360
2E0
  0
DICTIONARY
  5
2E7
330
1CD
100
AcDbDictionary
280
     1
281
     1
  3
ACAD_XREC_ROUNDTRIP
360
2E8
  0
DICTIONARY
  5
2D9
330
1C6
100
AcDbDictionary
280
     1
281
     1
  3
ACAD_XREC_ROUNDTRIP
360
2DA
  0
DICTIONARY
  5
2DD
330
1C8
100
AcDbDictionary
280
     1
281
     1
  3
ACAD_XREC_ROUNDTRIP
360
2DE
  0
DICTIONARY
  5
2F7
330
1D5
100
AcDbDictionary
280
     1
281
     1
  3
ACAD_XREC_ROUNDTRIP
360
2F8
  0
DICTIONARY
  5
2E5
330
1CC
100
AcDbDictionary
280
     1
281
     1
  3
ACAD_XREC_ROUNDTRIP
360
2E6
  0
DICTIONARY
  5
2C9
330
1BE
100
AcDbDictionary
280
     1
281
     1
  3
ACAD_XREC_ROUNDTRIP
360
2CA
  0
DICTIONARY
  5
2CB
330
1BF
100
AcDbDictionary
280
     1
281
     1
  3
ACAD_XREC_ROUNDTRIP
360
2CC
  0
DICTIONARY
  5
2CD
330
1C0
100
AcDbDictionary
280
     1
281
     1
  3
ACAD_XREC_ROUNDTRIP
360
2CE
  0
DICTIONARY
  5
2CF
330
1C1
100
AcDbDictionary
280
     1
281
     1
  3
ACAD_XREC_ROUNDTRIP
360
2D0
  0
DICTIONARY
  5
2D7
330
1C5
100
AcDbDictionary
280
     1
281
     1
  3
ACAD_XREC_ROUNDTRIP
360
2D8
  0
DICTIONARY
  5
2F3
330
1D3
100
AcDbDictionary
280
     1
281
     1
  3
ACAD_XREC_ROUNDTRIP
360
2F4
  0
DICTIONARY
  5
2E3
330
1CB
100
AcDbDictionary
280
     1
281
     1
  3
ACAD_XREC_ROUNDTRIP
360
2E4
  0
DICTIONARY
  5
2F5
330
1D4
100
AcDbDictionary
280
     1
281
     1
  3
ACAD_XREC_ROUNDTRIP
360
2F6
  0
DICTIONARY
  5
2DB
330
1C7
100
AcDbDictionary
280
     1
281
     1
  3
ACAD_XREC_ROUNDTRIP
360
2DC
  0
DICTIONARY
  5
2F1
330
1D2
100
AcDbDictionary
280
     1
281
     1
  3
ACAD_XREC_ROUNDTRIP
360
2F2
  0
DICTIONARY
  5
2EF
330
1D1
100
AcDbDictionary
280
     1
281
     1
  3
ACAD_XREC_ROUNDTRIP
360
2F0
  0
DICTIONARY
  5
2E9
330
1CE
100
AcDbDictionary
280
     1
281
     1
  3
ACAD_XREC_ROUNDTRIP
360
2EA
  0
DICTIONARY
  5
2EB
330
1CF
100
AcDbDictionary
280
     1
281
     1
  3
ACAD_XREC_ROUNDTRIP
360
2EC
  0
DICTIONARY
  5
2E1
330
1CA
100
AcDbDictionary
280
     1
281
     1
  3
ACAD_XREC_ROUNDTRIP
360
2E2
  0
DICTIONARY
  5
2D5
330
1C4
100
AcDbDictionary
280
     1
281
     1
  3
ACAD_XREC_ROUNDTRIP
360
2D6
  0
DICTIONARY
  5
2ED
330
1D0
100
AcDbDictionary
280
     1
281
     1
  3
ACAD_XREC_ROUNDTRIP
360
2EE
  0
XRECORD
  5
2C1
102
{ACAD_REACTORS
330
2C7
102
}
330
2C7
100
AcDbXrecord
280
     1
  1
AcDb_Thumbnail_Schema
102
{ATTRRECORD
341
2C2
  2
AcDbDs::TreatedAsObjectData
280
     1
291
     1
102
ATTRRECORD}
102
{ATTRRECORD
341
2C3
  2
AcDbDs::Legacy
280
     1
291
     1
102
ATTRRECORD}
  2
AcDbDs::ID
280
    10
 91
        8
102
{ATTRRECORD
341
2C4
  2
AcDs:Indexable
280
     1
291
     1
102
ATTRRECORD}
102
{ATTRRECORD
341
2C5
  2
AcDbDs::HandleAttribute
280
     7
282
     1
102
ATTRRECORD}
  2
Thumbnail_Data
280
    15
 91
        0
  0
XRECORD
  5
2C2
102
{ACAD_REACTORS
330
2C7
102
}
330
2C7
100
AcDbXrecord
280
     1
  1
AcDbDs::TreatedAsObjectDataSchema
  2
AcDbDs::TreatedAsObjectData
280
     1
 91
        0
  0
XRECORD
  5
2C3
102
{ACAD_REACTORS
330
2C7
102
}
330
2C7
100
AcDbXrecord
280
     1
  1
AcDbDs::LegacySchema
  2
AcDbDs::Legacy
280
     1
 91
        0
  0
XRECORD
  5
2C4
102
{ACAD_REACTORS
330
2C7
102
}
330
2C7
100
AcDbXrecord
280
     1
  1
AcDbDs::IndexedPropertySchema
  2
AcDs:Indexable
280
     1
 91
        0
  0
XRECORD
  5
2C5
102
{ACAD_REACTORS
330
2C7
102
}
330
2C7
100
AcDbXrecord
280
     1
  1
AcDbDs::HandleAttributeSchema
  2
AcDbDs::HandleAttribute
280
     7
 91
        1
284
     1
  0
XRECORD
  5
2FE
102
{ACAD_REACTORS
330
2FD
102
}
330
2FD
100
AcDbXrecord
280
     1
102
DISPLAYNAME
  1
Imperial24
102
FLAGS
 90
        0
  0
XRECORD
  5
302
102
{ACAD_REACTORS
330
301
102
}
330
301
100
AcDbXrecord
280
     1
102
DISPLAYNAME
  1
Metric50
102
FLAGS
 90
        0
  0
XRECORD
  5
1B0
102
{ACAD_REACTORS
330
1AE
102
}
330
1AE
100
AcDbXrecord
280
     1
270
     1
271
     1
  0
XRECORD
  5
1AF
102
{ACAD_REACTORS
330
1AE
102
}
330
1AE
100
AcDbXrecord
280
     1
270
     1
271
     1
  0
XRECORD
  5
1B3
102
{ACAD_REACTORS
330
1AE
102
}
330
1AE
100
AcDbXrecord
280
     1
270
     1
271
     1
  0
XRECORD
  5
1B2
102
{ACAD_REACTORS
330
1AE
102
}
330
1AE
100
AcDbXrecord
280
     1
270
     1
271
     1
  0
XRECORD
  5
1B4
102
{ACAD_REACTORS
330
1AE
102
}
330
1AE
100
AcDbXrecord
280
     1
270
     1
271
     1
  0
XRECORD
  5
1B1
102
{ACAD_REACTORS
330
1AE
102
}
330
1AE
100
AcDbXrecord
280
     1
270
     1
271
     1
  0
XRECORD
  5
1A8
102
{ACAD_REACTORS
330
1A6
102
}
330
1A6
100
AcDbXrecord
280
     1
270
     1
271
     1
  0
XRECORD
  5
1A7
102
{ACAD_REACTORS
330
1A6
102
}
330
1A6
100
AcDbXrecord
280
     1
270
     1
271
     1
  0
XRECORD
  5
1AB
102
{ACAD_REACTORS
330
1A6
102
}
330
1A6
100
AcDbXrecord
280
     1
270
     1
271
     1
  0
XRECORD
  5
1AA
102
{ACAD_REACTORS
330
1A6
102
}
330
1A6
100
AcDbXrecord
280
     1
270
     1
271
     1
  0
XRECORD
  5
1AC
102
{ACAD_REACTORS
330
1A6
102
}
330
1A6
100
AcDbXrecord
280
     1
270
     1
271
     1
  0
XRECORD
  5
1A9
102
{ACAD_REACTORS
330
1A6
102
}
330
1A6
100
AcDbXrecord
280
     1
270
     1
271
     1
  0
XRECORD
  5
1B8
102
{ACAD_REACTORS
330
1B6
102
}
330
1B6
100
AcDbXrecord
280
     1
270
     1
271
     1
  0
XRECORD
  5
1B7
102
{ACAD_REACTORS
330
1B6
102
}
330
1B6
100
AcDbXrecord
280
     1
270
     1
271
     1
  0
XRECORD
  5
1BB
102
{ACAD_REACTORS
330
1B6
102
}
330
1B6
100
AcDbXrecord
280
     1
270
     1
271
     1
  0
XRECORD
  5
1BA
102
{ACAD_REACTORS
330
1B6
102
}
330
1B6
100
AcDbXrecord
280
     1
270
     1
271
     1
  0
XRECORD
  5
1BC
102
{ACAD_REACTORS
330
1B6
102
}
330
1B6
100
AcDbXrecord
280
     1
270
     1
271
     1
  0
XRECORD
  5
1B9
102
{ACAD_REACTORS
330
1B6
102
}
330
1B6
100
AcDbXrecord
280
     1
270
     1
271
     1
  0
XRECORD
  5
2FA
102
{ACAD_REACTORS
330
2F9
102
}
330
2F9
100
AcDbXrecord
280
     1
102
ACAD_ROUNDTRIP_2012_MLEADER_STYLE
298
     1
  0
XRECORD
  5
2FC
102
{ACAD_REACTORS
330
2FB
102
}
330
2FB
100
AcDbXrecord
280
     1
102
DISPLAYNAME
  1
Imperial24
102
FLAGS
 90
        0
  0
XRECORD
  5
300
102
{ACAD_REACTORS
330
2FF
102
}
330
2FF
100
AcDbXrecord
280
     1
102
DISPLAYNAME
  1
Metric50
102
FLAGS
 90
        0
  0
CELLSTYLEMAP
  5
2BF
102
{ACAD_REACTORS
330
2BE
102
}
330
2BE
100
AcDbCellStyleMap
 90
        3
300
CELLSTYLE
  1
TABLEFORMAT_BEGIN
 90
        5
170
     1
 91
        0
 92
    32768
 62
   257
 93
        1
300
CONTENTFORMAT
  1
CONTENTFORMAT_BEGIN
 90
        0
 91
        0
 92
      512
 93
        0
300

 40
0.0
140
1.0
 94
        5
 62
     0
340
17
144
0.25
309
CONTENTFORMAT_END
171
     0
 94
        0
309
TABLEFORMAT_END
  1
CELLSTYLE_BEGIN
 90
        1
 91
        1
300
_TITLE
309
CELLSTYLE_END
300
CELLSTYLE
  1
TABLEFORMAT_BEGIN
 90
        5
170
     1
 91
        0
 92
        0
 62
   257
 93
        1
300
CONTENTFORMAT
  1
CONTENTFORMAT_BEGIN
 90
        0
 91
        0
 92
      512
 93
        0
300

 40
0.0
140
1.0
 94
        5
 62
     0
340
17
144
0.18
309
CONTENTFORMAT_END
171
     0
 94
        0
309
TABLEFORMAT_END
  1
CELLSTYLE_BEGIN
 90
        2
 91
        1
300
_HEADER
309
CELLSTYLE_END
300
CELLSTYLE
  1
TABLEFORMAT_BEGIN
 90
        5
170
     1
 91
        0
 92
        0
 62
   257
 93
        1
300
CONTENTFORMAT
  1
CONTENTFORMAT_BEGIN
 90
        0
 91
        0
 92
      512
 93
        0
300

 40
0.0
140
1.0
 94
        2
 62
     0
340
17
144
0.18
309
CONTENTFORMAT_END
171
     0
 94
        0
309
TABLEFORMAT_END
  1
CELLSTYLE_BEGIN
 90
        3
 91
        2
300
_DATA
309
CELLSTYLE_END
  0
XRECORD
  5
2D4
102
{ACAD_REACTORS
330
2D3
102
}
330
2D3
100
AcDbXrecord
280
     1
102
RTVSPost2010Prop28
280
     1
102
RTVSPost2010PropOp28
 70
     1
102
RTVSPost2010Prop29
280
     1
102
RTVSPost2010PropOp29
 70
     1
102
RTVSPost2010Prop30
280
     0
102
RTVSPost2010PropOp30
 70
     1
102
RTVSPost2010Prop31
280
     0
102
RTVSPost2010PropOp31
 70
     1
102
RTVSPost2010Prop32
280
     0
102
RTVSPost2010PropOp32
 70
     1
102
RTVSPost2010Prop33
280
     0
102
RTVSPost2010PropOp33
 70
     1
102
RTVSPost2010Prop34
280
     0
102
RTVSPost2010PropOp34
 70
     1
102
RTVSPost2010Prop35
280
     0
102
RTVSPost2010PropOp35
 70
     1
102
RTVSPost2010Prop36
280
     0
102
RTVSPost2010PropOp36
 70
     1
102
RTVSPost2010Prop37
 90
       50
102
RTVSPost2010PropOp37
 70
     1
102
RTVSPost2010Prop38
140
0.0
102
RTVSPost2010PropOp38
 70
     1
102
RTVSPost2010Prop39
140
1.0
102
RTVSPost2010PropOp39
 70
     1
102
RTVSPost2010Prop40
 90
        0
102
RTVSPost2010PropOp40
 70
     1
102
RTVSPost2010Prop41ColorIndex
 90
       18
102
RTVSPost2010Prop41ColorRGB
 90
        0
102
RTVSPost2010PropOp41
 70
     1
102
RTVSPost2010Prop42
 90
       50
102
RTVSPost2010PropOp42
 70
     1
102
RTVSPost2010Prop43
 90
        3
102
RTVSPost2010PropOp43
 70
     1
102
RTVSPost2010Prop44ColorIndex
 90
        5
102
RTVSPost2010Prop44ColorRGB
 90
      255
102
RTVSPost2010PropOp44
 70
     1
102
RTVSPost2010Prop45
280
     0
102
RTVSPost2010PropOp45
 70
     1
102
RTVSPost2010Prop46
 90
       50
102
RTVSPost2010PropOp46
 70
     1
102
RTVSPost2010Prop47
 90
       50
102
RTVSPost2010PropOp47
 70
     1
102
RTVSPost2010Prop48
 90
       50
102
RTVSPost2010PropOp48
 70
     1
102
RTVSPost2010Prop49
280
     0
102
RTVSPost2010PropOp49
 70
     1
102
RTVSPost2010Prop50
 90
       50
102
RTVSPost2010PropOp50
 70
     1
102
RTVSPost2010Prop51ColorIndex
 90
      256
102
RTVSPost2010Prop51ColorRGB
 90
-16777216
102
RTVSPost2010PropOp51
 70
     0
102
RTVSPost2010Prop52
140
1.0
102
RTVSPost2010PropOp52
 70
     0
102
RTVSPost2010Prop53
 90
        2
102
RTVSPost2010PropOp53
 70
     1
102
RTVSPost2010Prop54
  1
strokes_ogs.tif
102
RTVSPost2010PropOp54
 70
     1
102
RTVSPost2010Prop55
280
     0
102
RTVSPost2010PropOp55
 70
     1
102
RTVSPost2010Prop56
140
1.0
102
RTVSPost2010PropOp56
 70
     1
102
RTVSPost2010Prop57
140
1.0
102
RTVSPost2010PropOp57
 70
     1
  0
XRECORD
  5
2D2
102
{ACAD_REACTORS
330
2D1
102
}
330
2D1
100
AcDbXrecord
280
     1
102
RTVSPost2010Prop28
280
     0
102
RTVSPost2010PropOp28
 70
     1
102
RTVSPost2010Prop29
280
     1
102
RTVSPost2010PropOp29
 70
     1
102
RTVSPost2010Prop30
280
     1
102
RTVSPost2010PropOp30
 70
     1
102
RTVSPost2010Prop31
280
     0
102
RTVSPost2010PropOp31
 70
     1
102
RTVSPost2010Prop32
280
     0
102
RTVSPost2010PropOp32
 70
     1
102
RTVSPost2010Prop33
280
     0
102
RTVSPost2010PropOp33
 70
     1
102
RTVSPost2010Prop34
280
     0
102
RTVSPost2010PropOp34
 70
     1
102
RTVSPost2010Prop35
280
     0
102
RTVSPost2010PropOp35
 70
     1
102
RTVSPost2010Prop36
280
     0
102
RTVSPost2010PropOp36
 70
     1
102
RTVSPost2010Prop37
 90
       50
102
RTVSPost2010PropOp37
 70
     1
102
RTVSPost2010Prop38
140
0.0
102
RTVSPost2010PropOp38
 70
     1
102
RTVSPost2010Prop39
140
1.0
102
RTVSPost2010PropOp39
 70
     1
102
RTVSPost2010Prop40
 90
        0
102
RTVSPost2010PropOp40
 70
     1
102
RTVSPost2010Prop41ColorIndex
 90
       18
102
RTVSPost2010Prop41ColorRGB
 90
        0
102
RTVSPost2010PropOp41
 70
     1
102
RTVSPost2010Prop42
 90
       50
102
RTVSPost2010PropOp42
 70
     1
102
RTVSPost2010Prop43
 90
        3
102
RTVSPost2010PropOp43
 70
     1
102
RTVSPost2010Prop44ColorIndex
 90
        5
102
RTVSPost2010Prop44ColorRGB
 90
      255
102
RTVSPost2010PropOp44
 70
     1
102
RTVSPost2010Prop45
280
     0
102
RTVSPost2010PropOp45
 70
     1
102
RTVSPost2010Prop46
 90
       50
102
RTVSPost2010PropOp46
 70
     1
102
RTVSPost2010Prop47
 90
       50
102
RTVSPost2010PropOp47
 70
     1
102
RTVSPost2010Prop48
 90
       50
102
RTVSPost2010PropOp48
 70
     1
102
RTVSPost2010Prop49
280
     0
102
RTVSPost2010PropOp49
 70
     1
102
RTVSPost2010Prop50
 90
       50
102
RTVSPost2010PropOp50
 70
     1
102
RTVSPost2010Prop51ColorIndex
 90
      256
102
RTVSPost2010Prop51ColorRGB
 90
-16777216
102
RTVSPost2010PropOp51
 70
     0
102
RTVSPost2010Prop52
140
1.0
102
RTVSPost2010PropOp52
 70
     0
102
RTVSPost2010Prop53
 90
        2
102
RTVSPost2010PropOp53
 70
     1
102
RTVSPost2010Prop54
  1
strokes_ogs.tif
102
RTVSPost2010PropOp54
 70
     1
102
RTVSPost2010Prop55
280
     0
102
RTVSPost2010PropOp55
 70
     1
102
RTVSPost2010Prop56
140
1.0
102
RTVSPost2010PropOp56
 70
     1
102
RTVSPost2010Prop57
140
1.0
102
RTVSPost2010PropOp57
 70
     1
  0
XRECORD
  5
2E0
102
{ACAD_REACTORS
330
2DF
102
}
330
2DF
100
AcDbXrecord
280
     1
102
RTVSPost2010Prop28
280
     0
102
RTVSPost2010PropOp28
 70
     1
102
RTVSPost2010Prop29
280
     1
102
RTVSPost2010PropOp29
 70
     1
102
RTVSPost2010Prop30
280
     1
102
RTVSPost2010PropOp30
 70
     1
102
RTVSPost2010Prop31
280
     0
102
RTVSPost2010PropOp31
 70
     1
102
RTVSPost2010Prop32
280
     0
102
RTVSPost2010PropOp32
 70
     1
102
RTVSPost2010Prop33
280
     0
102
RTVSPost2010PropOp33
 70
     1
102
RTVSPost2010Prop34
280
     0
102
RTVSPost2010PropOp34
 70
     1
102
RTVSPost2010Prop35
280
     0
102
RTVSPost2010PropOp35
 70
     1
102
RTVSPost2010Prop36
280
     0
102
RTVSPost2010PropOp36
 70
     1
102
RTVSPost2010Prop37
 90
       50
102
RTVSPost2010PropOp37
 70
     1
102
RTVSPost2010Prop38
140
0.0
102
RTVSPost2010PropOp38
 70
     1
102
RTVSPost2010Prop39
140
1.0
102
RTVSPost2010PropOp39
 70
     1
102
RTVSPost2010Prop40
 90
        0
102
RTVSPost2010PropOp40
 70
     1
102
RTVSPost2010Prop41ColorIndex
 90
       18
102
RTVSPost2010Prop41ColorRGB
 90
        0
102
RTVSPost2010PropOp41
 70
     1
102
RTVSPost2010Prop42
 90
       50
102
RTVSPost2010PropOp42
 70
     1
102
RTVSPost2010Prop43
 90
        3
102
RTVSPost2010PropOp43
 70
     1
102
RTVSPost2010Prop44ColorIndex
 90
        5
102
RTVSPost2010Prop44ColorRGB
 90
      255
102
RTVSPost2010PropOp44
 70
     1
102
RTVSPost2010Prop45
280
     0
102
RTVSPost2010PropOp45
 70
     1
102
RTVSPost2010Prop46
 90
       50
102
RTVSPost2010PropOp46
 70
     1
102
RTVSPost2010Prop47
 90
       50
102
RTVSPost2010PropOp47
 70
     1
102
RTVSPost2010Prop48
 90
       50
102
RTVSPost2010PropOp48
 70
     1
102
RTVSPost2010Prop49
280
     0
102
RTVSPost2010PropOp49
 70
     1
102
RTVSPost2010Prop50
 90
       50
102
RTVSPost2010PropOp50
 70
     1
102
RTVSPost2010Prop51ColorIndex
 90
      256
102
RTVSPost2010Prop51ColorRGB
 90
-16777216
102
RTVSPost2010PropOp51
 70
     0
102
RTVSPost2010Prop52
140
1.0
102
RTVSPost2010PropOp52
 70
     0
102
RTVSPost2010Prop53
 90
        2
102
RTVSPost2010PropOp53
 70
     1
102
RTVSPost2010Prop54
  1
strokes_ogs.tif
102
RTVSPost2010PropOp54
 70
     1
102
RTVSPost2010Prop55
280
     0
102
RTVSPost2010PropOp55
 70
     1
102
RTVSPost2010Prop56
140
1.0
102
RTVSPost2010PropOp56
 70
     1
102
RTVSPost2010Prop57
140
1.0
102
RTVSPost2010PropOp57
 70
     1
  0
XRECORD
  5
2E8
102
{ACAD_REACTORS
330
2E7
102
}
330
2E7
100
AcDbXrecord
280
     1
102
RTVSPost2010Prop28
280
     0
102
RTVSPost2010PropOp28
 70
     1
102
RTVSPost2010Prop29
280
     1
102
RTVSPost2010PropOp29
 70
     1
102
RTVSPost2010Prop30
280
     1
102
RTVSPost2010PropOp30
 70
     1
102
RTVSPost2010Prop31
280
     0
102
RTVSPost2010PropOp31
 70
     1
102
RTVSPost2010Prop32
280
     0
102
RTVSPost2010PropOp32
 70
     1
102
RTVSPost2010Prop33
280
     0
102
RTVSPost2010PropOp33
 70
     1
102
RTVSPost2010Prop34
280
     0
102
RTVSPost2010PropOp34
 70
     1
102
RTVSPost2010Prop35
280
     0
102
RTVSPost2010PropOp35
 70
     1
102
RTVSPost2010Prop36
280
     0
102
RTVSPost2010PropOp36
 70
     1
102
RTVSPost2010Prop37
 90
       50
102
RTVSPost2010PropOp37
 70
     1
102
RTVSPost2010Prop38
140
0.0
102
RTVSPost2010PropOp38
 70
     1
102
RTVSPost2010Prop39
140
1.0
102
RTVSPost2010PropOp39
 70
     1
102
RTVSPost2010Prop40
 90
        0
102
RTVSPost2010PropOp40
 70
     1
102
RTVSPost2010Prop41ColorIndex
 90
       18
102
RTVSPost2010Prop41ColorRGB
 90
        0
102
RTVSPost2010PropOp41
 70
     1
102
RTVSPost2010Prop42
 90
       50
102
RTVSPost2010PropOp42
 70
     1
102
RTVSPost2010Prop43
 90
        3
102
RTVSPost2010PropOp43
 70
     1
102
RTVSPost2010Prop44ColorIndex
 90
        5
102
RTVSPost2010Prop44ColorRGB
 90
      255
102
RTVSPost2010PropOp44
 70
     1
102
RTVSPost2010Prop45
280
     0
102
RTVSPost2010PropOp45
 70
     1
102
RTVSPost2010Prop46
 90
       50
102
RTVSPost2010PropOp46
 70
     1
102
RTVSPost2010Prop47
 90
       50
102
RTVSPost2010PropOp47
 70
     1
102
RTVSPost2010Prop48
 90
       50
102
RTVSPost2010PropOp48
 70
     1
102
RTVSPost2010Prop49
280
     0
102
RTVSPost2010PropOp49
 70
     1
102
RTVSPost2010Prop50
 90
       50
102
RTVSPost2010PropOp50
 70
     1
102
RTVSPost2010Prop51ColorIndex
 90
      256
102
RTVSPost2010Prop51ColorRGB
 90
-16777216
102
RTVSPost2010PropOp51
 70
     0
102
RTVSPost2010Prop52
140
1.0
102
RTVSPost2010PropOp52
 70
     0
102
RTVSPost2010Prop53
 90
        2
102
RTVSPost2010PropOp53
 70
     1
102
RTVSPost2010Prop54
  1
strokes_ogs.tif
102
RTVSPost2010PropOp54
 70
     1
102
RTVSPost2010Prop55
280
     0
102
RTVSPost2010PropOp55
 70
     1
102
RTVSPost2010Prop56
140
1.0
102
RTVSPost2010PropOp56
 70
     1
102
RTVSPost2010Prop57
140
1.0
102
RTVSPost2010PropOp57
 70
     1
  0
XRECORD
  5
2DA
102
{ACAD_REACTORS
330
2D9
102
}
330
2D9
100
AcDbXrecord
280
     1
102
RTVSPost2010Prop28
280
     0
102
RTVSPost2010PropOp28
 70
     1
102
RTVSPost2010Prop29
280
     1
102
RTVSPost2010PropOp29
 70
     1
102
RTVSPost2010Prop30
280
     1
102
RTVSPost2010PropOp30
 70
     1
102
RTVSPost2010Prop31
280
     0
102
RTVSPost2010PropOp31
 70
     1
102
RTVSPost2010Prop32
280
     0
102
RTVSPost2010PropOp32
 70
     1
102
RTVSPost2010Prop33
280
     0
102
RTVSPost2010PropOp33
 70
     1
102
RTVSPost2010Prop34
280
     0
102
RTVSPost2010PropOp34
 70
     1
102
RTVSPost2010Prop35
280
     0
102
RTVSPost2010PropOp35
 70
     1
102
RTVSPost2010Prop36
280
     0
102
RTVSPost2010PropOp36
 70
     1
102
RTVSPost2010Prop37
 90
       50
102
RTVSPost2010PropOp37
 70
     1
102
RTVSPost2010Prop38
140
0.0
102
RTVSPost2010PropOp38
 70
     1
102
RTVSPost2010Prop39
140
1.0
102
RTVSPost2010PropOp39
 70
     1
102
RTVSPost2010Prop40
 90
        0
102
RTVSPost2010PropOp40
 70
     1
102
RTVSPost2010Prop41ColorIndex
 90
       18
102
RTVSPost2010Prop41ColorRGB
 90
        0
102
RTVSPost2010PropOp41
 70
     1
102
RTVSPost2010Prop42
 90
       50
102
RTVSPost2010PropOp42
 70
     1
102
RTVSPost2010Prop43
 90
        3
102
RTVSPost2010PropOp43
 70
     1
102
RTVSPost2010Prop44ColorIndex
 90
        5
102
RTVSPost2010Prop44ColorRGB
 90
      255
102
RTVSPost2010PropOp44
 70
     1
102
RTVSPost2010Prop45
280
     0
102
RTVSPost2010PropOp45
 70
     1
102
RTVSPost2010Prop46
 90
       50
102
RTVSPost2010PropOp46
 70
     1
102
RTVSPost2010Prop47
 90
       50
102
RTVSPost2010PropOp47
 70
     1
102
RTVSPost2010Prop48
 90
       50
102
RTVSPost2010PropOp48
 70
     1
102
RTVSPost2010Prop49
280
     0
102
RTVSPost2010PropOp49
 70
     1
102
RTVSPost2010Prop50
 90
       50
102
RTVSPost2010PropOp50
 70
     1
102
RTVSPost2010Prop51ColorIndex
 90
      256
102
RTVSPost2010Prop51ColorRGB
 90
-16777216
102
RTVSPost2010PropOp51
 70
     0
102
RTVSPost2010Prop52
140
1.0
102
RTVSPost2010PropOp52
 70
     0
102
RTVSPost2010Prop53
 90
        2
102
RTVSPost2010PropOp53
 70
     1
102
RTVSPost2010Prop54
  1
strokes_ogs.tif
102
RTVSPost2010PropOp54
 70
     1
102
RTVSPost2010Prop55
280
     0
102
RTVSPost2010PropOp55
 70
     1
102
RTVSPost2010Prop56
140
1.0
102
RTVSPost2010PropOp56
 70
     1
102
RTVSPost2010Prop57
140
1.0
102
RTVSPost2010PropOp57
 70
     1
  0
XRECORD
  5
2DE
102
{ACAD_REACTORS
330
2DD
102
}
330
2DD
100
AcDbXrecord
280
     1
102
RTVSPost2010Prop28
280
     0
102
RTVSPost2010PropOp28
 70
     1
102
RTVSPost2010Prop29
280
     1
102
RTVSPost2010PropOp29
 70
     1
102
RTVSPost2010Prop30
280
     1
102
RTVSPost2010PropOp30
 70
     1
102
RTVSPost2010Prop31
280
     0
102
RTVSPost2010PropOp31
 70
     1
102
RTVSPost2010Prop32
280
     0
102
RTVSPost2010PropOp32
 70
     1
102
RTVSPost2010Prop33
280
     0
102
RTVSPost2010PropOp33
 70
     1
102
RTVSPost2010Prop34
280
     0
102
RTVSPost2010PropOp34
 70
     1
102
RTVSPost2010Prop35
280
     0
102
RTVSPost2010PropOp35
 70
     1
102
RTVSPost2010Prop36
280
     0
102
RTVSPost2010PropOp36
 70
     1
102
RTVSPost2010Prop37
 90
       50
102
RTVSPost2010PropOp37
 70
     1
102
RTVSPost2010Prop38
140
0.0
102
RTVSPost2010PropOp38
 70
     1
102
RTVSPost2010Prop39
140
1.0
102
RTVSPost2010PropOp39
 70
     1
102
RTVSPost2010Prop40
 90
        0
102
RTVSPost2010PropOp40
 70
     1
102
RTVSPost2010Prop41ColorIndex
 90
       18
102
RTVSPost2010Prop41ColorRGB
 90
        0
102
RTVSPost2010PropOp41
 70
     1
102
RTVSPost2010Prop42
 90
       50
102
RTVSPost2010PropOp42
 70
     1
102
RTVSPost2010Prop43
 90
        3
102
RTVSPost2010PropOp43
 70
     1
102
RTVSPost2010Prop44ColorIndex
 90
        5
102
RTVSPost2010Prop44ColorRGB
 90
      255
102
RTVSPost2010PropOp44
 70
     1
102
RTVSPost2010Prop45
280
     0
102
RTVSPost2010PropOp45
 70
     1
102
RTVSPost2010Prop46
 90
       50
102
RTVSPost2010PropOp46
 70
     1
102
RTVSPost2010Prop47
 90
       50
102
RTVSPost2010PropOp47
 70
     1
102
RTVSPost2010Prop48
 90
       50
102
RTVSPost2010PropOp48
 70
     1
102
RTVSPost2010Prop49
280
     0
102
RTVSPost2010PropOp49
 70
     1
102
RTVSPost2010Prop50
 90
       50
102
RTVSPost2010PropOp50
 70
     1
102
RTVSPost2010Prop51ColorIndex
 90
      256
102
RTVSPost2010Prop51ColorRGB
 90
-16777216
102
RTVSPost2010PropOp51
 70
     0
102
RTVSPost2010Prop52
140
1.0
102
RTVSPost2010PropOp52
 70
     0
102
RTVSPost2010Prop53
 90
        2
102
RTVSPost2010PropOp53
 70
     1
102
RTVSPost2010Prop54
  1
strokes_ogs.tif
102
RTVSPost2010PropOp54
 70
     1
102
RTVSPost2010Prop55
280
     0
102
RTVSPost2010PropOp55
 70
     1
102
RTVSPost2010Prop56
140
1.0
102
RTVSPost2010PropOp56
 70
     1
102
RTVSPost2010Prop57
140
1.0
102
RTVSPost2010PropOp57
 70
     1
  0
XRECORD
  5
2F8
102
{ACAD_REACTORS
330
2F7
102
}
330
2F7
100
AcDbXrecord
280
     1
102
RTVSPost2010Prop28
280
     0
102
RTVSPost2010PropOp28
 70
     0
102
RTVSPost2010Prop29
280
     1
102
RTVSPost2010PropOp29
 70
     0
102
RTVSPost2010Prop30
280
     1
102
RTVSPost2010PropOp30
 70
     0
102
RTVSPost2010Prop31
280
     0
102
RTVSPost2010PropOp31
 70
     0
102
RTVSPost2010Prop32
280
     0
102
RTVSPost2010PropOp32
 70
     0
102
RTVSPost2010Prop33
280
     0
102
RTVSPost2010PropOp33
 70
     0
102
RTVSPost2010Prop34
280
     0
102
RTVSPost2010PropOp34
 70
     0
102
RTVSPost2010Prop35
280
     0
102
RTVSPost2010PropOp35
 70
     0
102
RTVSPost2010Prop36
280
     0
102
RTVSPost2010PropOp36
 70
     0
102
RTVSPost2010Prop37
 90
       50
102
RTVSPost2010PropOp37
 70
     0
102
RTVSPost2010Prop38
140
0.0
102
RTVSPost2010PropOp38
 70
     0
102
RTVSPost2010Prop39
140
1.0
102
RTVSPost2010PropOp39
 70
     0
102
RTVSPost2010Prop40
 90
        0
102
RTVSPost2010PropOp40
 70
     0
102
RTVSPost2010Prop41ColorIndex
 90
       18
102
RTVSPost2010Prop41ColorRGB
 90
        0
102
RTVSPost2010PropOp41
 70
     0
102
RTVSPost2010Prop42
 90
       50
102
RTVSPost2010PropOp42
 70
     0
102
RTVSPost2010Prop43
 90
        3
102
RTVSPost2010PropOp43
 70
     0
102
RTVSPost2010Prop44ColorIndex
 90
        5
102
RTVSPost2010Prop44ColorRGB
 90
      255
102
RTVSPost2010PropOp44
 70
     0
102
RTVSPost2010Prop45
280
     0
102
RTVSPost2010PropOp45
 70
     0
102
RTVSPost2010Prop46
 90
       50
102
RTVSPost2010PropOp46
 70
     0
102
RTVSPost2010Prop47
 90
       50
102
RTVSPost2010PropOp47
 70
     0
102
RTVSPost2010Prop48
 90
       50
102
RTVSPost2010PropOp48
 70
     0
102
RTVSPost2010Prop49
280
     0
102
RTVSPost2010PropOp49
 70
     0
102
RTVSPost2010Prop50
 90
       50
102
RTVSPost2010PropOp50
 70
     0
102
RTVSPost2010Prop51ColorIndex
 90
      256
102
RTVSPost2010Prop51ColorRGB
 90
-16777216
102
RTVSPost2010PropOp51
 70
     0
102
RTVSPost2010Prop52
140
1.0
102
RTVSPost2010PropOp52
 70
     0
102
RTVSPost2010Prop53
 90
        2
102
RTVSPost2010PropOp53
 70
     0
102
RTVSPost2010Prop54
  1
strokes_ogs.tif
102
RTVSPost2010PropOp54
 70
     0
102
RTVSPost2010Prop55
280
     0
102
RTVSPost2010PropOp55
 70
     0
102
RTVSPost2010Prop56
140
1.0
102
RTVSPost2010PropOp56
 70
     0
102
RTVSPost2010Prop57
140
1.0
102
RTVSPost2010PropOp57
 70
     0
  0
XRECORD
  5
2E6
102
{ACAD_REACTORS
330
2E5
102
}
330
2E5
100
AcDbXrecord
280
     1
102
RTVSPost2010Prop28
280
     0
102
RTVSPost2010PropOp28
 70
     1
102
RTVSPost2010Prop29
280
     1
102
RTVSPost2010PropOp29
 70
     1
102
RTVSPost2010Prop30
280
     1
102
RTVSPost2010PropOp30
 70
     1
102
RTVSPost2010Prop31
280
     0
102
RTVSPost2010PropOp31
 70
     1
102
RTVSPost2010Prop32
280
     0
102
RTVSPost2010PropOp32
 70
     1
102
RTVSPost2010Prop33
280
     0
102
RTVSPost2010PropOp33
 70
     1
102
RTVSPost2010Prop34
280
     0
102
RTVSPost2010PropOp34
 70
     1
102
RTVSPost2010Prop35
280
     0
102
RTVSPost2010PropOp35
 70
     1
102
RTVSPost2010Prop36
280
     0
102
RTVSPost2010PropOp36
 70
     1
102
RTVSPost2010Prop37
 90
       50
102
RTVSPost2010PropOp37
 70
     1
102
RTVSPost2010Prop38
140
0.0
102
RTVSPost2010PropOp38
 70
     1
102
RTVSPost2010Prop39
140
1.0
102
RTVSPost2010PropOp39
 70
     1
102
RTVSPost2010Prop40
 90
        0
102
RTVSPost2010PropOp40
 70
     1
102
RTVSPost2010Prop41ColorIndex
 90
       18
102
RTVSPost2010Prop41ColorRGB
 90
        0
102
RTVSPost2010PropOp41
 70
     1
102
RTVSPost2010Prop42
 90
       50
102
RTVSPost2010PropOp42
 70
     1
102
RTVSPost2010Prop43
 90
        3
102
RTVSPost2010PropOp43
 70
     1
102
RTVSPost2010Prop44ColorIndex
 90
        5
102
RTVSPost2010Prop44ColorRGB
 90
      255
102
RTVSPost2010PropOp44
 70
     1
102
RTVSPost2010Prop45
280
     0
102
RTVSPost2010PropOp45
 70
     1
102
RTVSPost2010Prop46
 90
       50
102
RTVSPost2010PropOp46
 70
     1
102
RTVSPost2010Prop47
 90
       50
102
RTVSPost2010PropOp47
 70
     1
102
RTVSPost2010Prop48
 90
       50
102
RTVSPost2010PropOp48
 70
     1
102
RTVSPost2010Prop49
280
     0
102
RTVSPost2010PropOp49
 70
     1
102
RTVSPost2010Prop50
 90
       50
102
RTVSPost2010PropOp50
 70
     1
102
RTVSPost2010Prop51ColorIndex
 90
      256
102
RTVSPost2010Prop51ColorRGB
 90
-16777216
102
RTVSPost2010PropOp51
 70
     0
102
RTVSPost2010Prop52
140
1.0
102
RTVSPost2010PropOp52
 70
     0
102
RTVSPost2010Prop53
 90
        2
102
RTVSPost2010PropOp53
 70
     1
102
RTVSPost2010Prop54
  1
strokes_ogs.tif
102
RTVSPost2010PropOp54
 70
     1
102
RTVSPost2010Prop55
280
     0
102
RTVSPost2010PropOp55
 70
     1
102
RTVSPost2010Prop56
140
1.0
102
RTVSPost2010PropOp56
 70
     1
102
RTVSPost2010Prop57
140
1.0
102
RTVSPost2010PropOp57
 70
     1
  0
XRECORD
  5
2CA
102
{ACAD_REACTORS
330
2C9
102
}
330
2C9
100
AcDbXrecord
280
     1
102
RTVSPost2010Prop28
280
     0
102
RTVSPost2010PropOp28
 70
     1
102
RTVSPost2010Prop29
280
     1
102
RTVSPost2010PropOp29
 70
     1
102
RTVSPost2010Prop30
280
     1
102
RTVSPost2010PropOp30
 70
     1
102
RTVSPost2010Prop31
280
     0
102
RTVSPost2010PropOp31
 70
     1
102
RTVSPost2010Prop32
280
     0
102
RTVSPost2010PropOp32
 70
     1
102
RTVSPost2010Prop33
280
     0
102
RTVSPost2010PropOp33
 70
     1
102
RTVSPost2010Prop34
280
     0
102
RTVSPost2010PropOp34
 70
     1
102
RTVSPost2010Prop35
280
     0
102
RTVSPost2010PropOp35
 70
     1
102
RTVSPost2010Prop36
280
     0
102
RTVSPost2010PropOp36
 70
     1
102
RTVSPost2010Prop37
 90
       50
102
RTVSPost2010PropOp37
 70
     1
102
RTVSPost2010Prop38
140
0.0
102
RTVSPost2010PropOp38
 70
     1
102
RTVSPost2010Prop39
140
1.0
102
RTVSPost2010PropOp39
 70
     1
102
RTVSPost2010Prop40
 90
        0
102
RTVSPost2010PropOp40
 70
     1
102
RTVSPost2010Prop41ColorIndex
 90
       18
102
RTVSPost2010Prop41ColorRGB
 90
        0
102
RTVSPost2010PropOp41
 70
     1
102
RTVSPost2010Prop42
 90
       50
102
RTVSPost2010PropOp42
 70
     1
102
RTVSPost2010Prop43
 90
        3
102
RTVSPost2010PropOp43
 70
     1
102
RTVSPost2010Prop44ColorIndex
 90
        5
102
RTVSPost2010Prop44ColorRGB
 90
      255
102
RTVSPost2010PropOp44
 70
     1
102
RTVSPost2010Prop45
280
     0
102
RTVSPost2010PropOp45
 70
     1
102
RTVSPost2010Prop46
 90
       50
102
RTVSPost2010PropOp46
 70
     1
102
RTVSPost2010Prop47
 90
       50
102
RTVSPost2010PropOp47
 70
     1
102
RTVSPost2010Prop48
 90
       50
102
RTVSPost2010PropOp48
 70
     1
102
RTVSPost2010Prop49
280
     0
102
RTVSPost2010PropOp49
 70
     1
102
RTVSPost2010Prop50
 90
       50
102
RTVSPost2010PropOp50
 70
     1
102
RTVSPost2010Prop51ColorIndex
 90
      256
102
RTVSPost2010Prop51ColorRGB
 90
-16777216
102
RTVSPost2010PropOp51
 70
     0
102
RTVSPost2010Prop52
140
1.0
102
RTVSPost2010PropOp52
 70
     0
102
RTVSPost2010Prop53
 90
        2
102
RTVSPost2010PropOp53
 70
     1
102
RTVSPost2010Prop54
  1
strokes_ogs.tif
102
RTVSPost2010PropOp54
 70
     1
102
RTVSPost2010Prop55
280
     0
102
RTVSPost2010PropOp55
 70
     1
102
RTVSPost2010Prop56
140
1.0
102
RTVSPost2010PropOp56
 70
     1
102
RTVSPost2010Prop57
140
1.0
102
RTVSPost2010PropOp57
 70
     1
  0
XRECORD
  5
2CC
102
{ACAD_REACTORS
330
2CB
102
}
330
2CB
100
AcDbXrecord
280
     1
102
RTVSPost2010Prop28
280
     0
102
RTVSPost2010PropOp28
 70
     1
102
RTVSPost2010Prop29
280
     1
102
RTVSPost2010PropOp29
 70
     1
102
RTVSPost2010Prop30
280
     1
102
RTVSPost2010PropOp30
 70
     1
102
RTVSPost2010Prop31
280
     0
102
RTVSPost2010PropOp31
 70
     1
102
RTVSPost2010Prop32
280
     0
102
RTVSPost2010PropOp32
 70
     1
102
RTVSPost2010Prop33
280
     0
102
RTVSPost2010PropOp33
 70
     1
102
RTVSPost2010Prop34
280
     0
102
RTVSPost2010PropOp34
 70
     1
102
RTVSPost2010Prop35
280
     0
102
RTVSPost2010PropOp35
 70
     1
102
RTVSPost2010Prop36
280
     0
102
RTVSPost2010PropOp36
 70
     1
102
RTVSPost2010Prop37
 90
       50
102
RTVSPost2010PropOp37
 70
     1
102
RTVSPost2010Prop38
140
0.0
102
RTVSPost2010PropOp38
 70
     1
102
RTVSPost2010Prop39
140
1.0
102
RTVSPost2010PropOp39
 70
     1
102
RTVSPost2010Prop40
 90
        0
102
RTVSPost2010PropOp40
 70
     1
102
RTVSPost2010Prop41ColorIndex
 90
       18
102
RTVSPost2010Prop41ColorRGB
 90
        0
102
RTVSPost2010PropOp41
 70
     1
102
RTVSPost2010Prop42
 90
       50
102
RTVSPost2010PropOp42
 70
     1
102
RTVSPost2010Prop43
 90
        3
102
RTVSPost2010PropOp43
 70
     1
102
RTVSPost2010Prop44ColorIndex
 90
        5
102
RTVSPost2010Prop44ColorRGB
 90
      255
102
RTVSPost2010PropOp44
 70
     1
102
RTVSPost2010Prop45
280
     0
102
RTVSPost2010PropOp45
 70
     1
102
RTVSPost2010Prop46
 90
       50
102
RTVSPost2010PropOp46
 70
     1
102
RTVSPost2010Prop47
 90
       50
102
RTVSPost2010PropOp47
 70
     1
102
RTVSPost2010Prop48
 90
       50
102
RTVSPost2010PropOp48
 70
     1
102
RTVSPost2010Prop49
280
     0
102
RTVSPost2010PropOp49
 70
     1
102
RTVSPost2010Prop50
 90
       50
102
RTVSPost2010PropOp50
 70
     1
102
RTVSPost2010Prop51ColorIndex
 90
      256
102
RTVSPost2010Prop51ColorRGB
 90
-16777216
102
RTVSPost2010PropOp51
 70
     0
102
RTVSPost2010Prop52
140
1.0
102
RTVSPost2010PropOp52
 70
     0
102
RTVSPost2010Prop53
 90
        2
102
RTVSPost2010PropOp53
 70
     1
102
RTVSPost2010Prop54
  1
strokes_ogs.tif
102
RTVSPost2010PropOp54
 70
     1
102
RTVSPost2010Prop55
280
     0
102
RTVSPost2010PropOp55
 70
     1
102
RTVSPost2010Prop56
140
1.0
102
RTVSPost2010PropOp56
 70
     1
102
RTVSPost2010Prop57
140
1.0
102
RTVSPost2010PropOp57
 70
     1
  0
XRECORD
  5
2CE
102
{ACAD_REACTORS
330
2CD
102
}
330
2CD
100
AcDbXrecord
280
     1
102
RTVSPost2010Prop28
280
     0
102
RTVSPost2010PropOp28
 70
     1
102
RTVSPost2010Prop29
280
     1
102
RTVSPost2010PropOp29
 70
     1
102
RTVSPost2010Prop30
280
     1
102
RTVSPost2010PropOp30
 70
     1
102
RTVSPost2010Prop31
280
     0
102
RTVSPost2010PropOp31
 70
     1
102
RTVSPost2010Prop32
280
     0
102
RTVSPost2010PropOp32
 70
     1
102
RTVSPost2010Prop33
280
     0
102
RTVSPost2010PropOp33
 70
     1
102
RTVSPost2010Prop34
280
     0
102
RTVSPost2010PropOp34
 70
     1
102
RTVSPost2010Prop35
280
     0
102
RTVSPost2010PropOp35
 70
     1
102
RTVSPost2010Prop36
280
     0
102
RTVSPost2010PropOp36
 70
     1
102
RTVSPost2010Prop37
 90
       50
102
RTVSPost2010PropOp37
 70
     1
102
RTVSPost2010Prop38
140
0.0
102
RTVSPost2010PropOp38
 70
     1
102
RTVSPost2010Prop39
140
1.0
102
RTVSPost2010PropOp39
 70
     1
102
RTVSPost2010Prop40
 90
        0
102
RTVSPost2010PropOp40
 70
     1
102
RTVSPost2010Prop41ColorIndex
 90
       18
102
RTVSPost2010Prop41ColorRGB
 90
        0
102
RTVSPost2010PropOp41
 70
     1
102
RTVSPost2010Prop42
 90
       50
102
RTVSPost2010PropOp42
 70
     1
102
RTVSPost2010Prop43
 90
        3
102
RTVSPost2010PropOp43
 70
     1
102
RTVSPost2010Prop44ColorIndex
 90
        5
102
RTVSPost2010Prop44ColorRGB
 90
      255
102
RTVSPost2010PropOp44
 70
     1
102
RTVSPost2010Prop45
280
     0
102
RTVSPost2010PropOp45
 70
     1
102
RTVSPost2010Prop46
 90
       50
102
RTVSPost2010PropOp46
 70
     1
102
RTVSPost2010Prop47
 90
       50
102
RTVSPost2010PropOp47
 70
     1
102
RTVSPost2010Prop48
 90
       50
102
RTVSPost2010PropOp48
 70
     1
102
RTVSPost2010Prop49
280
     0
102
RTVSPost2010PropOp49
 70
     1
102
RTVSPost2010Prop50
 90
       50
102
RTVSPost2010PropOp50
 70
     1
102
RTVSPost2010Prop51ColorIndex
 90
      256
102
RTVSPost2010Prop51ColorRGB
 90
-16777216
102
RTVSPost2010PropOp51
 70
     0
102
RTVSPost2010Prop52
140
1.0
102
RTVSPost2010PropOp52
 70
     0
102
RTVSPost2010Prop53
 90
        2
102
RTVSPost2010PropOp53
 70
     1
102
RTVSPost2010Prop54
  1
strokes_ogs.tif
102
RTVSPost2010PropOp54
 70
     1
102
RTVSPost2010Prop55
280
     0
102
RTVSPost2010PropOp55
 70
     1
102
RTVSPost2010Prop56
140
1.0
102
RTVSPost2010PropOp56
 70
     1
102
RTVSPost2010Prop57
140
1.0
102
RTVSPost2010PropOp57
 70
     1
  0
XRECORD
  5
2D0
102
{ACAD_REACTORS
330
2CF
102
}
330
2CF
100
AcDbXrecord
280
     1
102
RTVSPost2010Prop28
280
     0
102
RTVSPost2010PropOp28
 70
     1
102
RTVSPost2010Prop29
280
     1
102
RTVSPost2010PropOp29
 70
     1
102
RTVSPost2010Prop30
280
     1
102
RTVSPost2010PropOp30
 70
     1
102
RTVSPost2010Prop31
280
     0
102
RTVSPost2010PropOp31
 70
     1
102
RTVSPost2010Prop32
280
     0
102
RTVSPost2010PropOp32
 70
     1
102
RTVSPost2010Prop33
280
     0
102
RTVSPost2010PropOp33
 70
     1
102
RTVSPost2010Prop34
280
     0
102
RTVSPost2010PropOp34
 70
     1
102
RTVSPost2010Prop35
280
     0
102
RTVSPost2010PropOp35
 70
     1
102
RTVSPost2010Prop36
280
     0
102
RTVSPost2010PropOp36
 70
     1
102
RTVSPost2010Prop37
 90
       50
102
RTVSPost2010PropOp37
 70
     1
102
RTVSPost2010Prop38
140
0.0
102
RTVSPost2010PropOp38
 70
     1
102
RTVSPost2010Prop39
140
1.0
102
RTVSPost2010PropOp39
 70
     1
102
RTVSPost2010Prop40
 90
        0
102
RTVSPost2010PropOp40
 70
     1
102
RTVSPost2010Prop41ColorIndex
 90
       18
102
RTVSPost2010Prop41ColorRGB
 90
        0
102
RTVSPost2010PropOp41
 70
     1
102
RTVSPost2010Prop42
 90
       50
102
RTVSPost2010PropOp42
 70
     1
102
RTVSPost2010Prop43
 90
        3
102
RTVSPost2010PropOp43
 70
     1
102
RTVSPost2010Prop44ColorIndex
 90
        5
102
RTVSPost2010Prop44ColorRGB
 90
      255
102
RTVSPost2010PropOp44
 70
     1
102
RTVSPost2010Prop45
280
     0
102
RTVSPost2010PropOp45
 70
     1
102
RTVSPost2010Prop46
 90
       50
102
RTVSPost2010PropOp46
 70
     1
102
RTVSPost2010Prop47
 90
       50
102
RTVSPost2010PropOp47
 70
     1
102
RTVSPost2010Prop48
 90
       50
102
RTVSPost2010PropOp48
 70
     1
102
RTVSPost2010Prop49
280
     0
102
RTVSPost2010PropOp49
 70
     1
102
RTVSPost2010Prop50
 90
       50
102
RTVSPost2010PropOp50
 70
     1
102
RTVSPost2010Prop51ColorIndex
 90
      256
102
RTVSPost2010Prop51ColorRGB
 90
-16777216
102
RTVSPost2010PropOp51
 70
     0
102
RTVSPost2010Prop52
140
1.0
102
RTVSPost2010PropOp52
 70
     0
102
RTVSPost2010Prop53
 90
        2
102
RTVSPost2010PropOp53
 70
     1
102
RTVSPost2010Prop54
  1
strokes_ogs.tif
102
RTVSPost2010PropOp54
 70
     1
102
RTVSPost2010Prop55
280
     0
102
RTVSPost2010PropOp55
 70
     1
102
RTVSPost2010Prop56
140
1.0
102
RTVSPost2010PropOp56
 70
     1
102
RTVSPost2010Prop57
140
1.0
102
RTVSPost2010PropOp57
 70
     1
  0
XRECORD
  5
2D8
102
{ACAD_REACTORS
330
2D7
102
}
330
2D7
100
AcDbXrecord
280
     1
102
RTVSPost2010Prop28
280
     0
102
RTVSPost2010PropOp28
 70
     1
102
RTVSPost2010Prop29
280
     1
102
RTVSPost2010PropOp29
 70
     1
102
RTVSPost2010Prop30
280
     1
102
RTVSPost2010PropOp30
 70
     1
102
RTVSPost2010Prop31
280
     0
102
RTVSPost2010PropOp31
 70
     1
102
RTVSPost2010Prop32
280
     0
102
RTVSPost2010PropOp32
 70
     1
102
RTVSPost2010Prop33
280
     0
102
RTVSPost2010PropOp33
 70
     1
102
RTVSPost2010Prop34
280
     0
102
RTVSPost2010PropOp34
 70
     1
102
RTVSPost2010Prop35
280
     0
102
RTVSPost2010PropOp35
 70
     1
102
RTVSPost2010Prop36
280
     0
102
RTVSPost2010PropOp36
 70
     1
102
RTVSPost2010Prop37
 90
       50
102
RTVSPost2010PropOp37
 70
     1
102
RTVSPost2010Prop38
140
0.0
102
RTVSPost2010PropOp38
 70
     1
102
RTVSPost2010Prop39
140
1.0
102
RTVSPost2010PropOp39
 70
     1
102
RTVSPost2010Prop40
 90
        0
102
RTVSPost2010PropOp40
 70
     1
102
RTVSPost2010Prop41ColorIndex
 90
       18
102
RTVSPost2010Prop41ColorRGB
 90
        0
102
RTVSPost2010PropOp41
 70
     1
102
RTVSPost2010Prop42
 90
       50
102
RTVSPost2010PropOp42
 70
     1
102
RTVSPost2010Prop43
 90
        3
102
RTVSPost2010PropOp43
 70
     1
102
RTVSPost2010Prop44ColorIndex
 90
        5
102
RTVSPost2010Prop44ColorRGB
 90
      255
102
RTVSPost2010PropOp44
 70
     1
102
RTVSPost2010Prop45
280
     0
102
RTVSPost2010PropOp45
 70
     1
102
RTVSPost2010Prop46
 90
       50
102
RTVSPost2010PropOp46
 70
     1
102
RTVSPost2010Prop47
 90
       50
102
RTVSPost2010PropOp47
 70
     1
102
RTVSPost2010Prop48
 90
       50
102
RTVSPost2010PropOp48
 70
     1
102
RTVSPost2010Prop49
280
     0
102
RTVSPost2010PropOp49
 70
     1
102
RTVSPost2010Prop50
 90
       50
102
RTVSPost2010PropOp50
 70
     1
102
RTVSPost2010Prop51ColorIndex
 90
      256
102
RTVSPost2010Prop51ColorRGB
 90
-16777216
102
RTVSPost2010PropOp51
 70
     0
102
RTVSPost2010Prop52
140
1.0
102
RTVSPost2010PropOp52
 70
     0
102
RTVSPost2010Prop53
 90
        2
102
RTVSPost2010PropOp53
 70
     1
102
RTVSPost2010Prop54
  1
strokes_ogs.tif
102
RTVSPost2010PropOp54
 70
     1
102
RTVSPost2010Prop55
280
     0
102
RTVSPost2010PropOp55
 70
     1
102
RTVSPost2010Prop56
140
1.0
102
RTVSPost2010PropOp56
 70
     1
102
RTVSPost2010Prop57
140
1.0
102
RTVSPost2010PropOp57
 70
     1
  0
XRECORD
  5
2F4
102
{ACAD_REACTORS
330
2F3
102
}
330
2F3
100
AcDbXrecord
280
     1
102
RTVSPost2010Prop28
280
     0
102
RTVSPost2010PropOp28
 70
     0
102
RTVSPost2010Prop29
280
     1
102
RTVSPost2010PropOp29
 70
     0
102
RTVSPost2010Prop30
280
     1
102
RTVSPost2010PropOp30
 70
     0
102
RTVSPost2010Prop31
280
     0
102
RTVSPost2010PropOp31
 70
     0
102
RTVSPost2010Prop32
280
     0
102
RTVSPost2010PropOp32
 70
     0
102
RTVSPost2010Prop33
280
     0
102
RTVSPost2010PropOp33
 70
     0
102
RTVSPost2010Prop34
280
     0
102
RTVSPost2010PropOp34
 70
     0
102
RTVSPost2010Prop35
280
     0
102
RTVSPost2010PropOp35
 70
     0
102
RTVSPost2010Prop36
280
     0
102
RTVSPost2010PropOp36
 70
     0
102
RTVSPost2010Prop37
 90
       50
102
RTVSPost2010PropOp37
 70
     0
102
RTVSPost2010Prop38
140
0.0
102
RTVSPost2010PropOp38
 70
     0
102
RTVSPost2010Prop39
140
1.0
102
RTVSPost2010PropOp39
 70
     0
102
RTVSPost2010Prop40
 90
        0
102
RTVSPost2010PropOp40
 70
     0
102
RTVSPost2010Prop41ColorIndex
 90
       18
102
RTVSPost2010Prop41ColorRGB
 90
        0
102
RTVSPost2010PropOp41
 70
     0
102
RTVSPost2010Prop42
 90
       50
102
RTVSPost2010PropOp42
 70
     0
102
RTVSPost2010Prop43
 90
        3
102
RTVSPost2010PropOp43
 70
     0
102
RTVSPost2010Prop44ColorIndex
 90
        5
102
RTVSPost2010Prop44ColorRGB
 90
      255
102
RTVSPost2010PropOp44
 70
     0
102
RTVSPost2010Prop45
280
     0
102
RTVSPost2010PropOp45
 70
     0
102
RTVSPost2010Prop46
 90
       50
102
RTVSPost2010PropOp46
 70
     0
102
RTVSPost2010Prop47
 90
       50
102
RTVSPost2010PropOp47
 70
     0
102
RTVSPost2010Prop48
 90
       50
102
RTVSPost2010PropOp48
 70
     0
102
RTVSPost2010Prop49
280
     0
102
RTVSPost2010PropOp49
 70
     0
102
RTVSPost2010Prop50
 90
       50
102
RTVSPost2010PropOp50
 70
     0
102
RTVSPost2010Prop51ColorIndex
 90
      256
102
RTVSPost2010Prop51ColorRGB
 90
-16777216
102
RTVSPost2010PropOp51
 70
     0
102
RTVSPost2010Prop52
140
1.0
102
RTVSPost2010PropOp52
 70
     0
102
RTVSPost2010Prop53
 90
        2
102
RTVSPost2010PropOp53
 70
     0
102
RTVSPost2010Prop54
  1
strokes_ogs.tif
102
RTVSPost2010PropOp54
 70
     0
102
RTVSPost2010Prop55
280
     0
102
RTVSPost2010PropOp55
 70
     0
102
RTVSPost2010Prop56
140
1.0
102
RTVSPost2010PropOp56
 70
     0
102
RTVSPost2010Prop57
140
1.0
102
RTVSPost2010PropOp57
 70
     0
  0
XRECORD
  5
2E4
102
{ACAD_REACTORS
330
2E3
102
}
330
2E3
100
AcDbXrecord
280
     1
102
RTVSPost2010Prop28
280
     0
102
RTVSPost2010PropOp28
 70
     1
102
RTVSPost2010Prop29
280
     1
102
RTVSPost2010PropOp29
 70
     1
102
RTVSPost2010Prop30
280
     1
102
RTVSPost2010PropOp30
 70
     1
102
RTVSPost2010Prop31
280
     0
102
RTVSPost2010PropOp31
 70
     1
102
RTVSPost2010Prop32
280
     0
102
RTVSPost2010PropOp32
 70
     1
102
RTVSPost2010Prop33
280
     0
102
RTVSPost2010PropOp33
 70
     1
102
RTVSPost2010Prop34
280
     0
102
RTVSPost2010PropOp34
 70
     1
102
RTVSPost2010Prop35
280
     0
102
RTVSPost2010PropOp35
 70
     1
102
RTVSPost2010Prop36
280
     0
102
RTVSPost2010PropOp36
 70
     1
102
RTVSPost2010Prop37
 90
       50
102
RTVSPost2010PropOp37
 70
     1
102
RTVSPost2010Prop38
140
0.0
102
RTVSPost2010PropOp38
 70
     1
102
RTVSPost2010Prop39
140
1.0
102
RTVSPost2010PropOp39
 70
     1
102
RTVSPost2010Prop40
 90
        0
102
RTVSPost2010PropOp40
 70
     1
102
RTVSPost2010Prop41ColorIndex
 90
       18
102
RTVSPost2010Prop41ColorRGB
 90
        0
102
RTVSPost2010PropOp41
 70
     1
102
RTVSPost2010Prop42
 90
       50
102
RTVSPost2010PropOp42
 70
     1
102
RTVSPost2010Prop43
 90
        3
102
RTVSPost2010PropOp43
 70
     1
102
RTVSPost2010Prop44ColorIndex
 90
        5
102
RTVSPost2010Prop44ColorRGB
 90
      255
102
RTVSPost2010PropOp44
 70
     1
102
RTVSPost2010Prop45
280
     0
102
RTVSPost2010PropOp45
 70
     1
102
RTVSPost2010Prop46
 90
       50
102
RTVSPost2010PropOp46
 70
     1
102
RTVSPost2010Prop47
 90
       50
102
RTVSPost2010PropOp47
 70
     1
102
RTVSPost2010Prop48
 90
       50
102
RTVSPost2010PropOp48
 70
     1
102
RTVSPost2010Prop49
280
     0
102
RTVSPost2010PropOp49
 70
     1
102
RTVSPost2010Prop50
 90
       50
102
RTVSPost2010PropOp50
 70
     1
102
RTVSPost2010Prop51ColorIndex
 90
      256
102
RTVSPost2010Prop51ColorRGB
 90
-16777216
102
RTVSPost2010PropOp51
 70
     0
102
RTVSPost2010Prop52
140
1.0
102
RTVSPost2010PropOp52
 70
     0
102
RTVSPost2010Prop53
 90
        2
102
RTVSPost2010PropOp53
 70
     1
102
RTVSPost2010Prop54
  1
strokes_ogs.tif
102
RTVSPost2010PropOp54
 70
     1
102
RTVSPost2010Prop55
280
     0
102
RTVSPost2010PropOp55
 70
     1
102
RTVSPost2010Prop56
140
1.0
102
RTVSPost2010PropOp56
 70
     1
102
RTVSPost2010Prop57
140
1.0
102
RTVSPost2010PropOp57
 70
     1
  0
XRECORD
  5
2F6
102
{ACAD_REACTORS
330
2F5
102
}
330
2F5
100
AcDbXrecord
280
     1
102
RTVSPost2010Prop28
280
     0
102
RTVSPost2010PropOp28
 70
     0
102
RTVSPost2010Prop29
280
     1
102
RTVSPost2010PropOp29
 70
     0
102
RTVSPost2010Prop30
280
     1
102
RTVSPost2010PropOp30
 70
     0
102
RTVSPost2010Prop31
280
     0
102
RTVSPost2010PropOp31
 70
     0
102
RTVSPost2010Prop32
280
     0
102
RTVSPost2010PropOp32
 70
     0
102
RTVSPost2010Prop33
280
     0
102
RTVSPost2010PropOp33
 70
     0
102
RTVSPost2010Prop34
280
     0
102
RTVSPost2010PropOp34
 70
     0
102
RTVSPost2010Prop35
280
     0
102
RTVSPost2010PropOp35
 70
     0
102
RTVSPost2010Prop36
280
     0
102
RTVSPost2010PropOp36
 70
     0
102
RTVSPost2010Prop37
 90
       50
102
RTVSPost2010PropOp37
 70
     0
102
RTVSPost2010Prop38
140
0.0
102
RTVSPost2010PropOp38
 70
     0
102
RTVSPost2010Prop39
140
1.0
102
RTVSPost2010PropOp39
 70
     0
102
RTVSPost2010Prop40
 90
        0
102
RTVSPost2010PropOp40
 70
     0
102
RTVSPost2010Prop41ColorIndex
 90
       18
102
RTVSPost2010Prop41ColorRGB
 90
        0
102
RTVSPost2010PropOp41
 70
     0
102
RTVSPost2010Prop42
 90
       50
102
RTVSPost2010PropOp42
 70
     0
102
RTVSPost2010Prop43
 90
        3
102
RTVSPost2010PropOp43
 70
     0
102
RTVSPost2010Prop44ColorIndex
 90
        5
102
RTVSPost2010Prop44ColorRGB
 90
      255
102
RTVSPost2010PropOp44
 70
     0
102
RTVSPost2010Prop45
280
     0
102
RTVSPost2010PropOp45
 70
     0
102
RTVSPost2010Prop46
 90
       50
102
RTVSPost2010PropOp46
 70
     0
102
RTVSPost2010Prop47
 90
       50
102
RTVSPost2010PropOp47
 70
     0
102
RTVSPost2010Prop48
 90
       50
102
RTVSPost2010PropOp48
 70
     0
102
RTVSPost2010Prop49
280
     0
102
RTVSPost2010PropOp49
 70
     0
102
RTVSPost2010Prop50
 90
       50
102
RTVSPost2010PropOp50
 70
     0
102
RTVSPost2010Prop51ColorIndex
 90
      256
102
RTVSPost2010Prop51ColorRGB
 90
-16777216
102
RTVSPost2010PropOp51
 70
     0
102
RTVSPost2010Prop52
140
1.0
102
RTVSPost2010PropOp52
 70
     0
102
RTVSPost2010Prop53
 90
        2
102
RTVSPost2010PropOp53
 70
     0
102
RTVSPost2010Prop54
  1
strokes_ogs.tif
102
RTVSPost2010PropOp54
 70
     0
102
RTVSPost2010Prop55
280
     0
102
RTVSPost2010PropOp55
 70
     0
102
RTVSPost2010Prop56
140
1.0
102
RTVSPost2010PropOp56
 70
     0
102
RTVSPost2010Prop57
140
1.0
102
RTVSPost2010PropOp57
 70
     0
  0
XRECORD
  5
2DC
102
{ACAD_REACTORS
330
2DB
102
}
330
2DB
100
AcDbXrecord
280
     1
102
RTVSPost2010Prop28
280
     0
102
RTVSPost2010PropOp28
 70
     1
102
RTVSPost2010Prop29
280
     1
102
RTVSPost2010PropOp29
 70
     1
102
RTVSPost2010Prop30
280
     1
102
RTVSPost2010PropOp30
 70
     1
102
RTVSPost2010Prop31
280
     0
102
RTVSPost2010PropOp31
 70
     1
102
RTVSPost2010Prop32
280
     0
102
RTVSPost2010PropOp32
 70
     1
102
RTVSPost2010Prop33
280
     0
102
RTVSPost2010PropOp33
 70
     1
102
RTVSPost2010Prop34
280
     0
102
RTVSPost2010PropOp34
 70
     1
102
RTVSPost2010Prop35
280
     0
102
RTVSPost2010PropOp35
 70
     1
102
RTVSPost2010Prop36
280
     0
102
RTVSPost2010PropOp36
 70
     1
102
RTVSPost2010Prop37
 90
       50
102
RTVSPost2010PropOp37
 70
     1
102
RTVSPost2010Prop38
140
0.0
102
RTVSPost2010PropOp38
 70
     1
102
RTVSPost2010Prop39
140
1.0
102
RTVSPost2010PropOp39
 70
     1
102
RTVSPost2010Prop40
 90
        0
102
RTVSPost2010PropOp40
 70
     1
102
RTVSPost2010Prop41ColorIndex
 90
       18
102
RTVSPost2010Prop41ColorRGB
 90
        0
102
RTVSPost2010PropOp41
 70
     1
102
RTVSPost2010Prop42
 90
       50
102
RTVSPost2010PropOp42
 70
     1
102
RTVSPost2010Prop43
 90
        3
102
RTVSPost2010PropOp43
 70
     1
102
RTVSPost2010Prop44ColorIndex
 90
        5
102
RTVSPost2010Prop44ColorRGB
 90
      255
102
RTVSPost2010PropOp44
 70
     1
102
RTVSPost2010Prop45
280
     0
102
RTVSPost2010PropOp45
 70
     1
102
RTVSPost2010Prop46
 90
       50
102
RTVSPost2010PropOp46
 70
     1
102
RTVSPost2010Prop47
 90
       50
102
RTVSPost2010PropOp47
 70
     1
102
RTVSPost2010Prop48
 90
       50
102
RTVSPost2010PropOp48
 70
     1
102
RTVSPost2010Prop49
280
     0
102
RTVSPost2010PropOp49
 70
     1
102
RTVSPost2010Prop50
 90
       50
102
RTVSPost2010PropOp50
 70
     1
102
RTVSPost2010Prop51ColorIndex
 90
      256
102
RTVSPost2010Prop51ColorRGB
 90
-16777216
102
RTVSPost2010PropOp51
 70
     0
102
RTVSPost2010Prop52
140
1.0
102
RTVSPost2010PropOp52
 70
     0
102
RTVSPost2010Prop53
 90
        2
102
RTVSPost2010PropOp53
 70
     1
102
RTVSPost2010Prop54
  1
strokes_ogs.tif
102
RTVSPost2010PropOp54
 70
     1
102
RTVSPost2010Prop55
280
     0
102
RTVSPost2010PropOp55
 70
     1
102
RTVSPost2010Prop56
140
1.0
102
RTVSPost2010PropOp56
 70
     1
102
RTVSPost2010Prop57
140
1.0
102
RTVSPost2010PropOp57
 70
     1
  0
XRECORD
  5
2F2
102
{ACAD_REACTORS
330
2F1
102
}
330
2F1
100
AcDbXrecord
280
     1
102
RTVSPost2010Prop28
280
     0
102
RTVSPost2010PropOp28
 70
     1
102
RTVSPost2010Prop29
280
     1
102
RTVSPost2010PropOp29
 70
     1
102
RTVSPost2010Prop30
280
     1
102
RTVSPost2010PropOp30
 70
     1
102
RTVSPost2010Prop31
280
     0
102
RTVSPost2010PropOp31
 70
     1
102
RTVSPost2010Prop32
280
     0
102
RTVSPost2010PropOp32
 70
     1
102
RTVSPost2010Prop33
280
     0
102
RTVSPost2010PropOp33
 70
     1
102
RTVSPost2010Prop34
280
     0
102
RTVSPost2010PropOp34
 70
     1
102
RTVSPost2010Prop35
280
     0
102
RTVSPost2010PropOp35
 70
     1
102
RTVSPost2010Prop36
280
     0
102
RTVSPost2010PropOp36
 70
     1
102
RTVSPost2010Prop37
 90
       50
102
RTVSPost2010PropOp37
 70
     1
102
RTVSPost2010Prop38
140
0.0
102
RTVSPost2010PropOp38
 70
     1
102
RTVSPost2010Prop39
140
1.0
102
RTVSPost2010PropOp39
 70
     1
102
RTVSPost2010Prop40
 90
        0
102
RTVSPost2010PropOp40
 70
     1
102
RTVSPost2010Prop41ColorIndex
 90
       18
102
RTVSPost2010Prop41ColorRGB
 90
        0
102
RTVSPost2010PropOp41
 70
     1
102
RTVSPost2010Prop42
 90
       50
102
RTVSPost2010PropOp42
 70
     1
102
RTVSPost2010Prop43
 90
        3
102
RTVSPost2010PropOp43
 70
     1
102
RTVSPost2010Prop44ColorIndex
 90
        5
102
RTVSPost2010Prop44ColorRGB
 90
      255
102
RTVSPost2010PropOp44
 70
     1
102
RTVSPost2010Prop45
280
     0
102
RTVSPost2010PropOp45
 70
     1
102
RTVSPost2010Prop46
 90
       50
102
RTVSPost2010PropOp46
 70
     1
102
RTVSPost2010Prop47
 90
       50
102
RTVSPost2010PropOp47
 70
     1
102
RTVSPost2010Prop48
 90
       50
102
RTVSPost2010PropOp48
 70
     1
102
RTVSPost2010Prop49
280
     0
102
RTVSPost2010PropOp49
 70
     1
102
RTVSPost2010Prop50
 90
       50
102
RTVSPost2010PropOp50
 70
     1
102
RTVSPost2010Prop51ColorIndex
 90
      256
102
RTVSPost2010Prop51ColorRGB
 90
-16777216
102
RTVSPost2010PropOp51
 70
     0
102
RTVSPost2010Prop52
140
1.0
102
RTVSPost2010PropOp52
 70
     0
102
RTVSPost2010Prop53
 90
        2
102
RTVSPost2010PropOp53
 70
     1
102
RTVSPost2010Prop54
  1
strokes_ogs.tif
102
RTVSPost2010PropOp54
 70
     1
102
RTVSPost2010Prop55
280
     0
102
RTVSPost2010PropOp55
 70
     1
102
RTVSPost2010Prop56
140
1.0
102
RTVSPost2010PropOp56
 70
     1
102
RTVSPost2010Prop57
140
1.0
102
RTVSPost2010PropOp57
 70
     1
  0
XRECORD
  5
2F0
102
{ACAD_REACTORS
330
2EF
102
}
330
2EF
100
AcDbXrecord
280
     1
102
RTVSPost2010Prop28
280
     0
102
RTVSPost2010PropOp28
 70
     1
102
RTVSPost2010Prop29
280
     1
102
RTVSPost2010PropOp29
 70
     1
102
RTVSPost2010Prop30
280
     1
102
RTVSPost2010PropOp30
 70
     1
102
RTVSPost2010Prop31
280
     0
102
RTVSPost2010PropOp31
 70
     1
102
RTVSPost2010Prop32
280
     0
102
RTVSPost2010PropOp32
 70
     1
102
RTVSPost2010Prop33
280
     0
102
RTVSPost2010PropOp33
 70
     1
102
RTVSPost2010Prop34
280
     0
102
RTVSPost2010PropOp34
 70
     1
102
RTVSPost2010Prop35
280
     0
102
RTVSPost2010PropOp35
 70
     1
102
RTVSPost2010Prop36
280
     0
102
RTVSPost2010PropOp36
 70
     1
102
RTVSPost2010Prop37
 90
       50
102
RTVSPost2010PropOp37
 70
     1
102
RTVSPost2010Prop38
140
0.0
102
RTVSPost2010PropOp38
 70
     1
102
RTVSPost2010Prop39
140
1.0
102
RTVSPost2010PropOp39
 70
     1
102
RTVSPost2010Prop40
 90
        0
102
RTVSPost2010PropOp40
 70
     1
102
RTVSPost2010Prop41ColorIndex
 90
       18
102
RTVSPost2010Prop41ColorRGB
 90
        0
102
RTVSPost2010PropOp41
 70
     1
102
RTVSPost2010Prop42
 90
       50
102
RTVSPost2010PropOp42
 70
     1
102
RTVSPost2010Prop43
 90
        3
102
RTVSPost2010PropOp43
 70
     1
102
RTVSPost2010Prop44ColorIndex
 90
        5
102
RTVSPost2010Prop44ColorRGB
 90
      255
102
RTVSPost2010PropOp44
 70
     1
102
RTVSPost2010Prop45
280
     0
102
RTVSPost2010PropOp45
 70
     1
102
RTVSPost2010Prop46
 90
       50
102
RTVSPost2010PropOp46
 70
     1
102
RTVSPost2010Prop47
 90
       50
102
RTVSPost2010PropOp47
 70
     1
102
RTVSPost2010Prop48
 90
       50
102
RTVSPost2010PropOp48
 70
     1
102
RTVSPost2010Prop49
280
     0
102
RTVSPost2010PropOp49
 70
     1
102
RTVSPost2010Prop50
 90
       50
102
RTVSPost2010PropOp50
 70
     1
102
RTVSPost2010Prop51ColorIndex
 90
      256
102
RTVSPost2010Prop51ColorRGB
 90
-16777216
102
RTVSPost2010PropOp51
 70
     0
102
RTVSPost2010Prop52
140
1.0
102
RTVSPost2010PropOp52
 70
     0
102
RTVSPost2010Prop53
 90
        2
102
RTVSPost2010PropOp53
 70
     1
102
RTVSPost2010Prop54
  1
strokes_ogs.tif
102
RTVSPost2010PropOp54
 70
     1
102
RTVSPost2010Prop55
280
     0
102
RTVSPost2010PropOp55
 70
     1
102
RTVSPost2010Prop56
140
1.0
102
RTVSPost2010PropOp56
 70
     1
102
RTVSPost2010Prop57
140
1.0
102
RTVSPost2010PropOp57
 70
     1
  0
XRECORD
  5
2EA
102
{ACAD_REACTORS
330
2E9
102
}
330
2E9
100
AcDbXrecord
280
     1
102
RTVSPost2010Prop28
280
     0
102
RTVSPost2010PropOp28
 70
     1
102
RTVSPost2010Prop29
280
     1
102
RTVSPost2010PropOp29
 70
     1
102
RTVSPost2010Prop30
280
     1
102
RTVSPost2010PropOp30
 70
     1
102
RTVSPost2010Prop31
280
     0
102
RTVSPost2010PropOp31
 70
     1
102
RTVSPost2010Prop32
280
     0
102
RTVSPost2010PropOp32
 70
     1
102
RTVSPost2010Prop33
280
     0
102
RTVSPost2010PropOp33
 70
     1
102
RTVSPost2010Prop34
280
     0
102
RTVSPost2010PropOp34
 70
     1
102
RTVSPost2010Prop35
280
     0
102
RTVSPost2010PropOp35
 70
     1
102
RTVSPost2010Prop36
280
     0
102
RTVSPost2010PropOp36
 70
     1
102
RTVSPost2010Prop37
 90
       50
102
RTVSPost2010PropOp37
 70
     1
102
RTVSPost2010Prop38
140
0.0
102
RTVSPost2010PropOp38
 70
     1
102
RTVSPost2010Prop39
140
1.0
102
RTVSPost2010PropOp39
 70
     1
102
RTVSPost2010Prop40
 90
        0
102
RTVSPost2010PropOp40
 70
     1
102
RTVSPost2010Prop41ColorIndex
 90
       18
102
RTVSPost2010Prop41ColorRGB
 90
        0
102
RTVSPost2010PropOp41
 70
     1
102
RTVSPost2010Prop42
 90
       50
102
RTVSPost2010PropOp42
 70
     1
102
RTVSPost2010Prop43
 90
        3
102
RTVSPost2010PropOp43
 70
     1
102
RTVSPost2010Prop44ColorIndex
 90
        5
102
RTVSPost2010Prop44ColorRGB
 90
      255
102
RTVSPost2010PropOp44
 70
     1
102
RTVSPost2010Prop45
280
     0
102
RTVSPost2010PropOp45
 70
     1
102
RTVSPost2010Prop46
 90
       50
102
RTVSPost2010PropOp46
 70
     1
102
RTVSPost2010Prop47
 90
       50
102
RTVSPost2010PropOp47
 70
     1
102
RTVSPost2010Prop48
 90
       50
102
RTVSPost2010PropOp48
 70
     1
102
RTVSPost2010Prop49
280
     0
102
RTVSPost2010PropOp49
 70
     1
102
RTVSPost2010Prop50
 90
       50
102
RTVSPost2010PropOp50
 70
     1
102
RTVSPost2010Prop51ColorIndex
 90
      256
102
RTVSPost2010Prop51ColorRGB
 90
-16777216
102
RTVSPost2010PropOp51
 70
     0
102
RTVSPost2010Prop52
140
1.0
102
RTVSPost2010PropOp52
 70
     0
102
RTVSPost2010Prop53
 90
        2
102
RTVSPost2010PropOp53
 70
     1
102
RTVSPost2010Prop54
  1
strokes_ogs.tif
102
RTVSPost2010PropOp54
 70
     1
102
RTVSPost2010Prop55
280
     0
102
RTVSPost2010PropOp55
 70
     1
102
RTVSPost2010Prop56
140
1.0
102
RTVSPost2010PropOp56
 70
     1
102
RTVSPost2010Prop57
140
1.0
102
RTVSPost2010PropOp57
 70
     1
  0
XRECORD
  5
2EC
102
{ACAD_REACTORS
330
2EB
102
}
330
2EB
100
AcDbXrecord
280
     1
102
RTVSPost2010Prop28
280
     0
102
RTVSPost2010PropOp28
 70
     1
102
RTVSPost2010Prop29
280
     1
102
RTVSPost2010PropOp29
 70
     1
102
RTVSPost2010Prop30
280
     1
102
RTVSPost2010PropOp30
 70
     1
102
RTVSPost2010Prop31
280
     0
102
RTVSPost2010PropOp31
 70
     1
102
RTVSPost2010Prop32
280
     0
102
RTVSPost2010PropOp32
 70
     1
102
RTVSPost2010Prop33
280
     0
102
RTVSPost2010PropOp33
 70
     1
102
RTVSPost2010Prop34
280
     0
102
RTVSPost2010PropOp34
 70
     1
102
RTVSPost2010Prop35
280
     0
102
RTVSPost2010PropOp35
 70
     1
102
RTVSPost2010Prop36
280
     0
102
RTVSPost2010PropOp36
 70
     1
102
RTVSPost2010Prop37
 90
       50
102
RTVSPost2010PropOp37
 70
     1
102
RTVSPost2010Prop38
140
0.0
102
RTVSPost2010PropOp38
 70
     1
102
RTVSPost2010Prop39
140
1.0
102
RTVSPost2010PropOp39
 70
     1
102
RTVSPost2010Prop40
 90
        0
102
RTVSPost2010PropOp40
 70
     1
102
RTVSPost2010Prop41ColorIndex
 90
       18
102
RTVSPost2010Prop41ColorRGB
 90
        0
102
RTVSPost2010PropOp41
 70
     1
102
RTVSPost2010Prop42
 90
       50
102
RTVSPost2010PropOp42
 70
     1
102
RTVSPost2010Prop43
 90
        3
102
RTVSPost2010PropOp43
 70
     1
102
RTVSPost2010Prop44ColorIndex
 90
        5
102
RTVSPost2010Prop44ColorRGB
 90
      255
102
RTVSPost2010PropOp44
 70
     1
102
RTVSPost2010Prop45
280
     0
102
RTVSPost2010PropOp45
 70
     1
102
RTVSPost2010Prop46
 90
       50
102
RTVSPost2010PropOp46
 70
     1
102
RTVSPost2010Prop47
 90
       50
102
RTVSPost2010PropOp47
 70
     1
102
RTVSPost2010Prop48
 90
       50
102
RTVSPost2010PropOp48
 70
     1
102
RTVSPost2010Prop49
280
     0
102
RTVSPost2010PropOp49
 70
     1
102
RTVSPost2010Prop50
 90
       50
102
RTVSPost2010PropOp50
 70
     1
102
RTVSPost2010Prop51ColorIndex
 90
      256
102
RTVSPost2010Prop51ColorRGB
 90
-16777216
102
RTVSPost2010PropOp51
 70
     0
102
RTVSPost2010Prop52
140
1.0
102
RTVSPost2010PropOp52
 70
     0
102
RTVSPost2010Prop53
 90
        2
102
RTVSPost2010PropOp53
 70
     1
102
RTVSPost2010Prop54
  1
strokes_ogs.tif
102
RTVSPost2010PropOp54
 70
     1
102
RTVSPost2010Prop55
280
     0
102
RTVSPost2010PropOp55
 70
     1
102
RTVSPost2010Prop56
140
1.0
102
RTVSPost2010PropOp56
 70
     1
102
RTVSPost2010Prop57
140
1.0
102
RTVSPost2010PropOp57
 70
     1
  0
XRECORD
  5
2E2
102
{ACAD_REACTORS
330
2E1
102
}
330
2E1
100
AcDbXrecord
280
     1
102
RTVSPost2010Prop28
280
     0
102
RTVSPost2010PropOp28
 70
     1
102
RTVSPost2010Prop29
280
     1
102
RTVSPost2010PropOp29
 70
     1
102
RTVSPost2010Prop30
280
     1
102
RTVSPost2010PropOp30
 70
     1
102
RTVSPost2010Prop31
280
     0
102
RTVSPost2010PropOp31
 70
     1
102
RTVSPost2010Prop32
280
     0
102
RTVSPost2010PropOp32
 70
     1
102
RTVSPost2010Prop33
280
     0
102
RTVSPost2010PropOp33
 70
     1
102
RTVSPost2010Prop34
280
     0
102
RTVSPost2010PropOp34
 70
     1
102
RTVSPost2010Prop35
280
     0
102
RTVSPost2010PropOp35
 70
     1
102
RTVSPost2010Prop36
280
     0
102
RTVSPost2010PropOp36
 70
     1
102
RTVSPost2010Prop37
 90
       50
102
RTVSPost2010PropOp37
 70
     1
102
RTVSPost2010Prop38
140
0.0
102
RTVSPost2010PropOp38
 70
     1
102
RTVSPost2010Prop39
140
1.0
102
RTVSPost2010PropOp39
 70
     1
102
RTVSPost2010Prop40
 90
        0
102
RTVSPost2010PropOp40
 70
     1
102
RTVSPost2010Prop41ColorIndex
 90
       18
102
RTVSPost2010Prop41ColorRGB
 90
        0
102
RTVSPost2010PropOp41
 70
     1
102
RTVSPost2010Prop42
 90
       50
102
RTVSPost2010PropOp42
 70
     1
102
RTVSPost2010Prop43
 90
        3
102
RTVSPost2010PropOp43
 70
     1
102
RTVSPost2010Prop44ColorIndex
 90
        5
102
RTVSPost2010Prop44ColorRGB
 90
      255
102
RTVSPost2010PropOp44
 70
     1
102
RTVSPost2010Prop45
280
     0
102
RTVSPost2010PropOp45
 70
     1
102
RTVSPost2010Prop46
 90
       50
102
RTVSPost2010PropOp46
 70
     1
102
RTVSPost2010Prop47
 90
       50
102
RTVSPost2010PropOp47
 70
     1
102
RTVSPost2010Prop48
 90
       50
102
RTVSPost2010PropOp48
 70
     1
102
RTVSPost2010Prop49
280
     0
102
RTVSPost2010PropOp49
 70
     1
102
RTVSPost2010Prop50
 90
       50
102
RTVSPost2010PropOp50
 70
     1
102
RTVSPost2010Prop51ColorIndex
 90
      256
102
RTVSPost2010Prop51ColorRGB
 90
-16777216
102
RTVSPost2010PropOp51
 70
     0
102
RTVSPost2010Prop52
140
1.0
102
RTVSPost2010PropOp52
 70
     0
102
RTVSPost2010Prop53
 90
        2
102
RTVSPost2010PropOp53
 70
     1
102
RTVSPost2010Prop54
  1
strokes_ogs.tif
102
RTVSPost2010PropOp54
 70
     1
102
RTVSPost2010Prop55
280
     0
102
RTVSPost2010PropOp55
 70
     1
102
RTVSPost2010Prop56
140
1.0
102
RTVSPost2010PropOp56
 70
     1
102
RTVSPost2010Prop57
140
1.0
102
RTVSPost2010PropOp57
 70
     1
  0
XRECORD
  5
2D6
102
{ACAD_REACTORS
330
2D5
102
}
330
2D5
100
AcDbXrecord
280
     1
102
RTVSPost2010Prop28
280
     0
102
RTVSPost2010PropOp28
 70
     1
102
RTVSPost2010Prop29
280
     1
102
RTVSPost2010PropOp29
 70
     1
102
RTVSPost2010Prop30
280
     1
102
RTVSPost2010PropOp30
 70
     1
102
RTVSPost2010Prop31
280
     0
102
RTVSPost2010PropOp31
 70
     1
102
RTVSPost2010Prop32
280
     0
102
RTVSPost2010PropOp32
 70
     1
102
RTVSPost2010Prop33
280
     0
102
RTVSPost2010PropOp33
 70
     1
102
RTVSPost2010Prop34
280
     0
102
RTVSPost2010PropOp34
 70
     1
102
RTVSPost2010Prop35
280
     0
102
RTVSPost2010PropOp35
 70
     1
102
RTVSPost2010Prop36
280
     0
102
RTVSPost2010PropOp36
 70
     1
102
RTVSPost2010Prop37
 90
       50
102
RTVSPost2010PropOp37
 70
     1
102
RTVSPost2010Prop38
140
0.0
102
RTVSPost2010PropOp38
 70
     1
102
RTVSPost2010Prop39
140
1.0
102
RTVSPost2010PropOp39
 70
     1
102
RTVSPost2010Prop40
 90
        0
102
RTVSPost2010PropOp40
 70
     1
102
RTVSPost2010Prop41ColorIndex
 90
       18
102
RTVSPost2010Prop41ColorRGB
 90
        0
102
RTVSPost2010PropOp41
 70
     1
102
RTVSPost2010Prop42
 90
       50
102
RTVSPost2010PropOp42
 70
     1
102
RTVSPost2010Prop43
 90
        3
102
RTVSPost2010PropOp43
 70
     1
102
RTVSPost2010Prop44ColorIndex
 90
        5
102
RTVSPost2010Prop44ColorRGB
 90
      255
102
RTVSPost2010PropOp44
 70
     1
102
RTVSPost2010Prop45
280
     0
102
RTVSPost2010PropOp45
 70
     1
102
RTVSPost2010Prop46
 90
       50
102
RTVSPost2010PropOp46
 70
     1
102
RTVSPost2010Prop47
 90
       50
102
RTVSPost2010PropOp47
 70
     1
102
RTVSPost2010Prop48
 90
       50
102
RTVSPost2010PropOp48
 70
     1
102
RTVSPost2010Prop49
280
     0
102
RTVSPost2010PropOp49
 70
     1
102
RTVSPost2010Prop50
 90
       50
102
RTVSPost2010PropOp50
 70
     1
102
RTVSPost2010Prop51ColorIndex
 90
      256
102
RTVSPost2010Prop51ColorRGB
 90
-16777216
102
RTVSPost2010PropOp51
 70
     0
102
RTVSPost2010Prop52
140
1.0
102
RTVSPost2010PropOp52
 70
     0
102
RTVSPost2010Prop53
 90
        2
102
RTVSPost2010PropOp53
 70
     1
102
RTVSPost2010Prop54
  1
strokes_ogs.tif
102
RTVSPost2010PropOp54
 70
     1
102
RTVSPost2010Prop55
280
     0
102
RTVSPost2010PropOp55
 70
     1
102
RTVSPost2010Prop56
140
1.0
102
RTVSPost2010PropOp56
 70
     1
102
RTVSPost2010Prop57
140
1.0
102
RTVSPost2010PropOp57
 70
     1
  0
XRECORD
  5
2EE
102
{ACAD_REACTORS
330
2ED
102
}
330
2ED
100
AcDbXrecord
280
     1
102
RTVSPost2010Prop28
280
     0
102
RTVSPost2010PropOp28
 70
     1
102
RTVSPost2010Prop29
280
     1
102
RTVSPost2010PropOp29
 70
     1
102
RTVSPost2010Prop30
280
     1
102
RTVSPost2010PropOp30
 70
     1
102
RTVSPost2010Prop31
280
     0
102
RTVSPost2010PropOp31
 70
     1
102
RTVSPost2010Prop32
280
     0
102
RTVSPost2010PropOp32
 70
     1
102
RTVSPost2010Prop33
280
     0
102
RTVSPost2010PropOp33
 70
     1
102
RTVSPost2010Prop34
280
     0
102
RTVSPost2010PropOp34
 70
     1
102
RTVSPost2010Prop35
280
     0
102
RTVSPost2010PropOp35
 70
     1
102
RTVSPost2010Prop36
280
     0
102
RTVSPost2010PropOp36
 70
     1
102
RTVSPost2010Prop37
 90
       50
102
RTVSPost2010PropOp37
 70
     1
102
RTVSPost2010Prop38
140
0.0
102
RTVSPost2010PropOp38
 70
     1
102
RTVSPost2010Prop39
140
1.0
102
RTVSPost2010PropOp39
 70
     1
102
RTVSPost2010Prop40
 90
        0
102
RTVSPost2010PropOp40
 70
     1
102
RTVSPost2010Prop41ColorIndex
 90
       18
102
RTVSPost2010Prop41ColorRGB
 90
        0
102
RTVSPost2010PropOp41
 70
     1
102
RTVSPost2010Prop42
 90
       50
102
RTVSPost2010PropOp42
 70
     1
102
RTVSPost2010Prop43
 90
        3
102
RTVSPost2010PropOp43
 70
     1
102
RTVSPost2010Prop44ColorIndex
 90
        5
102
RTVSPost2010Prop44ColorRGB
 90
      255
102
RTVSPost2010PropOp44
 70
     1
102
RTVSPost2010Prop45
280
     0
102
RTVSPost2010PropOp45
 70
     1
102
RTVSPost2010Prop46
 90
       50
102
RTVSPost2010PropOp46
 70
     1
102
RTVSPost2010Prop47
 90
       50
102
RTVSPost2010PropOp47
 70
     1
102
RTVSPost2010Prop48
 90
       50
102
RTVSPost2010PropOp48
 70
     1
102
RTVSPost2010Prop49
280
     0
102
RTVSPost2010PropOp49
 70
     1
102
RTVSPost2010Prop50
 90
       50
102
RTVSPost2010PropOp50
 70
     1
102
RTVSPost2010Prop51ColorIndex
 90
      256
102
RTVSPost2010Prop51ColorRGB
 90
-16777216
102
RTVSPost2010PropOp51
 70
     0
102
RTVSPost2010Prop52
140
1.0
102
RTVSPost2010PropOp52
 70
     0
102
RTVSPost2010Prop53
 90
        2
102
RTVSPost2010PropOp53
 70
     1
102
RTVSPost2010Prop54
  1
strokes_ogs.tif
102
RTVSPost2010PropOp54
 70
     1
102
RTVSPost2010Prop55
280
     0
102
RTVSPost2010PropOp55
 70
     1
102
RTVSPost2010Prop56
140
1.0
102
RTVSPost2010PropOp56
 70
     1
102
RTVSPost2010Prop57
140
1.0
102
RTVSPost2010PropOp57
 70
     1
  0
ENDSEC
  0
EOF
