  0
SECTION
  2
HEADER
  9
$ACADVER
  1
AC1024
  9
$ACADMAINTVER
 70
   205
  9
$DWGCODEPAGE
  3
ANSI_1252
  9
$LASTSAVEDBY
  1
kaschu
  9
$INSBASE
 10
0.0
 20
0.0
 30
0.0
  9
$EXTMIN
 10
84.39436215138675
 20
60.12871174934026
 30
0.0
  9
$EXTMAX
 10
526.6954457687496
 20
341.5421209960275
 30
0.0
  9
$LIMMIN
 10
0.0
 20
0.0
  9
$LIMMAX
 10
420.0
 20
297.0
  9
$ORTHOMODE
 70
     0
  9
$REGENMODE
 70
     1
  9
$FILLMODE
 70
     1
  9
$QTEXTMODE
 70
     0
  9
$MIRRTEXT
 70
     0
  9
$LTSCALE
 40
1.0
  9
$ATTMODE
 70
     1
  9
$TEXTSIZE
 40
2.5
  9
$TRACEWID
 40
1.0
  9
$TEXTSTYLE
  7
Standard
  9
$CLAYER
  8
0
  9
$CELTYPE
  6
ByLayer
  9
$CECOLOR
 62
   256
  9
$CELTSCALE
 40
1.0
  9
$DISPSILH
 70
     0
  9
$DIMSCALE
 40
1.0
  9
$DIMASZ
 40
2.5
  9
$DIMEXO
 40
0.625
  9
$DIMDLI
 40
3.75
  9
$DIMRND
 40
0.0
  9
$DIMDLE
 40
0.0
  9
$DIMEXE
 40
1.25
  9
$DIMTP
 40
0.0
  9
$DIMTM
 40
0.0
  9
$DIMTXT
 40
2.5
  9
$DIMCEN
 40
2.5
  9
$DIMTSZ
 40
0.0
  9
$DIMTOL
 70
     0
  9
$DIMLIM
 70
     0
  9
$DIMTIH
 70
     0
  9
$DIMTOH
 70
     0
  9
$DIMSE1
 70
     0
  9
$DIMSE2
 70
     0
  9
$DIMTAD
 70
     1
  9
$DIMZIN
 70
     8
  9
$DIMBLK
  1

  9
$DIMASO
 70
     1
  9
$DIMSHO
 70
     1
  9
$DIMPOST
  1

  9
$DIMAPOST
  1

  9
$DIMALT
 70
     0
  9
$DIMALTD
 70
     3
  9
$DIMALTF
 40
0.03937007874016
  9
$DIMLFAC
 40
1.0
  9
$DIMTOFL
 70
     1
  9
$DIMTVP
 40
0.0
  9
$DIMTIX
 70
     0
  9
$DIMSOXD
 70
     0
  9
$DIMSAH
 70
     0
  9
$DIMBLK1
  1

  9
$DIMBLK2
  1

  9
$DIMSTYLE
  2
ISO-25
  9
$DIMCLRD
 70
     0
  9
$DIMCLRE
 70
     0
  9
$DIMCLRT
 70
     0
  9
$DIMTFAC
 40
1.0
  9
$DIMGAP
 40
0.625
  9
$DIMJUST
 70
     0
  9
$DIMSD1
 70
     0
  9
$DIMSD2
 70
     0
  9
$DIMTOLJ
 70
     0
  9
$DIMTZIN
 70
     8
  9
$DIMALTZ
 70
     0
  9
$DIMALTTZ
 70
     0
  9
$DIMUPT
 70
     0
  9
$DIMDEC
 70
     2
  9
$DIMTDEC
 70
     2
  9
$DIMALTU
 70
     2
  9
$DIMALTTD
 70
     3
  9
$DIMTXSTY
  7
Standard
  9
$DIMAUNIT
 70
     0
  9
$DIMADEC
 70
     0
  9
$DIMALTRND
 40
0.0
  9
$DIMAZIN
 70
     0
  9
$DIMDSEP
 70
    44
  9
$DIMATFIT
 70
     3
  9
$DIMFRAC
 70
     0
  9
$DIMLDRBLK
  1

  9
$DIMLUNIT
 70
     2
  9
$DIMLWD
 70
    -2
  9
$DIMLWE
 70
    -2
  9
$DIMTMOVE
 70
     0
  9
$DIMFXL
 40
1.0
  9
$DIMFXLON
 70
     0
  9
$DIMJOGANG
 40
0.7853981633974483
  9
$DIMTFILL
 70
     0
  9
$DIMTFILLCLR
 70
     0
  9
$DIMARCSYM
 70
     0
  9
$DIMLTYPE
  6

  9
$DIMLTEX1
  6

  9
$DIMLTEX2
  6

  9
$DIMTXTDIRECTION
 70
     0
  9
$LUNITS
 70
     2
  9
$LUPREC
 70
     4
  9
$SKETCHINC
 40
1.0
  9
$FILLETRAD
 40
0.0
  9
$AUNITS
 70
     0
  9
$AUPREC
 70
     0
  9
$MENU
  1
.
  9
$ELEVATION
 40
0.0
  9
$PELEVATION
 40
0.0
  9
$THICKNESS
 40
0.0
  9
$LIMCHECK
 70
     0
  9
$CHAMFERA
 40
0.0
  9
$CHAMFERB
 40
0.0
  9
$CHAMFERC
 40
0.0
  9
$CHAMFERD
 40
0.0
  9
$SKPOLY
 70
     0
  9
$TDCREATE
 40
2454768.552548658
  9
$TDUCREATE
 40
2454768.469215324
  9
$TDUPDATE
 40
2458417.685708114
  9
$TDUUPDATE
 40
2458417.602374780
  9
$TDINDWG
 40
0.0641707407
  9
$TDUSRTIMER
 40
0.0641697106
  9
$USRTIMER
 70
     1
  9
$ANGBASE
 50
0.0
  9
$ANGDIR
 70
     0
  9
$PDMODE
 70
     0
  9
$PDSIZE
 40
0.0
  9
$PLINEWID
 40
0.0
  9
$SPLFRAME
 70
     0
  9
$SPLINETYPE
 70
     6
  9
$SPLINESEGS
 70
     8
  9
$HANDSEED
  5
19C4
  9
$SURFTAB1
 70
     6
  9
$SURFTAB2
 70
     6
  9
$SURFTYPE
 70
     6
  9
$SURFU
 70
     6
  9
$SURFV
 70
     6
  9
$UCSBASE
  2

  9
$UCSNAME
  2

  9
$UCSORG
 10
0.0
 20
0.0
 30
0.0
  9
$UCSXDIR
 10
1.0
 20
0.0
 30
0.0
  9
$UCSYDIR
 10
0.0
 20
1.0
 30
0.0
  9
$UCSORTHOREF
  2

  9
$UCSORTHOVIEW
 70
     0
  9
$UCSORGTOP
 10
0.0
 20
0.0
 30
0.0
  9
$UCSORGBOTTOM
 10
0.0
 20
0.0
 30
0.0
  9
$UCSORGLEFT
 10
0.0
 20
0.0
 30
0.0
  9
$UCSORGRIGHT
 10
0.0
 20
0.0
 30
0.0
  9
$UCSORGFRONT
 10
0.0
 20
0.0
 30
0.0
  9
$UCSORGBACK
 10
0.0
 20
0.0
 30
0.0
  9
$PUCSBASE
  2

  9
$PUCSNAME
  2

  9
$PUCSORG
 10
0.0
 20
0.0
 30
0.0
  9
$PUCSXDIR
 10
1.0
 20
0.0
 30
0.0
  9
$PUCSYDIR
 10
0.0
 20
1.0
 30
0.0
  9
$PUCSORTHOREF
  2

  9
$PUCSORTHOVIEW
 70
     0
  9
$PUCSORGTOP
 10
0.0
 20
0.0
 30
0.0
  9
$PUCSORGBOTTOM
 10
0.0
 20
0.0
 30
0.0
  9
$PUCSORGLEFT
 10
0.0
 20
0.0
 30
0.0
  9
$PUCSORGRIGHT
 10
0.0
 20
0.0
 30
0.0
  9
$PUCSORGFRONT
 10
0.0
 20
0.0
 30
0.0
  9
$PUCSORGBACK
 10
0.0
 20
0.0
 30
0.0
  9
$USERI1
 70
     0
  9
$USERI2
 70
     0
  9
$USERI3
 70
     0
  9
$USERI4
 70
     0
  9
$USERI5
 70
     0
  9
$USERR1
 40
0.0
  9
$USERR2
 40
0.0
  9
$USERR3
 40
0.0
  9
$USERR4
 40
0.0
  9
$USERR5
 40
0.0
  9
$WORLDVIEW
 70
     1
  9
$SHADEDGE
 70
     3
  9
$SHADEDIF
 70
    70
  9
$TILEMODE
 70
     1
  9
$MAXACTVP
 70
    64
  9
$PINSBASE
 10
0.0
 20
0.0
 30
0.0
  9
$PLIMCHECK
 70
     0
  9
$PEXTMIN
 10
0.0
 20
0.0
 30
0.0
  9
$PEXTMAX
 10
0.0
 20
0.0
 30
0.0
  9
$PLIMMIN
 10
0.0
 20
0.0
  9
$PLIMMAX
 10
12.0
 20
9.0
  9
$UNITMODE
 70
     0
  9
$VISRETAIN
 70
     1
  9
$PLINEGEN
 70
     0
  9
$PSLTSCALE
 70
     1
  9
$TREEDEPTH
 70
  3020
  9
$CMLSTYLE
  2
Standard
  9
$CMLJUST
 70
     0
  9
$CMLSCALE
 40
20.0
  9
$PROXYGRAPHICS
 70
     1
  9
$MEASUREMENT
 70
     1
  9
$CELWEIGHT
370
    -1
  9
$ENDCAPS
280
     0
  9
$JOINSTYLE
280
     0
  9
$LWDISPLAY
290
     0
  9
$INSUNITS
 70
     4
  9
$HYPERLINKBASE
  1

  9
$STYLESHEET
  1

  9
$XEDIT
290
     1
  9
$CEPSNTYPE
380
     0
  9
$PSTYLEMODE
290
     1
  9
$FINGERPRINTGUID
  2
{A9F5D530-972F-4813-857A-78B9B08CAD27}
  9
$VERSIONGUID
  2
{F449B34E-8DF6-4047-9A06-BE35F5A9414A}
  9
$EXTNAMES
290
     1
  9
$PSVPSCALE
 40
0.0
  9
$OLESTARTUP
290
     0
  9
$SORTENTS
280
   127
  9
$INDEXCTL
280
     0
  9
$HIDETEXT
280
     1
  9
$XCLIPFRAME
280
     2
  9
$HALOGAP
280
     0
  9
$OBSCOLOR
 70
   257
  9
$OBSLTYPE
280
     0
  9
$INTERSECTIONDISPLAY
280
     0
  9
$INTERSECTIONCOLOR
 70
   257
  9
$DIMASSOC
280
     2
  9
$PROJECTNAME
  1

  9
$CAMERADISPLAY
290
     0
  9
$LENSLENGTH
 40
50.0
  9
$CAMERAHEIGHT
 40
0.0
  9
$STEPSPERSEC
 40
2.0
  9
$STEPSIZE
 40
6.0
  9
$3DDWFPREC
 40
2.0
  9
$PSOLWIDTH
 40
5.0
  9
$PSOLHEIGHT
 40
80.0
  9
$LOFTANG1
 40
1.570796326794896
  9
$LOFTANG2
 40
1.570796326794896
  9
$LOFTMAG1
 40
0.0
  9
$LOFTMAG2
 40
0.0
  9
$LOFTPARAM
 70
     7
  9
$LOFTNORMALS
280
     1
  9
$LATITUDE
 40
37.795
  9
$LONGITUDE
 40
-122.394
  9
$NORTHDIRECTION
 40
0.0
  9
$TIMEZONE
 70
 -8000
  9
$LIGHTGLYPHDISPLAY
280
     1
  9
$TILEMODELIGHTSYNCH
280
     1
  9
$CMATERIAL
347
EC
  9
$SOLIDHIST
280
     0
  9
$SHOWHIST
280
     1
  9
$DWFFRAME
280
     2
  9
$DGNFRAME
280
     0
  9
$REALWORLDSCALE
290
     1
  9
$INTERFERECOLOR
 62
     1
  9
$INTERFEREOBJVS
345
F9
  9
$INTERFEREVPVS
346
D7C
  9
$CSHADOW
280
     0
  9
$SHADOWPLANELOCATION
 40
0.0
  0
ENDSEC
  0
SECTION
  2
CLASSES
  0
CLASS
  1
ACDBDICTIONARYWDFLT
  2
AcDbDictionaryWithDefault
  3
ObjectDBX Classes
 90
        0
 91
        1
280
     0
281
     0
  0
CLASS
  1
DICTIONARYVAR
  2
AcDbDictionaryVar
  3
ObjectDBX Classes
 90
        0
 91
       13
280
     0
281
     0
  0
CLASS
  1
TABLESTYLE
  2
AcDbTableStyle
  3
ObjectDBX Classes
 90
     4095
 91
        1
280
     0
281
     0
  0
CLASS
  1
MATERIAL
  2
AcDbMaterial
  3
ObjectDBX Classes
 90
     1153
 91
        3
280
     0
281
     0
  0
CLASS
  1
VISUALSTYLE
  2
AcDbVisualStyle
  3
ObjectDBX Classes
 90
     4095
 91
       26
280
     0
281
     0
  0
CLASS
  1
SORTENTSTABLE
  2
AcDbSortentsTable
  3
ObjectDBX Classes
 90
        0
 91
        1
280
     0
281
     0
  0
CLASS
  1
DIMASSOC
  2
AcDbDimAssoc
  3
"AcDbDimAssoc|Product Desc:     AcDim ARX App For Dimension|Company:          Autodesk, Inc.|WEB Address:      www.autodesk.com"
 90
        0
 91
        0
280
     0
281
     0
  0
CLASS
  1
SCALE
  2
AcDbScale
  3
ObjectDBX Classes
 90
     1153
 91
       17
280
     0
281
     0
  0
CLASS
  1
MLEADERSTYLE
  2
AcDbMLeaderStyle
  3
ACDB_MLEADERSTYLE_CLASS
 90
     4095
 91
        1
280
     0
281
     0
  0
CLASS
  1
ACDBSECTIONVIEWSTYLE
  2
AcDbSectionViewStyle
  3
ObjectDBX Classes
 90
     1025
 91
        2
280
     0
281
     0
  0
CLASS
  1
ACDBDETAILVIEWSTYLE
  2
AcDbDetailViewStyle
  3
ObjectDBX Classes
 90
     1025
 91
        2
280
     0
281
     0
  0
CLASS
  1
CELLSTYLEMAP
  2
AcDbCellStyleMap
  3
ObjectDBX Classes
 90
     1152
 91
        3
280
     0
281
     0
  0
ENDSEC
  0
SECTION
  2
TABLES
  0
TABLE
  2
VPORT
  5
8
330
0
100
AcDbSymbolTable
 70
     1
  0
VPORT
  5
EA
330
8
100
AcDbSymbolTableRecord
100
AcDbViewportTableRecord
  2
*Active
 70
     0
 10
0.0
 20
0.0
 11
1.0
 21
1.0
 12
232.4118941056668
 22
213.8822506663645
 13
0.0
 23
0.0
 14
10.0
 24
10.0
 15
10.0
 25
10.0
 16
0.0
 26
0.0
 36
1.0
 17
0.0
 27
0.0
 37
0.0
 40
603.3077696931594
 41
2.250340136054421
 42
50.0
 43
0.0
 44
0.0
 50
0.0
 51
0.0
 71
     0
 72
  1000
 73
     1
 74
     3
 75
     0
 76
     0
 77
     0
 78
     0
281
     0
 65
     1
110
0.0
120
0.0
130
0.0
111
1.0
121
0.0
131
0.0
112
0.0
122
1.0
132
0.0
 79
     0
146
0.0
348
F5
 60
     3
 61
     5
292
     1
282
     1
141
0.0
142
0.0
 63
   250
421
  3355443
1001
ACAD_NAV_VCDISPLAY
1070
     3
  0
ENDTAB
  0
TABLE
  2
LTYPE
  5
5
330
0
100
AcDbSymbolTable
 70
     2
  0
LTYPE
  5
14
330
5
100
AcDbSymbolTableRecord
100
AcDbLinetypeTableRecord
  2
ByBlock
 70
     0
  3

 72
    65
 73
     0
 40
0.0
  0
LTYPE
  5
15
330
5
100
AcDbSymbolTableRecord
100
AcDbLinetypeTableRecord
  2
ByLayer
 70
     0
  3

 72
    65
 73
     0
 40
0.0
  0
LTYPE
  5
16
330
5
100
AcDbSymbolTableRecord
100
AcDbLinetypeTableRecord
  2
Continuous
 70
     0
  3
Solid line
 72
    65
 73
     0
 40
0.0
  0
LTYPE
  5
145D
330
5
100
AcDbSymbolTableRecord
100
AcDbLinetypeTableRecord
  2
STANDARD
 70
     0
  3

 72
    65
 73
     0
 40
0.0
  0
ENDTAB
  0
TABLE
  2
LAYER
  5
2
102
{ACAD_XDICTIONARY
360
141
102
}
330
0
100
AcDbSymbolTable
 70
     4
  0
LAYER
  5
10
102
{ACAD_XDICTIONARY
360
DA1
102
}
330
2
100
AcDbSymbolTableRecord
100
AcDbLayerTableRecord
  2
0
 70
     0
 62
     7
  6
Continuous
370
    -3
390
F
347
EE
  0
LAYER
  5
124
330
2
100
AcDbSymbolTableRecord
100
AcDbLayerTableRecord
  2
Defpoints
 70
     0
 62
     7
  6
Continuous
290
     0
370
    -3
390
F
347
EE
  0
LAYER
  5
13E
102
{ACAD_XDICTIONARY
360
DA3
102
}
330
2
100
AcDbSymbolTableRecord
100
AcDbLayerTableRecord
  2
Hewi
 70
     0
 62
     7
  6
Continuous
370
    -3
390
F
347
EE
  0
LAYER
  5
145E
102
{ACAD_XDICTIONARY
360
145F
102
}
330
2
100
AcDbSymbolTableRecord
100
AcDbLayerTableRecord
  2
BEMA_UNG
 70
     0
 62
   171
  6
Continuous
370
    -3
390
F
347
EE
  0
ENDTAB
  0
TABLE
  2
STYLE
  5
3
330
0
100
AcDbSymbolTable
 70
     1
  0
STYLE
  5
11
330
3
100
AcDbSymbolTableRecord
100
AcDbTextStyleTableRecord
  2
Standard
 70
     0
 40
0.0
 41
1.0
 50
0.0
 71
     0
 42
2.5
  3
txt
  4

  0
ENDTAB
  0
TABLE
  2
VIEW
  5
6
330
0
100
AcDbSymbolTable
 70
     1
  0
ENDTAB
  0
TABLE
  2
UCS
  5
7
330
0
100
AcDbSymbolTable
 70
     0
  0
ENDTAB
  0
TABLE
  2
APPID
  5
9
330
0
100
AcDbSymbolTable
 70
     8
  0
APPID
  5
12
330
9
100
AcDbSymbolTableRecord
100
AcDbRegAppTableRecord
  2
ACAD
 70
     0
  0
APPID
  5
9E
330
9
100
AcDbSymbolTableRecord
100
AcDbRegAppTableRecord
  2
ACAD_PSEXT
 70
     0
  0
APPID
  5
212
330
9
100
AcDbSymbolTableRecord
100
AcDbRegAppTableRecord
  2
ACAD_EXEMPT_FROM_CAD_STANDARDS
 70
     0
  0
APPID
  5
7EB
330
9
100
AcDbSymbolTableRecord
100
AcDbRegAppTableRecord
  2
DCO15
 70
     0
  0
APPID
  5
DA5
330
9
100
AcDbSymbolTableRecord
100
AcDbRegAppTableRecord
  2
ACAD_NAV_VCDISPLAY
 70
     0
  0
APPID
  5
DE6
330
9
100
AcDbSymbolTableRecord
100
AcDbRegAppTableRecord
  2
ACAD_DSTYLE_DIMRADIAL_EXTENSION
 70
     0
  0
APPID
  5
E40
330
9
100
AcDbSymbolTableRecord
100
AcDbRegAppTableRecord
  2
ACAD_MLEADERVER
 70
     0
  0
APPID
  5
FDA
330
9
100
AcDbSymbolTableRecord
100
AcDbRegAppTableRecord
  2
AcAecLayerStandard
 70
     0
  0
ENDTAB
  0
TABLE
  2
DIMSTYLE
  5
A
330
0
100
AcDbSymbolTable
 70
     2
100
AcDbDimStyleTable
 71
     1
340
27
  0
DIMSTYLE
105
27
330
A
100
AcDbSymbolTableRecord
100
AcDbDimStyleTableRecord
  2
ISO-25
 70
     0
 41
2.5
 42
0.625
 43
3.75
 44
1.25
 73
     0
 74
     0
 77
     1
 78
     8
140
2.5
141
2.5
143
0.03937007874016
147
0.625
171
     3
172
     1
271
     2
272
     2
274
     3
278
    44
283
     0
284
     8
340
11
  0
DIMSTYLE
105
254
330
A
100
AcDbSymbolTableRecord
100
AcDbDimStyleTableRecord
  2
Standard
 70
     0
340
11
  0
ENDTAB
  0
TABLE
  2
BLOCK_RECORD
  5
1
330
0
100
AcDbSymbolTable
 70
    22
  0
BLOCK_RECORD
  5
1F
102
{ACAD_XDICTIONARY
360
116
102
}
330
1
100
AcDbSymbolTableRecord
100
AcDbBlockTableRecord
  2
*Model_Space
340
22
 70
     0
280
     1
281
     0
  0
BLOCK_RECORD
  5
D2
330
1
100
AcDbSymbolTableRecord
100
AcDbBlockTableRecord
  2
*Paper_Space
340
D3
 70
     0
280
     1
281
     0
  0
BLOCK_RECORD
  5
D6
330
1
100
AcDbSymbolTableRecord
100
AcDbBlockTableRecord
  2
*Paper_Space0
340
D7
 70
     0
280
     1
281
     0
  0
BLOCK_RECORD
  5
DE8
330
1
100
AcDbSymbolTableRecord
100
AcDbBlockTableRecord
  2
*D1
340
0
 70
     0
280
     1
281
     0
  0
BLOCK_RECORD
  5
E48
330
1
100
AcDbSymbolTableRecord
100
AcDbBlockTableRecord
  2
*D2
340
0
 70
     0
280
     1
281
     0
  0
BLOCK_RECORD
  5
EB2
330
1
100
AcDbSymbolTableRecord
100
AcDbBlockTableRecord
  2
*D3
340
0
 70
     0
280
     1
281
     0
  0
BLOCK_RECORD
  5
ECA
330
1
100
AcDbSymbolTableRecord
100
AcDbBlockTableRecord
  2
*D4
340
0
 70
     0
280
     1
281
     0
  0
BLOCK_RECORD
  5
EE3
330
1
100
AcDbSymbolTableRecord
100
AcDbBlockTableRecord
  2
*D5
340
0
 70
     0
280
     1
281
     0
  0
BLOCK_RECORD
  5
EFB
330
1
100
AcDbSymbolTableRecord
100
AcDbBlockTableRecord
  2
*D6
340
0
 70
     0
280
     1
281
     0
  0
BLOCK_RECORD
  5
F1E
330
1
100
AcDbSymbolTableRecord
100
AcDbBlockTableRecord
  2
*D7
340
0
 70
     0
280
     1
281
     0
  0
BLOCK_RECORD
  5
F44
330
1
100
AcDbSymbolTableRecord
100
AcDbBlockTableRecord
  2
*D8
340
0
 70
     0
280
     1
281
     0
  0
BLOCK_RECORD
  5
10C4
330
1
100
AcDbSymbolTableRecord
100
AcDbBlockTableRecord
  2
*D9
340
0
 70
     0
280
     1
281
     0
  0
BLOCK_RECORD
  5
10F8
330
1
100
AcDbSymbolTableRecord
100
AcDbBlockTableRecord
  2
*D10
340
0
 70
     0
280
     1
281
     0
  0
BLOCK_RECORD
  5
1110
330
1
100
AcDbSymbolTableRecord
100
AcDbBlockTableRecord
  2
*D11
340
0
 70
     0
280
     1
281
     0
  0
BLOCK_RECORD
  5
1131
330
1
100
AcDbSymbolTableRecord
100
AcDbBlockTableRecord
  2
*D12
340
0
 70
     0
280
     1
281
     0
  0
BLOCK_RECORD
  5
114E
330
1
100
AcDbSymbolTableRecord
100
AcDbBlockTableRecord
  2
*D13
340
0
 70
     0
280
     1
281
     0
  0
BLOCK_RECORD
  5
11DE
330
1
100
AcDbSymbolTableRecord
100
AcDbBlockTableRecord
  2
*D14
340
0
 70
     0
280
     1
281
     0
  0
BLOCK_RECORD
  5
124B
330
1
100
AcDbSymbolTableRecord
100
AcDbBlockTableRecord
  2
*D15
340
0
 70
     0
280
     1
281
     0
  0
BLOCK_RECORD
  5
1258
330
1
100
AcDbSymbolTableRecord
100
AcDbBlockTableRecord
  2
*D16
340
0
 70
     0
280
     1
281
     0
  0
BLOCK_RECORD
  5
1265
330
1
100
AcDbSymbolTableRecord
100
AcDbBlockTableRecord
  2
*D17
340
0
 70
     0
280
     1
281
     0
  0
BLOCK_RECORD
  5
1272
330
1
100
AcDbSymbolTableRecord
100
AcDbBlockTableRecord
  2
*D18
340
0
 70
     0
280
     1
281
     0
  0
BLOCK_RECORD
  5
1281
330
1
100
AcDbSymbolTableRecord
100
AcDbBlockTableRecord
  2
*D19
340
0
 70
     0
280
     1
281
     0
  0
BLOCK_RECORD
  5
128E
330
1
100
AcDbSymbolTableRecord
100
AcDbBlockTableRecord
  2
*D20
340
0
 70
     0
280
     1
281
     0
  0
BLOCK_RECORD
  5
12A9
330
1
100
AcDbSymbolTableRecord
100
AcDbBlockTableRecord
  2
*D21
340
0
 70
     0
280
     1
281
     0
  0
ENDTAB
  0
ENDSEC
  0
SECTION
  2
BLOCKS
  0
BLOCK
  5
20
330
1F
100
AcDbEntity
  8
0
100
AcDbBlockBegin
  2
*Model_Space
 70
     0
 10
0.0
 20
0.0
 30
0.0
  3
*Model_Space
  1

  0
ENDBLK
  5
21
330
1F
100
AcDbEntity
  8
0
100
AcDbBlockEnd
  0
BLOCK
  5
D4
330
D2
100
AcDbEntity
 67
     1
  8
0
100
AcDbBlockBegin
  2
*Paper_Space
 70
     0
 10
0.0
 20
0.0
 30
0.0
  3
*Paper_Space
  1

  0
ENDBLK
  5
D5
330
D2
100
AcDbEntity
 67
     1
  8
0
100
AcDbBlockEnd
  0
BLOCK
  5
D8
330
D6
100
AcDbEntity
 67
     1
  8
0
100
AcDbBlockBegin
  2
*Paper_Space0
 70
     0
 10
0.0
 20
0.0
 30
0.0
  3
*Paper_Space0
  1

  0
ENDBLK
  5
D9
330
D6
100
AcDbEntity
 67
     1
  8
0
100
AcDbBlockEnd
  0
BLOCK
  5
DE9
330
DE8
100
AcDbEntity
  8
0
100
AcDbBlockBegin
  2
*D1
 70
     1
 10
0.0
 20
0.0
 30
0.0
  3
*D1
  1

  0
LINE
  5
DF4
330
DE8
100
AcDbEntity
  8
0
 62
     0
370
    -2
100
AcDbLine
 10
187.6342105092373
 20
471.7195004685835
 30
0.0
 11
176.8555985505289
 21
470.6320100756614
 31
0.0
  0
LINE
  5
DF5
330
DE8
100
AcDbEntity
  8
0
 62
     0
370
    -2
100
AcDbLine
 10
165.8116669128368
 20
469.517750688452
 30
0.0
 11
163.3242949223656
 21
469.2667913670081
 31
0.0
  0
MTEXT
  5
DF6
102
{ACAD_XDICTIONARY
360
E41
102
}
330
DE8
100
AcDbEntity
  8
0
 62
     0
100
AcDbMText
 10
183.279457757249
 20
473.3740449249037
 30
0.0
 40
2.5
 41
0.0
 46
0.0
 71
     5
 72
     1
  1
∅6,1
 11
0.9949487961884731
 21
0.1003837285774353
 31
0.0
 73
     1
 44
1.0
1001
ACAD
1000
MTEXTBEGIN
1070
    73
1070
     1
1070
    44
1040
1.0
1070
    74
1070
     0
1000
MTEXTEND
  0
LINE
  5
DF7
330
DE8
100
AcDbEntity
  8
0
 62
     0
370
    -2
100
AcDbLine
 10
168.299038903308
 20
469.7687100098955
 30
0.0
 11
174.3682265600576
 21
470.3810507542179
 31
0.0
  0
SOLID
  5
DF8
330
DE8
100
AcDbEntity
  8
0
 62
     0
100
AcDbTrace
 10
165.7698403592629
 20
469.9323126868637
 30
0.0
 11
165.8534934664108
 21
469.10318869004
 31
0.0
 12
168.299038903308
 22
469.7687100098955
 32
0.0
 13
168.299038903308
 23
469.7687100098955
 33
0.0
  0
SOLID
  5
DF9
330
DE8
100
AcDbEntity
  8
0
 62
     0
100
AcDbTrace
 10
176.8137719969549
 20
471.0465720740734
 30
0.0
 11
176.8974251041028
 21
470.2174480772496
 31
0.0
 12
174.3682265600576
 22
470.3810507542179
 32
0.0
 13
174.3682265600576
 23
470.3810507542179
 33
0.0
  0
POINT
  5
DFA
330
DE8
100
AcDbEntity
  8
Defpoints
 62
     0
100
AcDbPoint
 10
174.3682265600576
 20
470.3810507542179
 30
0.0
  0
POINT
  5
DFB
330
DE8
100
AcDbEntity
  8
Defpoints
 62
     0
100
AcDbPoint
 10
168.299038903308
 20
469.7687100098955
 30
0.0
  0
ENDBLK
  5
DEA
330
DE8
100
AcDbEntity
  8
0
100
AcDbBlockEnd
  0
BLOCK
  5
E49
330
E48
100
AcDbEntity
  8
0
100
AcDbBlockBegin
  2
*D2
 70
     1
 10
0.0
 20
0.0
 30
0.0
  3
*D2
  1

  0
LINE
  5
E57
330
E48
100
AcDbEntity
  8
0
 62
     0
370
    -2
100
AcDbLine
 10
164.2525090131421
 20
167.0159983088332
 30
0.0
 11
168.1797341034287
 21
167.0159983088332
 31
0.0
  0
LINE
  5
E58
330
E48
100
AcDbEntity
  8
0
 62
     0
370
    -2
100
AcDbLine
 10
164.2525090131421
 20
166.0119782598065
 30
0.0
 11
168.1797341034287
 21
166.0119782598065
 31
0.0
  0
LINE
  5
E59
330
E48
100
AcDbEntity
  8
0
 62
     0
370
    -2
100
AcDbLine
 10
166.9297341034287
 20
169.5159983088332
 30
0.0
 11
166.9297341034287
 21
172.0159983088332
 31
0.0
  0
LINE
  5
E5A
330
E48
100
AcDbEntity
  8
0
 62
     0
370
    -2
100
AcDbLine
 10
166.9297341034287
 20
163.5119782598065
 30
0.0
 11
166.9297341034287
 21
158.9286449264731
 31
0.0
  0
LINE
  5
E5B
330
E48
100
AcDbEntity
  8
0
 62
     0
370
    -2
100
AcDbLine
 10
166.9297341034287
 20
167.0159983088332
 30
0.0
 11
166.9297341034287
 21
166.0119782598065
 31
0.0
  0
SOLID
  5
E5C
330
E48
100
AcDbEntity
  8
0
 62
     0
100
AcDbTrace
 10
166.513067436762
 20
169.5159983088332
 30
0.0
 11
167.3464007700953
 21
169.5159983088332
 31
0.0
 12
166.9297341034287
 22
167.0159983088332
 32
0.0
 13
166.9297341034287
 23
167.0159983088332
 33
0.0
  0
SOLID
  5
E5D
330
E48
100
AcDbEntity
  8
0
 62
     0
100
AcDbTrace
 10
166.513067436762
 20
163.5119782598065
 30
0.0
 11
167.3464007700953
 21
163.5119782598065
 31
0.0
 12
166.9297341034287
 22
166.0119782598065
 32
0.0
 13
166.9297341034287
 23
166.0119782598065
 33
0.0
  0
MTEXT
  5
E5E
330
E48
100
AcDbEntity
  8
0
 62
     0
100
AcDbMText
 10
165.0547341034287
 20
159.9703115931399
 30
0.0
 40
2.5
 41
0.0
 46
0.0
 71
     5
 72
     1
  1
1
 11
0.0000000000000001
 21
1.0
 31
0.0
 73
     1
 44
1.0
1001
ACAD
1000
MTEXTBEGIN
1070
    73
1070
     1
1070
    44
1040
1.0
1070
    74
1070
     0
1000
MTEXTEND
  0
POINT
  5
E5F
330
E48
100
AcDbEntity
  8
Defpoints
 62
     0
100
AcDbPoint
 10
163.6275090131421
 20
167.0159983088332
 30
0.0
  0
POINT
  5
E60
330
E48
100
AcDbEntity
  8
Defpoints
 62
     0
100
AcDbPoint
 10
163.6275090131421
 20
166.0119782598065
 30
0.0
  0
POINT
  5
E61
330
E48
100
AcDbEntity
  8
Defpoints
 62
     0
100
AcDbPoint
 10
166.9297341034287
 20
166.0119782598065
 30
0.0
  0
ENDBLK
  5
E4A
330
E48
100
AcDbEntity
  8
0
100
AcDbBlockEnd
  0
BLOCK
  5
EB3
330
EB2
100
AcDbEntity
  8
0
100
AcDbBlockBegin
  2
*D3
 70
     1
 10
0.0
 20
0.0
 30
0.0
  3
*D3
  1

  0
LINE
  5
EBF
330
EB2
100
AcDbEntity
  8
0
 62
     0
440
 16777216
370
    -2
100
AcDbLine
 10
102.4998274781046
 20
360.9770930017493
 30
0.0
 11
102.4998274781045
 21
225.8457538738097
 31
0.0
  0
LINE
  5
EC0
330
EB2
100
AcDbEntity
  8
0
 62
     0
440
 16777216
370
    -2
100
AcDbLine
 10
17.49982747810458
 20
360.9770930017493
 30
0.0
 11
17.49982747810457
 21
225.8457538738097
 31
0.0
  0
LINE
  5
EC1
330
EB2
100
AcDbEntity
  8
0
 62
     0
440
 16777216
370
    -2
100
AcDbLine
 10
99.99982747810458
 20
227.0957538738097
 30
0.0
 11
19.99982747810457
 21
227.0957538738097
 31
0.0
  0
SOLID
  5
EC2
330
EB2
100
AcDbEntity
  8
0
 62
     0
440
 16777216
100
AcDbTrace
 10
99.99982747810458
 20
227.5124205404764
 30
0.0
 11
99.99982747810458
 21
226.679087207143
 31
0.0
 12
102.4998274781045
 22
227.0957538738097
 32
0.0
 13
102.4998274781045
 23
227.0957538738097
 33
0.0
  0
SOLID
  5
EC3
330
EB2
100
AcDbEntity
  8
0
 62
     0
440
 16777216
100
AcDbTrace
 10
19.99982747810457
 20
227.5124205404764
 30
0.0
 11
19.99982747810457
 21
226.679087207143
 31
0.0
 12
17.49982747810457
 22
227.0957538738097
 32
0.0
 13
17.49982747810457
 23
227.0957538738097
 33
0.0
  0
MTEXT
  5
EC4
330
EB2
100
AcDbEntity
  8
0
 62
     0
440
 16777216
100
AcDbMText
 10
59.99982747810459
 20
228.9707538738097
 30
0.0
 40
2.5
 41
0.0
 46
0.0
 71
     5
 72
     1
  1
85
 73
     1
 44
1.0
  0
POINT
  5
EC5
330
EB2
100
AcDbEntity
  8
Defpoints
 62
     0
440
 16777216
100
AcDbPoint
 10
102.4998274781046
 20
361.6020930017493
 30
0.0
  0
POINT
  5
EC6
330
EB2
100
AcDbEntity
  8
Defpoints
 62
     0
440
 16777216
100
AcDbPoint
 10
17.49982747810458
 20
361.6020930017493
 30
0.0
  0
POINT
  5
EC7
330
EB2
100
AcDbEntity
  8
Defpoints
 62
     0
440
 16777216
100
AcDbPoint
 10
17.49982747810457
 20
227.0957538738097
 30
0.0
  0
ENDBLK
  5
EB4
330
EB2
100
AcDbEntity
  8
0
100
AcDbBlockEnd
  0
BLOCK
  5
ECB
330
ECA
100
AcDbEntity
  8
0
100
AcDbBlockBegin
  2
*D4
 70
     1
 10
0.0
 20
0.0
 30
0.0
  3
*D4
  1

  0
LINE
  5
ED7
330
ECA
100
AcDbEntity
  8
0
 62
     0
440
 16777216
370
    -2
100
AcDbLine
 10
51.87482747810459
 20
427.6630115386033
 30
0.0
 11
-43.66485367039405
 21
427.6630115386033
 31
0.0
  0
LINE
  5
ED8
330
ECA
100
AcDbEntity
  8
0
 62
     0
440
 16777216
370
    -2
100
AcDbLine
 10
51.87482747810459
 20
297.6630115386034
 30
0.0
 11
-43.66485367039401
 21
297.6630115386034
 31
0.0
  0
LINE
  5
ED9
330
ECA
100
AcDbEntity
  8
0
 62
     0
440
 16777216
370
    -2
100
AcDbLine
 10
-42.41485367039405
 20
425.1630115386033
 30
0.0
 11
-42.414853670394
 21
300.1630115386034
 31
0.0
  0
SOLID
  5
EDA
330
ECA
100
AcDbEntity
  8
0
 62
     0
440
 16777216
100
AcDbTrace
 10
-42.83152033706071
 20
425.1630115386033
 30
0.0
 11
-41.99818700372738
 21
425.1630115386033
 31
0.0
 12
-42.41485367039405
 22
427.6630115386033
 32
0.0
 13
-42.41485367039405
 23
427.6630115386033
 33
0.0
  0
SOLID
  5
EDB
330
ECA
100
AcDbEntity
  8
0
 62
     0
440
 16777216
100
AcDbTrace
 10
-42.83152033706068
 20
300.1630115386034
 30
0.0
 11
-41.99818700372735
 21
300.1630115386034
 31
0.0
 12
-42.414853670394
 22
297.6630115386034
 32
0.0
 13
-42.414853670394
 23
297.6630115386034
 33
0.0
  0
MTEXT
  5
EDC
330
ECA
100
AcDbEntity
  8
0
 62
     0
440
 16777216
100
AcDbMText
 10
-44.28985367039392
 20
362.6630115386033
 30
0.0
 40
2.5
 41
0.0
 46
0.0
 71
     5
 72
     1
  1
130
 11
0.0000000000000001
 21
1.0
 31
0.0
 73
     1
 44
1.0
  0
POINT
  5
EDD
330
ECA
100
AcDbEntity
  8
Defpoints
 62
     0
440
 16777216
100
AcDbPoint
 10
52.49982747810459
 20
427.6630115386033
 30
0.0
  0
POINT
  5
EDE
330
ECA
100
AcDbEntity
  8
Defpoints
 62
     0
440
 16777216
100
AcDbPoint
 10
52.49982747810459
 20
297.6630115386034
 30
0.0
  0
POINT
  5
EDF
330
ECA
100
AcDbEntity
  8
Defpoints
 62
     0
440
 16777216
100
AcDbPoint
 10
-42.414853670394
 20
297.6630115386034
 30
0.0
  0
ENDBLK
  5
ECC
330
ECA
100
AcDbEntity
  8
0
100
AcDbBlockEnd
  0
BLOCK
  5
EE4
330
EE3
100
AcDbEntity
  8
0
100
AcDbBlockBegin
  2
*D5
 70
     1
 10
0.0
 20
0.0
 30
0.0
  3
*D5
  1

  0
LINE
  5
EEF
330
EE3
100
AcDbEntity
  8
0
 62
     0
440
 16777216
370
    -2
100
AcDbLine
 10
211.8776306422869
 20
215.581653266241
 30
0.0
 11
202.3689481392614
 21
212.4856950855388
 31
0.0
  0
LINE
  5
EF0
330
EE3
100
AcDbEntity
  8
0
 62
     0
440
 16777216
370
    -2
100
AcDbLine
 10
131.0538293665702
 20
189.2660087302723
 30
0.0
 11
128.6766587408138
 21
188.4920191850968
 31
0.0
  0
MTEXT
  5
EF1
330
EE3
100
AcDbEntity
  8
0
 62
     0
440
 16777216
100
AcDbMText
 10
207.7313825447707
 20
216.203546917795
 30
0.0
 40
2.5
 41
0.0
 46
0.0
 71
     5
 72
     1
  1
∅70
 11
0.9508682503025493
 21
0.3095958180702198
 31
0.0
 73
     1
 44
1.0
  0
LINE
  5
EF2
330
EE3
100
AcDbEntity
  8
0
 62
     0
440
 16777216
370
    -2
100
AcDbLine
 10
133.4309999923265
 20
190.0399982754479
 30
0.0
 11
199.991777513505
 21
211.7117055403633
 31
0.0
  0
SOLID
  5
EF3
330
EE3
100
AcDbEntity
  8
0
 62
     0
440
 16777216
100
AcDbTrace
 10
130.9248311090409
 20
189.6622038345651
 30
0.0
 11
131.1828276240994
 21
188.8698136259796
 31
0.0
 12
133.4309999923265
 22
190.0399982754479
 32
0.0
 13
133.4309999923265
 23
190.0399982754479
 33
0.0
  0
SOLID
  5
EF4
330
EE3
100
AcDbEntity
  8
0
 62
     0
440
 16777216
100
AcDbTrace
 10
202.2399498817321
 20
212.8818901898315
 30
0.0
 11
202.4979463967907
 21
212.0894999812461
 31
0.0
 12
199.991777513505
 22
211.7117055403633
 32
0.0
 13
199.991777513505
 23
211.7117055403633
 33
0.0
  0
POINT
  5
EF5
330
EE3
100
AcDbEntity
  8
Defpoints
 62
     0
440
 16777216
100
AcDbPoint
 10
199.991777513505
 20
211.7117055403633
 30
0.0
  0
POINT
  5
EF6
330
EE3
100
AcDbEntity
  8
Defpoints
 62
     0
440
 16777216
100
AcDbPoint
 10
133.4309999923265
 20
190.0399982754479
 30
0.0
  0
ENDBLK
  5
EE5
330
EE3
100
AcDbEntity
  8
0
100
AcDbBlockEnd
  0
BLOCK
  5
EFC
330
EFB
100
AcDbEntity
  8
0
100
AcDbBlockBegin
  2
*D6
 70
     1
 10
0.0
 20
0.0
 30
0.0
  3
*D6
  1

  0
LINE
  5
F12
330
EFB
100
AcDbEntity
  8
0
 62
     0
440
 16777216
370
    -2
100
AcDbLine
 10
211.7508762729694
 20
198.0713192706839
 30
0.0
 11
211.7508762729694
 21
146.3525684125192
 31
0.0
  0
LINE
  5
F13
330
EFB
100
AcDbEntity
  8
0
 62
     0
440
 16777216
370
    -2
100
AcDbLine
 10
215.4406926026756
 20
198.0713192706839
 30
0.0
 11
215.4406926026756
 21
146.3525684125192
 31
0.0
  0
LINE
  5
F14
330
EFB
100
AcDbEntity
  8
0
 62
     0
440
 16777216
370
    -2
100
AcDbLine
 10
209.2508762729694
 20
147.6025684125192
 30
0.0
 11
206.7508762729694
 21
147.6025684125192
 31
0.0
  0
LINE
  5
F15
330
EFB
100
AcDbEntity
  8
0
 62
     0
440
 16777216
370
    -2
100
AcDbLine
 10
217.9406926026757
 20
147.6025684125192
 30
0.0
 11
229.6073592693423
 21
147.6025684125192
 31
0.0
  0
LINE
  5
F16
330
EFB
100
AcDbEntity
  8
0
 62
     0
440
 16777216
370
    -2
100
AcDbLine
 10
211.7508762729694
 20
147.6025684125192
 30
0.0
 11
215.4406926026756
 21
147.6025684125192
 31
0.0
  0
SOLID
  5
F17
330
EFB
100
AcDbEntity
  8
0
 62
     0
440
 16777216
100
AcDbTrace
 10
209.2508762729694
 20
148.0192350791858
 30
0.0
 11
209.2508762729694
 21
147.1859017458525
 31
0.0
 12
211.7508762729694
 22
147.6025684125192
 32
0.0
 13
211.7508762729694
 23
147.6025684125192
 33
0.0
  0
SOLID
  5
F18
330
EFB
100
AcDbEntity
  8
0
 62
     0
440
 16777216
100
AcDbTrace
 10
217.9406926026757
 20
148.0192350791858
 30
0.0
 11
217.9406926026757
 21
147.1859017458525
 31
0.0
 12
215.4406926026756
 22
147.6025684125192
 32
0.0
 13
215.4406926026756
 23
147.6025684125192
 33
0.0
  0
MTEXT
  5
F19
330
EFB
100
AcDbEntity
  8
0
 62
     0
440
 16777216
100
AcDbMText
 10
225.024025936009
 20
149.6859017458525
 30
0.0
 40
2.5
 41
0.0
 46
0.0
 71
     5
 72
     1
  1
3,69
 73
     1
 44
1.0
  0
POINT
  5
F1A
330
EFB
100
AcDbEntity
  8
Defpoints
 62
     0
440
 16777216
100
AcDbPoint
 10
211.7508762729694
 20
198.6963192706839
 30
0.0
  0
POINT
  5
F1B
330
EFB
100
AcDbEntity
  8
Defpoints
 62
     0
440
 16777216
100
AcDbPoint
 10
215.4406926026756
 20
198.6963192706839
 30
0.0
  0
POINT
  5
F1C
330
EFB
100
AcDbEntity
  8
Defpoints
 62
     0
440
 16777216
100
AcDbPoint
 10
215.4406926026756
 20
147.6025684125192
 30
0.0
  0
ENDBLK
  5
EFD
330
EFB
100
AcDbEntity
  8
0
100
AcDbBlockEnd
  0
BLOCK
  5
F1F
330
F1E
100
AcDbEntity
  8
0
100
AcDbBlockBegin
  2
*D7
 70
     1
 10
0.0
 20
0.0
 30
0.0
  3
*D7
  1

  0
LINE
  5
F2D
330
F1E
100
AcDbEntity
  8
0
 62
     0
440
 16777216
370
    -2
100
AcDbLine
 10
199.126093884403
 20
203.8539118813725
 30
0.0
 11
199.126093884403
 21
235.2554992361398
 31
0.0
  0
LINE
  5
F2E
330
F1E
100
AcDbEntity
  8
0
 62
     0
440
 16777216
370
    -2
100
AcDbLine
 10
201.6195327406713
 20
204.0349164947161
 30
0.0
 11
201.6195327406713
 21
235.2554992361398
 31
0.0
  0
LINE
  5
F2F
330
F1E
100
AcDbEntity
  8
0
 62
     0
440
 16777216
370
    -2
100
AcDbLine
 10
196.6260938844031
 20
234.0054992361398
 30
0.0
 11
194.126093884403
 21
234.0054992361398
 31
0.0
  0
LINE
  5
F30
330
F1E
100
AcDbEntity
  8
0
 62
     0
440
 16777216
370
    -2
100
AcDbLine
 10
204.1195327406714
 20
234.0054992361398
 30
0.0
 11
215.786199407338
 21
234.0054992361398
 31
0.0
  0
LINE
  5
F31
330
F1E
100
AcDbEntity
  8
0
 62
     0
440
 16777216
370
    -2
100
AcDbLine
 10
199.126093884403
 20
234.0054992361398
 30
0.0
 11
201.6195327406713
 21
234.0054992361398
 31
0.0
  0
SOLID
  5
F32
330
F1E
100
AcDbEntity
  8
0
 62
     0
440
 16777216
100
AcDbTrace
 10
196.6260938844031
 20
234.4221659028065
 30
0.0
 11
196.6260938844031
 21
233.5888325694732
 31
0.0
 12
199.126093884403
 22
234.0054992361398
 32
0.0
 13
199.126093884403
 23
234.0054992361398
 33
0.0
  0
SOLID
  5
F33
330
F1E
100
AcDbEntity
  8
0
 62
     0
440
 16777216
100
AcDbTrace
 10
204.1195327406714
 20
234.4221659028065
 30
0.0
 11
204.1195327406714
 21
233.5888325694732
 31
0.0
 12
201.6195327406713
 22
234.0054992361398
 32
0.0
 13
201.6195327406713
 23
234.0054992361398
 33
0.0
  0
MTEXT
  5
F34
330
F1E
100
AcDbEntity
  8
0
 62
     0
440
 16777216
100
AcDbMText
 10
211.2028660740047
 20
236.0888325694732
 30
0.0
 40
2.5
 41
0.0
 46
0.0
 71
     5
 72
     1
  1
2,49
 73
     1
 44
1.0
  0
POINT
  5
F35
330
F1E
100
AcDbEntity
  8
Defpoints
 62
     0
440
 16777216
100
AcDbPoint
 10
199.126093884403
 20
203.2289118813725
 30
0.0
  0
POINT
  5
F36
330
F1E
100
AcDbEntity
  8
Defpoints
 62
     0
440
 16777216
100
AcDbPoint
 10
201.6195327406713
 20
203.4099164947161
 30
0.0
  0
POINT
  5
F37
330
F1E
100
AcDbEntity
  8
Defpoints
 62
     0
440
 16777216
100
AcDbPoint
 10
201.6195327406713
 20
234.0054992361398
 30
0.0
  0
ENDBLK
  5
F20
330
F1E
100
AcDbEntity
  8
0
100
AcDbBlockEnd
  0
BLOCK
  5
F45
330
F44
100
AcDbEntity
  8
0
100
AcDbBlockBegin
  2
*D8
 70
     1
 10
0.0
 20
0.0
 30
0.0
  3
*D8
  1

  0
LINE
  5
F51
330
F44
100
AcDbEntity
  8
0
 62
     0
440
 16777216
370
    -2
100
AcDbLine
 10
136.3336327316829
 20
353.2880115386033
 30
0.0
 11
136.3336327316829
 21
375.8916589533793
 31
0.0
  0
LINE
  5
F52
330
F44
100
AcDbEntity
  8
0
 62
     0
440
 16777216
370
    -2
100
AcDbLine
 10
206.3336327316829
 20
353.2880115386033
 30
0.0
 11
206.3336327316829
 21
375.8916589533793
 31
0.0
  0
LINE
  5
F53
330
F44
100
AcDbEntity
  8
0
 62
     0
440
 16777216
370
    -2
100
AcDbLine
 10
138.8336327316829
 20
374.6416589533793
 30
0.0
 11
203.8336327316829
 21
374.6416589533793
 31
0.0
  0
SOLID
  5
F54
330
F44
100
AcDbEntity
  8
0
 62
     0
440
 16777216
100
AcDbTrace
 10
138.8336327316829
 20
375.058325620046
 30
0.0
 11
138.8336327316829
 21
374.2249922867126
 31
0.0
 12
136.3336327316829
 22
374.6416589533793
 32
0.0
 13
136.3336327316829
 23
374.6416589533793
 33
0.0
  0
SOLID
  5
F55
330
F44
100
AcDbEntity
  8
0
 62
     0
440
 16777216
100
AcDbTrace
 10
203.8336327316829
 20
375.058325620046
 30
0.0
 11
203.8336327316829
 21
374.2249922867126
 31
0.0
 12
206.3336327316829
 22
374.6416589533793
 32
0.0
 13
206.3336327316829
 23
374.6416589533793
 33
0.0
  0
MTEXT
  5
F56
330
F44
100
AcDbEntity
  8
0
 62
     0
440
 16777216
100
AcDbMText
 10
171.3336327316829
 20
376.5166589533793
 30
0.0
 40
2.5
 41
0.0
 46
0.0
 71
     5
 72
     1
  1
70
 73
     1
 44
1.0
  0
POINT
  5
F57
330
F44
100
AcDbEntity
  8
Defpoints
 62
     0
440
 16777216
100
AcDbPoint
 10
136.3336327316829
 20
352.6630115386033
 30
0.0
  0
POINT
  5
F58
330
F44
100
AcDbEntity
  8
Defpoints
 62
     0
440
 16777216
100
AcDbPoint
 10
206.3336327316829
 20
352.6630115386033
 30
0.0
  0
POINT
  5
F59
330
F44
100
AcDbEntity
  8
Defpoints
 62
     0
440
 16777216
100
AcDbPoint
 10
206.3336327316829
 20
374.6416589533793
 30
0.0
  0
ENDBLK
  5
F46
330
F44
100
AcDbEntity
  8
0
100
AcDbBlockEnd
  0
BLOCK
  5
10C5
330
10C4
100
AcDbEntity
  8
0
100
AcDbBlockBegin
  2
*D9
 70
     1
 10
0.0
 20
0.0
 30
0.0
  3
*D9
  1

  0
LINE
  5
10D1
330
10C4
100
AcDbEntity
  8
0
 62
     0
440
 16777216
370
    -2
100
AcDbLine
 10
328.3041668277693
 20
463.0298741737936
 30
0.0
 11
246.981186826418
 21
463.0298741737936
 31
0.0
  0
LINE
  5
10D2
330
10C4
100
AcDbEntity
  8
0
 62
     0
440
 16777216
370
    -2
100
AcDbLine
 10
328.3041668277693
 20
295.0298741737935
 30
0.0
 11
246.981186826418
 21
295.0298741737935
 31
0.0
  0
LINE
  5
10D3
330
10C4
100
AcDbEntity
  8
0
 62
     0
440
 16777216
370
    -2
100
AcDbLine
 10
248.231186826418
 20
460.5298741737936
 30
0.0
 11
248.231186826418
 21
297.5298741737935
 31
0.0
  0
SOLID
  5
10D4
330
10C4
100
AcDbEntity
  8
0
 62
     0
440
 16777216
100
AcDbTrace
 10
247.8145201597513
 20
460.5298741737936
 30
0.0
 11
248.6478534930846
 21
460.5298741737936
 31
0.0
 12
248.231186826418
 22
463.0298741737936
 32
0.0
 13
248.231186826418
 23
463.0298741737936
 33
0.0
  0
SOLID
  5
10D5
330
10C4
100
AcDbEntity
  8
0
 62
     0
440
 16777216
100
AcDbTrace
 10
247.8145201597514
 20
297.5298741737935
 30
0.0
 11
248.6478534930847
 21
297.5298741737935
 31
0.0
 12
248.231186826418
 22
295.0298741737935
 32
0.0
 13
248.231186826418
 23
295.0298741737935
 33
0.0
  0
MTEXT
  5
10D6
330
10C4
100
AcDbEntity
  8
0
 62
     0
440
 16777216
100
AcDbMText
 10
246.356186826418
 20
379.0298741737935
 30
0.0
 40
2.5
 41
0.0
 46
0.0
 71
     5
 72
     1
  1
168
 11
0.0000000000000001
 21
1.0
 31
0.0
 73
     1
 44
1.0
  0
POINT
  5
10D7
330
10C4
100
AcDbEntity
  8
Defpoints
 62
     0
440
 16777216
100
AcDbPoint
 10
328.9291668277694
 20
463.0298741737936
 30
0.0
  0
POINT
  5
10D8
330
10C4
100
AcDbEntity
  8
Defpoints
 62
     0
440
 16777216
100
AcDbPoint
 10
328.9291668277694
 20
295.0298741737935
 30
0.0
  0
POINT
  5
10D9
330
10C4
100
AcDbEntity
  8
Defpoints
 62
     0
440
 16777216
100
AcDbPoint
 10
248.231186826418
 20
295.0298741737935
 30
0.0
  0
ENDBLK
  5
10C6
330
10C4
100
AcDbEntity
  8
0
100
AcDbBlockEnd
  0
BLOCK
  5
10F9
330
10F8
100
AcDbEntity
  8
0
100
AcDbBlockBegin
  2
*D10
 70
     1
 10
0.0
 20
0.0
 30
0.0
  3
*D10
  1

  0
LINE
  5
1105
330
10F8
100
AcDbEntity
  8
0
 62
     0
440
 16777216
370
    -2
100
AcDbLine
 10
-79.47107657062452
 20
319.3909709918202
 30
0.0
 11
-79.47107657062452
 21
339.0704353444706
 31
0.0
  0
LINE
  5
1106
330
10F8
100
AcDbEntity
  8
0
 62
     0
440
 16777216
370
    -2
100
AcDbLine
 10
-65.56016868703318
 20
319.3909709918202
 30
0.0
 11
-65.56016868703318
 21
339.0704353444706
 31
0.0
  0
LINE
  5
1107
330
10F8
100
AcDbEntity
  8
0
 62
     0
440
 16777216
370
    -2
100
AcDbLine
 10
-76.97107657062452
 20
337.8204353444707
 30
0.0
 11
-68.06016868703318
 21
337.8204353444707
 31
0.0
  0
SOLID
  5
1108
330
10F8
100
AcDbEntity
  8
0
 62
     0
440
 16777216
100
AcDbTrace
 10
-76.97107657062452
 20
338.2371020111373
 30
0.0
 11
-76.97107657062452
 21
337.4037686778039
 31
0.0
 12
-79.47107657062452
 22
337.8204353444707
 32
0.0
 13
-79.47107657062452
 23
337.8204353444707
 33
0.0
  0
SOLID
  5
1109
330
10F8
100
AcDbEntity
  8
0
 62
     0
440
 16777216
100
AcDbTrace
 10
-68.06016868703318
 20
338.2371020111373
 30
0.0
 11
-68.06016868703318
 21
337.4037686778039
 31
0.0
 12
-65.56016868703318
 22
337.8204353444707
 32
0.0
 13
-65.56016868703318
 23
337.8204353444707
 33
0.0
  0
MTEXT
  5
110A
330
10F8
100
AcDbEntity
  8
0
 62
     0
440
 16777216
100
AcDbMText
 10
-72.51562262882884
 20
339.9037686778039
 30
0.0
 40
2.5
 41
0.0
 46
0.0
 71
     5
 72
     1
  1
13,91
 73
     1
 44
1.0
  0
POINT
  5
110B
330
10F8
100
AcDbEntity
  8
Defpoints
 62
     0
440
 16777216
100
AcDbPoint
 10
-79.47107657062452
 20
318.7659709918202
 30
0.0
  0
POINT
  5
110C
330
10F8
100
AcDbEntity
  8
Defpoints
 62
     0
440
 16777216
100
AcDbPoint
 10
-65.56016868703318
 20
318.7659709918202
 30
0.0
  0
POINT
  5
110D
330
10F8
100
AcDbEntity
  8
Defpoints
 62
     0
440
 16777216
100
AcDbPoint
 10
-65.56016868703318
 20
337.8204353444707
 30
0.0
  0
ENDBLK
  5
10FA
330
10F8
100
AcDbEntity
  8
0
100
AcDbBlockEnd
  0
BLOCK
  5
1111
330
1110
100
AcDbEntity
  8
0
100
AcDbBlockBegin
  2
*D11
 70
     1
 10
0.0
 20
0.0
 30
0.0
  3
*D11
  1

  0
LINE
  5
111D
330
1110
100
AcDbEntity
  8
0
 62
     0
440
 16777216
370
    -2
100
AcDbLine
 10
-65.56016868703318
 20
319.3909709918202
 30
0.0
 11
-65.56016868703318
 21
339.6748085841468
 31
0.0
  0
LINE
  5
111E
330
1110
100
AcDbEntity
  8
0
 62
     0
440
 16777216
370
    -2
100
AcDbLine
 10
-51.35170229972937
 20
319.3909709918202
 30
0.0
 11
-51.35170229972937
 21
339.6748085841468
 31
0.0
  0
LINE
  5
111F
330
1110
100
AcDbEntity
  8
0
 62
     0
440
 16777216
370
    -2
100
AcDbLine
 10
-63.06016868703317
 20
338.4248085841468
 30
0.0
 11
-53.85170229972937
 21
338.4248085841468
 31
0.0
  0
SOLID
  5
1120
330
1110
100
AcDbEntity
  8
0
 62
     0
440
 16777216
100
AcDbTrace
 10
-63.06016868703317
 20
338.8414752508134
 30
0.0
 11
-63.06016868703317
 21
338.0081419174802
 31
0.0
 12
-65.56016868703318
 22
338.4248085841468
 32
0.0
 13
-65.56016868703318
 23
338.4248085841468
 33
0.0
  0
SOLID
  5
1121
330
1110
100
AcDbEntity
  8
0
 62
     0
440
 16777216
100
AcDbTrace
 10
-53.85170229972937
 20
338.8414752508134
 30
0.0
 11
-53.85170229972937
 21
338.0081419174802
 31
0.0
 12
-51.35170229972937
 22
338.4248085841468
 32
0.0
 13
-51.35170229972937
 23
338.4248085841468
 33
0.0
  0
MTEXT
  5
1122
330
1110
100
AcDbEntity
  8
0
 62
     0
440
 16777216
100
AcDbMText
 10
-58.45593549338127
 20
340.5081419174802
 30
0.0
 40
2.5
 41
0.0
 46
0.0
 71
     5
 72
     1
  1
14,21
 73
     1
 44
1.0
  0
POINT
  5
1123
330
1110
100
AcDbEntity
  8
Defpoints
 62
     0
440
 16777216
100
AcDbPoint
 10
-65.56016868703318
 20
318.7659709918202
 30
0.0
  0
POINT
  5
1124
330
1110
100
AcDbEntity
  8
Defpoints
 62
     0
440
 16777216
100
AcDbPoint
 10
-51.35170229972937
 20
318.7659709918202
 30
0.0
  0
POINT
  5
1125
330
1110
100
AcDbEntity
  8
Defpoints
 62
     0
440
 16777216
100
AcDbPoint
 10
-51.35170229972937
 20
338.4248085841468
 30
0.0
  0
ENDBLK
  5
1112
330
1110
100
AcDbEntity
  8
0
100
AcDbBlockEnd
  0
BLOCK
  5
1132
330
1131
100
AcDbEntity
  8
0
100
AcDbBlockBegin
  2
*D12
 70
     1
 10
0.0
 20
0.0
 30
0.0
  3
*D12
  1

  0
LINE
  5
1140
330
1131
100
AcDbEntity
  8
0
 62
     0
440
 16777216
370
    -2
100
AcDbLine
 10
-144.9528859601396
 20
316.5801576679593
 30
0.0
 11
-144.9528859601396
 21
310.8716259276425
 31
0.0
  0
LINE
  5
1141
330
1131
100
AcDbEntity
  8
0
 62
     0
440
 16777216
370
    -2
100
AcDbLine
 10
-148.7292308098829
 20
316.5801576679593
 30
0.0
 11
-148.7292308098829
 21
310.8716259276425
 31
0.0
  0
LINE
  5
1142
330
1131
100
AcDbEntity
  8
0
 62
     0
440
 16777216
370
    -2
100
AcDbLine
 10
-142.4528859601396
 20
312.1216259276425
 30
0.0
 11
-139.9528859601396
 21
312.1216259276425
 31
0.0
  0
LINE
  5
1143
330
1131
100
AcDbEntity
  8
0
 62
     0
440
 16777216
370
    -2
100
AcDbLine
 10
-151.2292308098829
 20
312.1216259276425
 30
0.0
 11
-162.8958974765495
 21
312.1216259276425
 31
0.0
  0
LINE
  5
1144
330
1131
100
AcDbEntity
  8
0
 62
     0
440
 16777216
370
    -2
100
AcDbLine
 10
-144.9528859601396
 20
312.1216259276425
 30
0.0
 11
-148.7292308098829
 21
312.1216259276425
 31
0.0
  0
SOLID
  5
1145
330
1131
100
AcDbEntity
  8
0
 62
     0
440
 16777216
100
AcDbTrace
 10
-142.4528859601396
 20
312.5382925943092
 30
0.0
 11
-142.4528859601396
 21
311.7049592609758
 31
0.0
 12
-144.9528859601396
 22
312.1216259276425
 32
0.0
 13
-144.9528859601396
 23
312.1216259276425
 33
0.0
  0
SOLID
  5
1146
330
1131
100
AcDbEntity
  8
0
 62
     0
440
 16777216
100
AcDbTrace
 10
-151.2292308098829
 20
312.5382925943092
 30
0.0
 11
-151.2292308098829
 21
311.7049592609758
 31
0.0
 12
-148.7292308098829
 22
312.1216259276425
 32
0.0
 13
-148.7292308098829
 23
312.1216259276425
 33
0.0
  0
MTEXT
  5
1147
330
1131
100
AcDbEntity
  8
0
 62
     0
440
 16777216
100
AcDbMText
 10
-158.3125641432161
 20
314.2049592609758
 30
0.0
 40
2.5
 41
0.0
 46
0.0
 71
     5
 72
     1
  1
3,78
 73
     1
 44
1.0
  0
POINT
  5
1148
330
1131
100
AcDbEntity
  8
Defpoints
 62
     0
440
 16777216
100
AcDbPoint
 10
-144.9528859601396
 20
317.2051576679593
 30
0.0
  0
POINT
  5
1149
330
1131
100
AcDbEntity
  8
Defpoints
 62
     0
440
 16777216
100
AcDbPoint
 10
-148.7292308098829
 20
317.2051576679593
 30
0.0
  0
POINT
  5
114A
330
1131
100
AcDbEntity
  8
Defpoints
 62
     0
440
 16777216
100
AcDbPoint
 10
-148.7292308098829
 20
312.1216259276425
 30
0.0
  0
ENDBLK
  5
1133
330
1131
100
AcDbEntity
  8
0
100
AcDbBlockEnd
  0
BLOCK
  5
114F
330
114E
100
AcDbEntity
  8
0
100
AcDbBlockBegin
  2
*D13
 70
     1
 10
0.0
 20
0.0
 30
0.0
  3
*D13
  1

  0
LINE
  5
115B
330
114E
100
AcDbEntity
  8
0
 62
     0
440
 16777216
370
    -2
100
AcDbLine
 10
51.87482747810462
 20
477.6630115386035
 30
0.0
 11
-10.24282832244538
 21
477.6630115386035
 31
0.0
  0
LINE
  5
115C
330
114E
100
AcDbEntity
  8
0
 62
     0
440
 16777216
370
    -2
100
AcDbLine
 10
51.87482747810462
 20
297.6630115386034
 30
0.0
 11
-10.24282832244534
 21
297.6630115386034
 31
0.0
  0
LINE
  5
115D
330
114E
100
AcDbEntity
  8
0
 62
     0
440
 16777216
370
    -2
100
AcDbLine
 10
-8.992828322445372
 20
475.1630115386035
 30
0.0
 11
-8.992828322445335
 21
300.1630115386034
 31
0.0
  0
SOLID
  5
115E
330
114E
100
AcDbEntity
  8
0
 62
     0
440
 16777216
100
AcDbTrace
 10
-9.409494989112037
 20
475.1630115386035
 30
0.0
 11
-8.576161655778706
 21
475.1630115386035
 31
0.0
 12
-8.992828322445372
 22
477.6630115386035
 32
0.0
 13
-8.992828322445372
 23
477.6630115386035
 33
0.0
  0
SOLID
  5
115F
330
114E
100
AcDbEntity
  8
0
 62
     0
440
 16777216
100
AcDbTrace
 10
-9.409494989111999
 20
300.1630115386034
 30
0.0
 11
-8.576161655778669
 21
300.1630115386034
 31
0.0
 12
-8.992828322445332
 22
297.6630115386034
 32
0.0
 13
-8.992828322445332
 23
297.6630115386034
 33
0.0
  0
MTEXT
  5
1160
330
114E
100
AcDbEntity
  8
0
 62
     0
440
 16777216
100
AcDbMText
 10
-10.86782832244524
 20
387.6630115386035
 30
0.0
 40
2.5
 41
0.0
 46
0.0
 71
     5
 72
     1
  1
180
 11
0.0000000000000001
 21
1.0
 31
0.0
 73
     1
 44
1.0
  0
POINT
  5
1161
330
114E
100
AcDbEntity
  8
Defpoints
 62
     0
440
 16777216
100
AcDbPoint
 10
52.49982747810462
 20
477.6630115386035
 30
0.0
  0
POINT
  5
1162
330
114E
100
AcDbEntity
  8
Defpoints
 62
     0
440
 16777216
100
AcDbPoint
 10
52.49982747810462
 20
297.6630115386034
 30
0.0
  0
POINT
  5
1163
330
114E
100
AcDbEntity
  8
Defpoints
 62
     0
440
 16777216
100
AcDbPoint
 10
-8.992828322445332
 20
297.6630115386034
 30
0.0
  0
ENDBLK
  5
1150
330
114E
100
AcDbEntity
  8
0
100
AcDbBlockEnd
  0
BLOCK
  5
11DF
330
11DE
100
AcDbEntity
  8
0
100
AcDbBlockBegin
  2
*D14
 70
     1
 10
0.0
 20
0.0
 30
0.0
  3
*D14
  1

  0
LINE
  5
11EB
330
11DE
100
AcDbEntity
  8
0
 62
     0
440
 16777216
370
    -2
100
AcDbLine
 10
154.4781294140644
 20
422.0676732815552
 30
0.0
 11
154.4781294140644
 21
372.2515278892411
 31
0.0
  0
LINE
  5
11EC
330
11DE
100
AcDbEntity
  8
0
 62
     0
440
 16777216
370
    -2
100
AcDbLine
 10
187.789326506481
 20
422.7854419658208
 30
0.0
 11
187.789326506481
 21
372.2515278892411
 31
0.0
  0
LINE
  5
11ED
330
11DE
100
AcDbEntity
  8
0
 62
     0
440
 16777216
370
    -2
100
AcDbLine
 10
156.9781294140644
 20
373.5015278892411
 30
0.0
 11
185.289326506481
 21
373.5015278892411
 31
0.0
  0
SOLID
  5
11EE
330
11DE
100
AcDbEntity
  8
0
 62
     0
440
 16777216
100
AcDbTrace
 10
156.9781294140644
 20
373.9181945559078
 30
0.0
 11
156.9781294140644
 21
373.0848612225744
 31
0.0
 12
154.4781294140644
 22
373.5015278892411
 32
0.0
 13
154.4781294140644
 23
373.5015278892411
 33
0.0
  0
SOLID
  5
11EF
330
11DE
100
AcDbEntity
  8
0
 62
     0
440
 16777216
100
AcDbTrace
 10
185.289326506481
 20
373.9181945559078
 30
0.0
 11
185.289326506481
 21
373.0848612225744
 31
0.0
 12
187.789326506481
 22
373.5015278892411
 32
0.0
 13
187.789326506481
 23
373.5015278892411
 33
0.0
  0
MTEXT
  5
11F0
330
11DE
100
AcDbEntity
  8
0
 62
     0
440
 16777216
100
AcDbMText
 10
171.1337279602727
 20
375.5848612225744
 30
0.0
 40
2.5
 41
0.0
 46
0.0
 71
     5
 72
     1
  1
33,31
 73
     1
 44
1.0
  0
POINT
  5
11F1
330
11DE
100
AcDbEntity
  8
Defpoints
 62
     0
440
 16777216
100
AcDbPoint
 10
154.4781294140644
 20
422.6926732815551
 30
0.0
  0
POINT
  5
11F2
330
11DE
100
AcDbEntity
  8
Defpoints
 62
     0
440
 16777216
100
AcDbPoint
 10
187.789326506481
 20
423.4104419658208
 30
0.0
  0
POINT
  5
11F3
330
11DE
100
AcDbEntity
  8
Defpoints
 62
     0
440
 16777216
100
AcDbPoint
 10
187.789326506481
 20
373.5015278892411
 30
0.0
  0
ENDBLK
  5
11E0
330
11DE
100
AcDbEntity
  8
0
100
AcDbBlockEnd
  0
BLOCK
  5
124C
330
124B
100
AcDbEntity
  8
0
100
AcDbBlockBegin
  2
*D15
 70
     1
 10
0.0
 20
0.0
 30
0.0
  3
*D15
  1

  0
LINE
  5
124E
330
124B
100
AcDbEntity
  8
0
 62
     0
440
 16777216
370
    -2
100
AcDbLine
 10
-418.5711525195896
 20
310.4402496048138
 30
0.0
 11
-418.5711525195896
 21
297.2445399465483
 31
0.0
  0
LINE
  5
124F
330
124B
100
AcDbEntity
  8
0
 62
     0
440
 16777216
370
    -2
100
AcDbLine
 10
-396.7092758447043
 20
310.4402496048138
 30
0.0
 11
-396.7092758447043
 21
297.2445399465483
 31
0.0
  0
LINE
  5
1250
330
124B
100
AcDbEntity
  8
0
 62
     0
440
 16777216
370
    -2
100
AcDbLine
 10
-416.0711525195897
 20
298.4945399465482
 30
0.0
 11
-399.2092758447043
 21
298.4945399465482
 31
0.0
  0
SOLID
  5
1251
330
124B
100
AcDbEntity
  8
0
 62
     0
440
 16777216
100
AcDbTrace
 10
-416.0711525195897
 20
298.9112066132149
 30
0.0
 11
-416.0711525195897
 21
298.0778732798815
 31
0.0
 12
-418.5711525195896
 22
298.4945399465482
 32
0.0
 13
-418.5711525195896
 23
298.4945399465482
 33
0.0
  0
SOLID
  5
1252
330
124B
100
AcDbEntity
  8
0
 62
     0
440
 16777216
100
AcDbTrace
 10
-399.2092758447043
 20
298.9112066132149
 30
0.0
 11
-399.2092758447043
 21
298.0778732798815
 31
0.0
 12
-396.7092758447043
 22
298.4945399465482
 32
0.0
 13
-396.7092758447043
 23
298.4945399465482
 33
0.0
  0
MTEXT
  5
1253
330
124B
100
AcDbEntity
  8
0
 62
     0
440
 16777216
100
AcDbMText
 10
-407.6402141821469
 20
300.5778732798817
 30
0.0
 40
2.5
 41
0.0
 46
0.0
 71
     5
 72
     1
  1
21,86
 73
     1
 44
1.0
  0
POINT
  5
1254
330
124B
100
AcDbEntity
  8
Defpoints
 62
     0
440
 16777216
100
AcDbPoint
 10
-418.5711525195896
 20
311.0652496048138
 30
0.0
  0
POINT
  5
1255
330
124B
100
AcDbEntity
  8
Defpoints
 62
     0
440
 16777216
100
AcDbPoint
 10
-396.7092758447043
 20
311.0652496048138
 30
0.0
  0
POINT
  5
1256
330
124B
100
AcDbEntity
  8
Defpoints
 62
     0
440
 16777216
100
AcDbPoint
 10
-396.7092758447043
 20
298.4945399465482
 30
0.0
  0
ENDBLK
  5
124D
330
124B
100
AcDbEntity
  8
0
100
AcDbBlockEnd
  0
BLOCK
  5
1259
330
1258
100
AcDbEntity
  8
0
100
AcDbBlockBegin
  2
*D16
 70
     1
 10
0.0
 20
0.0
 30
0.0
  3
*D16
  1

  0
LINE
  5
125B
330
1258
100
AcDbEntity
  8
0
 62
     0
440
 16777216
370
    -2
100
AcDbLine
 10
-396.7092758447043
 20
312.8346702151334
 30
0.0
 11
-396.7092758447043
 21
284.9731316528341
 31
0.0
  0
LINE
  5
125C
330
1258
100
AcDbEntity
  8
0
 62
     0
440
 16777216
370
    -2
100
AcDbLine
 10
-381.3360843044998
 20
312.8346702151334
 30
0.0
 11
-381.3360843044998
 21
284.9731316528341
 31
0.0
  0
LINE
  5
125D
330
1258
100
AcDbEntity
  8
0
 62
     0
440
 16777216
370
    -2
100
AcDbLine
 10
-394.2092758447043
 20
286.2231316528341
 30
0.0
 11
-383.8360843044998
 21
286.2231316528341
 31
0.0
  0
SOLID
  5
125E
330
1258
100
AcDbEntity
  8
0
 62
     0
440
 16777216
100
AcDbTrace
 10
-394.2092758447043
 20
286.6397983195008
 30
0.0
 11
-394.2092758447043
 21
285.8064649861674
 31
0.0
 12
-396.7092758447043
 22
286.2231316528341
 32
0.0
 13
-396.7092758447043
 23
286.2231316528341
 33
0.0
  0
SOLID
  5
125F
330
1258
100
AcDbEntity
  8
0
 62
     0
440
 16777216
100
AcDbTrace
 10
-383.8360843044998
 20
286.6397983195008
 30
0.0
 11
-383.8360843044998
 21
285.8064649861674
 31
0.0
 12
-381.3360843044998
 22
286.2231316528341
 32
0.0
 13
-381.3360843044998
 23
286.2231316528341
 33
0.0
  0
MTEXT
  5
1260
330
1258
100
AcDbEntity
  8
0
 62
     0
440
 16777216
100
AcDbMText
 10
-389.022680074602
 20
288.3064649861674
 30
0.0
 40
2.5
 41
0.0
 46
0.0
 71
     5
 72
     1
  1
15,37
 73
     1
 44
1.0
  0
POINT
  5
1261
330
1258
100
AcDbEntity
  8
Defpoints
 62
     0
440
 16777216
100
AcDbPoint
 10
-396.7092758447043
 20
313.4596702151335
 30
0.0
  0
POINT
  5
1262
330
1258
100
AcDbEntity
  8
Defpoints
 62
     0
440
 16777216
100
AcDbPoint
 10
-381.3360843044998
 20
313.4596702151335
 30
0.0
  0
POINT
  5
1263
330
1258
100
AcDbEntity
  8
Defpoints
 62
     0
440
 16777216
100
AcDbPoint
 10
-381.3360843044998
 20
286.2231316528341
 30
0.0
  0
ENDBLK
  5
125A
330
1258
100
AcDbEntity
  8
0
100
AcDbBlockEnd
  0
BLOCK
  5
1266
330
1265
100
AcDbEntity
  8
0
100
AcDbBlockBegin
  2
*D17
 70
     1
 10
0.0
 20
0.0
 30
0.0
  3
*D17
  1

  0
LINE
  5
1268
330
1265
100
AcDbEntity
  8
0
 62
     0
440
 16777216
370
    -2
100
AcDbLine
 10
-396.8368718222188
 20
314.2800383725934
 30
0.0
 11
-396.104807461668
 21
320.5876143691658
 31
0.0
  0
LINE
  5
1269
330
1265
100
AcDbEntity
  8
0
 62
     0
440
 16777216
370
    -2
100
AcDbLine
 10
-381.3638531326544
 20
312.4842224301583
 30
0.0
 11
-380.6317887721037
 21
318.7917984267307
 31
0.0
  0
LINE
  5
126A
330
1265
100
AcDbEntity
  8
0
 62
     0
440
 16777216
370
    -2
100
AcDbLine
 10
-393.7655860380099
 20
319.0577309974349
 30
0.0
 11
-383.2592283236831
 21
317.8383513108428
 31
0.0
  0
SOLID
  5
126B
330
1265
100
AcDbEntity
  8
0
 62
     0
440
 16777216
100
AcDbTrace
 10
-393.7175496833563
 20
319.471619412038
 30
0.0
 11
-393.8136223926635
 21
318.6438425828317
 31
0.0
 12
-396.2489165256288
 22
319.3459491253563
 32
0.0
 13
-396.2489165256288
 23
319.3459491253563
 33
0.0
  0
SOLID
  5
126C
330
1265
100
AcDbEntity
  8
0
 62
     0
440
 16777216
100
AcDbTrace
 10
-383.2111919690296
 20
318.2522397254459
 30
0.0
 11
-383.3072646783368
 21
317.4244628962396
 31
0.0
 12
-380.7758978360644
 22
317.5501331829212
 32
0.0
 13
-380.7758978360644
 23
317.5501331829212
 33
0.0
  0
MTEXT
  5
126D
330
1265
100
AcDbEntity
  8
0
 62
     0
440
 16777216
100
AcDbMText
 10
-388.2722254075787
 20
320.5174832271544
 30
0.0
 40
2.5
 41
0.0
 46
0.0
 71
     5
 72
     1
  1
15,58
 11
0.99333219504755
 21
-0.1152872511686175
 31
0.0
 73
     1
 44
1.0
  0
POINT
  5
126E
330
1265
100
AcDbEntity
  8
Defpoints
 62
     0
440
 16777216
100
AcDbPoint
 10
-396.9089263541992
 20
313.6592057506887
 30
0.0
  0
POINT
  5
126F
330
1265
100
AcDbEntity
  8
Defpoints
 62
     0
440
 16777216
100
AcDbPoint
 10
-381.4359076646347
 20
311.8633898082535
 30
0.0
  0
POINT
  5
1270
330
1265
100
AcDbEntity
  8
Defpoints
 62
     0
440
 16777216
100
AcDbPoint
 10
-380.7758978360644
 20
317.5501331829212
 30
0.0
  0
ENDBLK
  5
1267
330
1265
100
AcDbEntity
  8
0
100
AcDbBlockEnd
  0
BLOCK
  5
1273
330
1272
100
AcDbEntity
  8
0
100
AcDbBlockBegin
  2
*D18
 70
     1
 10
0.0
 20
0.0
 30
0.0
  3
*D18
  1

  0
LINE
  5
1275
330
1272
100
AcDbEntity
  8
0
 62
     0
440
 16777216
370
    -2
100
AcDbLine
 10
-403.7008921957752
 20
313.2739814585182
 30
0.0
 11
-339.4428577194072
 21
313.2739814585182
 31
0.0
  0
LINE
  5
1276
330
1272
100
AcDbEntity
  8
0
 62
     0
440
 16777216
370
    -2
100
AcDbLine
 10
-403.7008921957752
 20
307.1442633001762
 30
0.0
 11
-339.4428577194072
 21
307.1442633001763
 31
0.0
  0
LINE
  5
1277
330
1272
100
AcDbEntity
  8
0
 62
     0
440
 16777216
370
    -2
100
AcDbLine
 10
-340.6928577194073
 20
315.7739814585182
 30
0.0
 11
-340.6928577194073
 21
318.2739814585182
 31
0.0
  0
LINE
  5
1278
330
1272
100
AcDbEntity
  8
0
 62
     0
440
 16777216
370
    -2
100
AcDbLine
 10
-340.6928577194073
 20
304.6442633001763
 30
0.0
 11
-340.6928577194073
 21
293.810929966843
 31
0.0
  0
LINE
  5
1279
330
1272
100
AcDbEntity
  8
0
 62
     0
440
 16777216
370
    -2
100
AcDbLine
 10
-340.6928577194073
 20
313.2739814585182
 30
0.0
 11
-340.6928577194073
 21
307.1442633001763
 31
0.0
  0
SOLID
  5
127A
330
1272
100
AcDbEntity
  8
0
 62
     0
440
 16777216
100
AcDbTrace
 10
-341.1095243860739
 20
315.7739814585182
 30
0.0
 11
-340.2761910527406
 21
315.7739814585182
 31
0.0
 12
-340.6928577194073
 22
313.2739814585182
 32
0.0
 13
-340.6928577194073
 23
313.2739814585182
 33
0.0
  0
SOLID
  5
127B
330
1272
100
AcDbEntity
  8
0
 62
     0
440
 16777216
100
AcDbTrace
 10
-341.1095243860739
 20
304.6442633001763
 30
0.0
 11
-340.2761910527406
 21
304.6442633001763
 31
0.0
 12
-340.6928577194073
 22
307.1442633001763
 32
0.0
 13
-340.6928577194073
 23
307.1442633001763
 33
0.0
  0
MTEXT
  5
127C
330
1272
100
AcDbEntity
  8
0
 62
     0
440
 16777216
100
AcDbMText
 10
-342.7761910527404
 20
297.9775966335096
 30
0.0
 40
2.5
 41
0.0
 46
0.0
 71
     5
 72
     1
  1
6,13
 11
0.0000000000000001
 21
1.0
 31
0.0
 73
     1
 44
1.0
  0
POINT
  5
127D
330
1272
100
AcDbEntity
  8
Defpoints
 62
     0
440
 16777216
100
AcDbPoint
 10
-404.3258921957751
 20
313.2739814585182
 30
0.0
  0
POINT
  5
127E
330
1272
100
AcDbEntity
  8
Defpoints
 62
     0
440
 16777216
100
AcDbPoint
 10
-404.3258921957751
 20
307.1442633001762
 30
0.0
  0
POINT
  5
127F
330
1272
100
AcDbEntity
  8
Defpoints
 62
     0
440
 16777216
100
AcDbPoint
 10
-340.6928577194073
 20
307.1442633001763
 30
0.0
  0
ENDBLK
  5
1274
330
1272
100
AcDbEntity
  8
0
100
AcDbBlockEnd
  0
BLOCK
  5
1282
330
1281
100
AcDbEntity
  8
0
100
AcDbBlockBegin
  2
*D19
 70
     1
 10
0.0
 20
0.0
 30
0.0
  3
*D19
  1

  0
LINE
  5
1284
330
1281
100
AcDbEntity
  8
0
 62
     0
440
 16777216
370
    -2
100
AcDbLine
 10
-447.2590274059792
 20
301.155759426932
 30
0.0
 11
-447.2590274059792
 21
239.4889871290388
 31
0.0
  0
LINE
  5
1285
330
1281
100
AcDbEntity
  8
0
 62
     0
440
 16777216
370
    -2
100
AcDbLine
 10
-418.5711525195896
 20
301.155759426932
 30
0.0
 11
-418.5711525195896
 21
239.4889871290388
 31
0.0
  0
LINE
  5
1286
330
1281
100
AcDbEntity
  8
0
 62
     0
440
 16777216
370
    -2
100
AcDbLine
 10
-444.7590274059794
 20
240.7389871290388
 30
0.0
 11
-421.0711525195897
 21
240.7389871290388
 31
0.0
  0
SOLID
  5
1287
330
1281
100
AcDbEntity
  8
0
 62
     0
440
 16777216
100
AcDbTrace
 10
-444.7590274059794
 20
241.1556537957055
 30
0.0
 11
-444.7590274059794
 21
240.3223204623722
 31
0.0
 12
-447.2590274059792
 22
240.7389871290388
 32
0.0
 13
-447.2590274059792
 23
240.7389871290388
 33
0.0
  0
SOLID
  5
1288
330
1281
100
AcDbEntity
  8
0
 62
     0
440
 16777216
100
AcDbTrace
 10
-421.0711525195897
 20
241.1556537957055
 30
0.0
 11
-421.0711525195897
 21
240.3223204623722
 31
0.0
 12
-418.5711525195896
 22
240.7389871290388
 32
0.0
 13
-418.5711525195896
 23
240.7389871290388
 33
0.0
  0
MTEXT
  5
1289
330
1281
100
AcDbEntity
  8
0
 62
     0
440
 16777216
100
AcDbMText
 10
-432.9150899627846
 20
242.8223204623722
 30
0.0
 40
2.5
 41
0.0
 46
0.0
 71
     5
 72
     1
  1
28,69
 73
     1
 44
1.0
  0
POINT
  5
128A
330
1281
100
AcDbEntity
  8
Defpoints
 62
     0
440
 16777216
100
AcDbPoint
 10
-447.2590274059792
 20
301.780759426932
 30
0.0
  0
POINT
  5
128B
330
1281
100
AcDbEntity
  8
Defpoints
 62
     0
440
 16777216
100
AcDbPoint
 10
-418.5711525195896
 20
301.780759426932
 30
0.0
  0
POINT
  5
128C
330
1281
100
AcDbEntity
  8
Defpoints
 62
     0
440
 16777216
100
AcDbPoint
 10
-418.5711525195896
 20
240.7389871290388
 30
0.0
  0
ENDBLK
  5
1283
330
1281
100
AcDbEntity
  8
0
100
AcDbBlockEnd
  0
BLOCK
  5
128F
330
128E
100
AcDbEntity
  8
0
100
AcDbBlockBegin
  2
*D20
 70
     1
 10
0.0
 20
0.0
 30
0.0
  3
*D20
  1

  0
LINE
  5
129A
330
128E
100
AcDbEntity
  8
0
 62
     0
440
 16777216
370
    -2
100
AcDbLine
 10
68.8422452791811
 20
460.8894326303781
 30
0.0
 11
57.83233359785723
 21
465.9574768360922
 31
0.0
  0
LINE
  5
129B
330
128E
100
AcDbEntity
  8
0
 62
     0
440
 16777216
370
    -2
100
AcDbLine
 10
46.9317584614177
 20
470.9751916242042
 30
0.0
 11
44.66080530799279
 21
472.0205488717272
 31
0.0
  0
MTEXT
  5
129C
330
128E
100
AcDbEntity
  8
0
 62
     0
440
 16777216
100
AcDbMText
 10
67.16606396527989
 20
463.7251178469304
 30
0.0
 40
2.5
 41
0.0
 46
0.0
 71
     5
 72
     1
  1
∅7
 11
0.9083812613699608
 21
-0.4181428990093206
 31
0.0
 73
     1
 44
1.0
  0
LINE
  5
129D
330
128E
100
AcDbEntity
  8
0
 62
     0
440
 16777216
370
    -2
100
AcDbLine
 10
49.20271161484261
 20
469.9298343766808
 30
0.0
 11
55.56138044443232
 21
467.0028340836156
 31
0.0
  0
SOLID
  5
129E
330
128E
100
AcDbEntity
  8
0
 62
     0
440
 16777216
100
AcDbTrace
 10
47.10598466933825
 20
471.3536838164416
 30
0.0
 11
46.7575322534971
 21
470.5966994319664
 31
0.0
 12
49.20271161484261
 22
469.9298343766808
 32
0.0
 13
49.20271161484261
 23
469.9298343766808
 33
0.0
  0
SOLID
  5
129F
330
128E
100
AcDbEntity
  8
0
 62
     0
440
 16777216
100
AcDbTrace
 10
58.00655980577777
 20
466.3359690283298
 30
0.0
 11
57.65810738993664
 21
465.5789846438548
 31
0.0
 12
55.56138044443232
 22
467.0028340836156
 32
0.0
 13
55.56138044443232
 23
467.0028340836156
 33
0.0
  0
POINT
  5
12A0
330
128E
100
AcDbEntity
  8
Defpoints
 62
     0
440
 16777216
100
AcDbPoint
 10
55.56138044443232
 20
467.0028340836156
 30
0.0
  0
POINT
  5
12A1
330
128E
100
AcDbEntity
  8
Defpoints
 62
     0
440
 16777216
100
AcDbPoint
 10
49.20271161484261
 20
469.9298343766808
 30
0.0
  0
ENDBLK
  5
1290
330
128E
100
AcDbEntity
  8
0
100
AcDbBlockEnd
  0
BLOCK
  5
12AA
330
12A9
100
AcDbEntity
  8
0
100
AcDbBlockBegin
  2
*D21
 70
     1
 10
0.0
 20
0.0
 30
0.0
  3
*D21
  1

  0
LINE
  5
12AC
330
12A9
100
AcDbEntity
  8
0
 62
     0
440
 16777216
370
    -2
100
AcDbLine
 10
-381.6688389428837
 20
305.4130390510595
 30
0.0
 11
-381.6688389428837
 21
285.4189719550241
 31
0.0
  0
LINE
  5
12AD
330
12A9
100
AcDbEntity
  8
0
 62
     0
440
 16777216
370
    -2
100
AcDbLine
 10
-418.5711525195896
 20
305.4130390510595
 30
0.0
 11
-418.5711525195896
 21
285.4189719550241
 31
0.0
  0
LINE
  5
12AE
330
12A9
100
AcDbEntity
  8
0
 62
     0
440
 16777216
370
    -2
100
AcDbLine
 10
-384.1688389428837
 20
286.6689719550241
 30
0.0
 11
-416.0711525195897
 21
286.6689719550241
 31
0.0
  0
SOLID
  5
12AF
330
12A9
100
AcDbEntity
  8
0
 62
     0
440
 16777216
100
AcDbTrace
 10
-384.1688389428837
 20
287.0856386216908
 30
0.0
 11
-384.1688389428837
 21
286.2523052883574
 31
0.0
 12
-381.6688389428837
 22
286.6689719550241
 32
0.0
 13
-381.6688389428837
 23
286.6689719550241
 33
0.0
  0
SOLID
  5
12B0
330
12A9
100
AcDbEntity
  8
0
 62
     0
440
 16777216
100
AcDbTrace
 10
-416.0711525195897
 20
287.0856386216908
 30
0.0
 11
-416.0711525195897
 21
286.2523052883574
 31
0.0
 12
-418.5711525195896
 22
286.6689719550241
 32
0.0
 13
-418.5711525195896
 23
286.6689719550241
 33
0.0
  0
MTEXT
  5
12B1
330
12A9
100
AcDbEntity
  8
0
 62
     0
440
 16777216
100
AcDbMText
 10
-400.1199957312366
 20
288.7523052883574
 30
0.0
 40
2.5
 41
0.0
 46
0.0
 71
     5
 72
     1
  1
36,9
 73
     1
 44
1.0
  0
POINT
  5
12B2
330
12A9
100
AcDbEntity
  8
Defpoints
 62
     0
440
 16777216
100
AcDbPoint
 10
-381.6688389428837
 20
306.0380390510595
 30
0.0
  0
POINT
  5
12B3
330
12A9
100
AcDbEntity
  8
Defpoints
 62
     0
440
 16777216
100
AcDbPoint
 10
-418.5711525195896
 20
306.0380390510595
 30
0.0
  0
POINT
  5
12B4
330
12A9
100
AcDbEntity
  8
Defpoints
 62
     0
440
 16777216
100
AcDbPoint
 10
-418.5711525195896
 20
286.6689719550241
 30
0.0
  0
ENDBLK
  5
12AB
330
12A9
100
AcDbEntity
  8
0
100
AcDbBlockEnd
  0
ENDSEC
  0
SECTION
  2
ENTITIES
  0
LINE
  5
162A
330
1F
100
AcDbEntity
  8
Hewi
100
AcDbLine
 10
283.2734515068555
 20
331.0661230712228
 30
0.0
 11
284.426405608418
 21
331.0661230712228
 31
0.0
  0
LINE
  5
162B
330
1F
100
AcDbEntity
  8
Hewi
100
AcDbLine
 10
283.2734515068555
 20
330.4571066527658
 30
0.0
 11
284.3343951103711
 21
330.4571066527658
 31
0.0
  0
LINE
  5
162C
330
1F
100
AcDbEntity
  8
Hewi
100
AcDbLine
 10
280.7133318779492
 20
330.4571066527658
 30
0.0
 11
281.8113543388868
 21
330.4571066527658
 31
0.0
  0
LINE
  5
162D
330
1F
100
AcDbEntity
  8
Hewi
100
AcDbLine
 10
283.2734515068555
 20
330.0250921874337
 30
0.0
 11
284.3343951103711
 21
330.0250921874337
 31
0.0
  0
LINE
  5
162E
330
1F
100
AcDbEntity
  8
Hewi
100
AcDbLine
 10
280.7133318779492
 20
330.0250921874337
 30
0.0
 11
281.8113543388868
 21
330.0250921874337
 31
0.0
  0
LINE
  5
162F
330
1F
100
AcDbEntity
  8
Hewi
100
AcDbLine
 10
283.2734515068555
 20
329.27710634759
 30
0.0
 11
284.426405608418
 21
329.27710634759
 31
0.0
  0
LINE
  5
1630
330
1F
100
AcDbEntity
  8
Hewi
100
AcDbLine
 10
288.1803728935743
 20
328.8221274047189
 30
0.0
 11
288.7443377373243
 21
328.8221274047189
 31
0.0
  0
LINE
  5
1631
330
1F
100
AcDbEntity
  8
Hewi
100
AcDbLine
 10
286.6844012138868
 20
328.8221274047189
 30
0.0
 11
287.2173907158399
 21
328.8221274047189
 31
0.0
  0
LINE
  5
1632
330
1F
100
AcDbEntity
  8
Hewi
100
AcDbLine
 10
285.2734209892774
 20
328.8221274047189
 30
0.0
 11
285.8064104912305
 21
328.8221274047189
 31
0.0
  0
LINE
  5
1633
330
1F
100
AcDbEntity
  8
Hewi
100
AcDbLine
 10
282.7264239189649
 20
328.8221274047189
 30
0.0
 11
284.426405608418
 21
328.8221274047189
 31
0.0
  0
LINE
  5
1634
330
1F
100
AcDbEntity
  8
Hewi
100
AcDbLine
 10
281.8113543388868
 20
328.8221274047189
 30
0.0
 11
282.3594500420118
 21
328.8221274047189
 31
0.0
  0
LINE
  5
1635
330
1F
100
AcDbEntity
  8
Hewi
100
AcDbLine
 10
280.1664568779493
 20
328.8221274047189
 30
0.0
 11
280.7133318779492
 21
328.8221274047189
 31
0.0
  0
LINE
  5
1636
330
1F
100
AcDbEntity
  8
Hewi
100
AcDbLine
 10
288.1803728935743
 20
331.5421209960275
 30
0.0
 11
288.7443377373243
 21
331.5421209960275
 31
0.0
  0
LINE
  5
1637
330
1F
100
AcDbEntity
  8
Hewi
100
AcDbLine
 10
287.4323870537305
 20
331.5421209960275
 30
0.0
 11
288.0334307549024
 21
331.5421209960275
 31
0.0
  0
LINE
  5
1638
330
1F
100
AcDbEntity
  8
Hewi
100
AcDbLine
 10
285.9763934013868
 20
331.5421209960275
 30
0.0
 11
286.5313555595899
 21
331.5421209960275
 31
0.0
  0
LINE
  5
1639
330
1F
100
AcDbEntity
  8
Hewi
100
AcDbLine
 10
284.5083453056836
 20
331.5421209960275
 30
0.0
 11
285.0863482353712
 21
331.5421209960275
 31
0.0
  0
LINE
  5
163A
330
1F
100
AcDbEntity
  8
Hewi
100
AcDbLine
 10
282.7264239189649
 20
331.5421209960275
 30
0.0
 11
284.426405608418
 21
331.5421209960275
 31
0.0
  0
LINE
  5
163B
330
1F
100
AcDbEntity
  8
Hewi
100
AcDbLine
 10
281.8113543388868
 20
331.5421209960275
 30
0.0
 11
282.3594500420118
 21
331.5421209960275
 31
0.0
  0
LINE
  5
163C
330
1F
100
AcDbEntity
  8
Hewi
100
AcDbLine
 10
280.1664568779493
 20
331.5421209960275
 30
0.0
 11
280.7133318779492
 21
331.5421209960275
 31
0.0
  0
LINE
  5
163D
330
1F
100
AcDbEntity
  8
Hewi
100
AcDbLine
 10
84.7443987724805
 20
274.542113366633
 30
0.0
 11
304.7443987724805
 21
274.542113366633
 31
0.0
  0
LINE
  5
163E
330
1F
100
AcDbEntity
  8
Hewi
100
AcDbLine
 10
124.7443987724805
 20
299.542113366633
 30
0.0
 11
264.7443987724805
 21
299.542113366633
 31
0.0
  0
LINE
  5
163F
330
1F
100
AcDbEntity
  8
Hewi
100
AcDbLine
 10
84.39436215138675
 20
339.542113366633
 30
0.0
 11
305.0944353935743
 21
339.542113366633
 31
0.0
  0
LINE
  5
1640
330
1F
100
AcDbEntity
  8
Hewi
100
AcDbLine
 10
84.89439266896487
 20
341.5421019225412
 30
0.0
 11
304.5944048759961
 21
341.5421019225412
 31
0.0
  0
LINE
  5
1641
330
1F
100
AcDbEntity
  8
Hewi
100
AcDbLine
 10
84.39436215138675
 20
341.0421095519357
 30
0.0
 11
305.0944353935744
 21
341.0421095519357
 31
0.0
  0
LINE
  5
1646
330
1F
100
AcDbEntity
  8
Hewi
100
AcDbLine
 10
120.7444598076367
 20
275.1851187377267
 30
0.0
 11
268.7443377373242
 21
275.1851187377267
 31
0.0
  0
LINE
  5
1647
330
1F
100
AcDbEntity
  8
Hewi
100
AcDbLine
 10
120.7444598076367
 20
275.3831015258127
 30
0.0
 11
268.7443377373242
 21
275.3831015258127
 31
0.0
  0
LINE
  5
1648
330
1F
100
AcDbEntity
  8
Hewi
100
AcDbLine
 10
119.7443987724805
 20
279.2941198973947
 30
0.0
 11
269.7443987724805
 21
279.2941198973947
 31
0.0
  0
LINE
  5
1649
330
1F
100
AcDbEntity
  8
Hewi
100
AcDbLine
 10
119.7443987724805
 20
278.5261068969064
 30
0.0
 11
269.7443987724805
 21
278.5261068969064
 31
0.0
  0
LINE
  5
164A
330
1F
100
AcDbEntity
  8
Hewi
100
AcDbLine
 10
283.2734515068555
 20
330.4571066527658
 30
0.0
 11
283.2734515068555
 21
331.0661230712228
 31
0.0
  0
LINE
  5
164B
330
1F
100
AcDbEntity
  8
Hewi
100
AcDbLine
 10
283.2734515068555
 20
329.27710634759
 30
0.0
 11
283.2734515068555
 21
330.0250921874337
 31
0.0
  0
LINE
  5
164C
330
1F
100
AcDbEntity
  8
Hewi
100
AcDbLine
 10
284.3343951103711
 20
330.0250921874337
 30
0.0
 11
284.3343951103711
 21
330.4571066527658
 31
0.0
  0
LINE
  5
164D
330
1F
100
AcDbEntity
  8
Hewi
100
AcDbLine
 10
284.426405608418
 20
331.0661230712228
 30
0.0
 11
284.426405608418
 21
331.5421209960275
 31
0.0
  0
LINE
  5
164E
330
1F
100
AcDbEntity
  8
Hewi
100
AcDbLine
 10
284.426405608418
 20
328.8221274047189
 30
0.0
 11
284.426405608418
 21
329.27710634759
 31
0.0
  0
LINE
  5
164F
330
1F
100
AcDbEntity
  8
Hewi
100
AcDbLine
 10
282.7264239189649
 20
328.8221274047189
 30
0.0
 11
282.7264239189649
 21
331.5421209960275
 31
0.0
  0
LINE
  5
1650
330
1F
100
AcDbEntity
  8
Hewi
100
AcDbLine
 10
288.7443377373243
 20
328.8221274047189
 30
0.0
 11
288.7443377373243
 21
331.5421209960275
 31
0.0
  0
LINE
  5
1651
330
1F
100
AcDbEntity
  8
Hewi
100
AcDbLine
 10
288.1803728935743
 20
328.8221274047189
 30
0.0
 11
288.1803728935743
 21
331.5421209960275
 31
0.0
  0
LINE
  5
1652
330
1F
100
AcDbEntity
  8
Hewi
100
AcDbLine
 10
84.7443987724805
 20
274.542113366633
 30
0.0
 11
84.7443987724805
 21
339.542113366633
 31
0.0
  0
LINE
  5
1653
330
1F
100
AcDbEntity
  8
Hewi
100
AcDbLine
 10
119.7443987724805
 20
275.5420981078439
 30
0.0
 11
119.7443987724805
 21
294.542113366633
 31
0.0
  0
LINE
  5
1654
330
1F
100
AcDbEntity
  8
Hewi
100
AcDbLine
 10
269.7443987724805
 20
275.5420981078439
 30
0.0
 11
269.7443987724805
 21
294.542113366633
 31
0.0
  0
LINE
  5
1655
330
1F
100
AcDbEntity
  8
Hewi
100
AcDbLine
 10
304.7443987724805
 20
274.542113366633
 30
0.0
 11
304.7443987724805
 21
339.542113366633
 31
0.0
  0
LINE
  5
1656
330
1F
100
AcDbEntity
  8
Hewi
100
AcDbLine
 10
305.0944353935743
 20
339.542113366633
 30
0.0
 11
305.0944353935743
 21
341.0421095519357
 31
0.0
  0
LINE
  5
1657
330
1F
100
AcDbEntity
  8
Hewi
100
AcDbLine
 10
84.39436215138675
 20
339.542113366633
 30
0.0
 11
84.39436215138675
 21
341.0421095519357
 31
0.0
  0
LINE
  5
1658
330
1F
100
AcDbEntity
  8
Hewi
100
AcDbLine
 10
281.8113543388868
 20
330.4571066527658
 30
0.0
 11
281.8113543388868
 21
331.5421209960275
 31
0.0
  0
LINE
  5
1659
330
1F
100
AcDbEntity
  8
Hewi
100
AcDbLine
 10
281.8113543388868
 20
328.8221274047189
 30
0.0
 11
281.8113543388868
 21
330.0250921874337
 31
0.0
  0
LINE
  5
165A
330
1F
100
AcDbEntity
  8
Hewi
100
AcDbLine
 10
280.7133318779492
 20
330.4571066527658
 30
0.0
 11
280.7133318779492
 21
331.5421209960275
 31
0.0
  0
LINE
  5
165B
330
1F
100
AcDbEntity
  8
Hewi
100
AcDbLine
 10
280.7133318779492
 20
328.8221274047189
 30
0.0
 11
280.7133318779492
 21
330.0250921874337
 31
0.0
  0
LINE
  5
165C
330
1F
100
AcDbEntity
  8
Hewi
100
AcDbLine
 10
280.1664568779493
 20
328.8221274047189
 30
0.0
 11
280.1664568779493
 21
331.5421209960275
 31
0.0
  0
LINE
  5
165D
330
1F
100
AcDbEntity
  8
Hewi
100
AcDbLine
 10
282.3594500420118
 20
328.8221274047189
 30
0.0
 11
282.3594500420118
 21
331.5421209960275
 31
0.0
  0
LINE
  5
165F
330
1F
100
AcDbEntity
  8
Hewi
100
AcDbLine
 10
84.54832333302737
 20
341.4021025328927
 30
0.0
 11
84.6284319756055
 21
341.4631186156563
 31
0.0
  0
LINE
  5
1660
330
1F
100
AcDbEntity
  8
Hewi
100
AcDbLine
 10
304.9633623955274
 20
341.373110833674
 30
0.0
 11
305.0314165947461
 21
341.2831030516916
 31
0.0
  0
LINE
  5
1665
330
1F
100
AcDbEntity
  8
Hewi
100
AcDbLine
 10
269.8144366142774
 20
275.17310244134
 30
0.0
 11
270.0373675224805
 21
274.8341284423166
 31
0.0
  0
LINE
  5
1666
330
1F
100
AcDbEntity
  8
Hewi
100
AcDbLine
 10
121.2093951103711
 20
298.0771170287423
 30
0.0
 11
122.9043413994336
 21
299.1911230712228
 31
0.0
  0
LINE
  5
1667
330
1F
100
AcDbEntity
  8
Hewi
100
AcDbLine
 10
268.2804705498242
 20
298.0771170287423
 30
0.0
 11
269.393446624043
 21
296.3820944457345
 31
0.0
  0
LINE
  5
1668
330
1F
100
AcDbEntity
  8
Hewi
100
AcDbLine
 10
119.1123797295117
 20
274.6121130614572
 30
0.0
 11
119.4514300224805
 21
274.8341284423166
 31
0.0
  0
LINE
  5
166A
330
1F
100
AcDbEntity
  8
Hewi
100
AcDbLine
 10
84.6284319756055
 20
341.4631186156563
 30
0.0
 11
84.67939633107425
 21
341.4921103148752
 31
0.0
  0
LINE
  5
166B
330
1F
100
AcDbEntity
  8
Hewi
100
AcDbLine
 10
268.7443377373242
 20
277.9831228881174
 30
0.0
 11
268.8464190361524
 21
278.038092675715
 31
0.0
  0
LINE
  5
166D
330
1F
100
AcDbEntity
  8
Hewi
100
AcDbLine
 10
268.7443377373242
 20
277.9831228881174
 30
0.0
 11
269.155409514668
 21
278.1231222777658
 31
0.0
  0
LINE
  5
166E
330
1F
100
AcDbEntity
  8
Hewi
100
AcDbLine
 10
305.0314165947461
 20
341.2831030516916
 30
0.0
 11
305.090468108418
 21
341.1031065612131
 31
0.0
  0
LINE
  5
1670
330
1F
100
AcDbEntity
  8
Hewi
100
AcDbLine
 10
284.5083453056836
 20
331.5421209960275
 30
0.0
 11
285.2734209892774
 21
328.8221274047189
 31
0.0
  0
LINE
  5
1671
330
1F
100
AcDbEntity
  8
Hewi
100
AcDbLine
 10
285.0863482353712
 20
331.5421209960275
 30
0.0
 11
285.5584551689649
 21
329.6581183104806
 31
0.0
  0
LINE
  5
1673
330
1F
100
AcDbEntity
  8
Hewi
100
AcDbLine
 10
286.2484576103711
 20
330.6780920653634
 30
0.0
 11
286.6844012138868
 21
328.8221274047189
 31
0.0
  0
LINE
  5
1674
330
1F
100
AcDbEntity
  8
Hewi
100
AcDbLine
 10
84.67939633107425
 20
341.4921103148752
 30
0.0
 11
84.89439266896487
 21
341.5421019225412
 31
0.0
  0
LINE
  5
1676
330
1F
100
AcDbEntity
  8
Hewi
100
AcDbLine
 10
286.5313555595899
 20
331.5421209960275
 30
0.0
 11
286.9453265068555
 21
329.6441183715158
 31
0.0
  0
LINE
  5
1677
330
1F
100
AcDbEntity
  8
Hewi
100
AcDbLine
 10
122.9043413994336
 20
299.1911230712228
 30
0.0
 11
124.7443987724805
 21
299.542113366633
 31
0.0
  0
LINE
  5
1678
330
1F
100
AcDbEntity
  8
Hewi
100
AcDbLine
 10
269.393446624043
 20
296.3820944457345
 30
0.0
 11
269.7443987724805
 21
294.542113366633
 31
0.0
  0
LINE
  5
1679
330
1F
100
AcDbEntity
  8
Hewi
100
AcDbLine
 10
118.7443377373242
 20
274.542113366633
 30
0.0
 11
119.1123797295117
 21
274.6121130614572
 31
0.0
  0
LINE
  5
167A
330
1F
100
AcDbEntity
  8
Hewi
100
AcDbLine
 10
269.7443987724805
 20
275.5420981078439
 30
0.0
 11
269.8144366142774
 21
275.17310244134
 31
0.0
  0
LINE
  5
167B
330
1F
100
AcDbEntity
  8
Hewi
100
AcDbLine
 10
268.8534380791211
 20
275.1911078124337
 30
0.0
 11
269.1543413994336
 21
275.2411184935861
 31
0.0
  0
LINE
  5
167D
330
1F
100
AcDbEntity
  8
Hewi
100
AcDbLine
 10
305.090468108418
 20
341.1031065612131
 30
0.0
 11
305.0944353935743
 21
341.0421095519357
 31
0.0
  0
LINE
  5
167E
330
1F
100
AcDbEntity
  8
Hewi
100
AcDbLine
 10
268.7443377373242
 20
275.1851187377267
 30
0.0
 11
268.8534380791211
 21
275.1911078124337
 31
0.0
  0
LINE
  5
1680
330
1F
100
AcDbEntity
  8
Hewi
100
AcDbLine
 10
119.6755816338086
 20
275.1789770751291
 30
0.0
 11
119.9343706963086
 21
275.1821051268869
 31
0.0
  0
LINE
  5
1681
330
1F
100
AcDbEntity
  8
Hewi
100
AcDbLine
 10
119.7443987724805
 20
278.0506811766916
 30
0.0
 11
119.9664141533399
 21
278.0531225829416
 31
0.0
  0
LINE
  5
1682
330
1F
100
AcDbEntity
  8
Hewi
100
AcDbLine
 10
119.9493243095899
 20
275.2390967040353
 30
0.0
 11
120.3344561455274
 21
275.2411184935861
 31
0.0
  0
LINE
  5
1683
330
1F
100
AcDbEntity
  8
Hewi
100
AcDbLine
 10
119.9343706963086
 20
275.1821051268869
 30
0.0
 11
120.7444598076367
 21
275.1851187377267
 31
0.0
  0
LINE
  5
1684
330
1F
100
AcDbEntity
  8
Hewi
100
AcDbLine
 10
268.7443377373242
 20
275.1851187377267
 30
0.0
 11
269.5544268486524
 21
275.1821051268869
 31
0.0
  0
LINE
  5
1685
330
1F
100
AcDbEntity
  8
Hewi
100
AcDbLine
 10
269.1543413994336
 20
275.2411184935861
 30
0.0
 11
269.5394732353711
 21
275.2390967040353
 31
0.0
  0
LINE
  5
1686
330
1F
100
AcDbEntity
  8
Hewi
100
AcDbLine
 10
269.5544268486524
 20
275.1821051268869
 30
0.0
 11
269.8132159111525
 21
275.1789770751291
 31
0.0
  0
LINE
  5
1687
330
1F
100
AcDbEntity
  8
Hewi
100
AcDbLine
 10
269.5394732353711
 20
278.121100488215
 30
0.0
 11
269.7443987724805
 21
278.1185827880197
 31
0.0
  0
LINE
  5
168B
330
1F
100
AcDbEntity
  8
Hewi
100
AcDbLine
 10
120.4324175713086
 20
275.2271185546212
 30
0.0
 11
120.7444598076367
 21
275.1851187377267
 31
0.0
  0
LINE
  5
168C
330
1F
100
AcDbEntity
  8
Hewi
100
AcDbLine
 10
120.3344561455274
 20
275.2411184935861
 30
0.0
 11
120.4324175713086
 21
275.2271185546212
 31
0.0
  0
LINE
  5
168D
330
1F
100
AcDbEntity
  8
Hewi
100
AcDbLine
 10
84.39436215138675
 20
341.0421095519357
 30
0.0
 11
84.42045468068362
 21
341.2001143126779
 31
0.0
  0
LINE
  5
168E
330
1F
100
AcDbEntity
  8
Hewi
100
AcDbLine
 10
119.6743609306836
 20
275.17310244134
 30
0.0
 11
119.7443987724805
 21
275.5420981078439
 31
0.0
  0
LINE
  5
168F
330
1F
100
AcDbEntity
  8
Hewi
100
AcDbLine
 10
270.3764178154492
 20
274.6121130614572
 30
0.0
 11
270.7444598076368
 21
274.542113366633
 31
0.0
  0
LINE
  5
1690
330
1F
100
AcDbEntity
  8
Hewi
100
AcDbLine
 10
264.7443987724805
 20
299.542113366633
 30
0.0
 11
266.5853716728711
 21
299.1911230712228
 31
0.0
  0
LINE
  5
1691
330
1F
100
AcDbEntity
  8
Hewi
100
AcDbLine
 10
119.7443987724805
 20
294.542113366633
 30
0.0
 11
120.095350920918
 21
296.3820944457345
 31
0.0
  0
LINE
  5
1692
330
1F
100
AcDbEntity
  8
Hewi
100
AcDbLine
 10
304.5944048759961
 20
341.5421019225412
 30
0.0
 11
304.7764422295117
 21
341.50611025384
 31
0.0
  0
LINE
  5
1693
330
1F
100
AcDbEntity
  8
Hewi
100
AcDbLine
 10
285.5584551689649
 20
329.6581183104806
 30
0.0
 11
285.9763934013868
 21
331.5421209960275
 31
0.0
  0
LINE
  5
1695
330
1F
100
AcDbEntity
  8
Hewi
100
AcDbLine
 10
285.8064104912305
 20
328.8221274047189
 30
0.0
 11
286.2484576103711
 21
330.6780920653634
 31
0.0
  0
LINE
  5
1697
330
1F
100
AcDbEntity
  8
Hewi
100
AcDbLine
 10
286.9453265068555
 20
329.6441183715158
 30
0.0
 11
287.4323870537305
 21
331.5421209960275
 31
0.0
  0
LINE
  5
1699
330
1F
100
AcDbEntity
  8
Hewi
100
AcDbLine
 10
287.2173907158399
 20
328.8221274047189
 30
0.0
 11
288.0334307549024
 21
331.5421209960275
 31
0.0
  0
LINE
  5
169C
330
1F
100
AcDbEntity
  8
Hewi
100
AcDbLine
 10
84.42045468068362
 20
341.2001143126779
 30
0.0
 11
84.470350920918
 21
341.3001166014963
 31
0.0
  0
LINE
  5
169D
330
1F
100
AcDbEntity
  8
Hewi
100
AcDbLine
 10
304.7764422295117
 20
341.50611025384
 30
0.0
 11
304.8603655693555
 21
341.4631186156563
 31
0.0
  0
LINE
  5
16A1
330
1F
100
AcDbEntity
  8
Hewi
100
AcDbLine
 10
270.0373675224805
 20
274.8341284423166
 30
0.0
 11
270.3764178154492
 21
274.6121130614572
 31
0.0
  0
LINE
  5
16A2
330
1F
100
AcDbEntity
  8
Hewi
100
AcDbLine
 10
266.5853716728711
 20
299.1911230712228
 30
0.0
 11
268.2804705498242
 21
298.0771170287423
 31
0.0
  0
LINE
  5
16A3
330
1F
100
AcDbEntity
  8
Hewi
100
AcDbLine
 10
120.095350920918
 20
296.3820944457345
 30
0.0
 11
121.2093951103711
 21
298.0771170287423
 31
0.0
  0
LINE
  5
16A4
330
1F
100
AcDbEntity
  8
Hewi
100
AcDbLine
 10
119.4514300224805
 20
274.8341284423166
 30
0.0
 11
119.6743609306836
 21
275.17310244134
 31
0.0
  0
LINE
  5
16A7
330
1F
100
AcDbEntity
  8
Hewi
100
AcDbLine
 10
84.470350920918
 20
341.3001166014963
 30
0.0
 11
84.54832333302737
 21
341.4021025328927
 31
0.0
  0
LINE
  5
16A9
330
1F
100
AcDbEntity
  8
Hewi
100
AcDbLine
 10
304.8603655693555
 20
341.4631186156563
 30
0.0
 11
304.9633623955274
 21
341.373110833674
 31
0.0
  0
LINE
  5
17A8
330
1F
100
AcDbEntity
  8
Hewi
100
AcDbLine
 10
526.3454091476559
 20
331.5421209960275
 30
0.0
 11
526.4453542160152
 21
331.5421209960275
 31
0.0
  0
LINE
  5
17A9
330
1F
100
AcDbEntity
  8
Hewi
100
AcDbLine
 10
526.3454091476559
 20
328.8221274047189
 30
0.0
 11
526.4453542160152
 21
328.8221274047189
 31
0.0
  0
LINE
  5
17AA
330
1F
100
AcDbEntity
  8
Hewi
100
AcDbLine
 10
416.345409147656
 20
274.542113366633
 30
0.0
 11
526.3454091476559
 21
274.542113366633
 31
0.0
  0
LINE
  5
17AB
330
1F
100
AcDbEntity
  8
Hewi
100
AcDbLine
 10
414.4954335617184
 20
339.542113366633
 30
0.0
 11
526.6954457687496
 21
339.542113366633
 31
0.0
  0
LINE
  5
17AC
330
1F
100
AcDbEntity
  8
Hewi
100
AcDbLine
 10
414.9954640792966
 20
341.5421209960275
 30
0.0
 11
526.1954152511716
 21
341.5421209960275
 31
0.0
  0
LINE
  5
17AD
330
1F
100
AcDbEntity
  8
Hewi
100
AcDbLine
 10
525.9604298996091
 20
341.2261114745431
 30
0.0
 11
526.4804494308591
 21
341.2261114745431
 31
0.0
  0
LINE
  5
17AE
330
1F
100
AcDbEntity
  8
Hewi
100
AcDbLine
 10
519.3724477218746
 20
341.2261114745431
 30
0.0
 11
521.0724294113279
 21
341.2261114745431
 31
0.0
  0
LINE
  5
17AF
330
1F
100
AcDbEntity
  8
Hewi
100
AcDbLine
 10
526.3454091476559
 20
274.542113366633
 30
0.0
 11
526.3454091476559
 21
339.542113366633
 31
0.0
  0
LINE
  5
17B0
330
1F
100
AcDbEntity
  8
Hewi
100
AcDbLine
 10
416.345409147656
 20
274.542113366633
 30
0.0
 11
416.345409147656
 21
339.542113366633
 31
0.0
  0
LINE
  5
17B1
330
1F
100
AcDbEntity
  8
Hewi
100
AcDbLine
 10
526.6954457687496
 20
339.542113366633
 30
0.0
 11
526.6954457687496
 21
341.042128625422
 31
0.0
  0
LINE
  5
17B2
330
1F
100
AcDbEntity
  8
Hewi
100
AcDbLine
 10
414.6954762863279
 20
339.542113366633
 30
0.0
 11
414.6954762863279
 21
341.042128625422
 31
0.0
  0
LINE
  5
17B3
330
1F
100
AcDbEntity
  8
Hewi
100
AcDbLine
 10
416.1784779953122
 20
321.6901312499337
 30
0.0
 11
416.1784779953122
 21
328.7821112304025
 31
0.0
  0
LINE
  5
17B4
330
1F
100
AcDbEntity
  8
Hewi
100
AcDbLine
 10
416.1784779953122
 20
285.3011236815744
 30
0.0
 11
416.1784779953122
 21
292.3940954833322
 31
0.0
  0
LINE
  5
17B5
330
1F
100
AcDbEntity
  8
Hewi
100
AcDbLine
 10
413.8454091476559
 20
289.6321020751291
 30
0.0
 11
413.8454091476559
 21
324.4510946898752
 31
0.0
  0
LINE
  5
17B6
330
1F
100
AcDbEntity
  8
Hewi
100
AcDbLine
 10
414.5714223312498
 20
341.3001166014963
 30
0.0
 11
414.5726430343747
 21
341.3012991576486
 31
0.0
  0
LINE
  5
17B7
330
1F
100
AcDbEntity
  8
Hewi
100
AcDbLine
 10
415.8954274582028
 20
329.4011221556955
 30
0.0
 11
416.1784779953122
 21
329.6691046386056
 31
0.0
  0
LINE
  5
17B8
330
1F
100
AcDbEntity
  8
Hewi
100
AcDbLine
 10
416.1784779953122
 20
329.6691046386056
 30
0.0
 11
416.1993825363278
 21
329.6881018309885
 31
0.0
  0
LINE
  5
17B9
330
1F
100
AcDbEntity
  8
Hewi
100
AcDbLine
 10
414.6263539718748
 20
341.3731299071603
 30
0.0
 11
414.780467741406
 21
341.4921103148752
 31
0.0
  0
LINE
  5
17BA
330
1F
100
AcDbEntity
  8
Hewi
100
AcDbLine
 10
526.5683400558591
 20
341.3151083617502
 30
0.0
 11
526.6644704269529
 21
341.1791144042306
 31
0.0
  0
LINE
  5
17BB
330
1F
100
AcDbEntity
  8
Hewi
100
AcDbLine
 10
414.6493947433591
 20
341.4021216063791
 30
0.0
 11
414.780467741406
 21
341.4921103148752
 31
0.0
  0
LINE
  5
17BC
330
1F
100
AcDbEntity
  8
Hewi
100
AcDbLine
 10
416.1993825363278
 20
284.3950949340158
 30
0.0
 11
416.3104665207028
 21
284.2261038451486
 31
0.0
  0
LINE
  5
17BD
330
1F
100
AcDbEntity
  8
Hewi
100
AcDbLine
 10
414.3364369796873
 20
287.0551214843088
 30
0.0
 11
415.8954274582028
 21
284.6821127562813
 31
0.0
  0
LINE
  5
17BE
330
1F
100
AcDbEntity
  8
Hewi
100
AcDbLine
 10
414.813426725781
 20
341.4631186156563
 30
0.0
 11
414.8593556808591
 21
341.4921103148752
 31
0.0
  0
LINE
  5
17BF
330
1F
100
AcDbEntity
  8
Hewi
100
AcDbLine
 10
414.7113454269528
 20
341.4531241088205
 30
0.0
 11
414.780467741406
 21
341.4921103148752
 31
0.0
  0
LINE
  5
17C0
330
1F
100
AcDbEntity
  8
Hewi
100
AcDbLine
 10
414.8593556808591
 20
341.4921103148752
 30
0.0
 11
414.9954640792966
 21
341.5421209960275
 31
0.0
  0
LINE
  5
17C1
330
1F
100
AcDbEntity
  8
Hewi
100
AcDbLine
 10
414.7113454269528
 20
341.4531241088205
 30
0.0
 11
414.7339284347654
 21
341.4601812987619
 31
0.0
  0
LINE
  5
17C2
330
1F
100
AcDbEntity
  8
Hewi
100
AcDbLine
 10
517.595409147656
 20
341.042128625422
 30
0.0
 11
518.0443227218749
 21
341.1791144042306
 31
0.0
  0
LINE
  5
17C3
330
1F
100
AcDbEntity
  8
Hewi
100
AcDbLine
 10
414.780467741406
 20
341.4921103148752
 30
0.0
 11
414.9954640792966
 21
341.5421209960275
 31
0.0
  0
LINE
  5
17C4
330
1F
100
AcDbEntity
  8
Hewi
100
AcDbLine
 10
526.6644704269529
 20
341.1791144042306
 30
0.0
 11
526.6954457687496
 21
341.042128625422
 31
0.0
  0
LINE
  5
17C5
330
1F
100
AcDbEntity
  8
Hewi
100
AcDbLine
 10
413.8454091476559
 20
289.6321020751291
 30
0.0
 11
414.3364369796873
 21
287.0551214843088
 31
0.0
  0
LINE
  5
17C6
330
1F
100
AcDbEntity
  8
Hewi
100
AcDbLine
 10
416.3104665207028
 20
284.2261038451486
 30
0.0
 11
416.345409147656
 21
284.0421209960275
 31
0.0
  0
LINE
  5
17C7
330
1F
100
AcDbEntity
  8
Hewi
100
AcDbLine
 10
414.542430632031
 20
341.0851202636056
 30
0.0
 11
414.6243703292966
 21
341.0970984130197
 31
0.0
  0
LINE
  5
17C8
330
1F
100
AcDbEntity
  8
Hewi
100
AcDbLine
 10
517.595409147656
 20
341.042128625422
 30
0.0
 11
519.3724477218746
 21
341.2261114745431
 31
0.0
  0
LINE
  5
17C9
330
1F
100
AcDbEntity
  8
Hewi
100
AcDbLine
 10
517.595409147656
 20
341.042128625422
 30
0.0
 11
521.0724294113279
 21
341.2261114745431
 31
0.0
  0
LINE
  5
17CA
330
1F
100
AcDbEntity
  8
Hewi
100
AcDbLine
 10
526.3454091476559
 20
331.5421209960275
 30
0.0
 11
526.4453542160152
 21
328.8221274047189
 31
0.0
  0
LINE
  5
17CB
330
1F
100
AcDbEntity
  8
Hewi
100
AcDbLine
 10
414.7034108566404
 20
341.3001166014963
 30
0.0
 11
414.7064626144529
 21
341.2000952391916
 31
0.0
  0
LINE
  5
17CC
330
1F
100
AcDbEntity
  8
Hewi
100
AcDbLine
 10
414.4954335617184
 20
339.542113366633
 30
0.0
 11
414.4994008468747
 21
341.1031256346994
 31
0.0
  0
LINE
  5
17CD
330
1F
100
AcDbEntity
  8
Hewi
100
AcDbLine
 10
526.395457975781
 20
330.1821051268869
 30
0.0
 11
526.4453542160152
 21
331.5421209960275
 31
0.0
  0
LINE
  5
17CE
330
1F
100
AcDbEntity
  8
Hewi
100
AcDbLine
 10
414.6954762863279
 20
341.042128625422
 30
0.0
 11
414.7064626144529
 21
341.2000952391916
 31
0.0
  0
LINE
  5
17CF
330
1F
100
AcDbEntity
  8
Hewi
100
AcDbLine
 10
416.3104665207028
 20
329.8581228881173
 30
0.0
 11
416.345409147656
 21
330.0421057372385
 31
0.0
  0
LINE
  5
17D0
330
1F
100
AcDbEntity
  8
Hewi
100
AcDbLine
 10
413.8454091476559
 20
324.4510946898752
 30
0.0
 11
414.3364369796873
 21
327.0281134276681
 31
0.0
  0
LINE
  5
17D1
330
1F
100
AcDbEntity
  8
Hewi
100
AcDbLine
 10
414.4994008468747
 20
341.1031256346994
 30
0.0
 11
414.5213735031247
 21
341.2000952391916
 31
0.0
  0
LINE
  5
17D2
330
1F
100
AcDbEntity
  8
Hewi
100
AcDbLine
 10
525.9604298996091
 20
341.2261114745431
 30
0.0
 11
526.6954457687496
 21
341.042128625422
 31
0.0
  0
LINE
  5
17D3
330
1F
100
AcDbEntity
  8
Hewi
100
AcDbLine
 10
414.4994008468747
 20
341.1031256346994
 30
0.0
 11
414.531444303906
 21
341.2261114745431
 31
0.0
  0
LINE
  5
17D4
330
1F
100
AcDbEntity
  8
Hewi
100
AcDbLine
 10
414.5964467453122
 20
341.2591086058908
 30
0.0
 11
414.6263539718748
 21
341.3731299071603
 31
0.0
  0
LINE
  5
17D5
330
1F
100
AcDbEntity
  8
Hewi
100
AcDbLine
 10
414.708446257031
 20
341.4427099852853
 30
0.0
 11
414.7113454269528
 21
341.4531241088205
 31
0.0
  0
LINE
  5
17D6
330
1F
100
AcDbEntity
  8
Hewi
100
AcDbLine
 10
414.542430632031
 20
341.0851202636056
 30
0.0
 11
414.6954762863279
 21
341.042128625422
 31
0.0
  0
LINE
  5
17D7
330
1F
100
AcDbEntity
  8
Hewi
100
AcDbLine
 10
414.5964467453122
 20
341.2591086058908
 30
0.0
 11
414.6435964035154
 21
341.386366906672
 31
0.0
  0
LINE
  5
17D8
330
1F
100
AcDbEntity
  8
Hewi
100
AcDbLine
 10
414.5700490402341
 20
341.2964926390939
 30
0.0
 11
414.5714223312498
 21
341.3001166014963
 31
0.0
  0
LINE
  5
17D9
330
1F
100
AcDbEntity
  8
Hewi
100
AcDbLine
 10
414.6243703292966
 20
341.0970984130197
 30
0.0
 11
414.7034108566404
 21
341.3001166014963
 31
0.0
  0
LINE
  5
17DA
330
1F
100
AcDbEntity
  8
Hewi
100
AcDbLine
 10
414.4994008468747
 20
341.1031256346994
 30
0.0
 11
414.542430632031
 21
341.0851202636056
 31
0.0
  0
LINE
  5
17DB
330
1F
100
AcDbEntity
  8
Hewi
100
AcDbLine
 10
414.5213735031247
 20
341.2000952391916
 30
0.0
 11
414.5280873703121
 21
341.2135992675119
 31
0.0
  0
LINE
  5
17DC
330
1F
100
AcDbEntity
  8
Hewi
100
AcDbLine
 10
414.5647084640621
 20
341.2866507201486
 30
0.0
 11
414.5714223312498
 21
341.3001166014963
 31
0.0
  0
LINE
  5
17DD
330
1F
100
AcDbEntity
  8
Hewi
100
AcDbLine
 10
526.1954152511716
 20
341.5421209960275
 30
0.0
 11
526.4104115890622
 21
341.4301214843088
 31
0.0
  0
LINE
  5
17DE
330
1F
100
AcDbEntity
  8
Hewi
100
AcDbLine
 10
414.531444303906
 20
341.2261114745431
 30
0.0
 11
414.592479460156
 21
341.3371191649728
 31
0.0
  0
LINE
  5
17DF
330
1F
100
AcDbEntity
  8
Hewi
100
AcDbLine
 10
414.7793996261716
 20
341.4021216063791
 30
0.0
 11
414.813426725781
 21
341.4631186156563
 31
0.0
  0
LINE
  5
17E0
330
1F
100
AcDbEntity
  8
Hewi
100
AcDbLine
 10
416.1993825363278
 20
329.6881018309885
 30
0.0
 11
416.3104665207028
 21
329.8581228881173
 31
0.0
  0
LINE
  5
17E1
330
1F
100
AcDbEntity
  8
Hewi
100
AcDbLine
 10
414.3364369796873
 20
327.0281134276681
 30
0.0
 11
415.8954274582028
 21
329.4011221556955
 31
0.0
  0
LINE
  5
17E2
330
1F
100
AcDbEntity
  8
Hewi
100
AcDbLine
 10
526.4104115890622
 20
341.4301214843088
 30
0.0
 11
526.5683400558591
 21
341.3151083617502
 31
0.0
  0
LINE
  5
17E3
330
1F
100
AcDbEntity
  8
Hewi
100
AcDbLine
 10
414.7034108566404
 20
341.3001166014963
 30
0.0
 11
414.7793996261716
 21
341.4021216063791
 31
0.0
  0
LINE
  5
17E4
330
1F
100
AcDbEntity
  8
Hewi
100
AcDbLine
 10
414.6243703292966
 20
341.0970984130197
 30
0.0
 11
414.6954762863279
 21
341.042128625422
 31
0.0
  0
LINE
  5
17E5
330
1F
100
AcDbEntity
  8
Hewi
100
AcDbLine
 10
414.6263539718748
 20
341.3731299071603
 30
0.0
 11
414.6493947433591
 21
341.4021216063791
 31
0.0
  0
LINE
  5
17E6
330
1F
100
AcDbEntity
  8
Hewi
100
AcDbLine
 10
414.6243703292966
 20
341.0970984130197
 30
0.0
 11
414.7064626144529
 21
341.2000952391916
 31
0.0
  0
LINE
  5
17E7
330
1F
100
AcDbEntity
  8
Hewi
100
AcDbLine
 10
414.7060048507809
 20
341.1950598388009
 30
0.0
 11
414.9954640792966
 21
341.5421209960275
 31
0.0
  0
LINE
  5
17E8
330
1F
100
AcDbEntity
  8
Hewi
100
AcDbLine
 10
414.7064626144529
 20
341.2000952391916
 30
0.0
 11
414.9954640792966
 21
341.5421209960275
 31
0.0
  0
LINE
  5
17E9
330
1F
100
AcDbEntity
  8
Hewi
100
AcDbLine
 10
526.4804494308591
 20
341.2261114745431
 30
0.0
 11
526.6954457687496
 21
341.042128625422
 31
0.0
  0
LINE
  5
17EA
330
1F
100
AcDbEntity
  8
Hewi
100
AcDbLine
 10
414.592479460156
 20
341.3371191649728
 30
0.0
 11
414.6493947433591
 21
341.4021216063791
 31
0.0
  0
LINE
  5
17EB
330
1F
100
AcDbEntity
  8
Hewi
100
AcDbLine
 10
414.7793996261716
 20
341.4021216063791
 30
0.0
 11
414.8593556808591
 21
341.4921103148752
 31
0.0
  0
LINE
  5
17EC
330
1F
100
AcDbEntity
  8
Hewi
100
AcDbLine
 10
414.6907460617184
 20
341.4304648070626
 30
0.0
 11
414.7113454269528
 21
341.4531241088205
 31
0.0
  0
LINE
  5
17ED
330
1F
100
AcDbEntity
  8
Hewi
100
AcDbLine
 10
416.1784779953122
 20
284.4141302733713
 30
0.0
 11
416.1993825363278
 21
284.3950949340158
 31
0.0
  0
LINE
  5
17EE
330
1F
100
AcDbEntity
  8
Hewi
100
AcDbLine
 10
414.5714223312498
 20
341.3001166014963
 30
0.0
 11
414.5731007980466
 21
341.3019476561838
 31
0.0
  0
LINE
  5
17EF
330
1F
100
AcDbEntity
  8
Hewi
100
AcDbLine
 10
415.8954274582028
 20
284.6821127562813
 30
0.0
 11
416.1784779953122
 21
284.4141302733713
 31
0.0
  0
LINE
  5
17F2
330
1F
100
AcDbEntity
  8
Hewi
100
AcDbLine
 10
123.7443377373242
 20
66.57188801887151
 30
0.0
 11
265.7443072197462
 21
66.57188801887151
 31
0.0
  0
LINE
  5
17F3
330
1F
100
AcDbEntity
  8
Hewi
100
AcDbLine
 10
84.59440487599612
 20
172.3287239563715
 30
0.0
 11
304.8943926689649
 21
172.3287239563715
 31
0.0
  0
LINE
  5
17F4
330
1F
100
AcDbEntity
  8
Hewi
100
AcDbLine
 10
93.4943987724805
 20
60.12871174934026
 30
0.0
 11
295.9943987724805
 21
60.12871174934026
 31
0.0
  0
LINE
  5
17F5
330
1F
100
AcDbEntity
  8
Hewi
100
AcDbLine
 10
112.7444292900586
 20
145.7006111634027
 30
0.0
 11
276.7443682549024
 21
145.7006111634027
 31
0.0
  0
LINE
  5
17F6
330
1F
100
AcDbEntity
  8
Hewi
100
AcDbLine
 10
112.7444292900586
 20
135.4988899719965
 30
0.0
 11
276.7443682549024
 21
135.4988899719965
 31
0.0
  0
LINE
  5
17F7
330
1F
100
AcDbEntity
  8
Hewi
100
AcDbLine
 10
112.7444292900586
 20
135.7027473938715
 30
0.0
 11
276.7443682549024
 21
135.7027473938715
 31
0.0
  0
LINE
  5
17F8
330
1F
100
AcDbEntity
  8
Hewi
100
AcDbLine
 10
84.592421233418
 20
172.3247566712151
 30
0.0
 11
304.896376311543
 21
172.3247566712151
 31
0.0
  0
LINE
  5
17F9
330
1F
100
AcDbEntity
  8
Hewi
100
AcDbLine
 10
93.4943987724805
 20
66.22887044074651
 30
0.0
 11
295.9943987724805
 21
66.22887044074651
 31
0.0
  0
LINE
  5
17FA
330
1F
100
AcDbEntity
  8
Hewi
100
AcDbLine
 10
94.15739315724612
 20
164.7286263001215
 30
0.0
 11
295.3314043877149
 21
164.7286263001215
 31
0.0
  0
LINE
  5
17FB
330
1F
100
AcDbEntity
  8
Hewi
100
AcDbLine
 10
118.5442950127149
 20
67.77367024543401
 30
0.0
 11
118.7364031670117
 21
67.77367024543401
 31
0.0
  0
LINE
  5
17FC
330
1F
100
AcDbEntity
  8
Hewi
100
AcDbLine
 10
120.7443072197461
 20
71.76689534309026
 30
0.0
 11
268.7443377373242
 21
71.76689534309026
 31
0.0
  0
LINE
  5
17FD
330
1F
100
AcDbEntity
  8
Hewi
100
AcDbLine
 10
112.7444292900586
 20
135.7476082337152
 30
0.0
 11
276.7443682549024
 21
135.7476082337152
 31
0.0
  0
LINE
  5
17FE
330
1F
100
AcDbEntity
  8
Hewi
100
AcDbLine
 10
112.7444292900586
 20
91.5096321594965
 30
0.0
 11
276.7443682549024
 21
91.5096321594965
 31
0.0
  0
LINE
  5
17FF
330
1F
100
AcDbEntity
  8
Hewi
100
AcDbLine
 10
112.7444292900586
 20
101.7076912415277
 30
0.0
 11
276.7443682549024
 21
101.7076912415277
 31
0.0
  0
LINE
  5
1800
330
1F
100
AcDbEntity
  8
Hewi
100
AcDbLine
 10
112.7444292900586
 20
91.75468831184023
 30
0.0
 11
276.7443682549024
 21
91.75468831184023
 31
0.0
  0
LINE
  5
1801
330
1F
100
AcDbEntity
  8
Hewi
100
AcDbLine
 10
227.3344256279492
 20
172.978748370434
 30
0.0
 11
242.1543719170117
 21
172.978748370434
 31
0.0
  0
LINE
  5
1802
330
1F
100
AcDbEntity
  8
Hewi
100
AcDbLine
 10
147.3344256279492
 20
172.978748370434
 30
0.0
 11
162.1543719170117
 21
172.978748370434
 31
0.0
  0
LINE
  5
1803
330
1F
100
AcDbEntity
  8
Hewi
100
AcDbLine
 10
270.9443499443555
 20
66.61674885871526
 30
0.0
 11
270.9443499443555
 21
67.04765706184026
 31
0.0
  0
LINE
  5
1804
330
1F
100
AcDbEntity
  8
Hewi
100
AcDbLine
 10
270.7443072197461
 20
66.60789876105901
 30
0.0
 11
270.7443072197461
 21
69.76677327277776
 31
0.0
  0
LINE
  5
1805
330
1F
100
AcDbEntity
  8
Hewi
100
AcDbLine
 10
270.803358733418
 20
67.00767903449651
 30
0.0
 11
270.803358733418
 21
67.36687092902776
 31
0.0
  0
LINE
  5
1806
330
1F
100
AcDbEntity
  8
Hewi
100
AcDbLine
 10
298.9944292900586
 20
69.22874837043401
 30
0.0
 11
298.9944292900586
 21
161.064685870434
 31
0.0
  0
LINE
  5
1807
330
1F
100
AcDbEntity
  8
Hewi
100
AcDbLine
 10
118.7302996513867
 20
66.64970784309026
 30
0.0
 11
118.7302996513867
 21
66.70860676887151
 31
0.0
  0
LINE
  5
1808
330
1F
100
AcDbEntity
  8
Hewi
100
AcDbLine
 10
84.39436215138675
 20
69.22874837043401
 30
0.0
 11
84.39436215138675
 21
172.1288338196526
 31
0.0
  0
LINE
  5
1809
330
1F
100
AcDbEntity
  8
Hewi
100
AcDbLine
 10
84.89439266896487
 20
69.22874837043401
 30
0.0
 11
84.89439266896487
 21
171.828846026684
 31
0.0
  0
LINE
  5
180A
330
1F
100
AcDbEntity
  8
Hewi
100
AcDbLine
 10
279.7443987724805
 20
138.7017097962152
 30
0.0
 11
279.7443987724805
 21
142.701648761059
 31
0.0
  0
LINE
  5
180B
330
1F
100
AcDbEntity
  8
Hewi
100
AcDbLine
 10
279.7443987724805
 20
94.70878987434023
 30
0.0
 11
279.7443987724805
 21
98.70781331184026
 31
0.0
  0
LINE
  5
180C
330
1F
100
AcDbEntity
  8
Hewi
100
AcDbLine
 10
109.7443987724805
 20
138.7017097962152
 30
0.0
 11
109.7443987724805
 21
142.701648761059
 31
0.0
  0
LINE
  5
180D
330
1F
100
AcDbEntity
  8
Hewi
100
AcDbLine
 10
109.7443987724805
 20
94.70878987434023
 30
0.0
 11
109.7443987724805
 21
98.70781331184026
 31
0.0
  0
LINE
  5
180E
330
1F
100
AcDbEntity
  8
Hewi
100
AcDbLine
 10
299.4943072197461
 20
69.22874837043401
 30
0.0
 11
299.4943072197461
 21
161.0848274719965
 31
0.0
  0
LINE
  5
180F
330
1F
100
AcDbEntity
  8
Hewi
100
AcDbLine
 10
90.49436825490237
 20
69.22874837043401
 30
0.0
 11
90.49436825490237
 21
161.0656013977777
 31
0.0
  0
LINE
  5
1810
330
1F
100
AcDbEntity
  8
Hewi
100
AcDbLine
 10
118.5442950127149
 20
66.75682454230901
 30
0.0
 11
118.5442950127149
 21
67.04765706184026
 31
0.0
  0
LINE
  5
1811
330
1F
100
AcDbEntity
  8
Hewi
100
AcDbLine
 10
109.5443560478711
 20
94.70573811652776
 30
0.0
 11
109.5443560478711
 21
98.70476155402776
 31
0.0
  0
LINE
  5
1812
330
1F
100
AcDbEntity
  8
Hewi
100
AcDbLine
 10
279.9442889091992
 20
94.70573811652776
 30
0.0
 11
279.9442889091992
 21
98.70476155402776
 31
0.0
  0
LINE
  5
1813
330
1F
100
AcDbEntity
  8
Hewi
100
AcDbLine
 10
84.58921688771487
 20
172.3235359680901
 30
0.0
 11
84.59440487599612
 21
172.3287239563715
 31
0.0
  0
LINE
  5
1814
330
1F
100
AcDbEntity
  8
Hewi
100
AcDbLine
 10
304.8943926689649
 20
172.3287239563715
 30
0.0
 11
304.8985125420117
 21
172.324451495434
 31
0.0
  0
LINE
  5
1815
330
1F
100
AcDbEntity
  8
Hewi
100
AcDbLine
 10
295.9943987724805
 20
65.72868733527776
 30
0.0
 11
296.1593462822461
 21
65.87059407355901
 31
0.0
  0
LINE
  5
1816
330
1F
100
AcDbEntity
  8
Hewi
100
AcDbLine
 10
84.62736386037112
 20
172.1978035462151
 30
0.0
 11
84.75828427052737
 21
172.043689776684
 31
0.0
  0
LINE
  5
1817
330
1F
100
AcDbEntity
  8
Hewi
100
AcDbLine
 10
304.8603655693555
 20
172.010730792309
 30
0.0
 11
304.9633623955274
 21
172.0958748352776
 31
0.0
  0
LINE
  5
1818
330
1F
100
AcDbEntity
  8
Hewi
100
AcDbLine
 10
84.6333147881055
 20
172.231678057934
 30
0.0
 11
84.67832821583987
 21
172.1746101868401
 31
0.0
  0
LINE
  5
1819
330
1F
100
AcDbEntity
  8
Hewi
100
AcDbLine
 10
84.41129940724612
 20
172.1996346009026
 30
0.0
 11
84.470350920918
 21
172.120594073559
 31
0.0
  0
LINE
  5
181A
330
1F
100
AcDbEntity
  8
Hewi
100
AcDbLine
 10
270.1583697197461
 20
71.18065266730901
 30
0.0
 11
270.5984331963086
 21
70.54283528449651
 31
0.0
  0
LINE
  5
181B
330
1F
100
AcDbEntity
  8
Hewi
100
AcDbLine
 10
304.7762896416212
 20
171.9527473938715
 30
0.0
 11
304.8603655693555
 21
172.010730792309
 31
0.0
  0
LINE
  5
181C
330
1F
100
AcDbEntity
  8
Hewi
100
AcDbLine
 10
297.8353716728711
 20
163.570789386059
 30
0.0
 11
298.6562945244336
 21
162.3796883118402
 31
0.0
  0
LINE
  5
181D
330
1F
100
AcDbEntity
  8
Hewi
100
AcDbLine
 10
91.65342587208987
 20
163.570789386059
 30
0.0
 11
92.84330624318362
 21
164.3907967102777
 31
0.0
  0
LINE
  5
181E
330
1F
100
AcDbEntity
  8
Hewi
100
AcDbLine
 10
304.5944048759961
 20
171.828846026684
 30
0.0
 11
304.7762896416212
 21
171.9527473938715
 31
0.0
  0
LINE
  5
181F
330
1F
100
AcDbEntity
  8
Hewi
100
AcDbLine
 10
119.326307952168
 20
71.18370442512151
 30
0.0
 11
119.9664141533399
 21
71.61888508918401
 31
0.0
  0
LINE
  5
1820
330
1F
100
AcDbEntity
  8
Hewi
100
AcDbLine
 10
224.4782854912305
 20
172.3287239563715
 30
0.0
 11
224.6493365166212
 21
172.4437752259026
 31
0.0
  0
LINE
  5
1821
330
1F
100
AcDbEntity
  8
Hewi
100
AcDbLine
 10
144.4782854912305
 20
172.3287239563715
 30
0.0
 11
144.6493365166211
 21
172.4437752259026
 31
0.0
  0
LINE
  5
1822
330
1F
100
AcDbEntity
  8
Hewi
100
AcDbLine
 10
278.8653399345899
 20
100.8297005188715
 30
0.0
 11
279.5463396904493
 21
99.81682210090276
 31
0.0
  0
LINE
  5
1823
330
1F
100
AcDbEntity
  8
Hewi
100
AcDbLine
 10
299.4863726494336
 20
60.83366780402776
 30
0.0
 11
302.429335295918
 21
62.79381184699651
 31
0.0
  0
LINE
  5
1824
330
1F
100
AcDbEntity
  8
Hewi
100
AcDbLine
 10
85.10038632130862
 20
65.73662190559026
 30
0.0
 11
87.05930966115237
 21
62.79381184699651
 31
0.0
  0
LINE
  5
1825
330
1F
100
AcDbEntity
  8
Hewi
100
AcDbLine
 10
297.8353716728711
 20
163.570789386059
 30
0.0
 11
298.6810137627149
 21
162.2838631165277
 31
0.0
  0
LINE
  5
1826
330
1F
100
AcDbEntity
  8
Hewi
100
AcDbLine
 10
278.8653399345899
 20
144.8226204407465
 30
0.0
 11
279.5333697197461
 21
143.8057747376215
 31
0.0
  0
LINE
  5
1827
330
1F
100
AcDbEntity
  8
Hewi
100
AcDbLine
 10
277.8542925713086
 20
135.9468880188715
 30
0.0
 11
278.8754107353711
 21
136.617664386059
 31
0.0
  0
LINE
  5
1828
330
1F
100
AcDbEntity
  8
Hewi
100
AcDbLine
 10
110.6233050224805
 20
144.8226204407465
 30
0.0
 11
111.6403033134961
 21
145.4906502259027
 31
0.0
  0
LINE
  5
1829
330
1F
100
AcDbEntity
  8
Hewi
100
AcDbLine
 10
109.9554278252149
 20
93.64982991340276
 30
0.0
 11
110.6233050224805
 21
92.6326790344965
 31
0.0
  0
LINE
  5
182A
330
1F
100
AcDbEntity
  8
Hewi
100
AcDbLine
 10
91.65342587208987
 20
163.570789386059
 30
0.0
 11
92.94096249318362
 21
164.4158211243402
 31
0.0
  0
LINE
  5
182B
330
1F
100
AcDbEntity
  8
Hewi
100
AcDbLine
 10
110.6233050224805
 20
100.8297005188715
 30
0.0
 11
111.6403033134961
 21
101.496814776684
 31
0.0
  0
LINE
  5
182C
330
1F
100
AcDbEntity
  8
Hewi
100
AcDbLine
 10
277.8483416435743
 20
91.96586995246523
 30
0.0
 11
278.8653399345899
 21
92.6326790344965
 31
0.0
  0
LINE
  5
182D
330
1F
100
AcDbEntity
  8
Hewi
100
AcDbLine
 10
109.9554278252149
 20
137.6436653626215
 30
0.0
 11
110.6133868095898
 21
136.617664386059
 31
0.0
  0
LINE
  5
182E
330
1F
100
AcDbEntity
  8
Hewi
100
AcDbLine
 10
304.5944048759961
 20
171.828846026684
 30
0.0
 11
305.0314165947461
 21
172.1077766907465
 31
0.0
  0
LINE
  5
182F
330
1F
100
AcDbEntity
  8
Hewi
100
AcDbLine
 10
84.75828427052737
 20
172.043689776684
 30
0.0
 11
84.89439266896487
 21
171.828846026684
 31
0.0
  0
LINE
  5
1830
330
1F
100
AcDbEntity
  8
Hewi
100
AcDbLine
 10
84.67832821583987
 20
172.1746101868401
 30
0.0
 11
84.89439266896487
 21
171.828846026684
 31
0.0
  0
LINE
  5
1831
330
1F
100
AcDbEntity
  8
Hewi
100
AcDbLine
 10
84.67832821583987
 20
172.1746101868401
 30
0.0
 11
84.75828427052737
 21
172.043689776684
 31
0.0
  0
LINE
  5
1832
330
1F
100
AcDbEntity
  8
Hewi
100
AcDbLine
 10
84.592421233418
 20
172.3247566712151
 30
0.0
 11
84.89439266896487
 21
171.828846026684
 31
0.0
  0
LINE
  5
1833
330
1F
100
AcDbEntity
  8
Hewi
100
AcDbLine
 10
304.5944048759961
 20
171.828846026684
 30
0.0
 11
305.0903155205274
 21
172.1306648743401
 31
0.0
  0
LINE
  5
1834
330
1F
100
AcDbEntity
  8
Hewi
100
AcDbLine
 10
304.8943926689649
 20
172.3287239563715
 30
0.0
 11
304.896376311543
 21
172.3247566712151
 31
0.0
  0
LINE
  5
1835
330
1F
100
AcDbEntity
  8
Hewi
100
AcDbLine
 10
84.603407561543
 20
172.292713214184
 30
0.0
 11
84.6333147881055
 21
172.231678057934
 31
0.0
  0
LINE
  5
1836
330
1F
100
AcDbEntity
  8
Hewi
100
AcDbLine
 10
276.7443682549024
 20
135.4988899719965
 30
0.0
 11
276.8842913506055
 21
135.5577888977777
 31
0.0
  0
LINE
  5
1837
330
1F
100
AcDbEntity
  8
Hewi
100
AcDbLine
 10
305.0314165947461
 20
172.1077766907465
 30
0.0
 11
305.0903155205274
 21
172.1306648743401
 31
0.0
  0
LINE
  5
1838
330
1F
100
AcDbEntity
  8
Hewi
100
AcDbLine
 10
276.7443682549024
 20
91.5096321594965
 30
0.0
 11
276.8842913506055
 21
91.56364827277776
 31
0.0
  0
LINE
  5
1839
330
1F
100
AcDbEntity
  8
Hewi
100
AcDbLine
 10
85.095350920918
 20
65.74974446418401
 30
0.0
 11
85.10038632130862
 21
65.73662190559026
 31
0.0
  0
LINE
  5
183A
330
1F
100
AcDbEntity
  8
Hewi
100
AcDbLine
 10
270.803358733418
 20
66.71684651496526
 30
0.0
 11
270.8354021904493
 21
66.72874837043401
 31
0.0
  0
LINE
  5
183B
330
1F
100
AcDbEntity
  8
Hewi
100
AcDbLine
 10
84.470350920918
 20
172.281726886059
 30
0.0
 11
84.592421233418
 21
172.3247566712151
 31
0.0
  0
LINE
  5
183C
330
1F
100
AcDbEntity
  8
Hewi
100
AcDbLine
 10
276.7443682549024
 20
135.4988899719965
 30
0.0
 11
277.3013140556837
 21
135.6926765930902
 31
0.0
  0
LINE
  5
183D
330
1F
100
AcDbEntity
  8
Hewi
100
AcDbLine
 10
305.0483538506055
 20
172.2527351868401
 30
0.0
 11
305.0903155205274
 21
172.1306648743401
 31
0.0
  0
LINE
  5
183E
330
1F
100
AcDbEntity
  8
Hewi
100
AcDbLine
 10
84.592421233418
 20
172.3247566712151
 30
0.0
 11
84.603407561543
 21
172.292713214184
 31
0.0
  0
LINE
  5
183F
330
1F
100
AcDbEntity
  8
Hewi
100
AcDbLine
 10
276.7443682549024
 20
91.5096321594965
 30
0.0
 11
277.3013140556837
 21
91.69975667121523
 31
0.0
  0
LINE
  5
1840
330
1F
100
AcDbEntity
  8
Hewi
100
AcDbLine
 10
276.8842913506055
 20
91.56364827277776
 30
0.0
 11
277.3013140556837
 21
91.69975667121523
 31
0.0
  0
LINE
  5
1841
330
1F
100
AcDbEntity
  8
Hewi
100
AcDbLine
 10
276.8842913506055
 20
135.5577888977777
 30
0.0
 11
277.3013140556837
 21
135.6926765930902
 31
0.0
  0
LINE
  5
1842
330
1F
100
AcDbEntity
  8
Hewi
100
AcDbLine
 10
84.60935848927737
 20
67.45170979621526
 30
0.0
 11
85.1313616631055
 21
65.75188069465276
 31
0.0
  0
LINE
  5
1843
330
1F
100
AcDbEntity
  8
Hewi
100
AcDbLine
 10
297.7712847588086
 20
60.34386067512151
 30
0.0
 11
299.4714190361524
 21
60.86571126105901
 31
0.0
  0
LINE
  5
1844
330
1F
100
AcDbEntity
  8
Hewi
100
AcDbLine
 10
299.4734026787305
 20
60.82970051887151
 30
0.0
 11
299.4863726494336
 21
60.83366780402776
 31
0.0
  0
LINE
  5
1845
330
1F
100
AcDbEntity
  8
Hewi
100
AcDbLine
 10
111.5933062431836
 20
145.6047859680902
 30
0.0
 11
112.175429045918
 21
145.771717120434
 31
0.0
  0
LINE
  5
1846
330
1F
100
AcDbEntity
  8
Hewi
100
AcDbLine
 10
111.5933062431836
 20
101.6118660462152
 30
0.0
 11
112.175429045918
 21
101.778797198559
 31
0.0
  0
LINE
  5
1847
330
1F
100
AcDbEntity
  8
Hewi
100
AcDbLine
 10
109.6703936455273
 20
94.13689046027776
 30
0.0
 11
109.8373247978711
 21
93.55461506965276
 31
0.0
  0
LINE
  5
1848
330
1F
100
AcDbEntity
  8
Hewi
100
AcDbLine
 10
270.8354021904493
 20
66.72874837043401
 30
0.0
 11
270.9443499443555
 21
66.75682454230901
 31
0.0
  0
LINE
  5
1849
330
1F
100
AcDbEntity
  8
Hewi
100
AcDbLine
 10
298.6562945244336
 20
162.3796883118402
 30
0.0
 11
298.9944292900586
 21
161.064685870434
 31
0.0
  0
LINE
  5
184A
330
1F
100
AcDbEntity
  8
Hewi
100
AcDbLine
 10
92.84330624318362
 20
164.3907967102777
 30
0.0
 11
94.15739315724612
 21
164.7286263001215
 31
0.0
  0
LINE
  5
184B
330
1F
100
AcDbEntity
  8
Hewi
100
AcDbLine
 10
276.7443682549024
 20
135.4988899719965
 30
0.0
 11
277.8953387138868
 21
135.7927742493402
 31
0.0
  0
LINE
  5
184C
330
1F
100
AcDbEntity
  8
Hewi
100
AcDbLine
 10
109.5443560478711
 20
138.6986580384027
 30
0.0
 11
109.8373247978711
 21
137.5487556946527
 31
0.0
  0
LINE
  5
184D
330
1F
100
AcDbEntity
  8
Hewi
100
AcDbLine
 10
109.5443560478711
 20
94.70573811652776
 30
0.0
 11
109.8373247978711
 21
93.55461506965276
 31
0.0
  0
LINE
  5
184E
330
1F
100
AcDbEntity
  8
Hewi
100
AcDbLine
 10
111.5933062431836
 20
145.6047859680902
 30
0.0
 11
112.7444292900586
 21
145.8977547180902
 31
0.0
  0
LINE
  5
184F
330
1F
100
AcDbEntity
  8
Hewi
100
AcDbLine
 10
111.5933062431836
 20
101.6118660462152
 30
0.0
 11
112.7444292900586
 21
101.9048347962152
 31
0.0
  0
LINE
  5
1850
330
1F
100
AcDbEntity
  8
Hewi
100
AcDbLine
 10
270.7583453056837
 20
67.55180745246526
 30
0.0
 11
270.803358733418
 21
67.36687092902776
 31
0.0
  0
LINE
  5
1851
330
1F
100
AcDbEntity
  8
Hewi
100
AcDbLine
 10
109.5443560478711
 20
94.70573811652776
 30
0.0
 11
109.6703936455273
 21
94.13689046027776
 31
0.0
  0
LINE
  5
1852
330
1F
100
AcDbEntity
  8
Hewi
100
AcDbLine
 10
112.175429045918
 20
145.771717120434
 30
0.0
 11
112.7444292900586
 21
145.8977547180902
 31
0.0
  0
LINE
  5
1853
330
1F
100
AcDbEntity
  8
Hewi
100
AcDbLine
 10
112.175429045918
 20
101.778797198559
 30
0.0
 11
112.7444292900586
 21
101.9048347962152
 31
0.0
  0
LINE
  5
1854
330
1F
100
AcDbEntity
  8
Hewi
100
AcDbLine
 10
277.2923113701367
 20
135.7378426087152
 30
0.0
 11
277.8703142998243
 21
135.8568611634027
 31
0.0
  0
LINE
  5
1855
330
1F
100
AcDbEntity
  8
Hewi
100
AcDbLine
 10
299.1265704033399
 20
60.75981526496526
 30
0.0
 11
299.4734026787305
 21
60.82970051887151
 31
0.0
  0
LINE
  5
1856
330
1F
100
AcDbEntity
  8
Hewi
100
AcDbLine
 10
85.02546566701175
 20
66.09672932746526
 30
0.0
 11
85.095350920918
 21
65.74974446418401
 31
0.0
  0
LINE
  5
1857
330
1F
100
AcDbEntity
  8
Hewi
100
AcDbLine
 10
224.6493365166212
 20
172.4437752259026
 30
0.0
 11
227.3344256279492
 21
172.978748370434
 31
0.0
  0
LINE
  5
1858
330
1F
100
AcDbEntity
  8
Hewi
100
AcDbLine
 10
144.6493365166211
 20
172.4437752259026
 30
0.0
 11
147.3344256279492
 21
172.978748370434
 31
0.0
  0
LINE
  5
1859
330
1F
100
AcDbEntity
  8
Hewi
100
AcDbLine
 10
295.9943987724805
 20
66.22887044074651
 30
0.0
 11
297.1414019463086
 21
66.45683674934026
 31
0.0
  0
LINE
  5
185A
330
1F
100
AcDbEntity
  8
Hewi
100
AcDbLine
 10
276.7443682549024
 20
91.75468831184023
 30
0.0
 11
277.8483416435743
 21
91.96586995246523
 31
0.0
  0
LINE
  5
185B
330
1F
100
AcDbEntity
  8
Hewi
100
AcDbLine
 10
109.7443987724805
 20
94.753650714184
 30
0.0
 11
109.9554278252149
 21
93.64982991340276
 31
0.0
  0
LINE
  5
185C
330
1F
100
AcDbEntity
  8
Hewi
100
AcDbLine
 10
279.5333697197461
 20
143.8057747376215
 30
0.0
 11
279.7443987724805
 21
142.701648761059
 31
0.0
  0
LINE
  5
185D
330
1F
100
AcDbEntity
  8
Hewi
100
AcDbLine
 10
109.7443987724805
 20
138.747791339184
 30
0.0
 11
109.9554278252149
 21
137.6436653626215
 31
0.0
  0
LINE
  5
185E
330
1F
100
AcDbEntity
  8
Hewi
100
AcDbLine
 10
111.6403033134961
 20
101.496814776684
 30
0.0
 11
112.7444292900586
 21
101.7076912415277
 31
0.0
  0
LINE
  5
185F
330
1F
100
AcDbEntity
  8
Hewi
100
AcDbLine
 10
119.9664141533399
 20
71.61888508918401
 30
0.0
 11
120.7443072197461
 21
71.76689534309026
 31
0.0
  0
LINE
  5
1860
330
1F
100
AcDbEntity
  8
Hewi
100
AcDbLine
 10
111.6403033134961
 20
145.4906502259027
 30
0.0
 11
112.7444292900586
 21
145.7006111634027
 31
0.0
  0
LINE
  5
1861
330
1F
100
AcDbEntity
  8
Hewi
100
AcDbLine
 10
270.5984331963086
 20
70.54283528449651
 30
0.0
 11
270.7443072197461
 21
69.76677327277776
 31
0.0
  0
LINE
  5
1862
330
1F
100
AcDbEntity
  8
Hewi
100
AcDbLine
 10
276.7443682549024
 20
135.7476082337152
 30
0.0
 11
277.8542925713086
 21
135.9468880188715
 31
0.0
  0
LINE
  5
1863
330
1F
100
AcDbEntity
  8
Hewi
100
AcDbLine
 10
279.5463396904493
 20
99.81682210090276
 30
0.0
 11
279.7443987724805
 21
98.70781331184026
 31
0.0
  0
LINE
  5
1864
330
1F
100
AcDbEntity
  8
Hewi
100
AcDbLine
 10
304.9633623955274
 20
172.0958748352776
 30
0.0
 11
305.0314165947461
 21
172.1077766907465
 31
0.0
  0
LINE
  5
1865
330
1F
100
AcDbEntity
  8
Hewi
100
AcDbLine
 10
118.7302996513867
 20
66.64970784309026
 30
0.0
 11
118.7364031670117
 21
66.61278157355901
 31
0.0
  0
LINE
  5
1866
330
1F
100
AcDbEntity
  8
Hewi
100
AcDbLine
 10
270.7443072197461
 20
67.77672200324651
 30
0.0
 11
270.803358733418
 21
67.36687092902776
 31
0.0
  0
LINE
  5
1867
330
1F
100
AcDbEntity
  8
Hewi
100
AcDbLine
 10
111.6183306572461
 20
101.5486946594965
 30
0.0
 11
112.7444292900586
 21
101.7076912415277
 31
0.0
  0
LINE
  5
1868
330
1F
100
AcDbEntity
  8
Hewi
100
AcDbLine
 10
111.6183306572461
 20
145.5428352844965
 30
0.0
 11
112.7444292900586
 21
145.7006111634027
 31
0.0
  0
LINE
  5
1869
330
1F
100
AcDbEntity
  8
Hewi
100
AcDbLine
 10
296.4433123466993
 20
60.15983967902776
 30
0.0
 11
297.7712847588086
 21
60.34386067512151
 31
0.0
  0
LINE
  5
186A
330
1F
100
AcDbEntity
  8
Hewi
100
AcDbLine
 10
84.42533749318362
 20
68.77983479621526
 30
0.0
 11
84.60935848927737
 21
67.45170979621526
 31
0.0
  0
LINE
  5
186B
330
1F
100
AcDbEntity
  8
Hewi
100
AcDbLine
 10
109.7443987724805
 20
94.70878987434023
 30
0.0
 11
109.9003435966992
 21
93.58086018684023
 31
0.0
  0
LINE
  5
186C
330
1F
100
AcDbEntity
  8
Hewi
100
AcDbLine
 10
276.7443682549024
 20
135.7027473938715
 30
0.0
 11
277.8703142998243
 21
135.8568611634027
 31
0.0
  0
LINE
  5
186D
330
1F
100
AcDbEntity
  8
Hewi
100
AcDbLine
 10
118.6852862236523
 20
67.36687092902776
 30
0.0
 11
118.7443377373242
 21
66.90575032355901
 31
0.0
  0
LINE
  5
186E
330
1F
100
AcDbEntity
  8
Hewi
100
AcDbLine
 10
270.7443072197461
 20
67.77672200324651
 30
0.0
 11
270.7523943779492
 21
67.70470051887151
 31
0.0
  0
LINE
  5
186F
330
1F
100
AcDbEntity
  8
Hewi
100
AcDbLine
 10
84.41129940724612
 20
172.1996346009026
 30
0.0
 11
84.420302092793
 21
172.1178474915276
 31
0.0
  0
LINE
  5
1870
330
1F
100
AcDbEntity
  8
Hewi
100
AcDbLine
 10
118.6703326103711
 20
67.76787190559026
 30
0.0
 11
118.7364031670117
 21
67.77367024543401
 31
0.0
  0
LINE
  5
1871
330
1F
100
AcDbEntity
  8
Hewi
100
AcDbLine
 10
304.7733904716992
 20
172.1126595032465
 30
0.0
 11
304.8882891533399
 21
172.1227303040276
 31
0.0
  0
LINE
  5
1872
330
1F
100
AcDbEntity
  8
Hewi
100
AcDbLine
 10
295.9943987724805
 20
60.12871174934026
 30
0.0
 11
296.4433123466993
 21
60.15983967902776
 31
0.0
  0
LINE
  5
1873
330
1F
100
AcDbEntity
  8
Hewi
100
AcDbLine
 10
112.1963335869336
 20
101.6698494446527
 30
0.0
 11
112.7444292900586
 21
101.7076912415277
 31
0.0
  0
LINE
  5
1874
330
1F
100
AcDbEntity
  8
Hewi
100
AcDbLine
 10
84.39436215138675
 20
69.22874837043401
 30
0.0
 11
84.42533749318362
 21
68.77983479621526
 31
0.0
  0
LINE
  5
1875
330
1F
100
AcDbEntity
  8
Hewi
100
AcDbLine
 10
112.1963335869336
 20
145.6636848938715
 30
0.0
 11
112.7444292900586
 21
145.7006111634027
 31
0.0
  0
LINE
  5
1876
330
1F
100
AcDbEntity
  8
Hewi
100
AcDbLine
 10
270.7443072197461
 20
66.91887288215276
 30
0.0
 11
270.7583453056837
 21
66.70860676887151
 31
0.0
  0
LINE
  5
1877
330
1F
100
AcDbEntity
  8
Hewi
100
AcDbLine
 10
109.7443987724805
 20
94.70878987434023
 30
0.0
 11
109.780409514668
 21
94.15886311652776
 31
0.0
  0
LINE
  5
1878
330
1F
100
AcDbEntity
  8
Hewi
100
AcDbLine
 10
276.7443682549024
 20
135.7027473938715
 30
0.0
 11
277.2923113701367
 21
135.7378426087152
 31
0.0
  0
LINE
  5
1879
330
1F
100
AcDbEntity
  8
Hewi
100
AcDbLine
 10
270.7443072197461
 20
67.77672200324651
 30
0.0
 11
270.7583453056837
 21
67.55180745246526
 31
0.0
  0
LINE
  5
187A
330
1F
100
AcDbEntity
  8
Hewi
100
AcDbLine
 10
304.8834063408399
 20
172.3027840149651
 30
0.0
 11
304.8863055107617
 21
172.2527351868401
 31
0.0
  0
LINE
  5
187B
330
1F
100
AcDbEntity
  8
Hewi
100
AcDbLine
 10
84.420302092793
 20
172.1178474915276
 30
0.0
 11
84.470350920918
 21
172.120594073559
 31
0.0
  0
LINE
  5
187C
330
1F
100
AcDbEntity
  8
Hewi
100
AcDbLine
 10
270.5793597099805
 20
66.60087971809026
 30
0.0
 11
270.9443499443555
 21
66.61674885871526
 31
0.0
  0
LINE
  5
187D
330
1F
100
AcDbEntity
  8
Hewi
100
AcDbLine
 10
268.7443377373242
 20
71.76689534309026
 30
0.0
 11
268.8464190361524
 21
71.77086262824651
 31
0.0
  0
LINE
  5
187E
330
1F
100
AcDbEntity
  8
Hewi
100
AcDbLine
 10
268.7443377373242
 20
71.76689534309026
 30
0.0
 11
269.155409514668
 21
71.78062825324651
 31
0.0
  0
LINE
  5
187F
330
1F
100
AcDbEntity
  8
Hewi
100
AcDbLine
 10
118.7364031670117
 20
66.61278157355901
 30
0.0
 11
118.7365557549024
 21
66.60820393684026
 31
0.0
  0
LINE
  5
1880
330
1F
100
AcDbEntity
  8
Hewi
100
AcDbLine
 10
304.8863055107617
 20
172.2527351868401
 30
0.0
 11
304.8882891533399
 21
172.1227303040276
 31
0.0
  0
LINE
  5
1881
330
1F
100
AcDbEntity
  8
Hewi
100
AcDbLine
 10
269.4213702080274
 20
66.58470540168401
 30
0.0
 11
270.5793597099805
 21
66.60087971809026
 31
0.0
  0
LINE
  5
1882
330
1F
100
AcDbEntity
  8
Hewi
100
AcDbLine
 10
118.7364031670117
 20
67.77367024543401
 30
0.0
 11
118.7443377373242
 21
66.90575032355901
 31
0.0
  0
LINE
  5
1883
330
1F
100
AcDbEntity
  8
Hewi
100
AcDbLine
 10
267.6583697197461
 20
66.57463460090276
 30
0.0
 11
269.4213702080274
 21
66.58470540168401
 31
0.0
  0
LINE
  5
1884
330
1F
100
AcDbEntity
  8
Hewi
100
AcDbLine
 10
121.8572832939649
 20
66.56181721809026
 30
0.0
 11
123.7443377373242
 21
66.57188801887151
 31
0.0
  0
LINE
  5
1885
330
1F
100
AcDbEntity
  8
Hewi
100
AcDbLine
 10
265.7443072197462
 20
66.57188801887151
 30
0.0
 11
267.6583697197461
 21
66.57463460090276
 31
0.0
  0
LINE
  5
1886
330
1F
100
AcDbEntity
  8
Hewi
100
AcDbLine
 10
305.0903155205274
 20
172.1306648743401
 30
0.0
 11
305.0942828056836
 21
69.22874837043401
 31
0.0
  0
LINE
  5
1887
330
1F
100
AcDbEntity
  8
Hewi
100
AcDbLine
 10
118.7364031670117
 20
67.77367024543401
 30
0.0
 11
118.7443377373242
 21
69.76677327277776
 31
0.0
  0
LINE
  5
1888
330
1F
100
AcDbEntity
  8
Hewi
100
AcDbLine
 10
120.0674273369336
 20
66.58470540168401
 30
0.0
 11
121.8572832939649
 21
66.56181721809026
 31
0.0
  0
LINE
  5
1889
330
1F
100
AcDbEntity
  8
Hewi
100
AcDbLine
 10
118.9092852470899
 20
66.60087971809026
 30
0.0
 11
120.0674273369336
 21
66.58470540168401
 31
0.0
  0
LINE
  5
188A
330
1F
100
AcDbEntity
  8
Hewi
100
AcDbLine
 10
118.7364031670117
 20
66.61278157355901
 30
0.0
 11
118.7443377373242
 21
66.90575032355901
 31
0.0
  0
LINE
  5
188B
330
1F
100
AcDbEntity
  8
Hewi
100
AcDbLine
 10
118.5442950127149
 20
66.61674885871526
 30
0.0
 11
118.9092852470899
 21
66.60087971809026
 31
0.0
  0
LINE
  5
188C
330
1F
100
AcDbEntity
  8
Hewi
100
AcDbLine
 10
118.5442950127149
 20
67.77367024543401
 30
0.0
 11
118.6703326103711
 21
67.76787190559026
 31
0.0
  0
LINE
  5
188D
330
1F
100
AcDbEntity
  8
Hewi
100
AcDbLine
 10
112.1963335869336
 20
135.7378426087152
 30
0.0
 11
112.7444292900586
 21
135.7027473938715
 31
0.0
  0
LINE
  5
188E
330
1F
100
AcDbEntity
  8
Hewi
100
AcDbLine
 10
276.7443682549024
 20
101.7076912415277
 30
0.0
 11
277.2923113701367
 21
101.6698494446527
 31
0.0
  0
LINE
  5
188F
330
1F
100
AcDbEntity
  8
Hewi
100
AcDbLine
 10
305.0633074638867
 20
68.78380208137151
 30
0.0
 11
305.0942828056836
 21
69.22874837043401
 31
0.0
  0
LINE
  5
1890
330
1F
100
AcDbEntity
  8
Hewi
100
AcDbLine
 10
93.04929989552737
 20
60.15983967902776
 30
0.0
 11
93.4943987724805
 21
60.12871174934026
 31
0.0
  0
LINE
  5
1891
330
1F
100
AcDbEntity
  8
Hewi
100
AcDbLine
 10
118.7302996513867
 20
66.70860676887151
 30
0.0
 11
118.7443377373242
 21
66.90575032355901
 31
0.0
  0
LINE
  5
1892
330
1F
100
AcDbEntity
  8
Hewi
100
AcDbLine
 10
304.896376311543
 20
172.3247566712151
 30
0.0
 11
304.9493243095899
 21
172.320789386059
 31
0.0
  0
LINE
  5
1893
330
1F
100
AcDbEntity
  8
Hewi
100
AcDbLine
 10
270.7490374443555
 20
66.60820393684026
 30
0.0
 11
270.7583453056837
 21
66.70860676887151
 31
0.0
  0
LINE
  5
1894
330
1F
100
AcDbEntity
  8
Hewi
100
AcDbLine
 10
111.6183306572461
 20
135.8568611634027
 30
0.0
 11
112.7444292900586
 21
135.7027473938715
 31
0.0
  0
LINE
  5
1895
330
1F
100
AcDbEntity
  8
Hewi
100
AcDbLine
 10
304.879286467793
 20
67.46178059699651
 30
0.0
 11
305.0633074638867
 21
68.78380208137151
 31
0.0
  0
LINE
  5
1896
330
1F
100
AcDbEntity
  8
Hewi
100
AcDbLine
 10
91.727430999043
 20
60.34386067512151
 30
0.0
 11
93.04929989552737
 21
60.15983967902776
 31
0.0
  0
LINE
  5
1897
330
1F
100
AcDbEntity
  8
Hewi
100
AcDbLine
 10
304.8863055107617
 20
172.2527351868401
 30
0.0
 11
304.896376311543
 21
172.3247566712151
 31
0.0
  0
LINE
  5
1898
330
1F
100
AcDbEntity
  8
Hewi
100
AcDbLine
 10
276.7443682549024
 20
101.7076912415277
 30
0.0
 11
277.8703142998243
 21
101.5486946594965
 31
0.0
  0
LINE
  5
1899
330
1F
100
AcDbEntity
  8
Hewi
100
AcDbLine
 10
276.7443682549024
 20
145.7006111634027
 30
0.0
 11
277.8542925713086
 21
145.5028572571527
 31
0.0
  0
LINE
  5
189A
330
1F
100
AcDbEntity
  8
Hewi
100
AcDbLine
 10
279.5463396904493
 20
93.598865557934
 30
0.0
 11
279.7443987724805
 21
94.70878987434023
 31
0.0
  0
LINE
  5
189B
330
1F
100
AcDbEntity
  8
Hewi
100
AcDbLine
 10
109.7443987724805
 20
98.70781331184026
 30
0.0
 11
109.9423052666211
 21
99.81682210090276
 31
0.0
  0
LINE
  5
189C
330
1F
100
AcDbEntity
  8
Hewi
100
AcDbLine
 10
111.6354205009961
 20
135.9468880188715
 30
0.0
 11
112.7444292900586
 21
135.7476082337152
 31
0.0
  0
LINE
  5
189D
330
1F
100
AcDbEntity
  8
Hewi
100
AcDbLine
 10
118.7443377373242
 20
69.76677327277776
 30
0.0
 11
118.8903643486524
 21
70.54283528449651
 31
0.0
  0
LINE
  5
189E
330
1F
100
AcDbEntity
  8
Hewi
100
AcDbLine
 10
276.7443682549024
 20
101.7076912415277
 30
0.0
 11
277.8483416435743
 21
101.496814776684
 31
0.0
  0
LINE
  5
189F
330
1F
100
AcDbEntity
  8
Hewi
100
AcDbLine
 10
109.7443987724805
 20
142.701648761059
 30
0.0
 11
109.9554278252149
 21
143.8057747376215
 31
0.0
  0
LINE
  5
18A0
330
1F
100
AcDbEntity
  8
Hewi
100
AcDbLine
 10
279.5333697197461
 20
137.6436653626215
 30
0.0
 11
279.7443987724805
 21
138.747791339184
 31
0.0
  0
LINE
  5
18A1
330
1F
100
AcDbEntity
  8
Hewi
100
AcDbLine
 10
279.5333697197461
 20
93.64982991340276
 30
0.0
 11
279.7443987724805
 21
94.753650714184
 31
0.0
  0
LINE
  5
18A2
330
1F
100
AcDbEntity
  8
Hewi
100
AcDbLine
 10
111.6403033134961
 20
91.96586995246523
 30
0.0
 11
112.7444292900586
 21
91.75468831184023
 31
0.0
  0
LINE
  5
18A3
330
1F
100
AcDbEntity
  8
Hewi
100
AcDbLine
 10
268.7443377373242
 20
71.76689534309026
 30
0.0
 11
269.4804217216993
 21
71.62559895637151
 31
0.0
  0
LINE
  5
18A4
330
1F
100
AcDbEntity
  8
Hewi
100
AcDbLine
 10
92.34434384083987
 20
66.45775227668401
 30
0.0
 11
93.4943987724805
 21
66.22887044074651
 31
0.0
  0
LINE
  5
18A5
330
1F
100
AcDbEntity
  8
Hewi
100
AcDbLine
 10
242.1543719170117
 20
172.978748370434
 30
0.0
 11
244.8393084404492
 21
172.4437752259026
 31
0.0
  0
LINE
  5
18A6
330
1F
100
AcDbEntity
  8
Hewi
100
AcDbLine
 10
162.1543719170117
 20
172.978748370434
 30
0.0
 11
164.8393084404492
 21
172.4437752259026
 31
0.0
  0
LINE
  5
18A7
330
1F
100
AcDbEntity
  8
Hewi
100
AcDbLine
 10
298.7643267509962
 20
68.07762532355901
 30
0.0
 11
298.9944292900586
 21
69.22874837043401
 31
0.0
  0
LINE
  5
18A8
330
1F
100
AcDbEntity
  8
Hewi
100
AcDbLine
 10
90.00837582326175
 20
60.83061604621526
 30
0.0
 11
90.38206356740237
 21
60.75554280402776
 31
0.0
  0
LINE
  5
18A9
330
1F
100
AcDbEntity
  8
Hewi
100
AcDbLine
 10
304.3923785088086
 20
65.74272542121526
 30
0.0
 11
304.4676043388867
 21
66.11656575324651
 31
0.0
  0
LINE
  5
18AA
330
1F
100
AcDbEntity
  8
Hewi
100
AcDbLine
 10
111.6183306572461
 20
135.8568611634027
 30
0.0
 11
112.1963335869336
 21
135.7378426087152
 31
0.0
  0
LINE
  5
18AB
330
1F
100
AcDbEntity
  8
Hewi
100
AcDbLine
 10
276.7443682549024
 20
101.9048347962152
 30
0.0
 11
277.313368499043
 21
101.778797198559
 31
0.0
  0
LINE
  5
18AC
330
1F
100
AcDbEntity
  8
Hewi
100
AcDbLine
 10
109.5443560478711
 20
98.70476155402776
 30
0.0
 11
109.6703936455273
 21
99.27360921027776
 31
0.0
  0
LINE
  5
18AD
330
1F
100
AcDbEntity
  8
Hewi
100
AcDbLine
 10
84.4953753349805
 20
172.2277107727776
 30
0.0
 11
84.62736386037112
 21
172.1978035462151
 31
0.0
  0
LINE
  5
18AE
330
1F
100
AcDbEntity
  8
Hewi
100
AcDbLine
 10
84.39436215138675
 20
172.1288338196526
 30
0.0
 11
84.41129940724612
 21
172.1996346009026
 31
0.0
  0
LINE
  5
18AF
330
1F
100
AcDbEntity
  8
Hewi
100
AcDbLine
 10
304.8603655693555
 20
172.010730792309
 30
0.0
 11
304.8882891533399
 21
172.1227303040276
 31
0.0
  0
LINE
  5
18B0
330
1F
100
AcDbEntity
  8
Hewi
100
AcDbLine
 10
109.5443560478711
 20
142.6976814759027
 30
0.0
 11
109.8373247978711
 21
143.8488045227777
 31
0.0
  0
LINE
  5
18B1
330
1F
100
AcDbEntity
  8
Hewi
100
AcDbLine
 10
109.5443560478711
 20
98.70476155402776
 30
0.0
 11
109.8373247978711
 21
99.85588460090276
 31
0.0
  0
LINE
  5
18B2
330
1F
100
AcDbEntity
  8
Hewi
100
AcDbLine
 10
276.7443682549024
 20
101.9048347962152
 30
0.0
 11
277.8953387138868
 21
101.6118660462152
 31
0.0
  0
LINE
  5
18B3
330
1F
100
AcDbEntity
  8
Hewi
100
AcDbLine
 10
279.6513201591992
 20
137.5487556946527
 30
0.0
 11
279.9442889091992
 21
138.6986580384027
 31
0.0
  0
LINE
  5
18B4
330
1F
100
AcDbEntity
  8
Hewi
100
AcDbLine
 10
295.3314043877149
 20
164.7286263001215
 30
0.0
 11
296.6453387138868
 21
164.3907967102777
 31
0.0
  0
LINE
  5
18B5
330
1F
100
AcDbEntity
  8
Hewi
100
AcDbLine
 10
90.49436825490237
 20
161.0656013977777
 30
0.0
 11
90.83235043263675
 21
162.3796883118402
 31
0.0
  0
LINE
  5
18B6
330
1F
100
AcDbEntity
  8
Hewi
100
AcDbLine
 10
118.5442950127149
 20
69.76280598762151
 30
0.0
 11
118.6623980400586
 21
70.18669514777776
 31
0.0
  0
LINE
  5
18B7
330
1F
100
AcDbEntity
  8
Hewi
100
AcDbLine
 10
109.6703936455273
 20
99.27360921027776
 30
0.0
 11
109.8373247978711
 21
99.85588460090276
 31
0.0
  0
LINE
  5
18B8
330
1F
100
AcDbEntity
  8
Hewi
100
AcDbLine
 10
277.313368499043
 20
101.778797198559
 30
0.0
 11
277.8953387138868
 21
101.6118660462152
 31
0.0
  0
LINE
  5
18B9
330
1F
100
AcDbEntity
  8
Hewi
100
AcDbLine
 10
84.4953753349805
 20
172.2277107727776
 30
0.0
 11
84.63667172169925
 21
172.1868172180901
 31
0.0
  0
LINE
  5
18BA
330
1F
100
AcDbEntity
  8
Hewi
100
AcDbLine
 10
118.5442950127149
 20
69.76280598762151
 30
0.0
 11
118.7873675224805
 21
70.58372883918401
 31
0.0
  0
LINE
  5
18BB
330
1F
100
AcDbEntity
  8
Hewi
100
AcDbLine
 10
304.3594195244336
 20
65.76286702277776
 30
0.0
 11
304.879286467793
 21
67.46178059699651
 31
0.0
  0
LINE
  5
18BC
330
1F
100
AcDbEntity
  8
Hewi
100
AcDbLine
 10
90.02836483693362
 20
60.86388020637151
 30
0.0
 11
91.727430999043
 21
60.34386067512151
 31
0.0
  0
LINE
  5
18BD
330
1F
100
AcDbEntity
  8
Hewi
100
AcDbLine
 10
118.6623980400586
 20
70.18669514777776
 30
0.0
 11
118.7873675224805
 21
70.58372883918401
 31
0.0
  0
LINE
  5
18BE
330
1F
100
AcDbEntity
  8
Hewi
100
AcDbLine
 10
109.6023394463086
 20
142.8386726868402
 30
0.0
 11
109.7373797295117
 21
143.255847979809
 31
0.0
  0
LINE
  5
18BF
330
1F
100
AcDbEntity
  8
Hewi
100
AcDbLine
 10
112.1883990166211
 20
91.69975667121523
 30
0.0
 11
112.7444292900586
 21
91.5096321594965
 31
0.0
  0
LINE
  5
18C0
330
1F
100
AcDbEntity
  8
Hewi
100
AcDbLine
 10
109.5443560478711
 20
142.6976814759027
 30
0.0
 11
109.7373797295117
 21
143.255847979809
 31
0.0
  0
LINE
  5
18C1
330
1F
100
AcDbEntity
  8
Hewi
100
AcDbLine
 10
304.8882891533399
 20
172.1227303040276
 30
0.0
 11
304.9633623955274
 21
172.0958748352776
 31
0.0
  0
LINE
  5
18C2
330
1F
100
AcDbEntity
  8
Hewi
100
AcDbLine
 10
109.5443560478711
 20
142.6976814759027
 30
0.0
 11
109.6023394463086
 21
142.8386726868402
 31
0.0
  0
LINE
  5
18C3
330
1F
100
AcDbEntity
  8
Hewi
100
AcDbLine
 10
84.54832333302737
 20
172.0446053040276
 30
0.0
 11
84.6284319756055
 21
172.010730792309
 31
0.0
  0
LINE
  5
18C4
330
1F
100
AcDbEntity
  8
Hewi
100
AcDbLine
 10
84.39436215138675
 20
172.1288338196526
 30
0.0
 11
84.420302092793
 21
172.1178474915276
 31
0.0
  0
LINE
  5
18C5
330
1F
100
AcDbEntity
  8
Hewi
100
AcDbLine
 10
84.62736386037112
 20
172.1978035462151
 30
0.0
 11
84.67832821583987
 21
172.1746101868401
 31
0.0
  0
LINE
  5
18C6
330
1F
100
AcDbEntity
  8
Hewi
100
AcDbLine
 10
304.8834063408399
 20
172.3027840149651
 30
0.0
 11
304.896376311543
 21
172.3247566712151
 31
0.0
  0
LINE
  5
18C7
330
1F
100
AcDbEntity
  8
Hewi
100
AcDbLine
 10
304.5944048759961
 20
171.828846026684
 30
0.0
 11
304.896376311543
 21
172.3247566712151
 31
0.0
  0
LINE
  5
18C8
330
1F
100
AcDbEntity
  8
Hewi
100
AcDbLine
 10
84.420302092793
 20
172.1178474915276
 30
0.0
 11
84.89439266896487
 21
171.828846026684
 31
0.0
  0
LINE
  5
18C9
330
1F
100
AcDbEntity
  8
Hewi
100
AcDbLine
 10
84.54832333302737
 20
172.0446053040276
 30
0.0
 11
84.67939633107425
 21
171.9646492493401
 31
0.0
  0
LINE
  5
18CA
330
1F
100
AcDbEntity
  8
Hewi
100
AcDbLine
 10
84.54832333302737
 20
172.0446053040276
 30
0.0
 11
84.89439266896487
 21
171.828846026684
 31
0.0
  0
LINE
  5
18CB
330
1F
100
AcDbEntity
  8
Hewi
100
AcDbLine
 10
304.730360686543
 20
172.043689776684
 30
0.0
 11
304.7733904716992
 21
172.1126595032465
 31
0.0
  0
LINE
  5
18CC
330
1F
100
AcDbEntity
  8
Hewi
100
AcDbLine
 10
304.5944048759961
 20
171.828846026684
 30
0.0
 11
304.7733904716992
 21
172.1126595032465
 31
0.0
  0
LINE
  5
18CD
330
1F
100
AcDbEntity
  8
Hewi
100
AcDbLine
 10
84.67939633107425
 20
171.9646492493401
 30
0.0
 11
84.89439266896487
 21
171.828846026684
 31
0.0
  0
LINE
  5
18CE
330
1F
100
AcDbEntity
  8
Hewi
100
AcDbLine
 10
304.5944048759961
 20
171.828846026684
 30
0.0
 11
304.730360686543
 21
172.043689776684
 31
0.0
  0
LINE
  5
18CF
330
1F
100
AcDbEntity
  8
Hewi
100
AcDbLine
 10
278.8754107353711
 20
136.617664386059
 30
0.0
 11
279.5333697197461
 21
137.6436653626215
 31
0.0
  0
LINE
  5
18D0
330
1F
100
AcDbEntity
  8
Hewi
100
AcDbLine
 10
110.6233050224805
 20
92.6326790344965
 30
0.0
 11
111.6403033134961
 21
91.96586995246523
 31
0.0
  0
LINE
  5
18D1
330
1F
100
AcDbEntity
  8
Hewi
100
AcDbLine
 10
277.8483416435743
 20
101.496814776684
 30
0.0
 11
278.8653399345899
 21
100.8297005188715
 31
0.0
  0
LINE
  5
18D2
330
1F
100
AcDbEntity
  8
Hewi
100
AcDbLine
 10
296.5476824638868
 20
164.4158211243402
 30
0.0
 11
297.8353716728711
 21
163.570789386059
 31
0.0
  0
LINE
  5
18D3
330
1F
100
AcDbEntity
  8
Hewi
100
AcDbLine
 10
269.4804217216993
 20
71.62559895637151
 30
0.0
 11
270.1583697197461
 21
71.18065266730901
 31
0.0
  0
LINE
  5
18D4
330
1F
100
AcDbEntity
  8
Hewi
100
AcDbLine
 10
110.6133868095898
 20
136.617664386059
 30
0.0
 11
111.6354205009961
 21
135.9468880188715
 31
0.0
  0
LINE
  5
18D5
330
1F
100
AcDbEntity
  8
Hewi
100
AcDbLine
 10
278.8653399345899
 20
92.6326790344965
 30
0.0
 11
279.5333697197461
 21
93.64982991340276
 31
0.0
  0
LINE
  5
18D6
330
1F
100
AcDbEntity
  8
Hewi
100
AcDbLine
 10
109.9554278252149
 20
143.8057747376215
 30
0.0
 11
110.6233050224805
 21
144.8226204407465
 31
0.0
  0
LINE
  5
18D7
330
1F
100
AcDbEntity
  8
Hewi
100
AcDbLine
 10
90.8076311943555
 20
162.2835579407465
 30
0.0
 11
91.65342587208987
 21
163.570789386059
 31
0.0
  0
LINE
  5
18D8
330
1F
100
AcDbEntity
  8
Hewi
100
AcDbLine
 10
302.4333025810743
 20
62.79869465949651
 30
0.0
 11
304.3923785088086
 21
65.74272542121526
 31
0.0
  0
LINE
  5
18D9
330
1F
100
AcDbEntity
  8
Hewi
100
AcDbLine
 10
87.064345061543
 20
62.78984456184026
 30
0.0
 11
90.00837582326175
 21
60.83061604621526
 31
0.0
  0
LINE
  5
18DA
330
1F
100
AcDbEntity
  8
Hewi
100
AcDbLine
 10
298.1133868095899
 20
67.10564046027776
 30
0.0
 11
298.7643267509962
 21
68.07762532355901
 31
0.0
  0
LINE
  5
18DB
330
1F
100
AcDbEntity
  8
Hewi
100
AcDbLine
 10
244.8393084404492
 20
172.4437752259026
 30
0.0
 11
245.0105120537305
 21
172.3287239563715
 31
0.0
  0
LINE
  5
18DC
330
1F
100
AcDbEntity
  8
Hewi
100
AcDbLine
 10
164.8393084404492
 20
172.4437752259026
 30
0.0
 11
165.0105120537305
 21
172.3287239563715
 31
0.0
  0
LINE
  5
18DD
330
1F
100
AcDbEntity
  8
Hewi
100
AcDbLine
 10
109.9423052666211
 20
99.81682210090276
 30
0.0
 11
110.6233050224805
 21
100.8297005188715
 31
0.0
  0
LINE
  5
18DE
330
1F
100
AcDbEntity
  8
Hewi
100
AcDbLine
 10
277.8542925713086
 20
145.5028572571527
 30
0.0
 11
278.8653399345899
 21
144.8226204407465
 31
0.0
  0
LINE
  5
18DF
330
1F
100
AcDbEntity
  8
Hewi
100
AcDbLine
 10
118.7873675224805
 20
70.58372883918401
 30
0.0
 11
119.2474200127149
 21
71.26060872199651
 31
0.0
  0
LINE
  5
18E0
330
1F
100
AcDbEntity
  8
Hewi
100
AcDbLine
 10
269.5393206474805
 20
71.65886311652776
 30
0.0
 11
270.1943804619336
 21
71.21361165168401
 31
0.0
  0
LINE
  5
18E1
330
1F
100
AcDbEntity
  8
Hewi
100
AcDbLine
 10
118.8903643486524
 20
70.54283528449651
 30
0.0
 11
119.326307952168
 21
71.18370442512151
 31
0.0
  0
LINE
  5
18E2
330
1F
100
AcDbEntity
  8
Hewi
100
AcDbLine
 10
304.9493243095899
 20
172.320789386059
 30
0.0
 11
305.0483538506055
 21
172.2527351868401
 31
0.0
  0
LINE
  5
18E3
330
1F
100
AcDbEntity
  8
Hewi
100
AcDbLine
 10
296.6453387138868
 20
164.3907967102777
 30
0.0
 11
297.8353716728711
 21
163.570789386059
 31
0.0
  0
LINE
  5
18E4
330
1F
100
AcDbEntity
  8
Hewi
100
AcDbLine
 10
90.83235043263675
 20
162.3796883118402
 30
0.0
 11
91.65342587208987
 21
163.570789386059
 31
0.0
  0
LINE
  5
18E5
330
1F
100
AcDbEntity
  8
Hewi
100
AcDbLine
 10
84.41129940724612
 20
172.1996346009026
 30
0.0
 11
84.470350920918
 21
172.281726886059
 31
0.0
  0
LINE
  5
18E6
330
1F
100
AcDbEntity
  8
Hewi
100
AcDbLine
 10
87.05930966115237
 20
62.79381184699651
 30
0.0
 11
87.064345061543
 21
62.78984456184026
 31
0.0
  0
LINE
  5
18E7
330
1F
100
AcDbEntity
  8
Hewi
100
AcDbLine
 10
304.7733904716992
 20
172.1126595032465
 30
0.0
 11
304.8863055107617
 21
172.2527351868401
 31
0.0
  0
LINE
  5
18E8
330
1F
100
AcDbEntity
  8
Hewi
100
AcDbLine
 10
302.429335295918
 20
62.79381184699651
 30
0.0
 11
302.4333025810743
 21
62.79869465949651
 31
0.0
  0
LINE
  5
18E9
330
1F
100
AcDbEntity
  8
Hewi
100
AcDbLine
 10
93.3283831474805
 20
65.87059407355901
 30
0.0
 11
93.4943987724805
 21
65.72868733527776
 31
0.0
  0
LINE
  5
18EA
330
1F
100
AcDbEntity
  8
Hewi
100
AcDbLine
 10
84.6284319756055
 20
172.010730792309
 30
0.0
 11
84.67939633107425
 21
171.9646492493401
 31
0.0
  0
LINE
  5
18EB
330
1F
100
AcDbEntity
  8
Hewi
100
AcDbLine
 10
305.089247405293
 20
172.1337166321526
 30
0.0
 11
305.0942828056836
 21
172.1288338196526
 31
0.0
  0
LINE
  5
18EC
330
1F
100
AcDbEntity
  8
Hewi
100
AcDbLine
 10
84.470350920918
 20
172.120594073559
 30
0.0
 11
84.54832333302737
 21
172.0446053040276
 31
0.0
  0
ARC
  5
18ED
330
1F
100
AcDbEntity
  8
Hewi
100
AcDbCircle
 10
93.49414132990931
 20
69.22864350653935
 30
0.0
 40
2.999773076839798
100
AcDbArc
 50
179.9979970956443
 51
270.0049171628659
  0
ENDSEC
  0
SECTION
  2
OBJECTS
  0
DICTIONARY
  5
C
330
0
100
AcDbDictionary
281
     1
  3
ACAD_CIP_PREVIOUS_PRODUCT_INFO
350
DA0
  3
ACAD_COLOR
350
6B
  3
ACAD_DETAILVIEWSTYLE
350
D9C
  3
ACAD_GROUP
350
D
  3
ACAD_LAYOUT
350
1A
  3
ACAD_MATERIAL
350
6A
  3
ACAD_MLEADERSTYLE
350
D98
  3
ACAD_MLINESTYLE
350
17
  3
ACAD_PLOTSETTINGS
350
19
  3
ACAD_PLOTSTYLENAME
350
E
  3
ACAD_SCALELIST
350
D86
  3
ACAD_SECTIONVIEWSTYLE
350
D9A
  3
ACAD_TABLESTYLE
350
7E
  3
ACAD_VISUALSTYLE
350
EF
  3
ACDB_RECOMPOSE_DATA
350
197F
  3
AcDbVariableDictionary
350
5E
  3
AcDsDecomposeData
350
1985
  3
ASE_INDEX_DICTIONARY
350
C7F
  0
DICTIONARY
  5
141
330
2
100
AcDbDictionary
280
     1
281
     1
  3
ACAD_LAYERSTATES
360
142
  0
DICTIONARY
  5
DA1
330
10
100
AcDbDictionary
280
     1
281
     1
  3
ADSK_XREC_LAYER_RECONCILED
360
DA2
  0
DICTIONARY
  5
DA3
330
13E
100
AcDbDictionary
280
     1
281
     1
  3
ADSK_XREC_LAYER_RECONCILED
360
DA4
  0
DICTIONARY
  5
145F
330
145E
100
AcDbDictionary
280
     1
281
     1
  0
DICTIONARY
  5
116
330
1F
100
AcDbDictionary
280
     1
281
     1
  3
ACAD_SORTENTS
360
117
  0
DICTIONARY
  5
E41
330
DF6
100
AcDbDictionary
280
     1
281
     1
  0
XRECORD
  5
DA0
102
{ACAD_REACTORS
330
C
102
}
330
C
100
AcDbXrecord
280
     1
300
ACDLT
300
2016
300
ACDLT_F_S
  0
DICTIONARY
  5
6B
102
{ACAD_REACTORS
330
C
102
}
330
C
100
AcDbDictionary
281
     1
  0
DICTIONARY
  5
D9C
102
{ACAD_REACTORS
330
C
102
}
330
C
100
AcDbDictionary
281
     1
  3
Imperial24
350
FDC
  3
Metric50
350
D9D
  0
DICTIONARY
  5
D
102
{ACAD_REACTORS
330
C
102
}
330
C
100
AcDbDictionary
281
     1
  0
DICTIONARY
  5
1A
102
{ACAD_REACTORS
330
C
102
}
330
C
100
AcDbDictionary
281
     1
  3
Layout1
350
D3
  3
Layout2
350
D7
  3
Model
350
22
  0
DICTIONARY
  5
6A
102
{ACAD_REACTORS
330
C
102
}
330
C
100
AcDbDictionary
281
     1
  3
ByBlock
350
ED
  3
ByLayer
350
EC
  3
Global
350
EE
  0
DICTIONARY
  5
D98
102
{ACAD_REACTORS
330
C
102
}
330
C
100
AcDbDictionary
281
     1
  3
Standard
350
D99
  0
DICTIONARY
  5
17
102
{ACAD_REACTORS
330
C
102
}
330
C
100
AcDbDictionary
281
     1
  3
Standard
350
18
  0
DICTIONARY
  5
19
102
{ACAD_REACTORS
330
C
102
}
330
C
100
AcDbDictionary
281
     1
  0
ACDBDICTIONARYWDFLT
  5
E
102
{ACAD_REACTORS
330
C
102
}
330
C
100
AcDbDictionary
281
     1
  3
Normal
350
F
100
AcDbDictionaryWithDefault
340
F
  0
DICTIONARY
  5
D86
102
{ACAD_REACTORS
330
C
102
}
330
C
100
AcDbDictionary
281
     1
  3
A0
350
D87
  3
A1
350
D88
  3
A2
350
D89
  3
A3
350
D8A
  3
A4
350
D8B
  3
A5
350
D8C
  3
A6
350
D8D
  3
A7
350
D8E
  3
A8
350
D8F
  3
A9
350
D90
  3
B0
350
D91
  3
B1
350
D92
  3
B2
350
D93
  3
B3
350
D94
  3
B4
350
D95
  3
B5
350
D96
  3
B6
350
D97
  0
DICTIONARY
  5
D9A
102
{ACAD_REACTORS
330
C
102
}
330
C
100
AcDbDictionary
281
     1
  3
Imperial24
350
FDB
  3
Metric50
350
D9B
  0
DICTIONARY
  5
7E
102
{ACAD_REACTORS
330
C
102
}
330
C
100
AcDbDictionary
281
     1
  3
Standard
350
7F
  0
DICTIONARY
  5
EF
102
{ACAD_REACTORS
330
C
102
}
330
C
100
AcDbDictionary
281
     1
  3
2dWireframe
350
F5
  3
3D Hidden
350
F7
  3
3dWireframe
350
F6
  3
Basic
350
F4
  3
Brighten
350
FB
  3
ColorChange
350
FF
  3
Conceptual
350
F8
  3
Dim
350
FA
  3
EdgeColorOff
350
D85
  3
Facepattern
350
FE
  3
Flat
350
F0
  3
FlatWithEdges
350
F1
  3
Gouraud
350
F2
  3
GouraudWithEdges
350
F3
  3
Hidden
350
D7D
  3
JitterOff
350
D83
  3
Linepattern
350
FD
  3
OverhangOff
350
D84
  3
Realistic
350
F9
  3
Shaded
350
D82
  3
Shaded with edges
350
D81
  3
Shades of Gray
350
D7E
  3
Sketchy
350
D7F
  3
Thicken
350
FC
  3
Wireframe
350
D7C
  3
X-Ray
350
D80
  0
XRECORD
  5
197F
102
{ACAD_REACTORS
330
C
102
}
330
C
100
AcDbXrecord
280
     1
 90
        1
330
7F
  0
DICTIONARY
  5
5E
102
{ACAD_REACTORS
330
C
102
}
330
C
100
AcDbDictionary
281
     1
  3
CANNOSCALE
350
DAA
  3
CMLEADERSTYLE
350
DA6
  3
CTABLESTYLE
350
84
  3
CVIEWDETAILSTYLE
350
DA7
  3
CVIEWSECTIONSTYLE
350
DA8
  3
DIMASSOC
350
5F
  3
HIDETEXT
350
63
  3
INDEXCTL
350
327
  3
LAYEREVAL
350
DAC
  3
LAYERNOTIFY
350
DAD
  3
LIGHTINGUNITS
350
DAB
  3
MSLTSCALE
350
DA9
  3
SORTENTS
350
326
  0
DICTIONARY
  5
1985
102
{ACAD_REACTORS
330
C
102
}
330
C
100
AcDbDictionary
281
     1
  3
AcDsRecords
350
1987
  3
AcDsSchemas
350
1986
1001
ACAD
1070
     2
  0
DICTIONARY
  5
C7F
102
{ACAD_REACTORS
330
C
102
}
330
C
100
AcDbDictionary
281
     1
  3
ASEBlockHierarchyIndexRecord
350
C80
1001
DCO15
1040
1711349638.084
  0
DICTIONARY
  5
142
102
{ACAD_REACTORS
330
141
102
}
330
141
100
AcDbDictionary
281
     1
  0
XRECORD
  5
DA2
102
{ACAD_REACTORS
330
DA1
102
}
330
DA1
100
AcDbXrecord
280
     1
290
     1
  0
XRECORD
  5
DA4
102
{ACAD_REACTORS
330
DA3
102
}
330
DA3
100
AcDbXrecord
280
     1
290
     1
  0
SORTENTSTABLE
  5
117
102
{ACAD_REACTORS
330
116
102
}
330
116
100
AcDbSortentsTable
330
1F
  0
ACDBDETAILVIEWSTYLE
  5
FDC
102
{ACAD_XDICTIONARY
360
19C2
102
}
102
{ACAD_REACTORS
330
D9C
102
}
330
D9C
100
AcDbModelDocViewStyle
 70
     0
  3
Imperial24
290
     0
100
AcDbDetailViewStyle
 70
     0
 71
     0
 90
        3
 71
     1
340
11
 62
   256
 40
0.24
340
0
 62
   256
 40
0.24
300

 40
0.36
280
     3
 71
     2
340
16
 90
       25
 62
   256
 71
     3
340
11
 62
   256
 40
0.24
 90
        1
 40
0.75
 90
        1
300
%<\AcVar ViewType \f "%tc1">% %<\AcVar ViewDetailId>%\PVARIA %<\AcVar ViewScale \f "%sn">%
 71
     4
340
16
 90
       25
 62
   256
340
16
 90
       25
 62
   256
280
     0
  0
ACDBDETAILVIEWSTYLE
  5
D9D
102
{ACAD_XDICTIONARY
360
19BE
102
}
102
{ACAD_REACTORS
330
D9C
102
}
330
D9C
100
AcDbModelDocViewStyle
 70
     0
  3
Metric50
290
     0
100
AcDbDetailViewStyle
 70
     0
 71
     0
 90
        3
 71
     1
340
11
 62
   256
 40
5.0
340
0
 62
   256
 40
5.0
300

 40
0.0
280
     1
 71
     2
340
16
 90
       25
 62
   256
 71
     3
340
11
 62
   256
 40
5.0
 90
        0
 40
15.0
 90
        1
300
%<\AcVar ViewDetailId>% (%<\AcVar ViewScale \f "%sn">%)
 71
     4
340
16
 90
       25
 62
   256
340
16
 90
       25
 62
   256
280
     0
  0
LAYOUT
  5
D3
102
{ACAD_REACTORS
330
1A
102
}
330
1A
100
AcDbPlotSettings
  1

  2
C:\Documents and Settings\basas\Application Data\Autodesk\AutoCAD 2005\R16.1\enu\plotters\Default Windows System Printer.pc3
  4

  6

 40
0.0
 41
0.0
 42
0.0
 43
0.0
 44
0.0
 45
0.0
 46
0.0
 47
0.0
 48
0.0
 49
0.0
140
0.0
141
0.0
142
1.0
143
1.0
 70
   688
 72
     0
 73
     0
 74
     5
  7

 75
    16
147
1.0
 76
     0
 77
     2
 78
   300
148
0.0
149
0.0
100
AcDbLayout
  1
Layout1
 70
     1
 71
     1
 10
0.0
 20
0.0
 11
12.0
 21
9.0
 12
0.0
 22
0.0
 32
0.0
 14
0.0
 24
0.0
 34
0.0
 15
0.0
 25
0.0
 35
0.0
146
0.0
 13
0.0
 23
0.0
 33
0.0
 16
1.0
 26
0.0
 36
0.0
 17
0.0
 27
1.0
 37
0.0
 76
     0
330
D2
  0
LAYOUT
  5
D7
102
{ACAD_REACTORS
330
1A
102
}
330
1A
100
AcDbPlotSettings
  1

  2
C:\Documents and Settings\basas\Application Data\Autodesk\AutoCAD 2005\R16.1\enu\plotters\Default Windows System Printer.pc3
  4

  6

 40
0.0
 41
0.0
 42
0.0
 43
0.0
 44
0.0
 45
0.0
 46
0.0
 47
0.0
 48
0.0
 49
0.0
140
0.0
141
0.0
142
1.0
143
1.0
 70
   688
 72
     0
 73
     0
 74
     5
  7

 75
    16
147
1.0
 76
     0
 77
     2
 78
   300
148
0.0
149
0.0
100
AcDbLayout
  1
Layout2
 70
     1
 71
     2
 10
0.0
 20
0.0
 11
12.0
 21
9.0
 12
0.0
 22
0.0
 32
0.0
 14
0.0
 24
0.0
 34
0.0
 15
0.0
 25
0.0
 35
0.0
146
0.0
 13
0.0
 23
0.0
 33
0.0
 16
1.0
 26
0.0
 36
0.0
 17
0.0
 27
1.0
 37
0.0
 76
     0
330
D6
  0
LAYOUT
  5
22
102
{ACAD_REACTORS
330
1A
102
}
330
1A
100
AcDbPlotSettings
  1

  2
none_device
  4
ISO_A4_(210.00_x_297.00_MM)
  6

 40
7.5
 41
20.0
 42
7.5
 43
20.0
 44
210.0
 45
297.0
 46
11.54999923706054
 47
-13.65000009536743
 48
0.0
 49
0.0
140
0.0
141
0.0
142
1.0
143
8.704084754739808
 70
 11952
 72
     1
 73
     0
 74
     0
  7

 75
     0
147
0.1148885871608098
 76
     0
 77
     2
 78
   300
148
0.0
149
0.0
100
AcDbLayout
  1
Model
 70
     1
 71
     0
 10
0.0
 20
0.0
 11
12.0
 21
9.0
 12
0.0
 22
0.0
 32
0.0
 14
0.0
 24
0.0
 34
0.0
 15
0.0
 25
0.0
 35
0.0
146
0.0
 13
0.0
 23
0.0
 33
0.0
 16
1.0
 26
0.0
 36
0.0
 17
0.0
 27
1.0
 37
0.0
 76
     0
330
1F
331
EA
1001
ACAD_PSEXT
1000
None
1000
None
1000
Not applicable
1000
The layout will not be plotted unless a new plotter configuration name is selected.
1070
     0
  0
MATERIAL
  5
ED
102
{ACAD_XDICTIONARY
360
335
102
}
102
{ACAD_REACTORS
330
6A
102
}
330
6A
100
AcDbMaterial
  1
ByBlock
  0
MATERIAL
  5
EC
102
{ACAD_XDICTIONARY
360
333
102
}
102
{ACAD_REACTORS
330
6A
102
}
330
6A
100
AcDbMaterial
  1
ByLayer
  0
MATERIAL
  5
EE
102
{ACAD_XDICTIONARY
360
337
102
}
102
{ACAD_REACTORS
330
6A
102
}
330
6A
100
AcDbMaterial
  1
Global
  0
MLEADERSTYLE
  5
D99
102
{ACAD_REACTORS
330
D98
102
}
330
D98
100
AcDbMLeaderStyle
179
     2
170
     2
171
     1
172
     0
 90
        2
 40
0.0
 41
0.0
173
     1
 91
-1056964608
340
14
 92
       -2
290
     1
 42
2.0
291
     1
 43
0.36
  3
Standard
 44
4.0
300

342
11
174
     1
178
     6
175
     1
176
     0
 93
-1056964608
 45
4.0
292
     0
297
     0
 46
4.0
 94
-1056964608
 47
1.0
 49
1.0
140
1.0
293
     1
141
0.0
294
     1
177
     0
142
1.0
295
     0
296
     0
143
0.125
271
     0
272
     9
273
     9
1001
ACAD_MLEADERVER
1070
     2
  0
MLINESTYLE
  5
18
102
{ACAD_REACTORS
330
17
102
}
330
17
100
AcDbMlineStyle
  2
STANDARD
 70
     0
  3

 62
   256
 51
90.0
 52
90.0
 71
     2
 49
0.5
 62
   256
  6
BYLAYER
 49
-0.5
 62
   256
  6
BYLAYER
  0
ACDBPLACEHOLDER
  5
F
102
{ACAD_REACTORS
330
E
102
}
330
E
  0
SCALE
  5
D87
102
{ACAD_REACTORS
330
D86
102
}
330
D86
100
AcDbScale
 70
     0
300
1:1
140
1.0
141
1.0
290
     1
  0
SCALE
  5
D88
102
{ACAD_REACTORS
330
D86
102
}
330
D86
100
AcDbScale
 70
     0
300
1:2
140
1.0
141
2.0
290
     0
  0
SCALE
  5
D89
102
{ACAD_REACTORS
330
D86
102
}
330
D86
100
AcDbScale
 70
     0
300
1:4
140
1.0
141
4.0
290
     0
  0
SCALE
  5
D8A
102
{ACAD_REACTORS
330
D86
102
}
330
D86
100
AcDbScale
 70
     0
300
1:5
140
1.0
141
5.0
290
     0
  0
SCALE
  5
D8B
102
{ACAD_REACTORS
330
D86
102
}
330
D86
100
AcDbScale
 70
     0
300
1:8
140
1.0
141
8.0
290
     0
  0
SCALE
  5
D8C
102
{ACAD_REACTORS
330
D86
102
}
330
D86
100
AcDbScale
 70
     0
300
1:10
140
1.0
141
10.0
290
     0
  0
SCALE
  5
D8D
102
{ACAD_REACTORS
330
D86
102
}
330
D86
100
AcDbScale
 70
     0
300
1:16
140
1.0
141
16.0
290
     0
  0
SCALE
  5
D8E
102
{ACAD_REACTORS
330
D86
102
}
330
D86
100
AcDbScale
 70
     0
300
1:20
140
1.0
141
20.0
290
     0
  0
SCALE
  5
D8F
102
{ACAD_REACTORS
330
D86
102
}
330
D86
100
AcDbScale
 70
     0
300
1:30
140
1.0
141
30.0
290
     0
  0
SCALE
  5
D90
102
{ACAD_REACTORS
330
D86
102
}
330
D86
100
AcDbScale
 70
     0
300
1:40
140
1.0
141
40.0
290
     0
  0
SCALE
  5
D91
102
{ACAD_REACTORS
330
D86
102
}
330
D86
100
AcDbScale
 70
     0
300
1:50
140
1.0
141
50.0
290
     0
  0
SCALE
  5
D92
102
{ACAD_REACTORS
330
D86
102
}
330
D86
100
AcDbScale
 70
     0
300
1:100
140
1.0
141
100.0
290
     0
  0
SCALE
  5
D93
102
{ACAD_REACTORS
330
D86
102
}
330
D86
100
AcDbScale
 70
     0
300
2:1
140
2.0
141
1.0
290
     0
  0
SCALE
  5
D94
102
{ACAD_REACTORS
330
D86
102
}
330
D86
100
AcDbScale
 70
     0
300
4:1
140
4.0
141
1.0
290
     0
  0
SCALE
  5
D95
102
{ACAD_REACTORS
330
D86
102
}
330
D86
100
AcDbScale
 70
     0
300
8:1
140
8.0
141
1.0
290
     0
  0
SCALE
  5
D96
102
{ACAD_REACTORS
330
D86
102
}
330
D86
100
AcDbScale
 70
     0
300
10:1
140
10.0
141
1.0
290
     0
  0
SCALE
  5
D97
102
{ACAD_REACTORS
330
D86
102
}
330
D86
100
AcDbScale
 70
     0
300
100:1
140
100.0
141
1.0
290
     0
  0
ACDBSECTIONVIEWSTYLE
  5
FDB
102
{ACAD_XDICTIONARY
360
19C0
102
}
102
{ACAD_REACTORS
330
D9A
102
}
330
D9A
100
AcDbModelDocViewStyle
 70
     0
  3
Imperial24
290
     0
100
AcDbSectionViewStyle
 70
     0
 71
     0
 90
       78
 71
     1
340
11
 62
   256
 40
0.24
340
0
340
0
 62
   256
 40
0.24
300
I, O, Q, S, X, Z
 40
0.48
 90
        3
 40
0.18
 90
        1
 71
     2
340
16
 90
       25
 62
   256
340
16
 90
       50
 62
   256
 40
0.24
 40
0.0
 40
0.24
 71
     3
340
11
 62
   256
 40
0.24
 90
        1
 40
0.75
 90
        1
300
%<\AcVar ViewType \f "%tc1">% %<\AcVar ViewSectionStartId>%-%<\AcVar ViewSectionEndId>%\PVARIA %<\AcVar ViewScale \f "%sn">%
 71
     4
 62
   256
 62
   257
300
ANSI31
 40
1.0
 90
        0
290
     0
290
     0
 90
        6
 40
0.0
 40
1.570796326794896
 40
0.2617993877991494
 40
1.308996938995747
 40
-0.2617993877991494
 40
1.832595714594044
  0
ACDBSECTIONVIEWSTYLE
  5
D9B
102
{ACAD_XDICTIONARY
360
19BC
102
}
102
{ACAD_REACTORS
330
D9A
102
}
330
D9A
100
AcDbModelDocViewStyle
 70
     0
  3
Metric50
290
     0
100
AcDbSectionViewStyle
 70
     0
 71
     0
 90
      102
 71
     1
340
11
 62
   256
 40
5.0
340
0
340
0
 62
   256
 40
5.0
300
I, O, Q, S, X, Z
 40
10.0
 90
        0
 40
2.5
 90
        0
 71
     2
340
16
 90
       25
 62
   256
340
16
 90
       50
 62
   256
 40
5.0
 40
2.5
 40
5.0
 71
     3
340
11
 62
   256
 40
5.0
 90
        0
 40
15.0
 90
        1
300
%<\AcVar ViewSectionStartId>%-%<\AcVar ViewSectionEndId>% (%<\AcVar ViewScale \f "%sn">%)
 71
     4
 62
   256
 62
   257
300
ANSI31
 40
1.0
 90
        0
290
     0
290
     0
 90
        6
 40
0.0
 40
1.570796326794896
 40
0.2617993877991494
 40
1.308996938995747
 40
-0.2617993877991494
 40
1.832595714594044
  0
TABLESTYLE
  5
7F
102
{ACAD_XDICTIONARY
360
E01
102
}
102
{ACAD_REACTORS
330
7E
102
}
330
7E
100
AcDbTableStyle
280
     0
  3
Standard
 70
     0
 71
     0
 40
1.5
 41
1.5
280
     0
281
     0
  7
Standard
140
4.5
170
     2
 62
     0
 63
     7
283
     0
 90
      512
 91
        0
  1

274
    -2
284
     1
 64
     0
275
    -2
285
     1
 65
     0
276
    -2
286
     1
 66
     0
277
    -2
287
     1
 67
     0
278
    -2
288
     1
 68
     0
279
    -2
289
     1
 69
     0
  7
Standard
140
6.0
170
     5
 62
     0
 63
     7
283
     0
 90
      512
 91
        0
  1

274
    -2
284
     1
 64
     0
275
    -2
285
     1
 65
     0
276
    -2
286
     1
 66
     0
277
    -2
287
     1
 67
     0
278
    -2
288
     1
 68
     0
279
    -2
289
     1
 69
     0
  7
Standard
140
4.5
170
     5
 62
     0
 63
     7
283
     0
 90
      512
 91
        0
  1

274
    -2
284
     1
 64
     0
275
    -2
285
     1
 65
     0
276
    -2
286
     1
 66
     0
277
    -2
287
     1
 67
     0
278
    -2
288
     1
 68
     0
279
    -2
289
     1
 69
     0
  0
VISUALSTYLE
  5
F5
102
{ACAD_XDICTIONARY
360
1992
102
}
102
{ACAD_REACTORS
330
EF
102
}
330
EF
100
AcDbVisualStyle
  2

 70
     4
177
     2
291
     0
 71
     0
176
     1
 72
     2
176
     1
 73
     1
176
     1
 90
        0
176
     1
 40
0.6
176
     1
 41
30.0
176
     1
 63
     7
176
     1
 74
     1
176
     1
 91
        4
176
     1
 64
     7
176
     1
 65
   257
176
     1
 75
     1
176
     1
175
     1
176
     1
 42
1.0
176
     1
 92
        0
176
     1
 66
   257
176
     1
 43
1.0
176
     1
 76
     1
176
     1
 77
     6
176
     1
 78
     2
176
     1
 67
     7
176
     1
 79
     5
176
     1
170
     0
176
     1
171
     0
176
     1
290
     0
176
     1
 93
        1
176
     1
 44
0.0
176
     1
173
     0
176
     1
1001
ACAD
1000
AcDbSavedByObjectVersion
1070
     0
  0
VISUALSTYLE
  5
F7
102
{ACAD_XDICTIONARY
360
1996
102
}
102
{ACAD_REACTORS
330
EF
102
}
330
EF
100
AcDbVisualStyle
  2

 70
     6
177
     2
291
     0
 71
     1
176
     1
 72
     2
176
     1
 73
     2
176
     1
 90
        0
176
     1
 40
0.6
176
     1
 41
30.0
176
     1
 63
     7
176
     1
 74
     2
176
     1
 91
        2
176
     1
 64
     7
176
     1
 65
   257
176
     1
 75
     2
176
     1
175
     1
176
     1
 42
40.0
176
     1
 92
        0
176
     1
 66
   257
176
     1
 43
1.0
176
     1
 76
     1
176
     1
 77
     6
176
     1
 78
     2
176
     1
 67
     7
176
     1
 79
     3
176
     1
170
     0
176
     1
171
     0
176
     1
290
     0
176
     1
 93
        1
176
     1
 44
0.0
176
     1
173
     0
176
     1
1001
ACAD
1000
AcDbSavedByObjectVersion
1070
     0
  0
VISUALSTYLE
  5
F6
102
{ACAD_XDICTIONARY
360
1994
102
}
102
{ACAD_REACTORS
330
EF
102
}
330
EF
100
AcDbVisualStyle
  2

 70
     5
177
     2
291
     0
 71
     0
176
     1
 72
     2
176
     1
 73
     1
176
     1
 90
        0
176
     1
 40
0.6
176
     1
 41
30.0
176
     1
 63
     7
176
     1
 74
     1
176
     1
 91
        4
176
     1
 64
     7
176
     1
 65
   257
176
     1
 75
     1
176
     1
175
     1
176
     1
 42
1.0
176
     1
 92
        0
176
     1
 66
   257
176
     1
 43
1.0
176
     1
 76
     1
176
     1
 77
     6
176
     1
 78
     2
176
     1
 67
     7
176
     1
 79
     5
176
     1
170
     0
176
     1
171
     0
176
     1
290
     0
176
     1
 93
        1
176
     1
 44
0.0
176
     1
173
     0
176
     1
1001
ACAD
1000
AcDbSavedByObjectVersion
1070
     0
  0
VISUALSTYLE
  5
F4
102
{ACAD_XDICTIONARY
360
1990
102
}
102
{ACAD_REACTORS
330
EF
102
}
330
EF
100
AcDbVisualStyle
  2

 70
     7
177
     2
291
     1
 71
     1
176
     1
 72
     0
176
     1
 73
     1
176
     1
 90
        0
176
     1
 40
0.6
176
     1
 41
30.0
176
     1
 63
     7
176
     1
 74
     0
176
     1
 91
        4
176
     1
 64
     7
176
     1
 65
   257
176
     1
 75
     1
176
     1
175
     1
176
     1
 42
1.0
176
     1
 92
        8
176
     1
 66
     7
176
     1
 43
1.0
176
     1
 76
     1
176
     1
 77
     6
176
     1
 78
     2
176
     1
 67
     7
176
     1
 79
     5
176
     1
170
     0
176
     1
171
     0
176
     1
290
     0
176
     1
 93
        1
176
     1
 44
0.0
176
     1
173
     0
176
     1
1001
ACAD
1000
AcDbSavedByObjectVersion
1070
     0
  0
VISUALSTYLE
  5
FB
102
{ACAD_XDICTIONARY
360
199E
102
}
102
{ACAD_REACTORS
330
EF
102
}
330
EF
100
AcDbVisualStyle
  2

 70
    12
177
     2
291
     1
 71
     2
176
     1
 72
     2
176
     1
 73
     1
176
     1
 90
        0
176
     1
 40
0.6
176
     1
 41
30.0
176
     1
 63
     7
176
     1
 74
     1
176
     1
 91
        4
176
     1
 64
     7
176
     1
 65
   257
176
     1
 75
     1
176
     1
175
     1
176
     1
 42
1.0
176
     1
 92
        8
176
     1
 66
     7
176
     1
 43
1.0
176
     1
 76
     1
176
     1
 77
     6
176
     1
 78
     2
176
     1
 67
     7
176
     1
 79
     5
176
     1
170
     0
176
     1
171
     0
176
     1
290
     0
176
     1
 93
        1
176
     1
 44
50.0
176
     1
173
     0
176
     1
1001
ACAD
1000
AcDbSavedByObjectVersion
1070
     0
  0
VISUALSTYLE
  5
FF
102
{ACAD_XDICTIONARY
360
19A6
102
}
102
{ACAD_REACTORS
330
EF
102
}
330
EF
100
AcDbVisualStyle
  2

 70
    16
177
     2
291
     1
 71
     2
176
     1
 72
     2
176
     1
 73
     3
176
     1
 90
        0
176
     1
 40
0.6
176
     1
 41
30.0
176
     1
 63
     8
176
     1
 74
     1
176
     1
 91
        4
176
     1
 64
     7
176
     1
 65
   257
176
     1
 75
     1
176
     1
175
     1
176
     1
 42
1.0
176
     1
 92
        8
176
     1
 66
     8
176
     1
 43
1.0
176
     1
 76
     1
176
     1
 77
     6
176
     1
 78
     2
176
     1
 67
     7
176
     1
 79
     5
176
     1
170
     0
176
     1
171
     0
176
     1
290
     0
176
     1
 93
        1
176
     1
 44
0.0
176
     1
173
     0
176
     1
1001
ACAD
1000
AcDbSavedByObjectVersion
1070
     0
  0
VISUALSTYLE
  5
F8
102
{ACAD_XDICTIONARY
360
1998
102
}
102
{ACAD_REACTORS
330
EF
102
}
330
EF
100
AcDbVisualStyle
  2

 70
     9
177
     2
291
     0
 71
     3
176
     1
 72
     2
176
     1
 73
     1
176
     1
 90
        0
176
     1
 40
0.6
176
     1
 41
30.0
176
     1
 63
     7
176
     1
 74
     2
176
     1
 91
        2
176
     1
 64
     7
176
     1
 65
   257
176
     1
 75
     1
176
     1
175
     1
176
     1
 42
40.0
176
     1
 92
        8
176
     1
 66
     7
176
     1
 43
1.0
176
     1
 76
     1
176
     1
 77
     6
176
     1
 78
     2
176
     1
 67
     7
176
     1
 79
     3
176
     1
170
     0
176
     1
171
     0
176
     1
290
     0
176
     1
 93
        1
176
     1
 44
0.0
176
     1
173
     0
176
     1
1001
ACAD
1000
AcDbSavedByObjectVersion
1070
     0
  0
VISUALSTYLE
  5
FA
102
{ACAD_XDICTIONARY
360
199C
102
}
102
{ACAD_REACTORS
330
EF
102
}
330
EF
100
AcDbVisualStyle
  2

 70
    11
177
     2
291
     1
 71
     2
176
     1
 72
     2
176
     1
 73
     1
176
     1
 90
        0
176
     1
 40
0.6
176
     1
 41
30.0
176
     1
 63
     7
176
     1
 74
     1
176
     1
 91
        4
176
     1
 64
     7
176
     1
 65
   257
176
     1
 75
     1
176
     1
175
     1
176
     1
 42
1.0
176
     1
 92
        8
176
     1
 66
     7
176
     1
 43
1.0
176
     1
 76
     1
176
     1
 77
     6
176
     1
 78
     2
176
     1
 67
     7
176
     1
 79
     5
176
     1
170
     0
176
     1
171
     0
176
     1
290
     0
176
     1
 93
        1
176
     1
 44
-50.0
176
     1
173
     0
176
     1
1001
ACAD
1000
AcDbSavedByObjectVersion
1070
     0
  0
VISUALSTYLE
  5
D85
102
{ACAD_XDICTIONARY
360
19BA
102
}
102
{ACAD_REACTORS
330
EF
102
}
330
EF
100
AcDbVisualStyle
  2

 70
    22
177
     2
291
     1
 71
     2
176
     0
 72
     2
176
     0
 73
     0
176
     0
 90
        0
176
     0
 40
0.6
176
     0
 41
30.0
176
     0
 63
     7
176
     0
 74
     1
176
     0
 91
        4
176
     0
 64
     7
176
     0
 65
   257
176
     0
 75
     1
176
     0
175
     1
176
     0
 42
1.0
176
     0
 92
        8
176
     2
 66
     7
176
     0
 43
1.0
176
     0
 76
     1
176
     0
 77
     6
176
     0
 78
     2
176
     0
 67
     7
176
     0
 79
     5
176
     0
170
     0
176
     0
171
     0
176
     0
290
     0
176
     0
 93
        1
176
     0
 44
0.0
176
     0
173
     0
176
     0
1001
ACAD
1000
AcDbSavedByObjectVersion
1070
     0
  0
VISUALSTYLE
  5
FE
102
{ACAD_XDICTIONARY
360
19A4
102
}
102
{ACAD_REACTORS
330
EF
102
}
330
EF
100
AcDbVisualStyle
  2

 70
    15
177
     2
291
     1
 71
     2
176
     1
 72
     2
176
     1
 73
     1
176
     1
 90
        0
176
     1
 40
0.6
176
     1
 41
30.0
176
     1
 63
     7
176
     1
 74
     1
176
     1
 91
        4
176
     1
 64
     7
176
     1
 65
   257
176
     1
 75
     1
176
     1
175
     1
176
     1
 42
1.0
176
     1
 92
        8
176
     1
 66
     7
176
     1
 43
1.0
176
     1
 76
     1
176
     1
 77
     6
176
     1
 78
     2
176
     1
 67
     7
176
     1
 79
     5
176
     1
170
     0
176
     1
171
     0
176
     1
290
     0
176
     1
 93
        1
176
     1
 44
0.0
176
     1
173
     0
176
     1
1001
ACAD
1000
AcDbSavedByObjectVersion
1070
     0
  0
VISUALSTYLE
  5
F0
102
{ACAD_XDICTIONARY
360
1988
102
}
102
{ACAD_REACTORS
330
EF
102
}
330
EF
100
AcDbVisualStyle
  2

 70
     0
177
     2
291
     1
 71
     2
176
     1
 72
     1
176
     1
 73
     1
176
     1
 90
        2
176
     1
 40
0.6
176
     1
 41
30.0
176
     1
 63
     7
176
     1
 74
     0
176
     1
 91
        4
176
     1
 64
     7
176
     1
 65
   257
176
     1
 75
     1
176
     1
175
     1
176
     1
 42
1.0
176
     1
 92
        8
176
     1
 66
     7
176
     1
 43
1.0
176
     1
 76
     1
176
     1
 77
     6
176
     1
 78
     2
176
     1
 67
     7
176
     1
 79
     5
176
     1
170
     0
176
     1
171
     0
176
     1
290
     0
176
     1
 93
       13
176
     1
 44
0.0
176
     1
173
     0
176
     1
1001
ACAD
1000
AcDbSavedByObjectVersion
1070
     0
  0
VISUALSTYLE
  5
F1
102
{ACAD_XDICTIONARY
360
198A
102
}
102
{ACAD_REACTORS
330
EF
102
}
330
EF
100
AcDbVisualStyle
  2

 70
     1
177
     2
291
     1
 71
     2
176
     1
 72
     1
176
     1
 73
     1
176
     1
 90
        2
176
     1
 40
0.6
176
     1
 41
30.0
176
     1
 63
     7
176
     1
 74
     1
176
     1
 91
        4
176
     1
 64
     7
176
     1
 65
   257
176
     1
 75
     1
176
     1
175
     1
176
     1
 42
1.0
176
     1
 92
        0
176
     1
 66
   257
176
     1
 43
1.0
176
     1
 76
     1
176
     1
 77
     6
176
     1
 78
     2
176
     1
 67
     7
176
     1
 79
     5
176
     1
170
     0
176
     1
171
     0
176
     1
290
     0
176
     1
 93
       13
176
     1
 44
0.0
176
     1
173
     0
176
     1
1001
ACAD
1000
AcDbSavedByObjectVersion
1070
     0
  0
VISUALSTYLE
  5
F2
102
{ACAD_XDICTIONARY
360
198C
102
}
102
{ACAD_REACTORS
330
EF
102
}
330
EF
100
AcDbVisualStyle
  2

 70
     2
177
     2
291
     1
 71
     2
176
     1
 72
     2
176
     1
 73
     1
176
     1
 90
        2
176
     1
 40
0.6
176
     1
 41
30.0
176
     1
 63
     7
176
     1
 74
     0
176
     1
 91
        4
176
     1
 64
     7
176
     1
 65
   257
176
     1
 75
     1
176
     1
175
     1
176
     1
 42
1.0
176
     1
 92
        0
176
     1
 66
     7
176
     1
 43
1.0
176
     1
 76
     1
176
     1
 77
     6
176
     1
 78
     2
176
     1
 67
     7
176
     1
 79
     5
176
     1
170
     0
176
     1
171
     0
176
     1
290
     0
176
     1
 93
       13
176
     1
 44
0.0
176
     1
173
     0
176
     1
1001
ACAD
1000
AcDbSavedByObjectVersion
1070
     0
  0
VISUALSTYLE
  5
F3
102
{ACAD_XDICTIONARY
360
198E
102
}
102
{ACAD_REACTORS
330
EF
102
}
330
EF
100
AcDbVisualStyle
  2

 70
     3
177
     2
291
     1
 71
     2
176
     1
 72
     2
176
     1
 73
     1
176
     1
 90
        2
176
     1
 40
0.6
176
     1
 41
30.0
176
     1
 63
     7
176
     1
 74
     1
176
     1
 91
        4
176
     1
 64
     7
176
     1
 65
   257
176
     1
 75
     1
176
     1
175
     1
176
     1
 42
1.0
176
     1
 92
        0
176
     1
 66
   257
176
     1
 43
1.0
176
     1
 76
     1
176
     1
 77
     6
176
     1
 78
     2
176
     1
 67
     7
176
     1
 79
     5
176
     1
170
     0
176
     1
171
     0
176
     1
290
     0
176
     1
 93
       13
176
     1
 44
0.0
176
     1
173
     0
176
     1
1001
ACAD
1000
AcDbSavedByObjectVersion
1070
     0
  0
VISUALSTYLE
  5
D7D
102
{ACAD_XDICTIONARY
360
19AA
102
}
102
{ACAD_REACTORS
330
EF
102
}
330
EF
100
AcDbVisualStyle
  2

 70
     6
177
     2
291
     0
 71
     1
176
     1
 72
     2
176
     1
 73
     2
176
     1
 90
        0
176
     1
 40
0.6
176
     1
 41
30.0
176
     1
 63
     7
176
     1
 74
     2
176
     1
 91
        2
176
     1
 64
     7
176
     1
 65
   257
176
     1
 75
     2
176
     1
175
     1
176
     1
 42
40.0
176
     1
 92
        0
176
     1
 66
   257
176
     1
 43
1.0
176
     1
 76
     1
176
     1
 77
     6
176
     1
 78
     2
176
     1
 67
     7
176
     1
 79
     3
176
     1
170
     0
176
     1
171
     0
176
     1
290
     0
176
     1
 93
        1
176
     1
 44
0.0
176
     1
173
     0
176
     1
1001
ACAD
1000
AcDbSavedByObjectVersion
1070
     0
  0
VISUALSTYLE
  5
D83
102
{ACAD_XDICTIONARY
360
19B6
102
}
102
{ACAD_REACTORS
330
EF
102
}
330
EF
100
AcDbVisualStyle
  2

 70
    20
177
     2
291
     1
 71
     2
176
     0
 72
     2
176
     0
 73
     0
176
     0
 90
        0
176
     0
 40
0.6
176
     0
 41
30.0
176
     0
 63
     7
176
     0
 74
     1
176
     0
 91
        4
176
     0
 64
     7
176
     0
 65
   257
176
     0
 75
     1
176
     0
175
     1
176
     0
 42
1.0
176
     0
 92
       10
176
     2
 66
     7
176
     0
 43
1.0
176
     0
 76
     1
176
     0
 77
     6
176
     0
 78
     2
176
     0
 67
     7
176
     0
 79
     5
176
     0
170
     0
176
     0
171
     0
176
     0
290
     0
176
     0
 93
        1
176
     0
 44
0.0
176
     0
173
     0
176
     0
1001
ACAD
1000
AcDbSavedByObjectVersion
1070
     0
  0
VISUALSTYLE
  5
FD
102
{ACAD_XDICTIONARY
360
19A2
102
}
102
{ACAD_REACTORS
330
EF
102
}
330
EF
100
AcDbVisualStyle
  2

 70
    14
177
     2
291
     1
 71
     2
176
     1
 72
     2
176
     1
 73
     1
176
     1
 90
        0
176
     1
 40
0.6
176
     1
 41
30.0
176
     1
 63
     7
176
     1
 74
     1
176
     1
 91
        4
176
     1
 64
     7
176
     1
 65
   257
176
     1
 75
     7
176
     1
175
     7
176
     1
 42
1.0
176
     1
 92
        8
176
     1
 66
     7
176
     1
 43
1.0
176
     1
 76
     1
176
     1
 77
     6
176
     1
 78
     2
176
     1
 67
     7
176
     1
 79
     5
176
     1
170
     0
176
     1
171
     0
176
     1
290
     0
176
     1
 93
        1
176
     1
 44
0.0
176
     1
173
     0
176
     1
1001
ACAD
1000
AcDbSavedByObjectVersion
1070
     0
  0
VISUALSTYLE
  5
D84
102
{ACAD_XDICTIONARY
360
19B8
102
}
102
{ACAD_REACTORS
330
EF
102
}
330
EF
100
AcDbVisualStyle
  2

 70
    21
177
     2
291
     1
 71
     2
176
     0
 72
     2
176
     0
 73
     0
176
     0
 90
        0
176
     0
 40
0.6
176
     0
 41
30.0
176
     0
 63
     7
176
     0
 74
     1
176
     0
 91
        4
176
     0
 64
     7
176
     0
 65
   257
176
     0
 75
     1
176
     0
175
     1
176
     0
 42
1.0
176
     0
 92
        9
176
     2
 66
     7
176
     0
 43
1.0
176
     0
 76
     1
176
     0
 77
     6
176
     0
 78
     2
176
     0
 67
     7
176
     0
 79
     5
176
     0
170
     0
176
     0
171
     0
176
     0
290
     0
176
     0
 93
        1
176
     0
 44
0.0
176
     0
173
     0
176
     0
1001
ACAD
1000
AcDbSavedByObjectVersion
1070
     0
  0
VISUALSTYLE
  5
F9
102
{ACAD_XDICTIONARY
360
199A
102
}
102
{ACAD_REACTORS
330
EF
102
}
330
EF
100
AcDbVisualStyle
  2

 70
     8
177
     2
291
     0
 71
     2
176
     1
 72
     2
176
     1
 73
     1
176
     1
 90
        0
176
     1
 40
0.6
176
     1
 41
30.0
176
     1
 63
     7
176
     1
 74
     1
176
     1
 91
        0
176
     1
 64
     7
176
     1
 65
   257
176
     1
 75
     1
176
     1
175
     1
176
     1
 42
1.0
176
     1
 92
        8
176
     1
 66
     8
176
     1
 43
1.0
176
     1
 76
     1
176
     1
 77
     6
176
     1
 78
     2
176
     1
 67
     7
176
     1
 79
     5
176
     1
170
     0
176
     1
171
     0
176
     1
290
     0
176
     1
 93
       13
176
     1
 44
0.0
176
     1
173
     0
176
     1
1001
ACAD
1000
AcDbSavedByObjectVersion
1070
     0
  0
VISUALSTYLE
  5
D82
102
{ACAD_XDICTIONARY
360
19B4
102
}
102
{ACAD_REACTORS
330
EF
102
}
330
EF
100
AcDbVisualStyle
  2

 70
    27
177
     2
291
     0
 71
     2
176
     1
 72
     2
176
     1
 73
     1
176
     1
 90
        2
176
     1
 40
0.6
176
     1
 41
30.0
176
     1
 63
     7
176
     1
 74
     0
176
     1
 91
        4
176
     1
 64
     7
176
     1
 65
   257
176
     1
 75
     1
176
     1
175
     1
176
     1
 42
1.0
176
     1
 92
        8
176
     1
 66
   257
176
     1
 43
1.0
176
     1
 76
     1
176
     1
 77
     6
176
     1
 78
     2
176
     1
 67
     8
176
     1
 79
     3
176
     1
170
     0
176
     1
171
     0
176
     1
290
     0
176
     1
 93
        5
176
     1
 44
0.0
176
     1
173
     0
176
     1
1001
ACAD
1000
AcDbSavedByObjectVersion
1070
     0
  0
VISUALSTYLE
  5
D81
102
{ACAD_XDICTIONARY
360
19B2
102
}
102
{ACAD_REACTORS
330
EF
102
}
330
EF
100
AcDbVisualStyle
  2

 70
    26
177
     2
291
     0
 71
     2
176
     1
 72
     2
176
     1
 73
     1
176
     1
 90
        2
176
     1
 40
0.6
176
     1
 41
30.0
176
     1
 63
     7
176
     1
 74
     1
176
     1
 91
        2
176
     1
 64
     7
176
     1
 65
   257
176
     1
 75
     2
176
     1
175
     1
176
     1
 42
1.0
176
     1
 92
        8
176
     1
 66
   257
176
     1
 43
1.0
176
     1
 76
     1
176
     1
 77
     6
176
     1
 78
     2
176
     1
 67
     7
176
     1
 79
     3
176
     1
170
     0
176
     1
171
     0
176
     1
290
     0
176
     1
 93
        5
176
     1
 44
0.0
176
     1
173
     0
176
     1
1001
ACAD
1000
AcDbSavedByObjectVersion
1070
     0
  0
VISUALSTYLE
  5
D7E
102
{ACAD_XDICTIONARY
360
19AC
102
}
102
{ACAD_REACTORS
330
EF
102
}
330
EF
100
AcDbVisualStyle
  2

 70
    23
177
     2
291
     0
 71
     2
176
     1
 72
     2
176
     1
 73
     3
176
     1
 90
        0
176
     1
 40
0.6
176
     1
 41
30.0
176
     1
 63
     7
176
     1
 74
     2
176
     1
 91
        2
176
     1
 64
     7
176
     1
 65
     7
176
     1
 75
     1
176
     1
175
     1
176
     1
 42
40.0
176
     1
 92
        8
176
     1
 66
     7
176
     1
 43
1.0
176
     1
 76
     1
176
     1
 77
     6
176
     1
 78
     2
176
     1
 67
     7
176
     1
 79
     3
176
     1
170
     0
176
     1
171
     0
176
     1
290
     0
176
     1
 93
        1
176
     1
 44
0.0
176
     1
173
     0
176
     1
1001
ACAD
1000
AcDbSavedByObjectVersion
1070
     0
  0
VISUALSTYLE
  5
D7F
102
{ACAD_XDICTIONARY
360
19AE
102
}
102
{ACAD_REACTORS
330
EF
102
}
330
EF
100
AcDbVisualStyle
  2

 70
    24
177
     2
291
     0
 71
     1
176
     1
 72
     2
176
     1
 73
     2
176
     1
 90
        0
176
     1
 40
0.6
176
     1
 41
30.0
176
     1
 63
     7
176
     1
 74
     2
176
     1
 91
        2
176
     1
 64
     7
176
     1
 65
     7
176
     1
 75
     1
176
     1
175
     1
176
     1
 42
40.0
176
     1
 92
       11
176
     1
 66
     7
176
     1
 43
1.0
176
     1
 76
     1
176
     1
 77
     6
176
     1
 78
     2
176
     1
 67
     7
176
     1
 79
     6
176
     1
170
     0
176
     1
171
     0
176
     1
290
     0
176
     1
 93
        1
176
     1
 44
0.0
176
     1
173
     0
176
     1
1001
ACAD
1000
AcDbSavedByObjectVersion
1070
     0
  0
VISUALSTYLE
  5
FC
102
{ACAD_XDICTIONARY
360
19A0
102
}
102
{ACAD_REACTORS
330
EF
102
}
330
EF
100
AcDbVisualStyle
  2

 70
    13
177
     2
291
     1
 71
     2
176
     1
 72
     2
176
     1
 73
     1
176
     1
 90
        0
176
     1
 40
0.6
176
     1
 41
30.0
176
     1
 63
     7
176
     1
 74
     1
176
     1
 91
        4
176
     1
 64
     7
176
     1
 65
   257
176
     1
 75
     1
176
     1
175
     1
176
     1
 42
1.0
176
     1
 92
       12
176
     1
 66
     7
176
     1
 43
1.0
176
     1
 76
     1
176
     1
 77
     6
176
     1
 78
     2
176
     1
 67
     7
176
     1
 79
     5
176
     1
170
     0
176
     1
171
     0
176
     1
290
     0
176
     1
 93
        1
176
     1
 44
0.0
176
     1
173
     0
176
     1
1001
ACAD
1000
AcDbSavedByObjectVersion
1070
     0
  0
VISUALSTYLE
  5
D7C
102
{ACAD_XDICTIONARY
360
19A8
102
}
102
{ACAD_REACTORS
330
EF
102
}
330
EF
100
AcDbVisualStyle
  2

 70
     5
177
     2
291
     0
 71
     0
176
     1
 72
     2
176
     1
 73
     0
176
     1
 90
        0
176
     1
 40
0.6
176
     1
 41
30.0
176
     1
 63
     7
176
     1
 74
     1
176
     1
 91
        4
176
     1
 64
     7
176
     1
 65
   257
176
     1
 75
     1
176
     1
175
     1
176
     1
 42
1.0
176
     1
 92
        0
176
     1
 66
   257
176
     1
 43
1.0
176
     1
 76
     1
176
     1
 77
     6
176
     1
 78
     2
176
     1
 67
     7
176
     1
 79
     3
176
     1
170
     0
176
     1
171
     0
176
     1
290
     0
176
     1
 93
        1
176
     1
 44
0.0
176
     1
173
     0
176
     1
1001
ACAD
1000
AcDbSavedByObjectVersion
1070
     0
  0
VISUALSTYLE
  5
D80
102
{ACAD_XDICTIONARY
360
19B0
102
}
102
{ACAD_REACTORS
330
EF
102
}
330
EF
100
AcDbVisualStyle
  2

 70
    25
177
     2
291
     0
 71
     2
176
     1
 72
     2
176
     1
 73
     1
176
     1
 90
        1
176
     1
 40
0.5
176
     1
 41
30.0
176
     1
 63
     7
176
     1
 74
     1
176
     1
 91
        0
176
     1
 64
     7
176
     1
 65
   257
176
     1
 75
     1
176
     1
175
     1
176
     1
 42
1.0
176
     1
 92
        8
176
     1
 66
     7
176
     1
 43
1.0
176
     1
 76
     1
176
     1
 77
     6
176
     1
 78
     2
176
     1
 67
     7
176
     1
 79
     3
176
     1
170
     0
176
     1
171
     0
176
     1
290
     0
176
     1
 93
       13
176
     1
 44
0.0
176
     1
173
     0
176
     1
1001
ACAD
1000
AcDbSavedByObjectVersion
1070
     0
  0
DICTIONARYVAR
  5
DAA
102
{ACAD_REACTORS
330
5E
102
}
330
5E
100
DictionaryVariables
280
     0
  1
1:1
  0
DICTIONARYVAR
  5
DA6
102
{ACAD_REACTORS
330
5E
102
}
330
5E
100
DictionaryVariables
280
     0
  1
STANDARD
  0
DICTIONARYVAR
  5
84
102
{ACAD_REACTORS
330
5E
102
}
330
5E
100
DictionaryVariables
280
     0
  1
STANDARD
  0
DICTIONARYVAR
  5
DA7
102
{ACAD_REACTORS
330
5E
102
}
330
5E
100
DictionaryVariables
280
     0
  1
Metric50
  0
DICTIONARYVAR
  5
DA8
102
{ACAD_REACTORS
330
5E
102
}
330
5E
100
DictionaryVariables
280
     0
  1
Metric50
  0
DICTIONARYVAR
  5
5F
102
{ACAD_REACTORS
330
5E
102
}
330
5E
100
DictionaryVariables
280
     0
  1
2
  0
DICTIONARYVAR
  5
63
102
{ACAD_REACTORS
330
5E
102
}
330
5E
100
DictionaryVariables
280
     0
  1
1
  0
DICTIONARYVAR
  5
327
102
{ACAD_REACTORS
330
5E
102
}
330
5E
100
DictionaryVariables
280
     0
  1
0
  0
DICTIONARYVAR
  5
DAC
102
{ACAD_REACTORS
330
5E
102
}
330
5E
100
DictionaryVariables
280
     0
  1
1
  0
DICTIONARYVAR
  5
DAD
102
{ACAD_REACTORS
330
5E
102
}
330
5E
100
DictionaryVariables
280
     0
  1
15
  0
DICTIONARYVAR
  5
DAB
102
{ACAD_REACTORS
330
5E
102
}
330
5E
100
DictionaryVariables
280
     0
  1
0
  0
DICTIONARYVAR
  5
DA9
102
{ACAD_REACTORS
330
5E
102
}
330
5E
100
DictionaryVariables
280
     0
  1
0
  0
DICTIONARYVAR
  5
326
102
{ACAD_REACTORS
330
5E
102
}
330
5E
100
DictionaryVariables
280
     0
  1
127
  0
DICTIONARY
  5
1987
102
{ACAD_REACTORS
330
1985
102
}
330
1985
100
AcDbDictionary
281
     1
  0
DICTIONARY
  5
1986
102
{ACAD_REACTORS
330
1985
102
}
330
1985
100
AcDbDictionary
281
     1
  3
8796087118848
350
1980
  3
8796087118864
350
1981
  3
8796087118880
350
1982
  3
8796087118896
350
1983
  3
8796087118912
350
1984
  0
XRECORD
  5
C80
102
{ACAD_REACTORS
330
C7F
102
}
330
C7F
100
AcDbXrecord
280
     1
330
0
330
0
330
0
330
0
  0
DICTIONARY
  5
19C2
330
FDC
100
AcDbDictionary
280
     1
281
     1
  3
ACAD_XREC_ROUNDTRIP
360
19C3
  0
DICTIONARY
  5
19BE
330
D9D
100
AcDbDictionary
280
     1
281
     1
  3
ACAD_XREC_ROUNDTRIP
360
19BF
  0
DICTIONARY
  5
335
330
ED
100
AcDbDictionary
280
     1
281
     1
  3
ACAD_XREC_ROUNDTRIP
360
336
  0
DICTIONARY
  5
333
330
EC
100
AcDbDictionary
280
     1
281
     1
  3
ACAD_XREC_ROUNDTRIP
360
334
  0
DICTIONARY
  5
337
330
EE
100
AcDbDictionary
280
     1
281
     1
  3
ACAD_XREC_ROUNDTRIP
360
338
  0
DICTIONARY
  5
19C0
330
FDB
100
AcDbDictionary
280
     1
281
     1
  3
ACAD_XREC_ROUNDTRIP
360
19C1
  0
DICTIONARY
  5
19BC
330
D9B
100
AcDbDictionary
280
     1
281
     1
  3
ACAD_XREC_ROUNDTRIP
360
19BD
  0
DICTIONARY
  5
E01
330
7F
100
AcDbDictionary
280
     1
281
     1
  3
ACAD_ROUNDTRIP_2008_TABLESTYLE_CELLSTYLEMAP
360
197E
  0
DICTIONARY
  5
1992
330
F5
100
AcDbDictionary
280
     1
281
     1
  3
ACAD_XREC_ROUNDTRIP
360
1993
  0
DICTIONARY
  5
1996
330
F7
100
AcDbDictionary
280
     1
281
     1
  3
ACAD_XREC_ROUNDTRIP
360
1997
  0
DICTIONARY
  5
1994
330
F6
100
AcDbDictionary
280
     1
281
     1
  3
ACAD_XREC_ROUNDTRIP
360
1995
  0
DICTIONARY
  5
1990
330
F4
100
AcDbDictionary
280
     1
281
     1
  3
ACAD_XREC_ROUNDTRIP
360
1991
  0
DICTIONARY
  5
199E
330
FB
100
AcDbDictionary
280
     1
281
     1
  3
ACAD_XREC_ROUNDTRIP
360
199F
  0
DICTIONARY
  5
19A6
330
FF
100
AcDbDictionary
280
     1
281
     1
  3
ACAD_XREC_ROUNDTRIP
360
19A7
  0
DICTIONARY
  5
1998
330
F8
100
AcDbDictionary
280
     1
281
     1
  3
ACAD_XREC_ROUNDTRIP
360
1999
  0
DICTIONARY
  5
199C
330
FA
100
AcDbDictionary
280
     1
281
     1
  3
ACAD_XREC_ROUNDTRIP
360
199D
  0
DICTIONARY
  5
19BA
330
D85
100
AcDbDictionary
280
     1
281
     1
  3
ACAD_XREC_ROUNDTRIP
360
19BB
  0
DICTIONARY
  5
19A4
330
FE
100
AcDbDictionary
280
     1
281
     1
  3
ACAD_XREC_ROUNDTRIP
360
19A5
  0
DICTIONARY
  5
1988
330
F0
100
AcDbDictionary
280
     1
281
     1
  3
ACAD_XREC_ROUNDTRIP
360
1989
  0
DICTIONARY
  5
198A
330
F1
100
AcDbDictionary
280
     1
281
     1
  3
ACAD_XREC_ROUNDTRIP
360
198B
  0
DICTIONARY
  5
198C
330
F2
100
AcDbDictionary
280
     1
281
     1
  3
ACAD_XREC_ROUNDTRIP
360
198D
  0
DICTIONARY
  5
198E
330
F3
100
AcDbDictionary
280
     1
281
     1
  3
ACAD_XREC_ROUNDTRIP
360
198F
  0
DICTIONARY
  5
19AA
330
D7D
100
AcDbDictionary
280
     1
281
     1
  3
ACAD_XREC_ROUNDTRIP
360
19AB
  0
DICTIONARY
  5
19B6
330
D83
100
AcDbDictionary
280
     1
281
     1
  3
ACAD_XREC_ROUNDTRIP
360
19B7
  0
DICTIONARY
  5
19A2
330
FD
100
AcDbDictionary
280
     1
281
     1
  3
ACAD_XREC_ROUNDTRIP
360
19A3
  0
DICTIONARY
  5
19B8
330
D84
100
AcDbDictionary
280
     1
281
     1
  3
ACAD_XREC_ROUNDTRIP
360
19B9
  0
DICTIONARY
  5
199A
330
F9
100
AcDbDictionary
280
     1
281
     1
  3
ACAD_XREC_ROUNDTRIP
360
199B
  0
DICTIONARY
  5
19B4
330
D82
100
AcDbDictionary
280
     1
281
     1
  3
ACAD_XREC_ROUNDTRIP
360
19B5
  0
DICTIONARY
  5
19B2
330
D81
100
AcDbDictionary
280
     1
281
     1
  3
ACAD_XREC_ROUNDTRIP
360
19B3
  0
DICTIONARY
  5
19AC
330
D7E
100
AcDbDictionary
280
     1
281
     1
  3
ACAD_XREC_ROUNDTRIP
360
19AD
  0
DICTIONARY
  5
19AE
330
D7F
100
AcDbDictionary
280
     1
281
     1
  3
ACAD_XREC_ROUNDTRIP
360
19AF
  0
DICTIONARY
  5
19A0
330
FC
100
AcDbDictionary
280
     1
281
     1
  3
ACAD_XREC_ROUNDTRIP
360
19A1
  0
DICTIONARY
  5
19A8
330
D7C
100
AcDbDictionary
280
     1
281
     1
  3
ACAD_XREC_ROUNDTRIP
360
19A9
  0
DICTIONARY
  5
19B0
330
D80
100
AcDbDictionary
280
     1
281
     1
  3
ACAD_XREC_ROUNDTRIP
360
19B1
  0
XRECORD
  5
1980
102
{ACAD_REACTORS
330
1986
102
}
330
1986
100
AcDbXrecord
280
     1
  1
AcDb_Thumbnail_Schema
102
{ATTRRECORD
341
1981
  2
AcDbDs::TreatedAsObjectData
280
     1
291
     1
102
ATTRRECORD}
102
{ATTRRECORD
341
1982
  2
AcDbDs::Legacy
280
     1
291
     1
102
ATTRRECORD}
  2
AcDbDs::ID
280
    10
 91
        8
102
{ATTRRECORD
341
1983
  2
AcDs:Indexable
280
     1
291
     1
102
ATTRRECORD}
102
{ATTRRECORD
341
1984
  2
AcDbDs::HandleAttribute
280
     7
282
     1
102
ATTRRECORD}
  2
Thumbnail_Data
280
    15
 91
        0
  0
XRECORD
  5
1981
102
{ACAD_REACTORS
330
1986
102
}
330
1986
100
AcDbXrecord
280
     1
  1
AcDbDs::TreatedAsObjectDataSchema
  2
AcDbDs::TreatedAsObjectData
280
     1
 91
        0
  0
XRECORD
  5
1982
102
{ACAD_REACTORS
330
1986
102
}
330
1986
100
AcDbXrecord
280
     1
  1
AcDbDs::LegacySchema
  2
AcDbDs::Legacy
280
     1
 91
        0
  0
XRECORD
  5
1983
102
{ACAD_REACTORS
330
1986
102
}
330
1986
100
AcDbXrecord
280
     1
  1
AcDbDs::IndexedPropertySchema
  2
AcDs:Indexable
280
     1
 91
        0
  0
XRECORD
  5
1984
102
{ACAD_REACTORS
330
1986
102
}
330
1986
100
AcDbXrecord
280
     1
  1
AcDbDs::HandleAttributeSchema
  2
AcDbDs::HandleAttribute
280
     7
 91
        1
284
     1
  0
XRECORD
  5
19C3
102
{ACAD_REACTORS
330
19C2
102
}
330
19C2
100
AcDbXrecord
280
     1
102
DISPLAYNAME
  1
Imperial24
102
FLAGS
 90
        0
  0
XRECORD
  5
19BF
102
{ACAD_REACTORS
330
19BE
102
}
330
19BE
100
AcDbXrecord
280
     1
102
DISPLAYNAME
  1
Metric50
102
FLAGS
 90
        0
  0
XRECORD
  5
336
102
{ACAD_REACTORS
330
335
102
}
330
335
100
AcDbXrecord
280
     1
102
MATERIAL
148
0.0
149
0.0
149
0.0
 93
        0
 94
      127
282
     0
 72
     1
 77
     1
171
     1
175
     1
179
     1
273
     0
  0
XRECORD
  5
334
102
{ACAD_REACTORS
330
333
102
}
330
333
100
AcDbXrecord
280
     1
102
MATERIAL
148
0.0
149
0.0
149
0.0
 93
        0
 94
      127
282
     0
 72
     1
 77
     1
171
     1
175
     1
179
     1
273
     0
  0
XRECORD
  5
338
102
{ACAD_REACTORS
330
337
102
}
330
337
100
AcDbXrecord
280
     1
102
MATERIAL
148
0.0
149
0.0
149
0.0
 93
        0
 94
      127
282
     0
 72
     1
 77
     1
171
     1
175
     1
179
     1
273
     0
  0
XRECORD
  5
19C1
102
{ACAD_REACTORS
330
19C0
102
}
330
19C0
100
AcDbXrecord
280
     1
102
DISPLAYNAME
  1
Imperial24
102
FLAGS
 90
        0
  0
XRECORD
  5
19BD
102
{ACAD_REACTORS
330
19BC
102
}
330
19BC
100
AcDbXrecord
280
     1
102
DISPLAYNAME
  1
Metric50
102
FLAGS
 90
        0
  0
CELLSTYLEMAP
  5
197E
102
{ACAD_REACTORS
330
E01
102
}
330
E01
100
AcDbCellStyleMap
 90
        3
300
CELLSTYLE
  1
TABLEFORMAT_BEGIN
 90
        5
170
     1
 91
        0
 92
    32768
 62
   257
 93
        1
300
CONTENTFORMAT
  1
CONTENTFORMAT_BEGIN
 90
        0
 91
        0
 92
      512
 93
        0
300

 40
0.0
140
1.0
 94
        5
 62
     0
340
11
144
6.0
309
CONTENTFORMAT_END
171
     1
301
MARGIN
  1
CELLMARGIN_BEGIN
 40
1.5
 40
1.5
 40
1.5
 40
1.5
 40
0.18
 40
0.18
309
CELLMARGIN_END
 94
        6
 95
        1
302
GRIDFORMAT
  1
GRIDFORMAT_BEGIN
 90
        0
 91
        1
 62
     0
 92
       -2
340
0
 93
        0
 40
0.045
309
GRIDFORMAT_END
 95
        2
302
GRIDFORMAT
  1
GRIDFORMAT_BEGIN
 90
        0
 91
        1
 62
     0
 92
       -2
340
0
 93
        0
 40
0.045
309
GRIDFORMAT_END
 95
        4
302
GRIDFORMAT
  1
GRIDFORMAT_BEGIN
 90
        0
 91
        1
 62
     0
 92
       -2
340
0
 93
        0
 40
0.045
309
GRIDFORMAT_END
 95
        8
302
GRIDFORMAT
  1
GRIDFORMAT_BEGIN
 90
        0
 91
        1
 62
     0
 92
       -2
340
0
 93
        0
 40
0.045
309
GRIDFORMAT_END
 95
       16
302
GRIDFORMAT
  1
GRIDFORMAT_BEGIN
 90
        0
 91
        1
 62
     0
 92
       -2
340
0
 93
        0
 40
0.045
309
GRIDFORMAT_END
 95
       32
302
GRIDFORMAT
  1
GRIDFORMAT_BEGIN
 90
        0
 91
        1
 62
     0
 92
       -2
340
0
 93
        0
 40
0.045
309
GRIDFORMAT_END
309
TABLEFORMAT_END
  1
CELLSTYLE_BEGIN
 90
        1
 91
        1
300
_TITLE
309
CELLSTYLE_END
300
CELLSTYLE
  1
TABLEFORMAT_BEGIN
 90
        5
170
     1
 91
        0
 92
        0
 62
   257
 93
        1
300
CONTENTFORMAT
  1
CONTENTFORMAT_BEGIN
 90
        0
 91
        0
 92
      512
 93
        0
300

 40
0.0
140
1.0
 94
        5
 62
     0
340
11
144
4.5
309
CONTENTFORMAT_END
171
     1
301
MARGIN
  1
CELLMARGIN_BEGIN
 40
1.5
 40
1.5
 40
1.5
 40
1.5
 40
0.18
 40
0.18
309
CELLMARGIN_END
 94
        6
 95
        1
302
GRIDFORMAT
  1
GRIDFORMAT_BEGIN
 90
        0
 91
        1
 62
     0
 92
       -2
340
0
 93
        0
 40
0.045
309
GRIDFORMAT_END
 95
        2
302
GRIDFORMAT
  1
GRIDFORMAT_BEGIN
 90
        0
 91
        1
 62
     0
 92
       -2
340
0
 93
        0
 40
0.045
309
GRIDFORMAT_END
 95
        4
302
GRIDFORMAT
  1
GRIDFORMAT_BEGIN
 90
        0
 91
        1
 62
     0
 92
       -2
340
0
 93
        0
 40
0.045
309
GRIDFORMAT_END
 95
        8
302
GRIDFORMAT
  1
GRIDFORMAT_BEGIN
 90
        0
 91
        1
 62
     0
 92
       -2
340
0
 93
        0
 40
0.045
309
GRIDFORMAT_END
 95
       16
302
GRIDFORMAT
  1
GRIDFORMAT_BEGIN
 90
        0
 91
        1
 62
     0
 92
       -2
340
0
 93
        0
 40
0.045
309
GRIDFORMAT_END
 95
       32
302
GRIDFORMAT
  1
GRIDFORMAT_BEGIN
 90
        0
 91
        1
 62
     0
 92
       -2
340
0
 93
        0
 40
0.045
309
GRIDFORMAT_END
309
TABLEFORMAT_END
  1
CELLSTYLE_BEGIN
 90
        2
 91
        1
300
_HEADER
309
CELLSTYLE_END
300
CELLSTYLE
  1
TABLEFORMAT_BEGIN
 90
        5
170
     1
 91
        0
 92
        0
 62
   257
 93
        1
300
CONTENTFORMAT
  1
CONTENTFORMAT_BEGIN
 90
        0
 91
        0
 92
      512
 93
        0
300

 40
0.0
140
1.0
 94
        2
 62
     0
340
11
144
4.5
309
CONTENTFORMAT_END
171
     1
301
MARGIN
  1
CELLMARGIN_BEGIN
 40
1.5
 40
1.5
 40
1.5
 40
1.5
 40
0.18
 40
0.18
309
CELLMARGIN_END
 94
        6
 95
        1
302
GRIDFORMAT
  1
GRIDFORMAT_BEGIN
 90
        0
 91
        1
 62
     0
 92
       -2
340
0
 93
        0
 40
0.045
309
GRIDFORMAT_END
 95
        2
302
GRIDFORMAT
  1
GRIDFORMAT_BEGIN
 90
        0
 91
        1
 62
     0
 92
       -2
340
0
 93
        0
 40
0.045
309
GRIDFORMAT_END
 95
        4
302
GRIDFORMAT
  1
GRIDFORMAT_BEGIN
 90
        0
 91
        1
 62
     0
 92
       -2
340
0
 93
        0
 40
0.045
309
GRIDFORMAT_END
 95
        8
302
GRIDFORMAT
  1
GRIDFORMAT_BEGIN
 90
        0
 91
        1
 62
     0
 92
       -2
340
0
 93
        0
 40
0.045
309
GRIDFORMAT_END
 95
       16
302
GRIDFORMAT
  1
GRIDFORMAT_BEGIN
 90
        0
 91
        1
 62
     0
 92
       -2
340
0
 93
        0
 40
0.045
309
GRIDFORMAT_END
 95
       32
302
GRIDFORMAT
  1
GRIDFORMAT_BEGIN
 90
        0
 91
        1
 62
     0
 92
       -2
340
0
 93
        0
 40
0.045
309
GRIDFORMAT_END
309
TABLEFORMAT_END
  1
CELLSTYLE_BEGIN
 90
        3
 91
        2
300
_DATA
309
CELLSTYLE_END
  0
XRECORD
  5
1993
102
{ACAD_REACTORS
330
1992
102
}
330
1992
100
AcDbXrecord
280
     1
102
RTVSPost2010Prop28
280
     1
102
RTVSPost2010PropOp28
 70
     1
102
RTVSPost2010Prop29
280
     1
102
RTVSPost2010PropOp29
 70
     1
102
RTVSPost2010Prop30
280
     0
102
RTVSPost2010PropOp30
 70
     1
102
RTVSPost2010Prop31
280
     0
102
RTVSPost2010PropOp31
 70
     1
102
RTVSPost2010Prop32
280
     0
102
RTVSPost2010PropOp32
 70
     1
102
RTVSPost2010Prop33
280
     0
102
RTVSPost2010PropOp33
 70
     1
102
RTVSPost2010Prop34
280
     0
102
RTVSPost2010PropOp34
 70
     1
102
RTVSPost2010Prop35
280
     0
102
RTVSPost2010PropOp35
 70
     1
102
RTVSPost2010Prop36
280
     0
102
RTVSPost2010PropOp36
 70
     1
102
RTVSPost2010Prop37
 90
       50
102
RTVSPost2010PropOp37
 70
     1
102
RTVSPost2010Prop38
140
0.0
102
RTVSPost2010PropOp38
 70
     1
102
RTVSPost2010Prop39
140
1.0
102
RTVSPost2010PropOp39
 70
     1
102
RTVSPost2010Prop40
 90
        0
102
RTVSPost2010PropOp40
 70
     1
102
RTVSPost2010Prop41ColorIndex
 90
       18
102
RTVSPost2010Prop41ColorRGB
 90
        0
102
RTVSPost2010PropOp41
 70
     1
102
RTVSPost2010Prop42
 90
       50
102
RTVSPost2010PropOp42
 70
     1
102
RTVSPost2010Prop43
 90
        3
102
RTVSPost2010PropOp43
 70
     1
102
RTVSPost2010Prop44ColorIndex
 90
        5
102
RTVSPost2010Prop44ColorRGB
 90
      255
102
RTVSPost2010PropOp44
 70
     1
102
RTVSPost2010Prop45
280
     0
102
RTVSPost2010PropOp45
 70
     1
102
RTVSPost2010Prop46
 90
       50
102
RTVSPost2010PropOp46
 70
     1
102
RTVSPost2010Prop47
 90
       50
102
RTVSPost2010PropOp47
 70
     1
102
RTVSPost2010Prop48
 90
       50
102
RTVSPost2010PropOp48
 70
     1
102
RTVSPost2010Prop49
280
     0
102
RTVSPost2010PropOp49
 70
     1
102
RTVSPost2010Prop50
 90
       50
102
RTVSPost2010PropOp50
 70
     1
102
RTVSPost2010Prop51ColorIndex
 90
      256
102
RTVSPost2010Prop51ColorRGB
 90
-16777216
102
RTVSPost2010PropOp51
 70
     0
102
RTVSPost2010Prop52
140
1.0
102
RTVSPost2010PropOp52
 70
     0
102
RTVSPost2010Prop53
 90
        2
102
RTVSPost2010PropOp53
 70
     1
102
RTVSPost2010Prop54
  1
strokes_ogs.tif
102
RTVSPost2010PropOp54
 70
     1
102
RTVSPost2010Prop55
280
     0
102
RTVSPost2010PropOp55
 70
     1
102
RTVSPost2010Prop56
140
1.0
102
RTVSPost2010PropOp56
 70
     1
102
RTVSPost2010Prop57
140
1.0
102
RTVSPost2010PropOp57
 70
     1
  0
XRECORD
  5
1997
102
{ACAD_REACTORS
330
1996
102
}
330
1996
100
AcDbXrecord
280
     1
102
RTVSPost2010Prop28
280
     0
102
RTVSPost2010PropOp28
 70
     1
102
RTVSPost2010Prop29
280
     1
102
RTVSPost2010PropOp29
 70
     1
102
RTVSPost2010Prop30
280
     1
102
RTVSPost2010PropOp30
 70
     1
102
RTVSPost2010Prop31
280
     0
102
RTVSPost2010PropOp31
 70
     1
102
RTVSPost2010Prop32
280
     0
102
RTVSPost2010PropOp32
 70
     1
102
RTVSPost2010Prop33
280
     0
102
RTVSPost2010PropOp33
 70
     1
102
RTVSPost2010Prop34
280
     0
102
RTVSPost2010PropOp34
 70
     1
102
RTVSPost2010Prop35
280
     0
102
RTVSPost2010PropOp35
 70
     1
102
RTVSPost2010Prop36
280
     0
102
RTVSPost2010PropOp36
 70
     1
102
RTVSPost2010Prop37
 90
       50
102
RTVSPost2010PropOp37
 70
     1
102
RTVSPost2010Prop38
140
0.0
102
RTVSPost2010PropOp38
 70
     1
102
RTVSPost2010Prop39
140
1.0
102
RTVSPost2010PropOp39
 70
     1
102
RTVSPost2010Prop40
 90
        0
102
RTVSPost2010PropOp40
 70
     1
102
RTVSPost2010Prop41ColorIndex
 90
       18
102
RTVSPost2010Prop41ColorRGB
 90
        0
102
RTVSPost2010PropOp41
 70
     1
102
RTVSPost2010Prop42
 90
       50
102
RTVSPost2010PropOp42
 70
     1
102
RTVSPost2010Prop43
 90
        3
102
RTVSPost2010PropOp43
 70
     1
102
RTVSPost2010Prop44ColorIndex
 90
        5
102
RTVSPost2010Prop44ColorRGB
 90
      255
102
RTVSPost2010PropOp44
 70
     1
102
RTVSPost2010Prop45
280
     0
102
RTVSPost2010PropOp45
 70
     1
102
RTVSPost2010Prop46
 90
       50
102
RTVSPost2010PropOp46
 70
     1
102
RTVSPost2010Prop47
 90
       50
102
RTVSPost2010PropOp47
 70
     1
102
RTVSPost2010Prop48
 90
       50
102
RTVSPost2010PropOp48
 70
     1
102
RTVSPost2010Prop49
280
     0
102
RTVSPost2010PropOp49
 70
     1
102
RTVSPost2010Prop50
 90
       50
102
RTVSPost2010PropOp50
 70
     1
102
RTVSPost2010Prop51ColorIndex
 90
      256
102
RTVSPost2010Prop51ColorRGB
 90
-16777216
102
RTVSPost2010PropOp51
 70
     0
102
RTVSPost2010Prop52
140
1.0
102
RTVSPost2010PropOp52
 70
     0
102
RTVSPost2010Prop53
 90
        2
102
RTVSPost2010PropOp53
 70
     1
102
RTVSPost2010Prop54
  1
strokes_ogs.tif
102
RTVSPost2010PropOp54
 70
     1
102
RTVSPost2010Prop55
280
     0
102
RTVSPost2010PropOp55
 70
     1
102
RTVSPost2010Prop56
140
1.0
102
RTVSPost2010PropOp56
 70
     1
102
RTVSPost2010Prop57
140
1.0
102
RTVSPost2010PropOp57
 70
     1
  0
XRECORD
  5
1995
102
{ACAD_REACTORS
330
1994
102
}
330
1994
100
AcDbXrecord
280
     1
102
RTVSPost2010Prop28
280
     0
102
RTVSPost2010PropOp28
 70
     1
102
RTVSPost2010Prop29
280
     1
102
RTVSPost2010PropOp29
 70
     1
102
RTVSPost2010Prop30
280
     1
102
RTVSPost2010PropOp30
 70
     1
102
RTVSPost2010Prop31
280
     0
102
RTVSPost2010PropOp31
 70
     1
102
RTVSPost2010Prop32
280
     0
102
RTVSPost2010PropOp32
 70
     1
102
RTVSPost2010Prop33
280
     0
102
RTVSPost2010PropOp33
 70
     1
102
RTVSPost2010Prop34
280
     0
102
RTVSPost2010PropOp34
 70
     1
102
RTVSPost2010Prop35
280
     0
102
RTVSPost2010PropOp35
 70
     1
102
RTVSPost2010Prop36
280
     0
102
RTVSPost2010PropOp36
 70
     1
102
RTVSPost2010Prop37
 90
       50
102
RTVSPost2010PropOp37
 70
     1
102
RTVSPost2010Prop38
140
0.0
102
RTVSPost2010PropOp38
 70
     1
102
RTVSPost2010Prop39
140
1.0
102
RTVSPost2010PropOp39
 70
     1
102
RTVSPost2010Prop40
 90
        0
102
RTVSPost2010PropOp40
 70
     1
102
RTVSPost2010Prop41ColorIndex
 90
       18
102
RTVSPost2010Prop41ColorRGB
 90
        0
102
RTVSPost2010PropOp41
 70
     1
102
RTVSPost2010Prop42
 90
       50
102
RTVSPost2010PropOp42
 70
     1
102
RTVSPost2010Prop43
 90
        3
102
RTVSPost2010PropOp43
 70
     1
102
RTVSPost2010Prop44ColorIndex
 90
        5
102
RTVSPost2010Prop44ColorRGB
 90
      255
102
RTVSPost2010PropOp44
 70
     1
102
RTVSPost2010Prop45
280
     0
102
RTVSPost2010PropOp45
 70
     1
102
RTVSPost2010Prop46
 90
       50
102
RTVSPost2010PropOp46
 70
     1
102
RTVSPost2010Prop47
 90
       50
102
RTVSPost2010PropOp47
 70
     1
102
RTVSPost2010Prop48
 90
       50
102
RTVSPost2010PropOp48
 70
     1
102
RTVSPost2010Prop49
280
     0
102
RTVSPost2010PropOp49
 70
     1
102
RTVSPost2010Prop50
 90
       50
102
RTVSPost2010PropOp50
 70
     1
102
RTVSPost2010Prop51ColorIndex
 90
      256
102
RTVSPost2010Prop51ColorRGB
 90
-16777216
102
RTVSPost2010PropOp51
 70
     0
102
RTVSPost2010Prop52
140
1.0
102
RTVSPost2010PropOp52
 70
     0
102
RTVSPost2010Prop53
 90
        2
102
RTVSPost2010PropOp53
 70
     1
102
RTVSPost2010Prop54
  1
strokes_ogs.tif
102
RTVSPost2010PropOp54
 70
     1
102
RTVSPost2010Prop55
280
     0
102
RTVSPost2010PropOp55
 70
     1
102
RTVSPost2010Prop56
140
1.0
102
RTVSPost2010PropOp56
 70
     1
102
RTVSPost2010Prop57
140
1.0
102
RTVSPost2010PropOp57
 70
     1
  0
XRECORD
  5
1991
102
{ACAD_REACTORS
330
1990
102
}
330
1990
100
AcDbXrecord
280
     1
102
RTVSPost2010Prop28
280
     0
102
RTVSPost2010PropOp28
 70
     1
102
RTVSPost2010Prop29
280
     1
102
RTVSPost2010PropOp29
 70
     1
102
RTVSPost2010Prop30
280
     1
102
RTVSPost2010PropOp30
 70
     1
102
RTVSPost2010Prop31
280
     0
102
RTVSPost2010PropOp31
 70
     1
102
RTVSPost2010Prop32
280
     0
102
RTVSPost2010PropOp32
 70
     1
102
RTVSPost2010Prop33
280
     0
102
RTVSPost2010PropOp33
 70
     1
102
RTVSPost2010Prop34
280
     0
102
RTVSPost2010PropOp34
 70
     1
102
RTVSPost2010Prop35
280
     0
102
RTVSPost2010PropOp35
 70
     1
102
RTVSPost2010Prop36
280
     0
102
RTVSPost2010PropOp36
 70
     1
102
RTVSPost2010Prop37
 90
       50
102
RTVSPost2010PropOp37
 70
     1
102
RTVSPost2010Prop38
140
0.0
102
RTVSPost2010PropOp38
 70
     1
102
RTVSPost2010Prop39
140
1.0
102
RTVSPost2010PropOp39
 70
     1
102
RTVSPost2010Prop40
 90
        0
102
RTVSPost2010PropOp40
 70
     1
102
RTVSPost2010Prop41ColorIndex
 90
       18
102
RTVSPost2010Prop41ColorRGB
 90
        0
102
RTVSPost2010PropOp41
 70
     1
102
RTVSPost2010Prop42
 90
       50
102
RTVSPost2010PropOp42
 70
     1
102
RTVSPost2010Prop43
 90
        3
102
RTVSPost2010PropOp43
 70
     1
102
RTVSPost2010Prop44ColorIndex
 90
        5
102
RTVSPost2010Prop44ColorRGB
 90
      255
102
RTVSPost2010PropOp44
 70
     1
102
RTVSPost2010Prop45
280
     0
102
RTVSPost2010PropOp45
 70
     1
102
RTVSPost2010Prop46
 90
       50
102
RTVSPost2010PropOp46
 70
     1
102
RTVSPost2010Prop47
 90
       50
102
RTVSPost2010PropOp47
 70
     1
102
RTVSPost2010Prop48
 90
       50
102
RTVSPost2010PropOp48
 70
     1
102
RTVSPost2010Prop49
280
     0
102
RTVSPost2010PropOp49
 70
     1
102
RTVSPost2010Prop50
 90
       50
102
RTVSPost2010PropOp50
 70
     1
102
RTVSPost2010Prop51ColorIndex
 90
      256
102
RTVSPost2010Prop51ColorRGB
 90
-16777216
102
RTVSPost2010PropOp51
 70
     0
102
RTVSPost2010Prop52
140
1.0
102
RTVSPost2010PropOp52
 70
     0
102
RTVSPost2010Prop53
 90
        2
102
RTVSPost2010PropOp53
 70
     1
102
RTVSPost2010Prop54
  1
strokes_ogs.tif
102
RTVSPost2010PropOp54
 70
     1
102
RTVSPost2010Prop55
280
     0
102
RTVSPost2010PropOp55
 70
     1
102
RTVSPost2010Prop56
140
1.0
102
RTVSPost2010PropOp56
 70
     1
102
RTVSPost2010Prop57
140
1.0
102
RTVSPost2010PropOp57
 70
     1
  0
XRECORD
  5
199F
102
{ACAD_REACTORS
330
199E
102
}
330
199E
100
AcDbXrecord
280
     1
102
RTVSPost2010Prop28
280
     0
102
RTVSPost2010PropOp28
 70
     1
102
RTVSPost2010Prop29
280
     1
102
RTVSPost2010PropOp29
 70
     1
102
RTVSPost2010Prop30
280
     1
102
RTVSPost2010PropOp30
 70
     1
102
RTVSPost2010Prop31
280
     0
102
RTVSPost2010PropOp31
 70
     1
102
RTVSPost2010Prop32
280
     0
102
RTVSPost2010PropOp32
 70
     1
102
RTVSPost2010Prop33
280
     0
102
RTVSPost2010PropOp33
 70
     1
102
RTVSPost2010Prop34
280
     0
102
RTVSPost2010PropOp34
 70
     1
102
RTVSPost2010Prop35
280
     0
102
RTVSPost2010PropOp35
 70
     1
102
RTVSPost2010Prop36
280
     0
102
RTVSPost2010PropOp36
 70
     1
102
RTVSPost2010Prop37
 90
       50
102
RTVSPost2010PropOp37
 70
     1
102
RTVSPost2010Prop38
140
0.0
102
RTVSPost2010PropOp38
 70
     1
102
RTVSPost2010Prop39
140
1.0
102
RTVSPost2010PropOp39
 70
     1
102
RTVSPost2010Prop40
 90
        0
102
RTVSPost2010PropOp40
 70
     1
102
RTVSPost2010Prop41ColorIndex
 90
       18
102
RTVSPost2010Prop41ColorRGB
 90
        0
102
RTVSPost2010PropOp41
 70
     1
102
RTVSPost2010Prop42
 90
       50
102
RTVSPost2010PropOp42
 70
     1
102
RTVSPost2010Prop43
 90
        3
102
RTVSPost2010PropOp43
 70
     1
102
RTVSPost2010Prop44ColorIndex
 90
        5
102
RTVSPost2010Prop44ColorRGB
 90
      255
102
RTVSPost2010PropOp44
 70
     1
102
RTVSPost2010Prop45
280
     0
102
RTVSPost2010PropOp45
 70
     1
102
RTVSPost2010Prop46
 90
       50
102
RTVSPost2010PropOp46
 70
     1
102
RTVSPost2010Prop47
 90
       50
102
RTVSPost2010PropOp47
 70
     1
102
RTVSPost2010Prop48
 90
       50
102
RTVSPost2010PropOp48
 70
     1
102
RTVSPost2010Prop49
280
     0
102
RTVSPost2010PropOp49
 70
     1
102
RTVSPost2010Prop50
 90
       50
102
RTVSPost2010PropOp50
 70
     1
102
RTVSPost2010Prop51ColorIndex
 90
      256
102
RTVSPost2010Prop51ColorRGB
 90
-16777216
102
RTVSPost2010PropOp51
 70
     0
102
RTVSPost2010Prop52
140
1.0
102
RTVSPost2010PropOp52
 70
     0
102
RTVSPost2010Prop53
 90
        2
102
RTVSPost2010PropOp53
 70
     1
102
RTVSPost2010Prop54
  1
strokes_ogs.tif
102
RTVSPost2010PropOp54
 70
     1
102
RTVSPost2010Prop55
280
     0
102
RTVSPost2010PropOp55
 70
     1
102
RTVSPost2010Prop56
140
1.0
102
RTVSPost2010PropOp56
 70
     1
102
RTVSPost2010Prop57
140
1.0
102
RTVSPost2010PropOp57
 70
     1
  0
XRECORD
  5
19A7
102
{ACAD_REACTORS
330
19A6
102
}
330
19A6
100
AcDbXrecord
280
     1
102
RTVSPost2010Prop28
280
     0
102
RTVSPost2010PropOp28
 70
     1
102
RTVSPost2010Prop29
280
     1
102
RTVSPost2010PropOp29
 70
     1
102
RTVSPost2010Prop30
280
     1
102
RTVSPost2010PropOp30
 70
     1
102
RTVSPost2010Prop31
280
     0
102
RTVSPost2010PropOp31
 70
     1
102
RTVSPost2010Prop32
280
     0
102
RTVSPost2010PropOp32
 70
     1
102
RTVSPost2010Prop33
280
     0
102
RTVSPost2010PropOp33
 70
     1
102
RTVSPost2010Prop34
280
     0
102
RTVSPost2010PropOp34
 70
     1
102
RTVSPost2010Prop35
280
     0
102
RTVSPost2010PropOp35
 70
     1
102
RTVSPost2010Prop36
280
     0
102
RTVSPost2010PropOp36
 70
     1
102
RTVSPost2010Prop37
 90
       50
102
RTVSPost2010PropOp37
 70
     1
102
RTVSPost2010Prop38
140
0.0
102
RTVSPost2010PropOp38
 70
     1
102
RTVSPost2010Prop39
140
1.0
102
RTVSPost2010PropOp39
 70
     1
102
RTVSPost2010Prop40
 90
        0
102
RTVSPost2010PropOp40
 70
     1
102
RTVSPost2010Prop41ColorIndex
 90
       18
102
RTVSPost2010Prop41ColorRGB
 90
        0
102
RTVSPost2010PropOp41
 70
     1
102
RTVSPost2010Prop42
 90
       50
102
RTVSPost2010PropOp42
 70
     1
102
RTVSPost2010Prop43
 90
        3
102
RTVSPost2010PropOp43
 70
     1
102
RTVSPost2010Prop44ColorIndex
 90
        5
102
RTVSPost2010Prop44ColorRGB
 90
      255
102
RTVSPost2010PropOp44
 70
     1
102
RTVSPost2010Prop45
280
     0
102
RTVSPost2010PropOp45
 70
     1
102
RTVSPost2010Prop46
 90
       50
102
RTVSPost2010PropOp46
 70
     1
102
RTVSPost2010Prop47
 90
       50
102
RTVSPost2010PropOp47
 70
     1
102
RTVSPost2010Prop48
 90
       50
102
RTVSPost2010PropOp48
 70
     1
102
RTVSPost2010Prop49
280
     0
102
RTVSPost2010PropOp49
 70
     1
102
RTVSPost2010Prop50
 90
       50
102
RTVSPost2010PropOp50
 70
     1
102
RTVSPost2010Prop51ColorIndex
 90
      256
102
RTVSPost2010Prop51ColorRGB
 90
-16777216
102
RTVSPost2010PropOp51
 70
     0
102
RTVSPost2010Prop52
140
1.0
102
RTVSPost2010PropOp52
 70
     0
102
RTVSPost2010Prop53
 90
        2
102
RTVSPost2010PropOp53
 70
     1
102
RTVSPost2010Prop54
  1
strokes_ogs.tif
102
RTVSPost2010PropOp54
 70
     1
102
RTVSPost2010Prop55
280
     0
102
RTVSPost2010PropOp55
 70
     1
102
RTVSPost2010Prop56
140
1.0
102
RTVSPost2010PropOp56
 70
     1
102
RTVSPost2010Prop57
140
1.0
102
RTVSPost2010PropOp57
 70
     1
  0
XRECORD
  5
1999
102
{ACAD_REACTORS
330
1998
102
}
330
1998
100
AcDbXrecord
280
     1
102
RTVSPost2010Prop28
280
     0
102
RTVSPost2010PropOp28
 70
     1
102
RTVSPost2010Prop29
280
     1
102
RTVSPost2010PropOp29
 70
     1
102
RTVSPost2010Prop30
280
     1
102
RTVSPost2010PropOp30
 70
     1
102
RTVSPost2010Prop31
280
     0
102
RTVSPost2010PropOp31
 70
     1
102
RTVSPost2010Prop32
280
     0
102
RTVSPost2010PropOp32
 70
     1
102
RTVSPost2010Prop33
280
     0
102
RTVSPost2010PropOp33
 70
     1
102
RTVSPost2010Prop34
280
     0
102
RTVSPost2010PropOp34
 70
     1
102
RTVSPost2010Prop35
280
     0
102
RTVSPost2010PropOp35
 70
     1
102
RTVSPost2010Prop36
280
     0
102
RTVSPost2010PropOp36
 70
     1
102
RTVSPost2010Prop37
 90
       50
102
RTVSPost2010PropOp37
 70
     1
102
RTVSPost2010Prop38
140
0.0
102
RTVSPost2010PropOp38
 70
     1
102
RTVSPost2010Prop39
140
1.0
102
RTVSPost2010PropOp39
 70
     1
102
RTVSPost2010Prop40
 90
        0
102
RTVSPost2010PropOp40
 70
     1
102
RTVSPost2010Prop41ColorIndex
 90
       18
102
RTVSPost2010Prop41ColorRGB
 90
        0
102
RTVSPost2010PropOp41
 70
     1
102
RTVSPost2010Prop42
 90
       50
102
RTVSPost2010PropOp42
 70
     1
102
RTVSPost2010Prop43
 90
        3
102
RTVSPost2010PropOp43
 70
     1
102
RTVSPost2010Prop44ColorIndex
 90
        5
102
RTVSPost2010Prop44ColorRGB
 90
      255
102
RTVSPost2010PropOp44
 70
     1
102
RTVSPost2010Prop45
280
     0
102
RTVSPost2010PropOp45
 70
     1
102
RTVSPost2010Prop46
 90
       50
102
RTVSPost2010PropOp46
 70
     1
102
RTVSPost2010Prop47
 90
       50
102
RTVSPost2010PropOp47
 70
     1
102
RTVSPost2010Prop48
 90
       50
102
RTVSPost2010PropOp48
 70
     1
102
RTVSPost2010Prop49
280
     0
102
RTVSPost2010PropOp49
 70
     1
102
RTVSPost2010Prop50
 90
       50
102
RTVSPost2010PropOp50
 70
     1
102
RTVSPost2010Prop51ColorIndex
 90
      256
102
RTVSPost2010Prop51ColorRGB
 90
-16777216
102
RTVSPost2010PropOp51
 70
     0
102
RTVSPost2010Prop52
140
1.0
102
RTVSPost2010PropOp52
 70
     0
102
RTVSPost2010Prop53
 90
        2
102
RTVSPost2010PropOp53
 70
     1
102
RTVSPost2010Prop54
  1
strokes_ogs.tif
102
RTVSPost2010PropOp54
 70
     1
102
RTVSPost2010Prop55
280
     0
102
RTVSPost2010PropOp55
 70
     1
102
RTVSPost2010Prop56
140
1.0
102
RTVSPost2010PropOp56
 70
     1
102
RTVSPost2010Prop57
140
1.0
102
RTVSPost2010PropOp57
 70
     1
  0
XRECORD
  5
199D
102
{ACAD_REACTORS
330
199C
102
}
330
199C
100
AcDbXrecord
280
     1
102
RTVSPost2010Prop28
280
     0
102
RTVSPost2010PropOp28
 70
     1
102
RTVSPost2010Prop29
280
     1
102
RTVSPost2010PropOp29
 70
     1
102
RTVSPost2010Prop30
280
     1
102
RTVSPost2010PropOp30
 70
     1
102
RTVSPost2010Prop31
280
     0
102
RTVSPost2010PropOp31
 70
     1
102
RTVSPost2010Prop32
280
     0
102
RTVSPost2010PropOp32
 70
     1
102
RTVSPost2010Prop33
280
     0
102
RTVSPost2010PropOp33
 70
     1
102
RTVSPost2010Prop34
280
     0
102
RTVSPost2010PropOp34
 70
     1
102
RTVSPost2010Prop35
280
     0
102
RTVSPost2010PropOp35
 70
     1
102
RTVSPost2010Prop36
280
     0
102
RTVSPost2010PropOp36
 70
     1
102
RTVSPost2010Prop37
 90
       50
102
RTVSPost2010PropOp37
 70
     1
102
RTVSPost2010Prop38
140
0.0
102
RTVSPost2010PropOp38
 70
     1
102
RTVSPost2010Prop39
140
1.0
102
RTVSPost2010PropOp39
 70
     1
102
RTVSPost2010Prop40
 90
        0
102
RTVSPost2010PropOp40
 70
     1
102
RTVSPost2010Prop41ColorIndex
 90
       18
102
RTVSPost2010Prop41ColorRGB
 90
        0
102
RTVSPost2010PropOp41
 70
     1
102
RTVSPost2010Prop42
 90
       50
102
RTVSPost2010PropOp42
 70
     1
102
RTVSPost2010Prop43
 90
        3
102
RTVSPost2010PropOp43
 70
     1
102
RTVSPost2010Prop44ColorIndex
 90
        5
102
RTVSPost2010Prop44ColorRGB
 90
      255
102
RTVSPost2010PropOp44
 70
     1
102
RTVSPost2010Prop45
280
     0
102
RTVSPost2010PropOp45
 70
     1
102
RTVSPost2010Prop46
 90
       50
102
RTVSPost2010PropOp46
 70
     1
102
RTVSPost2010Prop47
 90
       50
102
RTVSPost2010PropOp47
 70
     1
102
RTVSPost2010Prop48
 90
       50
102
RTVSPost2010PropOp48
 70
     1
102
RTVSPost2010Prop49
280
     0
102
RTVSPost2010PropOp49
 70
     1
102
RTVSPost2010Prop50
 90
       50
102
RTVSPost2010PropOp50
 70
     1
102
RTVSPost2010Prop51ColorIndex
 90
      256
102
RTVSPost2010Prop51ColorRGB
 90
-16777216
102
RTVSPost2010PropOp51
 70
     0
102
RTVSPost2010Prop52
140
1.0
102
RTVSPost2010PropOp52
 70
     0
102
RTVSPost2010Prop53
 90
        2
102
RTVSPost2010PropOp53
 70
     1
102
RTVSPost2010Prop54
  1
strokes_ogs.tif
102
RTVSPost2010PropOp54
 70
     1
102
RTVSPost2010Prop55
280
     0
102
RTVSPost2010PropOp55
 70
     1
102
RTVSPost2010Prop56
140
1.0
102
RTVSPost2010PropOp56
 70
     1
102
RTVSPost2010Prop57
140
1.0
102
RTVSPost2010PropOp57
 70
     1
  0
XRECORD
  5
19BB
102
{ACAD_REACTORS
330
19BA
102
}
330
19BA
100
AcDbXrecord
280
     1
102
RTVSPost2010Prop28
280
     0
102
RTVSPost2010PropOp28
 70
     1
102
RTVSPost2010Prop29
280
     1
102
RTVSPost2010PropOp29
 70
     1
102
RTVSPost2010Prop30
280
     1
102
RTVSPost2010PropOp30
 70
     1
102
RTVSPost2010Prop31
280
     0
102
RTVSPost2010PropOp31
 70
     1
102
RTVSPost2010Prop32
280
     0
102
RTVSPost2010PropOp32
 70
     1
102
RTVSPost2010Prop33
280
     0
102
RTVSPost2010PropOp33
 70
     1
102
RTVSPost2010Prop34
280
     0
102
RTVSPost2010PropOp34
 70
     1
102
RTVSPost2010Prop35
280
     0
102
RTVSPost2010PropOp35
 70
     1
102
RTVSPost2010Prop36
280
     0
102
RTVSPost2010PropOp36
 70
     1
102
RTVSPost2010Prop37
 90
       50
102
RTVSPost2010PropOp37
 70
     0
102
RTVSPost2010Prop38
140
0.0
102
RTVSPost2010PropOp38
 70
     0
102
RTVSPost2010Prop39
140
1.0
102
RTVSPost2010PropOp39
 70
     0
102
RTVSPost2010Prop40
 90
        0
102
RTVSPost2010PropOp40
 70
     0
102
RTVSPost2010Prop41ColorIndex
 90
       18
102
RTVSPost2010Prop41ColorRGB
 90
        0
102
RTVSPost2010PropOp41
 70
     0
102
RTVSPost2010Prop42
 90
       50
102
RTVSPost2010PropOp42
 70
     0
102
RTVSPost2010Prop43
 90
        3
102
RTVSPost2010PropOp43
 70
     0
102
RTVSPost2010Prop44ColorIndex
 90
        5
102
RTVSPost2010Prop44ColorRGB
 90
      255
102
RTVSPost2010PropOp44
 70
     0
102
RTVSPost2010Prop45
280
     0
102
RTVSPost2010PropOp45
 70
     1
102
RTVSPost2010Prop46
 90
       50
102
RTVSPost2010PropOp46
 70
     0
102
RTVSPost2010Prop47
 90
       50
102
RTVSPost2010PropOp47
 70
     0
102
RTVSPost2010Prop48
 90
       50
102
RTVSPost2010PropOp48
 70
     0
102
RTVSPost2010Prop49
280
     0
102
RTVSPost2010PropOp49
 70
     1
102
RTVSPost2010Prop50
 90
       50
102
RTVSPost2010PropOp50
 70
     0
102
RTVSPost2010Prop51ColorIndex
 90
      256
102
RTVSPost2010Prop51ColorRGB
 90
-16777216
102
RTVSPost2010PropOp51
 70
     0
102
RTVSPost2010Prop52
140
1.0
102
RTVSPost2010PropOp52
 70
     0
102
RTVSPost2010Prop53
 90
        2
102
RTVSPost2010PropOp53
 70
     0
102
RTVSPost2010Prop54
  1
strokes_ogs.tif
102
RTVSPost2010PropOp54
 70
     0
102
RTVSPost2010Prop55
280
     0
102
RTVSPost2010PropOp55
 70
     1
102
RTVSPost2010Prop56
140
1.0
102
RTVSPost2010PropOp56
 70
     0
102
RTVSPost2010Prop57
140
1.0
102
RTVSPost2010PropOp57
 70
     0
  0
XRECORD
  5
19A5
102
{ACAD_REACTORS
330
19A4
102
}
330
19A4
100
AcDbXrecord
280
     1
102
RTVSPost2010Prop28
280
     0
102
RTVSPost2010PropOp28
 70
     1
102
RTVSPost2010Prop29
280
     1
102
RTVSPost2010PropOp29
 70
     1
102
RTVSPost2010Prop30
280
     1
102
RTVSPost2010PropOp30
 70
     1
102
RTVSPost2010Prop31
280
     0
102
RTVSPost2010PropOp31
 70
     1
102
RTVSPost2010Prop32
280
     0
102
RTVSPost2010PropOp32
 70
     1
102
RTVSPost2010Prop33
280
     0
102
RTVSPost2010PropOp33
 70
     1
102
RTVSPost2010Prop34
280
     0
102
RTVSPost2010PropOp34
 70
     1
102
RTVSPost2010Prop35
280
     0
102
RTVSPost2010PropOp35
 70
     1
102
RTVSPost2010Prop36
280
     0
102
RTVSPost2010PropOp36
 70
     1
102
RTVSPost2010Prop37
 90
       50
102
RTVSPost2010PropOp37
 70
     1
102
RTVSPost2010Prop38
140
0.0
102
RTVSPost2010PropOp38
 70
     1
102
RTVSPost2010Prop39
140
1.0
102
RTVSPost2010PropOp39
 70
     1
102
RTVSPost2010Prop40
 90
        0
102
RTVSPost2010PropOp40
 70
     1
102
RTVSPost2010Prop41ColorIndex
 90
       18
102
RTVSPost2010Prop41ColorRGB
 90
        0
102
RTVSPost2010PropOp41
 70
     1
102
RTVSPost2010Prop42
 90
       50
102
RTVSPost2010PropOp42
 70
     1
102
RTVSPost2010Prop43
 90
        3
102
RTVSPost2010PropOp43
 70
     1
102
RTVSPost2010Prop44ColorIndex
 90
        5
102
RTVSPost2010Prop44ColorRGB
 90
      255
102
RTVSPost2010PropOp44
 70
     1
102
RTVSPost2010Prop45
280
     0
102
RTVSPost2010PropOp45
 70
     1
102
RTVSPost2010Prop46
 90
       50
102
RTVSPost2010PropOp46
 70
     1
102
RTVSPost2010Prop47
 90
       50
102
RTVSPost2010PropOp47
 70
     1
102
RTVSPost2010Prop48
 90
       50
102
RTVSPost2010PropOp48
 70
     1
102
RTVSPost2010Prop49
280
     0
102
RTVSPost2010PropOp49
 70
     1
102
RTVSPost2010Prop50
 90
       50
102
RTVSPost2010PropOp50
 70
     1
102
RTVSPost2010Prop51ColorIndex
 90
      256
102
RTVSPost2010Prop51ColorRGB
 90
-16777216
102
RTVSPost2010PropOp51
 70
     0
102
RTVSPost2010Prop52
140
1.0
102
RTVSPost2010PropOp52
 70
     0
102
RTVSPost2010Prop53
 90
        2
102
RTVSPost2010PropOp53
 70
     1
102
RTVSPost2010Prop54
  1
strokes_ogs.tif
102
RTVSPost2010PropOp54
 70
     1
102
RTVSPost2010Prop55
280
     0
102
RTVSPost2010PropOp55
 70
     1
102
RTVSPost2010Prop56
140
1.0
102
RTVSPost2010PropOp56
 70
     1
102
RTVSPost2010Prop57
140
1.0
102
RTVSPost2010PropOp57
 70
     1
  0
XRECORD
  5
1989
102
{ACAD_REACTORS
330
1988
102
}
330
1988
100
AcDbXrecord
280
     1
102
RTVSPost2010Prop28
280
     0
102
RTVSPost2010PropOp28
 70
     1
102
RTVSPost2010Prop29
280
     1
102
RTVSPost2010PropOp29
 70
     1
102
RTVSPost2010Prop30
280
     1
102
RTVSPost2010PropOp30
 70
     1
102
RTVSPost2010Prop31
280
     0
102
RTVSPost2010PropOp31
 70
     1
102
RTVSPost2010Prop32
280
     0
102
RTVSPost2010PropOp32
 70
     1
102
RTVSPost2010Prop33
280
     0
102
RTVSPost2010PropOp33
 70
     1
102
RTVSPost2010Prop34
280
     0
102
RTVSPost2010PropOp34
 70
     1
102
RTVSPost2010Prop35
280
     0
102
RTVSPost2010PropOp35
 70
     1
102
RTVSPost2010Prop36
280
     0
102
RTVSPost2010PropOp36
 70
     1
102
RTVSPost2010Prop37
 90
       50
102
RTVSPost2010PropOp37
 70
     1
102
RTVSPost2010Prop38
140
0.0
102
RTVSPost2010PropOp38
 70
     1
102
RTVSPost2010Prop39
140
1.0
102
RTVSPost2010PropOp39
 70
     1
102
RTVSPost2010Prop40
 90
        0
102
RTVSPost2010PropOp40
 70
     1
102
RTVSPost2010Prop41ColorIndex
 90
       18
102
RTVSPost2010Prop41ColorRGB
 90
        0
102
RTVSPost2010PropOp41
 70
     1
102
RTVSPost2010Prop42
 90
       50
102
RTVSPost2010PropOp42
 70
     1
102
RTVSPost2010Prop43
 90
        3
102
RTVSPost2010PropOp43
 70
     1
102
RTVSPost2010Prop44ColorIndex
 90
        5
102
RTVSPost2010Prop44ColorRGB
 90
      255
102
RTVSPost2010PropOp44
 70
     1
102
RTVSPost2010Prop45
280
     0
102
RTVSPost2010PropOp45
 70
     1
102
RTVSPost2010Prop46
 90
       50
102
RTVSPost2010PropOp46
 70
     1
102
RTVSPost2010Prop47
 90
       50
102
RTVSPost2010PropOp47
 70
     1
102
RTVSPost2010Prop48
 90
       50
102
RTVSPost2010PropOp48
 70
     1
102
RTVSPost2010Prop49
280
     0
102
RTVSPost2010PropOp49
 70
     1
102
RTVSPost2010Prop50
 90
       50
102
RTVSPost2010PropOp50
 70
     1
102
RTVSPost2010Prop51ColorIndex
 90
      256
102
RTVSPost2010Prop51ColorRGB
 90
-16777216
102
RTVSPost2010PropOp51
 70
     0
102
RTVSPost2010Prop52
140
1.0
102
RTVSPost2010PropOp52
 70
     0
102
RTVSPost2010Prop53
 90
        2
102
RTVSPost2010PropOp53
 70
     1
102
RTVSPost2010Prop54
  1
strokes_ogs.tif
102
RTVSPost2010PropOp54
 70
     1
102
RTVSPost2010Prop55
280
     0
102
RTVSPost2010PropOp55
 70
     1
102
RTVSPost2010Prop56
140
1.0
102
RTVSPost2010PropOp56
 70
     1
102
RTVSPost2010Prop57
140
1.0
102
RTVSPost2010PropOp57
 70
     1
  0
XRECORD
  5
198B
102
{ACAD_REACTORS
330
198A
102
}
330
198A
100
AcDbXrecord
280
     1
102
RTVSPost2010Prop28
280
     0
102
RTVSPost2010PropOp28
 70
     1
102
RTVSPost2010Prop29
280
     1
102
RTVSPost2010PropOp29
 70
     1
102
RTVSPost2010Prop30
280
     1
102
RTVSPost2010PropOp30
 70
     1
102
RTVSPost2010Prop31
280
     0
102
RTVSPost2010PropOp31
 70
     1
102
RTVSPost2010Prop32
280
     0
102
RTVSPost2010PropOp32
 70
     1
102
RTVSPost2010Prop33
280
     0
102
RTVSPost2010PropOp33
 70
     1
102
RTVSPost2010Prop34
280
     0
102
RTVSPost2010PropOp34
 70
     1
102
RTVSPost2010Prop35
280
     0
102
RTVSPost2010PropOp35
 70
     1
102
RTVSPost2010Prop36
280
     0
102
RTVSPost2010PropOp36
 70
     1
102
RTVSPost2010Prop37
 90
       50
102
RTVSPost2010PropOp37
 70
     1
102
RTVSPost2010Prop38
140
0.0
102
RTVSPost2010PropOp38
 70
     1
102
RTVSPost2010Prop39
140
1.0
102
RTVSPost2010PropOp39
 70
     1
102
RTVSPost2010Prop40
 90
        0
102
RTVSPost2010PropOp40
 70
     1
102
RTVSPost2010Prop41ColorIndex
 90
       18
102
RTVSPost2010Prop41ColorRGB
 90
        0
102
RTVSPost2010PropOp41
 70
     1
102
RTVSPost2010Prop42
 90
       50
102
RTVSPost2010PropOp42
 70
     1
102
RTVSPost2010Prop43
 90
        3
102
RTVSPost2010PropOp43
 70
     1
102
RTVSPost2010Prop44ColorIndex
 90
        5
102
RTVSPost2010Prop44ColorRGB
 90
      255
102
RTVSPost2010PropOp44
 70
     1
102
RTVSPost2010Prop45
280
     0
102
RTVSPost2010PropOp45
 70
     1
102
RTVSPost2010Prop46
 90
       50
102
RTVSPost2010PropOp46
 70
     1
102
RTVSPost2010Prop47
 90
       50
102
RTVSPost2010PropOp47
 70
     1
102
RTVSPost2010Prop48
 90
       50
102
RTVSPost2010PropOp48
 70
     1
102
RTVSPost2010Prop49
280
     0
102
RTVSPost2010PropOp49
 70
     1
102
RTVSPost2010Prop50
 90
       50
102
RTVSPost2010PropOp50
 70
     1
102
RTVSPost2010Prop51ColorIndex
 90
      256
102
RTVSPost2010Prop51ColorRGB
 90
-16777216
102
RTVSPost2010PropOp51
 70
     0
102
RTVSPost2010Prop52
140
1.0
102
RTVSPost2010PropOp52
 70
     0
102
RTVSPost2010Prop53
 90
        2
102
RTVSPost2010PropOp53
 70
     1
102
RTVSPost2010Prop54
  1
strokes_ogs.tif
102
RTVSPost2010PropOp54
 70
     1
102
RTVSPost2010Prop55
280
     0
102
RTVSPost2010PropOp55
 70
     1
102
RTVSPost2010Prop56
140
1.0
102
RTVSPost2010PropOp56
 70
     1
102
RTVSPost2010Prop57
140
1.0
102
RTVSPost2010PropOp57
 70
     1
  0
XRECORD
  5
198D
102
{ACAD_REACTORS
330
198C
102
}
330
198C
100
AcDbXrecord
280
     1
102
RTVSPost2010Prop28
280
     0
102
RTVSPost2010PropOp28
 70
     1
102
RTVSPost2010Prop29
280
     1
102
RTVSPost2010PropOp29
 70
     1
102
RTVSPost2010Prop30
280
     1
102
RTVSPost2010PropOp30
 70
     1
102
RTVSPost2010Prop31
280
     0
102
RTVSPost2010PropOp31
 70
     1
102
RTVSPost2010Prop32
280
     0
102
RTVSPost2010PropOp32
 70
     1
102
RTVSPost2010Prop33
280
     0
102
RTVSPost2010PropOp33
 70
     1
102
RTVSPost2010Prop34
280
     0
102
RTVSPost2010PropOp34
 70
     1
102
RTVSPost2010Prop35
280
     0
102
RTVSPost2010PropOp35
 70
     1
102
RTVSPost2010Prop36
280
     0
102
RTVSPost2010PropOp36
 70
     1
102
RTVSPost2010Prop37
 90
       50
102
RTVSPost2010PropOp37
 70
     1
102
RTVSPost2010Prop38
140
0.0
102
RTVSPost2010PropOp38
 70
     1
102
RTVSPost2010Prop39
140
1.0
102
RTVSPost2010PropOp39
 70
     1
102
RTVSPost2010Prop40
 90
        0
102
RTVSPost2010PropOp40
 70
     1
102
RTVSPost2010Prop41ColorIndex
 90
       18
102
RTVSPost2010Prop41ColorRGB
 90
        0
102
RTVSPost2010PropOp41
 70
     1
102
RTVSPost2010Prop42
 90
       50
102
RTVSPost2010PropOp42
 70
     1
102
RTVSPost2010Prop43
 90
        3
102
RTVSPost2010PropOp43
 70
     1
102
RTVSPost2010Prop44ColorIndex
 90
        5
102
RTVSPost2010Prop44ColorRGB
 90
      255
102
RTVSPost2010PropOp44
 70
     1
102
RTVSPost2010Prop45
280
     0
102
RTVSPost2010PropOp45
 70
     1
102
RTVSPost2010Prop46
 90
       50
102
RTVSPost2010PropOp46
 70
     1
102
RTVSPost2010Prop47
 90
       50
102
RTVSPost2010PropOp47
 70
     1
102
RTVSPost2010Prop48
 90
       50
102
RTVSPost2010PropOp48
 70
     1
102
RTVSPost2010Prop49
280
     0
102
RTVSPost2010PropOp49
 70
     1
102
RTVSPost2010Prop50
 90
       50
102
RTVSPost2010PropOp50
 70
     1
102
RTVSPost2010Prop51ColorIndex
 90
      256
102
RTVSPost2010Prop51ColorRGB
 90
-16777216
102
RTVSPost2010PropOp51
 70
     0
102
RTVSPost2010Prop52
140
1.0
102
RTVSPost2010PropOp52
 70
     0
102
RTVSPost2010Prop53
 90
        2
102
RTVSPost2010PropOp53
 70
     1
102
RTVSPost2010Prop54
  1
strokes_ogs.tif
102
RTVSPost2010PropOp54
 70
     1
102
RTVSPost2010Prop55
280
     0
102
RTVSPost2010PropOp55
 70
     1
102
RTVSPost2010Prop56
140
1.0
102
RTVSPost2010PropOp56
 70
     1
102
RTVSPost2010Prop57
140
1.0
102
RTVSPost2010PropOp57
 70
     1
  0
XRECORD
  5
198F
102
{ACAD_REACTORS
330
198E
102
}
330
198E
100
AcDbXrecord
280
     1
102
RTVSPost2010Prop28
280
     0
102
RTVSPost2010PropOp28
 70
     1
102
RTVSPost2010Prop29
280
     1
102
RTVSPost2010PropOp29
 70
     1
102
RTVSPost2010Prop30
280
     1
102
RTVSPost2010PropOp30
 70
     1
102
RTVSPost2010Prop31
280
     0
102
RTVSPost2010PropOp31
 70
     1
102
RTVSPost2010Prop32
280
     0
102
RTVSPost2010PropOp32
 70
     1
102
RTVSPost2010Prop33
280
     0
102
RTVSPost2010PropOp33
 70
     1
102
RTVSPost2010Prop34
280
     0
102
RTVSPost2010PropOp34
 70
     1
102
RTVSPost2010Prop35
280
     0
102
RTVSPost2010PropOp35
 70
     1
102
RTVSPost2010Prop36
280
     0
102
RTVSPost2010PropOp36
 70
     1
102
RTVSPost2010Prop37
 90
       50
102
RTVSPost2010PropOp37
 70
     1
102
RTVSPost2010Prop38
140
0.0
102
RTVSPost2010PropOp38
 70
     1
102
RTVSPost2010Prop39
140
1.0
102
RTVSPost2010PropOp39
 70
     1
102
RTVSPost2010Prop40
 90
        0
102
RTVSPost2010PropOp40
 70
     1
102
RTVSPost2010Prop41ColorIndex
 90
       18
102
RTVSPost2010Prop41ColorRGB
 90
        0
102
RTVSPost2010PropOp41
 70
     1
102
RTVSPost2010Prop42
 90
       50
102
RTVSPost2010PropOp42
 70
     1
102
RTVSPost2010Prop43
 90
        3
102
RTVSPost2010PropOp43
 70
     1
102
RTVSPost2010Prop44ColorIndex
 90
        5
102
RTVSPost2010Prop44ColorRGB
 90
      255
102
RTVSPost2010PropOp44
 70
     1
102
RTVSPost2010Prop45
280
     0
102
RTVSPost2010PropOp45
 70
     1
102
RTVSPost2010Prop46
 90
       50
102
RTVSPost2010PropOp46
 70
     1
102
RTVSPost2010Prop47
 90
       50
102
RTVSPost2010PropOp47
 70
     1
102
RTVSPost2010Prop48
 90
       50
102
RTVSPost2010PropOp48
 70
     1
102
RTVSPost2010Prop49
280
     0
102
RTVSPost2010PropOp49
 70
     1
102
RTVSPost2010Prop50
 90
       50
102
RTVSPost2010PropOp50
 70
     1
102
RTVSPost2010Prop51ColorIndex
 90
      256
102
RTVSPost2010Prop51ColorRGB
 90
-16777216
102
RTVSPost2010PropOp51
 70
     0
102
RTVSPost2010Prop52
140
1.0
102
RTVSPost2010PropOp52
 70
     0
102
RTVSPost2010Prop53
 90
        2
102
RTVSPost2010PropOp53
 70
     1
102
RTVSPost2010Prop54
  1
strokes_ogs.tif
102
RTVSPost2010PropOp54
 70
     1
102
RTVSPost2010Prop55
280
     0
102
RTVSPost2010PropOp55
 70
     1
102
RTVSPost2010Prop56
140
1.0
102
RTVSPost2010PropOp56
 70
     1
102
RTVSPost2010Prop57
140
1.0
102
RTVSPost2010PropOp57
 70
     1
  0
XRECORD
  5
19AB
102
{ACAD_REACTORS
330
19AA
102
}
330
19AA
100
AcDbXrecord
280
     1
102
RTVSPost2010Prop28
280
     0
102
RTVSPost2010PropOp28
 70
     1
102
RTVSPost2010Prop29
280
     1
102
RTVSPost2010PropOp29
 70
     1
102
RTVSPost2010Prop30
280
     1
102
RTVSPost2010PropOp30
 70
     1
102
RTVSPost2010Prop31
280
     0
102
RTVSPost2010PropOp31
 70
     1
102
RTVSPost2010Prop32
280
     0
102
RTVSPost2010PropOp32
 70
     1
102
RTVSPost2010Prop33
280
     0
102
RTVSPost2010PropOp33
 70
     1
102
RTVSPost2010Prop34
280
     0
102
RTVSPost2010PropOp34
 70
     1
102
RTVSPost2010Prop35
280
     0
102
RTVSPost2010PropOp35
 70
     1
102
RTVSPost2010Prop36
280
     0
102
RTVSPost2010PropOp36
 70
     1
102
RTVSPost2010Prop37
 90
       50
102
RTVSPost2010PropOp37
 70
     1
102
RTVSPost2010Prop38
140
0.0
102
RTVSPost2010PropOp38
 70
     1
102
RTVSPost2010Prop39
140
1.0
102
RTVSPost2010PropOp39
 70
     1
102
RTVSPost2010Prop40
 90
        0
102
RTVSPost2010PropOp40
 70
     1
102
RTVSPost2010Prop41ColorIndex
 90
       18
102
RTVSPost2010Prop41ColorRGB
 90
        0
102
RTVSPost2010PropOp41
 70
     1
102
RTVSPost2010Prop42
 90
       50
102
RTVSPost2010PropOp42
 70
     1
102
RTVSPost2010Prop43
 90
        3
102
RTVSPost2010PropOp43
 70
     1
102
RTVSPost2010Prop44ColorIndex
 90
        5
102
RTVSPost2010Prop44ColorRGB
 90
      255
102
RTVSPost2010PropOp44
 70
     1
102
RTVSPost2010Prop45
280
     0
102
RTVSPost2010PropOp45
 70
     1
102
RTVSPost2010Prop46
 90
       50
102
RTVSPost2010PropOp46
 70
     1
102
RTVSPost2010Prop47
 90
       50
102
RTVSPost2010PropOp47
 70
     1
102
RTVSPost2010Prop48
 90
       50
102
RTVSPost2010PropOp48
 70
     1
102
RTVSPost2010Prop49
280
     0
102
RTVSPost2010PropOp49
 70
     1
102
RTVSPost2010Prop50
 90
       50
102
RTVSPost2010PropOp50
 70
     1
102
RTVSPost2010Prop51ColorIndex
 90
      256
102
RTVSPost2010Prop51ColorRGB
 90
-16777216
102
RTVSPost2010PropOp51
 70
     0
102
RTVSPost2010Prop52
140
1.0
102
RTVSPost2010PropOp52
 70
     0
102
RTVSPost2010Prop53
 90
        2
102
RTVSPost2010PropOp53
 70
     1
102
RTVSPost2010Prop54
  1
strokes_ogs.tif
102
RTVSPost2010PropOp54
 70
     1
102
RTVSPost2010Prop55
280
     0
102
RTVSPost2010PropOp55
 70
     1
102
RTVSPost2010Prop56
140
1.0
102
RTVSPost2010PropOp56
 70
     1
102
RTVSPost2010Prop57
140
1.0
102
RTVSPost2010PropOp57
 70
     1
  0
XRECORD
  5
19B7
102
{ACAD_REACTORS
330
19B6
102
}
330
19B6
100
AcDbXrecord
280
     1
102
RTVSPost2010Prop28
280
     0
102
RTVSPost2010PropOp28
 70
     1
102
RTVSPost2010Prop29
280
     1
102
RTVSPost2010PropOp29
 70
     1
102
RTVSPost2010Prop30
280
     1
102
RTVSPost2010PropOp30
 70
     1
102
RTVSPost2010Prop31
280
     0
102
RTVSPost2010PropOp31
 70
     1
102
RTVSPost2010Prop32
280
     0
102
RTVSPost2010PropOp32
 70
     1
102
RTVSPost2010Prop33
280
     0
102
RTVSPost2010PropOp33
 70
     1
102
RTVSPost2010Prop34
280
     0
102
RTVSPost2010PropOp34
 70
     1
102
RTVSPost2010Prop35
280
     0
102
RTVSPost2010PropOp35
 70
     1
102
RTVSPost2010Prop36
280
     0
102
RTVSPost2010PropOp36
 70
     1
102
RTVSPost2010Prop37
 90
       50
102
RTVSPost2010PropOp37
 70
     0
102
RTVSPost2010Prop38
140
0.0
102
RTVSPost2010PropOp38
 70
     0
102
RTVSPost2010Prop39
140
1.0
102
RTVSPost2010PropOp39
 70
     0
102
RTVSPost2010Prop40
 90
        0
102
RTVSPost2010PropOp40
 70
     0
102
RTVSPost2010Prop41ColorIndex
 90
       18
102
RTVSPost2010Prop41ColorRGB
 90
        0
102
RTVSPost2010PropOp41
 70
     0
102
RTVSPost2010Prop42
 90
       50
102
RTVSPost2010PropOp42
 70
     0
102
RTVSPost2010Prop43
 90
        3
102
RTVSPost2010PropOp43
 70
     0
102
RTVSPost2010Prop44ColorIndex
 90
        5
102
RTVSPost2010Prop44ColorRGB
 90
      255
102
RTVSPost2010PropOp44
 70
     0
102
RTVSPost2010Prop45
280
     0
102
RTVSPost2010PropOp45
 70
     1
102
RTVSPost2010Prop46
 90
       50
102
RTVSPost2010PropOp46
 70
     0
102
RTVSPost2010Prop47
 90
       50
102
RTVSPost2010PropOp47
 70
     0
102
RTVSPost2010Prop48
 90
       50
102
RTVSPost2010PropOp48
 70
     0
102
RTVSPost2010Prop49
280
     0
102
RTVSPost2010PropOp49
 70
     1
102
RTVSPost2010Prop50
 90
       50
102
RTVSPost2010PropOp50
 70
     0
102
RTVSPost2010Prop51ColorIndex
 90
      256
102
RTVSPost2010Prop51ColorRGB
 90
-16777216
102
RTVSPost2010PropOp51
 70
     0
102
RTVSPost2010Prop52
140
1.0
102
RTVSPost2010PropOp52
 70
     0
102
RTVSPost2010Prop53
 90
        2
102
RTVSPost2010PropOp53
 70
     0
102
RTVSPost2010Prop54
  1
strokes_ogs.tif
102
RTVSPost2010PropOp54
 70
     0
102
RTVSPost2010Prop55
280
     0
102
RTVSPost2010PropOp55
 70
     1
102
RTVSPost2010Prop56
140
1.0
102
RTVSPost2010PropOp56
 70
     0
102
RTVSPost2010Prop57
140
1.0
102
RTVSPost2010PropOp57
 70
     0
  0
XRECORD
  5
19A3
102
{ACAD_REACTORS
330
19A2
102
}
330
19A2
100
AcDbXrecord
280
     1
102
RTVSPost2010Prop28
280
     0
102
RTVSPost2010PropOp28
 70
     1
102
RTVSPost2010Prop29
280
     1
102
RTVSPost2010PropOp29
 70
     1
102
RTVSPost2010Prop30
280
     1
102
RTVSPost2010PropOp30
 70
     1
102
RTVSPost2010Prop31
280
     0
102
RTVSPost2010PropOp31
 70
     1
102
RTVSPost2010Prop32
280
     0
102
RTVSPost2010PropOp32
 70
     1
102
RTVSPost2010Prop33
280
     0
102
RTVSPost2010PropOp33
 70
     1
102
RTVSPost2010Prop34
280
     0
102
RTVSPost2010PropOp34
 70
     1
102
RTVSPost2010Prop35
280
     0
102
RTVSPost2010PropOp35
 70
     1
102
RTVSPost2010Prop36
280
     0
102
RTVSPost2010PropOp36
 70
     1
102
RTVSPost2010Prop37
 90
       50
102
RTVSPost2010PropOp37
 70
     1
102
RTVSPost2010Prop38
140
0.0
102
RTVSPost2010PropOp38
 70
     1
102
RTVSPost2010Prop39
140
1.0
102
RTVSPost2010PropOp39
 70
     1
102
RTVSPost2010Prop40
 90
        0
102
RTVSPost2010PropOp40
 70
     1
102
RTVSPost2010Prop41ColorIndex
 90
       18
102
RTVSPost2010Prop41ColorRGB
 90
        0
102
RTVSPost2010PropOp41
 70
     1
102
RTVSPost2010Prop42
 90
       50
102
RTVSPost2010PropOp42
 70
     1
102
RTVSPost2010Prop43
 90
        3
102
RTVSPost2010PropOp43
 70
     1
102
RTVSPost2010Prop44ColorIndex
 90
        5
102
RTVSPost2010Prop44ColorRGB
 90
      255
102
RTVSPost2010PropOp44
 70
     1
102
RTVSPost2010Prop45
280
     0
102
RTVSPost2010PropOp45
 70
     1
102
RTVSPost2010Prop46
 90
       50
102
RTVSPost2010PropOp46
 70
     1
102
RTVSPost2010Prop47
 90
       50
102
RTVSPost2010PropOp47
 70
     1
102
RTVSPost2010Prop48
 90
       50
102
RTVSPost2010PropOp48
 70
     1
102
RTVSPost2010Prop49
280
     0
102
RTVSPost2010PropOp49
 70
     1
102
RTVSPost2010Prop50
 90
       50
102
RTVSPost2010PropOp50
 70
     1
102
RTVSPost2010Prop51ColorIndex
 90
      256
102
RTVSPost2010Prop51ColorRGB
 90
-16777216
102
RTVSPost2010PropOp51
 70
     0
102
RTVSPost2010Prop52
140
1.0
102
RTVSPost2010PropOp52
 70
     0
102
RTVSPost2010Prop53
 90
        2
102
RTVSPost2010PropOp53
 70
     1
102
RTVSPost2010Prop54
  1
strokes_ogs.tif
102
RTVSPost2010PropOp54
 70
     1
102
RTVSPost2010Prop55
280
     0
102
RTVSPost2010PropOp55
 70
     1
102
RTVSPost2010Prop56
140
1.0
102
RTVSPost2010PropOp56
 70
     1
102
RTVSPost2010Prop57
140
1.0
102
RTVSPost2010PropOp57
 70
     1
  0
XRECORD
  5
19B9
102
{ACAD_REACTORS
330
19B8
102
}
330
19B8
100
AcDbXrecord
280
     1
102
RTVSPost2010Prop28
280
     0
102
RTVSPost2010PropOp28
 70
     1
102
RTVSPost2010Prop29
280
     1
102
RTVSPost2010PropOp29
 70
     1
102
RTVSPost2010Prop30
280
     1
102
RTVSPost2010PropOp30
 70
     1
102
RTVSPost2010Prop31
280
     0
102
RTVSPost2010PropOp31
 70
     1
102
RTVSPost2010Prop32
280
     0
102
RTVSPost2010PropOp32
 70
     1
102
RTVSPost2010Prop33
280
     0
102
RTVSPost2010PropOp33
 70
     1
102
RTVSPost2010Prop34
280
     0
102
RTVSPost2010PropOp34
 70
     1
102
RTVSPost2010Prop35
280
     0
102
RTVSPost2010PropOp35
 70
     1
102
RTVSPost2010Prop36
280
     0
102
RTVSPost2010PropOp36
 70
     1
102
RTVSPost2010Prop37
 90
       50
102
RTVSPost2010PropOp37
 70
     0
102
RTVSPost2010Prop38
140
0.0
102
RTVSPost2010PropOp38
 70
     0
102
RTVSPost2010Prop39
140
1.0
102
RTVSPost2010PropOp39
 70
     0
102
RTVSPost2010Prop40
 90
        0
102
RTVSPost2010PropOp40
 70
     0
102
RTVSPost2010Prop41ColorIndex
 90
       18
102
RTVSPost2010Prop41ColorRGB
 90
        0
102
RTVSPost2010PropOp41
 70
     0
102
RTVSPost2010Prop42
 90
       50
102
RTVSPost2010PropOp42
 70
     0
102
RTVSPost2010Prop43
 90
        3
102
RTVSPost2010PropOp43
 70
     0
102
RTVSPost2010Prop44ColorIndex
 90
        5
102
RTVSPost2010Prop44ColorRGB
 90
      255
102
RTVSPost2010PropOp44
 70
     0
102
RTVSPost2010Prop45
280
     0
102
RTVSPost2010PropOp45
 70
     1
102
RTVSPost2010Prop46
 90
       50
102
RTVSPost2010PropOp46
 70
     0
102
RTVSPost2010Prop47
 90
       50
102
RTVSPost2010PropOp47
 70
     0
102
RTVSPost2010Prop48
 90
       50
102
RTVSPost2010PropOp48
 70
     0
102
RTVSPost2010Prop49
280
     0
102
RTVSPost2010PropOp49
 70
     1
102
RTVSPost2010Prop50
 90
       50
102
RTVSPost2010PropOp50
 70
     0
102
RTVSPost2010Prop51ColorIndex
 90
      256
102
RTVSPost2010Prop51ColorRGB
 90
-16777216
102
RTVSPost2010PropOp51
 70
     0
102
RTVSPost2010Prop52
140
1.0
102
RTVSPost2010PropOp52
 70
     0
102
RTVSPost2010Prop53
 90
        2
102
RTVSPost2010PropOp53
 70
     0
102
RTVSPost2010Prop54
  1
strokes_ogs.tif
102
RTVSPost2010PropOp54
 70
     0
102
RTVSPost2010Prop55
280
     0
102
RTVSPost2010PropOp55
 70
     1
102
RTVSPost2010Prop56
140
1.0
102
RTVSPost2010PropOp56
 70
     0
102
RTVSPost2010Prop57
140
1.0
102
RTVSPost2010PropOp57
 70
     0
  0
XRECORD
  5
199B
102
{ACAD_REACTORS
330
199A
102
}
330
199A
100
AcDbXrecord
280
     1
102
RTVSPost2010Prop28
280
     0
102
RTVSPost2010PropOp28
 70
     1
102
RTVSPost2010Prop29
280
     1
102
RTVSPost2010PropOp29
 70
     1
102
RTVSPost2010Prop30
280
     1
102
RTVSPost2010PropOp30
 70
     1
102
RTVSPost2010Prop31
280
     0
102
RTVSPost2010PropOp31
 70
     1
102
RTVSPost2010Prop32
280
     0
102
RTVSPost2010PropOp32
 70
     1
102
RTVSPost2010Prop33
280
     0
102
RTVSPost2010PropOp33
 70
     1
102
RTVSPost2010Prop34
280
     0
102
RTVSPost2010PropOp34
 70
     1
102
RTVSPost2010Prop35
280
     0
102
RTVSPost2010PropOp35
 70
     1
102
RTVSPost2010Prop36
280
     0
102
RTVSPost2010PropOp36
 70
     1
102
RTVSPost2010Prop37
 90
       50
102
RTVSPost2010PropOp37
 70
     1
102
RTVSPost2010Prop38
140
0.0
102
RTVSPost2010PropOp38
 70
     1
102
RTVSPost2010Prop39
140
1.0
102
RTVSPost2010PropOp39
 70
     1
102
RTVSPost2010Prop40
 90
        0
102
RTVSPost2010PropOp40
 70
     1
102
RTVSPost2010Prop41ColorIndex
 90
       18
102
RTVSPost2010Prop41ColorRGB
 90
        0
102
RTVSPost2010PropOp41
 70
     1
102
RTVSPost2010Prop42
 90
       50
102
RTVSPost2010PropOp42
 70
     1
102
RTVSPost2010Prop43
 90
        3
102
RTVSPost2010PropOp43
 70
     1
102
RTVSPost2010Prop44ColorIndex
 90
        5
102
RTVSPost2010Prop44ColorRGB
 90
      255
102
RTVSPost2010PropOp44
 70
     1
102
RTVSPost2010Prop45
280
     0
102
RTVSPost2010PropOp45
 70
     1
102
RTVSPost2010Prop46
 90
       50
102
RTVSPost2010PropOp46
 70
     1
102
RTVSPost2010Prop47
 90
       50
102
RTVSPost2010PropOp47
 70
     1
102
RTVSPost2010Prop48
 90
       50
102
RTVSPost2010PropOp48
 70
     1
102
RTVSPost2010Prop49
280
     0
102
RTVSPost2010PropOp49
 70
     1
102
RTVSPost2010Prop50
 90
       50
102
RTVSPost2010PropOp50
 70
     1
102
RTVSPost2010Prop51ColorIndex
 90
      256
102
RTVSPost2010Prop51ColorRGB
 90
-16777216
102
RTVSPost2010PropOp51
 70
     0
102
RTVSPost2010Prop52
140
1.0
102
RTVSPost2010PropOp52
 70
     0
102
RTVSPost2010Prop53
 90
        2
102
RTVSPost2010PropOp53
 70
     1
102
RTVSPost2010Prop54
  1
strokes_ogs.tif
102
RTVSPost2010PropOp54
 70
     1
102
RTVSPost2010Prop55
280
     0
102
RTVSPost2010PropOp55
 70
     1
102
RTVSPost2010Prop56
140
1.0
102
RTVSPost2010PropOp56
 70
     1
102
RTVSPost2010Prop57
140
1.0
102
RTVSPost2010PropOp57
 70
     1
  0
XRECORD
  5
19B5
102
{ACAD_REACTORS
330
19B4
102
}
330
19B4
100
AcDbXrecord
280
     1
102
RTVSPost2010Prop28
280
     0
102
RTVSPost2010PropOp28
 70
     1
102
RTVSPost2010Prop29
280
     1
102
RTVSPost2010PropOp29
 70
     1
102
RTVSPost2010Prop30
280
     1
102
RTVSPost2010PropOp30
 70
     1
102
RTVSPost2010Prop31
280
     0
102
RTVSPost2010PropOp31
 70
     1
102
RTVSPost2010Prop32
280
     0
102
RTVSPost2010PropOp32
 70
     1
102
RTVSPost2010Prop33
280
     0
102
RTVSPost2010PropOp33
 70
     1
102
RTVSPost2010Prop34
280
     0
102
RTVSPost2010PropOp34
 70
     1
102
RTVSPost2010Prop35
280
     0
102
RTVSPost2010PropOp35
 70
     1
102
RTVSPost2010Prop36
280
     0
102
RTVSPost2010PropOp36
 70
     1
102
RTVSPost2010Prop37
 90
       50
102
RTVSPost2010PropOp37
 70
     1
102
RTVSPost2010Prop38
140
0.0
102
RTVSPost2010PropOp38
 70
     1
102
RTVSPost2010Prop39
140
1.0
102
RTVSPost2010PropOp39
 70
     1
102
RTVSPost2010Prop40
 90
        0
102
RTVSPost2010PropOp40
 70
     1
102
RTVSPost2010Prop41ColorIndex
 90
       18
102
RTVSPost2010Prop41ColorRGB
 90
        0
102
RTVSPost2010PropOp41
 70
     1
102
RTVSPost2010Prop42
 90
       50
102
RTVSPost2010PropOp42
 70
     1
102
RTVSPost2010Prop43
 90
        3
102
RTVSPost2010PropOp43
 70
     1
102
RTVSPost2010Prop44ColorIndex
 90
        5
102
RTVSPost2010Prop44ColorRGB
 90
      255
102
RTVSPost2010PropOp44
 70
     1
102
RTVSPost2010Prop45
280
     0
102
RTVSPost2010PropOp45
 70
     1
102
RTVSPost2010Prop46
 90
       50
102
RTVSPost2010PropOp46
 70
     1
102
RTVSPost2010Prop47
 90
       50
102
RTVSPost2010PropOp47
 70
     1
102
RTVSPost2010Prop48
 90
       50
102
RTVSPost2010PropOp48
 70
     1
102
RTVSPost2010Prop49
280
     0
102
RTVSPost2010PropOp49
 70
     1
102
RTVSPost2010Prop50
 90
       50
102
RTVSPost2010PropOp50
 70
     1
102
RTVSPost2010Prop51ColorIndex
 90
      256
102
RTVSPost2010Prop51ColorRGB
 90
-16777216
102
RTVSPost2010PropOp51
 70
     0
102
RTVSPost2010Prop52
140
1.0
102
RTVSPost2010PropOp52
 70
     0
102
RTVSPost2010Prop53
 90
        2
102
RTVSPost2010PropOp53
 70
     1
102
RTVSPost2010Prop54
  1
strokes_ogs.tif
102
RTVSPost2010PropOp54
 70
     1
102
RTVSPost2010Prop55
280
     0
102
RTVSPost2010PropOp55
 70
     1
102
RTVSPost2010Prop56
140
1.0
102
RTVSPost2010PropOp56
 70
     1
102
RTVSPost2010Prop57
140
1.0
102
RTVSPost2010PropOp57
 70
     1
  0
XRECORD
  5
19B3
102
{ACAD_REACTORS
330
19B2
102
}
330
19B2
100
AcDbXrecord
280
     1
102
RTVSPost2010Prop28
280
     0
102
RTVSPost2010PropOp28
 70
     1
102
RTVSPost2010Prop29
280
     1
102
RTVSPost2010PropOp29
 70
     1
102
RTVSPost2010Prop30
280
     1
102
RTVSPost2010PropOp30
 70
     1
102
RTVSPost2010Prop31
280
     0
102
RTVSPost2010PropOp31
 70
     1
102
RTVSPost2010Prop32
280
     0
102
RTVSPost2010PropOp32
 70
     1
102
RTVSPost2010Prop33
280
     0
102
RTVSPost2010PropOp33
 70
     1
102
RTVSPost2010Prop34
280
     0
102
RTVSPost2010PropOp34
 70
     1
102
RTVSPost2010Prop35
280
     0
102
RTVSPost2010PropOp35
 70
     1
102
RTVSPost2010Prop36
280
     0
102
RTVSPost2010PropOp36
 70
     1
102
RTVSPost2010Prop37
 90
       50
102
RTVSPost2010PropOp37
 70
     1
102
RTVSPost2010Prop38
140
0.0
102
RTVSPost2010PropOp38
 70
     1
102
RTVSPost2010Prop39
140
1.0
102
RTVSPost2010PropOp39
 70
     1
102
RTVSPost2010Prop40
 90
        0
102
RTVSPost2010PropOp40
 70
     1
102
RTVSPost2010Prop41ColorIndex
 90
       18
102
RTVSPost2010Prop41ColorRGB
 90
        0
102
RTVSPost2010PropOp41
 70
     1
102
RTVSPost2010Prop42
 90
       50
102
RTVSPost2010PropOp42
 70
     1
102
RTVSPost2010Prop43
 90
        3
102
RTVSPost2010PropOp43
 70
     1
102
RTVSPost2010Prop44ColorIndex
 90
        5
102
RTVSPost2010Prop44ColorRGB
 90
      255
102
RTVSPost2010PropOp44
 70
     1
102
RTVSPost2010Prop45
280
     0
102
RTVSPost2010PropOp45
 70
     1
102
RTVSPost2010Prop46
 90
       50
102
RTVSPost2010PropOp46
 70
     1
102
RTVSPost2010Prop47
 90
       50
102
RTVSPost2010PropOp47
 70
     1
102
RTVSPost2010Prop48
 90
       50
102
RTVSPost2010PropOp48
 70
     1
102
RTVSPost2010Prop49
280
     0
102
RTVSPost2010PropOp49
 70
     1
102
RTVSPost2010Prop50
 90
       50
102
RTVSPost2010PropOp50
 70
     1
102
RTVSPost2010Prop51ColorIndex
 90
      256
102
RTVSPost2010Prop51ColorRGB
 90
-16777216
102
RTVSPost2010PropOp51
 70
     0
102
RTVSPost2010Prop52
140
1.0
102
RTVSPost2010PropOp52
 70
     0
102
RTVSPost2010Prop53
 90
        2
102
RTVSPost2010PropOp53
 70
     1
102
RTVSPost2010Prop54
  1
strokes_ogs.tif
102
RTVSPost2010PropOp54
 70
     1
102
RTVSPost2010Prop55
280
     0
102
RTVSPost2010PropOp55
 70
     1
102
RTVSPost2010Prop56
140
1.0
102
RTVSPost2010PropOp56
 70
     1
102
RTVSPost2010Prop57
140
1.0
102
RTVSPost2010PropOp57
 70
     1
  0
XRECORD
  5
19AD
102
{ACAD_REACTORS
330
19AC
102
}
330
19AC
100
AcDbXrecord
280
     1
102
RTVSPost2010Prop28
280
     0
102
RTVSPost2010PropOp28
 70
     1
102
RTVSPost2010Prop29
280
     1
102
RTVSPost2010PropOp29
 70
     1
102
RTVSPost2010Prop30
280
     1
102
RTVSPost2010PropOp30
 70
     1
102
RTVSPost2010Prop31
280
     0
102
RTVSPost2010PropOp31
 70
     1
102
RTVSPost2010Prop32
280
     0
102
RTVSPost2010PropOp32
 70
     1
102
RTVSPost2010Prop33
280
     0
102
RTVSPost2010PropOp33
 70
     1
102
RTVSPost2010Prop34
280
     0
102
RTVSPost2010PropOp34
 70
     1
102
RTVSPost2010Prop35
280
     0
102
RTVSPost2010PropOp35
 70
     1
102
RTVSPost2010Prop36
280
     0
102
RTVSPost2010PropOp36
 70
     1
102
RTVSPost2010Prop37
 90
       50
102
RTVSPost2010PropOp37
 70
     1
102
RTVSPost2010Prop38
140
0.0
102
RTVSPost2010PropOp38
 70
     1
102
RTVSPost2010Prop39
140
1.0
102
RTVSPost2010PropOp39
 70
     1
102
RTVSPost2010Prop40
 90
        0
102
RTVSPost2010PropOp40
 70
     1
102
RTVSPost2010Prop41ColorIndex
 90
       18
102
RTVSPost2010Prop41ColorRGB
 90
        0
102
RTVSPost2010PropOp41
 70
     1
102
RTVSPost2010Prop42
 90
       50
102
RTVSPost2010PropOp42
 70
     1
102
RTVSPost2010Prop43
 90
        3
102
RTVSPost2010PropOp43
 70
     1
102
RTVSPost2010Prop44ColorIndex
 90
        5
102
RTVSPost2010Prop44ColorRGB
 90
      255
102
RTVSPost2010PropOp44
 70
     1
102
RTVSPost2010Prop45
280
     0
102
RTVSPost2010PropOp45
 70
     1
102
RTVSPost2010Prop46
 90
       50
102
RTVSPost2010PropOp46
 70
     1
102
RTVSPost2010Prop47
 90
       50
102
RTVSPost2010PropOp47
 70
     1
102
RTVSPost2010Prop48
 90
       50
102
RTVSPost2010PropOp48
 70
     1
102
RTVSPost2010Prop49
280
     0
102
RTVSPost2010PropOp49
 70
     1
102
RTVSPost2010Prop50
 90
       50
102
RTVSPost2010PropOp50
 70
     1
102
RTVSPost2010Prop51ColorIndex
 90
      256
102
RTVSPost2010Prop51ColorRGB
 90
-16777216
102
RTVSPost2010PropOp51
 70
     0
102
RTVSPost2010Prop52
140
1.0
102
RTVSPost2010PropOp52
 70
     0
102
RTVSPost2010Prop53
 90
        2
102
RTVSPost2010PropOp53
 70
     1
102
RTVSPost2010Prop54
  1
strokes_ogs.tif
102
RTVSPost2010PropOp54
 70
     1
102
RTVSPost2010Prop55
280
     0
102
RTVSPost2010PropOp55
 70
     1
102
RTVSPost2010Prop56
140
1.0
102
RTVSPost2010PropOp56
 70
     1
102
RTVSPost2010Prop57
140
1.0
102
RTVSPost2010PropOp57
 70
     1
  0
XRECORD
  5
19AF
102
{ACAD_REACTORS
330
19AE
102
}
330
19AE
100
AcDbXrecord
280
     1
102
RTVSPost2010Prop28
280
     0
102
RTVSPost2010PropOp28
 70
     1
102
RTVSPost2010Prop29
280
     1
102
RTVSPost2010PropOp29
 70
     1
102
RTVSPost2010Prop30
280
     1
102
RTVSPost2010PropOp30
 70
     1
102
RTVSPost2010Prop31
280
     0
102
RTVSPost2010PropOp31
 70
     1
102
RTVSPost2010Prop32
280
     0
102
RTVSPost2010PropOp32
 70
     1
102
RTVSPost2010Prop33
280
     0
102
RTVSPost2010PropOp33
 70
     1
102
RTVSPost2010Prop34
280
     0
102
RTVSPost2010PropOp34
 70
     1
102
RTVSPost2010Prop35
280
     0
102
RTVSPost2010PropOp35
 70
     1
102
RTVSPost2010Prop36
280
     0
102
RTVSPost2010PropOp36
 70
     1
102
RTVSPost2010Prop37
 90
       50
102
RTVSPost2010PropOp37
 70
     1
102
RTVSPost2010Prop38
140
0.0
102
RTVSPost2010PropOp38
 70
     1
102
RTVSPost2010Prop39
140
1.0
102
RTVSPost2010PropOp39
 70
     1
102
RTVSPost2010Prop40
 90
        0
102
RTVSPost2010PropOp40
 70
     1
102
RTVSPost2010Prop41ColorIndex
 90
       18
102
RTVSPost2010Prop41ColorRGB
 90
        0
102
RTVSPost2010PropOp41
 70
     1
102
RTVSPost2010Prop42
 90
       50
102
RTVSPost2010PropOp42
 70
     1
102
RTVSPost2010Prop43
 90
        3
102
RTVSPost2010PropOp43
 70
     1
102
RTVSPost2010Prop44ColorIndex
 90
        5
102
RTVSPost2010Prop44ColorRGB
 90
      255
102
RTVSPost2010PropOp44
 70
     1
102
RTVSPost2010Prop45
280
     0
102
RTVSPost2010PropOp45
 70
     1
102
RTVSPost2010Prop46
 90
       50
102
RTVSPost2010PropOp46
 70
     1
102
RTVSPost2010Prop47
 90
       50
102
RTVSPost2010PropOp47
 70
     1
102
RTVSPost2010Prop48
 90
       50
102
RTVSPost2010PropOp48
 70
     1
102
RTVSPost2010Prop49
280
     0
102
RTVSPost2010PropOp49
 70
     1
102
RTVSPost2010Prop50
 90
       50
102
RTVSPost2010PropOp50
 70
     1
102
RTVSPost2010Prop51ColorIndex
 90
      256
102
RTVSPost2010Prop51ColorRGB
 90
-16777216
102
RTVSPost2010PropOp51
 70
     0
102
RTVSPost2010Prop52
140
1.0
102
RTVSPost2010PropOp52
 70
     0
102
RTVSPost2010Prop53
 90
        2
102
RTVSPost2010PropOp53
 70
     1
102
RTVSPost2010Prop54
  1
strokes_ogs.tif
102
RTVSPost2010PropOp54
 70
     1
102
RTVSPost2010Prop55
280
     0
102
RTVSPost2010PropOp55
 70
     1
102
RTVSPost2010Prop56
140
1.0
102
RTVSPost2010PropOp56
 70
     1
102
RTVSPost2010Prop57
140
1.0
102
RTVSPost2010PropOp57
 70
     1
  0
XRECORD
  5
19A1
102
{ACAD_REACTORS
330
19A0
102
}
330
19A0
100
AcDbXrecord
280
     1
102
RTVSPost2010Prop28
280
     0
102
RTVSPost2010PropOp28
 70
     1
102
RTVSPost2010Prop29
280
     1
102
RTVSPost2010PropOp29
 70
     1
102
RTVSPost2010Prop30
280
     1
102
RTVSPost2010PropOp30
 70
     1
102
RTVSPost2010Prop31
280
     0
102
RTVSPost2010PropOp31
 70
     1
102
RTVSPost2010Prop32
280
     0
102
RTVSPost2010PropOp32
 70
     1
102
RTVSPost2010Prop33
280
     0
102
RTVSPost2010PropOp33
 70
     1
102
RTVSPost2010Prop34
280
     0
102
RTVSPost2010PropOp34
 70
     1
102
RTVSPost2010Prop35
280
     0
102
RTVSPost2010PropOp35
 70
     1
102
RTVSPost2010Prop36
280
     0
102
RTVSPost2010PropOp36
 70
     1
102
RTVSPost2010Prop37
 90
       50
102
RTVSPost2010PropOp37
 70
     1
102
RTVSPost2010Prop38
140
0.0
102
RTVSPost2010PropOp38
 70
     1
102
RTVSPost2010Prop39
140
1.0
102
RTVSPost2010PropOp39
 70
     1
102
RTVSPost2010Prop40
 90
        0
102
RTVSPost2010PropOp40
 70
     1
102
RTVSPost2010Prop41ColorIndex
 90
       18
102
RTVSPost2010Prop41ColorRGB
 90
        0
102
RTVSPost2010PropOp41
 70
     1
102
RTVSPost2010Prop42
 90
       50
102
RTVSPost2010PropOp42
 70
     1
102
RTVSPost2010Prop43
 90
        3
102
RTVSPost2010PropOp43
 70
     1
102
RTVSPost2010Prop44ColorIndex
 90
        5
102
RTVSPost2010Prop44ColorRGB
 90
      255
102
RTVSPost2010PropOp44
 70
     1
102
RTVSPost2010Prop45
280
     0
102
RTVSPost2010PropOp45
 70
     1
102
RTVSPost2010Prop46
 90
       50
102
RTVSPost2010PropOp46
 70
     1
102
RTVSPost2010Prop47
 90
       50
102
RTVSPost2010PropOp47
 70
     1
102
RTVSPost2010Prop48
 90
       50
102
RTVSPost2010PropOp48
 70
     1
102
RTVSPost2010Prop49
280
     0
102
RTVSPost2010PropOp49
 70
     1
102
RTVSPost2010Prop50
 90
       50
102
RTVSPost2010PropOp50
 70
     1
102
RTVSPost2010Prop51ColorIndex
 90
      256
102
RTVSPost2010Prop51ColorRGB
 90
-16777216
102
RTVSPost2010PropOp51
 70
     0
102
RTVSPost2010Prop52
140
1.0
102
RTVSPost2010PropOp52
 70
     0
102
RTVSPost2010Prop53
 90
        2
102
RTVSPost2010PropOp53
 70
     1
102
RTVSPost2010Prop54
  1
strokes_ogs.tif
102
RTVSPost2010PropOp54
 70
     1
102
RTVSPost2010Prop55
280
     0
102
RTVSPost2010PropOp55
 70
     1
102
RTVSPost2010Prop56
140
1.0
102
RTVSPost2010PropOp56
 70
     1
102
RTVSPost2010Prop57
140
1.0
102
RTVSPost2010PropOp57
 70
     1
  0
XRECORD
  5
19A9
102
{ACAD_REACTORS
330
19A8
102
}
330
19A8
100
AcDbXrecord
280
     1
102
RTVSPost2010Prop28
280
     0
102
RTVSPost2010PropOp28
 70
     1
102
RTVSPost2010Prop29
280
     1
102
RTVSPost2010PropOp29
 70
     1
102
RTVSPost2010Prop30
280
     1
102
RTVSPost2010PropOp30
 70
     1
102
RTVSPost2010Prop31
280
     0
102
RTVSPost2010PropOp31
 70
     1
102
RTVSPost2010Prop32
280
     0
102
RTVSPost2010PropOp32
 70
     1
102
RTVSPost2010Prop33
280
     0
102
RTVSPost2010PropOp33
 70
     1
102
RTVSPost2010Prop34
280
     0
102
RTVSPost2010PropOp34
 70
     1
102
RTVSPost2010Prop35
280
     0
102
RTVSPost2010PropOp35
 70
     1
102
RTVSPost2010Prop36
280
     0
102
RTVSPost2010PropOp36
 70
     1
102
RTVSPost2010Prop37
 90
       50
102
RTVSPost2010PropOp37
 70
     1
102
RTVSPost2010Prop38
140
0.0
102
RTVSPost2010PropOp38
 70
     1
102
RTVSPost2010Prop39
140
1.0
102
RTVSPost2010PropOp39
 70
     1
102
RTVSPost2010Prop40
 90
        0
102
RTVSPost2010PropOp40
 70
     1
102
RTVSPost2010Prop41ColorIndex
 90
       18
102
RTVSPost2010Prop41ColorRGB
 90
        0
102
RTVSPost2010PropOp41
 70
     1
102
RTVSPost2010Prop42
 90
       50
102
RTVSPost2010PropOp42
 70
     1
102
RTVSPost2010Prop43
 90
        3
102
RTVSPost2010PropOp43
 70
     1
102
RTVSPost2010Prop44ColorIndex
 90
        5
102
RTVSPost2010Prop44ColorRGB
 90
      255
102
RTVSPost2010PropOp44
 70
     1
102
RTVSPost2010Prop45
280
     0
102
RTVSPost2010PropOp45
 70
     1
102
RTVSPost2010Prop46
 90
       50
102
RTVSPost2010PropOp46
 70
     1
102
RTVSPost2010Prop47
 90
       50
102
RTVSPost2010PropOp47
 70
     1
102
RTVSPost2010Prop48
 90
       50
102
RTVSPost2010PropOp48
 70
     1
102
RTVSPost2010Prop49
280
     0
102
RTVSPost2010PropOp49
 70
     1
102
RTVSPost2010Prop50
 90
       50
102
RTVSPost2010PropOp50
 70
     1
102
RTVSPost2010Prop51ColorIndex
 90
      256
102
RTVSPost2010Prop51ColorRGB
 90
-16777216
102
RTVSPost2010PropOp51
 70
     0
102
RTVSPost2010Prop52
140
1.0
102
RTVSPost2010PropOp52
 70
     0
102
RTVSPost2010Prop53
 90
        2
102
RTVSPost2010PropOp53
 70
     1
102
RTVSPost2010Prop54
  1
strokes_ogs.tif
102
RTVSPost2010PropOp54
 70
     1
102
RTVSPost2010Prop55
280
     0
102
RTVSPost2010PropOp55
 70
     1
102
RTVSPost2010Prop56
140
1.0
102
RTVSPost2010PropOp56
 70
     1
102
RTVSPost2010Prop57
140
1.0
102
RTVSPost2010PropOp57
 70
     1
  0
XRECORD
  5
19B1
102
{ACAD_REACTORS
330
19B0
102
}
330
19B0
100
AcDbXrecord
280
     1
102
RTVSPost2010Prop28
280
     0
102
RTVSPost2010PropOp28
 70
     1
102
RTVSPost2010Prop29
280
     1
102
RTVSPost2010PropOp29
 70
     1
102
RTVSPost2010Prop30
280
     1
102
RTVSPost2010PropOp30
 70
     1
102
RTVSPost2010Prop31
280
     0
102
RTVSPost2010PropOp31
 70
     1
102
RTVSPost2010Prop32
280
     0
102
RTVSPost2010PropOp32
 70
     1
102
RTVSPost2010Prop33
280
     0
102
RTVSPost2010PropOp33
 70
     1
102
RTVSPost2010Prop34
280
     0
102
RTVSPost2010PropOp34
 70
     1
102
RTVSPost2010Prop35
280
     0
102
RTVSPost2010PropOp35
 70
     1
102
RTVSPost2010Prop36
280
     0
102
RTVSPost2010PropOp36
 70
     1
102
RTVSPost2010Prop37
 90
       50
102
RTVSPost2010PropOp37
 70
     1
102
RTVSPost2010Prop38
140
0.0
102
RTVSPost2010PropOp38
 70
     1
102
RTVSPost2010Prop39
140
1.0
102
RTVSPost2010PropOp39
 70
     1
102
RTVSPost2010Prop40
 90
        0
102
RTVSPost2010PropOp40
 70
     1
102
RTVSPost2010Prop41ColorIndex
 90
       18
102
RTVSPost2010Prop41ColorRGB
 90
        0
102
RTVSPost2010PropOp41
 70
     1
102
RTVSPost2010Prop42
 90
       50
102
RTVSPost2010PropOp42
 70
     1
102
RTVSPost2010Prop43
 90
        3
102
RTVSPost2010PropOp43
 70
     1
102
RTVSPost2010Prop44ColorIndex
 90
        5
102
RTVSPost2010Prop44ColorRGB
 90
      255
102
RTVSPost2010PropOp44
 70
     1
102
RTVSPost2010Prop45
280
     0
102
RTVSPost2010PropOp45
 70
     1
102
RTVSPost2010Prop46
 90
       50
102
RTVSPost2010PropOp46
 70
     1
102
RTVSPost2010Prop47
 90
       50
102
RTVSPost2010PropOp47
 70
     1
102
RTVSPost2010Prop48
 90
       50
102
RTVSPost2010PropOp48
 70
     1
102
RTVSPost2010Prop49
280
     0
102
RTVSPost2010PropOp49
 70
     1
102
RTVSPost2010Prop50
 90
       50
102
RTVSPost2010PropOp50
 70
     1
102
RTVSPost2010Prop51ColorIndex
 90
      256
102
RTVSPost2010Prop51ColorRGB
 90
-16777216
102
RTVSPost2010PropOp51
 70
     0
102
RTVSPost2010Prop52
140
1.0
102
RTVSPost2010PropOp52
 70
     0
102
RTVSPost2010Prop53
 90
        2
102
RTVSPost2010PropOp53
 70
     1
102
RTVSPost2010Prop54
  1
strokes_ogs.tif
102
RTVSPost2010PropOp54
 70
     1
102
RTVSPost2010Prop55
280
     0
102
RTVSPost2010PropOp55
 70
     1
102
RTVSPost2010Prop56
140
1.0
102
RTVSPost2010PropOp56
 70
     1
102
RTVSPost2010Prop57
140
1.0
102
RTVSPost2010PropOp57
 70
     1
  0
ENDSEC
  0
EOF
