  0
SECTION
  2
HEADER
  9
$ACADVER
  1
AC1027
  9
$ACADMAINTVER
 70
   125
  9
$DWGCODEPAGE
  3
ANSI_1252
  9
$LASTSAVEDBY
  1
kaschu
  9
$REQUIREDVERSIONS
160
                 0
  9
$INSBASE
 10
0.0
 20
0.0
 30
0.0
  9
$EXTMIN
 10
5.496450678960143
 20
5.165509133418686
 30
0.0
  9
$EXTMAX
 10
1536.847723609242
 20
1140.735113584741
 30
0.0
  9
$LIMMIN
 10
0.0
 20
0.0
  9
$LIMMAX
 10
12.0
 20
9.0
  9
$ORTHOMODE
 70
     0
  9
$REGENMODE
 70
     1
  9
$FILLMODE
 70
     1
  9
$QTEXTMODE
 70
     0
  9
$MIRRTEXT
 70
     1
  9
$LTSCALE
 40
1.0
  9
$ATTMODE
 70
     1
  9
$TEXTSIZE
 40
0.2
  9
$TRACEWID
 40
0.05
  9
$TEXTSTYLE
  7
STANDARD
  9
$CLAYER
  8
0
  9
$CELTYPE
  6
BYLAYER
  9
$CECOLOR
 62
   256
  9
$CELTSCALE
 40
1.0
  9
$DISPSILH
 70
     0
  9
$DIMSCALE
 40
1.0
  9
$DIMASZ
 40
0.18
  9
$DIMEXO
 40
0.0625
  9
$DIMDLI
 40
0.38
  9
$DIMRND
 40
0.0
  9
$DIMDLE
 40
0.0
  9
$DIMEXE
 40
0.18
  9
$DIMTP
 40
0.0
  9
$DIMTM
 40
0.0
  9
$DIMTXT
 40
0.18
  9
$DIMCEN
 40
0.09
  9
$DIMTSZ
 40
0.0
  9
$DIMTOL
 70
     0
  9
$DIMLIM
 70
     0
  9
$DIMTIH
 70
     1
  9
$DIMTOH
 70
     1
  9
$DIMSE1
 70
     0
  9
$DIMSE2
 70
     0
  9
$DIMTAD
 70
     0
  9
$DIMZIN
 70
     0
  9
$DIMBLK
  1

  9
$DIMASO
 70
     1
  9
$DIMSHO
 70
     1
  9
$DIMPOST
  1

  9
$DIMAPOST
  1

  9
$DIMALT
 70
     0
  9
$DIMALTD
 70
     2
  9
$DIMALTF
 40
25.4
  9
$DIMLFAC
 40
1.0
  9
$DIMTOFL
 70
     0
  9
$DIMTVP
 40
0.0
  9
$DIMTIX
 70
     0
  9
$DIMSOXD
 70
     0
  9
$DIMSAH
 70
     0
  9
$DIMBLK1
  1

  9
$DIMBLK2
  1

  9
$DIMSTYLE
  2
STANDARD
  9
$DIMCLRD
 70
     0
  9
$DIMCLRE
 70
     0
  9
$DIMCLRT
 70
     0
  9
$DIMTFAC
 40
1.0
  9
$DIMGAP
 40
0.09
  9
$DIMJUST
 70
     0
  9
$DIMSD1
 70
     0
  9
$DIMSD2
 70
     0
  9
$DIMTOLJ
 70
     1
  9
$DIMTZIN
 70
     0
  9
$DIMALTZ
 70
     0
  9
$DIMALTTZ
 70
     0
  9
$DIMUPT
 70
     0
  9
$DIMDEC
 70
     4
  9
$DIMTDEC
 70
     4
  9
$DIMALTU
 70
     2
  9
$DIMALTTD
 70
     2
  9
$DIMTXSTY
  7
STANDARD
  9
$DIMAUNIT
 70
     0
  9
$DIMADEC
 70
     0
  9
$DIMALTRND
 40
0.0
  9
$DIMAZIN
 70
     0
  9
$DIMDSEP
 70
    46
  9
$DIMATFIT
 70
     3
  9
$DIMFRAC
 70
     0
  9
$DIMLDRBLK
  1

  9
$DIMLUNIT
 70
     2
  9
$DIMLWD
 70
    -2
  9
$DIMLWE
 70
    -2
  9
$DIMTMOVE
 70
     0
  9
$DIMFXL
 40
1.0
  9
$DIMFXLON
 70
     0
  9
$DIMJOGANG
 40
1.570796326794896
  9
$DIMTFILL
 70
     0
  9
$DIMTFILLCLR
 70
     0
  9
$DIMARCSYM
 70
     0
  9
$DIMLTYPE
  6

  9
$DIMLTEX1
  6

  9
$DIMLTEX2
  6

  9
$DIMTXTDIRECTION
 70
     0
  9
$LUNITS
 70
     2
  9
$LUPREC
 70
     4
  9
$SKETCHINC
 40
0.1
  9
$FILLETRAD
 40
0.5
  9
$AUNITS
 70
     0
  9
$AUPREC
 70
     0
  9
$MENU
  1
.
  9
$ELEVATION
 40
0.0
  9
$PELEVATION
 40
0.0
  9
$THICKNESS
 40
0.0
  9
$LIMCHECK
 70
     0
  9
$CHAMFERA
 40
0.5
  9
$CHAMFERB
 40
0.5
  9
$CHAMFERC
 40
1.0
  9
$CHAMFERD
 40
0.0
  9
$SKPOLY
 70
     0
  9
$TDCREATE
 40
2451762.510034722
  9
$TDUCREATE
 40
2451762.426705324
  9
$TDUPDATE
 40
2459102.654803241
  9
$TDUUPDATE
 40
2459102.571469907
  9
$TDINDWG
 40
0.1159219097
  9
$TDUSRTIMER
 40
0.1159095833
  9
$USRTIMER
 70
     1
  9
$ANGBASE
 50
0.0
  9
$ANGDIR
 70
     0
  9
$PDMODE
 70
     0
  9
$PDSIZE
 40
0.0
  9
$PLINEWID
 40
0.0
  9
$SPLFRAME
 70
     0
  9
$SPLINETYPE
 70
     6
  9
$SPLINESEGS
 70
     8
  9
$HANDSEED
  5
4DDB
  9
$SURFTAB1
 70
     6
  9
$SURFTAB2
 70
     6
  9
$SURFTYPE
 70
     6
  9
$SURFU
 70
     6
  9
$SURFV
 70
     6
  9
$UCSBASE
  2

  9
$UCSNAME
  2

  9
$UCSORG
 10
0.0
 20
0.0
 30
0.0
  9
$UCSXDIR
 10
1.0
 20
0.0
 30
0.0
  9
$UCSYDIR
 10
0.0
 20
1.0
 30
0.0
  9
$UCSORTHOREF
  2

  9
$UCSORTHOVIEW
 70
     0
  9
$UCSORGTOP
 10
0.0
 20
0.0
 30
0.0
  9
$UCSORGBOTTOM
 10
0.0
 20
0.0
 30
0.0
  9
$UCSORGLEFT
 10
0.0
 20
0.0
 30
0.0
  9
$UCSORGRIGHT
 10
0.0
 20
0.0
 30
0.0
  9
$UCSORGFRONT
 10
0.0
 20
0.0
 30
0.0
  9
$UCSORGBACK
 10
0.0
 20
0.0
 30
0.0
  9
$PUCSBASE
  2

  9
$PUCSNAME
  2

  9
$PUCSORG
 10
0.0
 20
0.0
 30
0.0
  9
$PUCSXDIR
 10
1.0
 20
0.0
 30
0.0
  9
$PUCSYDIR
 10
0.0
 20
1.0
 30
0.0
  9
$PUCSORTHOREF
  2

  9
$PUCSORTHOVIEW
 70
     0
  9
$PUCSORGTOP
 10
0.0
 20
0.0
 30
0.0
  9
$PUCSORGBOTTOM
 10
0.0
 20
0.0
 30
0.0
  9
$PUCSORGLEFT
 10
0.0
 20
0.0
 30
0.0
  9
$PUCSORGRIGHT
 10
0.0
 20
0.0
 30
0.0
  9
$PUCSORGFRONT
 10
0.0
 20
0.0
 30
0.0
  9
$PUCSORGBACK
 10
0.0
 20
0.0
 30
0.0
  9
$USERI1
 70
     0
  9
$USERI2
 70
     0
  9
$USERI3
 70
     0
  9
$USERI4
 70
     0
  9
$USERI5
 70
     0
  9
$USERR1
 40
0.0
  9
$USERR2
 40
0.0
  9
$USERR3
 40
0.0
  9
$USERR4
 40
0.0
  9
$USERR5
 40
0.0
  9
$WORLDVIEW
 70
     1
  9
$SHADEDGE
 70
     3
  9
$SHADEDIF
 70
    70
  9
$TILEMODE
 70
     1
  9
$MAXACTVP
 70
    64
  9
$PINSBASE
 10
0.0
 20
0.0
 30
0.0
  9
$PLIMCHECK
 70
     0
  9
$PEXTMIN
 10
1.000000000000000E+20
 20
1.000000000000000E+20
 30
1.000000000000000E+20
  9
$PEXTMAX
 10
-1.000000000000000E+20
 20
-1.000000000000000E+20
 30
-1.000000000000000E+20
  9
$PLIMMIN
 10
0.0
 20
0.0
  9
$PLIMMAX
 10
12.0
 20
9.0
  9
$UNITMODE
 70
     0
  9
$VISRETAIN
 70
     1
  9
$PLINEGEN
 70
     0
  9
$PSLTSCALE
 70
     1
  9
$TREEDEPTH
 70
  3020
  9
$CMLSTYLE
  2
STANDARD
  9
$CMLJUST
 70
     0
  9
$CMLSCALE
 40
1.0
  9
$PROXYGRAPHICS
 70
     1
  9
$MEASUREMENT
 70
     0
  9
$CELWEIGHT
370
    -1
  9
$ENDCAPS
280
     0
  9
$JOINSTYLE
280
     0
  9
$LWDISPLAY
290
     0
  9
$INSUNITS
 70
     0
  9
$HYPERLINKBASE
  1

  9
$STYLESHEET
  1

  9
$XEDIT
290
     1
  9
$CEPSNTYPE
380
     0
  9
$PSTYLEMODE
290
     1
  9
$FINGERPRINTGUID
  2
{07D082D4-8E9D-48F0-9949-F8C76B91C45A}
  9
$VERSIONGUID
  2
{67AC2A72-5AA1-354B-9E50-9DD41B9935D3}
  9
$EXTNAMES
290
     1
  9
$PSVPSCALE
 40
0.0
  9
$OLESTARTUP
290
     0
  9
$SORTENTS
280
   127
  9
$INDEXCTL
280
     0
  9
$HIDETEXT
280
     0
  9
$XCLIPFRAME
280
     2
  9
$HALOGAP
280
     0
  9
$OBSCOLOR
 70
   257
  9
$OBSLTYPE
280
     0
  9
$INTERSECTIONDISPLAY
280
     0
  9
$INTERSECTIONCOLOR
 70
   257
  9
$DIMASSOC
280
     1
  9
$PROJECTNAME
  1

  9
$CAMERADISPLAY
290
     0
  9
$LENSLENGTH
 40
50.0
  9
$CAMERAHEIGHT
 40
0.0
  9
$STEPSPERSEC
 40
2.0
  9
$STEPSIZE
 40
6.0
  9
$3DDWFPREC
 40
2.0
  9
$PSOLWIDTH
 40
0.25
  9
$PSOLHEIGHT
 40
4.0
  9
$LOFTANG1
 40
1.570796326794896
  9
$LOFTANG2
 40
1.570796326794896
  9
$LOFTMAG1
 40
0.0
  9
$LOFTMAG2
 40
0.0
  9
$LOFTPARAM
 70
     7
  9
$LOFTNORMALS
280
     1
  9
$LATITUDE
 40
37.795
  9
$LONGITUDE
 40
-122.394
  9
$NORTHDIRECTION
 40
0.0
  9
$TIMEZONE
 70
 -8000
  9
$LIGHTGLYPHDISPLAY
280
     1
  9
$TILEMODELIGHTSYNCH
280
     1
  9
$CMATERIAL
347
1D7
  9
$SOLIDHIST
280
     0
  9
$SHOWHIST
280
     1
  9
$DWFFRAME
280
     2
  9
$DGNFRAME
280
     0
  9
$REALWORLDSCALE
290
     1
  9
$INTERFERECOLOR
 62
     1
  9
$INTERFEREOBJVS
345
1E4
  9
$INTERFEREVPVS
346
5CB
  9
$CSHADOW
280
     0
  9
$SHADOWPLANELOCATION
 40
0.0
  0
ENDSEC
  0
SECTION
  2
CLASSES
  0
CLASS
  1
ACDBDICTIONARYWDFLT
  2
AcDbDictionaryWithDefault
  3
ObjectDBX Classes
 90
        0
 91
        1
280
     0
281
     0
  0
CLASS
  1
MATERIAL
  2
AcDbMaterial
  3
ObjectDBX Classes
 90
     1153
 91
        3
280
     0
281
     0
  0
CLASS
  1
VISUALSTYLE
  2
AcDbVisualStyle
  3
ObjectDBX Classes
 90
     4095
 91
       26
280
     0
281
     0
  0
CLASS
  1
TABLESTYLE
  2
AcDbTableStyle
  3
ObjectDBX Classes
 90
     4095
 91
        1
280
     0
281
     0
  0
CLASS
  1
DICTIONARYVAR
  2
AcDbDictionaryVar
  3
ObjectDBX Classes
 90
        0
 91
       12
280
     0
281
     0
  0
CLASS
  1
SORTENTSTABLE
  2
AcDbSortentsTable
  3
ObjectDBX Classes
 90
        0
 91
        1
280
     0
281
     0
  0
CLASS
  1
SCALE
  2
AcDbScale
  3
ObjectDBX Classes
 90
     1153
 91
       17
280
     0
281
     0
  0
CLASS
  1
MLEADERSTYLE
  2
AcDbMLeaderStyle
  3
ACDB_MLEADERSTYLE_CLASS
 90
     4095
 91
        1
280
     0
281
     0
  0
CLASS
  1
ACDBSECTIONVIEWSTYLE
  2
AcDbSectionViewStyle
  3
ObjectDBX Classes
 90
     1025
 91
        2
280
     0
281
     0
  0
CLASS
  1
ACDBDETAILVIEWSTYLE
  2
AcDbDetailViewStyle
  3
ObjectDBX Classes
 90
     1025
 91
        2
280
     0
281
     0
  0
CLASS
  1
CELLSTYLEMAP
  2
AcDbCellStyleMap
  3
ObjectDBX Classes
 90
     1152
 91
        3
280
     0
281
     0
  0
ENDSEC
  0
SECTION
  2
TABLES
  0
TABLE
  2
VPORT
  5
8
330
0
100
AcDbSymbolTable
 70
     1
1001
ACAD
1000
DbSaveVer
1071
      224
  0
VPORT
  5
1B1
330
8
100
AcDbSymbolTableRecord
100
AcDbViewportTableRecord
  2
*ACTIVE
 70
     0
 10
0.0
 20
0.0
 11
1.0
 21
1.0
 12
795.7676946903502
 22
394.0684263850359
 13
0.0
 23
0.0
 14
0.5
 24
0.5
 15
0.5
 25
0.5
 16
0.0
 26
0.0
 36
1.0
 17
0.0
 27
0.0
 37
0.0
 40
1276.454993182524
 41
2.046436285097192
 42
50.0
 43
0.0
 44
0.0
 50
0.0
 51
0.0
 71
     0
 72
   100
 73
     1
 74
     3
 75
     0
 76
     0
 77
     0
 78
     0
281
     0
 65
     1
110
0.0
120
0.0
130
0.0
111
1.0
121
0.0
131
0.0
112
0.0
122
1.0
132
0.0
 79
     0
146
0.0
348
1E0
 60
     3
 61
     5
292
     1
282
     1
141
0.0
142
0.0
 63
   250
421
  3355443
1001
ACAD_NAV_VCDISPLAY
1070
     3
  0
ENDTAB
  0
TABLE
  2
LTYPE
  5
5
330
0
100
AcDbSymbolTable
 70
     5
  0
LTYPE
  5
14
330
5
100
AcDbSymbolTableRecord
100
AcDbLinetypeTableRecord
  2
BYBLOCK
 70
     0
  3

 72
    65
 73
     0
 40
0.0
  0
LTYPE
  5
15
330
5
100
AcDbSymbolTableRecord
100
AcDbLinetypeTableRecord
  2
BYLAYER
 70
     0
  3

 72
    65
 73
     0
 40
0.0
  0
LTYPE
  5
16
330
5
100
AcDbSymbolTableRecord
100
AcDbLinetypeTableRecord
  2
CONTINUOUS
 70
     0
  3
Solid line
 72
    65
 73
     0
 40
0.0
  0
LTYPE
  5
46EC
330
5
100
AcDbSymbolTableRecord
100
AcDbLinetypeTableRecord
  2
CUSTOM
 70
     0
  3

 72
    65
 73
     0
 40
0.0
  0
ENDTAB
  0
TABLE
  2
LAYER
  5
2
102
{ACAD_XDICTIONARY
360
3E4
102
}
330
0
100
AcDbSymbolTable
 70
     6
  0
LAYER
  5
10
102
{ACAD_XDICTIONARY
360
624
102
}
330
2
100
AcDbSymbolTableRecord
100
AcDbLayerTableRecord
  2
0
 70
     0
 62
     7
  6
CONTINUOUS
370
    -3
390
10E
347
1D9
348
0
  0
LAYER
  5
2DC
330
2
100
AcDbSymbolTableRecord
100
AcDbLayerTableRecord
  2
Defpoints
 70
     0
 62
     7
  6
CONTINUOUS
290
     0
370
    -3
390
10E
347
1D9
348
0
  0
LAYER
  5
4D7
102
{ACAD_XDICTIONARY
360
62A
102
}
330
2
100
AcDbSymbolTableRecord
100
AcDbLayerTableRecord
  2
HEWI
 70
     0
 62
     7
  6
CONTINUOUS
370
    -3
390
10E
347
1D9
348
0
  0
ENDTAB
  0
TABLE
  2
STYLE
  5
3
330
0
100
AcDbSymbolTable
 70
     2
  0
STYLE
  5
11
330
3
100
AcDbSymbolTableRecord
100
AcDbTextStyleTableRecord
  2
STANDARD
 70
     0
 40
0.0
 41
1.0
 50
0.0
 71
     0
 42
0.2
  3
txt
  4

  0
ENDTAB
  0
TABLE
  2
VIEW
  5
6
330
0
100
AcDbSymbolTable
 70
     1
  0
ENDTAB
  0
TABLE
  2
UCS
  5
7
330
0
100
AcDbSymbolTable
 70
     0
  0
ENDTAB
  0
TABLE
  2
APPID
  5
9
330
0
100
AcDbSymbolTable
 70
     6
  0
APPID
  5
12
330
9
100
AcDbSymbolTableRecord
100
AcDbRegAppTableRecord
  2
ACAD
 70
     0
  0
APPID
  5
3E2
330
9
100
AcDbSymbolTableRecord
100
AcDbRegAppTableRecord
  2
ACAD_PSEXT
 70
     0
  0
APPID
  5
3E3
330
9
100
AcDbSymbolTableRecord
100
AcDbRegAppTableRecord
  2
ACAD_DSTYLE_DIMJOGGED_JOGANGLE_SYMBOL
 70
     0
  0
APPID
  5
5B6
330
9
100
AcDbSymbolTableRecord
100
AcDbRegAppTableRecord
  2
ACAD_EXEMPT_FROM_CAD_STANDARDS
 70
     0
  0
APPID
  5
616
330
9
100
AcDbSymbolTableRecord
100
AcDbRegAppTableRecord
  2
ACAD_NAV_VCDISPLAY
 70
     0
  0
APPID
  5
1626
330
9
100
AcDbSymbolTableRecord
100
AcDbRegAppTableRecord
  2
ACAD_DSTYLE_DIMRADIAL_EXTENSION
 70
     0
  0
ENDTAB
  0
TABLE
  2
DIMSTYLE
  5
A
330
0
100
AcDbSymbolTable
 70
     5
100
AcDbDimStyleTable
 71
     1
340
27
  0
DIMSTYLE
105
27
330
A
100
AcDbSymbolTableRecord
100
AcDbDimStyleTableRecord
  2
STANDARD
 70
     0
340
11
  0
ENDTAB
  0
TABLE
  2
BLOCK_RECORD
  5
1
330
0
100
AcDbSymbolTable
 70
    57
  0
BLOCK_RECORD
  5
1F
102
{ACAD_XDICTIONARY
360
107
102
}
330
1
100
AcDbSymbolTableRecord
100
AcDbBlockTableRecord
  2
*MODEL_SPACE
340
1EF
 70
     0
280
     1
281
     0
  0
BLOCK_RECORD
  5
1B
102
{ACAD_XDICTIONARY
360
105
102
}
330
1
100
AcDbSymbolTableRecord
100
AcDbBlockTableRecord
  2
*PAPER_SPACE
340
1F0
 70
     0
280
     1
281
     0
  0
ENDTAB
  0
ENDSEC
  0
SECTION
  2
BLOCKS
  0
BLOCK
  5
20
330
1F
100
AcDbEntity
  8
0
100
AcDbBlockBegin
  2
*MODEL_SPACE
 70
     0
 10
0.0
 20
0.0
 30
0.0
  3
*MODEL_SPACE
  1

  0
ENDBLK
  5
21
330
1F
100
AcDbEntity
  8
0
100
AcDbBlockEnd
  0
BLOCK
  5
1C
330
1B
100
AcDbEntity
 67
     1
  8
0
100
AcDbBlockBegin
  2
*PAPER_SPACE
 70
     0
 10
0.0
 20
0.0
 30
0.0
  3
*PAPER_SPACE
  1

  0
ENDBLK
  5
1D
330
1B
100
AcDbEntity
 67
     1
  8
0
100
AcDbBlockEnd
  0
ENDSEC
  0
SECTION
  2
ENTITIES
  0
LWPOLYLINE
  5
4BC0
330
1F
100
AcDbEntity
  8
HEWI
  6
CUSTOM
 62
    18
420
        0
370
     9
100
AcDbPolyline
 90
       26
 70
     1
 43
0.0
 10
406.4782211049296
 20
539.4752876583066
 10
407.3265550049218
 20
539.7508646311157
 10
408.0842879737356
 20
540.2214534179188
 10
408.707383325469
 20
540.859705108945
 10
409.1596290231409
 20
541.6285268358637
 10
409.4147421906491
 20
542.4832374744605
 10
409.4578965779929
 20
543.3741643491653
 10
409.2865842090431
 20
544.2495300284085
 10
408.9107611359886
 20
545.0584614407366
 10
408.3522688297708
 20
545.7539464328124
 10
407.6435648331953
 20
546.2955659448803
 10
406.8258364465018
 20
546.651843019606
 10
405.9466070712096
 20
546.8020721284215
 10
405.0569743227369
 20
546.7375225015826
 10
404.2086404227448
 20
546.4619455287734
 10
403.4509074539309
 20
545.9913567419703
 10
402.8278121021976
 20
545.353105050944
 10
402.3755664045256
 20
544.5842833240244
 10
402.1204532370175
 20
543.7295726854285
 10
402.0772988496737
 20
542.8386458107229
 10
402.2486112186234
 20
541.9632801314805
 10
402.6244342916779
 20
541.1543487191515
 10
403.182926597894
 20
540.4588637270767
 10
403.8916305944731
 20
539.9172442150079
 10
404.7093589811647
 20
539.5609671402821
 10
405.5885883564569
 20
539.4107380314667
  0
LWPOLYLINE
  5
4BC1
330
1F
100
AcDbEntity
  8
HEWI
  6
CUSTOM
 62
    18
420
        0
370
     9
100
AcDbPolyline
 90
        8
 70
     0
 43
0.0
 10
397.4783396931398
 20
661.2848651137269
 10
397.5298230343415
 20
661.8423151537322
 10
397.7040598908479
 20
662.3743326368234
 10
397.9923132991189
 20
662.8542399848888
 10
398.3801290296233
 20
663.2579726395765
 10
398.8480603822627
 20
663.5652857597392
 10
399.3726433250995
 20
663.7607693823051
 10
399.9275730789104
 20
663.8346211421707
  0
LWPOLYLINE
  5
4BC2
330
1F
100
AcDbEntity
  8
HEWI
  6
CUSTOM
 62
    18
420
        0
370
     9
100
AcDbPolyline
 90
        9
 70
     0
 43
0.0
 10
401.6887743449679
 20
661.3695311375273
 10
399.9778344682727
 20
661.3351265004053
 10
399.4216445564907
 20
661.3239422897
 10
398.8933443293317
 20
661.3133189020204
 10
398.4194249661759
 20
661.3037890383843
 10
398.0236507628106
 20
661.2958305659471
 10
397.7258674903933
 20
661.28984255575
 10
397.5410072456453
 20
661.2861252716279
 10
397.4783396931398
 20
661.2848651137269
  0
LWPOLYLINE
  5
4BC3
330
1F
100
AcDbEntity
  8
HEWI
  6
CUSTOM
 62
    18
420
        0
370
     9
100
AcDbPolyline
 90
       11
 70
     0
 43
0.0
 10
421.5006188535917
 20
575.1947555295578
 10
422.2693319601639
 20
575.5635788429831
 10
422.9578215220063
 20
576.130672460335
 10
423.4905904354654
 20
576.8460536958723
 10
423.8366761078341
 20
577.6681471924907
 10
423.9759652978009
 20
578.5491758643561
 10
423.900363023944
 20
579.4379375274679
 10
423.61426301561
 20
580.2827805844822
 10
423.1342923653556
 20
581.0346058278078
 10
422.4883452227568
 20
581.6497199070731
 10
422.302540235436
 20
581.7559301389123
  0
LWPOLYLINE
  5
4BC4
330
1F
100
AcDbEntity
  8
HEWI
  6
CUSTOM
 62
    18
420
        0
370
     9
100
AcDbPolyline
 90
       26
 70
     1
 43
0.0
 10
404.5782926351766
 20
542.367789159643
 10
404.7896140483426
 20
542.1046326761548
 10
405.0577723173173
 20
541.8996955634806
 10
405.3671830582279
 20
541.7648880216924
 10
405.6998644434734
 20
541.7080445751139
 10
406.0364822401934
 20
541.7324687582418
 10
406.357473445596
 20
541.8367411263321
 10
406.6441832175788
 20
542.0148017483657
 10
406.8799490263427
 20
542.2563023882134
 10
407.0510690200571
 20
542.5472079065071
 10
407.1475983266809
 20
542.8706119319217
 10
407.1639270137839
 20
543.2077193980262
 10
407.0991061174245
 20
543.5389388442258
 10
406.9569027924845
 20
543.8450210002424
 10
406.7455813793221
 20
544.1081774837307
 10
406.4774231103474
 20
544.3131145964048
 10
406.1680123694368
 20
544.4479221381929
 10
405.8353309841895
 20
544.5047655847715
 10
405.4987131874713
 20
544.4803414016428
 10
405.1777219820687
 20
544.3760690335534
 10
404.891012210086
 20
544.1980084115198
 10
404.6552464013202
 20
543.956507771672
 10
404.4841264076094
 20
543.6656022533784
 10
404.3875971009856
 20
543.3421982279628
 10
404.3712684138808
 20
543.0050907618583
 10
404.4360893102366
 20
542.6738713156587
  0
LWPOLYLINE
  5
4BC5
330
1F
100
AcDbEntity
  8
HEWI
  6
CUSTOM
 62
    18
420
        0
370
     9
100
AcDbPolyline
 90
        6
 70
     0
 43
0.0
 10
400.4926886646281
 20
663.8322050462051
 10
400.6292616934096
 20
663.798216856519
 10
400.6303442220906
 20
663.7978826573057
 10
400.8494132993491
 20
663.7157064373809
 10
400.9403023321847
 20
663.6750528619227
 10
401.0813958711205
 20
663.6067598072554
  0
LWPOLYLINE
  5
4BC6
330
1F
100
AcDbEntity
  8
HEWI
  6
CUSTOM
 62
    18
420
        0
370
     9
100
AcDbPolyline
 90
        4
 70
     0
 43
0.0
 10
407.9259563593313
 20
663.9954575795404
 10
407.923945903758
 20
664.0954373652107
 10
404.9245521735993
 20
664.0351237011977
 10
404.9265626291726
 20
663.9351439155275
  0
LINE
  5
4BC7
330
1F
100
AcDbEntity
  8
HEWI
  6
CUSTOM
 62
    18
420
        0
370
     9
100
AcDbLine
 10
397.6993576568511
 20
650.2936604720694
 30
0.0
 11
397.4783396931398
 21
661.2848651137269
 31
0.0
  0
LINE
  5
4BC8
330
1F
100
AcDbEntity
  8
HEWI
  6
CUSTOM
 62
    18
420
        0
370
     9
100
AcDbLine
 10
400.3662349122477
 20
663.843442025593
 30
0.0
 11
432.3782124067674
 21
664.4871586659287
 31
0.0
  0
LINE
  5
4BC9
330
1F
100
AcDbEntity
  8
HEWI
  6
CUSTOM
 62
    18
420
        0
370
     9
100
AcDbLine
 10
432.3405060443765
 20
662.9860972457568
 30
0.0
 11
400.3963917458622
 21
662.3437452405337
 31
0.0
  0
LWPOLYLINE
  5
4BCA
330
1F
100
AcDbEntity
  8
HEWI
  6
CUSTOM
 62
    18
420
        0
370
     9
100
AcDbPolyline
 90
        7
 70
     0
 43
0.0
 10
399.6184818355014
 20
661.3279004133796
 10
399.6935772335073
 20
661.4529252431808
 10
399.8487035257113
 20
661.614418305055
 10
400.0358760667677
 20
661.7373435531203
 10
400.2457092439017
 20
661.8155370021463
 10
400.4676811454283
 20
661.8450777060929
 10
402.7372974688514
 20
661.8907165547029
  0
LWPOLYLINE
  5
4BCB
330
1F
100
AcDbEntity
  8
HEWI
  6
CUSTOM
 62
    18
420
        0
370
     9
100
AcDbPolyline
 90
        5
 70
     0
 43
0.0
 10
429.0675983440396
 20
653.5050625448288
 10
429.7284898655162
 20
653.5703020460109
 10
431.0273412917467
 20
653.6985173678935
 10
431.925762579136
 20
653.7872044742275
 10
432.5509403587694
 20
653.8489185152879
  0
LWPOLYLINE
  5
4BCC
330
1F
100
AcDbEntity
  8
HEWI
  6
CUSTOM
 62
    18
420
        0
370
     9
100
AcDbPolyline
 90
        6
 70
     0
 43
0.0
 10
429.0675983289275
 20
648.5173932270322
 10
429.1111848863383
 20
648.5216958473134
 10
430.2160931698108
 20
648.6307661908145
 10
431.514944596036
 20
648.758981512698
 10
432.4133658834307
 20
648.847668619032
 10
432.6655486370419
 20
648.8725626848768
  0
LWPOLYLINE
  5
4BCD
330
1F
100
AcDbEntity
  8
HEWI
  6
CUSTOM
 62
    18
420
        0
370
     9
100
AcDbPolyline
 90
       26
 70
     1
 43
0.0
 10
432.3189717632449
 20
563.0800977880567
 10
432.003323926574
 20
563.199573825545
 10
431.6682557535659
 20
563.2400386388376
 10
431.333240188509
 20
563.1991405600724
 10
431.0177471183215
 20
563.0792564369262
 10
430.7401118534671
 20
562.8873534988765
 10
430.5164695463754
 20
562.6345844471448
 10
430.3598174750277
 20
562.3356393002381
 10
430.2792596884065
 20
562.0078916634743
 10
430.2794779122542
 20
561.6703890381863
 10
430.3604594641874
 20
561.342745850186
 10
430.5174979907715
 20
561.0440035306233
 10
430.7414669836507
 20
560.7915238972286
 10
431.0193501790527
 20
560.5999801485681
 10
431.3349980157272
 20
560.4805041110807
 10
431.6700661887352
 20
560.4400392977872
 10
432.0050817537885
 20
560.4809373765533
 10
432.3205748239761
 20
560.6008214996986
 10
432.5982100888304
 20
560.7927244377483
 10
432.8218523959221
 20
561.0454934894801
 10
432.978504467268
 20
561.3444386363876
 10
433.0590622538911
 20
561.6721862731515
 10
433.0588440300471
 20
562.0096888984384
 10
432.9778624781083
 20
562.3373320864398
 10
432.8208239515261
 20
562.6360744060016
 10
432.596854958645
 20
562.8885540393962
  0
LWPOLYLINE
  5
4BCE
330
1F
100
AcDbEntity
  8
HEWI
  6
CUSTOM
 62
    18
420
        0
370
     9
100
AcDbPolyline
 90
        5
 70
     0
 43
0.0
 10
406.4302172498119
 20
662.1064019556201
 10
406.3982433907549
 20
662.1371152606729
 10
406.1102989665541
 20
662.3100672964069
 10
405.7910884596658
 20
662.4146094047314
 10
405.4566184178165
 20
662.4454994078036
  0
LWPOLYLINE
  5
4BCF
330
1F
100
AcDbEntity
  8
HEWI
  6
CUSTOM
 62
    18
420
        0
370
     9
100
AcDbPolyline
 90
        7
 70
     0
 43
0.0
 10
400.4576288675544
 20
662.344976634447
 10
400.1246710152663
 20
662.300665578527
 10
399.8099212495654
 20
662.183375404988
 10
399.5291624379806
 20
661.9989875328897
 10
399.2964729996765
 20
661.7567479400772
 10
399.123520954714
 20
661.4688035312378
 10
399.0737877390929
 20
661.3169473698476
  0
LINE
  5
4BD0
330
1F
100
AcDbEntity
  8
HEWI
  6
CUSTOM
 62
    18
420
        0
370
     9
100
AcDbLine
 10
415.813738218565
 20
526.9286410747294
 30
0.0
 11
416.5058808697121
 21
526.7111498794333
 31
0.0
  0
LWPOLYLINE
  5
4BD1
330
1F
100
AcDbEntity
  8
HEWI
  6
CUSTOM
 62
    18
420
        0
370
     9
100
AcDbPolyline
 90
       23
 70
     0
 43
0.0
 10
434.6190701550203
 20
564.0495553227196
 10
434.1209236523918
 20
564.6111145133204
 10
433.3865180645425
 20
565.1173372776379
 10
432.5523059247662
 20
565.4330953767116
 10
431.6667686103847
 20
565.5400380975584
 10
430.7813703313168
 20
565.4319503179626
 10
429.9475672172447
 20
565.1151137067922
 10
429.2138168744132
 20
564.6079416562328
 10
428.6227622056721
 20
563.9399091623686
 10
428.20875315997
 20
563.1498398455437
 10
427.9958504381811
 20
562.2836496626673
 10
427.996427172633
 20
561.3916784386924
 10
428.2104498456046
 20
560.5257642989768
 10
428.6254802372914
 20
559.7362310258472
 10
429.2173982899021
 20
559.0689634233044
 10
429.9518038777514
 20
558.5627406589869
 10
430.7860160175295
 20
558.2469825599132
 10
431.6715533319093
 20
558.1400398390664
 10
432.556951610979
 20
558.2481276186622
 10
433.3907547250474
 20
558.5649642298326
 10
434.1245050678789
 20
559.0721362803919
 10
434.7155597366236
 20
559.7401687742554
 10
434.7182016360821
 20
559.745210412167
  0
LWPOLYLINE
  5
4BD2
330
1F
100
AcDbEntity
  8
HEWI
  6
CUSTOM
 62
    18
420
        0
370
     9
100
AcDbPolyline
 90
       19
 70
     0
 43
0.0
 10
415.5389399062697
 20
526.4173849213161
 10
415.5522231213017
 20
526.4368027364048
 10
417.7893034605804
 20
530.6441387110985
 10
418.2071724743545
 20
531.430035982416
 10
418.604087790909
 20
532.1765250829289
 10
418.9601464188963
 20
532.8461739320696
 10
419.2574940919384
 20
533.4054035403328
 10
419.4812205560956
 20
533.8261718000207
 10
419.6201072322528
 20
534.0873796336158
 10
419.6671897625292
 20
534.1759289896349
 10
418.3427683374102
 20
534.8801363152911
 10
418.2956858071356
 20
534.791586959272
 10
418.1567991309784
 20
534.530379125676
 10
417.9330726668212
 20
534.109610865989
 10
417.6357249937773
 20
533.5503812577249
 10
417.2796663657882
 20
532.8807324085842
 10
416.8827510492373
 20
532.1342433080713
 10
416.4648820354632
 20
531.3483460367538
 10
416.045124822418
 20
530.558897579282
  0
LWPOLYLINE
  5
4BD3
330
1F
100
AcDbEntity
  8
HEWI
  6
CUSTOM
 62
    18
420
        0
370
     9
100
AcDbPolyline
 90
       13
 70
     0
 43
0.0
 10
416.9397891616263
 20
537.8788768881254
 10
426.3770996745388
 20
549.3103110985971
 10
426.6906037874232
 20
549.6839307314862
 10
426.992060113067
 20
550.0431923714127
 10
427.2698838539309
 20
550.3742897950282
 10
427.5133983994582
 20
550.6644991140269
 10
427.9523671585084
 20
551.1876416817463
 10
428.0497729767176
 20
551.3037254093446
 10
428.160902473066
 20
551.4361643787919
 10
428.281485003321
 20
551.5798690347623
 10
428.4068866484758
 20
551.7293168879173
 10
434.5685115663782
 20
559.0724551282351
 10
434.7281556939324
 20
559.3129989936528
  0
LWPOLYLINE
  5
4BD4
330
1F
100
AcDbEntity
  8
HEWI
  6
CUSTOM
 62
    18
420
        0
370
     9
100
AcDbPolyline
 90
        8
 70
     0
 43
0.0
 10
421.0524128280521
 20
571.5276179674279
 10
422.7594087213056
 20
571.98244911564
 10
423.7062158555217
 20
572.116439541664
 10
424.6577702024569
 20
572.0218799865392
 10
425.559690601498
 20
571.7041745119163
 10
426.3604324632833
 20
571.1814799288027
 10
434.0754842193109
 20
564.707783191227
 10
434.6170206544575
 20
564.1385458162836
  0
LINE
  5
4BD5
330
1F
100
AcDbEntity
  8
HEWI
  6
CUSTOM
 62
    18
420
        0
370
     9
100
AcDbLine
 10
406.848439109448
 20
542.224026015298
 30
0.0
 11
406.9428833842703
 21
542.3632913584746
 31
0.0
  0
LINE
  5
4BD6
330
1F
100
AcDbEntity
  8
HEWI
  6
CUSTOM
 62
    18
420
        0
370
     9
100
AcDbLine
 10
406.9759081564971
 20
543.8041133581513
 30
0.0
 11
406.879183193043
 21
543.9418044557128
 31
0.0
  0
LWPOLYLINE
  5
4BD7
330
1F
100
AcDbEntity
  8
HEWI
  6
CUSTOM
 62
    18
420
        0
370
     9
100
AcDbPolyline
 90
       10
 70
     0
 43
0.0
 10
428.8484961887152
 20
635.3137487153166
 10
429.4892855700127
 20
635.8037083671483
 10
430.0476112811866
 20
636.4993271064936
 10
430.4232405923303
 20
637.3083485108377
 10
430.5943432932345
 20
638.1837551968342
 10
430.5509755168568
 20
639.0746717098659
 10
430.2956576407305
 20
639.9293212205452
 10
429.8432278117652
 20
640.6980346058367
 10
429.2199796071072
 20
641.3361370379466
 10
429.0675983412366
 20
641.4307225998022
  0
LINE
  5
4BD8
330
1F
100
AcDbEntity
  8
HEWI
  6
CUSTOM
 62
    18
420
        0
370
     9
100
AcDbLine
 10
406.5132622546388
 20
544.2857249108032
 30
0.0
 11
406.3636283058785
 21
544.3626939933842
 31
0.0
  0
LINE
  5
4BD9
330
1F
100
AcDbEntity
  8
HEWI
  6
CUSTOM
 62
    18
420
        0
370
     9
100
AcDbLine
 10
405.8797935927087
 20
544.4971685025498
 30
0.0
 11
405.7115299930246
 21
544.4957828809078
 31
0.0
  0
LWPOLYLINE
  5
4BDA
330
1F
100
AcDbEntity
  8
HEWI
  6
CUSTOM
 62
    18
420
        0
370
     9
100
AcDbPolyline
 90
       24
 70
     0
 43
0.0
 10
394.5675974149835
 20
531.4743082022573
 10
394.4743778035208
 20
531.4341522904774
 10
394.3054919475344
 20
531.2750350498986
 10
394.1779037468732
 20
531.0813124487708
 10
394.0984915144672
 20
530.8634281226637
 10
394.0715363843174
 20
530.6331282719952
 10
394.0715363843174
 20
530.5885532948755
 10
394.0715363843174
 20
530.3897274891873
 10
394.0715363843174
 20
530.0482058880565
 10
394.0715363843174
 20
529.5838364855594
 10
394.0715363843174
 20
529.0236067434547
 10
394.0715363843174
 20
528.4000751780026
 10
394.0715363843174
 20
527.7494791773411
 10
394.0715363843174
 20
527.1096290162081
 10
394.0715363843174
 20
526.5177104602094
 10
394.0715363843174
 20
526.0081236642823
 10
394.0715363843174
 20
525.6104839607328
 10
394.0715363843174
 20
525.3479007237706
 10
394.0715363843174
 20
525.2356343366768
 10
394.0984915144672
 20
525.0053344860093
 10
394.1779037468732
 20
524.7874501599021
 10
394.3054919475344
 20
524.5937275587744
 10
394.4743778035208
 20
524.4346103181956
 10
394.5675974086735
 20
524.3944544091332
  0
LINE
  5
4BDB
330
1F
100
AcDbEntity
  8
HEWI
  6
CUSTOM
 62
    18
420
        0
370
     9
100
AcDbLine
 10
404.3734507299795
 20
543.0501449126272
 30
0.0
 11
404.3951081846699
 21
542.8832751711775
 31
0.0
  0
LINE
  5
4BDC
330
1F
100
AcDbEntity
  8
HEWI
  6
CUSTOM
 62
    18
420
        0
370
     9
100
AcDbLine
 10
406.2093648744831
 20
544.4299052152451
 30
0.0
 11
406.0456591082165
 21
544.4688279702354
 31
0.0
  0
LINE
  5
4BDD
330
1F
100
AcDbEntity
  8
HEWI
  6
CUSTOM
 62
    18
420
        0
370
     9
100
AcDbLine
 10
407.1346972601004
 20
542.827389235294
 30
0.0
 11
407.153603676843
 21
542.9945930132094
 31
0.0
  0
LINE
  5
4BDE
330
1F
100
AcDbEntity
  8
HEWI
  6
CUSTOM
 62
    18
420
        0
370
     9
100
AcDbLine
 10
405.9914935333745
 20
541.7292044849323
 30
0.0
 11
406.1545360976761
 21
541.7708179559135
 31
0.0
  0
LINE
  5
4BDF
330
1F
100
AcDbEntity
  8
HEWI
  6
CUSTOM
 62
    18
420
        0
370
     9
100
AcDbLine
 10
407.1077693800344
 20
543.4946716227937
 30
0.0
 11
407.0468067064666
 21
543.6515094649507
 31
0.0
  0
LINE
  5
4BE0
330
1F
100
AcDbEntity
  8
HEWI
  6
CUSTOM
 62
    18
420
        0
370
     9
100
AcDbLine
 10
405.6554018349324
 20
541.7156416573347
 30
0.0
 11
405.8236654346164
 21
541.7170272789776
 31
0.0
  0
LINE
  5
4BE1
330
1F
100
AcDbEntity
  8
HEWI
  6
CUSTOM
 62
    18
420
        0
370
     9
100
AcDbLine
 10
405.2206222070326
 20
544.3900049546932
 30
0.0
 11
405.0722761193119
 21
544.310582058048
 31
0.0
  0
LINE
  5
4BE2
330
1F
100
AcDbEntity
  8
HEWI
  6
CUSTOM
 62
    18
420
        0
370
     9
100
AcDbLine
 10
404.5069964615249
 20
543.7044815498443
 30
0.0
 11
404.4486249455749
 21
543.5466610112748
 31
0.0
  0
LINE
  5
4BE3
330
1F
100
AcDbEntity
  8
HEWI
  6
CUSTOM
 62
    18
420
        0
370
     9
100
AcDbLine
 10
404.559287271144
 20
542.408696801734
 30
0.0
 11
404.6560122345999
 21
542.2710057041718
 31
0.0
  0
LINE
  5
4BE4
330
1F
100
AcDbEntity
  8
HEWI
  6
CUSTOM
 62
    18
420
        0
370
     9
100
AcDbLine
 10
406.6058646795627
 20
541.9910040844756
 30
0.0
 11
406.7308929552982
 21
542.1036206367221
 31
0.0
  0
LINE
  5
4BE5
330
1F
100
AcDbEntity
  8
HEWI
  6
CUSTOM
 62
    18
420
        0
370
     9
100
AcDbLine
 10
405.5437018942702
 20
544.4836056749522
 30
0.0
 11
405.380659329965
 21
544.441992203972
 31
0.0
  0
LINE
  5
4BE6
330
1F
100
AcDbEntity
  8
HEWI
  6
CUSTOM
 62
    18
420
        0
370
     9
100
AcDbLine
 10
404.9293307480765
 20
544.2218060754089
 30
0.0
 11
404.8043024723429
 21
544.1091895231624
 31
0.0
  0
LINE
  5
4BE7
330
1F
100
AcDbEntity
  8
HEWI
  6
CUSTOM
 62
    18
420
        0
370
     9
100
AcDbLine
 10
404.4004981675406
 20
543.3854209245915
 30
0.0
 11
404.3815917508018
 21
543.2182171466751
 31
0.0
  0
LINE
  5
4BE8
330
1F
100
AcDbEntity
  8
HEWI
  6
CUSTOM
 62
    18
420
        0
370
     9
100
AcDbLine
 10
404.4274260476031
 20
542.7181385370909
 30
0.0
 11
404.4883887211763
 21
542.5613006949338
 31
0.0
  0
LINE
  5
4BE9
330
1F
100
AcDbEntity
  8
HEWI
  6
CUSTOM
 62
    18
420
        0
370
     9
100
AcDbLine
 10
404.7613711055819
 20
542.1398033354403
 30
0.0
 11
404.8882370556257
 21
542.0292610885776
 31
0.0
  0
LWPOLYLINE
  5
4BEA
330
1F
100
AcDbEntity
  8
HEWI
  6
CUSTOM
 62
    18
420
        0
370
     9
100
AcDbPolyline
 90
       26
 70
     1
 43
0.0
 10
419.8964976671686
 20
642.54688620964
 10
419.7524675967834
 20
642.8521130281483
 10
419.5395772157553
 20
643.1140018599058
 10
419.270198939199
 20
643.3173326779383
 10
418.9599880534023
 20
643.4502886341784
 10
418.6269728874776
 20
643.5051428117254
 10
418.2905070724009
 20
643.4787072851673
 10
417.9701447783463
 20
643.3725183912179
 10
417.6845042973727
 20
643.1927474424132
 10
417.450186015978
 20
642.9498420728555
 10
417.280807660958
 20
642.6579190596998
 10
417.1862128866433
 20
642.3339439073738
 10
417.171899197483
 20
641.9967448741276
 10
417.2386984530549
 20
641.665918742106
 10
417.3827285234383
 20
641.3606919235985
 10
417.5956189044682
 20
641.0988030918401
 10
417.8649971810209
 20
640.8954722738076
 10
418.1752080668193
 20
640.7625163175675
 10
418.5082232327459
 20
640.7076621400205
 10
418.8446890478226
 20
640.7340976665786
 10
419.1650513418753
 20
640.840286560528
 10
419.4506918228489
 20
641.0200575093336
 10
419.6850101042437
 20
641.2629628788904
 10
419.8543884592655
 20
641.554885892046
 10
419.9489832335802
 20
641.8788610443721
 10
419.9632969227405
 20
642.2160600776183
  0
LINE
  5
4BEB
330
1F
100
AcDbEntity
  8
HEWI
  6
CUSTOM
 62
    18
420
        0
370
     9
100
AcDbLine
 10
406.3145732206085
 20
541.8228052051922
 30
0.0
 11
406.4629193083273
 21
541.9022281018365
 31
0.0
  0
LINE
  5
4BEC
330
1F
100
AcDbEntity
  8
HEWI
  6
CUSTOM
 62
    18
420
        0
370
     9
100
AcDbLine
 10
406.773824322061
 20
544.0730068244452
 30
0.0
 11
406.6469583720154
 21
544.1835490713079
 31
0.0
  0
LINE
  5
4BED
330
1F
100
AcDbEntity
  8
HEWI
  6
CUSTOM
 62
    18
420
        0
370
     9
100
AcDbLine
 10
404.6867563181931
 20
543.9887841445865
 30
0.0
 11
404.5923120433708
 21
543.8495188014107
 31
0.0
  0
LINE
  5
4BEE
330
1F
100
AcDbEntity
  8
HEWI
  6
CUSTOM
 62
    18
420
        0
370
     9
100
AcDbLine
 10
407.1617446976579
 20
543.1626652472573
 30
0.0
 11
407.140087242973
 21
543.3295349887071
 31
0.0
  0
LINE
  5
4BEF
330
1F
100
AcDbEntity
  8
HEWI
  6
CUSTOM
 62
    18
420
        0
370
     9
100
AcDbLine
 10
405.0219331730041
 20
541.9270852490821
 30
0.0
 11
405.1715671217626
 21
541.8501161665012
 31
0.0
  0
LINE
  5
4BF0
330
1F
100
AcDbEntity
  8
HEWI
  6
CUSTOM
 62
    18
420
        0
370
     9
100
AcDbLine
 10
405.3258305531598
 20
541.7829049446404
 30
0.0
 11
405.4895363194246
 21
541.74398218965
 31
0.0
  0
LINE
  5
4BF1
330
1F
100
AcDbEntity
  8
HEWI
  6
CUSTOM
 62
    18
420
        0
370
     9
100
AcDbLine
 10
407.028198966118
 20
542.5083286100402
 30
0.0
 11
407.0865704820644
 21
542.6661491486097
 31
0.0
  0
LWPOLYLINE
  5
4BF2
330
1F
100
AcDbEntity
  8
HEWI
  6
CUSTOM
 62
    18
420
        0
370
     9
100
AcDbPolyline
 90
       26
 70
     1
 43
0.0
 10
421.1364001143101
 20
644.7693437051034
 10
420.4244718119862
 20
645.3067180099037
 10
419.604628756666
 20
645.6581016085396
 10
418.7245172467137
 20
645.8030733634855
 10
417.8352861640178
 20
645.7332080432957
 10
416.9886143868734
 20
645.45256596643
 10
416.2337074014467
 20
644.9774570303011
 10
415.614437657754
 20
644.3354928393286
 10
415.1667948623471
 20
643.5639820188457
 10
414.9167943873744
 20
642.7077619734113
 10
414.8789653517305
 20
641.8165930998334
 10
415.0555062414642
 20
640.9422668937764
 10
415.4361571417612
 20
640.1355960162905
 10
415.9987960059097
 20
639.4434612466453
 10
416.7107243082337
 20
638.9060869418449
 10
417.5305673635539
 20
638.5547033432098
 10
418.4106788735025
 20
638.4097315882631
 10
419.2999099562021
 20
638.479596908453
 10
420.1465817333446
 20
638.7602389853196
 10
420.9014887187713
 20
639.2353479214476
 10
421.520758462464
 20
639.8773121124208
 10
421.9684012578746
 20
640.6488229329029
 10
422.2184017328454
 20
641.5050429783373
 10
422.2562307684874
 20
642.3962118519153
 10
422.0796898787539
 20
643.2705380579732
 10
421.6990389784569
 20
644.0772089354591
  0
LWPOLYLINE
  5
4BF3
330
1F
100
AcDbEntity
  8
HEWI
  6
CUSTOM
 62
    18
420
        0
370
     9
100
AcDbPolyline
 90
       92
 70
     1
 43
0.0
 10
409.026720897973
 20
502.1064061583961
 10
396.5675974649257
 20
502.1064061583961
 10
396.122555584976
 20
502.1064061583961
 10
395.6998299632178
 20
502.1064061583961
 10
395.3206178274759
 20
502.1064061583961
 10
395.0039344576889
 20
502.1064061583961
 10
394.7656596803736
 20
502.1064061583961
 10
394.6177415878137
 20
502.1064061583961
 10
394.5675974108217
 20
502.1064061583961
 10
394.5675974108217
 20
650.1064022654422
 10
394.6177415878137
 20
650.1064022654422
 10
394.7656596803736
 20
650.1064022654422
 10
395.0039344576889
 20
650.1064022654422
 10
395.3206178274759
 20
650.1064022654422
 10
395.6998299632178
 20
650.1064022654422
 10
396.122555584976
 20
650.1064022654422
 10
396.5675974649257
 20
650.1064022654422
 10
396.8733432964327
 20
650.1064022654422
 10
397.3376182498232
 20
650.1610362883297
 10
397.7765279941159
 20
650.3219534804543
 10
398.1660931236675
 20
650.5803622880307
 10
398.4850301277129
 20
650.9221447979767
 10
398.7159141942139
 20
651.3286280563329
 10
398.8461311974697
 20
651.7776042468735
 10
400.0105302162737
 20
658.7639979869368
 10
400.2709642227837
 20
659.661950368018
 10
400.7327323557874
 20
660.4749168847297
 10
401.3706063638765
 20
661.1584819046225
 10
402.1497366229795
 20
661.6752995197725
 10
403.0275561115649
 20
661.9971339040244
 10
403.9561060183441
 20
662.1064019497976
 10
425.0675982359498
 20
662.1064019497976
 10
425.9576819958547
 20
662.0061136011631
 10
426.8031332393711
 20
661.7102774318269
 10
427.5615575108568
 20
661.2337279026246
 10
428.1949242504288
 20
660.6003611968476
 10
428.6714738050559
 20
659.8419369658317
 10
428.9673099901774
 20
658.9964857674253
 10
429.0675983441633
 20
658.1064020550134
 10
429.0675983441633
 20
637.1064026073914
 10
428.3518136880029
 20
631.2499830058418
 10
426.4003102428833
 20
631.4885000808522
 10
426.3882565782787
 20
631.4885095856084
 10
426.3765508966243
 20
631.4856341835771
 10
426.3658734895889
 20
631.4800409826707
 10
426.3568448892565
 20
631.4720550393963
 10
426.3499898050631
 20
631.4621404677486
 10
426.345706629585
 20
631.4508734665946
 10
426.3442442854138
 20
631.4389088330868
 10
426.3456877586704
 20
631.4269419082352
 10
426.3499531599463
 20
631.4156681662147
 10
426.3567925996121
 20
631.4057427959328
 10
426.3658085943043
 20
631.397742623832
 10
426.3764771671758
 20
631.3921325908372
 10
426.3881782995577
 20
631.3892387316732
 10
426.4874396540326
 20
631.3771067889961
 10
426.8384659230577
 20
631.3342035806267
 10
427.1697024320801
 20
631.2937191205723
 10
427.4624751056926
 20
631.2579357957069
 10
427.7002783388834
 20
631.2288709576455
 10
427.8697055312695
 20
631.2081631907926
 10
427.9612049091793
 20
631.196979934089
 10
427.9696180246828
 20
631.1959516644715
 10
423.1168406947872
 20
591.4914119929485
 10
423.1084275792836
 20
591.492440262566
 10
423.0169282013758
 20
591.5036235192697
 10
422.8475010089914
 20
591.5243312861226
 10
422.6096977757988
 20
591.553396124184
 10
422.3169251021845
 20
591.5891794490494
 10
421.9856885931622
 20
591.6296639091028
 10
421.6346623241388
 20
591.6725671174722
 10
421.5354009696638
 20
591.6846990601493
 10
421.5233473050593
 20
591.6847085649074
 10
421.5116416234049
 20
591.6818331628751
 10
421.5009642163695
 20
591.6762399619687
 10
421.4919356160371
 20
591.6682540186934
 10
421.4850805318474
 20
591.6583394470467
 10
421.4807973563656
 20
591.6470724458918
 10
421.4793350121945
 20
591.6351078123848
 10
421.480778485451
 20
591.6231408875332
 10
421.4850438867269
 20
591.6118671455128
 10
421.4918833263928
 20
591.6019417752299
 10
421.5008993210849
 20
591.5939416031301
 10
421.5115678939601
 20
591.5883315701353
 10
421.5232690263401
 20
591.5854377109712
 10
423.4747724714598
 20
591.3469206359609
 10
412.9971750769746
 20
505.6211283460847
 10
412.7658530993703
 20
504.6855292004152
 10
412.3174614895342
 20
503.8324168990889
 10
411.6780309403147
 20
503.111317579061
 10
410.8846826195822
 20
502.5640935644673
 10
409.9834731573118
 20
502.2225131130739
  0
LWPOLYLINE
  5
4BF4
330
1F
100
AcDbEntity
  8
HEWI
  6
CUSTOM
 62
    18
420
        0
370
     9
100
AcDbPolyline
 90
       14
 70
     0
 43
0.0
 10
397.1429651224316
 20
653.0930291198196
 10
397.1424957394556
 20
653.1163714955487
 10
397.1377498927777
 20
653.3523820493651
 10
397.1290033937603
 20
653.7873447057441
 10
397.1167645571313
 20
654.3959810161227
 10
397.1017446595906
 20
655.1429192504443
 10
397.0848166029864
 20
655.9847500735391
 10
397.0669641844415
 20
656.8725493379002
 10
397.0492249216259
 20
657.7547213773027
 10
397.0326297560168
 20
658.5799975593795
 10
397.0181431383189
 20
659.3004158321877
 10
397.0066069780969
 20
659.8741081043231
 10
396.9986917150509
 20
660.2677334662171
 10
396.9948573554957
 20
660.4584158426064
  0
LWPOLYLINE
  5
4BF5
330
1F
100
AcDbEntity
  8
HEWI
  6
CUSTOM
 62
    18
420
        0
370
     9
100
AcDbPolyline
 90
       18
 70
     0
 43
0.0
 10
397.1429651224316
 20
653.0930291198196
 10
396.8673803849124
 20
654.2202980541437
 10
396.7592449859676
 20
655.3754805272488
 10
396.7590673815994
 20
655.3843127775248
 10
396.7572716558279
 20
655.4736140681575
 10
396.7539621697124
 20
655.6381945327343
 10
396.7493312585557
 20
655.8684893528766
 10
396.7436480540837
 20
656.1511146307289
 10
396.7372428434755
 20
656.4696452124394
 10
396.7304878742962
 20
656.8055692584144
 10
396.7237757207986
 20
657.1393640841338
 10
396.7174964689457
 20
657.4516307476228
 10
396.7120150460342
 20
657.7242214454422
 10
396.7076500124349
 20
657.9412941970599
 10
396.704655048039
 20
658.0902335231826
 10
396.7032042092887
 20
658.1623836115463
 10
396.7651376101185
 20
659.3048225970119
 10
396.9948573554957
 20
660.4584158426064
  0
LINE
  5
4BF6
330
1F
100
AcDbEntity
  8
HEWI
  6
CUSTOM
 62
    18
420
        0
370
     9
100
AcDbLine
 10
397.6428640774557
 20
653.1030813971569
 30
0.0
 11
397.1429651224316
 21
653.0930291198196
 31
0.0
  0
LWPOLYLINE
  5
4BF7
330
1F
100
AcDbEntity
  8
HEWI
  6
CUSTOM
 62
    18
420
        0
370
     9
100
AcDbPolyline
 90
       26
 70
     0
 43
0.0
 10
415.8199156026585
 20
526.9402590438644
 10
417.5257584689315
 20
526.3705155705233
 10
417.9854468232078
 20
526.3329633520529
 10
418.2093551816197
 20
526.3943376520924
 10
418.413065676259
 20
526.5056915477885
 10
418.5855962216355
 20
526.6610219218032
 10
418.717645651388
 20
526.8519548734661
 10
418.7489494243254
 20
526.9108287045524
 10
418.8521551879476
 20
527.1049305052197
 10
419.0212649984132
 20
527.4229797843422
 10
419.2464508082266
 20
527.846492673882
 10
419.514625636637
 20
528.3508561441045
 10
419.8102041373967
 20
528.9067584234067
 10
420.1160083624236
 20
529.4818924919386
 10
420.4142660817105
 20
530.042833648165
 10
420.6876436407346
 20
530.5569820310234
 10
420.9202533294574
 20
530.994457205355
 10
421.0985767182664
 20
531.3298347041859
 10
421.2122502999882
 20
531.5436236063319
 10
421.2546677792361
 20
531.6233992778911
 10
421.339117274425
 20
531.839641562357
 10
421.3714141409073
 20
532.0695355020975
 10
421.3498172462496
 20
532.3006874553152
 10
421.2754908846346
 20
532.5206359603803
 10
420.9873042174094
 20
532.8807359233292
 10
419.565759651734
 20
533.9851667061207
  0
LINE
  5
4BF8
330
1F
100
AcDbEntity
  8
HEWI
  6
CUSTOM
 62
    18
420
        0
370
     9
100
AcDbLine
 10
397.4947563105197
 20
660.4684681199428
 30
0.0
 11
396.9948573554957
 21
660.4584158426064
 31
0.0
  0
LWPOLYLINE
  5
4BF9
330
1F
100
AcDbEntity
  8
HEWI
  6
CUSTOM
 62
    18
420
        0
370
     9
100
AcDbPolyline
 90
        3
 70
     0
 43
0.0
 10
417.5395538463671
 20
533.369509645106
 10
417.0395933077416
 20
533.4942478848329
 10
416.4136391867669
 20
533.5740150653841
  0
LWPOLYLINE
  5
4BFA
330
1F
100
AcDbEntity
  8
HEWI
  6
CUSTOM
 62
    18
420
        0
370
     9
100
AcDbPolyline
 90
       17
 70
     0
 43
0.0
 10
431.4880055291032
 20
656.5700689632481
 10
431.6352387906026
 20
656.5868147469569
 10
431.7777096364206
 20
656.6034508495682
 10
431.9676457429468
 20
656.6268032276134
 10
432.1371728464782
 20
656.6496855748978
 10
432.2799566145749
 20
656.6719520082028
 10
432.3896627148115
 20
656.6934566443073
 10
432.4599568147496
 20
656.7140535999911
 10
432.484504581962
 20
656.7335969920336
 10
432.4492380619122
 20
656.9747708235714
 10
432.356673874623
 20
657.2002490186746
 10
432.2123111240016
 20
657.3966362452942
 10
432.02472619137
 20
657.552265423557
 10
431.8050632251015
 20
657.6578908500437
 10
431.566372082947
 20
657.7072374715921
 10
431.32283305895
 20
657.6973736770947
 10
429.0675984099507
 20
657.3272839358992
  0
LWPOLYLINE
  5
4BFB
330
1F
100
AcDbEntity
  8
HEWI
  6
CUSTOM
 62
    18
420
        0
370
     9
100
AcDbPolyline
 90
        9
 70
     0
 43
0.0
 10
429.1033337406879
 20
549.4682794091036
 10
429.0950586732633
 20
549.8275875062977
 10
429.1748267471357
 20
550.7197443439913
 10
429.4511184522071
 20
551.5717828817527
 10
429.9100793686884
 20
552.340978349494
 10
430.5286952797778
 20
552.9887600745828
 10
431.275946200576
 20
553.4826455764227
 10
432.1143618496662
 20
553.7978693736654
 10
432.4452575956001
 20
553.8428899070891
  0
LINE
  5
4BFC
330
1F
100
AcDbEntity
  8
HEWI
  6
CUSTOM
 62
    18
420
        0
370
     9
100
AcDbLine
 10
432.0145270673365
 20
656.633131152314
 30
0.0
 11
431.9255525166627
 21
656.6216279244413
 31
0.0
  0
LINE
  5
4BFD
330
1F
100
AcDbEntity
  8
HEWI
  6
CUSTOM
 62
    18
420
        0
370
     9
100
AcDbLine
 10
432.4097410794183
 20
656.6993398291401
 30
0.0
 11
432.3663295525639
 21
656.6888828680908
 31
0.0
  0
LINE
  5
4BFE
330
1F
100
AcDbEntity
  8
HEWI
  6
CUSTOM
 62
    18
420
        0
370
     9
100
AcDbLine
 10
431.6690268405273
 20
656.5907601258354
 30
0.0
 11
431.4880055291032
 21
656.5700689632471
 31
0.0
  0
LINE
  5
4BFF
330
1F
100
AcDbEntity
  8
HEWI
  6
CUSTOM
 62
    18
420
        0
370
     9
100
AcDbLine
 10
432.3110803935287
 20
656.6780529045322
 30
0.0
 11
432.2493326007715
 21
656.6671763423569
 31
0.0
  0
LINE
  5
4C00
330
1F
100
AcDbEntity
  8
HEWI
  6
CUSTOM
 62
    18
420
        0
370
     9
100
AcDbLine
 10
429.0675981703334
 20
656.1728739603272
 30
0.0
 11
431.4880055291032
 21
656.5700689632481
 31
0.0
  0
LINE
  5
4C01
330
1F
100
AcDbEntity
  8
HEWI
  6
CUSTOM
 62
    18
420
        0
370
     9
100
AcDbLine
 10
417.3515398442996
 20
641.4267866032982
 30
0.0
 11
417.4434559398232
 21
641.2859876004627
 31
0.0
  0
LINE
  5
4C02
330
1F
100
AcDbEntity
  8
HEWI
  6
CUSTOM
 62
    18
420
        0
370
     9
100
AcDbLine
 10
419.095679183456
 20
640.8172921169075
 30
0.0
 11
419.2465308715072
 21
640.8915665913514
 31
0.0
  0
LINE
  5
4C03
330
1F
100
AcDbEntity
  8
HEWI
  6
CUSTOM
 62
    18
420
        0
370
     9
100
AcDbLine
 10
419.3888384241144
 20
640.9811293991656
 30
0.0
 11
419.5175315901342
 21
641.0893467623796
 31
0.0
  0
LINE
  5
4C04
330
1F
100
AcDbEntity
  8
HEWI
  6
CUSTOM
 62
    18
420
        0
370
     9
100
AcDbLine
 10
432.4625178263249
 20
656.716092516895
 30
0.0
 11
432.4500119832046
 21
656.7111396533241
 31
0.0
  0
LINE
  5
4C05
330
1F
100
AcDbEntity
  8
HEWI
  6
CUSTOM
 62
    18
420
        0
370
     9
100
AcDbLine
 10
419.634270159906
 20
641.2103634624413
 30
0.0
 11
419.7333256248657
 21
641.3462345146285
 31
0.0
  0
LINE
  5
4C06
330
1F
100
AcDbEntity
  8
HEWI
  6
CUSTOM
 62
    18
420
        0
370
     9
100
AcDbLine
 10
418.1080341232245
 20
640.7913069770097
 30
0.0
 11
418.2702013226717
 21
640.7468690524024
 31
0.0
  0
LINE
  5
4C07
330
1F
100
AcDbEntity
  8
HEWI
  6
CUSTOM
 62
    18
420
        0
370
     9
100
AcDbLine
 10
419.9109625669352
 20
642.4752481821419
 30
0.0
 11
419.8554127947899
 21
642.6339527821324
 31
0.0
  0
LINE
  5
4C08
330
1F
100
AcDbEntity
  8
HEWI
  6
CUSTOM
 62
    18
420
        0
370
     9
100
AcDbLine
 10
419.7836562759075
 20
642.7860183484476
 30
0.0
 11
419.6917401803857
 21
642.9268173512824
 31
0.0
  0
LINE
  5
4C09
330
1F
100
AcDbEntity
  8
HEWI
  6
CUSTOM
 62
    18
420
        0
370
     9
100
AcDbLine
 10
419.585677101566
 20
643.0572917105405
 30
0.0
 11
419.4627365120377
 21
643.1720023899611
 31
0.0
  0
LINE
  5
4C0A
330
1F
100
AcDbEntity
  8
HEWI
  6
CUSTOM
 62
    18
420
        0
370
     9
100
AcDbLine
 10
432.1772827936583
 20
656.6559405258381
 30
0.0
 11
432.1003584026603
 21
656.644716452743
 31
0.0
  0
LWPOLYLINE
  5
4C0B
330
1F
100
AcDbEntity
  8
HEWI
  6
CUSTOM
 62
    18
420
        0
370
     9
100
AcDbPolyline
 90
        4
 70
     0
 43
0.0
 10
432.4866547208857
 20
656.6402365064637
 10
432.3940573272339
 20
656.6331092725526
 10
431.9537983013742
 20
656.6018831461337
 10
431.4880055291032
 20
656.5700689632481
  0
LINE
  5
4C0C
330
1F
100
AcDbEntity
  8
HEWI
  6
CUSTOM
 62
    18
420
        0
370
     9
100
AcDbLine
 10
431.8287449472846
 20
656.609725569498
 30
0.0
 11
431.7190192842153
 21
656.5965976669781
 31
0.0
  0
LWPOLYLINE
  5
4C0D
330
1F
100
AcDbEntity
  8
HEWI
  6
CUSTOM
 62
    18
420
        0
370
     9
100
AcDbPolyline
 90
        5
 70
     0
 43
0.0
 10
432.4449394512921
 20
658.4515371321153
 10
432.1253567973835
 20
658.6052091629112
 10
431.6479745130691
 20
658.7039024060118
 10
431.1608964650713
 20
658.6841748170186
 10
429.0416831249658
 20
658.3364065185301
  0
LINE
  5
4C0E
330
1F
100
AcDbEntity
  8
HEWI
  6
CUSTOM
 62
    18
420
        0
370
     9
100
AcDbLine
 10
419.8177107904521
 20
641.4916720562064
 30
0.0
 11
419.8813718107794
 21
641.6473004656877
 31
0.0
  0
LINE
  5
4C0F
330
1F
100
AcDbEntity
  8
HEWI
  6
CUSTOM
 62
    18
420
        0
370
     9
100
AcDbLine
 10
418.4361111857088
 20
640.7195404191502
 30
0.0
 11
418.6042007930828
 21
640.7152029288586
 31
0.0
  0
LINE
  5
4C10
330
1F
100
AcDbEntity
  8
HEWI
  6
CUSTOM
 62
    18
420
        0
370
     9
100
AcDbLine
 10
418.7718297873998
 20
640.7283732429873
 30
0.0
 11
418.936073045701
 21
640.7643882661837
 31
0.0
  0
LINE
  5
4C11
330
1F
100
AcDbEntity
  8
HEWI
  6
CUSTOM
 62
    18
420
        0
370
     9
100
AcDbLine
 10
419.9284994130848
 20
641.8087065475106
 30
0.0
 11
419.9530662416782
 21
641.97504775681
 31
0.0
  0
LINE
  5
4C12
330
1F
100
AcDbEntity
  8
HEWI
  6
CUSTOM
 62
    18
420
        0
370
     9
100
AcDbLine
 10
419.960197395756
 20
642.1430420440897
 30
0.0
 11
419.9442422978336
 21
642.3104289067492
 31
0.0
  0
LINE
  5
4C13
330
1F
100
AcDbEntity
  8
HEWI
  6
CUSTOM
 62
    18
420
        0
370
     9
100
AcDbLine
 10
417.5495190186393
 20
641.1555132412035
 30
0.0
 11
417.6724596081694
 21
641.0408025617839
 31
0.0
  0
LINE
  5
4C14
330
1F
100
AcDbEntity
  8
HEWI
  6
CUSTOM
 62
    18
420
        0
370
     9
100
AcDbLine
 10
417.8066652463021
 20
640.9395021050872
 30
0.0
 11
417.9534854696466
 21
640.8575463168149
 31
0.0
  0
LINE
  5
4C15
330
1F
100
AcDbEntity
  8
HEWI
  6
CUSTOM
 62
    18
420
        0
370
     9
100
AcDbLine
 10
417.2242335532719
 20
641.7375567696031
 30
0.0
 11
417.2797833254153
 21
641.5788521696127
 31
0.0
  0
LINE
  5
4C16
330
1F
100
AcDbEntity
  8
HEWI
  6
CUSTOM
 62
    18
420
        0
370
     9
100
AcDbLine
 10
417.1749987244493
 20
642.0697629076562
 30
0.0
 11
417.1909538223753
 21
641.9023760449959
 31
0.0
  0
LINE
  5
4C17
330
1F
100
AcDbEntity
  8
HEWI
  6
CUSTOM
 62
    18
420
        0
370
     9
100
AcDbLine
 10
417.2066967071223
 20
642.4040984042354
 30
0.0
 11
417.1821298785308
 21
642.237757194935
 31
0.0
  0
LINE
  5
4C18
330
1F
100
AcDbEntity
  8
HEWI
  6
CUSTOM
 62
    18
420
        0
370
     9
100
AcDbLine
 10
419.0271619969844
 20
643.4214979747344
 30
0.0
 11
418.8649947975354
 21
643.4659358993435
 31
0.0
  0
LINE
  5
4C19
330
1F
100
AcDbEntity
  8
HEWI
  6
CUSTOM
 62
    18
420
        0
370
     9
100
AcDbLine
 10
418.0395169367529
 20
643.3955128348365
 30
0.0
 11
417.8886652486998
 21
643.3212383603927
 31
0.0
  0
LINE
  5
4C1A
330
1F
100
AcDbEntity
  8
HEWI
  6
CUSTOM
 62
    18
420
        0
370
     9
100
AcDbLine
 10
418.3633663328055
 20
643.4844317087577
 30
0.0
 11
418.1991230745061
 21
643.4484166855614
 31
0.0
  0
LINE
  5
4C1B
330
1F
100
AcDbEntity
  8
HEWI
  6
CUSTOM
 62
    18
420
        0
370
     9
100
AcDbLine
 10
417.5009259603012
 20
643.0024414893036
 30
0.0
 11
417.4018704953432
 21
642.8665704371155
 31
0.0
  0
LINE
  5
4C1C
330
1F
100
AcDbEntity
  8
HEWI
  6
CUSTOM
 62
    18
420
        0
370
     9
100
AcDbLine
 10
418.6990849344965
 20
643.4932645325948
 30
0.0
 11
418.5309953271225
 21
643.4976020228864
 31
0.0
  0
LINE
  5
4C1D
330
1F
100
AcDbEntity
  8
HEWI
  6
CUSTOM
 62
    18
420
        0
370
     9
100
AcDbLine
 10
419.328530873905
 20
643.2733028466578
 30
0.0
 11
419.1817106505641
 21
643.3552586349301
 31
0.0
  0
LINE
  5
4C1E
330
1F
100
AcDbEntity
  8
HEWI
  6
CUSTOM
 62
    18
420
        0
370
     9
100
AcDbLine
 10
417.3174853297551
 20
642.7211328955377
 30
0.0
 11
417.2538243094295
 21
642.5655044860572
 31
0.0
  0
LINE
  5
4C1F
330
1F
100
AcDbEntity
  8
HEWI
  6
CUSTOM
 62
    18
420
        0
370
     9
100
AcDbLine
 10
417.7463576960926
 20
643.2316755525794
 30
0.0
 11
417.6176645300729
 21
643.1234581893654
 31
0.0
  0
LINE
  5
4C20
330
1F
100
AcDbEntity
  8
HEWI
  6
CUSTOM
 62
    18
420
        0
370
     9
100
AcDbLine
 10
432.4920273351599
 20
560.719330366503
 30
0.0
 11
432.624793761779
 21
560.8227703145543
 31
0.0
  0
LINE
  5
4C21
330
1F
100
AcDbEntity
  8
HEWI
  6
CUSTOM
 62
    18
420
        0
370
     9
100
AcDbLine
 10
433.0088342071303
 20
562.2120235960188
 30
0.0
 11
432.9591957941138
 21
562.3728426658604
 31
0.0
  0
LINE
  5
4C22
330
1F
100
AcDbEntity
  8
HEWI
  6
CUSTOM
 62
    18
420
        0
370
     9
100
AcDbLine
 10
430.4197297066675
 20
562.4499721063407
 30
0.0
 11
430.3502418175521
 21
562.2966809494187
 31
0.0
  0
LINE
  5
4C23
330
1F
100
AcDbEntity
  8
HEWI
  6
CUSTOM
 62
    18
420
        0
370
     9
100
AcDbLine
 10
430.3294877351636
 20
561.468054340608
 30
0.0
 11
430.3791261481801
 21
561.3072352707663
 31
0.0
  0
LINE
  5
4C24
330
1F
100
AcDbEntity
  8
HEWI
  6
CUSTOM
 62
    18
420
        0
370
     9
100
AcDbLine
 10
432.4252493390067
 20
563.0068410903236
 30
0.0
 11
432.2814516785638
 21
563.0942995379768
 31
0.0
  0
LINE
  5
4C25
330
1F
100
AcDbEntity
  8
HEWI
  6
CUSTOM
 62
    18
420
        0
370
     9
100
AcDbLine
 10
430.3100693465767
 20
562.1332401007707
 30
0.0
 11
430.2792856262367
 21
561.9677737668184
 31
0.0
  0
LINE
  5
4C26
330
1F
100
AcDbEntity
  8
HEWI
  6
CUSTOM
 62
    18
420
        0
370
     9
100
AcDbLine
 10
430.8462946071358
 20
562.9607475701245
 30
0.0
 11
430.7135281805167
 21
562.8573076220732
 31
0.0
  0
LINE
  5
4C27
330
1F
100
AcDbEntity
  8
HEWI
  6
CUSTOM
 62
    18
420
        0
370
     9
100
AcDbLine
 10
433.0589274906833
 20
561.8806096255006
 30
0.0
 11
433.0492180043184
 21
562.0486348346016
 31
0.0
  0
LINE
  5
4C28
330
1F
100
AcDbEntity
  8
HEWI
  6
CUSTOM
 62
    18
420
        0
370
     9
100
AcDbLine
 10
432.6825128249929
 20
562.7919921608749
 30
0.0
 11
432.5638238408319
 21
562.9113222557848
 31
0.0
  0
LINE
  5
4C29
330
1F
100
AcDbEntity
  8
HEWI
  6
CUSTOM
 62
    18
420
        0
370
     9
100
AcDbLine
 10
430.4574379576788
 20
561.1582587645439
 30
0.0
 11
430.5441204932085
 21
561.0139920537462
 31
0.0
  0
LWPOLYLINE
  5
4C2A
330
1F
100
AcDbEntity
  8
HEWI
  6
CUSTOM
 62
    18
420
        0
370
     9
100
AcDbPolyline
 90
       30
 70
     0
 43
0.0
 10
536.569474132606
 20
667.7778650892892
 10
536.6198375502554
 20
667.7729455909643
 10
536.8365849631937
 20
667.7262835618089
 10
536.8844349384726
 20
667.710287330688
 10
537.0866910907698
 20
667.6181652631162
 10
537.1304675717674
 20
667.5925821109644
 10
537.3113682349849
 20
667.461555176746
 10
537.3495111697739
 20
667.4278749153304
 10
537.5021921154711
 20
667.2644982862352
 10
537.5331414521351
 20
667.2242107273218
 10
537.6507384518699
 20
667.0350395751206
 10
537.6729341384943
 20
666.9896345304746
 10
537.7485829638244
 20
666.7812240269372
 10
537.7547807554146
 20
666.7567743983741
 10
537.7873013709758
 20
666.5110966252236
 10
544.8419947132097
 20
360.19233068308
 10
544.8208187730542
 20
359.9454162482029
 10
544.8157531330379
 20
359.9207072165077
 10
544.7497790475172
 20
359.7090350580834
 10
544.729697192577
 20
359.6626563379982
 10
544.6209336918927
 20
359.4682719768066
 10
544.5918718757948
 20
359.4266023274636
 10
544.4468741320616
 20
359.2563699915759
 10
544.4103221666501
 20
359.2209694648104
 10
544.2356453519951
 20
359.0817533823024
 10
544.1930930491162
 20
359.0541820299509
 10
543.9952923356559
 20
358.9528464288965
 10
543.9482295071484
 20
358.9346643027925
 10
543.7338600670082
 20
358.8780734112674
 10
543.6837765247255
 20
358.8708405632465
  0
LINE
  5
4C2B
330
1F
100
AcDbEntity
  8
HEWI
  6
CUSTOM
 62
    18
420
        0
370
     9
100
AcDbLine
 10
432.7363194719455
 20
560.9488209216829
 30
0.0
 11
432.840473146296
 21
561.0810281767239
 31
0.0
  0
LINE
  5
4C2C
330
1F
100
AcDbEntity
  8
HEWI
  6
CUSTOM
 62
    18
420
        0
370
     9
100
AcDbLine
 10
430.6020024703484
 20
562.7312570149447
 30
0.0
 11
430.4978487959979
 21
562.5990497599036
 31
0.0
  0
LINE
  5
4C2D
330
1F
100
AcDbEntity
  8
HEWI
  6
CUSTOM
 62
    18
420
        0
370
     9
100
AcDbLine
 10
433.0282525957172
 20
561.5468378358559
 30
0.0
 11
433.0590363160572
 21
561.7123041698091
 31
0.0
  0
LINE
  5
4C2E
330
1F
100
AcDbEntity
  8
HEWI
  6
CUSTOM
 62
    18
420
        0
370
     9
100
AcDbLine
 10
432.1999131962948
 20
560.554971321651
 30
0.0
 11
432.3535764730495
 21
560.6236324089199
 31
0.0
  0
LINE
  5
4C2F
330
1F
100
AcDbEntity
  8
HEWI
  6
CUSTOM
 62
    18
420
        0
370
     9
100
AcDbLine
 10
432.9185922356282
 20
561.2301058302868
 30
0.0
 11
432.9880801247436
 21
561.383396987208
 31
0.0
  0
LINE
  5
4C30
330
1F
100
AcDbEntity
  8
HEWI
  6
CUSTOM
 62
    18
420
        0
370
     9
100
AcDbLine
 10
432.1240447453528
 20
563.1538797215949
 30
0.0
 11
431.9634954059656
 21
563.2043837549121
 31
0.0
  0
LINE
  5
4C31
330
1F
100
AcDbEntity
  8
HEWI
  6
CUSTOM
 62
    18
420
        0
370
     9
100
AcDbLine
 10
431.138408746001
 20
563.1251066149766
 30
0.0
 11
430.9847454692444
 21
563.0564455277067
 31
0.0
  0
LINE
  5
4C32
330
1F
100
AcDbEntity
  8
HEWI
  6
CUSTOM
 62
    18
420
        0
370
     9
100
AcDbLine
 10
430.9130726032872
 20
560.673236846303
 30
0.0
 11
431.0568702637319
 21
560.5857783986498
 31
0.0
  0
LINE
  5
4C33
330
1F
100
AcDbEntity
  8
HEWI
  6
CUSTOM
 62
    18
420
        0
370
     9
100
AcDbLine
 10
536.3462087437165
 20
667.772723162448
 30
0.0
 11
536.569474132606
 21
667.7778650892892
 31
0.0
  0
LINE
  5
4C34
330
1F
100
AcDbEntity
  8
HEWI
  6
CUSTOM
 62
    18
420
        0
370
     9
100
AcDbLine
 10
431.5419179821183
 20
560.4555152327252
 30
0.0
 11
431.7098884564201
 21
560.4449007245853
 31
0.0
  0
LINE
  5
4C35
330
1F
100
AcDbEntity
  8
HEWI
  6
CUSTOM
 62
    18
420
        0
370
     9
100
AcDbLine
 10
430.2793944516106
 20
561.799468311126
 30
0.0
 11
430.2891039379773
 21
561.6314431020259
 31
0.0
  0
LINE
  5
4C36
330
1F
100
AcDbEntity
  8
HEWI
  6
CUSTOM
 62
    18
420
        0
370
     9
100
AcDbLine
 10
431.7964039601738
 20
563.2245627039014
 30
0.0
 11
431.6284334858737
 21
563.2351772120423
 31
0.0
  0
LINE
  5
4C37
330
1F
100
AcDbEntity
  8
HEWI
  6
CUSTOM
 62
    18
420
        0
370
     9
100
AcDbLine
 10
431.8769536673098
 20
560.4652957373914
 30
0.0
 11
432.0425834431025
 21
560.4951876310601
 31
0.0
  0
LWPOLYLINE
  5
4C38
330
1F
100
AcDbEntity
  8
HEWI
  6
CUSTOM
 62
    18
420
        0
370
     9
100
AcDbPolyline
 90
       16
 70
     0
 43
0.0
 10
536.8739702475123
 20
358.7118155136791
 10
537.6554170695944
 20
358.7422046916913
 10
538.0347604412527
 20
358.7509411818132
 10
538.4048374676385
 20
358.7594642628187
 10
539.1486237200279
 20
358.7765940764189
 10
539.7142027889058
 20
358.789619678862
 10
540.562376144313
 20
358.809153585858
 10
540.8665030450483
 20
358.8161577985652
 10
541.7435711258476
 20
358.8363571672557
 10
541.8340348017009
 20
358.838440596332
 10
542.5890946244944
 20
358.8558300465661
 10
542.6334018784636
 20
358.856850467419
 10
543.1451594272439
 20
358.8686365301369
 10
543.1846188557974
 20
358.8695453028572
 10
543.4605111358323
 20
358.8656986364063
 10
543.6837765247255
 20
358.8708405632465
  0
LINE
  5
4C39
330
1F
100
AcDbEntity
  8
HEWI
  6
CUSTOM
 62
    18
420
        0
370
     9
100
AcDbLine
 10
431.4613682749859
 20
563.2147821992361
 30
0.0
 11
431.2957384991914
 21
563.1848903055675
 31
0.0
  0
LINE
  5
4C3A
330
1F
100
AcDbEntity
  8
HEWI
  6
CUSTOM
 62
    18
420
        0
370
     9
100
AcDbLine
 10
431.2142771969429
 20
560.5261982150318
 30
0.0
 11
431.3748265363301
 21
560.4756941817154
 31
0.0
  0
LINE
  5
4C3B
330
1F
100
AcDbEntity
  8
HEWI
  6
CUSTOM
 62
    18
420
        0
370
     9
100
AcDbLine
 10
432.8808839846151
 20
562.5218191720837
 30
0.0
 11
432.7942014490836
 21
562.6660858828804
 31
0.0
  0
LINE
  5
4C3C
330
1F
100
AcDbEntity
  8
HEWI
  6
CUSTOM
 62
    18
420
        0
370
     9
100
AcDbLine
 10
430.655809117301
 20
560.8880857757526
 30
0.0
 11
430.7744981014602
 21
560.7687556808428
 31
0.0
  0
LWPOLYLINE
  5
4C3D
330
1F
100
AcDbEntity
  8
HEWI
  6
CUSTOM
 62
    18
420
        0
370
     9
100
AcDbPolyline
 90
       16
 70
     0
 43
0.0
 10
440.2833412555391
 20
665.560341569369
 10
529.7595669705369
 20
667.6232205171231
 10
531.3770191315215
 20
667.6540049138716
 10
531.5362207629223
 20
667.6576714165289
 10
532.8774438561322
 20
667.6885605348866
 10
532.9618851201339
 20
667.6905052644492
 10
534.0715903978106
 20
667.7160623979621
 10
534.175551352122
 20
667.7184566769142
 10
534.9878619537758
 20
667.7371646446231
 10
535.2051979219159
 20
667.742170013586
 10
535.6825744603138
 20
667.7531642623957
 10
535.9133508796039
 20
667.7584791724707
 10
536.1276025897059
 20
667.7634135092444
 10
536.2001716222384
 20
667.7650848146718
 10
536.2527539235107
 20
667.7662958144942
 10
536.569474132606
 20
667.7778650892892
  0
LWPOLYLINE
  5
4C3E
330
1F
100
AcDbEntity
  8
HEWI
  6
CUSTOM
 62
    18
420
        0
370
     9
100
AcDbPolyline
 90
       10
 70
     0
 43
0.0
 10
432.450224045373
 20
664.6894250964455
 10
432.4434382964009
 20
664.6751975595648
 10
432.345868824641
 20
664.3939142827671
 10
432.3444889873189
 20
664.3860189572019
 10
432.3152663474156
 20
664.082016638626
 10
439.3699596896494
 20
357.7632506964824
 10
439.3908425272984
 20
357.5604508441143
 10
439.4148884606748
 20
357.4530925792546
 10
439.4431162891287
 20
357.3633827464096
 10
439.5327373830914
 20
357.1626992513334
  0
LWPOLYLINE
  5
4C3F
330
1F
100
AcDbEntity
  8
HEWI
  6
CUSTOM
 62
    18
420
        0
370
     9
100
AcDbPolyline
 90
        8
 70
     0
 43
0.0
 10
440.8012077620915
 20
356.4992060331838
 10
441.0292618120492
 20
356.5044582456171
 10
441.5953599378335
 20
356.5174958022312
 10
442.4554832351023
 20
356.5373049230743
 10
443.6559980476431
 20
356.5649534509907
 10
445.0913695084182
 20
356.5980108589379
 10
446.2211326124033
 20
356.6240299354145
 10
447.3976436476586
 20
356.6533170433263
  0
LWPOLYLINE
  5
4C40
330
1F
100
AcDbEntity
  8
HEWI
  6
CUSTOM
 62
    18
420
        0
370
     9
100
AcDbPolyline
 90
        8
 70
     0
 43
0.0
 10
536.8739702475159
 20
358.7118155135863
 10
538.6654717017372
 20
358.7530747946134
 10
540.1039734794303
 20
358.7862042955098
 10
541.3291262094608
 20
358.8144202484532
 10
542.3689432808459
 20
358.8383678174673
 10
543.0843557920688
 20
358.8548441679318
 10
543.3741999102839
 20
358.861519440165
 10
543.6837765247255
 20
358.8708405632465
  0
LWPOLYLINE
  5
4C41
330
1F
100
AcDbEntity
  8
HEWI
  6
CUSTOM
 62
    18
420
        0
370
     9
100
AcDbPolyline
 90
       15
 70
     0
 43
0.0
 10
440.5977323665665
 20
356.494519881057
 10
440.9443761848197
 20
356.5148953025842
 10
440.9965404987669
 20
356.5160966759245
 10
441.0685390883117
 20
356.5177548437309
 10
441.281138139604
 20
356.522651118848
 10
441.5101755595641
 20
356.5279259787944
 10
441.9840634154352
 20
356.5388398812934
 10
442.1998538063362
 20
356.5438096547473
 10
443.0065989106497
 20
356.5623894459382
 10
443.1098703942534
 20
356.5647678459941
 10
444.2125218889523
 20
356.5901625269384
 10
444.2964488893121
 20
356.5920954127209
 10
445.6299249674138
 20
356.6228061129855
 10
445.7882598487612
 20
356.6264526539039
 10
447.3976436476586
 20
356.6533170433263
  0
LINE
  5
4C42
330
1F
100
AcDbEntity
  8
HEWI
  6
CUSTOM
 62
    18
420
        0
370
     9
100
AcDbLine
 10
447.3976436476586
 20
356.6533170433263
 30
0.0
 11
536.8739702475123
 21
358.7118155136791
 31
0.0
  0
LWPOLYLINE
  5
4C43
330
1F
100
AcDbEntity
  8
HEWI
  6
CUSTOM
 62
    18
420
        0
370
     9
100
AcDbPolyline
 90
        3
 70
     0
 43
0.0
 10
433.0365604521139
 20
665.2698225060544
 10
432.9104377553249
 20
665.204005662597
 10
432.8519999525433
 20
665.1645406093144
  0
LWPOLYLINE
  5
4C44
330
1F
100
AcDbEntity
  8
HEWI
  6
CUSTOM
 62
    18
420
        0
370
     9
100
AcDbPolyline
 90
        3
 70
     0
 43
0.0
 10
433.1260708836489
 20
665.3165333218717
 10
433.0904491021628
 20
665.3005630995781
 10
432.8519999525433
 20
665.1645406093144
  0
LINE
  5
4C45
330
1F
100
AcDbEntity
  8
HEWI
  6
CUSTOM
 62
    18
420
        0
370
     9
100
AcDbLine
 10
440.5977323665665
 20
356.494519881057
 30
0.0
 11
440.5426725056113
 21
356.499395221203
 31
0.0
  0
LWPOLYLINE
  5
4C46
330
1F
100
AcDbEntity
  8
HEWI
  6
CUSTOM
 62
    18
420
        0
370
     9
100
AcDbPolyline
 90
        6
 70
     0
 43
0.0
 10
434.8075520643269
 20
555.865564392598
 10
434.7939114458877
 20
555.7312116874986
 10
434.7777806580725
 20
555.6723872823072
 10
434.7688489271731
 20
555.6466771080017
 10
434.7315308136167
 20
555.5621410486178
 10
434.682616029253
 20
555.4780435099387
  0
LWPOLYLINE
  5
4C47
330
1F
100
AcDbEntity
  8
HEWI
  6
CUSTOM
 62
    18
420
        0
370
     9
100
AcDbPolyline
 90
       17
 70
     0
 43
0.0
 10
429.1033336875716
 20
549.4682817154639
 10
433.1024652536052
 20
375.8237323749968
 10
433.2232207152373
 20
374.9361937065346
 10
433.5384445292984
 20
374.0977781021789
 10
434.0323300574909
 20
373.3505272212519
 10
434.6801118171442
 20
372.7319113431708
 10
435.449307325929
 20
372.2729504511758
 10
436.3013459091507
 20
371.9966587608483
 10
437.1935027944473
 20
371.9168906912332
 10
438.0432774842102
 20
371.9364614778547
 10
438.2657394343495
 20
371.9415849010516
 10
438.4770462133874
 20
371.946451414416
 10
438.6666020170869
 20
371.9508169906471
 10
438.8249017259276
 20
371.9544627215232
 10
438.9440075315124
 20
371.9572057948749
 10
439.0179469714076
 20
371.9589086615501
 10
439.0430124133436
 20
371.959485932704
  0
LWPOLYLINE
  5
4C48
330
1F
100
AcDbEntity
  8
HEWI
  6
CUSTOM
 62
    18
420
        0
370
     9
100
AcDbPolyline
 90
        3
 70
     0
 43
0.0
 10
440.2367376509519
 20
356.5673696768958
 10
440.2004184210364
 20
356.5816830574554
 10
440.1451717103063
 20
356.6099102027942
  0
LWPOLYLINE
  5
4C49
330
1F
100
AcDbEntity
  8
HEWI
  6
CUSTOM
 62
    18
420
        0
370
     9
100
AcDbPolyline
 90
        3
 70
     0
 43
0.0
 10
440.5426725056113
 20
356.499395221203
 10
440.2970467193063
 20
356.5483927674309
 10
440.2367376509537
 20
356.5673696768958
  0
LWPOLYLINE
  5
4C4A
330
1F
100
AcDbEntity
  8
HEWI
  6
CUSTOM
 62
    18
420
        0
370
     9
100
AcDbPolyline
 90
       16
 70
     0
 43
0.0
 10
440.2833412555391
 20
665.560341569369
 10
439.4978966051986
 20
665.5379773084036
 10
439.1166009579774
 20
665.5291958562815
 10
438.7445556660805
 20
665.5206274450206
 10
437.9966257817286
 20
665.5034022012582
 10
437.4277295197771
 20
665.4903002020023
 10
436.5743122905278
 20
665.4706455256578
 10
436.2682255633026
 20
665.4635961770504
 10
435.3852622094182
 20
665.4432610369217
 10
435.2941691243686
 20
665.4411631121997
 10
434.5336855306995
 20
665.4236487494858
 10
434.4890498078111
 20
665.4226207638108
 10
433.9733986478513
 20
665.4107450290489
 10
433.9336299292244
 20
665.4098291332052
 10
433.6868044851725
 20
665.4106110367224
 10
433.4285520505163
 20
665.3985199389967
  0
LWPOLYLINE
  5
4C4B
330
1F
100
AcDbEntity
  8
HEWI
  6
CUSTOM
 62
    18
420
        0
370
     9
100
AcDbPolyline
 90
        3
 70
     0
 43
0.0
 10
439.7166575058836
 20
356.9089473174022
 10
439.7002916020901
 20
356.9258892020394
 10
439.6680271665627
 20
356.9714896208966
  0
LWPOLYLINE
  5
4C4C
330
1F
100
AcDbEntity
  8
HEWI
  6
CUSTOM
 62
    18
420
        0
370
     9
100
AcDbPolyline
 90
        3
 70
     0
 43
0.0
 10
433.4285520505163
 20
665.3985199389967
 10
433.3824693270162
 20
665.3912100071506
 10
433.1260708836489
 20
665.3165333218717
  0
LWPOLYLINE
  5
4C4D
330
1F
100
AcDbEntity
  8
HEWI
  6
CUSTOM
 62
    18
420
        0
370
     9
100
AcDbPolyline
 90
        3
 70
     0
 43
0.0
 10
433.2877536277046
 20
665.3636238234916
 10
433.1854423748864
 20
665.3382665416089
 10
433.1260708836489
 20
665.3165333218717
  0
LWPOLYLINE
  5
4C4E
330
1F
100
AcDbEntity
  8
HEWI
  6
CUSTOM
 62
    18
420
        0
370
     9
100
AcDbPolyline
 90
        3
 70
     0
 43
0.0
 10
432.622267263503
 20
664.9513750653081
 10
432.6066986602508
 20
664.933697711122
 10
432.450224045373
 20
664.6894250964455
  0
LWPOLYLINE
  5
4C4F
330
1F
100
AcDbEntity
  8
HEWI
  6
CUSTOM
 62
    18
420
        0
370
     9
100
AcDbPolyline
 90
        3
 70
     0
 43
0.0
 10
439.7166575058854
 20
356.9089473174022
 10
439.5770372353854
 20
357.0885095709177
 10
439.5327373830914
 20
357.1626992513334
  0
LWPOLYLINE
  5
4C50
330
1F
100
AcDbEntity
  8
HEWI
  6
CUSTOM
 62
    18
420
        0
370
     9
100
AcDbPolyline
 90
        3
 70
     0
 43
0.0
 10
432.5765677287108
 20
664.8866602956537
 10
432.4910614802101
 20
664.7655755362407
 10
432.450224045373
 20
664.6894250964455
  0
LWPOLYLINE
  5
4C51
330
1F
100
AcDbEntity
  8
HEWI
  6
CUSTOM
 62
    18
420
        0
370
     9
100
AcDbPolyline
 90
        3
 70
     0
 43
0.0
 10
439.5327373830896
 20
357.1626992513334
 10
439.5253038397767
 20
357.1765993099711
 10
439.5149387377369
 20
357.2025547608541
  0
LWPOLYLINE
  5
4C52
330
1F
100
AcDbEntity
  8
HEWI
  6
CUSTOM
 62
    18
420
        0
370
     9
100
AcDbPolyline
 90
        7
 70
     0
 43
0.0
 10
434.682616029253
 20
555.4780435099387
 10
434.6447884995832
 20
555.4231211161127
 10
434.5757679579255
 20
555.3356976469281
 10
434.5282829449297
 20
555.281921567896
 10
434.4967942657513
 20
555.2483443633405
 10
434.3515171099443
 20
555.1079644539381
 10
434.3259693814379
 20
555.0850331900578
  0
LWPOLYLINE
  5
4C53
330
1F
100
AcDbEntity
  8
HEWI
  6
CUSTOM
 62
    18
420
        0
370
     9
100
AcDbPolyline
 90
        3
 70
     0
 43
0.0
 10
432.7883750690761
 20
665.1093333490439
 10
432.67416310738
 20
665.0102317216365
 10
432.6222672635013
 20
664.9513750653081
  0
LINE
  5
4C54
330
1F
100
AcDbEntity
  8
HEWI
  6
CUSTOM
 62
    18
420
        0
370
     9
100
AcDbLine
 10
440.8559848022905
 20
356.506610978719
 30
0.0
 11
440.8012077620915
 21
356.4992060331838
 31
0.0
  0
LWPOLYLINE
  5
4C55
330
1F
100
AcDbEntity
  8
HEWI
  6
CUSTOM
 62
    18
420
        0
370
     9
100
AcDbPolyline
 90
        3
 70
     0
 43
0.0
 10
439.955960060046
 20
356.7065839175088
 10
439.9297122155712
 20
356.7242580878451
 10
439.8898610782289
 20
356.7588035614631
  0
LWPOLYLINE
  5
4C56
330
1F
100
AcDbEntity
  8
HEWI
  6
CUSTOM
 62
    18
420
        0
370
     9
100
AcDbPolyline
 90
        3
 70
     0
 43
0.0
 10
440.2367376509537
 20
356.5673696768958
 10
440.0161527451
 20
356.6698509907624
 10
439.955960060046
 20
356.7065839175088
  0
LWPOLYLINE
  5
4C57
330
1F
100
AcDbEntity
  8
HEWI
  6
CUSTOM
 62
    18
420
        0
370
     9
100
AcDbPolyline
 90
        3
 70
     0
 43
0.0
 10
440.5426725056113
 20
356.499395221203
 10
440.4963021161384
 20
356.5045759061309
 10
440.4004168535939
 20
356.5277724449629
  0
LWPOLYLINE
  5
4C58
330
1F
100
AcDbEntity
  8
HEWI
  6
CUSTOM
 62
    18
420
        0
370
     9
100
AcDbPolyline
 90
        3
 70
     0
 43
0.0
 10
432.8519999525433
 20
665.1645406093144
 10
432.8265935979816
 20
665.1456768138891
 10
432.622267263503
 20
664.9513750653081
  0
LINE
  5
4C59
330
1F
100
AcDbEntity
  8
HEWI
  6
CUSTOM
 62
    18
420
        0
370
     9
100
AcDbLine
 10
440.8559848022941
 20
356.506610978719
 30
0.0
 11
440.5977323665665
 21
356.494519881057
 31
0.0
  0
LWPOLYLINE
  5
4C5A
330
1F
100
AcDbEntity
  8
HEWI
  6
CUSTOM
 62
    18
420
        0
370
     9
100
AcDbPolyline
 90
        3
 70
     0
 43
0.0
 10
439.955960060046
 20
356.7065839175088
 10
439.7712078936929
 20
356.8525421773734
 10
439.7166575058854
 20
356.9089473174022
  0
LWPOLYLINE
  5
4C5B
330
1F
100
AcDbEntity
  8
HEWI
  6
CUSTOM
 62
    18
420
        0
370
     9
100
AcDbPolyline
 90
        3
 70
     0
 43
0.0
 10
433.5851224654507
 20
665.4058503952533
 10
433.4833290896476
 20
665.4059248844191
 10
433.4285520505163
 20
665.3985199389967
  0
LWPOLYLINE
  5
4C5C
330
1F
100
AcDbEntity
  8
HEWI
  6
CUSTOM
 62
    18
420
        0
370
     9
100
AcDbPolyline
 90
        9
 70
     0
 43
0.0
 10
432.7112869919528
 20
646.8865767750335
 10
432.686221550015
 20
646.8859995038788
 10
432.6122821101234
 20
646.8842966372035
 10
432.4931763045369
 20
646.8815535638509
 10
432.3348765956962
 20
646.8779078329758
 10
432.1453207919985
 20
646.8735422567447
 10
431.9340140129589
 20
646.8686757433801
 10
431.7115520628195
 20
646.8635523201842
 10
429.0675983478195
 20
646.8026605866248
  0
LWPOLYLINE
  5
4C5D
330
1F
100
AcDbEntity
  8
HEWI
  6
CUSTOM
 62
    18
420
        0
370
     9
100
AcDbPolyline
 90
        8
 70
     0
 43
0.0
 10
434.594687499115
 20
565.1082639353876
 10
434.569622057179
 20
565.1076866642338
 10
434.4956826172856
 20
565.1059837975585
 10
434.3765768116991
 20
565.103240724206
 10
434.2182771028583
 20
565.0995949933299
 10
434.0287212991606
 20
565.0952294170997
 10
433.817414520121
 20
565.0903629037352
 10
433.6248292880027
 20
565.0859275580728
  0
LWPOLYLINE
  5
4C5E
330
1F
100
AcDbEntity
  8
HEWI
  6
CUSTOM
 62
    18
420
        0
370
     9
100
AcDbPolyline
 90
        6
 70
     0
 43
0.0
 10
434.3259693814379
 20
555.0850331900578
 10
434.2509600408066
 20
555.0198077066193
 10
434.1450331677861
 20
554.9318270751314
 10
434.0895519781643
 20
554.8871667419448
 10
433.9917749082615
 20
554.810033112451
 10
433.834403487026
 20
554.6881455384368
  0
LWPOLYLINE
  5
4C5F
330
1F
100
AcDbEntity
  8
HEWI
  6
CUSTOM
 62
    18
420
        0
370
     9
100
AcDbPolyline
 90
        7
 70
     0
 43
0.0
 10
433.834403487026
 20
554.6881455384368
 10
431.02304449035
 20
552.9775138230974
 10
430.3580184252114
 20
552.4705452642952
 10
429.8129294710488
 20
551.8363884985915
 10
429.411600630785
 20
551.102759219671
 10
429.171571900526
 20
550.3017205473647
 10
429.1033336875716
 20
549.4682817154639
  0
LINE
  5
4C60
330
1F
100
AcDbEntity
  8
HEWI
  6
CUSTOM
 62
    18
420
        0
370
     9
100
AcDbLine
 10
432.4342790881182
 20
664.6487924547131
 30
0.0
 11
432.3707926218467
 21
664.487009466035
 31
0.0
  0
LINE
  5
4C61
330
1F
100
AcDbEntity
  8
HEWI
  6
CUSTOM
 62
    18
420
        0
370
     9
100
AcDbLine
 10
440.8012077620915
 20
356.4992060331838
 30
0.0
 11
440.6994143867104
 21
356.4992805223942
 31
0.0
  0
LINE
  5
4C62
330
1F
100
AcDbEntity
  8
HEWI
  6
CUSTOM
 62
    18
420
        0
370
     9
100
AcDbLine
 10
434.767063219273
 20
555.6426319757378
 30
0.0
 11
434.7749824742677
 21
555.6643326517055
 31
0.0
  0
LINE
  5
4C63
330
1F
100
AcDbEntity
  8
HEWI
  6
CUSTOM
 62
    18
420
        0
370
     9
100
AcDbLine
 10
434.7248641263814
 20
555.550679238157
 30
0.0
 11
434.7465726312093
 21
555.5962150106183
 31
0.0
  0
LINE
  5
4C64
330
1F
100
AcDbEntity
  8
HEWI
  6
CUSTOM
 62
    18
420
        0
370
     9
100
AcDbLine
 10
536.3182759338069
 20
667.7686892271545
 30
0.0
 11
536.3462087437165
 21
667.772723162448
 31
0.0
  0
LINE
  5
4C65
330
1F
100
AcDbEntity
  8
HEWI
  6
CUSTOM
 62
    18
420
        0
370
     9
100
AcDbLine
 10
440.2833412555391
 20
665.560341569369
 30
0.0
 11
438.4296211471755
 21
665.5133743269421
 31
0.0
  0
LINE
  5
4C66
330
1F
100
AcDbEntity
  8
HEWI
  6
CUSTOM
 62
    18
420
        0
370
     9
100
AcDbLine
 10
434.6819445240998
 20
555.4771049666574
 30
0.0
 11
434.6863873281018
 21
555.4845273768337
 31
0.0
  0
LINE
  5
4C67
330
1F
100
AcDbEntity
  8
HEWI
  6
CUSTOM
 62
    18
420
        0
370
     9
100
AcDbLine
 10
434.4911154023229
 20
555.2428569326379
 30
0.0
 11
434.5267008562459
 21
555.2802345452514
 31
0.0
  0
LINE
  5
4C68
330
1F
100
AcDbEntity
  8
HEWI
  6
CUSTOM
 62
    18
420
        0
370
     9
100
AcDbLine
 10
434.5617186725412
 20
555.3197870378303
 30
0.0
 11
434.6624947474374
 21
555.4488290997301
 31
0.0
  0
LINE
  5
4C69
330
1F
100
AcDbEntity
  8
HEWI
  6
CUSTOM
 62
    18
420
        0
370
     9
100
AcDbLine
 10
434.3261681713902
 20
555.085211620983
 30
0.0
 11
434.3568475137853
 21
555.113115171664
 31
0.0
  0
LINE
  5
4C6A
330
1F
100
AcDbEntity
  8
HEWI
  6
CUSTOM
 62
    18
420
        0
370
     9
100
AcDbLine
 10
434.2386812091335
 20
555.0096091674482
 30
0.0
 11
434.3176896906916
 21
555.0778334622886
 31
0.0
  0
LINE
  5
4C6B
330
1F
100
AcDbEntity
  8
HEWI
  6
CUSTOM
 62
    18
420
        0
370
     9
100
AcDbLine
 10
434.1260489427732
 20
554.9165454667104
 30
0.0
 11
434.1803576115398
 21
554.9611668147058
 31
0.0
  0
LINE
  5
4C6C
330
1F
100
AcDbEntity
  8
HEWI
  6
CUSTOM
 62
    18
420
        0
370
     9
100
AcDbLine
 10
434.7792356218669
 20
555.6776931223362
 30
0.0
 11
434.7943799053464
 21
555.7358257591381
 31
0.0
  0
LINE
  5
4C6D
330
1F
100
AcDbEntity
  8
HEWI
  6
CUSTOM
 62
    18
420
        0
370
     9
100
AcDbLine
 10
536.3462087437165
 20
667.772723162448
 30
0.0
 11
536.2307395467633
 21
667.7657888111457
 31
0.0
  0
LWPOLYLINE
  5
4C6E
330
1F
100
AcDbEntity
  8
HEWI
  6
CUSTOM
 62
    18
420
        0
370
     9
100
AcDbPolyline
 90
        7
 70
     0
 43
0.0
 10
401.0468200262202
 20
662.5791153192854
 10
400.8740444416416
 20
662.49080181436
 10
400.8145996499279
 20
662.4631742193473
 10
400.6573878034159
 20
662.3995077849163
 10
400.5955394026332
 20
662.3792635582599
 10
400.5217857341794
 20
662.3599450115875
 10
400.3963917458622
 20
662.3437452405337
  0
LWPOLYLINE
  5
4C6F
330
1F
100
AcDbEntity
  8
HEWI
  6
CUSTOM
 62
    18
420
        0
370
     9
100
AcDbPolyline
 90
        8
 70
     0
 43
0.0
 10
399.9577299125267
 20
662.3349243571115
 10
399.7357580110019
 20
662.3053836531648
 10
399.525924833868
 20
662.2271902041388
 10
399.3387522928115
 20
662.1042649560735
 10
399.1836260006094
 20
661.9427718941984
 10
399.0683246372991
 20
661.7508089549724
 10
398.9986298946988
 20
661.5380019617354
 10
398.9780365582173
 20
661.3150219457343
  0
LWPOLYLINE
  5
4C70
330
1F
100
AcDbEntity
  8
HEWI
  6
CUSTOM
 62
    18
420
        0
370
     9
100
AcDbPolyline
 90
        4
 70
     0
 43
0.0
 10
399.9275730789104
 20
663.8346211421707
 10
399.9779942388686
 20
663.8356350420367
 10
400.1267149114919
 20
663.838625609294
 10
400.3662349122477
 20
663.843442025593
  0
LWPOLYLINE
  5
4C71
330
1F
100
AcDbEntity
  8
HEWI
  6
CUSTOM
 62
    18
420
        0
370
     9
100
AcDbPolyline
 90
        4
 70
     0
 43
0.0
 10
400.3963917458622
 20
662.3437452405337
 10
400.1568717451063
 20
662.3389288242337
 10
400.0081510724831
 20
662.3359382569765
 10
399.9577299125267
 20
662.3349243571115
  0
LINE
  5
4C72
330
1F
100
AcDbEntity
  8
HEWI
  6
CUSTOM
 62
    18
420
        0
370
     9
100
AcDbLine
 10
440.8869196350588
 20
356.5115180567104
 30
0.0
 11
440.8559848022941
 21
356.506610978719
 31
0.0
  0
LINE
  5
4C73
330
1F
100
AcDbEntity
  8
HEWI
  6
CUSTOM
 62
    18
420
        0
370
     9
100
AcDbLine
 10
399.9577299125267
 20
662.3349243571115
 30
0.0
 11
399.9275730789104
 21
663.8346211421707
 31
0.0
  0
LINE
  5
4C74
330
1F
100
AcDbEntity
  8
HEWI
  6
CUSTOM
 62
    18
420
        0
370
     9
100
AcDbLine
 10
400.4921787805487
 20
663.8322963115929
 30
0.0
 11
400.4926886646281
 21
663.8322050462051
 31
0.0
  0
LINE
  5
4C75
330
1F
100
AcDbEntity
  8
HEWI
  6
CUSTOM
 62
    18
420
        0
370
     9
100
AcDbLine
 10
400.3662349122477
 20
663.843442025593
 30
0.0
 11
400.4921787805487
 21
663.8322963115929
 31
0.0
  0
LINE
  5
4C76
330
1F
100
AcDbEntity
  8
HEWI
  6
CUSTOM
 62
    18
420
        0
370
     9
100
AcDbLine
 10
433.834403487026
 20
554.6881455384368
 30
0.0
 11
434.0039836343476
 21
554.8196642391736
 31
0.0
  0
LWPOLYLINE
  5
4D0C
330
1F
100
AcDbEntity
  8
HEWI
  6
CUSTOM
 62
    18
420
        0
370
     9
100
AcDbPolyline
 90
       89
 70
     0
 43
0.0
 10
197.6850298427252
 20
152.1928430998519
 10
197.812633821859
 20
152.0562700737223
 10
197.8135521496351
 20
152.0551875450669
 10
197.9748392413166
 20
151.8361184720611
 10
198.0294046428007
 20
151.74522944099
 10
198.1019896325251
 20
151.6041359047954
 10
198.2133640255706
 20
151.3053695740304
 10
198.2250025013581
 20
151.2629165468511
 10
198.2592713564281
 20
151.0994252009236
 10
198.2704841309587
 20
151.0326110052788
 10
198.2849211629091
 20
150.914263160013
 10
198.2920542391894
 20
150.7510045502417
 10
198.2920687847199
 20
150.7432844768132
 10
198.286600440324
 20
118.7515694788531
 10
198.3251349520269
 20
118.3604010885242
 10
198.4392576274658
 20
117.984265080066
 10
198.6696108105043
 20
117.5730230054937
 10
198.9896212789444
 20
117.2269075966719
 10
199.3816052033544
 20
116.9650452461915
 10
199.8239014896644
 20
116.8019065092298
 10
200.292068774681
 20
116.746506458368
 10
239.992068575355
 20
116.746506458368
 10
241.2147168848696
 20
116.6087749206403
 10
242.3760565028079
 20
116.2024867418781
 10
243.417853011395
 20
115.5480149078735
 10
244.2878663835327
 20
114.6781773692223
 10
244.9424705158762
 20
113.6365914122375
 10
245.3488408238463
 20
112.4754865060854
 10
245.4866002033432
 20
111.2530852991117
 10
245.4866002033432
 20
23.77076986879865
 10
245.4866002033432
 20
23.76713486425751
 10
245.3488408238463
 20
22.54473365728291
 10
244.9424705158762
 20
21.38362875113262
 10
244.2878663835327
 20
20.34204279414689
 10
243.417853011395
 20
19.47220525549574
 10
242.3760565028079
 20
18.81773342149381
 10
241.2147168848696
 20
18.41144524273068
 10
239.992068575355
 20
18.27371370500395
 10
52.79206951523883
 20
18.27371370500123
 10
51.56942120572785
 20
18.41144524272886
 10
50.40808158778964
 20
18.81773342149108
 10
49.36628507919886
 20
19.47220525549574
 10
48.4962717070648
 20
20.34204279414689
 10
47.84166757471758
 20
21.3836287511308
 10
47.43529726675115
 20
22.54473365728291
 10
47.29753788725429
 20
23.76713486425751
 10
47.29753788725429
 20
23.77076986879592
 10
47.29753788725429
 20
111.2530852991117
 10
47.43529726674933
 20
112.4754865060854
 10
47.84166757471758
 20
113.6365914122375
 10
48.49627170706117
 20
114.6781773692223
 10
49.36628507919886
 20
115.5480149078735
 10
50.40808158778964
 20
116.2024867418781
 10
51.56942120572785
 20
116.6087749206403
 10
52.79206951523883
 20
116.746506458368
 10
92.49206931591652
 20
116.746506458368
 10
92.93832800269774
 20
116.7967775744987
 10
93.36220941551074
 20
116.9450701192122
 10
93.74245837033958
 20
117.1839480851045
 10
94.06000759681047
 20
117.5014331334964
 10
94.29893385073592
 20
117.8816052383586
 10
94.44725637207922
 20
118.3054009828934
 10
94.49753702995622
 20
118.7515639744665
 10
94.49206930587569
 20
150.7432844768132
 10
94.49208385140627
 20
150.751004550249
 10
94.49921692768475
 20
150.9142631600148
 10
94.51365395963694
 20
151.0397938493274
 10
94.52486673416933
 20
151.1082464403639
 10
94.56964143953518
 20
151.3013910220056
 10
94.57891503113751
 20
151.3331108201587
 10
94.68214845807052
 20
151.6041359047954
 10
94.70917516245936
 20
151.6599322703782
 10
94.80929884927901
 20
151.8361184720611
 10
94.84935873608447
 20
151.8966258647974
 10
94.97150426873849
 20
152.0562700737223
 10
95.02702014252646
 20
152.1188823137558
 10
95.09963173568213
 20
152.1933529839239
 10
95.24206930210857
 20
152.3192968497783
 10
95.62198031738807
 20
152.5588168458812
 10
96.04577109588536
 20
152.707537515615
 10
96.49206929583307
 20
152.7579586745937
 10
105.4920692506475
 20
152.7579586745937
 10
105.4920692506475
 20
153.3128884176271
 10
105.4920692506475
 20
153.8374713502739
 10
105.4920692506475
 20
154.3054026938221
 10
105.4920692506475
 20
154.6932184167976
 10
105.4920692506475
 20
154.981471819468
 10
105.4920692506475
 20
155.1557086725875
 10
105.4920692506475
 20
155.2071920127887
  0
LWPOLYLINE
  5
4D0D
330
1F
100
AcDbEntity
  8
HEWI
  6
CUSTOM
 62
    18
420
        0
370
     9
100
AcDbPolyline
 90
       13
 70
     0
 43
0.0
 10
187.2920688399481
 20
155.2071920127887
 10
187.2920688399481
 20
155.1557086725875
 10
187.2920688399481
 20
154.981471819468
 10
187.2920688399481
 20
154.6932184167976
 10
187.2920688399481
 20
154.3054026938221
 10
187.2920688399481
 20
153.8374713502739
 10
187.2920688399481
 20
153.3128884176271
 10
187.2920688399481
 20
152.7579586745937
 10
196.2920687947644
 20
152.7579586745937
 10
196.7383669947103
 20
152.707537515615
 10
197.1621577732094
 20
152.5588168458812
 10
197.5420687884889
 20
152.3192968497783
 10
197.6845063549135
 20
152.1933529839239
  0
LWPOLYLINE
  5
4D0E
330
1F
100
AcDbEntity
  8
HEWI
  6
CUSTOM
 62
    18
420
        0
370
     9
100
AcDbPolyline
 90
        6
 70
     0
 43
0.0
 10
136.3920690955056
 20
18.27371370587707
 10
136.3920690955056
 20
18.24453192030751
 10
136.3920690955056
 20
18.01608315501244
 10
136.3920690955056
 20
17.79879618978475
 10
136.3920690955056
 20
17.60412147534544
 10
136.3920690955056
 20
17.49754382502533
  0
LWPOLYLINE
  5
4D0F
330
1F
100
AcDbEntity
  8
HEWI
  6
CUSTOM
 62
    18
420
        0
370
     9
100
AcDbPolyline
 90
        3
 70
     0
 43
0.0
 10
246.1104387112609
 20
107.0439983576566
 10
245.6569379141511
 20
108.2282884478495
 10
245.4866002012586
 20
108.4797043545527
  0
LWPOLYLINE
  5
4D10
330
1F
100
AcDbEntity
  8
HEWI
  6
CUSTOM
 62
    18
420
        0
370
     9
100
AcDbPolyline
 90
        5
 70
     0
 43
0.0
 10
47.29753789532515
 20
108.4681520021909
 10
46.98679651942438
 20
107.9415043306158
 10
46.62705798685237
 20
106.8455287729589
 10
46.52631961549377
 20
106.2142396759241
 10
46.49206954686997
 20
105.5525429997064
  0
LWPOLYLINE
  5
4D11
330
1F
100
AcDbEntity
  8
HEWI
  6
CUSTOM
 62
    18
420
        0
370
     9
100
AcDbPolyline
 90
        9
 70
     0
 43
0.0
 10
94.49728050703379
 20
120.2528413114773
 10
94.39206930637556
 20
120.2528413114773
 10
93.94702744069764
 20
120.2539958538232
 10
93.52430183249817
 20
120.2574015872901
 10
93.14508970891983
 20
120.2628877341808
 10
92.82840634929199
 20
120.2701791961803
 10
92.59013157962
 20
120.2789103489372
 10
92.44221349180406
 20
120.2886433759963
 10
92.39206931642002
 20
120.2988902227375
  0
LWPOLYLINE
  5
4D12
330
1F
100
AcDbEntity
  8
HEWI
  6
CUSTOM
 62
    18
420
        0
370
     9
100
AcDbPolyline
 90
        6
 70
     0
 43
0.0
 10
156.3920689950919
 20
18.27371370587707
 10
156.3920689950919
 20
18.24453192030751
 10
156.3920689950919
 20
18.01608315501244
 10
156.3920689950919
 20
17.79879618978475
 10
156.3920689950919
 20
17.60412147534544
 10
156.3920689950919
 20
17.49754382502533
  0
LWPOLYLINE
  5
4D13
330
1F
100
AcDbEntity
  8
HEWI
  6
CUSTOM
 62
    18
420
        0
370
     9
100
AcDbPolyline
 90
        8
 70
     0
 43
0.0
 10
102.3920692662104
 20
152.7579586538772
 10
102.3920692662104
 20
154.0055364375107
 10
102.3920692662104
 20
154.1774383177867
 10
102.3920692662104
 20
154.2542476073972
 10
101.3920692712326
 20
154.2542476073972
 10
101.3920692712326
 20
154.1774383177867
 10
101.3920692712326
 20
154.0055364375107
 10
101.3920692712326
 20
152.7579586538772
  0
LWPOLYLINE
  5
4D14
330
1F
100
AcDbEntity
  8
HEWI
  6
CUSTOM
 62
    18
420
        0
370
     9
100
AcDbPolyline
 90
        8
 70
     0
 43
0.0
 10
191.3920688193648
 20
152.7579586538772
 10
191.3920688193648
 20
154.0055364375107
 10
191.3920688193648
 20
154.1774383177867
 10
191.3920688193648
 20
154.2542476073945
 10
190.392068824387
 20
154.2542476073945
 10
190.392068824387
 20
154.1774383177867
 10
190.392068824387
 20
154.0055364375107
 10
190.392068824387
 20
152.7579586538772
  0
LINE
  5
4D15
330
1F
100
AcDbEntity
  8
HEWI
  6
CUSTOM
 62
    18
420
        0
370
     9
100
AcDbLine
 10
190.2256688268844
 20
146.8066617305417
 30
0.0
 11
190.7056688244756
 21
144.7595755495363
 31
0.0
  0
LINE
  5
4D16
330
1F
100
AcDbEntity
  8
HEWI
  6
CUSTOM
 62
    18
420
        0
370
     9
100
AcDbLine
 10
190.7056688244756
 20
144.7595755495363
 30
0.0
 11
191.2944288214294
 21
144.7595755495363
 31
0.0
  0
LWPOLYLINE
  5
4D17
330
1F
100
AcDbEntity
  8
HEWI
  6
CUSTOM
 62
    18
420
        0
370
     9
100
AcDbPolyline
 90
        4
 70
     0
 43
0.0
 10
191.9776688163729
 20
144.7615860050714
 10
191.9776688163729
 20
144.7595755495363
 10
192.5420688135909
 20
144.7595755495363
 10
192.5420688135909
 20
144.7615860050714
  0
LWPOLYLINE
  5
4D18
330
1F
100
AcDbEntity
  8
HEWI
  6
CUSTOM
 62
    18
420
        0
370
     9
100
AcDbPolyline
 90
        3
 70
     0
 43
0.0
 10
187.1278288424746
 20
147.2340753288231
 10
188.2240688369256
 20
147.2340753288231
 10
188.2240688369256
 20
147.23608578436
  0
LWPOLYLINE
  5
4D19
330
1F
100
AcDbEntity
  8
HEWI
  6
CUSTOM
 62
    18
420
        0
370
     9
100
AcDbPolyline
 90
        3
 70
     0
 43
0.0
 10
191.2944288214294
 20
144.7595755495363
 10
191.8314778837648
 20
147.7589692214328
 10
191.8314778837648
 20
147.760979676967
  0
LINE
  5
4D1A
330
1F
100
AcDbEntity
  8
HEWI
  6
CUSTOM
 62
    18
420
        0
370
     9
100
AcDbLine
 10
189.1578088322476
 20
144.7595755495363
 30
0.0
 11
189.746568829325
 21
144.7595755495363
 31
0.0
  0
LWPOLYLINE
  5
4D1B
330
1F
100
AcDbEntity
  8
HEWI
  6
CUSTOM
 62
    18
420
        0
370
     9
100
AcDbPolyline
 90
        3
 70
     0
 43
0.0
 10
245.4866001925129
 20
110.0056711750544
 10
246.0793609092088
 20
109.3644707733606
 10
246.2920685374429
 20
108.9839566785836
  0
LINE
  5
4D1C
330
1F
100
AcDbEntity
  8
HEWI
  6
CUSTOM
 62
    18
420
        0
370
     9
100
AcDbLine
 10
246.2788289575619
 20
112.4850432577254
 30
0.0
 11
246.2920685437257
 21
112.2296351325672
 31
0.0
  0
LWPOLYLINE
  5
4D1D
330
1F
100
AcDbEntity
  8
HEWI
  6
CUSTOM
 62
    18
420
        0
370
     9
100
AcDbPolyline
 90
        3
 70
     0
 43
0.0
 10
47.29753788611924
 20
108.3434925143215
 10
46.77249286188635
 20
107.2538655533494
 10
46.49206954686997
 20
105.3176935522747
  0
LWPOLYLINE
  5
4D1E
330
1F
100
AcDbEntity
  8
HEWI
  6
CUSTOM
 62
    18
420
        0
370
     9
100
AcDbPolyline
 90
        4
 70
     0
 43
0.0
 10
186.5240688454596
 20
144.7615860050714
 10
186.5240688454596
 20
144.7595755495363
 10
188.2240688369256
 20
144.7595755495363
 10
188.2240688369256
 20
144.7615860050714
  0
LWPOLYLINE
  5
4D1F
330
1F
100
AcDbEntity
  8
HEWI
  6
CUSTOM
 62
    18
420
        0
370
     9
100
AcDbPolyline
 90
        4
 70
     0
 43
0.0
 10
185.5531088497228
 20
144.7615860050714
 10
185.5531088497228
 20
144.7595755495363
 10
186.1568688467396
 20
144.7595755495363
 10
186.1568688467396
 20
144.7615860050714
  0
LWPOLYLINE
  5
4D20
330
1F
100
AcDbEntity
  8
HEWI
  6
CUSTOM
 62
    18
420
        0
370
     9
100
AcDbPolyline
 90
        9
 70
     0
 43
0.0
 10
94.49745120703846
 20
119.2531064017616
 10
94.39206930637556
 20
119.2531064017616
 10
93.94702744069764
 20
119.2542609441093
 10
93.52430183249817
 20
119.2576666775753
 10
93.14508970891983
 20
119.2631528244651
 10
92.82840634929199
 20
119.2704442864656
 10
92.59013157962
 20
119.2791754392224
 10
92.44221349180406
 20
119.2889084662815
 10
92.39206931642002
 20
119.2991553130227
  0
LINE
  5
4D21
330
1F
100
AcDbEntity
  8
HEWI
  6
CUSTOM
 62
    18
420
        0
370
     9
100
AcDbLine
 10
189.746568829325
 20
144.7595755495363
 30
0.0
 11
190.2256688268844
 21
146.8066617305417
 31
0.0
  0
LWPOLYLINE
  5
4D22
330
1F
100
AcDbEntity
  8
HEWI
  6
CUSTOM
 62
    18
420
        0
370
     9
100
AcDbPolyline
 90
        3
 70
     0
 43
0.0
 10
187.1278288424746
 20
146.0868072491444
 10
188.2978288361337
 20
146.0868072491444
 10
188.2978288361337
 20
146.0888177046795
  0
LWPOLYLINE
  5
4D23
330
1F
100
AcDbEntity
  8
HEWI
  6
CUSTOM
 62
    18
420
        0
370
     9
100
AcDbPolyline
 90
        9
 70
     0
 43
0.0
 10
200.3920687741775
 20
120.2988902227375
 10
200.3419245987916
 20
120.2886433759963
 10
200.1940065109775
 20
120.2789103489372
 10
199.9557317413055
 20
120.2701791961803
 10
199.6390483816776
 20
120.2628877341808
 10
199.2598362580993
 20
120.2574015872901
 10
198.8371106498962
 20
120.2539958538232
 10
198.3920687842183
 20
120.2528413114773
 10
198.2868576451783
 20
120.2528413114773
  0
LWPOLYLINE
  5
4D24
330
1F
100
AcDbEntity
  8
HEWI
  6
CUSTOM
 62
    18
420
        0
370
     9
100
AcDbPolyline
 90
        9
 70
     0
 43
0.0
 10
200.3920687741775
 20
119.2991553130227
 10
200.3419245987916
 20
119.2889084662815
 10
200.1940065109775
 20
119.2791754392224
 10
199.9557317413055
 20
119.2704442864656
 10
199.6390483816776
 20
119.2631528244651
 10
199.2598362580993
 20
119.2576666775753
 10
198.8371106498962
 20
119.2542609441093
 10
198.3920687842183
 20
119.2531064017616
 10
198.2866867779285
 20
119.2531064017616
  0
LWPOLYLINE
  5
4D25
330
1F
100
AcDbEntity
  8
HEWI
  6
CUSTOM
 62
    18
420
        0
370
     9
100
AcDbPolyline
 90
        4
 70
     0
 43
0.0
 10
183.9638597917128
 20
144.7615860050714
 10
183.9638597917128
 20
144.7595755495363
 10
184.5676197887278
 20
144.7595755495363
 10
184.5676197887278
 20
144.7615860050714
  0
LWPOLYLINE
  5
4D26
330
1F
100
AcDbEntity
  8
HEWI
  6
CUSTOM
 62
    18
420
        0
370
     9
100
AcDbPolyline
 90
        4
 70
     0
 43
0.0
 10
245.4866002086273
 20
108.3240503307438
 10
245.6912788046811
 20
108.0198375471368
 10
245.7273161708908
 20
107.9495693804851
 10
246.1301782592491
 20
106.856383389812
  0
LWPOLYLINE
  5
4D27
330
1F
100
AcDbEntity
  8
HEWI
  6
CUSTOM
 62
    18
420
        0
370
     9
100
AcDbPolyline
 90
        3
 70
     0
 43
0.0
 10
188.3056688365232
 20
147.760979676967
 10
188.3056688365232
 20
147.7589692214328
 10
189.1578088322476
 20
144.7595755495363
  0
LINE
  5
4D28
330
1F
100
AcDbEntity
  8
HEWI
  6
CUSTOM
 62
    18
420
        0
370
     9
100
AcDbLine
 10
197.6845063549135
 20
152.1933529839239
 30
0.0
 11
197.6850298427252
 21
152.1928430998519
 31
0.0
  0
LINE
  5
4D29
330
1F
100
AcDbEntity
  8
HEWI
  6
CUSTOM
 62
    18
420
        0
370
     9
100
AcDbLine
 10
105.4920692506475
 20
155.2071920127887
 30
0.0
 11
187.2920688399481
 21
155.2071920127887
 31
0.0
  0
LWPOLYLINE
  5
4D2A
330
1F
100
AcDbEntity
  8
HEWI
  6
CUSTOM
 62
    18
420
        0
370
     9
100
AcDbPolyline
 90
        5
 70
     0
 43
0.0
 10
188.2978288361337
 20
146.0888177046795
 10
188.2978288361337
 20
146.5649814480926
 10
187.1278288424746
 20
146.5649814480926
 10
187.1278288424746
 20
147.23608578436
 10
188.2240688369256
 20
147.23608578436
  0
LWPOLYLINE
  5
4D2B
330
1F
100
AcDbEntity
  8
HEWI
  6
CUSTOM
 62
    18
420
        0
370
     9
100
AcDbPolyline
 90
        8
 70
     0
 43
0.0
 10
189.7864045841434
 20
152.7579586754141
 10
189.7293886081679
 20
153.2638871871872
 10
189.544490998398
 20
153.7921874040817
 10
189.2466475363053
 20
154.2661067580306
 10
188.8507933367709
 20
154.6618809537117
 10
188.3767781822971
 20
154.9596642203446
 10
187.8483711720491
 20
155.1445244615038
 10
187.2920688399481
 20
155.2071920127887
  0
LWPOLYLINE
  5
4D2C
330
1F
100
AcDbEntity
  8
HEWI
  6
CUSTOM
 62
    18
420
        0
370
     9
100
AcDbPolyline
 90
        4
 70
     0
 43
0.0
 10
188.2240688369256
 20
147.23608578436
 10
188.2240688369256
 20
147.760979676967
 10
186.5240688454596
 20
147.760979676967
 10
186.5240688454596
 20
144.7615860050714
  0
LWPOLYLINE
  5
4D2D
330
1F
100
AcDbEntity
  8
HEWI
  6
CUSTOM
 62
    18
420
        0
370
     9
100
AcDbPolyline
 90
        8
 70
     0
 43
0.0
 10
104.4977334989216
 20
152.7579586754141
 10
104.51714134336
 20
152.9301732466006
 10
104.5911003872697
 20
153.1414933333585
 10
104.7102377721039
 20
153.3310610749372
 10
104.8685794519169
 20
153.4893707532096
 10
105.0581855137079
 20
153.6084840598628
 10
105.2695483178067
 20
153.6824281563272
 10
105.4920692506475
 20
153.7074951768422
  0
LWPOLYLINE
  5
4D2E
330
1F
100
AcDbEntity
  8
HEWI
  6
CUSTOM
 62
    18
420
        0
370
     9
100
AcDbPolyline
 90
        7
 70
     0
 43
0.0
 10
188.2041339827192
 20
152.7579586790839
 10
188.1930377033277
 20
152.789663614672
 10
188.0739003184917
 20
152.9792313562516
 10
187.9155586386787
 20
153.137541034524
 10
187.7259525768877
 20
153.256654341179
 10
187.5145897727907
 20
153.3305984376406
 10
187.2920688399481
 20
153.3556654581557
  0
LWPOLYLINE
  5
4D2F
330
1F
100
AcDbEntity
  8
HEWI
  6
CUSTOM
 62
    18
420
        0
370
     9
100
AcDbPolyline
 90
        8
 70
     0
 43
0.0
 10
187.2920688399481
 20
153.7074951768422
 10
187.5145897727907
 20
153.6824281563272
 10
187.7259525768877
 20
153.6084840598628
 10
187.9155586386787
 20
153.4893707532096
 10
188.0739003184917
 20
153.3310610749372
 10
188.1930377033277
 20
153.1414933333585
 10
188.2669967472375
 20
152.9301732466006
 10
188.2864045916758
 20
152.7579586754141
  0
LWPOLYLINE
  5
4D30
330
1F
100
AcDbEntity
  8
HEWI
  6
CUSTOM
 62
    18
420
        0
370
     9
100
AcDbPolyline
 90
        8
 70
     0
 43
0.0
 10
105.4920692506475
 20
155.2071920127887
 10
104.9357669185483
 20
155.1445244615038
 10
104.4073599083003
 20
154.9596642203446
 10
103.9333447538265
 20
154.6618809537117
 10
103.5374905542903
 20
154.2661067580306
 10
103.2396470921994
 20
153.7921874040817
 10
103.0547494824295
 20
153.2638871871872
 10
102.9977335064522
 20
152.7579586754141
  0
LWPOLYLINE
  5
4D31
330
1F
100
AcDbEntity
  8
HEWI
  6
CUSTOM
 62
    18
420
        0
370
     9
100
AcDbPolyline
 90
        5
 70
     0
 43
0.0
 10
188.2240688369256
 20
144.7615860050714
 10
188.2240688369256
 20
145.2639844450928
 10
187.1278288424746
 20
145.2639844450928
 10
187.1278288424746
 20
146.0888177046795
 10
188.2978288361337
 20
146.0888177046795
  0
LWPOLYLINE
  5
4D32
330
1F
100
AcDbEntity
  8
HEWI
  6
CUSTOM
 62
    18
420
        0
370
     9
100
AcDbPolyline
 90
        8
 70
     0
 43
0.0
 10
191.8314778837648
 20
147.760979676967
 10
191.5306688208166
 20
147.760979676967
 10
190.9944288226779
 20
145.668902590422
 10
190.53690882513
 20
147.760979676967
 10
189.9256688282603
 20
147.760979676967
 10
189.4644088306904
 20
145.6838995587473
 10
188.9431688333152
 20
147.760979676967
 10
188.3056688365232
 20
147.760979676967
  0
LWPOLYLINE
  5
4D33
330
1F
100
AcDbEntity
  8
HEWI
  6
CUSTOM
 62
    18
420
        0
370
     9
100
AcDbPolyline
 90
        7
 70
     0
 43
0.0
 10
104.5800041078782
 20
152.7579586790839
 10
104.5911003872697
 20
152.789663614672
 10
104.7102377721039
 20
152.9792313562516
 10
104.8685794519169
 20
153.137541034524
 10
105.0581855137079
 20
153.2566543411772
 10
105.2695483178067
 20
153.3305984376406
 10
105.4920692506475
 20
153.3556654581557
  0
LINE
  5
4D34
330
1F
100
AcDbEntity
  8
HEWI
  6
CUSTOM
 62
    18
420
        0
370
     9
100
AcDbLine
 10
186.5240688454596
 20
144.7615860050714
 30
0.0
 11
188.2240688369256
 21
144.7615860050714
 31
0.0
  0
LWPOLYLINE
  5
4D35
330
1F
100
AcDbEntity
  8
HEWI
  6
CUSTOM
 62
    18
420
        0
370
     9
100
AcDbPolyline
 90
       24
 70
     0
 43
0.0
 10
172.9555913562635
 20
158.1179342344071
 10
172.995708139495
 20
158.2111538440599
 10
173.1546703337535
 20
158.3800396967658
 10
173.3482041685547
 20
158.5076278949468
 10
173.5658761847753
 20
158.5870401258112
 10
173.7959516276751
 20
158.6139952554399
 10
173.9185458717384
 20
158.6139952554399
 10
174.1907039194884
 20
158.6139952554399
 10
174.5966089344456
 20
158.6139952554399
 10
175.112671192548
 20
158.6139952554399
 10
175.7088990311586
 20
158.6139952554399
 10
176.3506418555062
 20
158.6139952554399
 10
177.0006039052696
 20
158.6139952554399
 10
177.6210117486389
 20
158.6139952554399
 10
178.1758095368513
 20
158.6139952554399
 10
178.6327544390533
 20
158.6139952554399
 10
178.9652904784652
 20
158.6139952554399
 10
179.1540918691917
 20
158.6139952554399
 10
179.1881861606725
 20
158.6139952554399
 10
179.4182616035705
 20
158.5870401258112
 10
179.6359336197893
 20
158.5076278949468
 10
179.8294674545941
 20
158.3800396967658
 10
179.988429648849
 20
158.2111538440599
 10
180.0285464320823
 20
158.1179342344071
  0
LWPOLYLINE
  5
4D36
330
1F
100
AcDbEntity
  8
HEWI
  6
CUSTOM
 62
    18
420
        0
370
     9
100
AcDbPolyline
 90
        8
 70
     0
 43
0.0
 10
186.1568688467396
 20
144.7615860050714
 10
186.1568688467396
 20
147.760979676967
 10
185.5531088497228
 20
147.760979676967
 10
185.5531088497228
 20
146.5649814480926
 10
184.5676197887278
 20
146.5649814480926
 10
184.5676197887278
 20
147.760979676967
 10
183.9638597917128
 20
147.760979676967
 10
183.9638597917128
 20
144.7615860050714
  0
LWPOLYLINE
  5
4D37
330
1F
100
AcDbEntity
  8
HEWI
  6
CUSTOM
 62
    18
420
        0
370
     9
100
AcDbPolyline
 90
        4
 70
     0
 43
0.0
 10
184.5676197887278
 20
144.7615860050714
 10
184.5676197887278
 20
146.0888177046795
 10
185.5531088497228
 20
146.0888177046795
 10
185.5531088497228
 20
144.7615860050714
  0
LINE
  5
4D38
330
1F
100
AcDbEntity
  8
HEWI
  6
CUSTOM
 62
    18
420
        0
370
     9
100
AcDbLine
 10
189.1578088322476
 20
144.7615860050714
 30
0.0
 11
189.1578088322476
 21
144.7595755495363
 31
0.0
  0
LWPOLYLINE
  5
4D39
330
1F
100
AcDbEntity
  8
HEWI
  6
CUSTOM
 62
    18
420
        0
370
     9
100
AcDbPolyline
 90
        4
 70
     0
 43
0.0
 10
192.5420688135909
 20
144.7615860050714
 10
192.5420688135909
 20
147.760979676967
 10
191.9776688163729
 20
147.760979676967
 10
191.9776688163729
 20
144.7615860050714
  0
LINE
  5
4D3A
330
1F
100
AcDbEntity
  8
HEWI
  6
CUSTOM
 62
    18
420
        0
370
     9
100
AcDbLine
 10
189.746568829325
 20
144.7615860050714
 30
0.0
 11
190.2256688268844
 21
146.8086721860759
 31
0.0
  0
LINE
  5
4D3B
330
1F
100
AcDbEntity
  8
HEWI
  6
CUSTOM
 62
    18
420
        0
370
     9
100
AcDbLine
 10
185.5531088497228
 20
144.7615860050714
 30
0.0
 11
186.1568688467396
 21
144.7615860050714
 31
0.0
  0
LINE
  5
4D3C
330
1F
100
AcDbEntity
  8
HEWI
  6
CUSTOM
 62
    18
420
        0
370
     9
100
AcDbLine
 10
191.2944288214294
 20
144.7615860050714
 30
0.0
 11
191.8314778837648
 21
147.760979676967
 31
0.0
  0
LINE
  5
4D3D
330
1F
100
AcDbEntity
  8
HEWI
  6
CUSTOM
 62
    18
420
        0
370
     9
100
AcDbLine
 10
191.9776688163729
 20
144.7615860050714
 30
0.0
 11
192.5420688135909
 21
144.7615860050714
 31
0.0
  0
LINE
  5
4D3E
330
1F
100
AcDbEntity
  8
HEWI
  6
CUSTOM
 62
    18
420
        0
370
     9
100
AcDbLine
 10
189.746568829325
 20
144.7615860050714
 30
0.0
 11
189.746568829325
 21
144.7595755495363
 31
0.0
  0
LINE
  5
4D3F
330
1F
100
AcDbEntity
  8
HEWI
  6
CUSTOM
 62
    18
420
        0
370
     9
100
AcDbLine
 10
190.2256688268844
 20
146.8086721860759
 30
0.0
 11
190.7056688244756
 21
144.7615860050714
 31
0.0
  0
LINE
  5
4D40
330
1F
100
AcDbEntity
  8
HEWI
  6
CUSTOM
 62
    18
420
        0
370
     9
100
AcDbLine
 10
183.9638597917128
 20
144.7615860050714
 30
0.0
 11
184.5676197887278
 21
144.7615860050714
 31
0.0
  0
LINE
  5
4D41
330
1F
100
AcDbEntity
  8
HEWI
  6
CUSTOM
 62
    18
420
        0
370
     9
100
AcDbLine
 10
190.7056688244756
 20
144.7615860050714
 30
0.0
 11
190.7056688244756
 21
144.7595755495363
 31
0.0
  0
LINE
  5
4D42
330
1F
100
AcDbEntity
  8
HEWI
  6
CUSTOM
 62
    18
420
        0
370
     9
100
AcDbLine
 10
188.3056688365232
 20
147.760979676967
 30
0.0
 11
189.1578088322476
 21
144.7615860050714
 31
0.0
  0
LINE
  5
4D43
330
1F
100
AcDbEntity
  8
HEWI
  6
CUSTOM
 62
    18
420
        0
370
     9
100
AcDbLine
 10
191.2944288214294
 20
144.7615860050714
 30
0.0
 11
191.2944288214294
 21
144.7595755495363
 31
0.0
  0
LINE
  5
4D44
330
1F
100
AcDbEntity
  8
HEWI
  6
CUSTOM
 62
    18
420
        0
370
     9
100
AcDbLine
 10
190.7056688244756
 20
144.7615860050714
 30
0.0
 11
191.2944288214294
 21
144.7615860050714
 31
0.0
  0
LINE
  5
4D45
330
1F
100
AcDbEntity
  8
HEWI
  6
CUSTOM
 62
    18
420
        0
370
     9
100
AcDbLine
 10
189.1578088322476
 20
144.7615860050714
 30
0.0
 11
189.746568829325
 21
144.7615860050714
 31
0.0
  0
LINE
  5
4D46
330
1F
100
AcDbEntity
  8
HEWI
  6
CUSTOM
 62
    18
420
        0
370
     9
100
AcDbLine
 10
190.2256688268844
 20
146.8086721860759
 30
0.0
 11
190.2256688268844
 21
146.8066617305417
 31
0.0
  0
LINE
  5
4D47
330
1F
100
AcDbEntity
  8
HEWI
  6
CUSTOM
 62
    18
420
        0
370
     9
100
AcDbLine
 10
184.5676197887278
 20
146.0868072491444
 30
0.0
 11
185.5531088497228
 21
146.0868072491444
 31
0.0
  0
LWPOLYLINE
  5
4D48
330
1F
100
AcDbEntity
  8
HEWI
  6
CUSTOM
 62
    18
420
        0
370
     9
100
AcDbPolyline
 90
       24
 70
     0
 43
0.0
 10
120.0349545887929
 20
158.1179342344071
 10
119.9947651166931
 20
158.2111538440599
 10
119.835514893808
 20
158.3800396967658
 10
119.6416303889327
 20
158.5076278949468
 10
119.4235639659055
 20
158.5870401258112
 10
119.1930716420356
 20
158.6139952554399
 10
119.135752205233
 20
158.6139952554399
 10
118.9247915212982
 20
158.6139952554399
 10
118.5724498583695
 20
158.6139952554399
 10
118.0992040331839
 20
158.6139952554399
 10
117.532557372926
 20
158.6139952554399
 10
116.9054413218109
 20
158.6139952554399
 10
116.2543015852588
 20
158.6139952554399
 10
115.6169800379557
 20
158.6139952554399
 10
115.0305154916677
 20
158.6139952554399
 10
114.5289911341078
 20
158.6139952554399
 10
114.1415537379762
 20
158.6139952554399
 10
113.8907197564513
 20
158.6139952554399
 10
113.7910667488013
 20
158.6139952554399
 10
113.5605744249315
 20
158.5870401258112
 10
113.342508001906
 20
158.5076278949468
 10
113.1486234970289
 20
158.3800396967658
 10
112.9893732741457
 20
158.2111538440599
 10
112.949183802044
 20
158.1179342344071
  0
LINE
  5
4D49
330
1F
100
AcDbEntity
  8
HEWI
  6
CUSTOM
 62
    18
420
        0
370
     9
100
AcDbLine
 10
112.68813371336
 20
157.1179342480886
 30
0.0
 11
112.4925480238835
 21
156.0139952355744
 31
0.0
  0
LWPOLYLINE
  5
4D4A
330
1F
100
AcDbEntity
  8
HEWI
  6
CUSTOM
 62
    18
420
        0
370
     9
100
AcDbPolyline
 90
       14
 70
     0
 43
0.0
 10
150.0908013458192
 20
155.6185675134979
 10
149.9601460388767
 20
155.6363067759698
 10
149.6221270664991
 20
155.6529019412533
 10
149.0963888627138
 20
155.667388558671
 10
148.4134854209424
 20
155.6789247186693
 10
147.6131046069677
 20
155.6868399815644
 10
146.7417616444309
 20
155.6906743410432
 10
145.8500958191125
 20
155.6902049580762
 10
144.9899275077096
 20
155.6854591114929
 10
144.2112465658956
 20
155.6767126126447
 10
143.5593070996146
 20
155.664473776254
 10
143.0719974609474
 20
155.6494538790034
 10
142.777638314792
 20
155.6325258227311
 10
142.6933367447709
 20
155.6146734045301
  0
LWPOLYLINE
  5
4D4B
330
1F
100
AcDbEntity
  8
HEWI
  6
CUSTOM
 62
    18
420
        0
370
     9
100
AcDbPolyline
 90
       17
 70
     0
 43
0.0
 10
150.0908013458192
 20
155.6185675134979
 10
148.8630430329886
 20
155.8830681448721
 10
147.7421522320564
 20
155.9617559704761
 10
147.6142531614259
 20
155.9680352222053
 10
147.4153251924272
 20
155.9735166450114
 10
147.156929295541
 20
155.9778816785233
 10
146.8540825010641
 20
155.9808766428627
 10
146.5243851638879
 20
155.982327481584
 10
146.1869980948504
 20
155.9821498772194
 10
145.8615290040488
 20
155.9803541514843
 10
145.5668929720104
 20
155.9770446654342
 10
145.3202131739581
 20
155.9724137543667
 10
145.1358257431111
 20
155.966730550002
 10
145.024446606727
 20
155.9603253395212
 10
144.0924027445144
 20
155.8921549677247
 10
143.8307079571405
 20
155.8680159220616
 10
142.6933367447709
 20
155.6146734045301
  0
LWPOLYLINE
  5
4D4C
330
1F
100
AcDbEntity
  8
HEWI
  6
CUSTOM
 62
    18
420
        0
370
     9
100
AcDbPolyline
 90
        4
 70
     0
 43
0.0
 10
189.4611206043682
 20
17.49754381965749
 10
189.4016381036381
 20
17.65434470733953
 10
189.3420688296592
 20
18.14481176660001
 10
189.357724508789
 20
18.27371370531955
  0
LINE
  5
4D4D
330
1F
100
AcDbEntity
  8
HEWI
  6
CUSTOM
 62
    18
420
        0
370
     9
100
AcDbLine
 10
180.2911661752951
 20
157.1179342480886
 30
0.0
 11
180.4897637981867
 21
156.0139952355744
 31
0.0
  0
LWPOLYLINE
  5
4D4E
330
1F
100
AcDbEntity
  8
HEWI
  6
CUSTOM
 62
    18
420
        0
370
     9
100
AcDbPolyline
 90
        4
 70
     0
 43
0.0
 10
193.4264131317195
 20
18.27371369070124
 10
193.442068809074
 20
18.14481176660001
 10
193.3824995350969
 20
17.65434470733953
 10
193.3230170343649
 20
17.49754381965749
  0
LWPOLYLINE
  5
4D4F
330
1F
100
AcDbEntity
  8
HEWI
  6
CUSTOM
 62
    18
420
        0
370
     9
100
AcDbPolyline
 90
        4
 70
     0
 43
0.0
 10
99.46112105623797
 20
17.49754381965749
 10
99.40163855550418
 20
17.65434470733953
 10
99.34206928152889
 20
18.14481176660001
 10
99.35772496065693
 20
18.27371370531955
  0
LWPOLYLINE
  5
4D50
330
1F
100
AcDbEntity
  8
HEWI
  6
CUSTOM
 62
    18
420
        0
370
     9
100
AcDbPolyline
 90
        4
 70
     0
 43
0.0
 10
103.4264135835874
 20
18.27371369070124
 10
103.4420692609419
 20
18.14481176660001
 10
103.382499986963
 20
17.65434470733953
 10
103.3230174862328
 20
17.49754381965749
  0
LINE
  5
4D51
330
1F
100
AcDbEntity
  8
HEWI
  6
CUSTOM
 62
    18
420
        0
370
     9
100
AcDbLine
 10
142.6933367447727
 20
155.2071920161083
 30
0.0
 11
142.6933367447709
 21
155.6146734045301
 31
0.0
  0
LINE
  5
4D52
330
1F
100
AcDbEntity
  8
HEWI
  6
CUSTOM
 62
    18
420
        0
370
     9
100
AcDbLine
 10
150.0908013458192
 20
155.2071920095072
 30
0.0
 11
150.0908013458192
 21
155.6185675134979
 31
0.0
  0
LWPOLYLINE
  5
4D53
330
1F
100
AcDbEntity
  8
HEWI
  6
CUSTOM
 62
    18
420
        0
370
     9
100
AcDbPolyline
 90
       25
 70
     0
 43
0.0
 10
95.39206930135515
 20
152.4145675373906
 10
95.39206930135515
 20
152.6750015388402
 10
95.39206930135515
 20
153.8394005350287
 10
95.39206930135515
 20
153.9696175357544
 10
95.39206930135515
 20
154.2005015977715
 10
95.39206930135515
 20
154.5194385956215
 10
95.39206930135515
 20
154.9090037176061
 10
95.39206930135515
 20
155.3479134533731
 10
95.39206930135515
 20
155.8121883977451
 10
95.39206930135515
 20
156.1179342233104
 10
95.4422134767392
 20
156.5629760946181
 10
95.59013156455511
 20
156.9857017081663
 10
95.82840633423074
 20
157.3649138365413
 10
96.14508969385861
 20
157.6815972001764
 10
96.52430181743694
 20
157.9198719728642
 10
96.94702742563642
 20
158.0677900625519
 10
97.39206929131434
 20
158.1179342385699
 10
110.8920692235333
 20
158.1179342385699
 10
111.782152954891
 20
158.1179342385699
 10
112.6276041712899
 20
158.1179342385699
 10
113.3860284184484
 20
158.1179342385699
 10
114.0193951377059
 20
158.1179342385699
 10
114.4959446770499
 20
158.1179342385699
 10
114.7917808526818
 20
158.1179342385699
 10
114.8920692034498
 20
158.1179342385699
  0
LWPOLYLINE
  5
4D54
330
1F
100
AcDbEntity
  8
HEWI
  6
CUSTOM
 62
    18
420
        0
370
     9
100
AcDbPolyline
 90
       24
 70
     0
 43
0.0
 10
114.8920692034498
 20
157.1179342309401
 10
114.7917808526818
 20
157.1179342309401
 10
114.4959446770499
 20
157.1179342309401
 10
114.0193951377059
 20
157.1179342309401
 10
113.3860284184484
 20
157.1179342309401
 10
112.6276041712899
 20
157.1179342309401
 10
111.782152954891
 20
157.1179342309401
 10
110.8920692235333
 20
157.1179342309401
 10
97.39206929131434
 20
157.1179342309401
 10
97.16954835847538
 20
157.0928621429316
 10
96.95818555437472
 20
157.0189030980887
 10
96.76857949258556
 20
156.8997657117447
 10
96.61023781277073
 20
156.7414240299272
 10
96.49110042793473
 20
156.5518179657388
 10
96.41714138402495
 20
156.340455158966
 10
96.39206929633473
 20
156.1179342233104
 10
96.39206929633473
 20
155.8121883977451
 10
96.39206929633473
 20
155.3479134533731
 10
96.39206929633473
 20
154.9090037176061
 10
96.39206929633473
 20
154.5194385956215
 10
96.39206929633473
 20
154.2005015977715
 10
96.39206929633473
 20
153.9696175357544
 10
96.39206929633473
 20
153.8394005350287
 10
96.39206929633473
 20
152.7466610346396
  0
LINE
  5
4D55
330
1F
100
AcDbEntity
  8
HEWI
  6
CUSTOM
 62
    18
420
        0
370
     9
100
AcDbLine
 10
175.8920688971866
 20
157.1179342309401
 30
0.0
 11
177.8920688871439
 21
157.1179342309401
 31
0.0
  0
LINE
  5
4D56
330
1F
100
AcDbEntity
  8
HEWI
  6
CUSTOM
 62
    18
420
        0
370
     9
100
AcDbLine
 10
47.39206954235669
 20
22.92831247670211
 30
0.0
 11
47.39206954235669
 21
19.70149876607638
 31
0.0
  0
LWPOLYLINE
  5
4D57
330
1F
100
AcDbEntity
  8
HEWI
  6
CUSTOM
 62
    18
420
        0
370
     9
100
AcDbPolyline
 90
       24
 70
     0
 43
0.0
 10
177.8920688871439
 20
157.1179342309401
 10
177.9923572379139
 20
157.1179342309401
 10
178.2881934135457
 20
157.1179342309401
 10
178.7647429528915
 20
157.1179342309401
 10
179.3981096721491
 20
157.1179342309401
 10
180.1565339193039
 20
157.1179342309401
 10
181.0019851357046
 20
157.1179342309401
 10
181.8920688670605
 20
157.1179342309401
 10
195.3920687992813
 20
157.1179342309401
 10
195.6145897321203
 20
157.0928621429316
 10
195.8259525362191
 20
157.0189030980887
 10
196.0155585980082
 20
156.8997657117447
 10
196.1739002778231
 20
156.7414240299272
 10
196.2930376626591
 20
156.5518179657388
 10
196.3669967065689
 20
156.340455158966
 10
196.3920687942609
 20
156.1179342233104
 10
196.3920687942609
 20
155.8121883977451
 10
196.3920687942609
 20
155.3479134533731
 10
196.3920687942609
 20
154.9090037176061
 10
196.3920687942609
 20
154.5194385956215
 10
196.3920687942609
 20
154.2005015977715
 10
196.3920687942609
 20
153.9696175357544
 10
196.3920687942609
 20
153.8394005350287
 10
196.3920687942609
 20
152.7466610216274
  0
LINE
  5
4D58
330
1F
100
AcDbEntity
  8
HEWI
  6
CUSTOM
 62
    18
420
        0
370
     9
100
AcDbLine
 10
189.3434670378792
 20
18.13329953912534
 30
0.0
 11
189.3605209247816
 21
18.2737137023455
 31
0.0
  0
LINE
  5
4D59
330
1F
100
AcDbEntity
  8
HEWI
  6
CUSTOM
 62
    18
420
        0
370
     9
100
AcDbLine
 10
99.34346748974531
 20
18.13329953912534
 30
0.0
 11
99.36052137665138
 21
18.2737137023455
 31
0.0
  0
LINE
  5
4D5A
330
1F
100
AcDbEntity
  8
HEWI
  6
CUSTOM
 62
    18
420
        0
370
     9
100
AcDbLine
 10
245.3920685482462
 20
19.77404640809755
 30
0.0
 11
245.3920685482462
 21
22.92831247670211
 31
0.0
  0
LINE
  5
4D5B
330
1F
100
AcDbEntity
  8
HEWI
  6
CUSTOM
 62
    18
420
        0
370
     9
100
AcDbLine
 10
114.8920692034498
 20
157.1179342309401
 30
0.0
 11
114.8920692034498
 21
158.1179342385699
 31
0.0
  0
LINE
  5
4D5C
330
1F
100
AcDbEntity
  8
HEWI
  6
CUSTOM
 62
    18
420
        0
370
     9
100
AcDbLine
 10
103.4236171658194
 20
18.2737137023455
 30
0.0
 11
103.4406710538332
 21
18.13329952998947
 31
0.0
  0
LINE
  5
4D5D
330
1F
100
AcDbEntity
  8
HEWI
  6
CUSTOM
 62
    18
420
        0
370
     9
100
AcDbLine
 10
193.4236167139515
 20
18.2737137023455
 30
0.0
 11
193.4406706019672
 21
18.13329952998947
 31
0.0
  0
LWPOLYLINE
  5
4D5E
330
1F
100
AcDbEntity
  8
HEWI
  6
CUSTOM
 62
    18
420
        0
370
     9
100
AcDbPolyline
 90
       25
 70
     0
 43
0.0
 10
177.8920688871439
 20
158.1179342385699
 10
177.9923572379139
 20
158.1179342385699
 10
178.2881934135457
 20
158.1179342385699
 10
178.7647429528915
 20
158.1179342385699
 10
179.3981096721491
 20
158.1179342385699
 10
180.1565339193039
 20
158.1179342385699
 10
181.0019851357046
 20
158.1179342385699
 10
181.8920688670605
 20
158.1179342385699
 10
195.3920687992813
 20
158.1179342385699
 10
195.8371106649592
 20
158.0677900625519
 10
196.2598362731605
 20
157.9198719728642
 10
196.6390483967389
 20
157.6815972001764
 10
196.9557317563649
 20
157.3649138365413
 10
197.1940065260387
 20
156.9857017081663
 10
197.3419246138564
 20
156.5629760946181
 10
197.3920687892405
 20
156.1179342233104
 10
197.3920687892405
 20
155.8121883977451
 10
197.3920687892405
 20
155.3479134533731
 10
197.3920687892405
 20
154.9090037176061
 10
197.3920687892405
 20
154.5194385956215
 10
197.3920687892405
 20
154.2005015977715
 10
197.3920687892405
 20
153.9696175357544
 10
197.3920687892405
 20
153.8394005350287
 10
197.3920687892405
 20
152.6750015388402
 10
197.3920687892405
 20
152.4145675373925
  0
LINE
  5
4D5F
330
1F
100
AcDbEntity
  8
HEWI
  6
CUSTOM
 62
    18
420
        0
370
     9
100
AcDbLine
 10
175.8920688971866
 20
158.1179342385699
 30
0.0
 11
177.8920688871439
 21
158.1179342385699
 31
0.0
  0
LWPOLYLINE
  5
4D60
330
1F
100
AcDbEntity
  8
HEWI
  6
CUSTOM
 62
    18
420
        0
370
     9
100
AcDbPolyline
 90
        9
 70
     0
 43
0.0
 10
175.8920688971866
 20
158.1179342385699
 10
175.8920688971866
 20
158.0677900625519
 10
175.8920688971866
 20
157.9198719728642
 10
175.8920688971866
 20
157.6815972001764
 10
175.8920688971866
 20
157.3649138365413
 10
175.8920688971866
 20
156.9857017081663
 10
175.8920688971866
 20
156.5629760946181
 10
175.8920688971866
 20
156.1179342233104
 10
175.8920688971866
 20
155.2071924103334
  0
LINE
  5
4D61
330
1F
100
AcDbEntity
  8
HEWI
  6
CUSTOM
 62
    18
420
        0
370
     9
100
AcDbLine
 10
177.8920688871439
 20
157.1179342309401
 30
0.0
 11
177.8920688871439
 21
158.1179342385699
 31
0.0
  0
LINE
  5
4D62
330
1F
100
AcDbEntity
  8
HEWI
  6
CUSTOM
 62
    18
420
        0
370
     9
100
AcDbLine
 10
138.8920690829527
 20
158.1179342385699
 30
0.0
 11
153.8920690076429
 21
158.1179342385699
 31
0.0
  0
LWPOLYLINE
  5
4D63
330
1F
100
AcDbEntity
  8
HEWI
  6
CUSTOM
 62
    18
420
        0
370
     9
100
AcDbPolyline
 90
        9
 70
     0
 43
0.0
 10
153.8920690076429
 20
155.2071919931
 10
153.8920690076429
 20
156.1179342233104
 10
153.8920690076429
 20
156.5629760946181
 10
153.8920690076429
 20
156.9857017081663
 10
153.8920690076429
 20
157.3649138365413
 10
153.8920690076429
 20
157.6815972001764
 10
153.8920690076429
 20
157.9198719728642
 10
153.8920690076429
 20
158.0677900625519
 10
153.8920690076429
 20
158.1179342385699
  0
LWPOLYLINE
  5
4D64
330
1F
100
AcDbEntity
  8
HEWI
  6
CUSTOM
 62
    18
420
        0
370
     9
100
AcDbPolyline
 90
        9
 70
     0
 43
0.0
 10
116.8920691934108
 20
155.2071919931
 10
116.8920691934108
 20
156.1179342233104
 10
116.8920691934108
 20
156.5629760946181
 10
116.8920691934108
 20
156.9857017081663
 10
116.8920691934108
 20
157.3649138365413
 10
116.8920691934108
 20
157.6815972001764
 10
116.8920691934108
 20
157.9198719728642
 10
116.8920691934108
 20
158.0677900625519
 10
116.8920691934108
 20
158.1179342385699
  0
LWPOLYLINE
  5
4D65
330
1F
100
AcDbEntity
  8
HEWI
  6
CUSTOM
 62
    18
420
        0
370
     9
100
AcDbPolyline
 90
        9
 70
     0
 43
0.0
 10
138.8920690829527
 20
158.1179342385699
 10
138.8920690829527
 20
158.0677900625519
 10
138.8920690829527
 20
157.9198719728642
 10
138.8920690829527
 20
157.6815972001764
 10
138.8920690829527
 20
157.3649138365413
 10
138.8920690829527
 20
156.9857017081663
 10
138.8920690829527
 20
156.5629760946181
 10
138.8920690829527
 20
156.1179342233104
 10
138.8920690829527
 20
155.2071924103334
  0
LINE
  5
4D66
330
1F
100
AcDbEntity
  8
HEWI
  6
CUSTOM
 62
    18
420
        0
370
     9
100
AcDbLine
 10
175.8920688971866
 20
158.1179342385699
 30
0.0
 11
153.8920690076429
 21
158.1179342385699
 31
0.0
  0
LINE
  5
4D67
330
1F
100
AcDbEntity
  8
HEWI
  6
CUSTOM
 62
    18
420
        0
370
     9
100
AcDbLine
 10
138.8920690829527
 20
158.1179342385699
 30
0.0
 11
116.8920691934108
 21
158.1179342385699
 31
0.0
  0
LINE
  5
4D68
330
1F
100
AcDbEntity
  8
HEWI
  6
CUSTOM
 62
    18
420
        0
370
     9
100
AcDbLine
 10
114.8920692034498
 20
158.1179342385699
 30
0.0
 11
116.8920691934108
 21
158.1179342385699
 31
0.0
  0
LWPOLYLINE
  5
4D69
330
1F
100
AcDbEntity
  8
HEWI
  6
CUSTOM
 62
    18
420
        0
370
     9
100
AcDbPolyline
 90
        5
 70
     0
 43
0.0
 10
189.3932869726177
 20
18.06843821266602
 10
189.3927540623226
 20
18.06282636487731
 10
189.3927540623226
 20
18.04642730913247
 10
189.4633785525602
 20
17.56960758043124
 10
189.4928964898663
 20
17.4975438240549
  0
LWPOLYLINE
  5
4D6A
330
1F
100
AcDbEntity
  8
HEWI
  6
CUSTOM
 62
    18
420
        0
370
     9
100
AcDbPolyline
 90
        5
 70
     0
 43
0.0
 10
190.2266014708311
 20
17.49754383179925
 10
190.1698847032294
 20
17.57525784028849
 10
190.0419856326007
 20
17.88750484355796
 10
189.9925484894374
 20
18.22127865364882
 10
189.9975278079473
 20
18.27371370305491
  0
LWPOLYLINE
  5
4D6B
330
1F
100
AcDbEntity
  8
HEWI
  6
CUSTOM
 62
    18
420
        0
370
     9
100
AcDbPolyline
 90
        5
 70
     0
 43
0.0
 10
193.3908506659881
 20
18.21714430176644
 10
193.3913835764033
 20
18.21354636855039
 10
193.3913835764106
 20
18.17670723953915
 10
193.3458151601826
 20
17.69684595912213
 10
193.2761217049865
 20
17.49754382883611
  0
LWPOLYLINE
  5
4D6C
330
1F
100
AcDbEntity
  8
HEWI
  6
CUSTOM
 62
    18
420
        0
370
     9
100
AcDbPolyline
 90
        5
 70
     0
 43
0.0
 10
189.3932869726177
 20
18.11448712392621
 10
189.3927540623226
 20
18.10887527613749
 10
189.3927540623135
 20
18.07203614712625
 10
189.4633785525511
 20
17.5952164184232
 10
189.5033860901057
 20
17.49754382668061
  0
LWPOLYLINE
  5
4D6D
330
1F
100
AcDbEntity
  8
HEWI
  6
CUSTOM
 62
    18
420
        0
370
     9
100
AcDbPolyline
 90
        5
 70
     0
 43
0.0
 10
190.1037160577962
 20
17.49754383330173
 10
190.0825858377702
 20
17.52649671915469
 10
189.9455511192409
 20
17.86104707980348
 10
189.8925827515613
 20
18.21866187633668
 10
189.8978105635524
 20
18.27371370308219
  0
LWPOLYLINE
  5
4D6E
330
1F
100
AcDbEntity
  8
HEWI
  6
CUSTOM
 62
    18
420
        0
370
     9
100
AcDbPolyline
 90
        5
 70
     0
 43
0.0
 10
193.3908506644602
 20
18.26319322302106
 10
193.391383576356
 20
18.25959527981058
 10
193.3913835764033
 20
18.22275615080207
 10
193.3458151601753
 20
17.74289487038777
 10
193.2600189734166
 20
17.49754381491903
  0
LWPOLYLINE
  5
4D6F
330
1F
100
AcDbEntity
  8
HEWI
  6
CUSTOM
 62
    18
420
        0
370
     9
100
AcDbPolyline
 90
        4
 70
     0
 43
0.0
 10
192.8893278950436
 20
18.27371370493301
 10
192.8573785749922
 20
17.93726923532949
 10
192.7380437860065
 20
17.5960079562733
 10
192.6738007999884
 20
17.49754382262972
  0
LINE
  5
4D70
330
1F
100
AcDbEntity
  8
HEWI
  6
CUSTOM
 62
    18
420
        0
370
     9
100
AcDbLine
 10
190.0144727190472
 20
18.2737137010904
 30
0.0
 11
190.0028736280746
 21
18.15156869131124
 31
0.0
  0
LWPOLYLINE
  5
4D71
330
1F
100
AcDbEntity
  8
HEWI
  6
CUSTOM
 62
    18
420
        0
370
     9
100
AcDbPolyline
 90
        5
 70
     0
 43
0.0
 10
189.5411101589397
 20
17.49754381469165
 10
189.4633785525602
 20
17.68731424094903
 10
189.3927540623226
 20
18.16413396965208
 10
189.3927540623135
 20
18.18563822630085
 10
189.4011178544988
 20
18.27371370400351
  0
LWPOLYLINE
  5
4D72
330
1F
100
AcDbEntity
  8
HEWI
  6
CUSTOM
 62
    18
420
        0
370
     9
100
AcDbPolyline
 90
        5
 70
     0
 43
0.0
 10
193.285076789396
 20
17.49754381445518
 10
193.3458151601753
 20
17.67123712112925
 10
193.3913835764033
 20
18.15109840154355
 10
193.3913835764033
 20
18.16749745728748
 10
193.3908506659881
 20
18.17109539050625
  0
LWPOLYLINE
  5
4D73
330
1F
100
AcDbEntity
  8
HEWI
  6
CUSTOM
 62
    18
420
        0
370
     9
100
AcDbPolyline
 90
       26
 70
     0
 43
0.0
 10
197.3920687892405
 20
152.4145675373925
 10
197.3920687892405
 20
152.4145675373925
 10
197.3920687892405
 20
152.6750015388402
 10
197.3920687892405
 20
153.8394005350287
 10
197.3920687892405
 20
153.9696175357544
 10
197.3920687892405
 20
154.2005015977715
 10
197.3920687892405
 20
154.5194385956215
 10
197.3920687892405
 20
154.9090037176061
 10
197.3920687892405
 20
155.3479134533731
 10
197.3920687892405
 20
155.8121883977451
 10
197.3920687892405
 20
156.1179342233104
 10
197.3419246138564
 20
156.5629760946181
 10
197.1940065260387
 20
156.9857017081663
 10
196.9557317563649
 20
157.3649138365413
 10
196.6390483967389
 20
157.6815972001764
 10
196.2598362731605
 20
157.9198719728642
 10
195.8371106649592
 20
158.0677900625519
 10
195.3920687992813
 20
158.1179342385699
 10
181.8920688670605
 20
158.1179342385699
 10
181.0019851357046
 20
158.1179342385699
 10
180.1565339193039
 20
158.1179342385699
 10
179.3981096721491
 20
158.1179342385699
 10
178.7647429528915
 20
158.1179342385699
 10
178.2881934135457
 20
158.1179342385699
 10
177.9923572379139
 20
158.1179342385699
 10
177.8920688871439
 20
158.1179342385699
  0
LWPOLYLINE
  5
4D74
330
1F
100
AcDbEntity
  8
HEWI
  6
CUSTOM
 62
    18
420
        0
370
     9
100
AcDbPolyline
 90
        4
 70
     0
 43
0.0
 10
193.3913835764051
 20
18.27371370498304
 10
193.3913835764033
 20
18.26880506206316
 10
193.3458151601753
 20
17.78894378164796
 10
193.2439162513365
 20
17.49754382811761
  0
LINE
  5
4D75
330
1F
100
AcDbEntity
  8
HEWI
  6
CUSTOM
 62
    18
420
        0
370
     9
100
AcDbLine
 10
114.8920692034498
 20
157.1179342309401
 30
0.0
 11
116.8920691934108
 21
157.1179342309401
 31
0.0
  0
LINE
  5
4D76
330
1F
100
AcDbEntity
  8
HEWI
  6
CUSTOM
 62
    18
420
        0
370
     9
100
AcDbLine
 10
138.8920690829527
 20
157.1179342309401
 30
0.0
 11
153.8920690076429
 21
157.1179342309401
 31
0.0
  0
LWPOLYLINE
  5
4D77
330
1F
100
AcDbEntity
  8
HEWI
  6
CUSTOM
 62
    18
420
        0
370
     9
100
AcDbPolyline
 90
        5
 70
     0
 43
0.0
 10
189.5222481231667
 20
17.49754382401215
 10
189.4633785525602
 20
17.64126532968794
 10
189.3927540623226
 20
18.11808505839099
 10
189.3927540623663
 20
18.15492418740314
 10
189.393286972745
 20
18.16053603608589
  0
LWPOLYLINE
  5
4D78
330
1F
100
AcDbEntity
  8
HEWI
  6
CUSTOM
 62
    18
420
        0
370
     9
100
AcDbPolyline
 90
        4
 70
     0
 43
0.0
 10
192.7896106506323
 20
18.27371370478295
 10
192.7596912579338
 20
17.95864552204466
 10
192.6483121215478
 20
17.64013499492967
 10
192.5552784248666
 20
17.49754382800484
  0
LWPOLYLINE
  5
4D79
330
1F
100
AcDbEntity
  8
HEWI
  6
CUSTOM
 62
    18
420
        0
370
     9
100
AcDbPolyline
 90
       26
 70
     0
 43
0.0
 10
95.39206930135515
 20
152.4145675373906
 10
95.39206930135515
 20
152.4145675373906
 10
95.39206930135515
 20
152.6750015388402
 10
95.39206930135515
 20
153.8394005350287
 10
95.39206930135515
 20
153.9696175357544
 10
95.39206930135515
 20
154.2005015977715
 10
95.39206930135515
 20
154.5194385956215
 10
95.39206930135515
 20
154.9090037176061
 10
95.39206930135515
 20
155.3479134533731
 10
95.39206930135515
 20
155.8121883977451
 10
95.39206930135515
 20
156.1179342233104
 10
95.4422134767392
 20
156.5629760946181
 10
95.59013156455511
 20
156.9857017081663
 10
95.82840633423074
 20
157.3649138365413
 10
96.14508969385861
 20
157.6815972001764
 10
96.52430181743694
 20
157.9198719728642
 10
96.94702742563642
 20
158.0677900625519
 10
97.39206929131434
 20
158.1179342385699
 10
110.8920692235333
 20
158.1179342385699
 10
111.782152954891
 20
158.1179342385699
 10
112.6276041712899
 20
158.1179342385699
 10
113.3860284184484
 20
158.1179342385699
 10
114.0193951377059
 20
158.1179342385699
 10
114.4959446770499
 20
158.1179342385699
 10
114.7917808526818
 20
158.1179342385699
 10
114.8920692034498
 20
158.1179342385699
  0
LINE
  5
4D7A
330
1F
100
AcDbEntity
  8
HEWI
  6
CUSTOM
 62
    18
420
        0
370
     9
100
AcDbLine
 10
192.7812640098509
 20
18.18581884432524
 30
0.0
 11
192.7682453999769
 21
18.2737137092422
 31
0.0
  0
LWPOLYLINE
  5
4D7B
330
1F
100
AcDbEntity
  8
HEWI
  6
CUSTOM
 62
    18
420
        0
370
     9
100
AcDbPolyline
 90
        5
 70
     0
 43
0.0
 10
99.52224857503461
 20
17.49754382401215
 10
99.46337900442632
 20
17.64126532968794
 10
99.39275451419053
 20
18.11808505839099
 10
99.39275451423236
 20
18.15492418740314
 10
99.39328742461293
 20
18.16053603608589
  0
LWPOLYLINE
  5
4D7C
330
1F
100
AcDbEntity
  8
HEWI
  6
CUSTOM
 62
    18
420
        0
370
     9
100
AcDbPolyline
 90
        5
 70
     0
 43
0.0
 10
103.2761221568544
 20
17.49754382883611
 10
103.3458156120505
 20
17.69684595912213
 10
103.3913840282784
 20
18.17670723953915
 10
103.3913840282694
 20
18.21354636855039
 10
103.3908511178542
 20
18.21714430176644
  0
LWPOLYLINE
  5
4D7D
330
1F
100
AcDbEntity
  8
HEWI
  6
CUSTOM
 62
    18
420
        0
370
     9
100
AcDbPolyline
 90
        5
 70
     0
 43
0.0
 10
99.39328742448561
 20
18.11448712392894
 10
99.39275451419053
 20
18.10887527614022
 10
99.39275451417962
 20
18.07203614712807
 10
99.46337900441903
 20
17.5952164184232
 10
99.50338654197366
 20
17.49754382668061
  0
LWPOLYLINE
  5
4D7E
330
1F
100
AcDbEntity
  8
HEWI
  6
CUSTOM
 62
    18
420
        0
370
     9
100
AcDbPolyline
 90
        5
 70
     0
 43
0.0
 10
100.2266019226972
 20
17.49754383179925
 10
100.1698851550955
 20
17.57525784028849
 10
100.0419860844686
 20
17.88750484355796
 10
99.99254894130354
 20
18.22127865364882
 10
99.99752825981341
 20
18.27371370305491
  0
LWPOLYLINE
  5
4D7F
330
1F
100
AcDbEntity
  8
HEWI
  6
CUSTOM
 62
    18
420
        0
370
     9
100
AcDbPolyline
 90
        5
 70
     0
 43
0.0
 10
103.2850772412639
 20
17.49754381445518
 10
103.3458156120414
 20
17.67123712112925
 10
103.3913840282694
 20
18.15109840154355
 10
103.3913840282694
 20
18.16749745729021
 10
103.3908511178542
 20
18.17109539050625
  0
LWPOLYLINE
  5
4D80
330
1F
100
AcDbEntity
  8
HEWI
  6
CUSTOM
 62
    18
420
        0
370
     9
100
AcDbPolyline
 90
        5
 70
     0
 43
0.0
 10
99.39328742448561
 20
18.06843821266602
 10
99.39275451419053
 20
18.06282636487731
 10
99.39275451419053
 20
18.04642730913247
 10
99.46337900442632
 20
17.56960758043124
 10
99.4928969417324
 20
17.4975438240549
  0
LWPOLYLINE
  5
4D81
330
1F
100
AcDbEntity
  8
HEWI
  6
CUSTOM
 62
    18
420
        0
370
     9
100
AcDbPolyline
 90
        5
 70
     0
 43
0.0
 10
191.8920688168546
 20
154.4084832548483
 10
192.8920688118323
 20
154.4084832548483
 10
192.8920688118323
 20
154.1007437144103
 10
192.8920688118323
 20
153.3755653907205
 10
192.8920688118323
 20
152.7579586866418
  0
LWPOLYLINE
  5
4D82
330
1F
100
AcDbEntity
  8
HEWI
  6
CUSTOM
 62
    18
420
        0
370
     9
100
AcDbPolyline
 90
        4
 70
     0
 43
0.0
 10
102.789611102502
 20
18.27371370478295
 10
102.7596917097999
 20
17.95864552204466
 10
102.6483125734139
 20
17.64013499492967
 10
102.5552788767363
 20
17.49754382800484
  0
LWPOLYLINE
  5
4D83
330
1F
100
AcDbEntity
  8
HEWI
  6
CUSTOM
 62
    18
420
        0
370
     9
100
AcDbPolyline
 90
        5
 70
     0
 43
0.0
 10
99.54111061080585
 20
17.49754381469165
 10
99.46337900442632
 20
17.68731424095085
 10
99.39275451419053
 20
18.16413396965208
 10
99.39275451417962
 20
18.18563822630085
 10
99.40111830636851
 20
18.27371370400533
  0
LWPOLYLINE
  5
4D84
330
1F
100
AcDbEntity
  8
HEWI
  6
CUSTOM
 62
    18
420
        0
370
     9
100
AcDbPolyline
 90
        4
 70
     0
 43
0.0
 10
103.3913840282712
 20
18.27371370498304
 10
103.3913840282694
 20
18.26880506206498
 10
103.3458156120414
 20
17.78894378164796
 10
103.2439167032044
 20
17.49754382812034
  0
LWPOLYLINE
  5
4D85
330
1F
100
AcDbEntity
  8
HEWI
  6
CUSTOM
 62
    18
420
        0
370
     9
100
AcDbPolyline
 90
        5
 70
     0
 43
0.0
 10
103.3908511163263
 20
18.26319322302106
 10
103.3913840282221
 20
18.25959527981058
 10
103.3913840282694
 20
18.22275615080207
 10
103.3458156120414
 20
17.74289487038777
 10
103.2600194252827
 20
17.49754381492084
  0
LWPOLYLINE
  5
4D86
330
1F
100
AcDbEntity
  8
HEWI
  6
CUSTOM
 62
    18
420
        0
370
     9
100
AcDbPolyline
 90
        4
 70
     0
 43
0.0
 10
191.8920688168546
 20
154.4084832548483
 10
191.8920688168546
 20
154.1007437144103
 10
191.8920688168546
 20
153.3755653907205
 10
191.8920688168546
 20
152.7579586866418
  0
LINE
  5
4D87
330
1F
100
AcDbEntity
  8
HEWI
  6
CUSTOM
 62
    18
420
        0
370
     9
100
AcDbLine
 10
191.3920687872487
 20
153.5411491674727
 30
0.0
 11
191.8920688168546
 21
154.4084832548483
 31
0.0
  0
LWPOLYLINE
  5
4D88
330
1F
100
AcDbEntity
  8
HEWI
  6
CUSTOM
 62
    18
420
        0
370
     9
100
AcDbPolyline
 90
       13
 70
     0
 43
0.0
 10
188.026259901213
 20
155.0822910830734
 10
188.7565338761251
 20
155.4337994287975
 10
189.6019850925258
 20
155.6604230900807
 10
190.4920688238835
 20
155.7372484248694
 10
193.2920688098256
 20
155.7372484248694
 10
193.5145897426646
 20
155.7211323973492
 10
193.7259525467652
 20
155.6735924396994
 10
193.9155586085526
 20
155.5970124039081
 10
194.0739002883656
 20
155.4952323327375
 10
194.1930376732034
 20
155.373355903956
 10
194.2669967171114
 20
155.2374945106144
 10
194.2920688048034
 20
155.0944608102795
 10
194.2920688048034
 20
152.7579586559418
  0
LWPOLYLINE
  5
4D89
330
1F
100
AcDbEntity
  8
HEWI
  6
CUSTOM
 62
    18
420
        0
370
     9
100
AcDbPolyline
 90
        5
 70
     0
 43
0.0
 10
100.1037165096622
 20
17.49754383330173
 10
100.0825862896399
 20
17.52649671915742
 10
99.94555157110699
 20
17.86104707980621
 10
99.89258320342925
 20
18.21866187633668
 10
99.8978110154203
 20
18.27371370308219
  0
LWPOLYLINE
  5
4D8A
330
1F
100
AcDbEntity
  8
HEWI
  6
CUSTOM
 62
    18
420
        0
370
     9
100
AcDbPolyline
 90
        4
 70
     0
 43
0.0
 10
102.8893283469115
 20
18.27371370493301
 10
102.8573790268583
 20
17.93726923532949
 10
102.7380442378762
 20
17.5960079562733
 10
102.6738012518544
 20
17.49754382262972
  0
LINE
  5
4D8B
330
1F
100
AcDbEntity
  8
HEWI
  6
CUSTOM
 62
    18
420
        0
370
     9
100
AcDbLine
 10
102.7812644617206
 20
18.18581884432524
 30
0.0
 11
102.7682458518429
 21
18.2737137092422
 31
0.0
  0
LINE
  5
4D8C
330
1F
100
AcDbEntity
  8
HEWI
  6
CUSTOM
 62
    18
420
        0
370
     9
100
AcDbLine
 10
100.0144731709151
 20
18.2737137010904
 30
0.0
 11
100.0028740799407
 21
18.15156869131124
 31
0.0
  0
LWPOLYLINE
  5
4D8D
330
1F
100
AcDbEntity
  8
HEWI
  6
CUSTOM
 62
    18
420
        0
370
     9
100
AcDbPolyline
 90
       13
 70
     0
 43
0.0
 10
98.69206928478707
 20
152.7579586559418
 10
98.69206928478707
 20
155.0944608102795
 10
98.7171413724809
 20
155.2374945106144
 10
98.79110041638705
 20
155.373355903956
 10
98.91023780122305
 20
155.4952323327375
 10
99.06857948103789
 20
155.5970124039081
 10
99.25818554282706
 20
155.6735924396994
 10
99.46954834692769
 20
155.7211323973492
 10
99.69206927976665
 20
155.7372484248694
 10
102.4920692657087
 20
155.7372484248694
 10
103.3821529970646
 20
155.6604230900834
 10
104.2276042134635
 20
155.4337994288003
 10
104.8736982210448
 20
155.1228100692046
  0
LWPOLYLINE
  5
4D8E
330
1F
100
AcDbEntity
  8
HEWI
  6
CUSTOM
 62
    18
420
        0
370
     9
100
AcDbPolyline
 90
        6
 70
     0
 43
0.0
 10
175.892070899903
 20
156.0139952356016
 10
184.4920688540078
 20
156.0139952356016
 10
184.4920688540078
 20
155.9499203970777
 10
184.4920688540078
 20
155.760980349422
 10
184.4920688540078
 20
155.4568601349942
 10
184.4920688540078
 20
155.2071920121702
  0
LWPOLYLINE
  5
4D8F
330
1F
100
AcDbEntity
  8
HEWI
  6
CUSTOM
 62
    18
420
        0
370
     9
100
AcDbPolyline
 90
       15
 70
     0
 43
0.0
 10
187.0854147935479
 20
155.2071920132052
 10
187.3647429097127
 20
155.5477356576998
 10
187.9981096289684
 20
156.0329227195793
 10
188.7565338761251
 20
156.3979808506842
 10
189.6019850925258
 20
156.6246045119674
 10
190.4920688238835
 20
156.7014298467561
 10
193.2920688098256
 20
156.7014298467561
 10
193.848371141923
 20
156.6611397779511
 10
194.3767781521728
 20
156.5422898838292
 10
194.8507933066448
 20
156.3508397943483
 10
195.2466475061828
 20
156.0963896164262
 10
195.5444909682719
 20
155.7916985444731
 10
195.7293885780418
 20
155.4520450611157
 10
195.7920687972709
 20
155.0944608102795
 10
195.7920687972709
 20
152.7579586559418
  0
LWPOLYLINE
  5
4D90
330
1F
100
AcDbEntity
  8
HEWI
  6
CUSTOM
 62
    18
420
        0
370
     9
100
AcDbPolyline
 90
       15
 70
     0
 43
0.0
 10
97.19206929231768
 20
152.7579586559418
 10
97.19206929231768
 20
155.0944608102795
 10
97.25474951155048
 20
155.4520450611157
 10
97.43964712132038
 20
155.7916985444731
 10
97.73749058340946
 20
156.0963896164262
 10
98.13334478294382
 20
156.3508397943483
 10
98.60735993741764
 20
156.5422898838292
 10
99.13576694766925
 20
156.6611397779538
 10
99.69206927976665
 20
156.7014298467561
 10
102.4920692657087
 20
156.7014298467561
 10
103.3821529970646
 20
156.6246045119674
 10
104.2276042134635
 20
156.3979808506842
 10
104.986028460622
 20
156.0329227195811
 10
105.6193951798795
 20
155.5477356576998
 10
105.8987232960426
 20
155.2071920132052
  0
LWPOLYLINE
  5
4D91
330
1F
100
AcDbEntity
  8
HEWI
  6
CUSTOM
 62
    18
420
        0
370
     9
100
AcDbPolyline
 90
        6
 70
     0
 43
0.0
 10
108.4920692355845
 20
155.2071920121702
 10
108.4920692355845
 20
155.4568601349942
 10
108.4920692355845
 20
155.760980349422
 10
108.4920692355845
 20
155.9499203970777
 10
108.4920692355845
 20
156.0139952356035
 10
116.8920691993698
 20
156.0139952356035
  0
LINE
  5
4D92
330
1F
100
AcDbEntity
  8
HEWI
  6
CUSTOM
 62
    18
420
        0
370
     9
100
AcDbLine
 10
138.8920695359502
 20
156.0139952356035
 30
0.0
 11
153.8920688645921
 21
156.0139952356016
 31
0.0
  0
LWPOLYLINE
  5
4D93
330
1F
100
AcDbEntity
  8
HEWI
  6
CUSTOM
 62
    18
420
        0
370
     9
100
AcDbPolyline
 90
      103
 70
     0
 43
0.0
 10
246.122908842357
 20
21.37600755448284
 10
246.2920685437257
 20
22.89611233804999
 10
246.2920685437257
 20
112.3723867574776
 10
246.1569690347405
 20
113.5219572507735
 10
245.7969887507697
 20
114.6176819081679
 10
245.2319225887714
 20
115.5749048004768
 10
244.4820349790571
 20
116.373366869187
 10
243.5675903519368
 20
116.9928090557946
 10
242.3831889761186
 20
117.4464759146081
 10
240.8920685708381
 20
117.6282036450252
 10
202.3920687641385
 20
117.6282036450252
 10
201.9470268984569
 20
117.6293581873719
 10
201.5243012902593
 20
117.6327639208389
 10
201.1450891666791
 20
117.6382500677287
 10
200.8284058070513
 20
117.6455415297291
 10
200.5901310373793
 20
117.6542726824859
 10
200.4422129495615
 20
117.6640057095442
 10
200.3920687741775
 20
117.6742525562854
 10
200.3920687741775
 20
117.7709552699357
 10
200.3920687741775
 20
117.8158840400879
 10
200.3920687741775
 20
117.9337329602144
 10
200.3920687741775
 20
118.117653079436
 10
200.3920687741775
 20
118.3569556289499
 10
200.3920687741775
 20
118.6377332144034
 10
200.3920687741775
 20
118.9436680631192
 10
200.3920687741775
 20
119.2569803537149
 10
200.3920687741775
 20
119.5594615147051
 10
200.3920687741775
 20
119.8335324404902
 10
200.3920687741775
 20
120.0632651250685
 10
200.3920687741775
 20
120.2353083398552
 10
200.3920687741775
 20
120.3396635585627
 10
200.3920687741775
 20
120.3702660351914
 10
240.8920685708381
 20
120.3702660351914
 10
242.8240615498471
 20
120.1276445121025
 10
244.6426278890776
 20
119.4290287601902
 10
246.2418201661167
 20
118.3182920054864
 10
247.5174188805941
 20
116.8475253842857
 10
248.4001472237742
 20
115.1114254909121
 10
248.7663972295832
 20
113.7633103079074
 10
248.8920685306712
 20
112.3723867574776
 10
248.8920685306712
 20
22.89611233804999
 10
248.8920685306712
 20
15.84141913284702
 10
248.7663972295832
 20
14.45049558241726
 10
248.4001472237705
 20
13.10238039941259
 10
247.5174188805922
 20
11.36628050603713
 10
246.2418201661149
 20
9.895513884838237
 10
244.6426278890776
 20
8.784777130134443
 10
242.8240615498453
 20
8.086161378222186
 10
240.8920685708381
 20
7.843539855133258
 10
51.89206951975939
 20
7.843539855133258
 10
50.50077715822408
 20
7.969177842613589
 10
49.15230451498974
 20
8.335330760940905
 10
47.41574428508465
 20
9.217825105841711
 10
45.94458768194272
 20
10.49308567789512
 10
44.83355640922127
 20
12.09185403262245
 10
44.20651916588576
 20
13.71846612014951
 10
44.13475541545813
 20
13.90993829671197
 10
43.89206955992631
 20
15.84141913284702
 10
43.89206955992631
 20
22.89611233804999
 10
43.89206955992631
 20
112.3723867574776
 10
44.13475541545813
 20
114.3038675936127
 10
44.19391472105599
 20
114.4966698464382
 10
44.83355640922127
 20
116.1219518577022
 10
44.8979282385244
 20
116.2238924004773
 10
45.84561665945694
 20
117.5843192712013
 10
45.94458768194272
 20
117.7207202124314
 10
47.41574428508465
 20
118.995980784483
 10
49.15230451498974
 20
119.8784751293838
 10
50.0576195220965
 20
120.1462180705207
 10
50.50077715822408
 20
120.2446280477138
 10
50.95913306725925
 20
120.3045954224685
 10
51.89206951975757
 20
120.3702660351914
 10
92.39206931642002
 20
120.3702660351914
 10
92.39206931642002
 20
120.3396635585627
 10
92.39206931642002
 20
120.2353083398552
 10
92.39206931642002
 20
120.0632651250685
 10
92.39206931642002
 20
119.8335324404902
 10
92.39206931642002
 20
119.5594615147051
 10
92.39206931642002
 20
119.2569803537149
 10
92.39206931642002
 20
118.9436680631192
 10
92.39206931642002
 20
118.6377332144034
 10
92.39206931642002
 20
118.3569556289499
 10
92.39206931642002
 20
118.117653079436
 10
92.39206931642002
 20
117.9337329602144
 10
92.39206931642002
 20
117.8158840400879
 10
92.39206931642002
 20
117.7709552699357
 10
92.39206931642002
 20
117.6742525562854
 10
92.34192514103597
 20
117.6640057095469
 10
92.19400705321822
 20
117.6542726824878
 10
91.95573228354442
 20
117.6455415297291
 10
91.63904892391474
 20
117.6382500677314
 10
91.25983680033824
 20
117.6327639208407
 10
90.83711119213694
 20
117.6293581873738
 10
90.39206932645901
 20
117.6282036450252
 10
51.89206951975757
 20
117.6282036450252
 10
51.23058716394189
 20
117.5939325733738
 10
50.59940473516326
 20
117.4931399489301
 10
49.5033895402903
 20
117.1332550904285
 10
48.54591283501395
 20
116.5683387191452
 10
47.74723904965139
 20
115.8186498935861
 10
47.12763261450527
 20
114.9044476722642
 10
46.67384546340509
 20
113.7203602637978
 10
46.49206954686997
 20
112.2296351325699
  0
LWPOLYLINE
  5
4D94
330
1F
100
AcDbEntity
  8
HEWI
  6
CUSTOM
 62
    18
420
        0
370
     9
100
AcDbPolyline
 90
        5
 70
     0
 43
0.0
 10
99.89206927876148
 20
152.7579586805936
 10
99.89206927876148
 20
153.2204679396532
 10
99.89206927876148
 20
154.0102590753972
 10
99.89206927876148
 20
154.3878700662076
 10
100.8920692737429
 20
154.3878700662076
  0
LWPOLYLINE
  5
4D95
330
1F
100
AcDbEntity
  8
HEWI
  6
CUSTOM
 62
    18
420
        0
370
     9
100
AcDbPolyline
 90
        4
 70
     0
 43
0.0
 10
100.8920692737429
 20
152.7579586805936
 10
100.8920692737429
 20
153.2204679396532
 10
100.8920692737429
 20
154.0102590753972
 10
100.8920692737429
 20
154.3878700662076
  0
LINE
  5
4D96
330
1F
100
AcDbEntity
  8
HEWI
  6
CUSTOM
 62
    18
420
        0
370
     9
100
AcDbLine
 10
101.3920693033487
 20
153.448537266398
 30
0.0
 11
100.8920692737429
 21
154.3878700662076
 31
0.0
  0
LWPOLYLINE
  5
4D97
330
1F
100
AcDbEntity
  8
HEWI
  6
CUSTOM
 62
    18
420
        0
370
     9
100
AcDbPolyline
 90
       25
 70
     0
 43
0.0
 10
246.16045911133
 20
21.52587898779666
 10
246.1287216814362
 20
21.39176217071645
 10
245.7149743871578
 20
20.27037580879687
 10
245.6789957958099
 20
20.20028214296099
 10
245.0627095035579
 20
19.28477742213863
 10
244.9885012930117
 20
19.199557478119
 10
244.2652718153968
 20
18.53708911814328
 10
244.0129554600844
 20
18.36092416113251
 10
243.3052435763584
 20
17.97577315580247
 10
242.8300642448685
 20
17.79058416498947
 10
242.2011856314839
 20
17.61938545994644
 10
241.8865837700559
 20
17.56160288721594
 10
240.8920685708381
 20
17.49754382559195
 10
51.89206951975939
 20
17.49754382559195
 10
50.51398297423839
 20
17.62268528170216
 10
50.37953815746551
 20
17.65451032908322
 10
49.25528043324266
 20
18.06936416713006
 10
49.18499954855178
 20
18.10543637519322
 10
48.26696267889747
 20
18.7232740218983
 10
48.18149855605042
 20
18.79766293165039
 10
47.5170789836975
 20
19.5225919188174
 10
47.34037824770894
 20
19.77547621989424
 10
46.95402761634795
 20
20.48471586412552
 10
46.76824594801837
 20
20.9608684802638
 10
46.596487730234
 20
21.59097165599769
  0
LWPOLYLINE
  5
4D98
330
1F
100
AcDbEntity
  8
HEWI
  6
CUSTOM
 62
    18
420
        0
370
     9
100
AcDbPolyline
 90
        3
 70
     0
 43
0.0
 10
46.49206954686997
 20
112.3723867574776
 10
46.49206954686997
 20
22.89611233804999
 10
46.62467011350964
 20
21.48758322543972
  0
LINE
  5
4D99
330
1F
100
AcDbEntity
  8
HEWI
  6
CUSTOM
 62
    18
420
        0
370
     9
100
AcDbLine
 10
246.2920685437257
 20
105.5525429997064
 30
0.0
 11
246.1104387112609
 21
107.0439983576566
 31
0.0
  0
LINE
  5
4D9A
330
1F
100
AcDbEntity
  8
HEWI
  6
CUSTOM
 62
    18
420
        0
370
     9
100
AcDbLine
 10
246.2920685437257
 20
105.3176935522747
 30
0.0
 11
246.1104387112609
 21
107.0439983576566
 31
0.0
  0
LWPOLYLINE
  5
4D9B
330
1F
100
AcDbEntity
  8
HEWI
  6
CUSTOM
 62
    18
420
        0
370
     9
100
AcDbPolyline
 90
        3
 70
     0
 43
0.0
 10
46.49206953998509
 20
108.9764536787274
 10
47.00699988713495
 20
109.7478490397893
 10
47.29753789263305
 20
110.0162958815267
  0
LINE
  5
4D9C
330
1F
100
AcDbEntity
  8
HEWI
  6
CUSTOM
 62
    18
420
        0
370
     9
100
AcDbLine
 10
46.65498581369138
 20
21.37636865936793
 30
0.0
 11
46.91538057599609
 21
20.58376702417127
 31
0.0
  0
LWPOLYLINE
  5
4DA8
330
1F
100
AcDbEntity
  8
HEWI
  6
CUSTOM
 62
    18
420
        0
370
     9
100
AcDbPolyline
 90
       46
 70
     0
 43
0.0
 10
44.83806726122748
 20
666.3962789854145
 10
44.89611735491417
 20
666.405726641979
 10
44.97616931408993
 20
666.4149594469895
 10
45.21220349552459
 20
666.4335626489424
 10
45.77436151105939
 20
666.4776205959765
 10
46.00355384142313
 20
666.4906448532351
 10
46.47772963819988
 20
666.5101785890461
 10
46.69363832973613
 20
666.5171832858345
 10
47.50076235167035
 20
666.5373857192458
 10
47.60407549998308
 20
666.5394696108383
 10
48.70708017672041
 20
666.556864089744
 10
48.79102732061983
 20
666.5578848756218
 10
50.12469721005254
 20
666.5696758383005
 10
50.28303928466812
 20
666.5705850510326
 10
51.89206648875551
 20
666.5873534838979
 10
240.8920716018456
 20
666.5922729822227
 10
241.7151263961223
 20
666.5831303017117
 10
242.1152837689606
 20
666.5818378749913
 10
242.5061375047753
 20
666.5800551357692
 10
243.2930704405244
 20
666.5747964333709
 10
243.8926892698182
 20
666.5691381830515
 10
244.7939024581538
 20
666.5574496627691
 10
245.1176362286569
 20
666.5521344891126
 10
246.053048820142
 20
666.5322996382615
 10
246.1496883121526
 20
666.5297644907163
 10
246.9575554511666
 20
666.5027486246295
 10
247.0050369252258
 20
666.5006961987614
 10
247.5541952231415
 20
666.4681583898659
 10
247.5966055719473
 20
666.4643039496791
 10
247.7950082859516
 20
666.4252429588036
 10
248.0890381926492
 20
666.3413659293587
 10
248.3563899218625
 20
666.1926352713221
 10
248.581107269576
 20
665.9858301628414
 10
248.7502761789856
 20
665.7312250330956
 10
248.8558574370145
 20
665.4444773815753
 10
248.8920718182744
 20
665.1413088793629
 10
248.8920718182744
 20
358.8225429372192
 10
248.8920718182744
 20
356.7618542282094
 10
248.8652164211053
 20
356.5155581241965
 10
248.7887529795789
 20
356.2809374630865
 10
248.654398341454
 20
356.0432678240245
 10
248.47550599637
 20
355.8354847374044
 10
248.2603127600541
 20
355.6658228349511
 10
248.0170554482338
 20
355.5425167483868
 10
247.753970876629
 20
355.4738011094337
 10
247.2046789130527
 20
355.4408605468375
  0
LWPOLYLINE
  5
4DA9
330
1F
100
AcDbEntity
  8
HEWI
  6
CUSTOM
 62
    18
420
        0
370
     9
100
AcDbPolyline
 90
       33
 70
     0
 43
0.0
 10
100.3920678008435
 20
357.6837636721279
 10
100.3920678008435
 20
356.637522172025
 10
100.3920678008435
 20
356.3256245278831
 10
100.3920678008435
 20
356.0301137142046
 10
100.3920678008435
 20
355.768163745342
 10
100.3920678008435
 20
355.5549982013358
 10
100.3920678008435
 20
355.4030054887785
 10
100.3920678008435
 20
355.3210188716525
 10
100.3920678008435
 20
355.3138031141366
 10
51.89206648875551
 20
355.3136139261182
 10
50.10008998530065
 20
355.3188661385507
 10
48.66120676266837
 20
355.3319036951648
 10
47.43572916108314
 20
355.3517128160088
 10
46.39563636326601
 20
355.3793613439252
 10
45.68003414738813
 20
355.4124187518714
 10
45.39011317172844
 20
355.438437828348
 10
45.08040401160906
 20
355.4677249362608
 10
44.81455162819111
 20
355.5254275697739
 10
44.5670011683087
 20
355.6392455826995
 10
44.34598944768914
 20
355.8009443433143
 10
44.15975328205786
 20
356.0022892198963
 10
44.01652948713672
 20
356.2350455807214
 10
43.92455487865118
 20
356.4909787940674
 10
43.89206627232669
 20
356.7618542282094
 10
43.89206627232669
 20
358.8225429372192
 10
43.89206627232669
 20
665.1413088793629
 10
43.90827421756512
 20
665.3444819108294
 10
43.95599673585275
 20
665.542648793476
 10
44.08355337443026
 20
665.8204588909616
 10
44.27223953748034
 20
666.0607706804325
 10
44.51291308921827
 20
666.2490032442169
 10
44.79093608942458
 20
666.3768627953864
 10
44.83806726122748
 20
666.3962789854145
  0
LWPOLYLINE
  5
4DAA
330
1F
100
AcDbEntity
  8
HEWI
  6
CUSTOM
 62
    18
420
        0
370
     9
100
AcDbPolyline
 90
       22
 70
     0
 43
0.0
 10
247.3468154023231
 20
357.5566125846258
 10
247.2946372560564
 20
357.5653490747477
 10
247.2226195747771
 20
357.5738721557532
 10
247.0099641489742
 20
357.5910019693533
 10
246.7808659955717
 20
357.6040275717965
 10
246.3068524797036
 20
357.6235614787915
 10
246.091004868058
 20
357.6305656914988
 10
245.2840458405844
 20
357.6507650601893
 10
245.1807469726682
 20
357.6528484892656
 10
244.0778030898491
 20
357.6702379395006
 10
243.9938538347178
 20
357.6712583603526
 10
242.6600241611504
 20
357.6830444230704
 10
242.5016472944262
 20
357.6839531957908
 10
240.8920716018456
 20
357.6801065293398
 10
51.89206648875551
 20
357.6850260276656
 10
50.71519302437264
 20
357.6759273330986
 10
49.58513034312819
 20
357.6692520608653
 10
48.14937826747518
 20
357.6527757104009
 10
46.94854511657285
 20
357.6288281413868
 10
46.088193741949
 20
357.6006121884434
 10
45.52194550494277
 20
357.567482687547
 10
45.29383098229664
 20
357.5262234065208
  0
LWPOLYLINE
  5
4DAB
330
1F
100
AcDbEntity
  8
HEWI
  6
CUSTOM
 62
    18
420
        0
370
     9
100
AcDbPolyline
 90
        3
 70
     0
 43
0.0
 10
45.30924930261426
 20
666.4411684091706
 10
45.09030163162242
 20
666.437628409974
 10
44.83806726122748
 20
666.3962789854145
  0
LWPOLYLINE
  5
4DAC
330
1F
100
AcDbEntity
  8
HEWI
  6
CUSTOM
 62
    18
420
        0
370
     9
100
AcDbPolyline
 90
       23
 70
     0
 43
0.0
 10
247.2367757602878
 20
355.4427853671591
 10
247.1652090211173
 20
355.437214005919
 10
246.6533157705017
 20
355.4065033056545
 10
246.608996767658
 20
355.4045704198729
 10
245.8537367270055
 20
355.3791757389276
 10
245.7632490630603
 20
355.3767973388717
 10
244.8859484116892
 20
355.3582175476817
 10
244.581740866166
 20
355.3532477742278
 10
243.7333426021524
 20
355.342333871728
 10
243.1676135596845
 20
355.3370590117824
 10
242.423630078827
 20
355.3321627366645
 10
242.0534549197782
 20
355.330504568858
 10
241.6740109583206
 20
355.3293031955177
 10
240.8920716018456
 20
355.3089277739905
 10
192.3920702897576
 20
355.3138031141366
 10
192.3920702897576
 20
355.3210188716525
 10
192.3920702897576
 20
355.4030054887785
 10
192.3920702897576
 20
355.5549982013358
 10
192.3920702897576
 20
355.768163745342
 10
192.3920702897576
 20
356.0301137142046
 10
192.3920702897576
 20
356.3256245278831
 10
192.3920702897576
 20
356.6375221720241
 10
192.3920702897576
 20
357.681368984267
  0
LINE
  5
4DAD
330
1F
100
AcDbEntity
  8
HEWI
  6
CUSTOM
 62
    18
420
        0
370
     9
100
AcDbLine
 10
46.49206634266739
 20
356.7618542282094
 30
0.0
 11
46.49206634266739
 21
357.6138575261543
 31
0.0
  0
LINE
  5
4DAE
330
1F
100
AcDbEntity
  8
HEWI
  6
CUSTOM
 62
    18
420
        0
370
     9
100
AcDbLine
 10
246.2920717479355
 20
356.7618542282094
 30
0.0
 11
246.2920717479355
 21
357.6240410810938
 31
0.0
  0
ENDSEC
  0
SECTION
  2
OBJECTS
  0
DICTIONARY
  5
C
330
0
100
AcDbDictionary
281
     1
  3
ACAD_CIP_PREVIOUS_PRODUCT_INFO
350
615
  3
ACAD_COLOR
350
1EB
  3
ACAD_DETAILVIEWSTYLE
350
5EB
  3
ACAD_GROUP
350
D
  3
ACAD_LAYOUT
350
1EE
  3
ACAD_MATERIAL
350
1D6
  3
ACAD_MLEADERSTYLE
350
5E7
  3
ACAD_MLINESTYLE
350
17
  3
ACAD_PLOTSETTINGS
350
19
  3
ACAD_PLOTSTYLENAME
350
10D
  3
ACAD_SCALELIST
350
5D5
  3
ACAD_SECTIONVIEWSTYLE
350
5E9
  3
ACAD_TABLESTYLE
350
1EC
  3
ACAD_VISUALSTYLE
350
1DA
  3
ACDB_RECOMPOSE_DATA
350
4DCA
  3
AcDbVariableDictionary
350
1F3
  3
AcDsDecomposeData
350
4DD0
  0
DICTIONARY
  5
3E4
330
2
100
AcDbDictionary
280
     1
281
     1
  3
ACAD_LAYERSTATES
360
3E5
  0
DICTIONARY
  5
624
330
10
100
AcDbDictionary
280
     1
281
     1
  3
ADSK_XREC_LAYER_RECONCILED
360
625
  0
DICTIONARY
  5
62A
330
4D7
100
AcDbDictionary
280
     1
281
     1
  3
ADSK_XREC_LAYER_RECONCILED
360
62B
  0
DICTIONARY
  5
107
330
1F
100
AcDbDictionary
280
     1
281
     1
  3
ACAD_LAYOUTSELFREF
360
1D3
  3
ACAD_SORTENTS
360
3BB
  0
DICTIONARY
  5
105
330
1B
100
AcDbDictionary
280
     1
281
     1
  3
ACAD_LAYOUTSELFREF
360
1D2
  0
XRECORD
  5
615
102
{ACAD_REACTORS
330
C
102
}
330
C
100
AcDbXrecord
280
     1
300
ACDLT
300
2021
300

  0
DICTIONARY
  5
1EB
102
{ACAD_REACTORS
330
C
102
}
330
C
100
AcDbDictionary
281
     1
  0
DICTIONARY
  5
5EB
102
{ACAD_REACTORS
330
C
102
}
330
C
100
AcDbDictionary
281
     1
  3
Imperial24
350
5EC
  3
Metric50
350
677
  0
DICTIONARY
  5
D
102
{ACAD_REACTORS
330
C
102
}
330
C
100
AcDbDictionary
281
     1
  0
DICTIONARY
  5
1EE
102
{ACAD_REACTORS
330
C
102
}
330
C
100
AcDbDictionary
281
     1
  3
Layout1
350
1F0
  3
Model
350
1EF
  0
DICTIONARY
  5
1D6
102
{ACAD_REACTORS
330
C
102
}
330
C
100
AcDbDictionary
281
     1
  3
ByBlock
350
1D8
  3
ByLayer
350
1D7
  3
Global
350
1D9
  0
DICTIONARY
  5
5E7
102
{ACAD_REACTORS
330
C
102
}
330
C
100
AcDbDictionary
281
     1
  3
Standard
350
5E8
  0
DICTIONARY
  5
17
102
{ACAD_REACTORS
330
C
102
}
330
C
100
AcDbDictionary
281
     1
  3
STANDARD
350
18
  0
DICTIONARY
  5
19
102
{ACAD_REACTORS
330
C
102
}
330
C
100
AcDbDictionary
281
     1
  0
ACDBDICTIONARYWDFLT
  5
10D
102
{ACAD_REACTORS
330
C
102
}
330
C
100
AcDbDictionary
281
     1
  3
Normal
350
10E
100
AcDbDictionaryWithDefault
340
10E
  0
DICTIONARY
  5
5D5
102
{ACAD_REACTORS
330
C
102
}
330
C
100
AcDbDictionary
281
     1
  3
A0
350
5D6
  3
A1
350
5D7
  3
A2
350
5D8
  3
A3
350
5D9
  3
A4
350
5DA
  3
A5
350
5DB
  3
A6
350
5DC
  3
A7
350
5DD
  3
A8
350
5DE
  3
A9
350
5DF
  3
B0
350
5E0
  3
B1
350
5E1
  3
B2
350
5E2
  3
B3
350
5E3
  3
B4
350
5E4
  3
B5
350
5E5
  3
B6
350
5E6
  0
DICTIONARY
  5
5E9
102
{ACAD_REACTORS
330
C
102
}
330
C
100
AcDbDictionary
281
     1
  3
Imperial24
350
5EA
  3
Metric50
350
676
  0
DICTIONARY
  5
1EC
102
{ACAD_REACTORS
330
C
102
}
330
C
100
AcDbDictionary
281
     1
  3
Standard
350
1ED
  0
DICTIONARY
  5
1DA
102
{ACAD_REACTORS
330
C
102
}
330
C
100
AcDbDictionary
281
     1
  3
2dWireframe
350
1E0
  3
3D Hidden
350
1E2
  3
3dWireframe
350
1E1
  3
Basic
350
1DF
  3
Brighten
350
1E6
  3
ColorChange
350
1EA
  3
Conceptual
350
1E3
  3
Dim
350
1E5
  3
EdgeColorOff
350
5D4
  3
Facepattern
350
1E9
  3
Flat
350
1DB
  3
FlatWithEdges
350
1DC
  3
Gouraud
350
1DD
  3
GouraudWithEdges
350
1DE
  3
Hidden
350
5CC
  3
JitterOff
350
5D2
  3
Linepattern
350
1E8
  3
OverhangOff
350
5D3
  3
Realistic
350
1E4
  3
Shaded
350
5D1
  3
Shaded with edges
350
5D0
  3
Shades of Gray
350
5CD
  3
Sketchy
350
5CE
  3
Thicken
350
1E7
  3
Wireframe
350
5CB
  3
X-Ray
350
5CF
  0
XRECORD
  5
4DCA
102
{ACAD_REACTORS
330
C
102
}
330
C
100
AcDbXrecord
280
     1
 90
        1
330
1ED
  0
DICTIONARY
  5
1F3
102
{ACAD_REACTORS
330
C
102
}
330
C
100
AcDbDictionary
281
     1
  3
CANNOSCALE
350
630
  3
CMLEADERSTYLE
350
62C
  3
CTABLESTYLE
350
1F4
  3
CVIEWDETAILSTYLE
350
62D
  3
CVIEWSECTIONSTYLE
350
62E
  3
DIMASSOC
350
586
  3
INDEXCTL
350
585
  3
LAYEREVAL
350
632
  3
LAYERNOTIFY
350
633
  3
LIGHTINGUNITS
350
631
  3
MSLTSCALE
350
62F
  3
SORTENTS
350
584
  0
DICTIONARY
  5
4DD0
102
{ACAD_REACTORS
330
C
102
}
330
C
100
AcDbDictionary
281
     1
  3
AcDsRecords
350
4DD2
  3
AcDsSchemas
350
4DD1
1001
ACAD
1070
     2
  0
DICTIONARY
  5
3E5
102
{ACAD_REACTORS
330
3E4
102
}
330
3E4
100
AcDbDictionary
281
     1
  0
XRECORD
  5
625
102
{ACAD_REACTORS
330
624
102
}
330
624
100
AcDbXrecord
280
     1
290
     1
  0
XRECORD
  5
62B
102
{ACAD_REACTORS
330
62A
102
}
330
62A
100
AcDbXrecord
280
     1
290
     1
  0
XRECORD
  5
1D3
102
{ACAD_REACTORS
330
107
102
}
330
107
100
AcDbXrecord
280
     1
340
1F
  0
SORTENTSTABLE
  5
3BB
102
{ACAD_REACTORS
330
107
102
}
330
107
100
AcDbSortentsTable
330
1F
  0
XRECORD
  5
1D2
102
{ACAD_REACTORS
330
105
102
}
330
105
100
AcDbXrecord
280
     1
340
1B
  0
ACDBDETAILVIEWSTYLE
  5
5EC
102
{ACAD_XDICTIONARY
360
4DD5
102
}
102
{ACAD_REACTORS
330
5EB
102
}
330
5EB
100
AcDbModelDocViewStyle
 70
     0
  3
Imperial24
290
     0
100
AcDbDetailViewStyle
 70
     0
 71
     0
 90
        3
 71
     1
340
11
 62
   256
 40
0.24
340
0
 62
   256
 40
0.24
300

 40
0.36
280
     3
 71
     2
340
16
 90
       25
 62
   256
 71
     3
340
11
 62
   256
 40
0.24
 90
        1
 40
0.75
 90
        1
300
%<\AcVar ViewType \f "%tc1">% %<\AcVar ViewDetailId>%\PVARIA %<\AcVar ViewScale \f "%sn">%
 71
     4
340
16
 90
       25
 62
   256
340
16
 90
       25
 62
   256
280
     0
  0
ACDBDETAILVIEWSTYLE
  5
677
102
{ACAD_XDICTIONARY
360
4DD9
102
}
102
{ACAD_REACTORS
330
5EB
102
}
330
5EB
100
AcDbModelDocViewStyle
 70
     0
  3
Metric50
290
     0
100
AcDbDetailViewStyle
 70
     0
 71
     0
 90
        3
 71
     1
340
11
 62
   256
 40
5.0
340
0
 62
   256
 40
5.0
300

 40
0.0
280
     1
 71
     2
340
16
 90
       25
 62
   256
 71
     3
340
11
 62
   256
 40
5.0
 90
        0
 40
15.0
 90
        1
300
%<\AcVar ViewDetailId>% (%<\AcVar ViewScale \f "%sn">%)
 71
     4
340
16
 90
       25
 62
   256
340
16
 90
       25
 62
   256
280
     0
  0
LAYOUT
  5
1F0
102
{ACAD_REACTORS
330
1EE
102
}
330
1EE
100
AcDbPlotSettings
  1

  2
\\druckserv1\AROBBE04
  4

  6

 40
0.0
 41
0.0
 42
0.0
 43
0.0
 44
0.0
 45
0.0
 46
0.0
 47
0.0
 48
0.0
 49
0.0
140
0.0
141
0.0
142
1.0
143
1.0
 70
   688
 72
     0
 73
     0
 74
     5
  7

 75
    16
147
1.0
 76
     0
 77
     2
 78
   300
148
0.0
149
0.0
100
AcDbLayout
  1
Layout1
 70
     1
 71
     1
 10
0.0
 20
0.0
 11
12.0
 21
9.0
 12
0.0
 22
0.0
 32
0.0
 14
1.000000000000000E+20
 24
1.000000000000000E+20
 34
1.000000000000000E+20
 15
-1.000000000000000E+20
 25
-1.000000000000000E+20
 35
-1.000000000000000E+20
146
0.0
 13
0.0
 23
0.0
 33
0.0
 16
1.0
 26
0.0
 36
0.0
 17
0.0
 27
1.0
 37
0.0
 76
     0
330
1B
  0
LAYOUT
  5
1EF
102
{ACAD_REACTORS
330
1EE
102
}
330
1EE
100
AcDbPlotSettings
  1

  2
\\druckserv1\AROBBE04
  4

  6

 40
0.0
 41
0.0
 42
0.0
 43
0.0
 44
0.0
 45
0.0
 46
0.0
 47
0.0
 48
0.0
 49
0.0
140
0.0
141
0.0
142
1.0
143
1.0
 70
  1712
 72
     0
 73
     0
 74
     0
  7

 75
     0
147
1.0
 76
     0
 77
     2
 78
   300
148
0.0
149
0.0
100
AcDbLayout
  1
Model
 70
     1
 71
     0
 10
0.0
 20
0.0
 11
12.0
 21
9.0
 12
0.0
 22
0.0
 32
0.0
 14
0.0
 24
0.0
 34
0.0
 15
0.0
 25
0.0
 35
0.0
146
0.0
 13
0.0
 23
0.0
 33
0.0
 16
1.0
 26
0.0
 36
0.0
 17
0.0
 27
1.0
 37
0.0
 76
     0
330
1F
331
1B1
  0
MATERIAL
  5
1D8
102
{ACAD_XDICTIONARY
360
5BF
102
}
102
{ACAD_REACTORS
330
1D6
102
}
330
1D6
100
AcDbMaterial
  1
ByBlock
  0
MATERIAL
  5
1D7
102
{ACAD_XDICTIONARY
360
5BD
102
}
102
{ACAD_REACTORS
330
1D6
102
}
330
1D6
100
AcDbMaterial
  1
ByLayer
  0
MATERIAL
  5
1D9
102
{ACAD_XDICTIONARY
360
5C1
102
}
102
{ACAD_REACTORS
330
1D6
102
}
330
1D6
100
AcDbMaterial
  1
Global
  0
MLEADERSTYLE
  5
5E8
102
{ACAD_REACTORS
330
5E7
102
}
330
5E7
100
AcDbMLeaderStyle
179
     2
170
     2
171
     1
172
     0
 90
        2
 40
0.0
 41
0.0
173
     1
 91
-1056964608
340
14
 92
       -2
290
     1
 42
0.09
291
     1
 43
0.36
  3
Standard
 44
0.18
300

342
11
174
     1
178
     6
175
     1
176
     0
 93
-1056964608
 45
0.18
292
     0
297
     0
 46
0.18
 94
-1056964608
 47
1.0
 49
1.0
140
1.0
293
     1
141
0.0
294
     1
177
     0
142
1.0
295
     0
296
     0
143
0.125
271
     0
272
     9
273
     9
298
     0
  0
MLINESTYLE
  5
18
102
{ACAD_REACTORS
330
17
102
}
330
17
100
AcDbMlineStyle
  2
STANDARD
 70
     0
  3

 62
   256
 51
90.0
 52
90.0
 71
     2
 49
0.5
 62
   256
  6
BYLAYER
 49
-0.5
 62
   256
  6
BYLAYER
  0
ACDBPLACEHOLDER
  5
10E
102
{ACAD_REACTORS
330
10D
102
}
330
10D
  0
SCALE
  5
5D6
102
{ACAD_REACTORS
330
5D5
102
}
330
5D5
100
AcDbScale
 70
     0
300
1:1
140
1.0
141
1.0
290
     1
  0
SCALE
  5
5D7
102
{ACAD_REACTORS
330
5D5
102
}
330
5D5
100
AcDbScale
 70
     0
300
1/128" = 1'-0"
140
0.0078125
141
12.0
290
     0
  0
SCALE
  5
5D8
102
{ACAD_REACTORS
330
5D5
102
}
330
5D5
100
AcDbScale
 70
     0
300
1/64" = 1'-0"
140
0.015625
141
12.0
290
     0
  0
SCALE
  5
5D9
102
{ACAD_REACTORS
330
5D5
102
}
330
5D5
100
AcDbScale
 70
     0
300
1/32" = 1'-0"
140
0.03125
141
12.0
290
     0
  0
SCALE
  5
5DA
102
{ACAD_REACTORS
330
5D5
102
}
330
5D5
100
AcDbScale
 70
     0
300
1/16" = 1'-0"
140
0.0625
141
12.0
290
     0
  0
SCALE
  5
5DB
102
{ACAD_REACTORS
330
5D5
102
}
330
5D5
100
AcDbScale
 70
     0
300
3/32" = 1'-0"
140
0.09375
141
12.0
290
     0
  0
SCALE
  5
5DC
102
{ACAD_REACTORS
330
5D5
102
}
330
5D5
100
AcDbScale
 70
     0
300
1/8" = 1'-0"
140
0.125
141
12.0
290
     0
  0
SCALE
  5
5DD
102
{ACAD_REACTORS
330
5D5
102
}
330
5D5
100
AcDbScale
 70
     0
300
3/16" = 1'-0"
140
0.1875
141
12.0
290
     0
  0
SCALE
  5
5DE
102
{ACAD_REACTORS
330
5D5
102
}
330
5D5
100
AcDbScale
 70
     0
300
1/4" = 1'-0"
140
0.25
141
12.0
290
     0
  0
SCALE
  5
5DF
102
{ACAD_REACTORS
330
5D5
102
}
330
5D5
100
AcDbScale
 70
     0
300
3/8" = 1'-0"
140
0.375
141
12.0
290
     0
  0
SCALE
  5
5E0
102
{ACAD_REACTORS
330
5D5
102
}
330
5D5
100
AcDbScale
 70
     0
300
1/2" = 1'-0"
140
0.5
141
12.0
290
     0
  0
SCALE
  5
5E1
102
{ACAD_REACTORS
330
5D5
102
}
330
5D5
100
AcDbScale
 70
     0
300
3/4" = 1'-0"
140
0.75
141
12.0
290
     0
  0
SCALE
  5
5E2
102
{ACAD_REACTORS
330
5D5
102
}
330
5D5
100
AcDbScale
 70
     0
300
1" = 1'-0"
140
1.0
141
12.0
290
     0
  0
SCALE
  5
5E3
102
{ACAD_REACTORS
330
5D5
102
}
330
5D5
100
AcDbScale
 70
     0
300
1-1/2" = 1'-0"
140
1.5
141
12.0
290
     0
  0
SCALE
  5
5E4
102
{ACAD_REACTORS
330
5D5
102
}
330
5D5
100
AcDbScale
 70
     0
300
3" = 1'-0"
140
3.0
141
12.0
290
     0
  0
SCALE
  5
5E5
102
{ACAD_REACTORS
330
5D5
102
}
330
5D5
100
AcDbScale
 70
     0
300
6" = 1'-0"
140
6.0
141
12.0
290
     0
  0
SCALE
  5
5E6
102
{ACAD_REACTORS
330
5D5
102
}
330
5D5
100
AcDbScale
 70
     0
300
1'-0" = 1'-0"
140
12.0
141
12.0
290
     0
  0
ACDBSECTIONVIEWSTYLE
  5
5EA
102
{ACAD_XDICTIONARY
360
4DD3
102
}
102
{ACAD_REACTORS
330
5E9
102
}
330
5E9
100
AcDbModelDocViewStyle
 70
     0
  3
Imperial24
290
     0
100
AcDbSectionViewStyle
 70
     0
 71
     0
 90
       78
 71
     1
340
11
 62
   256
 40
0.24
340
0
340
0
 62
   256
 40
0.24
300
I, O, Q, S, X, Z
 40
0.48
 90
        3
 40
0.18
 90
        1
 71
     2
340
16
 90
       25
 62
   256
340
16
 90
       50
 62
   256
 40
0.24
 40
0.0
 40
0.24
 71
     3
340
11
 62
   256
 40
0.24
 90
        1
 40
0.75
 90
        1
300
%<\AcVar ViewType \f "%tc1">% %<\AcVar ViewSectionStartId>%-%<\AcVar ViewSectionEndId>%\PVARIA %<\AcVar ViewScale \f "%sn">%
 71
     4
 62
   256
 62
   257
300
ANSI31
 40
1.0
 90
        0
290
     0
290
     0
 90
        6
 40
0.0
 40
1.570796326794896
 40
0.2617993877991494
 40
1.308996938995747
 40
-0.2617993877991494
 40
1.832595714594044
  0
ACDBSECTIONVIEWSTYLE
  5
676
102
{ACAD_XDICTIONARY
360
4DD7
102
}
102
{ACAD_REACTORS
330
5E9
102
}
330
5E9
100
AcDbModelDocViewStyle
 70
     0
  3
Metric50
290
     0
100
AcDbSectionViewStyle
 70
     0
 71
     0
 90
      102
 71
     1
340
11
 62
   256
 40
5.0
340
0
340
0
 62
   256
 40
5.0
300
I, O, Q, S, X, Z
 40
10.0
 90
        0
 40
2.5
 90
        0
 71
     2
340
16
 90
       25
 62
   256
340
16
 90
       50
 62
   256
 40
5.0
 40
2.5
 40
5.0
 71
     3
340
11
 62
   256
 40
5.0
 90
        0
 40
15.0
 90
        1
300
%<\AcVar ViewSectionStartId>%-%<\AcVar ViewSectionEndId>% (%<\AcVar ViewScale \f "%sn">%)
 71
     4
 62
   256
 62
   257
300
ANSI31
 40
1.0
 90
        0
290
     0
290
     0
 90
        6
 40
0.0
 40
1.570796326794896
 40
0.2617993877991494
 40
1.308996938995747
 40
-0.2617993877991494
 40
1.832595714594044
  0
TABLESTYLE
  5
1ED
102
{ACAD_XDICTIONARY
360
634
102
}
102
{ACAD_REACTORS
330
1EC
102
}
330
1EC
100
AcDbTableStyle
280
     0
  3
Standard
 70
     0
 71
     0
 40
0.06
 41
0.06
280
     0
281
     0
  7
STANDARD
140
0.18
170
     2
 62
     0
 63
     7
283
     0
 90
      512
 91
        0
  1

274
    -2
284
     1
 64
     0
275
    -2
285
     1
 65
     0
276
    -2
286
     1
 66
     0
277
    -2
287
     1
 67
     0
278
    -2
288
     1
 68
     0
279
    -2
289
     1
 69
     0
  7
STANDARD
140
0.25
170
     5
 62
     0
 63
     7
283
     0
 90
      512
 91
        0
  1

274
    -2
284
     1
 64
     0
275
    -2
285
     1
 65
     0
276
    -2
286
     1
 66
     0
277
    -2
287
     1
 67
     0
278
    -2
288
     1
 68
     0
279
    -2
289
     1
 69
     0
  7
STANDARD
140
0.18
170
     5
 62
     0
 63
     7
283
     0
 90
      512
 91
        0
  1

274
    -2
284
     1
 64
     0
275
    -2
285
     1
 65
     0
276
    -2
286
     1
 66
     0
277
    -2
287
     1
 67
     0
278
    -2
288
     1
 68
     0
279
    -2
289
     1
 69
     0
  0
VISUALSTYLE
  5
1E0
102
{ACAD_REACTORS
330
1DA
102
}
330
1DA
100
AcDbVisualStyle
  2

 70
     4
177
     3
291
     0
 70
    58
 90
        0
176
     1
 90
        2
176
     1
 90
        0
176
     1
 90
        0
176
     1
 40
0.6
176
     1
 40
30.0
176
     1
 62
     7
176
     1
 90
        1
176
     1
 90
        4
176
     1
 62
     7
176
     1
 62
   257
176
     1
 90
        1
176
     1
 90
        1
176
     1
 40
1.0
176
     1
 90
        0
176
     1
 62
   257
176
     1
 40
1.0
176
     1
 90
        1
176
     1
 90
        6
176
     1
 90
        2
176
     1
 62
     7
176
     1
 90
        5
176
     1
 90
        0
176
     1
 90
        0
176
     1
290
     0
176
     1
 90
        1
176
     1
 40
0.0
176
     1
 90
        0
176
     1
290
     1
176
     1
290
     1
176
     1
290
     0
176
     1
290
     0
176
     1
290
     0
176
     1
290
     0
176
     1
290
     0
176
     1
290
     0
176
     1
290
     0
176
     1
 90
       50
176
     1
 40
0.0
176
     1
 40
1.0
176
     1
 90
        0
176
     1
 62
    18
176
     1
 90
       50
176
     1
 90
        3
176
     1
 62
     5
420
      255
176
     1
290
     0
176
     1
 90
       50
176
     1
 90
       50
176
     1
 90
       50
176
     1
290
     0
176
     1
 90
       50
176
     1
 62
   256
176
     0
 40
1.0
176
     0
 90
        2
176
     1
  1
strokes_ogs.tif
176
     1
290
     0
176
     1
 40
1.0
176
     1
 40
1.0
176
     1
1001
ACAD
1000
AcDbSavedByObjectVersion
1070
     0
  0
VISUALSTYLE
  5
1E2
102
{ACAD_REACTORS
330
1DA
102
}
330
1DA
100
AcDbVisualStyle
  2

 70
     6
177
     3
291
     0
 70
    58
 90
        1
176
     1
 90
        2
176
     1
 90
        2
176
     1
 90
        0
176
     1
 40
0.6
176
     1
 40
30.0
176
     1
 62
     7
176
     1
 90
        2
176
     1
 90
        2
176
     1
 62
     7
176
     1
 62
   257
176
     1
 90
        2
176
     1
 90
        1
176
     1
 40
40.0
176
     1
 90
        0
176
     1
 62
   257
176
     1
 40
1.0
176
     1
 90
        1
176
     1
 90
        6
176
     1
 90
        2
176
     1
 62
     7
176
     1
 90
        3
176
     1
 90
        0
176
     1
 90
        0
176
     1
290
     0
176
     1
 90
        1
176
     1
 40
0.0
176
     1
 90
        0
176
     1
290
     0
176
     1
290
     1
176
     1
290
     1
176
     1
290
     0
176
     1
290
     0
176
     1
290
     0
176
     1
290
     0
176
     1
290
     0
176
     1
290
     0
176
     1
 90
       50
176
     1
 40
0.0
176
     1
 40
1.0
176
     1
 90
        0
176
     1
 62
    18
176
     1
 90
       50
176
     1
 90
        3
176
     1
 62
     5
420
      255
176
     1
290
     0
176
     1
 90
       50
176
     1
 90
       50
176
     1
 90
       50
176
     1
290
     0
176
     1
 90
       50
176
     1
 62
   256
176
     0
 40
1.0
176
     0
 90
        2
176
     1
  1
strokes_ogs.tif
176
     1
290
     0
176
     1
 40
1.0
176
     1
 40
1.0
176
     1
1001
ACAD
1000
AcDbSavedByObjectVersion
1070
     0
  0
VISUALSTYLE
  5
1E1
102
{ACAD_REACTORS
330
1DA
102
}
330
1DA
100
AcDbVisualStyle
  2

 70
     5
177
     3
291
     0
 70
    58
 90
        0
176
     1
 90
        2
176
     1
 90
        0
176
     1
 90
        0
176
     1
 40
0.6
176
     1
 40
30.0
176
     1
 62
     7
176
     1
 90
        1
176
     1
 90
        4
176
     1
 62
     7
176
     1
 62
   257
176
     1
 90
        1
176
     1
 90
        1
176
     1
 40
1.0
176
     1
 90
        0
176
     1
 62
   257
176
     1
 40
1.0
176
     1
 90
        1
176
     1
 90
        6
176
     1
 90
        2
176
     1
 62
     7
176
     1
 90
        5
176
     1
 90
        0
176
     1
 90
        0
176
     1
290
     0
176
     1
 90
        1
176
     1
 40
0.0
176
     1
 90
        0
176
     1
290
     0
176
     1
290
     1
176
     1
290
     1
176
     1
290
     0
176
     1
290
     0
176
     1
290
     0
176
     1
290
     0
176
     1
290
     0
176
     1
290
     0
176
     1
 90
       50
176
     1
 40
0.0
176
     1
 40
1.0
176
     1
 90
        0
176
     1
 62
    18
176
     1
 90
       50
176
     1
 90
        3
176
     1
 62
     5
420
      255
176
     1
290
     0
176
     1
 90
       50
176
     1
 90
       50
176
     1
 90
       50
176
     1
290
     0
176
     1
 90
       50
176
     1
 62
   256
176
     0
 40
1.0
176
     0
 90
        2
176
     1
  1
strokes_ogs.tif
176
     1
290
     0
176
     1
 40
1.0
176
     1
 40
1.0
176
     1
1001
ACAD
1000
AcDbSavedByObjectVersion
1070
     0
  0
VISUALSTYLE
  5
1DF
102
{ACAD_REACTORS
330
1DA
102
}
330
1DA
100
AcDbVisualStyle
  2

 70
     7
177
     3
291
     1
 70
    58
 90
        1
176
     1
 90
        0
176
     1
 90
        1
176
     1
 90
        0
176
     1
 40
0.6
176
     1
 40
30.0
176
     1
 62
     7
176
     1
 90
        0
176
     1
 90
        4
176
     1
 62
     7
176
     1
 62
   257
176
     1
 90
        1
176
     1
 90
        1
176
     1
 40
1.0
176
     1
 90
        8
176
     1
 62
     7
176
     1
 40
1.0
176
     1
 90
        1
176
     1
 90
        6
176
     1
 90
        2
176
     1
 62
     7
176
     1
 90
        5
176
     1
 90
        0
176
     1
 90
        0
176
     1
290
     0
176
     1
 90
        1
176
     1
 40
0.0
176
     1
 90
        0
176
     1
290
     0
176
     1
290
     1
176
     1
290
     1
176
     1
290
     0
176
     1
290
     0
176
     1
290
     0
176
     1
290
     0
176
     1
290
     0
176
     1
290
     0
176
     1
 90
       50
176
     1
 40
0.0
176
     1
 40
1.0
176
     1
 90
        0
176
     1
 62
    18
176
     1
 90
       50
176
     1
 90
        3
176
     1
 62
     5
420
      255
176
     1
290
     0
176
     1
 90
       50
176
     1
 90
       50
176
     1
 90
       50
176
     1
290
     0
176
     1
 90
       50
176
     1
 62
   256
176
     0
 40
1.0
176
     0
 90
        2
176
     1
  1
strokes_ogs.tif
176
     1
290
     0
176
     1
 40
1.0
176
     1
 40
1.0
176
     1
1001
ACAD
1000
AcDbSavedByObjectVersion
1070
     0
  0
VISUALSTYLE
  5
1E6
102
{ACAD_REACTORS
330
1DA
102
}
330
1DA
100
AcDbVisualStyle
  2

 70
    12
177
     3
291
     1
 70
    58
 90
        2
176
     1
 90
        2
176
     1
 90
        0
176
     1
 90
        0
176
     1
 40
0.6
176
     1
 40
30.0
176
     1
 62
     7
176
     1
 90
        1
176
     1
 90
        4
176
     1
 62
     7
176
     1
 62
   257
176
     1
 90
        1
176
     1
 90
        1
176
     1
 40
1.0
176
     1
 90
        8
176
     1
 62
     7
176
     1
 40
1.0
176
     1
 90
        1
176
     1
 90
        6
176
     1
 90
        2
176
     1
 62
     7
176
     1
 90
        5
176
     1
 90
        0
176
     1
 90
        0
176
     1
290
     0
176
     1
 90
        1
176
     1
 40
50.0
176
     1
 90
        0
176
     1
290
     0
176
     1
290
     1
176
     1
290
     1
176
     1
290
     0
176
     1
290
     0
176
     1
290
     0
176
     1
290
     0
176
     1
290
     0
176
     1
290
     0
176
     1
 90
       50
176
     1
 40
0.0
176
     1
 40
1.0
176
     1
 90
        0
176
     1
 62
    18
176
     1
 90
       50
176
     1
 90
        3
176
     1
 62
     5
420
      255
176
     1
290
     0
176
     1
 90
       50
176
     1
 90
       50
176
     1
 90
       50
176
     1
290
     0
176
     1
 90
       50
176
     1
 62
   256
176
     0
 40
1.0
176
     0
 90
        2
176
     1
  1
strokes_ogs.tif
176
     1
290
     0
176
     1
 40
1.0
176
     1
 40
1.0
176
     1
1001
ACAD
1000
AcDbSavedByObjectVersion
1070
     0
  0
VISUALSTYLE
  5
1EA
102
{ACAD_REACTORS
330
1DA
102
}
330
1DA
100
AcDbVisualStyle
  2

 70
    16
177
     3
291
     1
 70
    58
 90
        2
176
     1
 90
        2
176
     1
 90
        3
176
     1
 90
        0
176
     1
 40
0.6
176
     1
 40
30.0
176
     1
 62
     8
176
     1
 90
        1
176
     1
 90
        4
176
     1
 62
     7
176
     1
 62
   257
176
     1
 90
        1
176
     1
 90
        1
176
     1
 40
1.0
176
     1
 90
        8
176
     1
 62
     8
176
     1
 40
1.0
176
     1
 90
        1
176
     1
 90
        6
176
     1
 90
        2
176
     1
 62
     7
176
     1
 90
        5
176
     1
 90
        0
176
     1
 90
        0
176
     1
290
     0
176
     1
 90
        1
176
     1
 40
0.0
176
     1
 90
        0
176
     1
290
     0
176
     1
290
     1
176
     1
290
     1
176
     1
290
     0
176
     1
290
     0
176
     1
290
     0
176
     1
290
     0
176
     1
290
     0
176
     1
290
     0
176
     1
 90
       50
176
     1
 40
0.0
176
     1
 40
1.0
176
     1
 90
        0
176
     1
 62
    18
176
     1
 90
       50
176
     1
 90
        3
176
     1
 62
     5
420
      255
176
     1
290
     0
176
     1
 90
       50
176
     1
 90
       50
176
     1
 90
       50
176
     1
290
     0
176
     1
 90
       50
176
     1
 62
   256
176
     0
 40
1.0
176
     0
 90
        2
176
     1
  1
strokes_ogs.tif
176
     1
290
     0
176
     1
 40
1.0
176
     1
 40
1.0
176
     1
1001
ACAD
1000
AcDbSavedByObjectVersion
1070
     0
  0
VISUALSTYLE
  5
1E3
102
{ACAD_REACTORS
330
1DA
102
}
330
1DA
100
AcDbVisualStyle
  2

 70
     9
177
     3
291
     0
 70
    58
 90
        3
176
     1
 90
        2
176
     1
 90
        0
176
     1
 90
        0
176
     1
 40
0.6
176
     1
 40
30.0
176
     1
 62
     7
176
     1
 90
        2
176
     1
 90
        2
176
     1
 62
     7
176
     1
 62
   257
176
     1
 90
        1
176
     1
 90
        1
176
     1
 40
40.0
176
     1
 90
        8
176
     1
 62
     7
176
     1
 40
1.0
176
     1
 90
        1
176
     1
 90
        6
176
     1
 90
        2
176
     1
 62
     7
176
     1
 90
        3
176
     1
 90
        0
176
     1
 90
        0
176
     1
290
     0
176
     1
 90
        1
176
     1
 40
0.0
176
     1
 90
        0
176
     1
290
     0
176
     1
290
     1
176
     1
290
     1
176
     1
290
     0
176
     1
290
     0
176
     1
290
     0
176
     1
290
     0
176
     1
290
     0
176
     1
290
     0
176
     1
 90
       50
176
     1
 40
0.0
176
     1
 40
1.0
176
     1
 90
        0
176
     1
 62
    18
176
     1
 90
       50
176
     1
 90
        3
176
     1
 62
     5
420
      255
176
     1
290
     0
176
     1
 90
       50
176
     1
 90
       50
176
     1
 90
       50
176
     1
290
     0
176
     1
 90
       50
176
     1
 62
   256
176
     0
 40
1.0
176
     0
 90
        2
176
     1
  1
strokes_ogs.tif
176
     1
290
     0
176
     1
 40
1.0
176
     1
 40
1.0
176
     1
1001
ACAD
1000
AcDbSavedByObjectVersion
1070
     0
  0
VISUALSTYLE
  5
1E5
102
{ACAD_REACTORS
330
1DA
102
}
330
1DA
100
AcDbVisualStyle
  2

 70
    11
177
     3
291
     1
 70
    58
 90
        2
176
     1
 90
        2
176
     1
 90
        0
176
     1
 90
        0
176
     1
 40
0.6
176
     1
 40
30.0
176
     1
 62
     7
176
     1
 90
        1
176
     1
 90
        4
176
     1
 62
     7
176
     1
 62
   257
176
     1
 90
        1
176
     1
 90
        1
176
     1
 40
1.0
176
     1
 90
        8
176
     1
 62
     7
176
     1
 40
1.0
176
     1
 90
        1
176
     1
 90
        6
176
     1
 90
        2
176
     1
 62
     7
176
     1
 90
        5
176
     1
 90
        0
176
     1
 90
        0
176
     1
290
     0
176
     1
 90
        1
176
     1
 40
-50.0
176
     1
 90
        0
176
     1
290
     0
176
     1
290
     1
176
     1
290
     1
176
     1
290
     0
176
     1
290
     0
176
     1
290
     0
176
     1
290
     0
176
     1
290
     0
176
     1
290
     0
176
     1
 90
       50
176
     1
 40
0.0
176
     1
 40
1.0
176
     1
 90
        0
176
     1
 62
    18
176
     1
 90
       50
176
     1
 90
        3
176
     1
 62
     5
420
      255
176
     1
290
     0
176
     1
 90
       50
176
     1
 90
       50
176
     1
 90
       50
176
     1
290
     0
176
     1
 90
       50
176
     1
 62
   256
176
     0
 40
1.0
176
     0
 90
        2
176
     1
  1
strokes_ogs.tif
176
     1
290
     0
176
     1
 40
1.0
176
     1
 40
1.0
176
     1
1001
ACAD
1000
AcDbSavedByObjectVersion
1070
     0
  0
VISUALSTYLE
  5
5D4
102
{ACAD_REACTORS
330
1DA
102
}
330
1DA
100
AcDbVisualStyle
  2
EdgeColorOff
 70
    22
177
     3
291
     1
 70
    58
 90
        2
176
     0
 90
        2
176
     0
 90
        0
176
     0
 90
        0
176
     0
 40
0.6
176
     0
 40
30.0
176
     0
 62
     7
420
 16777215
176
     0
 90
        1
176
     0
 90
        4
176
     0
 62
     7
176
     0
 62
   257
176
     0
 90
        1
176
     0
 90
        1
176
     0
 40
1.0
176
     0
 90
        8
176
     2
 62
     7
176
     0
 40
1.0
176
     0
 90
        1
176
     0
 90
        6
176
     0
 90
        2
176
     0
 62
     7
176
     0
 90
        5
176
     0
 90
        0
176
     0
 90
        0
176
     0
290
     0
176
     0
 90
        1
176
     0
 40
0.0
176
     0
 90
        0
176
     0
290
     0
176
     1
290
     1
176
     1
290
     1
176
     1
290
     0
176
     1
290
     0
176
     1
290
     0
176
     1
290
     0
176
     1
290
     0
176
     1
290
     0
176
     1
 90
       50
176
     0
 40
0.0
176
     0
 40
1.0
176
     0
 90
        0
176
     0
 62
    18
176
     0
 90
       50
176
     0
 90
        3
176
     0
 62
     5
420
      255
176
     0
290
     0
176
     1
 90
       50
176
     0
 90
       50
176
     0
 90
       50
176
     0
290
     0
176
     1
 90
       50
176
     0
 62
   256
176
     0
 40
1.0
176
     0
 90
        2
176
     0
  1
strokes_ogs.tif
176
     0
290
     0
176
     1
 40
1.0
176
     0
 40
1.0
176
     0
1001
ACAD
1000
AcDbSavedByObjectVersion
1070
     0
  0
VISUALSTYLE
  5
1E9
102
{ACAD_REACTORS
330
1DA
102
}
330
1DA
100
AcDbVisualStyle
  2

 70
    15
177
     3
291
     1
 70
    58
 90
        2
176
     1
 90
        2
176
     1
 90
        0
176
     1
 90
        0
176
     1
 40
0.6
176
     1
 40
30.0
176
     1
 62
     7
176
     1
 90
        1
176
     1
 90
        4
176
     1
 62
     7
176
     1
 62
   257
176
     1
 90
        1
176
     1
 90
        1
176
     1
 40
1.0
176
     1
 90
        8
176
     1
 62
     7
176
     1
 40
1.0
176
     1
 90
        1
176
     1
 90
        6
176
     1
 90
        2
176
     1
 62
     7
176
     1
 90
        5
176
     1
 90
        0
176
     1
 90
        0
176
     1
290
     0
176
     1
 90
        1
176
     1
 40
0.0
176
     1
 90
        0
176
     1
290
     0
176
     1
290
     1
176
     1
290
     1
176
     1
290
     0
176
     1
290
     0
176
     1
290
     0
176
     1
290
     0
176
     1
290
     0
176
     1
290
     0
176
     1
 90
       50
176
     1
 40
0.0
176
     1
 40
1.0
176
     1
 90
        0
176
     1
 62
    18
176
     1
 90
       50
176
     1
 90
        3
176
     1
 62
     5
420
      255
176
     1
290
     0
176
     1
 90
       50
176
     1
 90
       50
176
     1
 90
       50
176
     1
290
     0
176
     1
 90
       50
176
     1
 62
   256
176
     0
 40
1.0
176
     0
 90
        2
176
     1
  1
strokes_ogs.tif
176
     1
290
     0
176
     1
 40
1.0
176
     1
 40
1.0
176
     1
1001
ACAD
1000
AcDbSavedByObjectVersion
1070
     0
  0
VISUALSTYLE
  5
1DB
102
{ACAD_REACTORS
330
1DA
102
}
330
1DA
100
AcDbVisualStyle
  2

 70
     0
177
     3
291
     1
 70
    58
 90
        2
176
     1
 90
        1
176
     1
 90
        1
176
     1
 90
        2
176
     1
 40
0.6
176
     1
 40
30.0
176
     1
 62
     7
176
     1
 90
        0
176
     1
 90
        4
176
     1
 62
     7
176
     1
 62
   257
176
     1
 90
        1
176
     1
 90
        1
176
     1
 40
1.0
176
     1
 90
        8
176
     1
 62
     7
176
     1
 40
1.0
176
     1
 90
        1
176
     1
 90
        6
176
     1
 90
        2
176
     1
 62
     7
176
     1
 90
        5
176
     1
 90
        0
176
     1
 90
        0
176
     1
290
     0
176
     1
 90
       13
176
     1
 40
0.0
176
     1
 90
        0
176
     1
290
     0
176
     1
290
     1
176
     1
290
     1
176
     1
290
     0
176
     1
290
     0
176
     1
290
     0
176
     1
290
     0
176
     1
290
     0
176
     1
290
     0
176
     1
 90
       50
176
     1
 40
0.0
176
     1
 40
1.0
176
     1
 90
        0
176
     1
 62
    18
176
     1
 90
       50
176
     1
 90
        3
176
     1
 62
     5
420
      255
176
     1
290
     0
176
     1
 90
       50
176
     1
 90
       50
176
     1
 90
       50
176
     1
290
     0
176
     1
 90
       50
176
     1
 62
   256
176
     0
 40
1.0
176
     0
 90
        2
176
     1
  1
strokes_ogs.tif
176
     1
290
     0
176
     1
 40
1.0
176
     1
 40
1.0
176
     1
1001
ACAD
1000
AcDbSavedByObjectVersion
1070
     0
  0
VISUALSTYLE
  5
1DC
102
{ACAD_REACTORS
330
1DA
102
}
330
1DA
100
AcDbVisualStyle
  2

 70
     1
177
     3
291
     1
 70
    58
 90
        2
176
     1
 90
        1
176
     1
 90
        1
176
     1
 90
        2
176
     1
 40
0.6
176
     1
 40
30.0
176
     1
 62
     7
176
     1
 90
        1
176
     1
 90
        4
176
     1
 62
     7
176
     1
 62
   257
176
     1
 90
        1
176
     1
 90
        1
176
     1
 40
1.0
176
     1
 90
        0
176
     1
 62
   257
176
     1
 40
1.0
176
     1
 90
        1
176
     1
 90
        6
176
     1
 90
        2
176
     1
 62
     7
176
     1
 90
        5
176
     1
 90
        0
176
     1
 90
        0
176
     1
290
     0
176
     1
 90
       13
176
     1
 40
0.0
176
     1
 90
        0
176
     1
290
     0
176
     1
290
     1
176
     1
290
     1
176
     1
290
     0
176
     1
290
     0
176
     1
290
     0
176
     1
290
     0
176
     1
290
     0
176
     1
290
     0
176
     1
 90
       50
176
     1
 40
0.0
176
     1
 40
1.0
176
     1
 90
        0
176
     1
 62
    18
176
     1
 90
       50
176
     1
 90
        3
176
     1
 62
     5
420
      255
176
     1
290
     0
176
     1
 90
       50
176
     1
 90
       50
176
     1
 90
       50
176
     1
290
     0
176
     1
 90
       50
176
     1
 62
   256
176
     0
 40
1.0
176
     0
 90
        2
176
     1
  1
strokes_ogs.tif
176
     1
290
     0
176
     1
 40
1.0
176
     1
 40
1.0
176
     1
1001
ACAD
1000
AcDbSavedByObjectVersion
1070
     0
  0
VISUALSTYLE
  5
1DD
102
{ACAD_REACTORS
330
1DA
102
}
330
1DA
100
AcDbVisualStyle
  2

 70
     2
177
     3
291
     1
 70
    58
 90
        2
176
     1
 90
        2
176
     1
 90
        1
176
     1
 90
        2
176
     1
 40
0.6
176
     1
 40
30.0
176
     1
 62
     7
176
     1
 90
        0
176
     1
 90
        4
176
     1
 62
     7
176
     1
 62
   257
176
     1
 90
        1
176
     1
 90
        1
176
     1
 40
1.0
176
     1
 90
        0
176
     1
 62
     7
176
     1
 40
1.0
176
     1
 90
        1
176
     1
 90
        6
176
     1
 90
        2
176
     1
 62
     7
176
     1
 90
        5
176
     1
 90
        0
176
     1
 90
        0
176
     1
290
     0
176
     1
 90
       13
176
     1
 40
0.0
176
     1
 90
        0
176
     1
290
     0
176
     1
290
     1
176
     1
290
     1
176
     1
290
     0
176
     1
290
     0
176
     1
290
     0
176
     1
290
     0
176
     1
290
     0
176
     1
290
     0
176
     1
 90
       50
176
     1
 40
0.0
176
     1
 40
1.0
176
     1
 90
        0
176
     1
 62
    18
176
     1
 90
       50
176
     1
 90
        3
176
     1
 62
     5
420
      255
176
     1
290
     0
176
     1
 90
       50
176
     1
 90
       50
176
     1
 90
       50
176
     1
290
     0
176
     1
 90
       50
176
     1
 62
   256
176
     0
 40
1.0
176
     0
 90
        2
176
     1
  1
strokes_ogs.tif
176
     1
290
     0
176
     1
 40
1.0
176
     1
 40
1.0
176
     1
1001
ACAD
1000
AcDbSavedByObjectVersion
1070
     0
  0
VISUALSTYLE
  5
1DE
102
{ACAD_REACTORS
330
1DA
102
}
330
1DA
100
AcDbVisualStyle
  2

 70
     3
177
     3
291
     1
 70
    58
 90
        2
176
     1
 90
        2
176
     1
 90
        1
176
     1
 90
        2
176
     1
 40
0.6
176
     1
 40
30.0
176
     1
 62
     7
176
     1
 90
        1
176
     1
 90
        4
176
     1
 62
     7
176
     1
 62
   257
176
     1
 90
        1
176
     1
 90
        1
176
     1
 40
1.0
176
     1
 90
        0
176
     1
 62
   257
176
     1
 40
1.0
176
     1
 90
        1
176
     1
 90
        6
176
     1
 90
        2
176
     1
 62
     7
176
     1
 90
        5
176
     1
 90
        0
176
     1
 90
        0
176
     1
290
     0
176
     1
 90
       13
176
     1
 40
0.0
176
     1
 90
        0
176
     1
290
     0
176
     1
290
     1
176
     1
290
     1
176
     1
290
     0
176
     1
290
     0
176
     1
290
     0
176
     1
290
     0
176
     1
290
     0
176
     1
290
     0
176
     1
 90
       50
176
     1
 40
0.0
176
     1
 40
1.0
176
     1
 90
        0
176
     1
 62
    18
176
     1
 90
       50
176
     1
 90
        3
176
     1
 62
     5
420
      255
176
     1
290
     0
176
     1
 90
       50
176
     1
 90
       50
176
     1
 90
       50
176
     1
290
     0
176
     1
 90
       50
176
     1
 62
   256
176
     0
 40
1.0
176
     0
 90
        2
176
     1
  1
strokes_ogs.tif
176
     1
290
     0
176
     1
 40
1.0
176
     1
 40
1.0
176
     1
1001
ACAD
1000
AcDbSavedByObjectVersion
1070
     0
  0
VISUALSTYLE
  5
5CC
102
{ACAD_REACTORS
330
1DA
102
}
330
1DA
100
AcDbVisualStyle
  2
Hidden
 70
     6
177
     3
291
     0
 70
    58
 90
        1
176
     1
 90
        2
176
     1
 90
        2
176
     1
 90
        0
176
     1
 40
0.6
176
     1
 40
30.0
176
     1
 62
     7
420
 16777215
176
     1
 90
        2
176
     1
 90
        2
176
     1
 62
     7
176
     1
 62
   257
176
     1
 90
        2
176
     1
 90
        1
176
     1
 40
40.0
176
     1
 90
        0
176
     1
 62
   257
176
     1
 40
1.0
176
     1
 90
        1
176
     1
 90
        6
176
     1
 90
        2
176
     1
 62
     7
176
     1
 90
        3
176
     1
 90
        0
176
     1
 90
        0
176
     1
290
     0
176
     1
 90
        1
176
     1
 40
0.0
176
     1
 90
        0
176
     1
290
     0
176
     1
290
     1
176
     1
290
     1
176
     1
290
     0
176
     1
290
     0
176
     1
290
     0
176
     1
290
     0
176
     1
290
     0
176
     1
290
     0
176
     1
 90
       50
176
     1
 40
0.0
176
     1
 40
1.0
176
     1
 90
        0
176
     1
 62
    18
176
     1
 90
       50
176
     1
 90
        3
176
     1
 62
     5
420
      255
176
     1
290
     0
176
     1
 90
       50
176
     1
 90
       50
176
     1
 90
       50
176
     1
290
     0
176
     1
 90
       50
176
     1
 62
   256
176
     0
 40
1.0
176
     0
 90
        2
176
     1
  1
strokes_ogs.tif
176
     1
290
     0
176
     1
 40
1.0
176
     1
 40
1.0
176
     1
1001
ACAD
1000
AcDbSavedByObjectVersion
1070
     0
  0
VISUALSTYLE
  5
5D2
102
{ACAD_REACTORS
330
1DA
102
}
330
1DA
100
AcDbVisualStyle
  2
JitterOff
 70
    20
177
     3
291
     1
 70
    58
 90
        2
176
     0
 90
        2
176
     0
 90
        0
176
     0
 90
        0
176
     0
 40
0.6
176
     0
 40
30.0
176
     0
 62
     7
420
 16777215
176
     0
 90
        1
176
     0
 90
        4
176
     0
 62
     7
176
     0
 62
   257
176
     0
 90
        1
176
     0
 90
        1
176
     0
 40
1.0
176
     0
 90
       10
176
     2
 62
     7
176
     0
 40
1.0
176
     0
 90
        1
176
     0
 90
        6
176
     0
 90
        2
176
     0
 62
     7
176
     0
 90
        5
176
     0
 90
        0
176
     0
 90
        0
176
     0
290
     0
176
     0
 90
        1
176
     0
 40
0.0
176
     0
 90
        0
176
     0
290
     0
176
     1
290
     1
176
     1
290
     1
176
     1
290
     0
176
     1
290
     0
176
     1
290
     0
176
     1
290
     0
176
     1
290
     0
176
     1
290
     0
176
     1
 90
       50
176
     0
 40
0.0
176
     0
 40
1.0
176
     0
 90
        0
176
     0
 62
    18
176
     0
 90
       50
176
     0
 90
        3
176
     0
 62
     5
420
      255
176
     0
290
     0
176
     1
 90
       50
176
     0
 90
       50
176
     0
 90
       50
176
     0
290
     0
176
     1
 90
       50
176
     0
 62
   256
176
     0
 40
1.0
176
     0
 90
        2
176
     0
  1
strokes_ogs.tif
176
     0
290
     0
176
     1
 40
1.0
176
     0
 40
1.0
176
     0
1001
ACAD
1000
AcDbSavedByObjectVersion
1070
     0
  0
VISUALSTYLE
  5
1E8
102
{ACAD_REACTORS
330
1DA
102
}
330
1DA
100
AcDbVisualStyle
  2

 70
    14
177
     3
291
     1
 70
    58
 90
        2
176
     1
 90
        2
176
     1
 90
        0
176
     1
 90
        0
176
     1
 40
0.6
176
     1
 40
30.0
176
     1
 62
     7
176
     1
 90
        1
176
     1
 90
        4
176
     1
 62
     7
176
     1
 62
   257
176
     1
 90
        7
176
     1
 90
        7
176
     1
 40
1.0
176
     1
 90
        8
176
     1
 62
     7
176
     1
 40
1.0
176
     1
 90
        1
176
     1
 90
        6
176
     1
 90
        2
176
     1
 62
     7
176
     1
 90
        5
176
     1
 90
        0
176
     1
 90
        0
176
     1
290
     0
176
     1
 90
        1
176
     1
 40
0.0
176
     1
 90
        0
176
     1
290
     0
176
     1
290
     1
176
     1
290
     1
176
     1
290
     0
176
     1
290
     0
176
     1
290
     0
176
     1
290
     0
176
     1
290
     0
176
     1
290
     0
176
     1
 90
       50
176
     1
 40
0.0
176
     1
 40
1.0
176
     1
 90
        0
176
     1
 62
    18
176
     1
 90
       50
176
     1
 90
        3
176
     1
 62
     5
420
      255
176
     1
290
     0
176
     1
 90
       50
176
     1
 90
       50
176
     1
 90
       50
176
     1
290
     0
176
     1
 90
       50
176
     1
 62
   256
176
     0
 40
1.0
176
     0
 90
        2
176
     1
  1
strokes_ogs.tif
176
     1
290
     0
176
     1
 40
1.0
176
     1
 40
1.0
176
     1
1001
ACAD
1000
AcDbSavedByObjectVersion
1070
     0
  0
VISUALSTYLE
  5
5D3
102
{ACAD_REACTORS
330
1DA
102
}
330
1DA
100
AcDbVisualStyle
  2
OverhangOff
 70
    21
177
     3
291
     1
 70
    58
 90
        2
176
     0
 90
        2
176
     0
 90
        0
176
     0
 90
        0
176
     0
 40
0.6
176
     0
 40
30.0
176
     0
 62
     7
420
 16777215
176
     0
 90
        1
176
     0
 90
        4
176
     0
 62
     7
176
     0
 62
   257
176
     0
 90
        1
176
     0
 90
        1
176
     0
 40
1.0
176
     0
 90
        9
176
     2
 62
     7
176
     0
 40
1.0
176
     0
 90
        1
176
     0
 90
        6
176
     0
 90
        2
176
     0
 62
     7
176
     0
 90
        5
176
     0
 90
        0
176
     0
 90
        0
176
     0
290
     0
176
     0
 90
        1
176
     0
 40
0.0
176
     0
 90
        0
176
     0
290
     0
176
     1
290
     1
176
     1
290
     1
176
     1
290
     0
176
     1
290
     0
176
     1
290
     0
176
     1
290
     0
176
     1
290
     0
176
     1
290
     0
176
     1
 90
       50
176
     0
 40
0.0
176
     0
 40
1.0
176
     0
 90
        0
176
     0
 62
    18
176
     0
 90
       50
176
     0
 90
        3
176
     0
 62
     5
420
      255
176
     0
290
     0
176
     1
 90
       50
176
     0
 90
       50
176
     0
 90
       50
176
     0
290
     0
176
     1
 90
       50
176
     0
 62
   256
176
     0
 40
1.0
176
     0
 90
        2
176
     0
  1
strokes_ogs.tif
176
     0
290
     0
176
     1
 40
1.0
176
     0
 40
1.0
176
     0
1001
ACAD
1000
AcDbSavedByObjectVersion
1070
     0
  0
VISUALSTYLE
  5
1E4
102
{ACAD_REACTORS
330
1DA
102
}
330
1DA
100
AcDbVisualStyle
  2

 70
     8
177
     3
291
     0
 70
    58
 90
        2
176
     1
 90
        2
176
     1
 90
        0
176
     1
 90
        0
176
     1
 40
0.6
176
     1
 40
30.0
176
     1
 62
     7
176
     1
 90
        1
176
     1
 90
        0
176
     1
 62
     7
176
     1
 62
   257
176
     1
 90
        1
176
     1
 90
        1
176
     1
 40
1.0
176
     1
 90
        8
176
     1
 62
     8
176
     1
 40
1.0
176
     1
 90
        1
176
     1
 90
        6
176
     1
 90
        2
176
     1
 62
     7
176
     1
 90
        5
176
     1
 90
        0
176
     1
 90
        0
176
     1
290
     0
176
     1
 90
       13
176
     1
 40
0.0
176
     1
 90
        0
176
     1
290
     0
176
     1
290
     1
176
     1
290
     1
176
     1
290
     0
176
     1
290
     0
176
     1
290
     0
176
     1
290
     0
176
     1
290
     0
176
     1
290
     0
176
     1
 90
       50
176
     1
 40
0.0
176
     1
 40
1.0
176
     1
 90
        0
176
     1
 62
    18
176
     1
 90
       50
176
     1
 90
        3
176
     1
 62
     5
420
      255
176
     1
290
     0
176
     1
 90
       50
176
     1
 90
       50
176
     1
 90
       50
176
     1
290
     0
176
     1
 90
       50
176
     1
 62
   256
176
     0
 40
1.0
176
     0
 90
        2
176
     1
  1
strokes_ogs.tif
176
     1
290
     0
176
     1
 40
1.0
176
     1
 40
1.0
176
     1
1001
ACAD
1000
AcDbSavedByObjectVersion
1070
     0
  0
VISUALSTYLE
  5
5D1
102
{ACAD_REACTORS
330
1DA
102
}
330
1DA
100
AcDbVisualStyle
  2
Shaded
 70
    27
177
     3
291
     0
 70
    58
 90
        2
176
     1
 90
        2
176
     1
 90
        1
176
     1
 90
        2
176
     1
 40
0.6
176
     1
 40
30.0
176
     1
 62
     7
420
 16777215
176
     1
 90
        0
176
     1
 90
        4
176
     1
 62
     7
176
     1
 62
   257
176
     1
 90
        1
176
     1
 90
        1
176
     1
 40
1.0
176
     1
 90
        8
176
     1
 62
   257
176
     1
 40
1.0
176
     1
 90
        1
176
     1
 90
        6
176
     1
 90
        2
176
     1
 62
     8
420
  7895160
176
     1
 90
        3
176
     1
 90
        0
176
     1
 90
        0
176
     1
290
     0
176
     1
 90
        5
176
     1
 40
0.0
176
     1
 90
        0
176
     1
290
     0
176
     1
290
     1
176
     1
290
     1
176
     1
290
     0
176
     1
290
     0
176
     1
290
     0
176
     1
290
     0
176
     1
290
     0
176
     1
290
     0
176
     1
 90
       50
176
     1
 40
0.0
176
     1
 40
1.0
176
     1
 90
        0
176
     1
 62
    18
176
     1
 90
       50
176
     1
 90
        3
176
     1
 62
     5
420
      255
176
     1
290
     0
176
     1
 90
       50
176
     1
 90
       50
176
     1
 90
       50
176
     1
290
     0
176
     1
 90
       50
176
     1
 62
   256
176
     0
 40
1.0
176
     0
 90
        2
176
     1
  1
strokes_ogs.tif
176
     1
290
     0
176
     1
 40
1.0
176
     1
 40
1.0
176
     1
1001
ACAD
1000
AcDbSavedByObjectVersion
1070
     0
  0
VISUALSTYLE
  5
5D0
102
{ACAD_REACTORS
330
1DA
102
}
330
1DA
100
AcDbVisualStyle
  2
Shaded with edges
 70
    26
177
     3
291
     0
 70
    58
 90
        2
176
     1
 90
        2
176
     1
 90
        1
176
     1
 90
        2
176
     1
 40
0.6
176
     1
 40
30.0
176
     1
 62
     7
420
 16777215
176
     1
 90
        1
176
     1
 90
        2
176
     1
 62
     7
176
     1
 62
   257
176
     1
 90
        2
176
     1
 90
        1
176
     1
 40
1.0
176
     1
 90
        8
176
     1
 62
   257
176
     1
 40
1.0
176
     1
 90
        1
176
     1
 90
        6
176
     1
 90
        2
176
     1
 62
     7
176
     1
 90
        3
176
     1
 90
        0
176
     1
 90
        0
176
     1
290
     0
176
     1
 90
        5
176
     1
 40
0.0
176
     1
 90
        0
176
     1
290
     0
176
     1
290
     1
176
     1
290
     1
176
     1
290
     0
176
     1
290
     0
176
     1
290
     0
176
     1
290
     0
176
     1
290
     0
176
     1
290
     0
176
     1
 90
       50
176
     1
 40
0.0
176
     1
 40
1.0
176
     1
 90
        0
176
     1
 62
    18
176
     1
 90
       50
176
     1
 90
        3
176
     1
 62
     5
420
      255
176
     1
290
     0
176
     1
 90
       50
176
     1
 90
       50
176
     1
 90
       50
176
     1
290
     0
176
     1
 90
       50
176
     1
 62
   256
176
     0
 40
1.0
176
     0
 90
        2
176
     1
  1
strokes_ogs.tif
176
     1
290
     0
176
     1
 40
1.0
176
     1
 40
1.0
176
     1
1001
ACAD
1000
AcDbSavedByObjectVersion
1070
     0
  0
VISUALSTYLE
  5
5CD
102
{ACAD_REACTORS
330
1DA
102
}
330
1DA
100
AcDbVisualStyle
  2
Shades of Gray
 70
    23
177
     3
291
     0
 70
    58
 90
        2
176
     1
 90
        2
176
     1
 90
        3
176
     1
 90
        0
176
     1
 40
0.6
176
     1
 40
30.0
176
     1
 62
     7
420
 16777215
176
     1
 90
        2
176
     1
 90
        2
176
     1
 62
     7
176
     1
 62
     7
176
     1
 90
        1
176
     1
 90
        1
176
     1
 40
40.0
176
     1
 90
        8
176
     1
 62
     7
176
     1
 40
1.0
176
     1
 90
        1
176
     1
 90
        6
176
     1
 90
        2
176
     1
 62
     7
176
     1
 90
        3
176
     1
 90
        0
176
     1
 90
        0
176
     1
290
     0
176
     1
 90
        1
176
     1
 40
0.0
176
     1
 90
        0
176
     1
290
     0
176
     1
290
     1
176
     1
290
     1
176
     1
290
     0
176
     1
290
     0
176
     1
290
     0
176
     1
290
     0
176
     1
290
     0
176
     1
290
     0
176
     1
 90
       50
176
     1
 40
0.0
176
     1
 40
1.0
176
     1
 90
        0
176
     1
 62
    18
176
     1
 90
       50
176
     1
 90
        3
176
     1
 62
     5
420
      255
176
     1
290
     0
176
     1
 90
       50
176
     1
 90
       50
176
     1
 90
       50
176
     1
290
     0
176
     1
 90
       50
176
     1
 62
   256
176
     0
 40
1.0
176
     0
 90
        2
176
     1
  1
strokes_ogs.tif
176
     1
290
     0
176
     1
 40
1.0
176
     1
 40
1.0
176
     1
1001
ACAD
1000
AcDbSavedByObjectVersion
1070
     0
  0
VISUALSTYLE
  5
5CE
102
{ACAD_REACTORS
330
1DA
102
}
330
1DA
100
AcDbVisualStyle
  2
Sketchy
 70
    24
177
     3
291
     0
 70
    58
 90
        1
176
     1
 90
        2
176
     1
 90
        2
176
     1
 90
        0
176
     1
 40
0.6
176
     1
 40
30.0
176
     1
 62
     7
420
 16777215
176
     1
 90
        2
176
     1
 90
        2
176
     1
 62
     7
176
     1
 62
     7
176
     1
 90
        1
176
     1
 90
        1
176
     1
 40
40.0
176
     1
 90
       11
176
     1
 62
     7
176
     1
 40
1.0
176
     1
 90
        1
176
     1
 90
        6
176
     1
 90
        2
176
     1
 62
     7
176
     1
 90
        6
176
     1
 90
        0
176
     1
 90
        0
176
     1
290
     0
176
     1
 90
        1
176
     1
 40
0.0
176
     1
 90
        0
176
     1
290
     0
176
     1
290
     1
176
     1
290
     1
176
     1
290
     0
176
     1
290
     0
176
     1
290
     0
176
     1
290
     0
176
     1
290
     0
176
     1
290
     0
176
     1
 90
       50
176
     1
 40
0.0
176
     1
 40
1.0
176
     1
 90
        0
176
     1
 62
    18
176
     1
 90
       50
176
     1
 90
        3
176
     1
 62
     5
420
      255
176
     1
290
     0
176
     1
 90
       50
176
     1
 90
       50
176
     1
 90
       50
176
     1
290
     0
176
     1
 90
       50
176
     1
 62
   256
176
     0
 40
1.0
176
     0
 90
        2
176
     1
  1
strokes_ogs.tif
176
     1
290
     0
176
     1
 40
1.0
176
     1
 40
1.0
176
     1
1001
ACAD
1000
AcDbSavedByObjectVersion
1070
     0
  0
VISUALSTYLE
  5
1E7
102
{ACAD_REACTORS
330
1DA
102
}
330
1DA
100
AcDbVisualStyle
  2

 70
    13
177
     3
291
     1
 70
    58
 90
        2
176
     1
 90
        2
176
     1
 90
        0
176
     1
 90
        0
176
     1
 40
0.6
176
     1
 40
30.0
176
     1
 62
     7
176
     1
 90
        1
176
     1
 90
        4
176
     1
 62
     7
176
     1
 62
   257
176
     1
 90
        1
176
     1
 90
        1
176
     1
 40
1.0
176
     1
 90
       12
176
     1
 62
     7
176
     1
 40
1.0
176
     1
 90
        1
176
     1
 90
        6
176
     1
 90
        2
176
     1
 62
     7
176
     1
 90
        5
176
     1
 90
        0
176
     1
 90
        0
176
     1
290
     0
176
     1
 90
        1
176
     1
 40
0.0
176
     1
 90
        0
176
     1
290
     0
176
     1
290
     1
176
     1
290
     1
176
     1
290
     0
176
     1
290
     0
176
     1
290
     0
176
     1
290
     0
176
     1
290
     0
176
     1
290
     0
176
     1
 90
       50
176
     1
 40
0.0
176
     1
 40
1.0
176
     1
 90
        0
176
     1
 62
    18
176
     1
 90
       50
176
     1
 90
        3
176
     1
 62
     5
420
      255
176
     1
290
     0
176
     1
 90
       50
176
     1
 90
       50
176
     1
 90
       50
176
     1
290
     0
176
     1
 90
       50
176
     1
 62
   256
176
     0
 40
1.0
176
     0
 90
        2
176
     1
  1
strokes_ogs.tif
176
     1
290
     0
176
     1
 40
1.0
176
     1
 40
1.0
176
     1
1001
ACAD
1000
AcDbSavedByObjectVersion
1070
     0
  0
VISUALSTYLE
  5
5CB
102
{ACAD_REACTORS
330
1DA
102
}
330
1DA
100
AcDbVisualStyle
  2
Wireframe
 70
     5
177
     3
291
     0
 70
    58
 90
        0
176
     1
 90
        2
176
     1
 90
        0
176
     1
 90
        0
176
     1
 40
0.6
176
     1
 40
30.0
176
     1
 62
     7
420
 16777215
176
     1
 90
        1
176
     1
 90
        4
176
     1
 62
     7
176
     1
 62
   257
176
     1
 90
        1
176
     1
 90
        1
176
     1
 40
1.0
176
     1
 90
        0
176
     1
 62
   257
176
     1
 40
1.0
176
     1
 90
        1
176
     1
 90
        6
176
     1
 90
        2
176
     1
 62
     7
176
     1
 90
        3
176
     1
 90
        0
176
     1
 90
        0
176
     1
290
     0
176
     1
 90
        1
176
     1
 40
0.0
176
     1
 90
        0
176
     1
290
     0
176
     1
290
     1
176
     1
290
     1
176
     1
290
     0
176
     1
290
     0
176
     1
290
     0
176
     1
290
     0
176
     1
290
     0
176
     1
290
     0
176
     1
 90
       50
176
     1
 40
0.0
176
     1
 40
1.0
176
     1
 90
        0
176
     1
 62
    18
176
     1
 90
       50
176
     1
 90
        3
176
     1
 62
     5
420
      255
176
     1
290
     0
176
     1
 90
       50
176
     1
 90
       50
176
     1
 90
       50
176
     1
290
     0
176
     1
 90
       50
176
     1
 62
   256
176
     0
 40
1.0
176
     0
 90
        2
176
     1
  1
strokes_ogs.tif
176
     1
290
     0
176
     1
 40
1.0
176
     1
 40
1.0
176
     1
1001
ACAD
1000
AcDbSavedByObjectVersion
1070
     0
  0
VISUALSTYLE
  5
5CF
102
{ACAD_REACTORS
330
1DA
102
}
330
1DA
100
AcDbVisualStyle
  2
X-Ray
 70
    25
177
     3
291
     0
 70
    58
 90
        2
176
     1
 90
        2
176
     1
 90
        1
176
     1
 90
        1
176
     1
 40
0.5
176
     1
 40
30.0
176
     1
 62
     7
420
 16777215
176
     1
 90
        1
176
     1
 90
        0
176
     1
 62
     7
176
     1
 62
   257
176
     1
 90
        1
176
     1
 90
        1
176
     1
 40
1.0
176
     1
 90
        8
176
     1
 62
     7
176
     1
 40
1.0
176
     1
 90
        1
176
     1
 90
        6
176
     1
 90
        2
176
     1
 62
     7
176
     1
 90
        3
176
     1
 90
        0
176
     1
 90
        0
176
     1
290
     0
176
     1
 90
       13
176
     1
 40
0.0
176
     1
 90
        0
176
     1
290
     0
176
     1
290
     1
176
     1
290
     1
176
     1
290
     0
176
     1
290
     0
176
     1
290
     0
176
     1
290
     0
176
     1
290
     0
176
     1
290
     0
176
     1
 90
       50
176
     1
 40
0.0
176
     1
 40
1.0
176
     1
 90
        0
176
     1
 62
    18
176
     1
 90
       50
176
     1
 90
        3
176
     1
 62
     5
420
      255
176
     1
290
     0
176
     1
 90
       50
176
     1
 90
       50
176
     1
 90
       50
176
     1
290
     0
176
     1
 90
       50
176
     1
 62
   256
176
     0
 40
1.0
176
     0
 90
        2
176
     1
  1
strokes_ogs.tif
176
     1
290
     0
176
     1
 40
1.0
176
     1
 40
1.0
176
     1
1001
ACAD
1000
AcDbSavedByObjectVersion
1070
     0
  0
DICTIONARYVAR
  5
630
102
{ACAD_REACTORS
330
1F3
102
}
330
1F3
100
DictionaryVariables
280
     0
  1
1:1
  0
DICTIONARYVAR
  5
62C
102
{ACAD_REACTORS
330
1F3
102
}
330
1F3
100
DictionaryVariables
280
     0
  1
STANDARD
  0
DICTIONARYVAR
  5
1F4
102
{ACAD_REACTORS
330
1F3
102
}
330
1F3
100
DictionaryVariables
280
     0
  1
STANDARD
  0
DICTIONARYVAR
  5
62D
102
{ACAD_REACTORS
330
1F3
102
}
330
1F3
100
DictionaryVariables
280
     0
  1
Imperial24
  0
DICTIONARYVAR
  5
62E
102
{ACAD_REACTORS
330
1F3
102
}
330
1F3
100
DictionaryVariables
280
     0
  1
Imperial24
  0
DICTIONARYVAR
  5
586
102
{ACAD_REACTORS
330
1F3
102
}
330
1F3
100
DictionaryVariables
280
     0
  1
1
  0
DICTIONARYVAR
  5
585
102
{ACAD_REACTORS
330
1F3
102
}
330
1F3
100
DictionaryVariables
280
     0
  1
0
  0
DICTIONARYVAR
  5
632
102
{ACAD_REACTORS
330
1F3
102
}
330
1F3
100
DictionaryVariables
280
     0
  1
1
  0
DICTIONARYVAR
  5
633
102
{ACAD_REACTORS
330
1F3
102
}
330
1F3
100
DictionaryVariables
280
     0
  1
15
  0
DICTIONARYVAR
  5
631
102
{ACAD_REACTORS
330
1F3
102
}
330
1F3
100
DictionaryVariables
280
     0
  1
0
  0
DICTIONARYVAR
  5
62F
102
{ACAD_REACTORS
330
1F3
102
}
330
1F3
100
DictionaryVariables
280
     0
  1
0
  0
DICTIONARYVAR
  5
584
102
{ACAD_REACTORS
330
1F3
102
}
330
1F3
100
DictionaryVariables
280
     0
  1
127
  0
DICTIONARY
  5
4DD2
102
{ACAD_REACTORS
330
4DD0
102
}
330
4DD0
100
AcDbDictionary
281
     1
  0
DICTIONARY
  5
4DD1
102
{ACAD_REACTORS
330
4DD0
102
}
330
4DD0
100
AcDbDictionary
281
     1
  3
1416045120432
350
4DCB
  3
1416045120448
350
4DCC
  3
1416045120464
350
4DCD
  3
1416045120480
350
4DCE
  3
1416045120496
350
4DCF
  0
DICTIONARY
  5
4DD5
330
5EC
100
AcDbDictionary
280
     1
281
     1
  3
ACAD_XREC_ROUNDTRIP
360
4DD6
  0
DICTIONARY
  5
4DD9
330
677
100
AcDbDictionary
280
     1
281
     1
  3
ACAD_XREC_ROUNDTRIP
360
4DDA
  0
DICTIONARY
  5
5BF
330
1D8
100
AcDbDictionary
280
     1
281
     1
  3
ACAD_XREC_ROUNDTRIP
360
5C0
  0
DICTIONARY
  5
5BD
330
1D7
100
AcDbDictionary
280
     1
281
     1
  3
ACAD_XREC_ROUNDTRIP
360
5BE
  0
DICTIONARY
  5
5C1
330
1D9
100
AcDbDictionary
280
     1
281
     1
  3
ACAD_XREC_ROUNDTRIP
360
5C2
  0
DICTIONARY
  5
4DD3
330
5EA
100
AcDbDictionary
280
     1
281
     1
  3
ACAD_XREC_ROUNDTRIP
360
4DD4
  0
DICTIONARY
  5
4DD7
330
676
100
AcDbDictionary
280
     1
281
     1
  3
ACAD_XREC_ROUNDTRIP
360
4DD8
  0
DICTIONARY
  5
634
330
1ED
100
AcDbDictionary
280
     1
281
     1
  3
ACAD_ROUNDTRIP_2008_TABLESTYLE_CELLSTYLEMAP
360
4DC9
  0
XRECORD
  5
4DCB
102
{ACAD_REACTORS
330
4DD1
102
}
330
4DD1
100
AcDbXrecord
280
     1
  1
AcDb_Thumbnail_Schema
102
{ATTRRECORD
341
4DCC
  2
AcDbDs::TreatedAsObjectData
280
     1
291
     1
102
ATTRRECORD}
102
{ATTRRECORD
341
4DCD
  2
AcDbDs::Legacy
280
     1
291
     1
102
ATTRRECORD}
  2
AcDbDs::ID
280
    10
 91
        8
102
{ATTRRECORD
341
4DCE
  2
AcDs:Indexable
280
     1
291
     1
102
ATTRRECORD}
102
{ATTRRECORD
341
4DCF
  2
AcDbDs::HandleAttribute
280
     7
282
     1
102
ATTRRECORD}
  2
Thumbnail_Data
280
    15
 91
        0
  0
XRECORD
  5
4DCC
102
{ACAD_REACTORS
330
4DD1
102
}
330
4DD1
100
AcDbXrecord
280
     1
  1
AcDbDs::TreatedAsObjectDataSchema
  2
AcDbDs::TreatedAsObjectData
280
     1
 91
        0
  0
XRECORD
  5
4DCD
102
{ACAD_REACTORS
330
4DD1
102
}
330
4DD1
100
AcDbXrecord
280
     1
  1
AcDbDs::LegacySchema
  2
AcDbDs::Legacy
280
     1
 91
        0
  0
XRECORD
  5
4DCE
102
{ACAD_REACTORS
330
4DD1
102
}
330
4DD1
100
AcDbXrecord
280
     1
  1
AcDbDs::IndexedPropertySchema
  2
AcDs:Indexable
280
     1
 91
        0
  0
XRECORD
  5
4DCF
102
{ACAD_REACTORS
330
4DD1
102
}
330
4DD1
100
AcDbXrecord
280
     1
  1
AcDbDs::HandleAttributeSchema
  2
AcDbDs::HandleAttribute
280
     7
 91
        1
284
     1
  0
XRECORD
  5
4DD6
102
{ACAD_REACTORS
330
4DD5
102
}
330
4DD5
100
AcDbXrecord
280
     1
102
DISPLAYNAME
  1
Imperial24
102
FLAGS
 90
        0
  0
XRECORD
  5
4DDA
102
{ACAD_REACTORS
330
4DD9
102
}
330
4DD9
100
AcDbXrecord
280
     1
102
DISPLAYNAME
  1
Metric50
102
FLAGS
 90
        0
  0
XRECORD
  5
5C0
102
{ACAD_REACTORS
330
5BF
102
}
330
5BF
100
AcDbXrecord
280
     1
102
MATERIAL
148
0.0
149
0.0
149
0.0
 93
        0
 94
       63
282
     0
 72
     1
 77
     1
171
     1
175
     1
179
     1
273
     0
  0
XRECORD
  5
5BE
102
{ACAD_REACTORS
330
5BD
102
}
330
5BD
100
AcDbXrecord
280
     1
102
MATERIAL
148
0.0
149
0.0
149
0.0
 93
        0
 94
       63
282
     0
 72
     1
 77
     1
171
     1
175
     1
179
     1
273
     0
  0
XRECORD
  5
5C2
102
{ACAD_REACTORS
330
5C1
102
}
330
5C1
100
AcDbXrecord
280
     1
102
MATERIAL
148
0.0
149
0.0
149
0.0
 93
        0
 94
       63
282
     0
 72
     1
 77
     1
171
     1
175
     1
179
     1
273
     0
  0
XRECORD
  5
4DD4
102
{ACAD_REACTORS
330
4DD3
102
}
330
4DD3
100
AcDbXrecord
280
     1
102
DISPLAYNAME
  1
Imperial24
102
FLAGS
 90
        0
  0
XRECORD
  5
4DD8
102
{ACAD_REACTORS
330
4DD7
102
}
330
4DD7
100
AcDbXrecord
280
     1
102
DISPLAYNAME
  1
Metric50
102
FLAGS
 90
        0
  0
CELLSTYLEMAP
  5
4DC9
102
{ACAD_REACTORS
330
634
102
}
330
634
100
AcDbCellStyleMap
 90
        3
300
CELLSTYLE
  1
TABLEFORMAT_BEGIN
 90
        5
170
     1
 91
        0
 92
    32768
 62
   257
 93
        1
300
CONTENTFORMAT
  1
CONTENTFORMAT_BEGIN
 90
        0
 91
        0
 92
      512
 93
        0
300

 40
0.0
140
1.0
 94
        5
 62
     0
340
11
144
0.25
309
CONTENTFORMAT_END
171
     1
301
MARGIN
  1
CELLMARGIN_BEGIN
 40
0.06
 40
0.06
 40
0.06
 40
0.06
 40
0.18
 40
0.18
309
CELLMARGIN_END
 94
        6
 95
        1
302
GRIDFORMAT
  1
GRIDFORMAT_BEGIN
 90
        0
 91
        1
 62
     0
 92
       -2
340
0
 93
        0
 40
0.045
309
GRIDFORMAT_END
 95
        2
302
GRIDFORMAT
  1
GRIDFORMAT_BEGIN
 90
        0
 91
        1
 62
     0
 92
       -2
340
0
 93
        0
 40
0.045
309
GRIDFORMAT_END
 95
        4
302
GRIDFORMAT
  1
GRIDFORMAT_BEGIN
 90
        0
 91
        1
 62
     0
 92
       -2
340
0
 93
        0
 40
0.045
309
GRIDFORMAT_END
 95
        8
302
GRIDFORMAT
  1
GRIDFORMAT_BEGIN
 90
        0
 91
        1
 62
     0
 92
       -2
340
0
 93
        0
 40
0.045
309
GRIDFORMAT_END
 95
       16
302
GRIDFORMAT
  1
GRIDFORMAT_BEGIN
 90
        0
 91
        1
 62
     0
 92
       -2
340
0
 93
        0
 40
0.045
309
GRIDFORMAT_END
 95
       32
302
GRIDFORMAT
  1
GRIDFORMAT_BEGIN
 90
        0
 91
        1
 62
     0
 92
       -2
340
0
 93
        0
 40
0.045
309
GRIDFORMAT_END
309
TABLEFORMAT_END
  1
CELLSTYLE_BEGIN
 90
        1
 91
        1
300
_TITLE
309
CELLSTYLE_END
300
CELLSTYLE
  1
TABLEFORMAT_BEGIN
 90
        5
170
     1
 91
        0
 92
        0
 62
   257
 93
        1
300
CONTENTFORMAT
  1
CONTENTFORMAT_BEGIN
 90
        0
 91
        0
 92
      512
 93
        0
300

 40
0.0
140
1.0
 94
        5
 62
     0
340
11
144
0.18
309
CONTENTFORMAT_END
171
     1
301
MARGIN
  1
CELLMARGIN_BEGIN
 40
0.06
 40
0.06
 40
0.06
 40
0.06
 40
0.18
 40
0.18
309
CELLMARGIN_END
 94
        6
 95
        1
302
GRIDFORMAT
  1
GRIDFORMAT_BEGIN
 90
        0
 91
        1
 62
     0
 92
       -2
340
0
 93
        0
 40
0.045
309
GRIDFORMAT_END
 95
        2
302
GRIDFORMAT
  1
GRIDFORMAT_BEGIN
 90
        0
 91
        1
 62
     0
 92
       -2
340
0
 93
        0
 40
0.045
309
GRIDFORMAT_END
 95
        4
302
GRIDFORMAT
  1
GRIDFORMAT_BEGIN
 90
        0
 91
        1
 62
     0
 92
       -2
340
0
 93
        0
 40
0.045
309
GRIDFORMAT_END
 95
        8
302
GRIDFORMAT
  1
GRIDFORMAT_BEGIN
 90
        0
 91
        1
 62
     0
 92
       -2
340
0
 93
        0
 40
0.045
309
GRIDFORMAT_END
 95
       16
302
GRIDFORMAT
  1
GRIDFORMAT_BEGIN
 90
        0
 91
        1
 62
     0
 92
       -2
340
0
 93
        0
 40
0.045
309
GRIDFORMAT_END
 95
       32
302
GRIDFORMAT
  1
GRIDFORMAT_BEGIN
 90
        0
 91
        1
 62
     0
 92
       -2
340
0
 93
        0
 40
0.045
309
GRIDFORMAT_END
309
TABLEFORMAT_END
  1
CELLSTYLE_BEGIN
 90
        2
 91
        1
300
_HEADER
309
CELLSTYLE_END
300
CELLSTYLE
  1
TABLEFORMAT_BEGIN
 90
        5
170
     1
 91
        0
 92
        0
 62
   257
 93
        1
300
CONTENTFORMAT
  1
CONTENTFORMAT_BEGIN
 90
        0
 91
        0
 92
      512
 93
        0
300

 40
0.0
140
1.0
 94
        2
 62
     0
340
11
144
0.18
309
CONTENTFORMAT_END
171
     1
301
MARGIN
  1
CELLMARGIN_BEGIN
 40
0.06
 40
0.06
 40
0.06
 40
0.06
 40
0.18
 40
0.18
309
CELLMARGIN_END
 94
        6
 95
        1
302
GRIDFORMAT
  1
GRIDFORMAT_BEGIN
 90
        0
 91
        1
 62
     0
 92
       -2
340
0
 93
        0
 40
0.045
309
GRIDFORMAT_END
 95
        2
302
GRIDFORMAT
  1
GRIDFORMAT_BEGIN
 90
        0
 91
        1
 62
     0
 92
       -2
340
0
 93
        0
 40
0.045
309
GRIDFORMAT_END
 95
        4
302
GRIDFORMAT
  1
GRIDFORMAT_BEGIN
 90
        0
 91
        1
 62
     0
 92
       -2
340
0
 93
        0
 40
0.045
309
GRIDFORMAT_END
 95
        8
302
GRIDFORMAT
  1
GRIDFORMAT_BEGIN
 90
        0
 91
        1
 62
     0
 92
       -2
340
0
 93
        0
 40
0.045
309
GRIDFORMAT_END
 95
       16
302
GRIDFORMAT
  1
GRIDFORMAT_BEGIN
 90
        0
 91
        1
 62
     0
 92
       -2
340
0
 93
        0
 40
0.045
309
GRIDFORMAT_END
 95
       32
302
GRIDFORMAT
  1
GRIDFORMAT_BEGIN
 90
        0
 91
        1
 62
     0
 92
       -2
340
0
 93
        0
 40
0.045
309
GRIDFORMAT_END
309
TABLEFORMAT_END
  1
CELLSTYLE_BEGIN
 90
        3
 91
        2
300
_DATA
309
CELLSTYLE_END
  0
ENDSEC
  0
SECTION
  2
ACDSDATA
 70
     2
 71
     8
  0
ACDSSCHEMA
 90
        0
  1
AcDb_Thumbnail_Schema
  2
AcDbDs::ID
280
    10
 91
        8
  2
Thumbnail_Data
280
    15
 91
        0
101
ACDSRECORD
 95
        0
 90
        1
  2
AcDbDs::TreatedAsObjectData
280
     1
291
     1
101
ACDSRECORD
 95
        0
 90
        2
  2
AcDbDs::Legacy
280
     1
291
     1
101
ACDSRECORD
  1
AcDbDs::ID
 90
        3
  2
AcDs:Indexable
280
     1
291
     1
101
ACDSRECORD
  1
AcDbDs::ID
 90
        4
  2
AcDbDs::HandleAttribute
280
     7
282
     1
  0
ACDSSCHEMA
 90
        1
  1
AcDbDs::TreatedAsObjectDataSchema
  2
AcDbDs::TreatedAsObjectData
280
     1
 91
        0
  0
ACDSSCHEMA
 90
        2
  1
AcDbDs::LegacySchema
  2
AcDbDs::Legacy
280
     1
 91
        0
  0
ACDSSCHEMA
 90
        3
  1
AcDbDs::IndexedPropertySchema
  2
AcDs:Indexable
280
     1
 91
        0
  0
ACDSSCHEMA
 90
        4
  1
AcDbDs::HandleAttributeSchema
  2
AcDbDs::HandleAttribute
280
     7
 91
        1
284
     1
  0
ACDSRECORD
 90
        0
  2
AcDbDs::ID
280
    10
320
1EF
  2
Thumbnail_Data
280
    15
 94
     1026
310
89504E470D0A1A0A0000000D49484452000001000000007D08030000007A674DFF00000300504C5445FFFFFFFFFFFFFFFFFF0000000000000000000000000000000000000000000000000000330000660000990000CC0000FF0033000033330033660033990033CC0033FF0066000066330066660066990066CC0066FF0099
310
000099330099660099990099CC0099FF00CC0000CC3300CC6600CC9900CCCC00CCFF00FF0000FF3300FF6600FF9900FFCC00FFFF3300003300333300663300993300CC3300FF3333003333333333663333993333CC3333FF3366003366333366663366993366CC3366FF3399003399333399663399993399CC3399FF33CC00
310
33CC3333CC6633CC9933CCCC33CCFF33FF0033FF3333FF6633FF9933FFCC33FFFF6600006600336600666600996600CC6600FF6633006633336633666633996633CC6633FF6666006666336666666666996666CC6666FF6699006699336699666699996699CC6699FF66CC0066CC3366CC6666CC9966CCCC66CCFF66FF0066
310
FF3366FF6666FF9966FFCC66FFFF9900009900339900669900999900CC9900FF9933009933339933669933999933CC9933FF9966009966339966669966999966CC9966FF9999009999339999669999999999CC9999FF99CC0099CC3399CC6699CC9999CCCC99CCFF99FF0099FF3399FF6699FF9999FFCC99FFFFCC0000CC00
310
33CC0066CC0099CC00CCCC00FFCC3300CC3333CC3366CC3399CC33CCCC33FFCC6600CC6633CC6666CC6699CC66CCCC66FFCC9900CC9933CC9966CC9999CC99CCCC99FFCCCC00CCCC33CCCC66CCCC99CCCCCCCCCCFFCCFF00CCFF33CCFF66CCFF99CCFFCCCCFFFFFF0000FF0033FF0066FF0099FF00CCFF00FFFF3300FF3333
310
FF3366FF3399FF33CCFF33FFFF6600FF6633FF6666FF6699FF66CCFF66FFFF9900FF9933FF9966FF9999FF99CCFF99FFFFCC00FFCC33FFCC66FFCC99FFCCCCFFCCFFFFFF00FFFF33FFFF66FFFF99FFFFCCFFFFFF0000000D0D0D1A1A1A2828283535354343435050505D5D5D6B6B6B787878868686939393A1A1A1AEAEAEBB
310
BBBBC9C9C9D6D6D6E4E4E4F1F1F1FFFFFF000000000000000000000000000000000000000000000000000000000000AD4AB4E4000000BD4944415478DAEDD94B0A83401045D1DAFF326B25C1083104340D8EAC77CECCA6277DFD6B150000000000000000704F6F462EEAD7C994F7C6B8007FC7B685F7E5FCE901EAFB98880C
310
50F1014A00A7800002082040EC93600BE051383C400950630B2C5D0326DF067A694C00010410400001041040000104C80CB00FF5C4DFC30B7F873FD30A0000000086B8FC1A1611E028111EA004083DFDCF36A3767E651E0602082080000208901CA05786325E04435F09D3D70F00000000003CD00B063A1D36710036110000
310
000049454E44AE426082
  0
ENDSEC
  0
EOF
