  0
SECTION
  2
HEADER
  9
$ACADVER
  1
AC1027
  9
$ACADMAINTVER
 70
   125
  9
$DWGCODEPAGE
  3
ANSI_1252
  9
$LASTSAVEDBY
  1
kaschu
  9
$REQUIREDVERSIONS
160
                 0
  9
$INSBASE
 10
0.0
 20
0.0
 30
0.0
  9
$EXTMIN
 10
5.496450678960144
 20
3.378442369389745
 30
0.0
  9
$EXTMAX
 10
1455.665949802906
 20
1153.418777899162
 30
0.0
  9
$LIMMIN
 10
0.0
 20
0.0
  9
$LIMMAX
 10
12.0
 20
9.0
  9
$ORTHOMODE
 70
     0
  9
$REGENMODE
 70
     1
  9
$FILLMODE
 70
     1
  9
$QTEXTMODE
 70
     0
  9
$MIRRTEXT
 70
     1
  9
$LTSCALE
 40
1.0
  9
$ATTMODE
 70
     1
  9
$TEXTSIZE
 40
0.2
  9
$TRACEWID
 40
0.05
  9
$TEXTSTYLE
  7
STANDARD
  9
$CLAYER
  8
0
  9
$CELTYPE
  6
BYLAYER
  9
$CECOLOR
 62
   256
  9
$CELTSCALE
 40
1.0
  9
$DISPSILH
 70
     0
  9
$DIMSCALE
 40
1.0
  9
$DIMASZ
 40
0.18
  9
$DIMEXO
 40
0.0625
  9
$DIMDLI
 40
0.38
  9
$DIMRND
 40
0.0
  9
$DIMDLE
 40
0.0
  9
$DIMEXE
 40
0.18
  9
$DIMTP
 40
0.0
  9
$DIMTM
 40
0.0
  9
$DIMTXT
 40
0.18
  9
$DIMCEN
 40
0.09
  9
$DIMTSZ
 40
0.0
  9
$DIMTOL
 70
     0
  9
$DIMLIM
 70
     0
  9
$DIMTIH
 70
     1
  9
$DIMTOH
 70
     1
  9
$DIMSE1
 70
     0
  9
$DIMSE2
 70
     0
  9
$DIMTAD
 70
     0
  9
$DIMZIN
 70
     0
  9
$DIMBLK
  1

  9
$DIMASO
 70
     1
  9
$DIMSHO
 70
     1
  9
$DIMPOST
  1

  9
$DIMAPOST
  1

  9
$DIMALT
 70
     0
  9
$DIMALTD
 70
     2
  9
$DIMALTF
 40
25.4
  9
$DIMLFAC
 40
1.0
  9
$DIMTOFL
 70
     0
  9
$DIMTVP
 40
0.0
  9
$DIMTIX
 70
     0
  9
$DIMSOXD
 70
     0
  9
$DIMSAH
 70
     0
  9
$DIMBLK1
  1

  9
$DIMBLK2
  1

  9
$DIMSTYLE
  2
STANDARD
  9
$DIMCLRD
 70
     0
  9
$DIMCLRE
 70
     0
  9
$DIMCLRT
 70
     0
  9
$DIMTFAC
 40
1.0
  9
$DIMGAP
 40
0.09
  9
$DIMJUST
 70
     0
  9
$DIMSD1
 70
     0
  9
$DIMSD2
 70
     0
  9
$DIMTOLJ
 70
     1
  9
$DIMTZIN
 70
     0
  9
$DIMALTZ
 70
     0
  9
$DIMALTTZ
 70
     0
  9
$DIMUPT
 70
     0
  9
$DIMDEC
 70
     4
  9
$DIMTDEC
 70
     4
  9
$DIMALTU
 70
     2
  9
$DIMALTTD
 70
     2
  9
$DIMTXSTY
  7
STANDARD
  9
$DIMAUNIT
 70
     0
  9
$DIMADEC
 70
     0
  9
$DIMALTRND
 40
0.0
  9
$DIMAZIN
 70
     0
  9
$DIMDSEP
 70
    46
  9
$DIMATFIT
 70
     3
  9
$DIMFRAC
 70
     0
  9
$DIMLDRBLK
  1

  9
$DIMLUNIT
 70
     2
  9
$DIMLWD
 70
    -2
  9
$DIMLWE
 70
    -2
  9
$DIMTMOVE
 70
     0
  9
$DIMFXL
 40
1.0
  9
$DIMFXLON
 70
     0
  9
$DIMJOGANG
 40
1.570796326794896
  9
$DIMTFILL
 70
     0
  9
$DIMTFILLCLR
 70
     0
  9
$DIMARCSYM
 70
     0
  9
$DIMLTYPE
  6

  9
$DIMLTEX1
  6

  9
$DIMLTEX2
  6

  9
$DIMTXTDIRECTION
 70
     0
  9
$LUNITS
 70
     2
  9
$LUPREC
 70
     4
  9
$SKETCHINC
 40
0.1
  9
$FILLETRAD
 40
0.5
  9
$AUNITS
 70
     0
  9
$AUPREC
 70
     0
  9
$MENU
  1
.
  9
$ELEVATION
 40
0.0
  9
$PELEVATION
 40
0.0
  9
$THICKNESS
 40
0.0
  9
$LIMCHECK
 70
     0
  9
$CHAMFERA
 40
0.5
  9
$CHAMFERB
 40
0.5
  9
$CHAMFERC
 40
1.0
  9
$CHAMFERD
 40
0.0
  9
$SKPOLY
 70
     0
  9
$TDCREATE
 40
2451762.510034722
  9
$TDUCREATE
 40
2451762.426705324
  9
$TDUPDATE
 40
2459102.638078704
  9
$TDUUPDATE
 40
2459102.554745371
  9
$TDINDWG
 40
0.1142436690
  9
$TDUSRTIMER
 40
0.1142313426
  9
$USRTIMER
 70
     1
  9
$ANGBASE
 50
0.0
  9
$ANGDIR
 70
     0
  9
$PDMODE
 70
     0
  9
$PDSIZE
 40
0.0
  9
$PLINEWID
 40
0.0
  9
$SPLFRAME
 70
     0
  9
$SPLINETYPE
 70
     6
  9
$SPLINESEGS
 70
     8
  9
$HANDSEED
  5
4B00
  9
$SURFTAB1
 70
     6
  9
$SURFTAB2
 70
     6
  9
$SURFTYPE
 70
     6
  9
$SURFU
 70
     6
  9
$SURFV
 70
     6
  9
$UCSBASE
  2

  9
$UCSNAME
  2

  9
$UCSORG
 10
0.0
 20
0.0
 30
0.0
  9
$UCSXDIR
 10
1.0
 20
0.0
 30
0.0
  9
$UCSYDIR
 10
0.0
 20
1.0
 30
0.0
  9
$UCSORTHOREF
  2

  9
$UCSORTHOVIEW
 70
     0
  9
$UCSORGTOP
 10
0.0
 20
0.0
 30
0.0
  9
$UCSORGBOTTOM
 10
0.0
 20
0.0
 30
0.0
  9
$UCSORGLEFT
 10
0.0
 20
0.0
 30
0.0
  9
$UCSORGRIGHT
 10
0.0
 20
0.0
 30
0.0
  9
$UCSORGFRONT
 10
0.0
 20
0.0
 30
0.0
  9
$UCSORGBACK
 10
0.0
 20
0.0
 30
0.0
  9
$PUCSBASE
  2

  9
$PUCSNAME
  2

  9
$PUCSORG
 10
0.0
 20
0.0
 30
0.0
  9
$PUCSXDIR
 10
1.0
 20
0.0
 30
0.0
  9
$PUCSYDIR
 10
0.0
 20
1.0
 30
0.0
  9
$PUCSORTHOREF
  2

  9
$PUCSORTHOVIEW
 70
     0
  9
$PUCSORGTOP
 10
0.0
 20
0.0
 30
0.0
  9
$PUCSORGBOTTOM
 10
0.0
 20
0.0
 30
0.0
  9
$PUCSORGLEFT
 10
0.0
 20
0.0
 30
0.0
  9
$PUCSORGRIGHT
 10
0.0
 20
0.0
 30
0.0
  9
$PUCSORGFRONT
 10
0.0
 20
0.0
 30
0.0
  9
$PUCSORGBACK
 10
0.0
 20
0.0
 30
0.0
  9
$USERI1
 70
     0
  9
$USERI2
 70
     0
  9
$USERI3
 70
     0
  9
$USERI4
 70
     0
  9
$USERI5
 70
     0
  9
$USERR1
 40
0.0
  9
$USERR2
 40
0.0
  9
$USERR3
 40
0.0
  9
$USERR4
 40
0.0
  9
$USERR5
 40
0.0
  9
$WORLDVIEW
 70
     1
  9
$SHADEDGE
 70
     3
  9
$SHADEDIF
 70
    70
  9
$TILEMODE
 70
     1
  9
$MAXACTVP
 70
    64
  9
$PINSBASE
 10
0.0
 20
0.0
 30
0.0
  9
$PLIMCHECK
 70
     0
  9
$PEXTMIN
 10
1.000000000000000E+20
 20
1.000000000000000E+20
 30
1.000000000000000E+20
  9
$PEXTMAX
 10
-1.000000000000000E+20
 20
-1.000000000000000E+20
 30
-1.000000000000000E+20
  9
$PLIMMIN
 10
0.0
 20
0.0
  9
$PLIMMAX
 10
12.0
 20
9.0
  9
$UNITMODE
 70
     0
  9
$VISRETAIN
 70
     1
  9
$PLINEGEN
 70
     0
  9
$PSLTSCALE
 70
     1
  9
$TREEDEPTH
 70
  3020
  9
$CMLSTYLE
  2
STANDARD
  9
$CMLJUST
 70
     0
  9
$CMLSCALE
 40
1.0
  9
$PROXYGRAPHICS
 70
     1
  9
$MEASUREMENT
 70
     0
  9
$CELWEIGHT
370
    -1
  9
$ENDCAPS
280
     0
  9
$JOINSTYLE
280
     0
  9
$LWDISPLAY
290
     0
  9
$INSUNITS
 70
     0
  9
$HYPERLINKBASE
  1

  9
$STYLESHEET
  1

  9
$XEDIT
290
     1
  9
$CEPSNTYPE
380
     0
  9
$PSTYLEMODE
290
     1
  9
$FINGERPRINTGUID
  2
{07D082D4-8E9D-48F0-9949-F8C76B91C45A}
  9
$VERSIONGUID
  2
{78C21CBA-04E5-D540-BF22-4117A5C0A4F2}
  9
$EXTNAMES
290
     1
  9
$PSVPSCALE
 40
0.0
  9
$OLESTARTUP
290
     0
  9
$SORTENTS
280
   127
  9
$INDEXCTL
280
     0
  9
$HIDETEXT
280
     0
  9
$XCLIPFRAME
280
     2
  9
$HALOGAP
280
     0
  9
$OBSCOLOR
 70
   257
  9
$OBSLTYPE
280
     0
  9
$INTERSECTIONDISPLAY
280
     0
  9
$INTERSECTIONCOLOR
 70
   257
  9
$DIMASSOC
280
     1
  9
$PROJECTNAME
  1

  9
$CAMERADISPLAY
290
     0
  9
$LENSLENGTH
 40
50.0
  9
$CAMERAHEIGHT
 40
0.0
  9
$STEPSPERSEC
 40
2.0
  9
$STEPSIZE
 40
6.0
  9
$3DDWFPREC
 40
2.0
  9
$PSOLWIDTH
 40
0.25
  9
$PSOLHEIGHT
 40
4.0
  9
$LOFTANG1
 40
1.570796326794896
  9
$LOFTANG2
 40
1.570796326794896
  9
$LOFTMAG1
 40
0.0
  9
$LOFTMAG2
 40
0.0
  9
$LOFTPARAM
 70
     7
  9
$LOFTNORMALS
280
     1
  9
$LATITUDE
 40
37.795
  9
$LONGITUDE
 40
-122.394
  9
$NORTHDIRECTION
 40
0.0
  9
$TIMEZONE
 70
 -8000
  9
$LIGHTGLYPHDISPLAY
280
     1
  9
$TILEMODELIGHTSYNCH
280
     1
  9
$CMATERIAL
347
1D7
  9
$SOLIDHIST
280
     0
  9
$SHOWHIST
280
     1
  9
$DWFFRAME
280
     2
  9
$DGNFRAME
280
     0
  9
$REALWORLDSCALE
290
     1
  9
$INTERFERECOLOR
 62
     1
  9
$INTERFEREOBJVS
345
1E4
  9
$INTERFEREVPVS
346
5CB
  9
$CSHADOW
280
     0
  9
$SHADOWPLANELOCATION
 40
0.0
  0
ENDSEC
  0
SECTION
  2
CLASSES
  0
CLASS
  1
ACDBDICTIONARYWDFLT
  2
AcDbDictionaryWithDefault
  3
ObjectDBX Classes
 90
        0
 91
        1
280
     0
281
     0
  0
CLASS
  1
MATERIAL
  2
AcDbMaterial
  3
ObjectDBX Classes
 90
     1153
 91
        3
280
     0
281
     0
  0
CLASS
  1
VISUALSTYLE
  2
AcDbVisualStyle
  3
ObjectDBX Classes
 90
     4095
 91
       26
280
     0
281
     0
  0
CLASS
  1
TABLESTYLE
  2
AcDbTableStyle
  3
ObjectDBX Classes
 90
     4095
 91
        1
280
     0
281
     0
  0
CLASS
  1
DICTIONARYVAR
  2
AcDbDictionaryVar
  3
ObjectDBX Classes
 90
        0
 91
       12
280
     0
281
     0
  0
CLASS
  1
SORTENTSTABLE
  2
AcDbSortentsTable
  3
ObjectDBX Classes
 90
        0
 91
        1
280
     0
281
     0
  0
CLASS
  1
SCALE
  2
AcDbScale
  3
ObjectDBX Classes
 90
     1153
 91
       17
280
     0
281
     0
  0
CLASS
  1
MLEADERSTYLE
  2
AcDbMLeaderStyle
  3
ACDB_MLEADERSTYLE_CLASS
 90
     4095
 91
        1
280
     0
281
     0
  0
CLASS
  1
ACDBSECTIONVIEWSTYLE
  2
AcDbSectionViewStyle
  3
ObjectDBX Classes
 90
     1025
 91
        2
280
     0
281
     0
  0
CLASS
  1
ACDBDETAILVIEWSTYLE
  2
AcDbDetailViewStyle
  3
ObjectDBX Classes
 90
     1025
 91
        2
280
     0
281
     0
  0
CLASS
  1
CELLSTYLEMAP
  2
AcDbCellStyleMap
  3
ObjectDBX Classes
 90
     1152
 91
        3
280
     0
281
     0
  0
ENDSEC
  0
SECTION
  2
TABLES
  0
TABLE
  2
VPORT
  5
8
330
0
100
AcDbSymbolTable
 70
     1
1001
ACAD
1000
DbSaveVer
1071
      224
  0
VPORT
  5
1B1
330
8
100
AcDbSymbolTableRecord
100
AcDbViewportTableRecord
  2
*ACTIVE
 70
     0
 10
0.0
 20
0.0
 11
1.0
 21
1.0
 12
1082.449015399957
 22
369.5660855901472
 13
0.0
 23
0.0
 14
0.5
 24
0.5
 15
0.5
 25
0.5
 16
0.0
 26
0.0
 36
1.0
 17
0.0
 27
0.0
 37
0.0
 40
2011.708851364158
 41
2.046436285097192
 42
50.0
 43
0.0
 44
0.0
 50
0.0
 51
0.0
 71
     0
 72
   100
 73
     1
 74
     3
 75
     0
 76
     0
 77
     0
 78
     0
281
     0
 65
     1
110
0.0
120
0.0
130
0.0
111
1.0
121
0.0
131
0.0
112
0.0
122
1.0
132
0.0
 79
     0
146
0.0
348
1E0
 60
     3
 61
     5
292
     1
282
     1
141
0.0
142
0.0
 63
   250
421
  3355443
1001
ACAD_NAV_VCDISPLAY
1070
     3
  0
ENDTAB
  0
TABLE
  2
LTYPE
  5
5
330
0
100
AcDbSymbolTable
 70
     5
  0
LTYPE
  5
14
330
5
100
AcDbSymbolTableRecord
100
AcDbLinetypeTableRecord
  2
BYBLOCK
 70
     0
  3

 72
    65
 73
     0
 40
0.0
  0
LTYPE
  5
15
330
5
100
AcDbSymbolTableRecord
100
AcDbLinetypeTableRecord
  2
BYLAYER
 70
     0
  3

 72
    65
 73
     0
 40
0.0
  0
LTYPE
  5
16
330
5
100
AcDbSymbolTableRecord
100
AcDbLinetypeTableRecord
  2
CONTINUOUS
 70
     0
  3
Solid line
 72
    65
 73
     0
 40
0.0
  0
LTYPE
  5
3DA
330
5
100
AcDbSymbolTableRecord
100
AcDbLinetypeTableRecord
  2
IMPORT
 70
     0
  3

 72
    65
 73
     0
 40
0.0
  0
LTYPE
  5
4D5
330
5
100
AcDbSymbolTableRecord
100
AcDbLinetypeTableRecord
  2
VERDECKT
 70
     0
  3
__ __ __ __ __ __ __ __ __ __ __ __ __ __ __ __
 72
    65
 73
     2
 40
0.375
 49
0.25
 74
     0
 49
-0.125
 74
     0
  0
LTYPE
  5
46EC
330
5
100
AcDbSymbolTableRecord
100
AcDbLinetypeTableRecord
  2
CUSTOM
 70
     0
  3

 72
    65
 73
     0
 40
0.0
  0
ENDTAB
  0
TABLE
  2
LAYER
  5
2
102
{ACAD_XDICTIONARY
360
3E4
102
}
330
0
100
AcDbSymbolTable
 70
     6
  0
LAYER
  5
10
102
{ACAD_XDICTIONARY
360
624
102
}
330
2
100
AcDbSymbolTableRecord
100
AcDbLayerTableRecord
  2
0
 70
     0
 62
     7
  6
CONTINUOUS
370
    -3
390
10E
347
1D9
348
0
  0
LAYER
  5
2DC
330
2
100
AcDbSymbolTableRecord
100
AcDbLayerTableRecord
  2
Defpoints
 70
     0
 62
     7
  6
CONTINUOUS
290
     0
370
    -3
390
10E
347
1D9
348
0
  0
LAYER
  5
3DD
102
{ACAD_XDICTIONARY
360
626
102
}
330
2
100
AcDbSymbolTableRecord
100
AcDbLayerTableRecord
  2
STANDARD
 70
     0
 62
     7
  6
CONTINUOUS
370
    -3
390
10E
347
1D9
348
0
  0
LAYER
  5
4D6
102
{ACAD_XDICTIONARY
360
628
102
}
330
2
100
AcDbSymbolTableRecord
100
AcDbLayerTableRecord
  2
VD
 70
     0
 62
     4
  6
VERDECKT
370
    -3
390
10E
347
1D9
348
0
  0
LAYER
  5
4D7
102
{ACAD_XDICTIONARY
360
62A
102
}
330
2
100
AcDbSymbolTableRecord
100
AcDbLayerTableRecord
  2
HEWI
 70
     0
 62
     7
  6
CONTINUOUS
370
    -3
390
10E
347
1D9
348
0
  0
LAYER
  5
675
330
2
100
AcDbSymbolTableRecord
100
AcDbLayerTableRecord
  2
1
 70
     0
 62
     7
420
 16777215
  6
CONTINUOUS
370
    -3
390
10E
347
1D9
348
0
  0
ENDTAB
  0
TABLE
  2
STYLE
  5
3
330
0
100
AcDbSymbolTable
 70
     2
  0
STYLE
  5
11
330
3
100
AcDbSymbolTableRecord
100
AcDbTextStyleTableRecord
  2
STANDARD
 70
     0
 40
0.0
 41
1.0
 50
0.0
 71
     0
 42
0.2
  3
txt
  4

  0
STYLE
  5
3DE
330
3
100
AcDbSymbolTableRecord
100
AcDbTextStyleTableRecord
  2
Entro
 70
     0
 40
0.0
 41
1.0
 50
0.0
 71
     0
 42
3.0
  3
isocpeur.ttf
  4

1001
ACAD
1000
ISOCPEUR
1071
       34
  0
ENDTAB
  0
TABLE
  2
VIEW
  5
6
330
0
100
AcDbSymbolTable
 70
     0
  0
ENDTAB
  0
TABLE
  2
UCS
  5
7
330
0
100
AcDbSymbolTable
 70
     0
  0
ENDTAB
  0
TABLE
  2
APPID
  5
9
330
0
100
AcDbSymbolTable
 70
     6
  0
APPID
  5
12
330
9
100
AcDbSymbolTableRecord
100
AcDbRegAppTableRecord
  2
ACAD
 70
     0
  0
APPID
  5
3E2
330
9
100
AcDbSymbolTableRecord
100
AcDbRegAppTableRecord
  2
ACAD_PSEXT
 70
     0
  0
APPID
  5
3E3
330
9
100
AcDbSymbolTableRecord
100
AcDbRegAppTableRecord
  2
ACAD_DSTYLE_DIMJOGGED_JOGANGLE_SYMBOL
 70
     0
  0
APPID
  5
5B6
330
9
100
AcDbSymbolTableRecord
100
AcDbRegAppTableRecord
  2
ACAD_EXEMPT_FROM_CAD_STANDARDS
 70
     0
  0
APPID
  5
616
330
9
100
AcDbSymbolTableRecord
100
AcDbRegAppTableRecord
  2
ACAD_NAV_VCDISPLAY
 70
     0
  0
APPID
  5
1626
330
9
100
AcDbSymbolTableRecord
100
AcDbRegAppTableRecord
  2
ACAD_DSTYLE_DIMRADIAL_EXTENSION
 70
     0
  0
ENDTAB
  0
TABLE
  2
DIMSTYLE
  5
A
330
0
100
AcDbSymbolTable
 70
     5
100
AcDbDimStyleTable
 71
     2
340
27
340
3DF
  0
DIMSTYLE
105
27
330
A
100
AcDbSymbolTableRecord
100
AcDbDimStyleTableRecord
  2
STANDARD
 70
     0
340
11
  0
DIMSTYLE
105
3DF
330
A
100
AcDbSymbolTableRecord
100
AcDbDimStyleTableRecord
  2
AM_DIN
 70
     0
  4
"
 41
2.5
 42
1.0
 43
10.0
 44
1.0
 47
0.1
 48
0.1
 50
89.99999999999998
 73
     0
 74
     0
 77
     1
 78
     8
 79
     2
140
3.5
141
0.0
143
0.0393701
146
0.71
147
1.5
172
     1
176
   256
177
   256
178
     2
271
     2
272
     3
274
     4
283
     0
284
     8
340
11
371
    -1
372
    -1
1001
ACAD_DSTYLE_DIMJOGGED_JOGANGLE_SYMBOL
1070
   384
1040
1.570796326794896
  0
DIMSTYLE
105
3E1
330
A
100
AcDbSymbolTableRecord
100
AcDbDimStyleTableRecord
  2
AM_DIN$0
 70
     0
  4
"
 41
25.0
 42
1.0
 43
10.0
 44
10.0
 47
0.1
 48
0.1
 50
89.99999999999998
 73
     0
 74
     0
 77
     1
 78
     8
 79
     2
140
25.0
141
0.0
143
0.0393701
146
0.71
147
10.0
172
     1
176
   256
177
   256
178
   256
271
     2
272
     2
283
     0
284
     8
340
3DE
371
    -1
372
    -1
1001
ACAD_DSTYLE_DIMJOGGED_JOGANGLE_SYMBOL
1070
   384
1040
1.570796326794896
  0
DIMSTYLE
105
46ED
330
A
100
AcDbSymbolTableRecord
100
AcDbDimStyleTableRecord
  2
ISO-25
 70
     0
 41
2.5
 42
0.625
 43
3.75
 44
1.25
 73
     0
 74
     0
 77
     1
 78
     8
140
2.5
141
2.5
143
0.03937007874016
147
0.625
171
     3
172
     1
271
     2
272
     2
274
     3
278
    44
283
     0
284
     8
340
11
  0
ENDTAB
  0
TABLE
  2
BLOCK_RECORD
  5
1
330
0
100
AcDbSymbolTable
 70
    57
  0
BLOCK_RECORD
  5
1F
102
{ACAD_XDICTIONARY
360
107
102
}
330
1
100
AcDbSymbolTableRecord
100
AcDbBlockTableRecord
  2
*MODEL_SPACE
340
1EF
 70
     0
280
     1
281
     0
  0
BLOCK_RECORD
  5
1B
102
{ACAD_XDICTIONARY
360
105
102
}
330
1
100
AcDbSymbolTableRecord
100
AcDbBlockTableRecord
  2
*PAPER_SPACE
340
1F0
 70
     0
280
     1
281
     0
  0
BLOCK_RECORD
  5
4C0
330
1
100
AcDbSymbolTableRecord
100
AcDbBlockTableRecord
  2
*D0
340
0
 70
     0
280
     1
281
     0
  0
BLOCK_RECORD
  5
4E6
330
1
100
AcDbSymbolTableRecord
100
AcDbBlockTableRecord
  2
*D1
340
0
 70
     0
280
     1
281
     0
  0
BLOCK_RECORD
  5
5A7
330
1
100
AcDbSymbolTableRecord
100
AcDbBlockTableRecord
  2
*D2
340
0
 70
     0
280
     1
281
     0
  0
BLOCK_RECORD
  5
D57
330
1
100
AcDbSymbolTableRecord
100
AcDbBlockTableRecord
  2
*D3
340
0
 70
     0
280
     1
281
     0
  0
BLOCK_RECORD
  5
D66
330
1
100
AcDbSymbolTableRecord
100
AcDbBlockTableRecord
  2
*D4
340
0
 70
     0
280
     1
281
     0
  0
BLOCK_RECORD
  5
D7C
330
1
100
AcDbSymbolTableRecord
100
AcDbBlockTableRecord
  2
*D5
340
0
 70
     0
280
     1
281
     0
  0
BLOCK_RECORD
  5
D8A
330
1
100
AcDbSymbolTableRecord
100
AcDbBlockTableRecord
  2
*D6
340
0
 70
     0
280
     1
281
     0
  0
BLOCK_RECORD
  5
D99
330
1
100
AcDbSymbolTableRecord
100
AcDbBlockTableRecord
  2
*D7
340
0
 70
     0
280
     1
281
     0
  0
BLOCK_RECORD
  5
1531
330
1
100
AcDbSymbolTableRecord
100
AcDbBlockTableRecord
  2
*D8
340
0
 70
     0
280
     1
281
     0
  0
BLOCK_RECORD
  5
153F
330
1
100
AcDbSymbolTableRecord
100
AcDbBlockTableRecord
  2
*D9
340
0
 70
     0
280
     1
281
     0
  0
BLOCK_RECORD
  5
15E1
330
1
100
AcDbSymbolTableRecord
100
AcDbBlockTableRecord
  2
*D10
340
0
 70
     0
280
     1
281
     0
  0
BLOCK_RECORD
  5
15EF
330
1
100
AcDbSymbolTableRecord
100
AcDbBlockTableRecord
  2
*D11
340
0
 70
     0
280
     1
281
     0
  0
BLOCK_RECORD
  5
1628
330
1
100
AcDbSymbolTableRecord
100
AcDbBlockTableRecord
  2
*D12
340
0
 70
     0
280
     1
281
     0
  0
BLOCK_RECORD
  5
1635
330
1
100
AcDbSymbolTableRecord
100
AcDbBlockTableRecord
  2
*D13
340
0
 70
     0
280
     1
281
     0
  0
BLOCK_RECORD
  5
1A4B
330
1
100
AcDbSymbolTableRecord
100
AcDbBlockTableRecord
  2
*D14
340
0
 70
     0
280
     1
281
     0
  0
BLOCK_RECORD
  5
1A59
330
1
100
AcDbSymbolTableRecord
100
AcDbBlockTableRecord
  2
*D15
340
0
 70
     0
280
     1
281
     0
  0
BLOCK_RECORD
  5
1A68
330
1
100
AcDbSymbolTableRecord
100
AcDbBlockTableRecord
  2
*D16
340
0
 70
     0
280
     1
281
     0
  0
BLOCK_RECORD
  5
208D
330
1
100
AcDbSymbolTableRecord
100
AcDbBlockTableRecord
  2
*D17
340
0
 70
     0
280
     1
281
     0
  0
BLOCK_RECORD
  5
209B
330
1
100
AcDbSymbolTableRecord
100
AcDbBlockTableRecord
  2
*D18
340
0
 70
     0
280
     1
281
     0
  0
BLOCK_RECORD
  5
20BC
330
1
100
AcDbSymbolTableRecord
100
AcDbBlockTableRecord
  2
*D19
340
0
 70
     0
280
     1
281
     0
  0
BLOCK_RECORD
  5
20F3
330
1
100
AcDbSymbolTableRecord
100
AcDbBlockTableRecord
  2
*D20
340
0
 70
     0
280
     1
281
     0
  0
BLOCK_RECORD
  5
212B
330
1
100
AcDbSymbolTableRecord
100
AcDbBlockTableRecord
  2
*D21
340
0
 70
     0
280
     1
281
     0
  0
BLOCK_RECORD
  5
2139
330
1
100
AcDbSymbolTableRecord
100
AcDbBlockTableRecord
  2
*D22
340
0
 70
     0
280
     1
281
     0
  0
BLOCK_RECORD
  5
2148
330
1
100
AcDbSymbolTableRecord
100
AcDbBlockTableRecord
  2
*D23
340
0
 70
     0
280
     1
281
     0
  0
BLOCK_RECORD
  5
27E8
330
1
100
AcDbSymbolTableRecord
100
AcDbBlockTableRecord
  2
*D24
340
0
 70
     0
280
     1
281
     0
  0
BLOCK_RECORD
  5
27F7
330
1
100
AcDbSymbolTableRecord
100
AcDbBlockTableRecord
  2
*D25
340
0
 70
     0
280
     1
281
     0
  0
BLOCK_RECORD
  5
2806
330
1
100
AcDbSymbolTableRecord
100
AcDbBlockTableRecord
  2
*D26
340
0
 70
     0
280
     1
281
     0
  0
BLOCK_RECORD
  5
2817
330
1
100
AcDbSymbolTableRecord
100
AcDbBlockTableRecord
  2
*D27
340
0
 70
     0
280
     1
281
     0
  0
BLOCK_RECORD
  5
2825
330
1
100
AcDbSymbolTableRecord
100
AcDbBlockTableRecord
  2
*D28
340
0
 70
     0
280
     1
281
     0
  0
BLOCK_RECORD
  5
2875
330
1
100
AcDbSymbolTableRecord
100
AcDbBlockTableRecord
  2
*D29
340
0
 70
     0
280
     1
281
     0
  0
BLOCK_RECORD
  5
28BF
330
1
100
AcDbSymbolTableRecord
100
AcDbBlockTableRecord
  2
*D30
340
0
 70
     0
280
     1
281
     0
  0
BLOCK_RECORD
  5
28CD
330
1
100
AcDbSymbolTableRecord
100
AcDbBlockTableRecord
  2
*D31
340
0
 70
     0
280
     1
281
     0
  0
BLOCK_RECORD
  5
28F1
330
1
100
AcDbSymbolTableRecord
100
AcDbBlockTableRecord
  2
*D32
340
0
 70
     0
280
     1
281
     0
  0
BLOCK_RECORD
  5
28FF
330
1
100
AcDbSymbolTableRecord
100
AcDbBlockTableRecord
  2
*D33
340
0
 70
     0
280
     1
281
     0
  0
BLOCK_RECORD
  5
2E8B
330
1
100
AcDbSymbolTableRecord
100
AcDbBlockTableRecord
  2
*D34
340
0
 70
     0
280
     1
281
     0
  0
BLOCK_RECORD
  5
2E99
330
1
100
AcDbSymbolTableRecord
100
AcDbBlockTableRecord
  2
*D35
340
0
 70
     0
280
     1
281
     0
  0
BLOCK_RECORD
  5
2EE7
330
1
100
AcDbSymbolTableRecord
100
AcDbBlockTableRecord
  2
*D36
340
0
 70
     0
280
     1
281
     0
  0
BLOCK_RECORD
  5
2EF5
330
1
100
AcDbSymbolTableRecord
100
AcDbBlockTableRecord
  2
*D37
340
0
 70
     0
280
     1
281
     0
  0
BLOCK_RECORD
  5
3D6F
330
1
100
AcDbSymbolTableRecord
100
AcDbBlockTableRecord
  2
*D38
340
0
 70
     0
280
     1
281
     0
  0
BLOCK_RECORD
  5
3D7D
330
1
100
AcDbSymbolTableRecord
100
AcDbBlockTableRecord
  2
*D39
340
0
 70
     0
280
     1
281
     0
  0
BLOCK_RECORD
  5
3DD5
330
1
100
AcDbSymbolTableRecord
100
AcDbBlockTableRecord
  2
*D40
340
0
 70
     0
280
     1
281
     0
  0
BLOCK_RECORD
  5
3DE3
330
1
100
AcDbSymbolTableRecord
100
AcDbBlockTableRecord
  2
*D41
340
0
 70
     0
280
     1
281
     0
  0
BLOCK_RECORD
  5
3DF2
330
1
100
AcDbSymbolTableRecord
100
AcDbBlockTableRecord
  2
*D42
340
0
 70
     0
280
     1
281
     0
  0
BLOCK_RECORD
  5
3E06
330
1
100
AcDbSymbolTableRecord
100
AcDbBlockTableRecord
  2
*D43
340
0
 70
     0
280
     1
281
     0
  0
BLOCK_RECORD
  5
3E14
330
1
100
AcDbSymbolTableRecord
100
AcDbBlockTableRecord
  2
*D44
340
0
 70
     0
280
     1
281
     0
  0
BLOCK_RECORD
  5
45C0
330
1
100
AcDbSymbolTableRecord
100
AcDbBlockTableRecord
  2
*D45
340
0
 70
     0
280
     1
281
     0
  0
BLOCK_RECORD
  5
45CE
330
1
100
AcDbSymbolTableRecord
100
AcDbBlockTableRecord
  2
*D46
340
0
 70
     0
280
     1
281
     0
  0
BLOCK_RECORD
  5
4605
330
1
100
AcDbSymbolTableRecord
100
AcDbBlockTableRecord
  2
*D47
340
0
 70
     0
280
     1
281
     0
  0
BLOCK_RECORD
  5
4615
330
1
100
AcDbSymbolTableRecord
100
AcDbBlockTableRecord
  2
*D48
340
0
 70
     0
280
     1
281
     0
  0
BLOCK_RECORD
  5
4623
330
1
100
AcDbSymbolTableRecord
100
AcDbBlockTableRecord
  2
*D49
340
0
 70
     0
280
     1
281
     0
  0
BLOCK_RECORD
  5
4633
330
1
100
AcDbSymbolTableRecord
100
AcDbBlockTableRecord
  2
*D50
340
0
 70
     0
280
     1
281
     0
  0
BLOCK_RECORD
  5
4646
330
1
100
AcDbSymbolTableRecord
100
AcDbBlockTableRecord
  2
*D51
340
0
 70
     0
280
     1
281
     0
  0
BLOCK_RECORD
  5
4654
330
1
100
AcDbSymbolTableRecord
100
AcDbBlockTableRecord
  2
*D52
340
0
 70
     0
280
     1
281
     0
  0
ENDTAB
  0
ENDSEC
  0
SECTION
  2
BLOCKS
  0
BLOCK
  5
20
330
1F
100
AcDbEntity
  8
0
100
AcDbBlockBegin
  2
*MODEL_SPACE
 70
     0
 10
0.0
 20
0.0
 30
0.0
  3
*MODEL_SPACE
  1

  0
ENDBLK
  5
21
330
1F
100
AcDbEntity
  8
0
100
AcDbBlockEnd
  0
BLOCK
  5
1C
330
1B
100
AcDbEntity
 67
     1
  8
0
100
AcDbBlockBegin
  2
*PAPER_SPACE
 70
     0
 10
0.0
 20
0.0
 30
0.0
  3
*PAPER_SPACE
  1

  0
ENDBLK
  5
1D
330
1B
100
AcDbEntity
 67
     1
  8
0
100
AcDbBlockEnd
  0
BLOCK
  5
4CA
330
4C0
100
AcDbEntity
  8
0
100
AcDbBlockBegin
  2
*D0
 70
     1
 10
0.0
 20
0.0
 30
0.0
  3
*D0
  1

  0
LINE
  5
600
330
4C0
100
AcDbEntity
  8
0
440
 16777216
100
AcDbLine
 10
638.7173827835728
 20
1048.40919819918
 30
0.0
 11
527.8929333861474
 21
1048.40919819918
 31
0.0
  0
LINE
  5
601
330
4C0
100
AcDbEntity
  8
0
440
 16777216
100
AcDbLine
 10
612.600559225214
 20
1184.909198199115
 30
0.0
 11
527.8929333861474
 21
1184.909198199115
 31
0.0
  0
LINE
  5
602
330
4C0
100
AcDbEntity
  8
0
440
 16777216
100
AcDbLine
 10
537.8929333861474
 20
1073.40919819918
 30
0.0
 11
537.8929333861474
 21
1159.909198199115
 31
0.0
  0
SOLID
  5
603
330
4C0
100
AcDbEntity
  8
0
440
 16777216
100
AcDbTrace
 10
533.7262667194806
 20
1073.40919819918
 30
0.0
 11
542.059600052814
 21
1073.40919819918
 31
0.0
 12
537.8929333861474
 22
1048.40919819918
 32
0.0
 13
537.8929333861474
 23
1048.40919819918
 33
0.0
  0
SOLID
  5
604
330
4C0
100
AcDbEntity
  8
0
440
 16777216
100
AcDbTrace
 10
533.7262667194806
 20
1159.909198199115
 30
0.0
 11
542.059600052814
 21
1159.909198199115
 31
0.0
 12
537.8929333861474
 22
1184.909198199115
 32
0.0
 13
537.8929333861474
 23
1184.909198199115
 33
0.0
  0
MTEXT
  5
605
330
4C0
100
AcDbEntity
  8
0
440
 16777216
100
AcDbMText
 10
505.3929333861471
 20
1116.659198199148
 30
0.0
 40
45.0
 41
0.0
 46
0.0
 71
     5
 72
     1
  1
150
  7
Entro
 11
0.0000000000000001
 21
1.0
 31
0.0
 73
     1
 44
1.0
  0
POINT
  5
606
330
4C0
100
AcDbEntity
  8
Defpoints
 62
     0
440
 16777216
100
AcDbPoint
 10
639.7173827835728
 20
1048.40919819918
 30
0.0
  0
POINT
  5
607
330
4C0
100
AcDbEntity
  8
Defpoints
 62
     0
440
 16777216
100
AcDbPoint
 10
613.600559225214
 20
1184.909198199115
 30
0.0
  0
POINT
  5
608
330
4C0
100
AcDbEntity
  8
Defpoints
 62
     0
440
 16777216
100
AcDbPoint
 10
537.8929333861474
 20
1184.909198199115
 30
0.0
  0
ENDBLK
  5
4CB
330
4C0
100
AcDbEntity
  8
0
100
AcDbBlockEnd
  0
BLOCK
  5
4F1
330
4E6
100
AcDbEntity
  8
0
100
AcDbBlockBegin
  2
*D1
 70
     1
 10
0.0
 20
0.0
 30
0.0
  3
*D1
  1

  0
LINE
  5
609
330
4E6
100
AcDbEntity
  8
0
440
 16777216
100
AcDbLine
 10
1403.258789852631
 20
1208.551258404823
 30
0.0
 11
1403.258789852631
 21
1333.120661769634
 31
0.0
  0
LINE
  5
60A
330
4E6
100
AcDbEntity
  8
0
440
 16777216
100
AcDbLine
 10
732.2587898526303
 20
1208.551258404758
 30
0.0
 11
732.2587898526303
 21
1333.120661769634
 31
0.0
  0
LINE
  5
60B
330
4E6
100
AcDbEntity
  8
0
440
 16777216
100
AcDbLine
 10
1378.258789852631
 20
1323.120661769634
 30
0.0
 11
757.2587898526303
 21
1323.120661769634
 31
0.0
  0
SOLID
  5
60C
330
4E6
100
AcDbEntity
  8
0
440
 16777216
100
AcDbTrace
 10
1378.258789852631
 20
1327.2873284363
 30
0.0
 11
1378.258789852631
 21
1318.953995102967
 31
0.0
 12
1403.258789852631
 22
1323.120661769634
 32
0.0
 13
1403.258789852631
 23
1323.120661769634
 33
0.0
  0
SOLID
  5
60D
330
4E6
100
AcDbEntity
  8
0
440
 16777216
100
AcDbTrace
 10
757.2587898526303
 20
1327.2873284363
 30
0.0
 11
757.2587898526303
 21
1318.953995102967
 31
0.0
 12
732.2587898526303
 22
1323.120661769634
 32
0.0
 13
732.2587898526303
 23
1323.120661769634
 33
0.0
  0
MTEXT
  5
60E
330
4E6
100
AcDbEntity
  8
0
440
 16777216
100
AcDbMText
 10
1067.758789852631
 20
1355.637707224179
 30
0.0
 40
45.0
 41
0.0
 46
0.0
 71
     5
 72
     1
  1
670 - 730 
  7
Entro
 73
     1
 44
1.0
  0
POINT
  5
60F
330
4E6
100
AcDbEntity
  8
Defpoints
 62
     0
440
 16777216
100
AcDbPoint
 10
1403.258789852631
 20
1207.551258404823
 30
0.0
  0
POINT
  5
610
330
4E6
100
AcDbEntity
  8
Defpoints
 62
     0
440
 16777216
100
AcDbPoint
 10
732.2587898526303
 20
1207.551258404758
 30
0.0
  0
POINT
  5
611
330
4E6
100
AcDbEntity
  8
Defpoints
 62
     0
440
 16777216
100
AcDbPoint
 10
732.2587898526303
 20
1323.120661769634
 30
0.0
  0
ENDBLK
  5
4F2
330
4E6
100
AcDbEntity
  8
0
100
AcDbBlockEnd
  0
BLOCK
  5
5B2
330
5A7
100
AcDbEntity
  8
0
100
AcDbBlockBegin
  2
*D2
 70
     1
 10
0.0
 20
0.0
 30
0.0
  3
*D2
  1

  0
LINE
  5
5A8
330
5A7
100
AcDbEntity
  8
0
 62
     0
370
    -2
100
AcDbLine
 10
1366.25878985262
 20
1721.063376911456
 30
0.0
 11
1366.25878985262
 21
1749.707032685414
 31
0.0
  0
LINE
  5
5A9
330
5A7
100
AcDbEntity
  8
0
 62
     0
370
    -2
100
AcDbLine
 10
1440.25878985262
 20
1721.063376911458
 30
0.0
 11
1440.25878985262
 21
1749.707032685414
 31
0.0
  0
LINE
  5
5AA
330
5A7
100
AcDbEntity
  8
0
 62
     0
370
    -2
100
AcDbLine
 10
1366.43878985262
 20
1749.527032685414
 30
0.0
 11
1402.68878985262
 21
1749.527032685414
 31
0.0
  0
LINE
  5
5AB
330
5A7
100
AcDbEntity
  8
0
 62
     0
370
    -2
100
AcDbLine
 10
1440.07878985262
 20
1749.527032685414
 30
0.0
 11
1403.82878985262
 21
1749.527032685414
 31
0.0
  0
SOLID
  5
5AC
330
5A7
100
AcDbEntity
  8
0
 62
     0
100
AcDbTrace
 10
1366.43878985262
 20
1749.557032685414
 30
0.0
 11
1366.43878985262
 21
1749.497032685414
 31
0.0
 12
1366.25878985262
 22
1749.527032685414
 32
0.0
 13
1366.25878985262
 23
1749.527032685414
 33
0.0
  0
SOLID
  5
5AD
330
5A7
100
AcDbEntity
  8
0
 62
     0
100
AcDbTrace
 10
1440.07878985262
 20
1749.557032685414
 30
0.0
 11
1440.07878985262
 21
1749.497032685414
 31
0.0
 12
1440.25878985262
 22
1749.527032685414
 32
0.0
 13
1440.25878985262
 23
1749.527032685414
 33
0.0
  0
MTEXT
  5
5AE
330
5A7
100
AcDbEntity
  8
0
 62
     0
100
AcDbMText
 10
1403.25878985262
 20
1749.527032685414
 30
0.0
 40
0.18
 41
0.0
 46
0.0
 71
     5
 72
     1
  1
\A1;74.0000
 73
     1
 44
1.0
1001
ACAD
1000
MTEXTBEGIN
1070
    73
1070
     1
1070
    44
1040
1.0
1070
    74
1070
     0
1000
MTEXTEND
  0
POINT
  5
5AF
330
5A7
100
AcDbEntity
  8
Defpoints
 62
     0
100
AcDbPoint
 10
1366.25878985262
 20
1721.000876911456
 30
0.0
  0
POINT
  5
5B0
330
5A7
100
AcDbEntity
  8
Defpoints
 62
     0
100
AcDbPoint
 10
1440.25878985262
 20
1721.000876911458
 30
0.0
  0
POINT
  5
5B1
330
5A7
100
AcDbEntity
  8
Defpoints
 62
     0
100
AcDbPoint
 10
1440.25878985262
 20
1749.527032685414
 30
0.0
  0
ENDBLK
  5
5B3
330
5A7
100
AcDbEntity
  8
0
100
AcDbBlockEnd
  0
BLOCK
  5
D58
330
D57
100
AcDbEntity
  8
0
100
AcDbBlockBegin
  2
*D3
 70
     1
 10
0.0
 20
0.0
 30
0.0
  3
*D3
  1

  0
LINE
  5
DAC
330
D57
100
AcDbEntity
  8
0
 62
     0
440
 16777216
370
    -2
100
AcDbLine
 10
-231.9684398513505
 20
695.7124804650937
 30
0.0
 11
-231.9684398513505
 21
668.3540667198414
 31
0.0
  0
LINE
  5
DAD
330
D57
100
AcDbEntity
  8
0
 62
     0
440
 16777216
370
    -2
100
AcDbLine
 10
-71.96843985135045
 20
695.7124804650937
 30
0.0
 11
-71.96843985135045
 21
668.3540667198414
 31
0.0
  0
LINE
  5
DAE
330
D57
100
AcDbEntity
  8
0
 62
     0
440
 16777216
370
    -2
100
AcDbLine
 10
-231.7884398513505
 20
668.5340667198412
 30
0.0
 11
-152.5834398513504
 21
668.5340667198412
 31
0.0
  0
LINE
  5
DAF
330
D57
100
AcDbEntity
  8
0
 62
     0
440
 16777216
370
    -2
100
AcDbLine
 10
-72.14843985135047
 20
668.5340667198412
 30
0.0
 11
-151.3534398513504
 21
668.5340667198412
 31
0.0
  0
SOLID
  5
DB0
330
D57
100
AcDbEntity
  8
0
 62
     0
440
 16777216
100
AcDbTrace
 10
-231.7884398513505
 20
668.5640667198412
 30
0.0
 11
-231.7884398513505
 21
668.5040667198412
 31
0.0
 12
-231.9684398513505
 22
668.5340667198412
 32
0.0
 13
-231.9684398513505
 23
668.5340667198412
 33
0.0
  0
SOLID
  5
DB1
330
D57
100
AcDbEntity
  8
0
 62
     0
440
 16777216
100
AcDbTrace
 10
-72.14843985135047
 20
668.5640667198412
 30
0.0
 11
-72.14843985135047
 21
668.5040667198412
 31
0.0
 12
-71.96843985135045
 22
668.5340667198412
 32
0.0
 13
-71.96843985135045
 23
668.5340667198412
 33
0.0
  0
MTEXT
  5
DB2
330
D57
100
AcDbEntity
  8
0
 62
     0
440
 16777216
100
AcDbMText
 10
-151.9684398513504
 20
668.5340667198412
 30
0.0
 40
0.18
 41
0.0
 46
0.0
 71
     5
 72
     1
  1
\A1;160.0000
 73
     1
 44
1.0
  0
POINT
  5
DB3
330
D57
100
AcDbEntity
  8
Defpoints
 62
     0
440
 16777216
100
AcDbPoint
 10
-231.9684398513505
 20
695.7749804650936
 30
0.0
  0
POINT
  5
DB4
330
D57
100
AcDbEntity
  8
Defpoints
 62
     0
440
 16777216
100
AcDbPoint
 10
-71.96843985135045
 20
695.7749804650936
 30
0.0
  0
POINT
  5
DB5
330
D57
100
AcDbEntity
  8
Defpoints
 62
     0
440
 16777216
100
AcDbPoint
 10
-71.96843985135045
 20
668.5340667198412
 30
0.0
  0
ENDBLK
  5
D59
330
D57
100
AcDbEntity
  8
0
100
AcDbBlockEnd
  0
BLOCK
  5
D67
330
D66
100
AcDbEntity
  8
0
100
AcDbBlockBegin
  2
*D4
 70
     1
 10
0.0
 20
0.0
 30
0.0
  3
*D4
  1

  0
LINE
  5
D69
330
D66
100
AcDbEntity
  8
0
 62
     0
440
 16777216
370
    -2
100
AcDbLine
 10
2116.161813919972
 20
1609.088916389609
 30
0.0
 11
2116.161813919972
 21
1595.527801713193
 31
0.0
  0
LINE
  5
D6A
330
D66
100
AcDbEntity
  8
0
 62
     0
440
 16777216
370
    -2
100
AcDbLine
 10
2253.161813919972
 20
1609.088916389609
 30
0.0
 11
2253.161813919972
 21
1595.527801713193
 31
0.0
  0
LINE
  5
D6B
330
D66
100
AcDbEntity
  8
0
 62
     0
440
 16777216
370
    -2
100
AcDbLine
 10
2116.341813919972
 20
1595.707801713193
 30
0.0
 11
2184.031813919972
 21
1595.707801713193
 31
0.0
  0
LINE
  5
D6C
330
D66
100
AcDbEntity
  8
0
 62
     0
440
 16777216
370
    -2
100
AcDbLine
 10
2252.981813919972
 20
1595.707801713193
 30
0.0
 11
2185.291813919972
 21
1595.707801713193
 31
0.0
  0
SOLID
  5
D6D
330
D66
100
AcDbEntity
  8
0
 62
     0
440
 16777216
100
AcDbTrace
 10
2116.341813919972
 20
1595.737801713193
 30
0.0
 11
2116.341813919972
 21
1595.677801713193
 31
0.0
 12
2116.161813919972
 22
1595.707801713193
 32
0.0
 13
2116.161813919972
 23
1595.707801713193
 33
0.0
  0
SOLID
  5
D6E
330
D66
100
AcDbEntity
  8
0
 62
     0
440
 16777216
100
AcDbTrace
 10
2252.981813919972
 20
1595.737801713193
 30
0.0
 11
2252.981813919972
 21
1595.677801713193
 31
0.0
 12
2253.161813919972
 22
1595.707801713193
 32
0.0
 13
2253.161813919972
 23
1595.707801713193
 33
0.0
  0
MTEXT
  5
D6F
330
D66
100
AcDbEntity
  8
0
 62
     0
440
 16777216
100
AcDbMText
 10
2184.661813919972
 20
1595.707801713193
 30
0.0
 40
0.18
 41
0.0
 46
0.0
 71
     5
 72
     1
  1
\A1;137.0000
 73
     1
 44
1.0
  0
POINT
  5
D70
330
D66
100
AcDbEntity
  8
Defpoints
 62
     0
440
 16777216
100
AcDbPoint
 10
2116.161813919972
 20
1609.151416389609
 30
0.0
  0
POINT
  5
D71
330
D66
100
AcDbEntity
  8
Defpoints
 62
     0
440
 16777216
100
AcDbPoint
 10
2253.161813919972
 20
1609.151416389609
 30
0.0
  0
POINT
  5
D72
330
D66
100
AcDbEntity
  8
Defpoints
 62
     0
440
 16777216
100
AcDbPoint
 10
2253.161813919972
 20
1595.707801713193
 30
0.0
  0
ENDBLK
  5
D68
330
D66
100
AcDbEntity
  8
0
100
AcDbBlockEnd
  0
BLOCK
  5
D7D
330
D7C
100
AcDbEntity
  8
0
100
AcDbBlockBegin
  2
*D5
 70
     1
 10
0.0
 20
0.0
 30
0.0
  3
*D5
  1

  0
LINE
  5
DB6
330
D7C
100
AcDbEntity
  8
0
 62
     0
440
 16777216
370
    -2
100
AcDbLine
 10
-166.9684398513507
 20
722.3017196924812
 30
0.0
 11
-166.9684398513507
 21
731.5707179990471
 31
0.0
  0
LINE
  5
DB7
330
D7C
100
AcDbEntity
  8
0
 62
     0
440
 16777216
370
    -2
100
AcDbLine
 10
-136.9684398513507
 20
722.3017196924812
 30
0.0
 11
-136.9684398513507
 21
731.5707179990471
 31
0.0
  0
LINE
  5
DB8
330
D7C
100
AcDbEntity
  8
0
 62
     0
440
 16777216
370
    -2
100
AcDbLine
 10
-166.7884398513507
 20
731.390717999047
 30
0.0
 11
-152.5234398513507
 21
731.390717999047
 31
0.0
  0
LINE
  5
DB9
330
D7C
100
AcDbEntity
  8
0
 62
     0
440
 16777216
370
    -2
100
AcDbLine
 10
-137.1484398513507
 20
731.390717999047
 30
0.0
 11
-151.4134398513507
 21
731.390717999047
 31
0.0
  0
SOLID
  5
DBA
330
D7C
100
AcDbEntity
  8
0
 62
     0
440
 16777216
100
AcDbTrace
 10
-166.7884398513507
 20
731.4207179990469
 30
0.0
 11
-166.7884398513507
 21
731.3607179990472
 31
0.0
 12
-166.9684398513507
 22
731.390717999047
 32
0.0
 13
-166.9684398513507
 23
731.390717999047
 33
0.0
  0
SOLID
  5
DBB
330
D7C
100
AcDbEntity
  8
0
 62
     0
440
 16777216
100
AcDbTrace
 10
-137.1484398513507
 20
731.4207179990469
 30
0.0
 11
-137.1484398513507
 21
731.3607179990472
 31
0.0
 12
-136.9684398513507
 22
731.390717999047
 32
0.0
 13
-136.9684398513507
 23
731.390717999047
 33
0.0
  0
MTEXT
  5
DBC
330
D7C
100
AcDbEntity
  8
0
 62
     0
440
 16777216
100
AcDbMText
 10
-151.9684398513507
 20
731.390717999047
 30
0.0
 40
0.18
 41
0.0
 46
0.0
 71
     5
 72
     1
  1
\A1;30.0000
 73
     1
 44
1.0
  0
POINT
  5
DBD
330
D7C
100
AcDbEntity
  8
Defpoints
 62
     0
440
 16777216
100
AcDbPoint
 10
-166.9684398513507
 20
722.2392196924812
 30
0.0
  0
POINT
  5
DBE
330
D7C
100
AcDbEntity
  8
Defpoints
 62
     0
440
 16777216
100
AcDbPoint
 10
-136.9684398513507
 20
722.2392196924812
 30
0.0
  0
POINT
  5
DBF
330
D7C
100
AcDbEntity
  8
Defpoints
 62
     0
440
 16777216
100
AcDbPoint
 10
-136.9684398513507
 20
731.390717999047
 30
0.0
  0
ENDBLK
  5
D7E
330
D7C
100
AcDbEntity
  8
0
100
AcDbBlockEnd
  0
BLOCK
  5
D8B
330
D8A
100
AcDbEntity
  8
0
100
AcDbBlockBegin
  2
*D6
 70
     1
 10
0.0
 20
0.0
 30
0.0
  3
*D6
  1

  0
LINE
  5
D8D
330
D8A
100
AcDbEntity
  8
0
 62
     0
440
 16777216
370
    -2
100
AcDbLine
 10
2263.161813919969
 20
1616.06501719027
 30
0.0
 11
2263.161813919969
 21
1634.583061451241
 31
0.0
  0
LINE
  5
D8E
330
D8A
100
AcDbEntity
  8
0
 62
     0
440
 16777216
370
    -2
100
AcDbLine
 10
2203.161813919969
 20
1616.06501719027
 30
0.0
 11
2203.161813919969
 21
1634.583061451241
 31
0.0
  0
LINE
  5
D8F
330
D8A
100
AcDbEntity
  8
0
 62
     0
440
 16777216
370
    -2
100
AcDbLine
 10
2262.981813919969
 20
1634.403061451241
 30
0.0
 11
2233.716813919969
 21
1634.403061451241
 31
0.0
  0
LINE
  5
D90
330
D8A
100
AcDbEntity
  8
0
 62
     0
440
 16777216
370
    -2
100
AcDbLine
 10
2203.341813919969
 20
1634.403061451241
 30
0.0
 11
2232.606813919969
 21
1634.403061451241
 31
0.0
  0
SOLID
  5
D91
330
D8A
100
AcDbEntity
  8
0
 62
     0
440
 16777216
100
AcDbTrace
 10
2262.981813919969
 20
1634.433061451241
 30
0.0
 11
2262.981813919969
 21
1634.373061451241
 31
0.0
 12
2263.161813919969
 22
1634.403061451241
 32
0.0
 13
2263.161813919969
 23
1634.403061451241
 33
0.0
  0
SOLID
  5
D92
330
D8A
100
AcDbEntity
  8
0
 62
     0
440
 16777216
100
AcDbTrace
 10
2203.341813919969
 20
1634.433061451241
 30
0.0
 11
2203.341813919969
 21
1634.373061451241
 31
0.0
 12
2203.161813919969
 22
1634.403061451241
 32
0.0
 13
2203.161813919969
 23
1634.403061451241
 33
0.0
  0
MTEXT
  5
D93
330
D8A
100
AcDbEntity
  8
0
 62
     0
440
 16777216
100
AcDbMText
 10
2233.161813919969
 20
1634.403061451241
 30
0.0
 40
0.18
 41
0.0
 46
0.0
 71
     5
 72
     1
  1
\A1;60.0000
 73
     1
 44
1.0
  0
POINT
  5
D94
330
D8A
100
AcDbEntity
  8
Defpoints
 62
     0
440
 16777216
100
AcDbPoint
 10
2263.161813919969
 20
1616.00251719027
 30
0.0
  0
POINT
  5
D95
330
D8A
100
AcDbEntity
  8
Defpoints
 62
     0
440
 16777216
100
AcDbPoint
 10
2203.161813919969
 20
1616.00251719027
 30
0.0
  0
POINT
  5
D96
330
D8A
100
AcDbEntity
  8
Defpoints
 62
     0
440
 16777216
100
AcDbPoint
 10
2203.161813919969
 20
1634.403061451241
 30
0.0
  0
ENDBLK
  5
D8C
330
D8A
100
AcDbEntity
  8
0
100
AcDbBlockEnd
  0
BLOCK
  5
D9A
330
D99
100
AcDbEntity
  8
0
100
AcDbBlockBegin
  2
*D7
 70
     1
 10
0.0
 20
0.0
 30
0.0
  3
*D7
  1

  0
LINE
  5
D9C
330
D99
100
AcDbEntity
  8
0
 62
     0
440
 16777216
370
    -2
100
AcDbLine
 10
2263.161813919969
 20
1615.06501719027
 30
0.0
 11
2263.161813919969
 21
1626.524019053845
 31
0.0
  0
LINE
  5
D9D
330
D99
100
AcDbEntity
  8
0
 62
     0
440
 16777216
370
    -2
100
AcDbLine
 10
2253.161813919972
 20
1610.726648786398
 30
0.0
 11
2253.161813919972
 21
1626.524019053845
 31
0.0
  0
LINE
  5
D9E
330
D99
100
AcDbEntity
  8
0
 62
     0
440
 16777216
370
    -2
100
AcDbLine
 10
2262.981813919969
 20
1626.344019053845
 30
0.0
 11
2258.68681391997
 21
1626.344019053845
 31
0.0
  0
LINE
  5
D9F
330
D99
100
AcDbEntity
  8
0
 62
     0
440
 16777216
370
    -2
100
AcDbLine
 10
2253.341813919972
 20
1626.344019053845
 30
0.0
 11
2257.63681391997
 21
1626.344019053845
 31
0.0
  0
SOLID
  5
DA0
330
D99
100
AcDbEntity
  8
0
 62
     0
440
 16777216
100
AcDbTrace
 10
2262.981813919969
 20
1626.374019053845
 30
0.0
 11
2262.981813919969
 21
1626.314019053845
 31
0.0
 12
2263.161813919969
 22
1626.344019053845
 32
0.0
 13
2263.161813919969
 23
1626.344019053845
 33
0.0
  0
SOLID
  5
DA1
330
D99
100
AcDbEntity
  8
0
 62
     0
440
 16777216
100
AcDbTrace
 10
2253.341813919972
 20
1626.374019053845
 30
0.0
 11
2253.341813919972
 21
1626.314019053845
 31
0.0
 12
2253.161813919972
 22
1626.344019053845
 32
0.0
 13
2253.161813919972
 23
1626.344019053845
 33
0.0
  0
MTEXT
  5
DA2
330
D99
100
AcDbEntity
  8
0
 62
     0
440
 16777216
100
AcDbMText
 10
2258.16181391997
 20
1626.344019053845
 30
0.0
 40
0.18
 41
0.0
 46
0.0
 71
     5
 72
     1
  1
\A1;10.0000
 73
     1
 44
1.0
  0
POINT
  5
DA3
330
D99
100
AcDbEntity
  8
Defpoints
 62
     0
440
 16777216
100
AcDbPoint
 10
2263.161813919969
 20
1615.002517190269
 30
0.0
  0
POINT
  5
DA4
330
D99
100
AcDbEntity
  8
Defpoints
 62
     0
440
 16777216
100
AcDbPoint
 10
2253.161813919972
 20
1610.664148786398
 30
0.0
  0
POINT
  5
DA5
330
D99
100
AcDbEntity
  8
Defpoints
 62
     0
440
 16777216
100
AcDbPoint
 10
2253.161813919972
 20
1626.344019053845
 30
0.0
  0
ENDBLK
  5
D9B
330
D99
100
AcDbEntity
  8
0
100
AcDbBlockEnd
  0
BLOCK
  5
1532
330
1531
100
AcDbEntity
  8
0
100
AcDbBlockBegin
  2
*D8
 70
     1
 10
0.0
 20
0.0
 30
0.0
  3
*D8
  1

  0
LINE
  5
156A
330
1531
100
AcDbEntity
  8
0
 62
     0
440
 16777216
370
    -2
100
AcDbLine
 10
439.5368040077123
 20
452.2913517095966
 30
0.0
 11
439.5368040077123
 21
418.7670753109125
 31
0.0
  0
LINE
  5
156B
330
1531
100
AcDbEntity
  8
0
 62
     0
440
 16777216
370
    -2
100
AcDbLine
 10
541.5368040077123
 20
452.2913517095966
 30
0.0
 11
541.5368040077123
 21
418.7670753109125
 31
0.0
  0
LINE
  5
156C
330
1531
100
AcDbEntity
  8
0
 62
     0
440
 16777216
370
    -2
100
AcDbLine
 10
439.7168040077123
 20
418.9470753109126
 30
0.0
 11
474.1968040077123
 21
418.9470753109126
 31
0.0
  0
LINE
  5
156D
330
1531
100
AcDbEntity
  8
0
 62
     0
440
 16777216
370
    -2
100
AcDbLine
 10
541.3568040077124
 20
418.9470753109126
 30
0.0
 11
506.8768040077123
 21
418.9470753109126
 31
0.0
  0
SOLID
  5
156E
330
1531
100
AcDbEntity
  8
0
 62
     0
440
 16777216
100
AcDbTrace
 10
439.7168040077123
 20
418.9770753109126
 30
0.0
 11
439.7168040077123
 21
418.9170753109126
 31
0.0
 12
439.5368040077123
 22
418.9470753109126
 32
0.0
 13
439.5368040077123
 23
418.9470753109126
 33
0.0
  0
SOLID
  5
156F
330
1531
100
AcDbEntity
  8
0
 62
     0
440
 16777216
100
AcDbTrace
 10
541.3568040077124
 20
418.9770753109126
 30
0.0
 11
541.3568040077124
 21
418.9170753109126
 31
0.0
 12
541.5368040077123
 22
418.9470753109126
 32
0.0
 13
541.5368040077123
 23
418.9470753109126
 33
0.0
  0
MTEXT
  5
1570
330
1531
100
AcDbEntity
  8
0
 62
     0
440
 16777216
100
AcDbMText
 10
490.5368040077124
 20
418.9470753109126
 30
0.0
 40
15.0
 41
0.0
 46
0.0
 71
     5
 72
     1
  1
\A1;102
 73
     1
 44
1.0
  0
POINT
  5
1571
330
1531
100
AcDbEntity
  8
Defpoints
 62
     0
440
 16777216
100
AcDbPoint
 10
439.5368040077123
 20
452.3538517095967
 30
0.0
  0
POINT
  5
1572
330
1531
100
AcDbEntity
  8
Defpoints
 62
     0
440
 16777216
100
AcDbPoint
 10
541.5368040077123
 20
452.3538517095967
 30
0.0
  0
POINT
  5
1573
330
1531
100
AcDbEntity
  8
Defpoints
 62
     0
440
 16777216
100
AcDbPoint
 10
541.5368040077123
 20
418.9470753109126
 30
0.0
  0
ENDBLK
  5
1533
330
1531
100
AcDbEntity
  8
0
100
AcDbBlockEnd
  0
BLOCK
  5
1540
330
153F
100
AcDbEntity
  8
0
100
AcDbBlockBegin
  2
*D9
 70
     1
 10
0.0
 20
0.0
 30
0.0
  3
*D9
  1

  0
LINE
  5
1560
330
153F
100
AcDbEntity
  8
0
 62
     0
440
 16777216
370
    -2
100
AcDbLine
 10
641.7185151653583
 20
506.2846866388643
 30
0.0
 11
641.7185151653583
 21
562.7761961085531
 31
0.0
  0
LINE
  5
1561
330
153F
100
AcDbEntity
  8
0
 62
     0
440
 16777216
370
    -2
100
AcDbLine
 10
736.7185151653587
 20
506.2846866388643
 30
0.0
 11
736.7185151653587
 21
562.7761961085531
 31
0.0
  0
LINE
  5
1562
330
153F
100
AcDbEntity
  8
0
 62
     0
440
 16777216
370
    -2
100
AcDbLine
 10
641.8985151653584
 20
562.5961961085531
 30
0.0
 11
676.6285151653586
 21
562.5961961085531
 31
0.0
  0
LINE
  5
1563
330
153F
100
AcDbEntity
  8
0
 62
     0
440
 16777216
370
    -2
100
AcDbLine
 10
736.5385151653587
 20
562.5961961085531
 30
0.0
 11
701.8085151653584
 21
562.5961961085531
 31
0.0
  0
SOLID
  5
1564
330
153F
100
AcDbEntity
  8
0
 62
     0
440
 16777216
100
AcDbTrace
 10
641.8985151653584
 20
562.6261961085531
 30
0.0
 11
641.8985151653584
 21
562.5661961085532
 31
0.0
 12
641.7185151653583
 22
562.5961961085531
 32
0.0
 13
641.7185151653583
 23
562.5961961085531
 33
0.0
  0
SOLID
  5
1565
330
153F
100
AcDbEntity
  8
0
 62
     0
440
 16777216
100
AcDbTrace
 10
736.5385151653587
 20
562.6261961085531
 30
0.0
 11
736.5385151653587
 21
562.5661961085532
 31
0.0
 12
736.7185151653587
 22
562.5961961085531
 32
0.0
 13
736.7185151653587
 23
562.5961961085531
 33
0.0
  0
MTEXT
  5
1566
330
153F
100
AcDbEntity
  8
0
 62
     0
440
 16777216
100
AcDbMText
 10
689.2185151653587
 20
562.5961961085531
 30
0.0
 40
15.0
 41
0.0
 46
0.0
 71
     5
 72
     1
  1
\A1;95
 73
     1
 44
1.0
  0
POINT
  5
1567
330
153F
100
AcDbEntity
  8
Defpoints
 62
     0
440
 16777216
100
AcDbPoint
 10
641.7185151653583
 20
506.2221866388642
 30
0.0
  0
POINT
  5
1568
330
153F
100
AcDbEntity
  8
Defpoints
 62
     0
440
 16777216
100
AcDbPoint
 10
736.7185151653587
 20
506.2221866388642
 30
0.0
  0
POINT
  5
1569
330
153F
100
AcDbEntity
  8
Defpoints
 62
     0
440
 16777216
100
AcDbPoint
 10
736.7185151653587
 20
562.5961961085531
 30
0.0
  0
ENDBLK
  5
1541
330
153F
100
AcDbEntity
  8
0
100
AcDbBlockEnd
  0
BLOCK
  5
15E2
330
15E1
100
AcDbEntity
  8
0
100
AcDbBlockBegin
  2
*D10
 70
     1
 10
0.0
 20
0.0
 30
0.0
  3
*D10
  1

  0
LINE
  5
1610
330
15E1
100
AcDbEntity
  8
0
 62
     0
440
 16777216
370
    -2
100
AcDbLine
 10
480.5368040077119
 20
523.2846866388645
 30
0.0
 11
480.5368040077119
 21
568.4679920757932
 31
0.0
  0
LINE
  5
1611
330
15E1
100
AcDbEntity
  8
0
 62
     0
440
 16777216
370
    -2
100
AcDbLine
 10
500.536804007712
 20
523.2846866388645
 30
0.0
 11
500.536804007712
 21
568.4679920757932
 31
0.0
  0
LINE
  5
1612
330
15E1
100
AcDbEntity
  8
0
 62
     0
440
 16777216
370
    -2
100
AcDbLine
 10
480.7168040077121
 20
568.2879920757932
 30
0.0
 11
500.3568040077123
 21
568.2879920757932
 31
0.0
  0
LINE
  5
1613
330
15E1
100
AcDbEntity
  8
0
 62
     0
440
 16777216
370
    -2
100
AcDbLine
 10
500.536804007712
 20
568.2879920757932
 30
0.0
 11
500.7168040077123
 21
568.2879920757932
 31
0.0
  0
SOLID
  5
1614
330
15E1
100
AcDbEntity
  8
0
 62
     0
440
 16777216
100
AcDbTrace
 10
480.7168040077121
 20
568.3179920757932
 30
0.0
 11
480.7168040077121
 21
568.2579920757932
 31
0.0
 12
480.5368040077119
 22
568.2879920757932
 32
0.0
 13
480.5368040077119
 23
568.2879920757932
 33
0.0
  0
SOLID
  5
1615
330
15E1
100
AcDbEntity
  8
0
 62
     0
440
 16777216
100
AcDbTrace
 10
500.3568040077123
 20
568.3179920757932
 30
0.0
 11
500.3568040077123
 21
568.2579920757932
 31
0.0
 12
500.536804007712
 22
568.2879920757932
 32
0.0
 13
500.536804007712
 23
568.2879920757932
 33
0.0
  0
MTEXT
  5
1616
330
15E1
100
AcDbEntity
  8
0
 62
     0
440
 16777216
100
AcDbMText
 10
512.0568040077123
 20
568.2879920757932
 30
0.0
 40
15.0
 41
0.0
 46
0.0
 71
     5
 72
     1
  1
\A1;20
 73
     1
 44
1.0
  0
POINT
  5
1617
330
15E1
100
AcDbEntity
  8
Defpoints
 62
     0
440
 16777216
100
AcDbPoint
 10
480.5368040077119
 20
523.2221866388645
 30
0.0
  0
POINT
  5
1618
330
15E1
100
AcDbEntity
  8
Defpoints
 62
     0
440
 16777216
100
AcDbPoint
 10
500.536804007712
 20
523.2221866388645
 30
0.0
  0
POINT
  5
1619
330
15E1
100
AcDbEntity
  8
Defpoints
 62
     0
440
 16777216
100
AcDbPoint
 10
500.536804007712
 20
568.2879920757932
 30
0.0
  0
ENDBLK
  5
15E3
330
15E1
100
AcDbEntity
  8
0
100
AcDbBlockEnd
  0
BLOCK
  5
15F0
330
15EF
100
AcDbEntity
  8
0
100
AcDbBlockBegin
  2
*D11
 70
     1
 10
0.0
 20
0.0
 30
0.0
  3
*D11
  1

  0
LINE
  5
161A
330
15EF
100
AcDbEntity
  8
0
 62
     0
440
 16777216
370
    -2
100
AcDbLine
 10
483.7868040073905
 20
527.0846866384101
 30
0.0
 11
483.7868040073905
 21
588.3894390220462
 31
0.0
  0
LINE
  5
161B
330
15EF
100
AcDbEntity
  8
0
 62
     0
440
 16777216
370
    -2
100
AcDbLine
 10
497.0368040079015
 20
527.0846866384101
 30
0.0
 11
497.0368040079015
 21
588.3894390220462
 31
0.0
  0
LINE
  5
161C
330
15EF
100
AcDbEntity
  8
0
 62
     0
440
 16777216
370
    -2
100
AcDbLine
 10
483.9668040073905
 20
588.2094390220462
 30
0.0
 11
496.8568040079015
 21
588.2094390220462
 31
0.0
  0
LINE
  5
161D
330
15EF
100
AcDbEntity
  8
0
 62
     0
440
 16777216
370
    -2
100
AcDbLine
 10
497.0368040079015
 20
588.2094390220462
 30
0.0
 11
497.2168040079011
 21
588.2094390220462
 31
0.0
  0
SOLID
  5
161E
330
15EF
100
AcDbEntity
  8
0
 62
     0
440
 16777216
100
AcDbTrace
 10
483.9668040073905
 20
588.2394390220463
 30
0.0
 11
483.9668040073905
 21
588.1794390220464
 31
0.0
 12
483.7868040073905
 22
588.2094390220462
 32
0.0
 13
483.7868040073905
 23
588.2094390220462
 33
0.0
  0
SOLID
  5
161F
330
15EF
100
AcDbEntity
  8
0
 62
     0
440
 16777216
100
AcDbTrace
 10
496.8568040079015
 20
588.2394390220463
 30
0.0
 11
496.8568040079015
 21
588.1794390220464
 31
0.0
 12
497.0368040079015
 22
588.2094390220462
 32
0.0
 13
497.0368040079015
 23
588.2094390220462
 33
0.0
  0
MTEXT
  5
1620
330
15EF
100
AcDbEntity
  8
0
 62
     0
440
 16777216
100
AcDbMText
 10
507.3068040079014
 20
588.2094390220462
 30
0.0
 40
15.0
 41
0.0
 46
0.0
 71
     5
 72
     1
  1
\A1;13
 73
     1
 44
1.0
  0
POINT
  5
1621
330
15EF
100
AcDbEntity
  8
Defpoints
 62
     0
440
 16777216
100
AcDbPoint
 10
483.7868040073905
 20
527.0221866384098
 30
0.0
  0
POINT
  5
1622
330
15EF
100
AcDbEntity
  8
Defpoints
 62
     0
440
 16777216
100
AcDbPoint
 10
497.0368040079015
 20
527.0221866384098
 30
0.0
  0
POINT
  5
1623
330
15EF
100
AcDbEntity
  8
Defpoints
 62
     0
440
 16777216
100
AcDbPoint
 10
497.0368040079015
 20
588.2094390220462
 30
0.0
  0
ENDBLK
  5
15F1
330
15EF
100
AcDbEntity
  8
0
100
AcDbBlockEnd
  0
BLOCK
  5
1629
330
1628
100
AcDbEntity
  8
0
100
AcDbBlockBegin
  2
*D12
 70
     1
 10
0.0
 20
0.0
 30
0.0
  3
*D12
  1

  0
LINE
  5
162B
330
1628
100
AcDbEntity
  8
0
 62
     0
440
 16777216
370
    -2
100
AcDbLine
 10
512.8711892413957
 20
148.3920281191922
 30
0.0
 11
505.972076304611
 21
147.1302148079224
 31
0.0
  0
MTEXT
  5
162C
330
1628
100
AcDbEntity
  8
0
 62
     0
440
 16777216
100
AcDbMText
 10
513.5311892413958
 20
148.3920281191922
 30
0.0
 40
0.18
 41
0.0
 46
0.0
 71
     5
 72
     1
  1
\A1;∅26.0000
 73
     1
 44
1.0
  0
SOLID
  5
162D
330
1628
100
AcDbEntity
  8
0
 62
     0
440
 16777216
100
AcDbTrace
 10
505.9666789836168
 20
147.1597252963306
 30
0.0
 11
505.9774736256051
 21
147.1007043195143
 31
0.0
 12
505.7950133741623
 22
147.097830881957
 32
0.0
 13
505.7950133741623
 23
147.097830881957
 33
0.0
  0
LINE
  5
162E
330
1628
100
AcDbEntity
  8
0
 62
     0
440
 16777216
370
    -2
100
AcDbLine
 10
492.9171350639828
 20
144.758991784448
 30
0.0
 11
493.0971350639826
 21
144.758991784448
 31
0.0
  0
LINE
  5
162F
330
1628
100
AcDbEntity
  8
0
 62
     0
440
 16777216
370
    -2
100
AcDbLine
 10
493.0071350639828
 20
144.668991784448
 30
0.0
 11
493.0071350639828
 21
144.8489917844479
 31
0.0
  0
POINT
  5
1630
330
1628
100
AcDbEntity
  8
Defpoints
 62
     0
440
 16777216
100
AcDbPoint
 10
505.7950133741623
 20
147.097830881957
 30
0.0
  0
POINT
  5
1631
330
1628
100
AcDbEntity
  8
Defpoints
 62
     0
440
 16777216
100
AcDbPoint
 10
480.2192567538031
 20
142.420152686939
 30
0.0
  0
ENDBLK
  5
162A
330
1628
100
AcDbEntity
  8
0
100
AcDbBlockEnd
  0
BLOCK
  5
1636
330
1635
100
AcDbEntity
  8
0
100
AcDbBlockBegin
  2
*D13
 70
     1
 10
0.0
 20
0.0
 30
0.0
  3
*D13
  1

  0
LINE
  5
1638
330
1635
100
AcDbEntity
  8
0
 62
     0
440
 16777216
370
    -2
100
AcDbLine
 10
509.973947520682
 20
150.6042856344456
 30
0.0
 11
509.7939475206819
 21
150.6042856344456
 31
0.0
  0
LINE
  5
1639
330
1635
100
AcDbEntity
  8
0
 62
     0
440
 16777216
370
    -2
100
AcDbLine
 10
509.7939475206819
 20
150.6042856344456
 30
0.0
 11
499.3156267246948
 21
146.955655838582
 31
0.0
  0
MTEXT
  5
163A
330
1635
100
AcDbEntity
  8
0
 62
     0
440
 16777216
100
AcDbMText
 10
510.6039475206818
 20
150.6042856344456
 30
0.0
 40
0.18
 41
0.0
 46
0.0
 71
     5
 72
     1
  1
\A1;∅13.0000
 73
     1
 44
1.0
  0
SOLID
  5
163B
330
1635
100
AcDbEntity
  8
0
 62
     0
440
 16777216
100
AcDbTrace
 10
499.3057614669663
 20
146.9839873879565
 30
0.0
 11
499.325491982423
 21
146.9273242892076
 31
0.0
 12
499.1456374284481
 22
146.8964642922132
 32
0.0
 13
499.1456374284481
 23
146.8964642922132
 33
0.0
  0
LINE
  5
163C
330
1635
100
AcDbEntity
  8
0
 62
     0
440
 16777216
370
    -2
100
AcDbLine
 10
492.9171350639826
 20
144.7589917844479
 30
0.0
 11
493.0971350639826
 21
144.758991784448
 31
0.0
  0
LINE
  5
163D
330
1635
100
AcDbEntity
  8
0
 62
     0
440
 16777216
370
    -2
100
AcDbLine
 10
493.0071350639827
 20
144.6689917844479
 30
0.0
 11
493.0071350639827
 21
144.8489917844479
 31
0.0
  0
POINT
  5
163E
330
1635
100
AcDbEntity
  8
Defpoints
 62
     0
440
 16777216
100
AcDbPoint
 10
499.1456374284481
 20
146.8964642922132
 30
0.0
  0
POINT
  5
163F
330
1635
100
AcDbEntity
  8
Defpoints
 62
     0
440
 16777216
100
AcDbPoint
 10
486.8686326995172
 20
142.6215192766826
 30
0.0
  0
ENDBLK
  5
1637
330
1635
100
AcDbEntity
  8
0
100
AcDbBlockEnd
  0
BLOCK
  5
1A4C
330
1A4B
100
AcDbEntity
  8
0
100
AcDbBlockBegin
  2
*D14
 70
     1
 10
0.0
 20
0.0
 30
0.0
  3
*D14
  1

  0
LINE
  5
1A4E
330
1A4B
100
AcDbEntity
  8
0
 62
     0
440
 16777216
370
    -2
100
AcDbLine
 10
382.6564697564935
 20
23.47782153231765
 30
0.0
 11
382.6564697564935
 21
41.49405281237949
 31
0.0
  0
LINE
  5
1A4F
330
1A4B
100
AcDbEntity
  8
0
 62
     0
440
 16777216
370
    -2
100
AcDbLine
 10
406.6564697564935
 20
23.47782153231765
 30
0.0
 11
406.6564697564935
 21
41.49405281237949
 31
0.0
  0
LINE
  5
1A50
330
1A4B
100
AcDbEntity
  8
0
 62
     0
440
 16777216
370
    -2
100
AcDbLine
 10
382.8364697564936
 20
41.31405281237947
 30
0.0
 11
394.0864697564935
 21
41.31405281237947
 31
0.0
  0
LINE
  5
1A51
330
1A4B
100
AcDbEntity
  8
0
 62
     0
440
 16777216
370
    -2
100
AcDbLine
 10
406.4764697564934
 20
41.31405281237947
 30
0.0
 11
395.2264697564936
 21
41.31405281237947
 31
0.0
  0
SOLID
  5
1A52
330
1A4B
100
AcDbEntity
  8
0
 62
     0
440
 16777216
100
AcDbTrace
 10
382.8364697564936
 20
41.34405281237945
 30
0.0
 11
382.8364697564936
 21
41.28405281237947
 31
0.0
 12
382.6564697564935
 22
41.31405281237947
 32
0.0
 13
382.6564697564935
 23
41.31405281237947
 33
0.0
  0
SOLID
  5
1A53
330
1A4B
100
AcDbEntity
  8
0
 62
     0
440
 16777216
100
AcDbTrace
 10
406.4764697564934
 20
41.34405281237945
 30
0.0
 11
406.4764697564934
 21
41.28405281237947
 31
0.0
 12
406.6564697564935
 22
41.31405281237947
 32
0.0
 13
406.6564697564935
 23
41.31405281237947
 33
0.0
  0
MTEXT
  5
1A54
330
1A4B
100
AcDbEntity
  8
0
 62
     0
440
 16777216
100
AcDbMText
 10
394.6564697564935
 20
41.31405281237947
 30
0.0
 40
0.18
 41
0.0
 46
0.0
 71
     5
 72
     1
  1
\A1;24.0000
 73
     1
 44
1.0
  0
POINT
  5
1A55
330
1A4B
100
AcDbEntity
  8
Defpoints
 62
     0
440
 16777216
100
AcDbPoint
 10
382.6564697564935
 20
23.41532153231765
 30
0.0
  0
POINT
  5
1A56
330
1A4B
100
AcDbEntity
  8
Defpoints
 62
     0
440
 16777216
100
AcDbPoint
 10
406.6564697564935
 20
23.41532153231765
 30
0.0
  0
POINT
  5
1A57
330
1A4B
100
AcDbEntity
  8
Defpoints
 62
     0
440
 16777216
100
AcDbPoint
 10
406.6564697564935
 20
41.31405281237947
 30
0.0
  0
ENDBLK
  5
1A4D
330
1A4B
100
AcDbEntity
  8
0
100
AcDbBlockEnd
  0
BLOCK
  5
1A5A
330
1A59
100
AcDbEntity
  8
0
100
AcDbBlockBegin
  2
*D15
 70
     1
 10
0.0
 20
0.0
 30
0.0
  3
*D15
  1

  0
LINE
  5
1A5C
330
1A59
100
AcDbEntity
  8
0
 62
     0
440
 16777216
370
    -2
100
AcDbLine
 10
233.6423861599599
 20
422.8050019013716
 30
0.0
 11
233.6423861599599
 21
382.4443877504858
 31
0.0
  0
LINE
  5
1A5D
330
1A59
100
AcDbEntity
  8
0
 62
     0
440
 16777216
370
    -2
100
AcDbLine
 10
236.6465492159941
 20
422.8050019013716
 30
0.0
 11
236.6465492159941
 21
382.4443877504858
 31
0.0
  0
LINE
  5
1A5E
330
1A59
100
AcDbEntity
  8
0
 62
     0
440
 16777216
370
    -2
100
AcDbLine
 10
233.8223861599599
 20
382.6243877504858
 30
0.0
 11
234.634467687977
 21
382.6243877504858
 31
0.0
  0
LINE
  5
1A5F
330
1A59
100
AcDbEntity
  8
0
 62
     0
440
 16777216
370
    -2
100
AcDbLine
 10
236.4665492159941
 20
382.6243877504858
 30
0.0
 11
235.654467687977
 21
382.6243877504858
 31
0.0
  0
SOLID
  5
1A60
330
1A59
100
AcDbEntity
  8
0
 62
     0
440
 16777216
100
AcDbTrace
 10
233.8223861599599
 20
382.6543877504857
 30
0.0
 11
233.8223861599599
 21
382.5943877504859
 31
0.0
 12
233.6423861599599
 22
382.6243877504858
 32
0.0
 13
233.6423861599599
 23
382.6243877504858
 33
0.0
  0
SOLID
  5
1A61
330
1A59
100
AcDbEntity
  8
0
 62
     0
440
 16777216
100
AcDbTrace
 10
236.4665492159941
 20
382.6543877504857
 30
0.0
 11
236.4665492159941
 21
382.5943877504859
 31
0.0
 12
236.6465492159941
 22
382.6243877504858
 32
0.0
 13
236.6465492159941
 23
382.6243877504858
 33
0.0
  0
MTEXT
  5
1A62
330
1A59
100
AcDbEntity
  8
0
 62
     0
440
 16777216
100
AcDbMText
 10
235.144467687977
 20
382.6243877504858
 30
0.0
 40
0.18
 41
0.0
 46
0.0
 71
     5
 72
     1
  1
\A1;3.0042
 73
     1
 44
1.0
  0
POINT
  5
1A63
330
1A59
100
AcDbEntity
  8
Defpoints
 62
     0
440
 16777216
100
AcDbPoint
 10
233.6423861599599
 20
422.8675019013715
 30
-0.0000000000000002
  0
POINT
  5
1A64
330
1A59
100
AcDbEntity
  8
Defpoints
 62
     0
440
 16777216
100
AcDbPoint
 10
236.6465492159941
 20
422.8675019013715
 30
0.0
  0
POINT
  5
1A65
330
1A59
100
AcDbEntity
  8
Defpoints
 62
     0
440
 16777216
100
AcDbPoint
 10
236.6465492159941
 20
382.6243877504858
 30
0.0
  0
ENDBLK
  5
1A5B
330
1A59
100
AcDbEntity
  8
0
100
AcDbBlockEnd
  0
BLOCK
  5
1A69
330
1A68
100
AcDbEntity
  8
0
100
AcDbBlockBegin
  2
*D16
 70
     1
 10
0.0
 20
0.0
 30
0.0
  3
*D16
  1

  0
LINE
  5
1A6B
330
1A68
100
AcDbEntity
  8
0
 62
     0
440
 16777216
370
    -2
100
AcDbLine
 10
394.6564697564935
 20
29.91972298257031
 30
0.0
 11
394.6564697564935
 21
130.7283420898999
 31
0.0
  0
LINE
  5
1A6C
330
1A68
100
AcDbEntity
  8
0
 62
     0
440
 16777216
370
    -2
100
AcDbLine
 10
373.6564697564929
 20
29.91972298257031
 30
0.0
 11
373.6564697564929
 21
130.7283420898999
 31
0.0
  0
LINE
  5
1A6D
330
1A68
100
AcDbEntity
  8
0
 62
     0
440
 16777216
370
    -2
100
AcDbLine
 10
394.4764697564935
 20
130.5483420898999
 30
0.0
 11
384.6964697564932
 21
130.5483420898999
 31
0.0
  0
LINE
  5
1A6E
330
1A68
100
AcDbEntity
  8
0
 62
     0
440
 16777216
370
    -2
100
AcDbLine
 10
373.8364697564928
 20
130.5483420898999
 30
0.0
 11
383.6164697564931
 21
130.5483420898999
 31
0.0
  0
SOLID
  5
1A6F
330
1A68
100
AcDbEntity
  8
0
 62
     0
440
 16777216
100
AcDbTrace
 10
394.4764697564935
 20
130.5783420898999
 30
0.0
 11
394.4764697564935
 21
130.5183420898999
 31
0.0
 12
394.6564697564935
 22
130.5483420898999
 32
0.0
 13
394.6564697564935
 23
130.5483420898999
 33
0.0
  0
SOLID
  5
1A70
330
1A68
100
AcDbEntity
  8
0
 62
     0
440
 16777216
100
AcDbTrace
 10
373.8364697564928
 20
130.5783420898999
 30
0.0
 11
373.8364697564928
 21
130.5183420898999
 31
0.0
 12
373.6564697564929
 22
130.5483420898999
 32
0.0
 13
373.6564697564929
 23
130.5483420898999
 33
0.0
  0
MTEXT
  5
1A71
330
1A68
100
AcDbEntity
  8
0
 62
     0
440
 16777216
100
AcDbMText
 10
384.1564697564932
 20
130.5483420898999
 30
0.0
 40
0.18
 41
0.0
 46
0.0
 71
     5
 72
     1
  1
\A1;21.0000
 73
     1
 44
1.0
  0
POINT
  5
1A72
330
1A68
100
AcDbEntity
  8
Defpoints
 62
     0
440
 16777216
100
AcDbPoint
 10
394.6564697564935
 20
29.8572229825703
 30
0.0
  0
POINT
  5
1A73
330
1A68
100
AcDbEntity
  8
Defpoints
 62
     0
440
 16777216
100
AcDbPoint
 10
373.6564697564929
 20
29.8572229825703
 30
0.0
  0
POINT
  5
1A74
330
1A68
100
AcDbEntity
  8
Defpoints
 62
     0
440
 16777216
100
AcDbPoint
 10
373.6564697564929
 20
130.5483420898999
 30
0.0
  0
ENDBLK
  5
1A6A
330
1A68
100
AcDbEntity
  8
0
100
AcDbBlockEnd
  0
BLOCK
  5
208E
330
208D
100
AcDbEntity
  8
0
100
AcDbBlockBegin
  2
*D17
 70
     1
 10
0.0
 20
0.0
 30
0.0
  3
*D17
  1

  0
LINE
  5
2090
330
208D
100
AcDbEntity
  8
0
 62
     0
440
 16777216
370
    -2
100
AcDbLine
 10
427.2761784091929
 20
492.2367021139272
 30
0.0
 11
427.2761784091929
 21
540.862707244271
 31
0.0
  0
LINE
  5
2091
330
208D
100
AcDbEntity
  8
0
 62
     0
440
 16777216
370
    -2
100
AcDbLine
 10
757.2761784091928
 20
492.2367021139272
 30
0.0
 11
757.2761784091928
 21
540.862707244271
 31
0.0
  0
LINE
  5
2092
330
208D
100
AcDbEntity
  8
0
 62
     0
440
 16777216
370
    -2
100
AcDbLine
 10
427.4561784091931
 20
540.6827072442711
 30
0.0
 11
591.6311784091931
 21
540.6827072442711
 31
0.0
  0
LINE
  5
2093
330
208D
100
AcDbEntity
  8
0
 62
     0
440
 16777216
370
    -2
100
AcDbLine
 10
757.0961784091931
 20
540.6827072442711
 30
0.0
 11
592.9211784091931
 21
540.6827072442711
 31
0.0
  0
SOLID
  5
2094
330
208D
100
AcDbEntity
  8
0
 62
     0
440
 16777216
100
AcDbTrace
 10
427.4561784091931
 20
540.7127072442711
 30
0.0
 11
427.4561784091931
 21
540.6527072442711
 31
0.0
 12
427.2761784091929
 22
540.6827072442711
 32
0.0
 13
427.2761784091929
 23
540.6827072442711
 33
0.0
  0
SOLID
  5
2095
330
208D
100
AcDbEntity
  8
0
 62
     0
440
 16777216
100
AcDbTrace
 10
757.0961784091931
 20
540.7127072442711
 30
0.0
 11
757.0961784091931
 21
540.6527072442711
 31
0.0
 12
757.2761784091928
 22
540.6827072442711
 32
0.0
 13
757.2761784091928
 23
540.6827072442711
 33
0.0
  0
MTEXT
  5
2096
330
208D
100
AcDbEntity
  8
0
 62
     0
440
 16777216
100
AcDbMText
 10
592.2761784091931
 20
540.6827072442711
 30
0.0
 40
0.18
 41
0.0
 46
0.0
 71
     5
 72
     1
  1
\A1;330.0000
 73
     1
 44
1.0
  0
POINT
  5
2097
330
208D
100
AcDbEntity
  8
Defpoints
 62
     0
440
 16777216
100
AcDbPoint
 10
427.2761784091929
 20
492.1742021139269
 30
0.0
  0
POINT
  5
2098
330
208D
100
AcDbEntity
  8
Defpoints
 62
     0
440
 16777216
100
AcDbPoint
 10
757.2761784091928
 20
492.1742021139269
 30
0.0
  0
POINT
  5
2099
330
208D
100
AcDbEntity
  8
Defpoints
 62
     0
440
 16777216
100
AcDbPoint
 10
757.2761784091928
 20
540.6827072442711
 30
0.0
  0
ENDBLK
  5
208F
330
208D
100
AcDbEntity
  8
0
100
AcDbBlockEnd
  0
BLOCK
  5
209C
330
209B
100
AcDbEntity
  8
0
100
AcDbBlockBegin
  2
*D18
 70
     1
 10
0.0
 20
0.0
 30
0.0
  3
*D18
  1

  0
LINE
  5
209E
330
209B
100
AcDbEntity
  8
0
 62
     0
440
 16777216
370
    -2
100
AcDbLine
 10
869.3924830497373
 20
481.729657843887
 30
0.0
 11
869.3924830497373
 21
552.2167948218464
 31
0.0
  0
LINE
  5
209F
330
209B
100
AcDbEntity
  8
0
 62
     0
440
 16777216
370
    -2
100
AcDbLine
 10
1011.392483049738
 20
486.2991122589773
 30
0.0
 11
1011.392483049738
 21
552.2167948218464
 31
0.0
  0
LINE
  5
20A0
330
209B
100
AcDbEntity
  8
0
 62
     0
440
 16777216
370
    -2
100
AcDbLine
 10
869.5724830497372
 20
552.0367948218463
 30
0.0
 11
939.7624830497376
 21
552.0367948218463
 31
0.0
  0
LINE
  5
20A1
330
209B
100
AcDbEntity
  8
0
 62
     0
440
 16777216
370
    -2
100
AcDbLine
 10
1011.212483049738
 20
552.0367948218463
 30
0.0
 11
941.0224830497375
 21
552.0367948218463
 31
0.0
  0
SOLID
  5
20A2
330
209B
100
AcDbEntity
  8
0
 62
     0
440
 16777216
100
AcDbTrace
 10
869.5724830497372
 20
552.0667948218463
 30
0.0
 11
869.5724830497372
 21
552.0067948218463
 31
0.0
 12
869.3924830497373
 22
552.0367948218463
 32
0.0
 13
869.3924830497373
 23
552.0367948218463
 33
0.0
  0
SOLID
  5
20A3
330
209B
100
AcDbEntity
  8
0
 62
     0
440
 16777216
100
AcDbTrace
 10
1011.212483049738
 20
552.0667948218463
 30
0.0
 11
1011.212483049738
 21
552.0067948218463
 31
0.0
 12
1011.392483049738
 22
552.0367948218463
 32
0.0
 13
1011.392483049738
 23
552.0367948218463
 33
0.0
  0
MTEXT
  5
20A4
330
209B
100
AcDbEntity
  8
0
 62
     0
440
 16777216
100
AcDbMText
 10
940.3924830497375
 20
552.0367948218463
 30
0.0
 40
0.18
 41
0.0
 46
0.0
 71
     5
 72
     1
  1
\A1;142.0000
 73
     1
 44
1.0
  0
POINT
  5
20A5
330
209B
100
AcDbEntity
  8
Defpoints
 62
     0
440
 16777216
100
AcDbPoint
 10
869.3924830497373
 20
481.6671578438872
 30
0.0
  0
POINT
  5
20A6
330
209B
100
AcDbEntity
  8
Defpoints
 62
     0
440
 16777216
100
AcDbPoint
 10
1011.392483049738
 20
486.2366122589772
 30
0.0
  0
POINT
  5
20A7
330
209B
100
AcDbEntity
  8
Defpoints
 62
     0
440
 16777216
100
AcDbPoint
 10
1011.392483049738
 20
552.0367948218463
 30
0.0
  0
ENDBLK
  5
209D
330
209B
100
AcDbEntity
  8
0
100
AcDbBlockEnd
  0
BLOCK
  5
20BD
330
20BC
100
AcDbEntity
  8
0
100
AcDbBlockBegin
  2
*D19
 70
     1
 10
0.0
 20
0.0
 30
0.0
  3
*D19
  1

  0
LINE
  5
20BF
330
20BC
100
AcDbEntity
  8
0
 62
     0
440
 16777216
370
    -2
100
AcDbLine
 10
427.2761784091929
 20
195.250101934047
 30
0.0
 11
427.2761784091929
 21
120.8408842177353
 31
0.0
  0
LINE
  5
20C0
330
20BC
100
AcDbEntity
  8
0
 62
     0
440
 16777216
370
    -2
100
AcDbLine
 10
428.876178409193
 20
195.250101934047
 30
0.0
 11
428.876178409193
 21
120.8408842177353
 31
0.0
  0
LINE
  5
20C1
330
20BC
100
AcDbEntity
  8
0
 62
     0
440
 16777216
370
    -2
100
AcDbLine
 10
427.4561784091928
 20
121.0208842177353
 30
0.0
 11
427.6111784091931
 21
121.0208842177353
 31
0.0
  0
LINE
  5
20C2
330
20BC
100
AcDbEntity
  8
0
 62
     0
440
 16777216
370
    -2
100
AcDbLine
 10
428.6961784091931
 20
121.0208842177353
 30
0.0
 11
428.5411784091929
 21
121.0208842177353
 31
0.0
  0
SOLID
  5
20C3
330
20BC
100
AcDbEntity
  8
0
 62
     0
440
 16777216
100
AcDbTrace
 10
427.4561784091928
 20
121.0508842177353
 30
0.0
 11
427.4561784091928
 21
120.9908842177353
 31
0.0
 12
427.2761784091929
 22
121.0208842177353
 32
0.0
 13
427.2761784091929
 23
121.0208842177353
 33
0.0
  0
SOLID
  5
20C4
330
20BC
100
AcDbEntity
  8
0
 62
     0
440
 16777216
100
AcDbTrace
 10
428.6961784091931
 20
121.0508842177353
 30
0.0
 11
428.6961784091931
 21
120.9908842177353
 31
0.0
 12
428.876178409193
 22
121.0208842177353
 32
0.0
 13
428.876178409193
 23
121.0208842177353
 33
0.0
  0
MTEXT
  5
20C5
330
20BC
100
AcDbEntity
  8
0
 62
     0
440
 16777216
100
AcDbMText
 10
428.0761784091929
 20
121.0208842177353
 30
0.0
 40
0.18
 41
0.0
 46
0.0
 71
     5
 72
     1
  1
\A1;1.6000
 73
     1
 44
1.0
  0
POINT
  5
20C6
330
20BC
100
AcDbEntity
  8
Defpoints
 62
     0
440
 16777216
100
AcDbPoint
 10
427.2761784091929
 20
195.312601934047
 30
0.0
  0
POINT
  5
20C7
330
20BC
100
AcDbEntity
  8
Defpoints
 62
     0
440
 16777216
100
AcDbPoint
 10
428.876178409193
 20
195.312601934047
 30
0.0
  0
POINT
  5
20C8
330
20BC
100
AcDbEntity
  8
Defpoints
 62
     0
440
 16777216
100
AcDbPoint
 10
428.876178409193
 20
121.0208842177353
 30
0.0
  0
ENDBLK
  5
20BE
330
20BC
100
AcDbEntity
  8
0
100
AcDbBlockEnd
  0
BLOCK
  5
20F4
330
20F3
100
AcDbEntity
  8
0
100
AcDbBlockBegin
  2
*D20
 70
     1
 10
0.0
 20
0.0
 30
0.0
  3
*D20
  1

  0
LINE
  5
20F6
330
20F3
100
AcDbEntity
  8
0
 62
     0
440
 16777216
370
    -2
100
AcDbLine
 10
882.3065856138397
 20
166.0954862175195
 30
0.0
 11
882.3065856138397
 21
109.2660838629647
 31
0.0
  0
LINE
  5
20F7
330
20F3
100
AcDbEntity
  8
0
 62
     0
440
 16777216
370
    -2
100
AcDbLine
 10
869.3924830497374
 20
166.0954862175195
 30
0.0
 11
869.3924830497374
 21
109.2660838629647
 31
0.0
  0
LINE
  5
20F8
330
20F3
100
AcDbEntity
  8
0
 62
     0
440
 16777216
370
    -2
100
AcDbLine
 10
882.1265856138399
 20
109.4460838629647
 30
0.0
 11
876.3895343317884
 21
109.4460838629647
 31
0.0
  0
LINE
  5
20F9
330
20F3
100
AcDbEntity
  8
0
 62
     0
440
 16777216
370
    -2
100
AcDbLine
 10
869.5724830497374
 20
109.4460838629647
 30
0.0
 11
875.3095343317886
 21
109.4460838629647
 31
0.0
  0
SOLID
  5
20FA
330
20F3
100
AcDbEntity
  8
0
 62
     0
440
 16777216
100
AcDbTrace
 10
882.1265856138399
 20
109.4760838629647
 30
0.0
 11
882.1265856138399
 21
109.4160838629647
 31
0.0
 12
882.3065856138397
 22
109.4460838629647
 32
0.0
 13
882.3065856138397
 23
109.4460838629647
 33
0.0
  0
SOLID
  5
20FB
330
20F3
100
AcDbEntity
  8
0
 62
     0
440
 16777216
100
AcDbTrace
 10
869.5724830497374
 20
109.4760838629647
 30
0.0
 11
869.5724830497374
 21
109.4160838629647
 31
0.0
 12
869.3924830497374
 22
109.4460838629647
 32
0.0
 13
869.3924830497374
 23
109.4460838629647
 33
0.0
  0
MTEXT
  5
20FC
330
20F3
100
AcDbEntity
  8
0
 62
     0
440
 16777216
100
AcDbMText
 10
875.8495343317886
 20
109.4460838629647
 30
0.0
 40
0.18
 41
0.0
 46
0.0
 71
     5
 72
     1
  1
\A1;12.9141
 73
     1
 44
1.0
  0
POINT
  5
20FD
330
20F3
100
AcDbEntity
  8
Defpoints
 62
     0
440
 16777216
100
AcDbPoint
 10
882.3065856138397
 20
166.1579862175195
 30
0.0
  0
POINT
  5
20FE
330
20F3
100
AcDbEntity
  8
Defpoints
 62
     0
440
 16777216
100
AcDbPoint
 10
869.3924830497374
 20
166.1579862175195
 30
0.0
  0
POINT
  5
20FF
330
20F3
100
AcDbEntity
  8
Defpoints
 62
     0
440
 16777216
100
AcDbPoint
 10
869.3924830497374
 20
109.4460838629647
 30
0.0
  0
ENDBLK
  5
20F5
330
20F3
100
AcDbEntity
  8
0
100
AcDbBlockEnd
  0
BLOCK
  5
212C
330
212B
100
AcDbEntity
  8
0
100
AcDbBlockBegin
  2
*D21
 70
     1
 10
0.0
 20
0.0
 30
0.0
  3
*D21
  1

  0
LINE
  5
212E
330
212B
100
AcDbEntity
  8
0
 62
     0
440
 16777216
370
    -2
100
AcDbLine
 10
1167.697856717411
 20
469.8615118585451
 30
0.0
 11
1167.697856717411
 21
487.4150737431452
 31
0.0
  0
LINE
  5
212F
330
212B
100
AcDbEntity
  8
0
 62
     0
440
 16777216
370
    -2
100
AcDbLine
 10
1194.697856717411
 20
469.8615118585451
 30
0.0
 11
1194.697856717411
 21
487.4150737431452
 31
0.0
  0
LINE
  5
2130
330
212B
100
AcDbEntity
  8
0
 62
     0
440
 16777216
370
    -2
100
AcDbLine
 10
1167.877856717411
 20
487.2350737431452
 30
0.0
 11
1180.627856717411
 21
487.2350737431452
 31
0.0
  0
LINE
  5
2131
330
212B
100
AcDbEntity
  8
0
 62
     0
440
 16777216
370
    -2
100
AcDbLine
 10
1194.517856717411
 20
487.2350737431452
 30
0.0
 11
1181.767856717411
 21
487.2350737431452
 31
0.0
  0
SOLID
  5
2132
330
212B
100
AcDbEntity
  8
0
 62
     0
440
 16777216
100
AcDbTrace
 10
1167.877856717411
 20
487.2650737431452
 30
0.0
 11
1167.877856717411
 21
487.2050737431451
 31
0.0
 12
1167.697856717411
 22
487.2350737431452
 32
0.0
 13
1167.697856717411
 23
487.2350737431452
 33
0.0
  0
SOLID
  5
2133
330
212B
100
AcDbEntity
  8
0
 62
     0
440
 16777216
100
AcDbTrace
 10
1194.517856717411
 20
487.2650737431452
 30
0.0
 11
1194.517856717411
 21
487.2050737431451
 31
0.0
 12
1194.697856717411
 22
487.2350737431452
 32
0.0
 13
1194.697856717411
 23
487.2350737431452
 33
0.0
  0
MTEXT
  5
2134
330
212B
100
AcDbEntity
  8
0
 62
     0
440
 16777216
100
AcDbMText
 10
1181.197856717411
 20
487.2350737431452
 30
0.0
 40
0.18
 41
0.0
 46
0.0
 71
     5
 72
     1
  1
\A1;27.0000
 73
     1
 44
1.0
  0
POINT
  5
2135
330
212B
100
AcDbEntity
  8
Defpoints
 62
     0
440
 16777216
100
AcDbPoint
 10
1167.697856717411
 20
469.7990118585451
 30
0.0
  0
POINT
  5
2136
330
212B
100
AcDbEntity
  8
Defpoints
 62
     0
440
 16777216
100
AcDbPoint
 10
1194.697856717411
 20
469.7990118585451
 30
0.0
  0
POINT
  5
2137
330
212B
100
AcDbEntity
  8
Defpoints
 62
     0
440
 16777216
100
AcDbPoint
 10
1194.697856717411
 20
487.2350737431452
 30
0.0
  0
ENDBLK
  5
212D
330
212B
100
AcDbEntity
  8
0
100
AcDbBlockEnd
  0
BLOCK
  5
213A
330
2139
100
AcDbEntity
  8
0
100
AcDbBlockBegin
  2
*D22
 70
     1
 10
0.0
 20
0.0
 30
0.0
  3
*D22
  1

  0
LINE
  5
213C
330
2139
100
AcDbEntity
  8
0
 62
     0
440
 16777216
370
    -2
100
AcDbLine
 10
866.388319993703
 20
447.7292030520032
 30
0.0
 11
866.388319993703
 21
415.0700194225321
 31
0.0
  0
LINE
  5
213D
330
2139
100
AcDbEntity
  8
0
 62
     0
440
 16777216
370
    -2
100
AcDbLine
 10
869.3924830497374
 20
447.7292030520032
 30
0.0
 11
869.3924830497374
 21
415.0700194225321
 31
0.0
  0
LINE
  5
213E
330
2139
100
AcDbEntity
  8
0
 62
     0
440
 16777216
370
    -2
100
AcDbLine
 10
866.568319993703
 20
415.2500194225321
 30
0.0
 11
867.3804015217202
 21
415.2500194225321
 31
0.0
  0
LINE
  5
213F
330
2139
100
AcDbEntity
  8
0
 62
     0
440
 16777216
370
    -2
100
AcDbLine
 10
869.2124830497375
 20
415.2500194225321
 30
0.0
 11
868.4004015217201
 21
415.2500194225321
 31
0.0
  0
SOLID
  5
2140
330
2139
100
AcDbEntity
  8
0
 62
     0
440
 16777216
100
AcDbTrace
 10
866.568319993703
 20
415.2800194225322
 30
0.0
 11
866.568319993703
 21
415.220019422532
 31
0.0
 12
866.388319993703
 22
415.2500194225321
 32
0.0
 13
866.388319993703
 23
415.2500194225321
 33
0.0
  0
SOLID
  5
2141
330
2139
100
AcDbEntity
  8
0
 62
     0
440
 16777216
100
AcDbTrace
 10
869.2124830497375
 20
415.2800194225322
 30
0.0
 11
869.2124830497375
 21
415.220019422532
 31
0.0
 12
869.3924830497374
 22
415.2500194225321
 32
0.0
 13
869.3924830497374
 23
415.2500194225321
 33
0.0
  0
MTEXT
  5
2142
330
2139
100
AcDbEntity
  8
0
 62
     0
440
 16777216
100
AcDbMText
 10
867.8904015217201
 20
415.2500194225321
 30
0.0
 40
0.18
 41
0.0
 46
0.0
 71
     5
 72
     1
  1
\A1;3.0042
 73
     1
 44
1.0
  0
POINT
  5
2143
330
2139
100
AcDbEntity
  8
Defpoints
 62
     0
440
 16777216
100
AcDbPoint
 10
866.388319993703
 20
447.7917030520033
 30
0.0
  0
POINT
  5
2144
330
2139
100
AcDbEntity
  8
Defpoints
 62
     0
440
 16777216
100
AcDbPoint
 10
869.3924830497374
 20
447.7917030520033
 30
0.0
  0
POINT
  5
2145
330
2139
100
AcDbEntity
  8
Defpoints
 62
     0
440
 16777216
100
AcDbPoint
 10
869.3924830497374
 20
415.2500194225321
 30
0.0
  0
ENDBLK
  5
213B
330
2139
100
AcDbEntity
  8
0
100
AcDbBlockEnd
  0
BLOCK
  5
2149
330
2148
100
AcDbEntity
  8
0
100
AcDbBlockBegin
  2
*D23
 70
     1
 10
0.0
 20
0.0
 30
0.0
  3
*D23
  1

  0
LINE
  5
214B
330
2148
100
AcDbEntity
  8
0
 62
     0
440
 16777216
370
    -2
100
AcDbLine
 10
1296.197856717411
 20
502.8615118585453
 30
0.0
 11
1296.197856717411
 21
544.8195848787332
 31
0.0
  0
LINE
  5
214C
330
2148
100
AcDbEntity
  8
0
 62
     0
440
 16777216
370
    -2
100
AcDbLine
 10
1181.197856717411
 20
467.4372477898332
 30
0.0
 11
1181.197856717411
 21
544.8195848787332
 31
0.0
  0
LINE
  5
214D
330
2148
100
AcDbEntity
  8
0
 62
     0
440
 16777216
370
    -2
100
AcDbLine
 10
1296.017856717411
 20
544.6395848787333
 30
0.0
 11
1239.297856717411
 21
544.6395848787333
 31
0.0
  0
LINE
  5
214E
330
2148
100
AcDbEntity
  8
0
 62
     0
440
 16777216
370
    -2
100
AcDbLine
 10
1181.377856717411
 20
544.6395848787333
 30
0.0
 11
1238.097856717411
 21
544.6395848787333
 31
0.0
  0
SOLID
  5
214F
330
2148
100
AcDbEntity
  8
0
 62
     0
440
 16777216
100
AcDbTrace
 10
1296.017856717411
 20
544.6695848787332
 30
0.0
 11
1296.017856717411
 21
544.6095848787332
 31
0.0
 12
1296.197856717411
 22
544.6395848787333
 32
0.0
 13
1296.197856717411
 23
544.6395848787333
 33
0.0
  0
SOLID
  5
2150
330
2148
100
AcDbEntity
  8
0
 62
     0
440
 16777216
100
AcDbTrace
 10
1181.377856717411
 20
544.6695848787332
 30
0.0
 11
1181.377856717411
 21
544.6095848787332
 31
0.0
 12
1181.197856717411
 22
544.6395848787333
 32
0.0
 13
1181.197856717411
 23
544.6395848787333
 33
0.0
  0
MTEXT
  5
2151
330
2148
100
AcDbEntity
  8
0
 62
     0
440
 16777216
100
AcDbMText
 10
1238.697856717411
 20
544.6395848787333
 30
0.0
 40
0.18
 41
0.0
 46
0.0
 71
     5
 72
     1
  1
\A1;115.0000
 73
     1
 44
1.0
  0
POINT
  5
2152
330
2148
100
AcDbEntity
  8
Defpoints
 62
     0
440
 16777216
100
AcDbPoint
 10
1296.197856717411
 20
502.7990118585453
 30
0.0
  0
POINT
  5
2153
330
2148
100
AcDbEntity
  8
Defpoints
 62
     0
440
 16777216
100
AcDbPoint
 10
1181.197856717411
 20
467.3747477898332
 30
0.0
  0
POINT
  5
2154
330
2148
100
AcDbEntity
  8
Defpoints
 62
     0
440
 16777216
100
AcDbPoint
 10
1181.197856717411
 20
544.6395848787333
 30
0.0
  0
ENDBLK
  5
214A
330
2148
100
AcDbEntity
  8
0
100
AcDbBlockEnd
  0
BLOCK
  5
27E9
330
27E8
100
AcDbEntity
  8
0
100
AcDbBlockBegin
  2
*D24
 70
     1
 10
0.0
 20
0.0
 30
0.0
  3
*D24
  1

  0
LINE
  5
27EB
330
27E8
100
AcDbEntity
  8
0
 62
     0
440
 16777216
370
    -2
100
AcDbLine
 10
1148.312193357678
 20
423.4947680885687
 30
0.0
 11
1148.312193357678
 21
394.0395660055713
 31
0.0
  0
LINE
  5
27EC
330
27E8
100
AcDbEntity
  8
0
 62
     0
440
 16777216
370
    -2
100
AcDbLine
 10
1355.312193357679
 20
421.9947680885686
 30
0.0
 11
1355.312193357679
 21
394.0395660055713
 31
0.0
  0
LINE
  5
27ED
330
27E8
100
AcDbEntity
  8
0
 62
     0
440
 16777216
370
    -2
100
AcDbLine
 10
1148.492193357678
 20
394.2195660055713
 30
0.0
 11
1251.167193357678
 21
394.2195660055713
 31
0.0
  0
LINE
  5
27EE
330
27E8
100
AcDbEntity
  8
0
 62
     0
440
 16777216
370
    -2
100
AcDbLine
 10
1355.132193357679
 20
394.2195660055713
 30
0.0
 11
1252.457193357678
 21
394.2195660055713
 31
0.0
  0
SOLID
  5
27EF
330
27E8
100
AcDbEntity
  8
0
 62
     0
440
 16777216
100
AcDbTrace
 10
1148.492193357678
 20
394.2495660055713
 30
0.0
 11
1148.492193357678
 21
394.1895660055714
 31
0.0
 12
1148.312193357678
 22
394.2195660055713
 32
0.0
 13
1148.312193357678
 23
394.2195660055713
 33
0.0
  0
SOLID
  5
27F0
330
27E8
100
AcDbEntity
  8
0
 62
     0
440
 16777216
100
AcDbTrace
 10
1355.132193357679
 20
394.2495660055713
 30
0.0
 11
1355.132193357679
 21
394.1895660055714
 31
0.0
 12
1355.312193357679
 22
394.2195660055713
 32
0.0
 13
1355.312193357679
 23
394.2195660055713
 33
0.0
  0
MTEXT
  5
27F1
330
27E8
100
AcDbEntity
  8
0
 62
     0
440
 16777216
100
AcDbMText
 10
1251.812193357678
 20
394.2195660055713
 30
0.0
 40
0.18
 41
0.0
 46
0.0
 71
     5
 72
     1
  1
\A1;207.0000
 73
     1
 44
1.0
  0
POINT
  5
27F2
330
27E8
100
AcDbEntity
  8
Defpoints
 62
     0
440
 16777216
100
AcDbPoint
 10
1148.312193357678
 20
423.5572680885686
 30
0.0
  0
POINT
  5
27F3
330
27E8
100
AcDbEntity
  8
Defpoints
 62
     0
440
 16777216
100
AcDbPoint
 10
1355.312193357679
 20
422.0572680885688
 30
0.0
  0
POINT
  5
27F4
330
27E8
100
AcDbEntity
  8
Defpoints
 62
     0
440
 16777216
100
AcDbPoint
 10
1355.312193357679
 20
394.2195660055713
 30
0.0
  0
ENDBLK
  5
27EA
330
27E8
100
AcDbEntity
  8
0
100
AcDbBlockEnd
  0
BLOCK
  5
27F8
330
27F7
100
AcDbEntity
  8
0
100
AcDbBlockBegin
  2
*D25
 70
     1
 10
0.0
 20
0.0
 30
0.0
  3
*D25
  1

  0
LINE
  5
27FA
330
27F7
100
AcDbEntity
  8
0
 62
     0
440
 16777216
370
    -2
100
AcDbLine
 10
1052.388932243386
 20
269.0379355713985
 30
0.0
 11
1052.388932243386
 21
196.2205942543472
 31
0.0
  0
LINE
  5
27FB
330
27F7
100
AcDbEntity
  8
0
 62
     0
440
 16777216
370
    -2
100
AcDbLine
 10
1053.988932243386
 20
269.0379355713985
 30
0.0
 11
1053.988932243386
 21
196.2205942543472
 31
0.0
  0
LINE
  5
27FC
330
27F7
100
AcDbEntity
  8
0
 62
     0
440
 16777216
370
    -2
100
AcDbLine
 10
1052.568932243386
 20
196.4005942543472
 30
0.0
 11
1052.723932243386
 21
196.4005942543472
 31
0.0
  0
LINE
  5
27FD
330
27F7
100
AcDbEntity
  8
0
 62
     0
440
 16777216
370
    -2
100
AcDbLine
 10
1053.808932243386
 20
196.4005942543472
 30
0.0
 11
1053.653932243386
 21
196.4005942543472
 31
0.0
  0
SOLID
  5
27FE
330
27F7
100
AcDbEntity
  8
0
 62
     0
440
 16777216
100
AcDbTrace
 10
1052.568932243386
 20
196.4305942543472
 30
0.0
 11
1052.568932243386
 21
196.3705942543472
 31
0.0
 12
1052.388932243386
 22
196.4005942543472
 32
0.0
 13
1052.388932243386
 23
196.4005942543472
 33
0.0
  0
SOLID
  5
27FF
330
27F7
100
AcDbEntity
  8
0
 62
     0
440
 16777216
100
AcDbTrace
 10
1053.808932243386
 20
196.4305942543472
 30
0.0
 11
1053.808932243386
 21
196.3705942543472
 31
0.0
 12
1053.988932243386
 22
196.4005942543472
 32
0.0
 13
1053.988932243386
 23
196.4005942543472
 33
0.0
  0
MTEXT
  5
2800
330
27F7
100
AcDbEntity
  8
0
 62
     0
440
 16777216
100
AcDbMText
 10
1053.188932243386
 20
196.4005942543472
 30
0.0
 40
0.18
 41
0.0
 46
0.0
 71
     5
 72
     1
  1
\A1;1.6000
 73
     1
 44
1.0
  0
POINT
  5
2801
330
27F7
100
AcDbEntity
  8
Defpoints
 62
     0
440
 16777216
100
AcDbPoint
 10
1052.388932243386
 20
269.1004355713985
 30
0.0
  0
POINT
  5
2802
330
27F7
100
AcDbEntity
  8
Defpoints
 62
     0
440
 16777216
100
AcDbPoint
 10
1053.988932243386
 20
269.1004355713985
 30
0.0
  0
POINT
  5
2803
330
27F7
100
AcDbEntity
  8
Defpoints
 62
     0
440
 16777216
100
AcDbPoint
 10
1053.988932243386
 20
196.4005942543472
 30
0.0
  0
ENDBLK
  5
27F9
330
27F7
100
AcDbEntity
  8
0
100
AcDbBlockEnd
  0
BLOCK
  5
2807
330
2806
100
AcDbEntity
  8
0
100
AcDbBlockBegin
  2
*D26
 70
     1
 10
0.0
 20
0.0
 30
0.0
  3
*D26
  1

  0
LINE
  5
2809
330
2806
100
AcDbEntity
  8
0
 62
     0
440
 16777216
370
    -2
100
AcDbLine
 10
1528.414642119927
 20
538.4947680885687
 30
0.0
 11
1528.414642119927
 21
480.6588638800606
 31
0.0
  0
LINE
  5
280A
330
2806
100
AcDbEntity
  8
0
 62
     0
440
 16777216
370
    -2
100
AcDbLine
 10
1486.614642119926
 20
538.4947680885687
 30
0.0
 11
1486.614642119926
 21
480.6588638800606
 31
0.0
  0
LINE
  5
280B
330
2806
100
AcDbEntity
  8
0
 62
     0
440
 16777216
370
    -2
100
AcDbLine
 10
1528.234642119927
 20
480.8388638800606
 30
0.0
 11
1508.069642119927
 21
480.8388638800606
 31
0.0
  0
LINE
  5
280C
330
2806
100
AcDbEntity
  8
0
 62
     0
440
 16777216
370
    -2
100
AcDbLine
 10
1486.794642119926
 20
480.8388638800606
 30
0.0
 11
1506.959642119926
 21
480.8388638800606
 31
0.0
  0
SOLID
  5
280D
330
2806
100
AcDbEntity
  8
0
 62
     0
440
 16777216
100
AcDbTrace
 10
1528.234642119927
 20
480.8688638800606
 30
0.0
 11
1528.234642119927
 21
480.8088638800606
 31
0.0
 12
1528.414642119927
 22
480.8388638800606
 32
0.0
 13
1528.414642119927
 23
480.8388638800606
 33
0.0
  0
SOLID
  5
280E
330
2806
100
AcDbEntity
  8
0
 62
     0
440
 16777216
100
AcDbTrace
 10
1486.794642119926
 20
480.8688638800606
 30
0.0
 11
1486.794642119926
 21
480.8088638800606
 31
0.0
 12
1486.614642119926
 22
480.8388638800606
 32
0.0
 13
1486.614642119926
 23
480.8388638800606
 33
0.0
  0
MTEXT
  5
280F
330
2806
100
AcDbEntity
  8
0
 62
     0
440
 16777216
100
AcDbMText
 10
1507.514642119927
 20
480.8388638800606
 30
0.0
 40
0.18
 41
0.0
 46
0.0
 71
     5
 72
     1
  1
\A1;41.8000
 73
     1
 44
1.0
  0
POINT
  5
2810
330
2806
100
AcDbEntity
  8
Defpoints
 62
     0
440
 16777216
100
AcDbPoint
 10
1528.414642119927
 20
538.5572680885688
 30
0.0
  0
POINT
  5
2811
330
2806
100
AcDbEntity
  8
Defpoints
 62
     0
440
 16777216
100
AcDbPoint
 10
1486.614642119926
 20
538.5572680885688
 30
0.0
  0
POINT
  5
2812
330
2806
100
AcDbEntity
  8
Defpoints
 62
     0
440
 16777216
100
AcDbPoint
 10
1486.614642119926
 20
480.8388638800606
 30
0.0
  0
ENDBLK
  5
2808
330
2806
100
AcDbEntity
  8
0
100
AcDbBlockEnd
  0
BLOCK
  5
2818
330
2817
100
AcDbEntity
  8
0
100
AcDbBlockBegin
  2
*D27
 70
     1
 10
0.0
 20
0.0
 30
0.0
  3
*D27
  1

  0
LINE
  5
281A
330
2817
100
AcDbEntity
  8
0
 62
     0
440
 16777216
370
    -2
100
AcDbLine
 10
770.3889322433861
 20
393.1342113351129
 30
0.0
 11
770.3889322433861
 21
349.7458961147152
 31
0.0
  0
LINE
  5
281B
330
2817
100
AcDbEntity
  8
0
 62
     0
440
 16777216
370
    -2
100
AcDbLine
 10
1053.988932243386
 20
393.1342113351129
 30
0.0
 11
1053.988932243386
 21
349.7458961147152
 31
0.0
  0
LINE
  5
281C
330
2817
100
AcDbEntity
  8
0
 62
     0
440
 16777216
370
    -2
100
AcDbLine
 10
770.5689322433859
 20
349.9258961147152
 30
0.0
 11
911.513932243386
 21
349.9258961147152
 31
0.0
  0
LINE
  5
281D
330
2817
100
AcDbEntity
  8
0
 62
     0
440
 16777216
370
    -2
100
AcDbLine
 10
1053.808932243386
 20
349.9258961147152
 30
0.0
 11
912.8639322433857
 21
349.9258961147152
 31
0.0
  0
SOLID
  5
281E
330
2817
100
AcDbEntity
  8
0
 62
     0
440
 16777216
100
AcDbTrace
 10
770.5689322433859
 20
349.9558961147152
 30
0.0
 11
770.5689322433859
 21
349.8958961147152
 31
0.0
 12
770.3889322433861
 22
349.9258961147152
 32
0.0
 13
770.3889322433861
 23
349.9258961147152
 33
0.0
  0
SOLID
  5
281F
330
2817
100
AcDbEntity
  8
0
 62
     0
440
 16777216
100
AcDbTrace
 10
1053.808932243386
 20
349.9558961147152
 30
0.0
 11
1053.808932243386
 21
349.8958961147152
 31
0.0
 12
1053.988932243386
 22
349.9258961147152
 32
0.0
 13
1053.988932243386
 23
349.9258961147152
 33
0.0
  0
MTEXT
  5
2820
330
2817
100
AcDbEntity
  8
0
 62
     0
440
 16777216
100
AcDbMText
 10
912.1889322433858
 20
349.9258961147152
 30
0.0
 40
0.18
 41
0.0
 46
0.0
 71
     5
 72
     1
  1
\A1;283.6000
 73
     1
 44
1.0
  0
POINT
  5
2821
330
2817
100
AcDbEntity
  8
Defpoints
 62
     0
440
 16777216
100
AcDbPoint
 10
770.3889322433861
 20
393.1967113351129
 30
0.0
  0
POINT
  5
2822
330
2817
100
AcDbEntity
  8
Defpoints
 62
     0
440
 16777216
100
AcDbPoint
 10
1053.988932243386
 20
393.1967113351129
 30
0.0
  0
POINT
  5
2823
330
2817
100
AcDbEntity
  8
Defpoints
 62
     0
440
 16777216
100
AcDbPoint
 10
1053.988932243386
 20
349.9258961147152
 30
0.0
  0
ENDBLK
  5
2819
330
2817
100
AcDbEntity
  8
0
100
AcDbBlockEnd
  0
BLOCK
  5
2826
330
2825
100
AcDbEntity
  8
0
100
AcDbBlockBegin
  2
*D28
 70
     1
 10
0.0
 20
0.0
 30
0.0
  3
*D28
  1

  0
LINE
  5
2828
330
2825
100
AcDbEntity
  8
0
 62
     0
440
 16777216
370
    -2
100
AcDbLine
 10
1148.312193357678
 20
607.3493132507119
 30
0.0
 11
1148.312193357678
 21
654.6500534787806
 31
0.0
  0
LINE
  5
2829
330
2825
100
AcDbEntity
  8
0
 62
     0
440
 16777216
370
    -2
100
AcDbLine
 10
1355.312193357679
 20
607.3493132507119
 30
0.0
 11
1355.312193357679
 21
654.6500534787806
 31
0.0
  0
LINE
  5
282A
330
2825
100
AcDbEntity
  8
0
 62
     0
440
 16777216
370
    -2
100
AcDbLine
 10
1148.492193357678
 20
654.4700534787807
 30
0.0
 11
1251.167193357678
 21
654.4700534787807
 31
0.0
  0
LINE
  5
282B
330
2825
100
AcDbEntity
  8
0
 62
     0
440
 16777216
370
    -2
100
AcDbLine
 10
1355.132193357679
 20
654.4700534787807
 30
0.0
 11
1252.457193357678
 21
654.4700534787807
 31
0.0
  0
SOLID
  5
282C
330
2825
100
AcDbEntity
  8
0
 62
     0
440
 16777216
100
AcDbTrace
 10
1148.492193357678
 20
654.5000534787807
 30
0.0
 11
1148.492193357678
 21
654.4400534787808
 31
0.0
 12
1148.312193357678
 22
654.4700534787807
 32
0.0
 13
1148.312193357678
 23
654.4700534787807
 33
0.0
  0
SOLID
  5
282D
330
2825
100
AcDbEntity
  8
0
 62
     0
440
 16777216
100
AcDbTrace
 10
1355.132193357679
 20
654.5000534787807
 30
0.0
 11
1355.132193357679
 21
654.4400534787808
 31
0.0
 12
1355.312193357679
 22
654.4700534787807
 32
0.0
 13
1355.312193357679
 23
654.4700534787807
 33
0.0
  0
MTEXT
  5
282E
330
2825
100
AcDbEntity
  8
0
 62
     0
440
 16777216
100
AcDbMText
 10
1251.812193357678
 20
654.4700534787807
 30
0.0
 40
0.18
 41
0.0
 46
0.0
 71
     5
 72
     1
  1
\A1;207.0000
 73
     1
 44
1.0
  0
POINT
  5
282F
330
2825
100
AcDbEntity
  8
Defpoints
 62
     0
440
 16777216
100
AcDbPoint
 10
1148.312193357678
 20
607.2868132507119
 30
0.0
  0
POINT
  5
2830
330
2825
100
AcDbEntity
  8
Defpoints
 62
     0
440
 16777216
100
AcDbPoint
 10
1355.312193357679
 20
607.2868132507119
 30
0.0
  0
POINT
  5
2831
330
2825
100
AcDbEntity
  8
Defpoints
 62
     0
440
 16777216
100
AcDbPoint
 10
1355.312193357679
 20
654.4700534787807
 30
0.0
  0
ENDBLK
  5
2827
330
2825
100
AcDbEntity
  8
0
100
AcDbBlockEnd
  0
BLOCK
  5
2876
330
2875
100
AcDbEntity
  8
0
100
AcDbBlockBegin
  2
*D29
 70
     1
 10
0.0
 20
0.0
 30
0.0
  3
*D29
  1

  0
LINE
  5
28B4
330
2875
100
AcDbEntity
  8
0
 62
     0
440
 16777216
370
    -2
100
AcDbLine
 10
1528.414642119927
 20
578.0705040198567
 30
0.0
 11
1528.414642119927
 21
62.53914717430814
 31
0.0
  0
LINE
  5
28B5
330
2875
100
AcDbEntity
  8
0
 62
     0
440
 16777216
370
    -2
100
AcDbLine
 10
1486.614642119926
 20
578.0705040198567
 30
0.0
 11
1486.614642119926
 21
62.53914717430814
 31
0.0
  0
LINE
  5
28B6
330
2875
100
AcDbEntity
  8
0
 62
     0
440
 16777216
370
    -2
100
AcDbLine
 10
1520.414642119927
 20
62.71914717430809
 30
0.0
 11
1494.614642119926
 21
62.71914717430809
 31
0.0
  0
LINE
  5
28B7
330
2875
100
AcDbEntity
  8
0
 62
     0
440
 16777216
370
    -2
100
AcDbLine
 10
1486.614642119926
 20
62.71914717430809
 30
0.0
 11
1478.614642119926
 21
62.71914717430809
 31
0.0
  0
SOLID
  5
28B8
330
2875
100
AcDbEntity
  8
0
 62
     0
440
 16777216
100
AcDbTrace
 10
1520.414642119927
 20
64.05248050764142
 30
0.0
 11
1520.414642119927
 21
61.38581384097475
 31
0.0
 12
1528.414642119927
 22
62.71914717430809
 32
0.0
 13
1528.414642119927
 23
62.71914717430809
 33
0.0
  0
SOLID
  5
28B9
330
2875
100
AcDbEntity
  8
0
 62
     0
440
 16777216
100
AcDbTrace
 10
1494.614642119926
 20
64.05248050764142
 30
0.0
 11
1494.614642119926
 21
61.38581384097475
 31
0.0
 12
1486.614642119926
 22
62.71914717430809
 32
0.0
 13
1486.614642119926
 23
62.71914717430809
 33
0.0
  0
MTEXT
  5
28BA
330
2875
100
AcDbEntity
  8
0
 62
     0
440
 16777216
100
AcDbMText
 10
1466.947975453259
 20
62.71914717430809
 30
0.0
 40
8.0
 41
0.0
 46
0.0
 71
     5
 72
     1
  1
\A1;42
 73
     1
 44
1.0
  0
POINT
  5
28BB
330
2875
100
AcDbEntity
  8
Defpoints
 62
     0
440
 16777216
100
AcDbPoint
 10
1528.414642119927
 20
578.1330040198566
 30
0.0
  0
POINT
  5
28BC
330
2875
100
AcDbEntity
  8
Defpoints
 62
     0
440
 16777216
100
AcDbPoint
 10
1486.614642119926
 20
578.1330040198566
 30
0.0
  0
POINT
  5
28BD
330
2875
100
AcDbEntity
  8
Defpoints
 62
     0
440
 16777216
100
AcDbPoint
 10
1486.614642119926
 20
62.71914717430809
 30
0.0
  0
ENDBLK
  5
2877
330
2875
100
AcDbEntity
  8
0
100
AcDbBlockEnd
  0
BLOCK
  5
28C0
330
28BF
100
AcDbEntity
  8
0
100
AcDbBlockBegin
  2
*D30
 70
     1
 10
0.0
 20
0.0
 30
0.0
  3
*D30
  1

  0
LINE
  5
28E4
330
28BF
100
AcDbEntity
  8
0
 62
     0
440
 16777216
370
    -2
100
AcDbLine
 10
1575.414642119927
 20
283.4947680885688
 30
0.0
 11
1575.414642119927
 21
113.7403273336852
 31
0.0
  0
LINE
  5
28E5
330
28BF
100
AcDbEntity
  8
0
 62
     0
440
 16777216
370
    -2
100
AcDbLine
 10
1528.414642119927
 20
283.4947680885688
 30
0.0
 11
1528.414642119927
 21
113.7403273336852
 31
0.0
  0
LINE
  5
28E6
330
28BF
100
AcDbEntity
  8
0
 62
     0
440
 16777216
370
    -2
100
AcDbLine
 10
1567.414642119927
 20
113.9203273336852
 30
0.0
 11
1536.414642119927
 21
113.9203273336852
 31
0.0
  0
LINE
  5
28E7
330
28BF
100
AcDbEntity
  8
0
 62
     0
440
 16777216
370
    -2
100
AcDbLine
 10
1528.414642119927
 20
113.9203273336852
 30
0.0
 11
1520.414642119927
 21
113.9203273336852
 31
0.0
  0
SOLID
  5
28E8
330
28BF
100
AcDbEntity
  8
0
 62
     0
440
 16777216
100
AcDbTrace
 10
1567.414642119927
 20
115.2536606670185
 30
0.0
 11
1567.414642119927
 21
112.5869940003519
 31
0.0
 12
1575.414642119927
 22
113.9203273336852
 32
0.0
 13
1575.414642119927
 23
113.9203273336852
 33
0.0
  0
SOLID
  5
28E9
330
28BF
100
AcDbEntity
  8
0
 62
     0
440
 16777216
100
AcDbTrace
 10
1536.414642119927
 20
115.2536606670185
 30
0.0
 11
1536.414642119927
 21
112.5869940003519
 31
0.0
 12
1528.414642119927
 22
113.9203273336852
 32
0.0
 13
1528.414642119927
 23
113.9203273336852
 33
0.0
  0
MTEXT
  5
28EA
330
28BF
100
AcDbEntity
  8
0
 62
     0
440
 16777216
100
AcDbMText
 10
1508.74797545326
 20
113.9203273336852
 30
0.0
 40
8.0
 41
0.0
 46
0.0
 71
     5
 72
     1
  1
\A1;47
 73
     1
 44
1.0
  0
POINT
  5
28EB
330
28BF
100
AcDbEntity
  8
Defpoints
 62
     0
440
 16777216
100
AcDbPoint
 10
1575.414642119927
 20
283.5572680885688
 30
0.0
  0
POINT
  5
28EC
330
28BF
100
AcDbEntity
  8
Defpoints
 62
     0
440
 16777216
100
AcDbPoint
 10
1528.414642119927
 20
283.5572680885688
 30
0.0
  0
POINT
  5
28ED
330
28BF
100
AcDbEntity
  8
Defpoints
 62
     0
440
 16777216
100
AcDbPoint
 10
1528.414642119927
 20
113.9203273336852
 30
0.0
  0
ENDBLK
  5
28C1
330
28BF
100
AcDbEntity
  8
0
100
AcDbBlockEnd
  0
BLOCK
  5
28CE
330
28CD
100
AcDbEntity
  8
0
100
AcDbBlockBegin
  2
*D31
 70
     1
 10
0.0
 20
0.0
 30
0.0
  3
*D31
  1

  0
LINE
  5
28DA
330
28CD
100
AcDbEntity
  8
0
 62
     0
440
 16777216
370
    -2
100
AcDbLine
 10
1575.414642119927
 20
283.4322680885687
 30
0.0
 11
1575.414642119927
 21
130.1621004963138
 31
0.0
  0
LINE
  5
28DB
330
28CD
100
AcDbEntity
  8
0
 62
     0
440
 16777216
370
    -2
100
AcDbLine
 10
1707.414642119927
 20
283.4947680885688
 30
0.0
 11
1707.414642119927
 21
130.1621004963138
 31
0.0
  0
LINE
  5
28DC
330
28CD
100
AcDbEntity
  8
0
 62
     0
440
 16777216
370
    -2
100
AcDbLine
 10
1583.414642119927
 20
130.3421004963138
 30
0.0
 11
1627.081308786594
 21
130.3421004963138
 31
0.0
  0
LINE
  5
28DD
330
28CD
100
AcDbEntity
  8
0
 62
     0
440
 16777216
370
    -2
100
AcDbLine
 10
1699.414642119927
 20
130.3421004963138
 30
0.0
 11
1655.74797545326
 21
130.3421004963138
 31
0.0
  0
SOLID
  5
28DE
330
28CD
100
AcDbEntity
  8
0
 62
     0
440
 16777216
100
AcDbTrace
 10
1583.414642119927
 20
131.6754338296471
 30
0.0
 11
1583.414642119927
 21
129.0087671629805
 31
0.0
 12
1575.414642119927
 22
130.3421004963138
 32
0.0
 13
1575.414642119927
 23
130.3421004963138
 33
0.0
  0
SOLID
  5
28DF
330
28CD
100
AcDbEntity
  8
0
 62
     0
440
 16777216
100
AcDbTrace
 10
1699.414642119927
 20
131.6754338296471
 30
0.0
 11
1699.414642119927
 21
129.0087671629805
 31
0.0
 12
1707.414642119927
 22
130.3421004963138
 32
0.0
 13
1707.414642119927
 23
130.3421004963138
 33
0.0
  0
MTEXT
  5
28E0
330
28CD
100
AcDbEntity
  8
0
 62
     0
440
 16777216
100
AcDbMText
 10
1641.414642119927
 20
130.3421004963138
 30
0.0
 40
8.0
 41
0.0
 46
0.0
 71
     5
 72
     1
  1
\A1;132
 73
     1
 44
1.0
  0
POINT
  5
28E1
330
28CD
100
AcDbEntity
  8
Defpoints
 62
     0
440
 16777216
100
AcDbPoint
 10
1575.414642119927
 20
283.4947680885688
 30
0.0
  0
POINT
  5
28E2
330
28CD
100
AcDbEntity
  8
Defpoints
 62
     0
440
 16777216
100
AcDbPoint
 10
1707.414642119927
 20
283.5572680885688
 30
0.0
  0
POINT
  5
28E3
330
28CD
100
AcDbEntity
  8
Defpoints
 62
     0
440
 16777216
100
AcDbPoint
 10
1707.414642119927
 20
130.3421004963138
 30
0.0
  0
ENDBLK
  5
28CF
330
28CD
100
AcDbEntity
  8
0
100
AcDbBlockEnd
  0
BLOCK
  5
28F2
330
28F1
100
AcDbEntity
  8
0
100
AcDbBlockBegin
  2
*D32
 70
     1
 10
0.0
 20
0.0
 30
0.0
  3
*D32
  1

  0
LINE
  5
28F4
330
28F1
100
AcDbEntity
  8
0
 62
     0
440
 16777216
370
    -2
100
AcDbLine
 10
811.9889322433861
 20
152.4307962161865
 30
0.0
 11
811.9889322433861
 21
183.6904023219137
 31
0.0
  0
LINE
  5
28F5
330
28F1
100
AcDbEntity
  8
0
 62
     0
440
 16777216
370
    -2
100
AcDbLine
 10
858.9889322433862
 20
152.4307962161865
 30
0.0
 11
858.9889322433862
 21
183.6904023219137
 31
0.0
  0
LINE
  5
28F6
330
28F1
100
AcDbEntity
  8
0
 62
     0
440
 16777216
370
    -2
100
AcDbLine
 10
812.1689322433862
 20
183.5104023219137
 30
0.0
 11
834.918932243386
 21
183.5104023219137
 31
0.0
  0
LINE
  5
28F7
330
28F1
100
AcDbEntity
  8
0
 62
     0
440
 16777216
370
    -2
100
AcDbLine
 10
858.8089322433862
 20
183.5104023219137
 30
0.0
 11
836.0589322433863
 21
183.5104023219137
 31
0.0
  0
SOLID
  5
28F8
330
28F1
100
AcDbEntity
  8
0
 62
     0
440
 16777216
100
AcDbTrace
 10
812.1689322433862
 20
183.5404023219137
 30
0.0
 11
812.1689322433862
 21
183.4804023219137
 31
0.0
 12
811.9889322433861
 22
183.5104023219137
 32
0.0
 13
811.9889322433861
 23
183.5104023219137
 33
0.0
  0
SOLID
  5
28F9
330
28F1
100
AcDbEntity
  8
0
 62
     0
440
 16777216
100
AcDbTrace
 10
858.8089322433862
 20
183.5404023219137
 30
0.0
 11
858.8089322433862
 21
183.4804023219137
 31
0.0
 12
858.9889322433862
 22
183.5104023219137
 32
0.0
 13
858.9889322433862
 23
183.5104023219137
 33
0.0
  0
MTEXT
  5
28FA
330
28F1
100
AcDbEntity
  8
0
 62
     0
440
 16777216
100
AcDbMText
 10
835.4889322433862
 20
183.5104023219137
 30
0.0
 40
0.18
 41
0.0
 46
0.0
 71
     5
 72
     1
  1
\A1;47.0000
 73
     1
 44
1.0
  0
POINT
  5
28FB
330
28F1
100
AcDbEntity
  8
Defpoints
 62
     0
440
 16777216
100
AcDbPoint
 10
811.9889322433861
 20
152.3682962161865
 30
0.0
  0
POINT
  5
28FC
330
28F1
100
AcDbEntity
  8
Defpoints
 62
     0
440
 16777216
100
AcDbPoint
 10
858.9889322433862
 20
152.3682962161865
 30
0.0
  0
POINT
  5
28FD
330
28F1
100
AcDbEntity
  8
Defpoints
 62
     0
440
 16777216
100
AcDbPoint
 10
858.9889322433862
 20
183.5104023219137
 30
0.0
  0
ENDBLK
  5
28F3
330
28F1
100
AcDbEntity
  8
0
100
AcDbBlockEnd
  0
BLOCK
  5
2900
330
28FF
100
AcDbEntity
  8
0
100
AcDbBlockBegin
  2
*D33
 70
     1
 10
0.0
 20
0.0
 30
0.0
  3
*D33
  1

  0
LINE
  5
2902
330
28FF
100
AcDbEntity
  8
0
 62
     0
440
 16777216
370
    -2
100
AcDbLine
 10
1728.414642119927
 20
538.4947680885687
 30
0.0
 11
1728.414642119927
 21
104.6668236125554
 31
0.0
  0
LINE
  5
2903
330
28FF
100
AcDbEntity
  8
0
 62
     0
440
 16777216
370
    -2
100
AcDbLine
 10
1707.414642119927
 20
323.0705040198568
 30
0.0
 11
1707.414642119927
 21
104.6668236125554
 31
0.0
  0
LINE
  5
2904
330
28FF
100
AcDbEntity
  8
0
 62
     0
440
 16777216
370
    -2
100
AcDbLine
 10
1728.234642119927
 20
104.8468236125554
 30
0.0
 11
1718.454642119927
 21
104.8468236125554
 31
0.0
  0
LINE
  5
2905
330
28FF
100
AcDbEntity
  8
0
 62
     0
440
 16777216
370
    -2
100
AcDbLine
 10
1707.594642119927
 20
104.8468236125554
 30
0.0
 11
1717.374642119927
 21
104.8468236125554
 31
0.0
  0
SOLID
  5
2906
330
28FF
100
AcDbEntity
  8
0
 62
     0
440
 16777216
100
AcDbTrace
 10
1728.234642119927
 20
104.8768236125554
 30
0.0
 11
1728.234642119927
 21
104.8168236125554
 31
0.0
 12
1728.414642119927
 22
104.8468236125554
 32
0.0
 13
1728.414642119927
 23
104.8468236125554
 33
0.0
  0
SOLID
  5
2907
330
28FF
100
AcDbEntity
  8
0
 62
     0
440
 16777216
100
AcDbTrace
 10
1707.594642119927
 20
104.8768236125554
 30
0.0
 11
1707.594642119927
 21
104.8168236125554
 31
0.0
 12
1707.414642119927
 22
104.8468236125554
 32
0.0
 13
1707.414642119927
 23
104.8468236125554
 33
0.0
  0
MTEXT
  5
2908
330
28FF
100
AcDbEntity
  8
0
 62
     0
440
 16777216
100
AcDbMText
 10
1717.914642119927
 20
104.8468236125554
 30
0.0
 40
0.18
 41
0.0
 46
0.0
 71
     5
 72
     1
  1
\A1;21.0000
 73
     1
 44
1.0
  0
POINT
  5
2909
330
28FF
100
AcDbEntity
  8
Defpoints
 62
     0
440
 16777216
100
AcDbPoint
 10
1728.414642119927
 20
538.5572680885688
 30
0.0
  0
POINT
  5
290A
330
28FF
100
AcDbEntity
  8
Defpoints
 62
     0
440
 16777216
100
AcDbPoint
 10
1707.414642119927
 20
323.1330040198569
 30
0.0
  0
POINT
  5
290B
330
28FF
100
AcDbEntity
  8
Defpoints
 62
     0
440
 16777216
100
AcDbPoint
 10
1707.414642119927
 20
104.8468236125554
 30
0.0
  0
ENDBLK
  5
2901
330
28FF
100
AcDbEntity
  8
0
100
AcDbBlockEnd
  0
BLOCK
  5
2E8C
330
2E8B
100
AcDbEntity
  8
0
100
AcDbBlockBegin
  2
*D34
 70
     1
 10
0.0
 20
0.0
 30
0.0
  3
*D34
  1

  0
LINE
  5
2E8E
330
2E8B
100
AcDbEntity
  8
0
 62
     0
440
 16777216
370
    -2
100
AcDbLine
 10
784.3516652221381
 20
623.1532601791315
 30
0.0
 11
784.3516652221381
 21
806.7044384994085
 31
0.0
  0
LINE
  5
2E8F
330
2E8B
100
AcDbEntity
  8
0
 62
     0
440
 16777216
370
    -2
100
AcDbLine
 10
1044.351665222138
 20
623.1532601791315
 30
0.0
 11
1044.351665222138
 21
806.7044384994085
 31
0.0
  0
LINE
  5
2E90
330
2E8B
100
AcDbEntity
  8
0
 62
     0
440
 16777216
370
    -2
100
AcDbLine
 10
784.5316652221379
 20
806.5244384994084
 30
0.0
 11
913.7066652221378
 21
806.5244384994084
 31
0.0
  0
LINE
  5
2E91
330
2E8B
100
AcDbEntity
  8
0
 62
     0
440
 16777216
370
    -2
100
AcDbLine
 10
1044.171665222138
 20
806.5244384994084
 30
0.0
 11
914.9966652221378
 21
806.5244384994084
 31
0.0
  0
SOLID
  5
2E92
330
2E8B
100
AcDbEntity
  8
0
 62
     0
440
 16777216
100
AcDbTrace
 10
784.5316652221379
 20
806.5544384994083
 30
0.0
 11
784.5316652221379
 21
806.4944384994086
 31
0.0
 12
784.3516652221381
 22
806.5244384994084
 32
0.0
 13
784.3516652221381
 23
806.5244384994084
 33
0.0
  0
SOLID
  5
2E93
330
2E8B
100
AcDbEntity
  8
0
 62
     0
440
 16777216
100
AcDbTrace
 10
1044.171665222138
 20
806.5544384994083
 30
0.0
 11
1044.171665222138
 21
806.4944384994086
 31
0.0
 12
1044.351665222138
 22
806.5244384994084
 32
0.0
 13
1044.351665222138
 23
806.5244384994084
 33
0.0
  0
MTEXT
  5
2E94
330
2E8B
100
AcDbEntity
  8
0
 62
     0
440
 16777216
100
AcDbMText
 10
914.351665222138
 20
806.5244384994084
 30
0.0
 40
0.18
 41
0.0
 46
0.0
 71
     5
 72
     1
  1
\A1;260.0000
 73
     1
 44
1.0
  0
POINT
  5
2E95
330
2E8B
100
AcDbEntity
  8
Defpoints
 62
     0
440
 16777216
100
AcDbPoint
 10
784.3516652221381
 20
623.0907601791315
 30
0.0
  0
POINT
  5
2E96
330
2E8B
100
AcDbEntity
  8
Defpoints
 62
     0
440
 16777216
100
AcDbPoint
 10
1044.351665222138
 20
623.0907601791315
 30
0.0
  0
POINT
  5
2E97
330
2E8B
100
AcDbEntity
  8
Defpoints
 62
     0
440
 16777216
100
AcDbPoint
 10
1044.351665222138
 20
806.5244384994084
 30
0.0
  0
ENDBLK
  5
2E8D
330
2E8B
100
AcDbEntity
  8
0
100
AcDbBlockEnd
  0
BLOCK
  5
2E9A
330
2E99
100
AcDbEntity
  8
0
100
AcDbBlockBegin
  2
*D35
 70
     1
 10
0.0
 20
0.0
 30
0.0
  3
*D35
  1

  0
LINE
  5
2E9C
330
2E99
100
AcDbEntity
  8
0
 62
     0
440
 16777216
370
    -2
100
AcDbLine
 10
1191.186419847298
 20
707.8920790770257
 30
0.0
 11
1191.186419847298
 21
757.087129095919
 31
0.0
  0
LINE
  5
2E9D
330
2E99
100
AcDbEntity
  8
0
 62
     0
440
 16777216
370
    -2
100
AcDbLine
 10
1328.186419847299
 20
707.8920790770257
 30
0.0
 11
1328.186419847299
 21
757.087129095919
 31
0.0
  0
LINE
  5
2E9E
330
2E99
100
AcDbEntity
  8
0
 62
     0
440
 16777216
370
    -2
100
AcDbLine
 10
1191.366419847298
 20
756.9071290959192
 30
0.0
 11
1259.056419847298
 21
756.9071290959192
 31
0.0
  0
LINE
  5
2E9F
330
2E99
100
AcDbEntity
  8
0
 62
     0
440
 16777216
370
    -2
100
AcDbLine
 10
1328.006419847299
 20
756.9071290959192
 30
0.0
 11
1260.316419847298
 21
756.9071290959192
 31
0.0
  0
SOLID
  5
2EA0
330
2E99
100
AcDbEntity
  8
0
 62
     0
440
 16777216
100
AcDbTrace
 10
1191.366419847298
 20
756.9371290959192
 30
0.0
 11
1191.366419847298
 21
756.8771290959191
 31
0.0
 12
1191.186419847298
 22
756.9071290959192
 32
0.0
 13
1191.186419847298
 23
756.9071290959192
 33
0.0
  0
SOLID
  5
2EA1
330
2E99
100
AcDbEntity
  8
0
 62
     0
440
 16777216
100
AcDbTrace
 10
1328.006419847299
 20
756.9371290959192
 30
0.0
 11
1328.006419847299
 21
756.8771290959191
 31
0.0
 12
1328.186419847299
 22
756.9071290959192
 32
0.0
 13
1328.186419847299
 23
756.9071290959192
 33
0.0
  0
MTEXT
  5
2EA2
330
2E99
100
AcDbEntity
  8
0
 62
     0
440
 16777216
100
AcDbMText
 10
1259.686419847298
 20
756.9071290959192
 30
0.0
 40
0.18
 41
0.0
 46
0.0
 71
     5
 72
     1
  1
\A1;137.0000
 73
     1
 44
1.0
  0
POINT
  5
2EA3
330
2E99
100
AcDbEntity
  8
Defpoints
 62
     0
440
 16777216
100
AcDbPoint
 10
1191.186419847298
 20
707.8295790770257
 30
0.0
  0
POINT
  5
2EA4
330
2E99
100
AcDbEntity
  8
Defpoints
 62
     0
440
 16777216
100
AcDbPoint
 10
1328.186419847299
 20
707.8295790770257
 30
0.0
  0
POINT
  5
2EA5
330
2E99
100
AcDbEntity
  8
Defpoints
 62
     0
440
 16777216
100
AcDbPoint
 10
1328.186419847299
 20
756.9071290959192
 30
0.0
  0
ENDBLK
  5
2E9B
330
2E99
100
AcDbEntity
  8
0
100
AcDbBlockEnd
  0
BLOCK
  5
2EE8
330
2EE7
100
AcDbEntity
  8
0
100
AcDbBlockBegin
  2
*D36
 70
     1
 10
0.0
 20
0.0
 30
0.0
  3
*D36
  1

  0
LINE
  5
2EEA
330
2EE7
100
AcDbEntity
  8
0
 62
     0
440
 16777216
370
    -2
100
AcDbLine
 10
1542.559152786395
 20
504.1010583095433
 30
0.0
 11
1542.559152786395
 21
571.3056621270112
 31
0.0
  0
LINE
  5
2EEB
330
2EE7
100
AcDbEntity
  8
0
 62
     0
440
 16777216
370
    -2
100
AcDbLine
 10
1502.559152786395
 20
504.1010583095433
 30
0.0
 11
1502.559152786395
 21
571.3056621270112
 31
0.0
  0
LINE
  5
2EEC
330
2EE7
100
AcDbEntity
  8
0
 62
     0
440
 16777216
370
    -2
100
AcDbLine
 10
1542.379152786396
 20
571.1256621270113
 30
0.0
 11
1523.114152786396
 21
571.1256621270113
 31
0.0
  0
LINE
  5
2EED
330
2EE7
100
AcDbEntity
  8
0
 62
     0
440
 16777216
370
    -2
100
AcDbLine
 10
1502.739152786396
 20
571.1256621270113
 30
0.0
 11
1522.004152786396
 21
571.1256621270113
 31
0.0
  0
SOLID
  5
2EEE
330
2EE7
100
AcDbEntity
  8
0
 62
     0
440
 16777216
100
AcDbTrace
 10
1542.379152786396
 20
571.1556621270112
 30
0.0
 11
1542.379152786396
 21
571.0956621270112
 31
0.0
 12
1542.559152786395
 22
571.1256621270113
 32
0.0
 13
1542.559152786395
 23
571.1256621270113
 33
0.0
  0
SOLID
  5
2EEF
330
2EE7
100
AcDbEntity
  8
0
 62
     0
440
 16777216
100
AcDbTrace
 10
1502.739152786396
 20
571.1556621270112
 30
0.0
 11
1502.739152786396
 21
571.0956621270112
 31
0.0
 12
1502.559152786395
 22
571.1256621270113
 32
0.0
 13
1502.559152786395
 23
571.1256621270113
 33
0.0
  0
MTEXT
  5
2EF0
330
2EE7
100
AcDbEntity
  8
0
 62
     0
440
 16777216
100
AcDbMText
 10
1522.559152786396
 20
571.1256621270113
 30
0.0
 40
0.18
 41
0.0
 46
0.0
 71
     5
 72
     1
  1
\A1;40.0000
 73
     1
 44
1.0
  0
POINT
  5
2EF1
330
2EE7
100
AcDbEntity
  8
Defpoints
 62
     0
440
 16777216
100
AcDbPoint
 10
1542.559152786395
 20
504.0385583095431
 30
0.0
  0
POINT
  5
2EF2
330
2EE7
100
AcDbEntity
  8
Defpoints
 62
     0
440
 16777216
100
AcDbPoint
 10
1502.559152786395
 20
504.0385583095431
 30
0.0
  0
POINT
  5
2EF3
330
2EE7
100
AcDbEntity
  8
Defpoints
 62
     0
440
 16777216
100
AcDbPoint
 10
1502.559152786395
 20
571.1256621270113
 30
0.0
  0
ENDBLK
  5
2EE9
330
2EE7
100
AcDbEntity
  8
0
100
AcDbBlockEnd
  0
BLOCK
  5
2EF6
330
2EF5
100
AcDbEntity
  8
0
100
AcDbBlockBegin
  2
*D37
 70
     1
 10
0.0
 20
0.0
 30
0.0
  3
*D37
  1

  0
LINE
  5
2EF8
330
2EF5
100
AcDbEntity
  8
0
 62
     0
440
 16777216
370
    -2
100
AcDbLine
 10
1529.059152786396
 20
505.9760583095433
 30
0.0
 11
1529.059152786396
 21
447.0726694688011
 31
0.0
  0
LINE
  5
2EF9
330
2EF5
100
AcDbEntity
  8
0
 62
     0
440
 16777216
370
    -2
100
AcDbLine
 10
1556.059152786396
 20
505.9760583095433
 30
0.0
 11
1556.059152786396
 21
447.0726694688011
 31
0.0
  0
LINE
  5
2EFA
330
2EF5
100
AcDbEntity
  8
0
 62
     0
440
 16777216
370
    -2
100
AcDbLine
 10
1529.239152786396
 20
447.2526694688013
 30
0.0
 11
1541.989152786396
 21
447.2526694688013
 31
0.0
  0
LINE
  5
2EFB
330
2EF5
100
AcDbEntity
  8
0
 62
     0
440
 16777216
370
    -2
100
AcDbLine
 10
1555.879152786396
 20
447.2526694688013
 30
0.0
 11
1543.129152786396
 21
447.2526694688013
 31
0.0
  0
SOLID
  5
2EFC
330
2EF5
100
AcDbEntity
  8
0
 62
     0
440
 16777216
100
AcDbTrace
 10
1529.239152786396
 20
447.2826694688012
 30
0.0
 11
1529.239152786396
 21
447.2226694688012
 31
0.0
 12
1529.059152786396
 22
447.2526694688013
 32
0.0
 13
1529.059152786396
 23
447.2526694688013
 33
0.0
  0
SOLID
  5
2EFD
330
2EF5
100
AcDbEntity
  8
0
 62
     0
440
 16777216
100
AcDbTrace
 10
1555.879152786396
 20
447.2826694688012
 30
0.0
 11
1555.879152786396
 21
447.2226694688012
 31
0.0
 12
1556.059152786396
 22
447.2526694688013
 32
0.0
 13
1556.059152786396
 23
447.2526694688013
 33
0.0
  0
MTEXT
  5
2EFE
330
2EF5
100
AcDbEntity
  8
0
 62
     0
440
 16777216
100
AcDbMText
 10
1542.559152786395
 20
447.2526694688013
 30
0.0
 40
0.18
 41
0.0
 46
0.0
 71
     5
 72
     1
  1
\A1;27.0000
 73
     1
 44
1.0
  0
POINT
  5
2EFF
330
2EF5
100
AcDbEntity
  8
Defpoints
 62
     0
440
 16777216
100
AcDbPoint
 10
1529.059152786396
 20
506.0385583095433
 30
0.0
  0
POINT
  5
2F00
330
2EF5
100
AcDbEntity
  8
Defpoints
 62
     0
440
 16777216
100
AcDbPoint
 10
1556.059152786396
 20
506.0385583095433
 30
0.0
  0
POINT
  5
2F01
330
2EF5
100
AcDbEntity
  8
Defpoints
 62
     0
440
 16777216
100
AcDbPoint
 10
1556.059152786396
 20
447.2526694688013
 30
0.0
  0
ENDBLK
  5
2EF7
330
2EF5
100
AcDbEntity
  8
0
100
AcDbBlockEnd
  0
BLOCK
  5
3D70
330
3D6F
100
AcDbEntity
  8
0
100
AcDbBlockBegin
  2
*D38
 70
     1
 10
0.0
 20
0.0
 30
0.0
  3
*D38
  1

  0
LINE
  5
3D72
330
3D6F
100
AcDbEntity
  8
0
 62
     0
440
 16777216
370
    -2
100
AcDbLine
 10
657.3606446970743
 20
962.4565325527536
 30
0.0
 11
657.3606446970743
 21
881.6591151499373
 31
0.0
  0
LINE
  5
3D73
330
3D6F
100
AcDbEntity
  8
0
 62
     0
440
 16777216
370
    -2
100
AcDbLine
 10
997.3606446970745
 20
962.4565325527536
 30
0.0
 11
997.3606446970745
 21
881.6591151499373
 31
0.0
  0
LINE
  5
3D74
330
3D6F
100
AcDbEntity
  8
0
 62
     0
440
 16777216
370
    -2
100
AcDbLine
 10
657.5406446970745
 20
881.8391151499373
 30
0.0
 11
826.7156446970744
 21
881.8391151499373
 31
0.0
  0
LINE
  5
3D75
330
3D6F
100
AcDbEntity
  8
0
 62
     0
440
 16777216
370
    -2
100
AcDbLine
 10
997.1806446970743
 20
881.8391151499373
 30
0.0
 11
828.0056446970744
 21
881.8391151499373
 31
0.0
  0
SOLID
  5
3D76
330
3D6F
100
AcDbEntity
  8
0
 62
     0
440
 16777216
100
AcDbTrace
 10
657.5406446970745
 20
881.8691151499374
 30
0.0
 11
657.5406446970745
 21
881.8091151499372
 31
0.0
 12
657.3606446970743
 22
881.8391151499373
 32
0.0
 13
657.3606446970743
 23
881.8391151499373
 33
0.0
  0
SOLID
  5
3D77
330
3D6F
100
AcDbEntity
  8
0
 62
     0
440
 16777216
100
AcDbTrace
 10
997.1806446970743
 20
881.8691151499374
 30
0.0
 11
997.1806446970743
 21
881.8091151499372
 31
0.0
 12
997.3606446970745
 22
881.8391151499373
 32
0.0
 13
997.3606446970745
 23
881.8391151499373
 33
0.0
  0
MTEXT
  5
3D78
330
3D6F
100
AcDbEntity
  8
0
 62
     0
440
 16777216
100
AcDbMText
 10
827.3606446970742
 20
881.8391151499373
 30
0.0
 40
0.18
 41
0.0
 46
0.0
 71
     5
 72
     1
  1
\A1;340.0000
 73
     1
 44
1.0
  0
POINT
  5
3D79
330
3D6F
100
AcDbEntity
  8
Defpoints
 62
     0
440
 16777216
100
AcDbPoint
 10
657.3606446970743
 20
962.5190325527537
 30
0.0
  0
POINT
  5
3D7A
330
3D6F
100
AcDbEntity
  8
Defpoints
 62
     0
440
 16777216
100
AcDbPoint
 10
997.3606446970745
 20
962.5190325527537
 30
0.0
  0
POINT
  5
3D7B
330
3D6F
100
AcDbEntity
  8
Defpoints
 62
     0
440
 16777216
100
AcDbPoint
 10
997.3606446970745
 20
881.8391151499373
 30
0.0
  0
ENDBLK
  5
3D71
330
3D6F
100
AcDbEntity
  8
0
100
AcDbBlockEnd
  0
BLOCK
  5
3D7E
330
3D7D
100
AcDbEntity
  8
0
100
AcDbBlockBegin
  2
*D39
 70
     1
 10
0.0
 20
0.0
 30
0.0
  3
*D39
  1

  0
LINE
  5
3D80
330
3D7D
100
AcDbEntity
  8
0
 62
     0
440
 16777216
370
    -2
100
AcDbLine
 10
1064.798569667094
 20
994.9252778653237
 30
0.0
 11
1064.798569667094
 21
922.9829769415776
 31
0.0
  0
LINE
  5
3D81
330
3D7D
100
AcDbEntity
  8
0
 62
     0
440
 16777216
370
    -2
100
AcDbLine
 10
1324.798569667094
 20
994.9252778653237
 30
0.0
 11
1324.798569667094
 21
922.9829769415776
 31
0.0
  0
LINE
  5
3D82
330
3D7D
100
AcDbEntity
  8
0
 62
     0
440
 16777216
370
    -2
100
AcDbLine
 10
1064.978569667094
 20
923.1629769415777
 30
0.0
 11
1194.153569667094
 21
923.1629769415777
 31
0.0
  0
LINE
  5
3D83
330
3D7D
100
AcDbEntity
  8
0
 62
     0
440
 16777216
370
    -2
100
AcDbLine
 10
1324.618569667094
 20
923.1629769415777
 30
0.0
 11
1195.443569667094
 21
923.1629769415777
 31
0.0
  0
SOLID
  5
3D84
330
3D7D
100
AcDbEntity
  8
0
 62
     0
440
 16777216
100
AcDbTrace
 10
1064.978569667094
 20
923.1929769415776
 30
0.0
 11
1064.978569667094
 21
923.1329769415776
 31
0.0
 12
1064.798569667094
 22
923.1629769415777
 32
0.0
 13
1064.798569667094
 23
923.1629769415777
 33
0.0
  0
SOLID
  5
3D85
330
3D7D
100
AcDbEntity
  8
0
 62
     0
440
 16777216
100
AcDbTrace
 10
1324.618569667094
 20
923.1929769415776
 30
0.0
 11
1324.618569667094
 21
923.1329769415776
 31
0.0
 12
1324.798569667094
 22
923.1629769415777
 32
0.0
 13
1324.798569667094
 23
923.1629769415777
 33
0.0
  0
MTEXT
  5
3D86
330
3D7D
100
AcDbEntity
  8
0
 62
     0
440
 16777216
100
AcDbMText
 10
1194.798569667094
 20
923.1629769415777
 30
0.0
 40
0.18
 41
0.0
 46
0.0
 71
     5
 72
     1
  1
\A1;260.0000
 73
     1
 44
1.0
  0
POINT
  5
3D87
330
3D7D
100
AcDbEntity
  8
Defpoints
 62
     0
440
 16777216
100
AcDbPoint
 10
1064.798569667094
 20
994.9877778653236
 30
0.0
  0
POINT
  5
3D88
330
3D7D
100
AcDbEntity
  8
Defpoints
 62
     0
440
 16777216
100
AcDbPoint
 10
1324.798569667094
 20
994.9877778653236
 30
0.0
  0
POINT
  5
3D89
330
3D7D
100
AcDbEntity
  8
Defpoints
 62
     0
440
 16777216
100
AcDbPoint
 10
1324.798569667094
 20
923.1629769415777
 30
0.0
  0
ENDBLK
  5
3D7F
330
3D7D
100
AcDbEntity
  8
0
100
AcDbBlockEnd
  0
BLOCK
  5
3DD6
330
3DD5
100
AcDbEntity
  8
0
100
AcDbBlockBegin
  2
*D40
 70
     1
 10
0.0
 20
0.0
 30
0.0
  3
*D40
  1

  0
LINE
  5
3DD8
330
3DD5
100
AcDbEntity
  8
0
 62
     0
440
 16777216
370
    -2
100
AcDbLine
 10
1258.798569667096
 20
1049.823213939936
 30
0.0
 11
1258.798569667096
 21
1068.533592606992
 31
0.0
  0
LINE
  5
3DD9
330
3DD5
100
AcDbEntity
  8
0
 62
     0
440
 16777216
370
    -2
100
AcDbLine
 10
1334.798569667096
 20
1049.823213939936
 30
0.0
 11
1334.798569667096
 21
1068.533592606992
 31
0.0
  0
LINE
  5
3DDA
330
3DD5
100
AcDbEntity
  8
0
 62
     0
440
 16777216
370
    -2
100
AcDbLine
 10
1258.978569667096
 20
1068.353592606992
 30
0.0
 11
1296.228569667096
 21
1068.353592606992
 31
0.0
  0
LINE
  5
3DDB
330
3DD5
100
AcDbEntity
  8
0
 62
     0
440
 16777216
370
    -2
100
AcDbLine
 10
1334.618569667096
 20
1068.353592606992
 30
0.0
 11
1297.368569667096
 21
1068.353592606992
 31
0.0
  0
SOLID
  5
3DDC
330
3DD5
100
AcDbEntity
  8
0
 62
     0
440
 16777216
100
AcDbTrace
 10
1258.978569667096
 20
1068.383592606992
 30
0.0
 11
1258.978569667096
 21
1068.323592606992
 31
0.0
 12
1258.798569667096
 22
1068.353592606992
 32
0.0
 13
1258.798569667096
 23
1068.353592606992
 33
0.0
  0
SOLID
  5
3DDD
330
3DD5
100
AcDbEntity
  8
0
 62
     0
440
 16777216
100
AcDbTrace
 10
1334.618569667096
 20
1068.383592606992
 30
0.0
 11
1334.618569667096
 21
1068.323592606992
 31
0.0
 12
1334.798569667096
 22
1068.353592606992
 32
0.0
 13
1334.798569667096
 23
1068.353592606992
 33
0.0
  0
MTEXT
  5
3DDE
330
3DD5
100
AcDbEntity
  8
0
 62
     0
440
 16777216
100
AcDbMText
 10
1296.798569667096
 20
1068.353592606992
 30
0.0
 40
0.18
 41
0.0
 46
0.0
 71
     5
 72
     1
  1
\A1;76.0000
 73
     1
 44
1.0
  0
POINT
  5
3DDF
330
3DD5
100
AcDbEntity
  8
Defpoints
 62
     0
440
 16777216
100
AcDbPoint
 10
1258.798569667096
 20
1049.760713939936
 30
0.0
  0
POINT
  5
3DE0
330
3DD5
100
AcDbEntity
  8
Defpoints
 62
     0
440
 16777216
100
AcDbPoint
 10
1334.798569667096
 20
1049.760713939936
 30
0.0
  0
POINT
  5
3DE1
330
3DD5
100
AcDbEntity
  8
Defpoints
 62
     0
440
 16777216
100
AcDbPoint
 10
1334.798569667096
 20
1068.353592606992
 30
0.0
  0
ENDBLK
  5
3DD7
330
3DD5
100
AcDbEntity
  8
0
100
AcDbBlockEnd
  0
BLOCK
  5
3DE4
330
3DE3
100
AcDbEntity
  8
0
100
AcDbBlockBegin
  2
*D41
 70
     1
 10
0.0
 20
0.0
 30
0.0
  3
*D41
  1

  0
LINE
  5
3E43
330
3DE3
100
AcDbEntity
  8
HEWI
 62
     0
440
 16777216
370
    -2
100
AcDbLine
 10
190.1933368005566
 20
1048.823213939936
 30
0.0
 11
190.1933368005566
 21
1059.349610100679
 31
0.0
  0
LINE
  5
3E44
330
3DE3
100
AcDbEntity
  8
HEWI
 62
     0
440
 16777216
370
    -2
100
AcDbLine
 10
215.1933368005566
 20
1048.823213939936
 30
0.0
 11
215.1933368005566
 21
1059.349610100679
 31
0.0
  0
LINE
  5
3E45
330
3DE3
100
AcDbEntity
  8
HEWI
 62
     0
440
 16777216
370
    -2
100
AcDbLine
 10
190.3733368005566
 20
1059.169610100679
 30
0.0
 11
202.1233368005566
 21
1059.169610100679
 31
0.0
  0
LINE
  5
3E46
330
3DE3
100
AcDbEntity
  8
HEWI
 62
     0
440
 16777216
370
    -2
100
AcDbLine
 10
215.0133368005566
 20
1059.169610100679
 30
0.0
 11
203.2633368005566
 21
1059.169610100679
 31
0.0
  0
SOLID
  5
3E47
330
3DE3
100
AcDbEntity
  8
HEWI
 62
     0
440
 16777216
100
AcDbTrace
 10
190.3733368005566
 20
1059.199610100679
 30
0.0
 11
190.3733368005566
 21
1059.139610100679
 31
0.0
 12
190.1933368005566
 22
1059.169610100679
 32
0.0
 13
190.1933368005566
 23
1059.169610100679
 33
0.0
  0
SOLID
  5
3E48
330
3DE3
100
AcDbEntity
  8
HEWI
 62
     0
440
 16777216
100
AcDbTrace
 10
215.0133368005566
 20
1059.199610100679
 30
0.0
 11
215.0133368005566
 21
1059.139610100679
 31
0.0
 12
215.1933368005566
 22
1059.169610100679
 32
0.0
 13
215.1933368005566
 23
1059.169610100679
 33
0.0
  0
MTEXT
  5
3E49
330
3DE3
100
AcDbEntity
  8
HEWI
 62
     0
440
 16777216
100
AcDbMText
 10
202.6933368005566
 20
1059.169610100679
 30
0.0
 40
0.18
 41
0.0
 46
0.0
 71
     5
 72
     1
  1
\A1;25.0000
 73
     1
 44
1.0
  0
POINT
  5
3E4A
330
3DE3
100
AcDbEntity
  8
Defpoints
 62
     0
440
 16777216
100
AcDbPoint
 10
190.1933368005566
 20
1048.760713939936
 30
0.0
  0
POINT
  5
3E4B
330
3DE3
100
AcDbEntity
  8
Defpoints
 62
     0
440
 16777216
100
AcDbPoint
 10
215.1933368005566
 20
1048.760713939936
 30
0.0
  0
POINT
  5
3E4C
330
3DE3
100
AcDbEntity
  8
Defpoints
 62
     0
440
 16777216
100
AcDbPoint
 10
215.1933368005566
 20
1059.169610100679
 30
0.0
  0
ENDBLK
  5
3DE5
330
3DE3
100
AcDbEntity
  8
0
100
AcDbBlockEnd
  0
BLOCK
  5
3DF3
330
3DF2
100
AcDbEntity
  8
0
100
AcDbBlockBegin
  2
*D42
 70
     1
 10
0.0
 20
0.0
 30
0.0
  3
*D42
  1

  0
LINE
  5
3DF5
330
3DF2
100
AcDbEntity
  8
0
 62
     0
440
 16777216
370
    -2
100
AcDbLine
 10
1324.798569667094
 20
1046.298213939937
 30
0.0
 11
1324.798569667094
 21
1031.246374850482
 31
0.0
  0
LINE
  5
3DF6
330
3DF2
100
AcDbEntity
  8
0
 62
     0
440
 16777216
370
    -2
100
AcDbLine
 10
1334.798569667096
 20
1047.698213939936
 30
0.0
 11
1334.798569667096
 21
1031.246374850482
 31
0.0
  0
LINE
  5
3DF7
330
3DF2
100
AcDbEntity
  8
0
 62
     0
440
 16777216
370
    -2
100
AcDbLine
 10
1324.978569667094
 20
1031.426374850482
 30
0.0
 11
1329.273569667095
 21
1031.426374850482
 31
0.0
  0
LINE
  5
3DF8
330
3DF2
100
AcDbEntity
  8
0
 62
     0
440
 16777216
370
    -2
100
AcDbLine
 10
1334.618569667096
 20
1031.426374850482
 30
0.0
 11
1330.323569667095
 21
1031.426374850482
 31
0.0
  0
SOLID
  5
3DF9
330
3DF2
100
AcDbEntity
  8
0
 62
     0
440
 16777216
100
AcDbTrace
 10
1324.978569667094
 20
1031.456374850483
 30
0.0
 11
1324.978569667094
 21
1031.396374850483
 31
0.0
 12
1324.798569667094
 22
1031.426374850482
 32
0.0
 13
1324.798569667094
 23
1031.426374850482
 33
0.0
  0
SOLID
  5
3DFA
330
3DF2
100
AcDbEntity
  8
0
 62
     0
440
 16777216
100
AcDbTrace
 10
1334.618569667096
 20
1031.456374850483
 30
0.0
 11
1334.618569667096
 21
1031.396374850483
 31
0.0
 12
1334.798569667096
 22
1031.426374850482
 32
0.0
 13
1334.798569667096
 23
1031.426374850482
 33
0.0
  0
MTEXT
  5
3DFB
330
3DF2
100
AcDbEntity
  8
0
 62
     0
440
 16777216
100
AcDbMText
 10
1329.798569667095
 20
1031.426374850482
 30
0.0
 40
0.18
 41
0.0
 46
0.0
 71
     5
 72
     1
  1
\A1;10.0000
 73
     1
 44
1.0
  0
POINT
  5
3DFC
330
3DF2
100
AcDbEntity
  8
Defpoints
 62
     0
440
 16777216
100
AcDbPoint
 10
1324.798569667094
 20
1046.360713939937
 30
0.0
  0
POINT
  5
3DFD
330
3DF2
100
AcDbEntity
  8
Defpoints
 62
     0
440
 16777216
100
AcDbPoint
 10
1334.798569667096
 20
1047.760713939936
 30
0.0
  0
POINT
  5
3DFE
330
3DF2
100
AcDbEntity
  8
Defpoints
 62
     0
440
 16777216
100
AcDbPoint
 10
1334.798569667096
 20
1031.426374850482
 30
0.0
  0
ENDBLK
  5
3DF4
330
3DF2
100
AcDbEntity
  8
0
100
AcDbBlockEnd
  0
BLOCK
  5
3E07
330
3E06
100
AcDbEntity
  8
0
100
AcDbBlockBegin
  2
*D43
 70
     1
 10
0.0
 20
0.0
 30
0.0
  3
*D43
  1

  0
LINE
  5
3E09
330
3E06
100
AcDbEntity
  8
0
 62
     0
440
 16777216
370
    -2
100
AcDbLine
 10
1421.794213688733
 20
947.823213939937
 30
0.0
 11
1421.794213688733
 21
998.9307657077748
 31
0.0
  0
LINE
  5
3E0A
330
3E06
100
AcDbEntity
  8
0
 62
     0
440
 16777216
370
    -2
100
AcDbLine
 10
1448.794213688734
 20
947.823213939937
 30
0.0
 11
1448.794213688734
 21
998.9307657077748
 31
0.0
  0
LINE
  5
3E0B
330
3E06
100
AcDbEntity
  8
0
 62
     0
440
 16777216
370
    -2
100
AcDbLine
 10
1421.974213688734
 20
998.7507657077747
 30
0.0
 11
1434.724213688734
 21
998.7507657077747
 31
0.0
  0
LINE
  5
3E0C
330
3E06
100
AcDbEntity
  8
0
 62
     0
440
 16777216
370
    -2
100
AcDbLine
 10
1448.614213688734
 20
998.7507657077747
 30
0.0
 11
1435.864213688734
 21
998.7507657077747
 31
0.0
  0
SOLID
  5
3E0D
330
3E06
100
AcDbEntity
  8
0
 62
     0
440
 16777216
100
AcDbTrace
 10
1421.974213688734
 20
998.7807657077748
 30
0.0
 11
1421.974213688734
 21
998.720765707775
 31
0.0
 12
1421.794213688733
 22
998.7507657077747
 32
0.0
 13
1421.794213688733
 23
998.7507657077747
 33
0.0
  0
SOLID
  5
3E0E
330
3E06
100
AcDbEntity
  8
0
 62
     0
440
 16777216
100
AcDbTrace
 10
1448.614213688734
 20
998.7807657077748
 30
0.0
 11
1448.614213688734
 21
998.720765707775
 31
0.0
 12
1448.794213688734
 22
998.7507657077747
 32
0.0
 13
1448.794213688734
 23
998.7507657077747
 33
0.0
  0
MTEXT
  5
3E0F
330
3E06
100
AcDbEntity
  8
0
 62
     0
440
 16777216
100
AcDbMText
 10
1435.294213688734
 20
998.7507657077747
 30
0.0
 40
0.18
 41
0.0
 46
0.0
 71
     5
 72
     1
  1
\A1;27.0000
 73
     1
 44
1.0
  0
POINT
  5
3E10
330
3E06
100
AcDbEntity
  8
Defpoints
 62
     0
440
 16777216
100
AcDbPoint
 10
1421.794213688733
 20
947.7607139399363
 30
0.0
  0
POINT
  5
3E11
330
3E06
100
AcDbEntity
  8
Defpoints
 62
     0
440
 16777216
100
AcDbPoint
 10
1448.794213688734
 20
947.7607139399363
 30
0.0
  0
POINT
  5
3E12
330
3E06
100
AcDbEntity
  8
Defpoints
 62
     0
440
 16777216
100
AcDbPoint
 10
1448.794213688734
 20
998.7507657077747
 30
0.0
  0
ENDBLK
  5
3E08
330
3E06
100
AcDbEntity
  8
0
100
AcDbBlockEnd
  0
BLOCK
  5
3E15
330
3E14
100
AcDbEntity
  8
0
100
AcDbBlockBegin
  2
*D44
 70
     1
 10
0.0
 20
0.0
 30
0.0
  3
*D44
  1

  0
LINE
  5
3E17
330
3E14
100
AcDbEntity
  8
0
 62
     0
440
 16777216
370
    -2
100
AcDbLine
 10
1435.294213688734
 20
967.8232139399366
 30
0.0
 11
1435.294213688734
 21
1001.339272129526
 31
0.0
  0
LINE
  5
3E18
330
3E14
100
AcDbEntity
  8
0
 62
     0
440
 16777216
370
    -2
100
AcDbLine
 10
1410.294213688734
 20
967.8232139399366
 30
0.0
 11
1410.294213688734
 21
1001.339272129526
 31
0.0
  0
LINE
  5
3E19
330
3E14
100
AcDbEntity
  8
0
 62
     0
440
 16777216
370
    -2
100
AcDbLine
 10
1435.114213688733
 20
1001.159272129526
 30
0.0
 11
1423.364213688734
 21
1001.159272129526
 31
0.0
  0
LINE
  5
3E1A
330
3E14
100
AcDbEntity
  8
0
 62
     0
440
 16777216
370
    -2
100
AcDbLine
 10
1410.474213688734
 20
1001.159272129526
 30
0.0
 11
1422.224213688734
 21
1001.159272129526
 31
0.0
  0
SOLID
  5
3E1B
330
3E14
100
AcDbEntity
  8
0
 62
     0
440
 16777216
100
AcDbTrace
 10
1435.114213688733
 20
1001.189272129526
 30
0.0
 11
1435.114213688733
 21
1001.129272129526
 31
0.0
 12
1435.294213688734
 22
1001.159272129526
 32
0.0
 13
1435.294213688734
 23
1001.159272129526
 33
0.0
  0
SOLID
  5
3E1C
330
3E14
100
AcDbEntity
  8
0
 62
     0
440
 16777216
100
AcDbTrace
 10
1410.474213688734
 20
1001.189272129526
 30
0.0
 11
1410.474213688734
 21
1001.129272129526
 31
0.0
 12
1410.294213688734
 22
1001.159272129526
 32
0.0
 13
1410.294213688734
 23
1001.159272129526
 33
0.0
  0
MTEXT
  5
3E1D
330
3E14
100
AcDbEntity
  8
0
 62
     0
440
 16777216
100
AcDbMText
 10
1422.794213688734
 20
1001.159272129526
 30
0.0
 40
0.18
 41
0.0
 46
0.0
 71
     5
 72
     1
  1
\A1;25.0000
 73
     1
 44
1.0
  0
POINT
  5
3E1E
330
3E14
100
AcDbEntity
  8
Defpoints
 62
     0
440
 16777216
100
AcDbPoint
 10
1435.294213688734
 20
967.760713939937
 30
0.0
  0
POINT
  5
3E1F
330
3E14
100
AcDbEntity
  8
Defpoints
 62
     0
440
 16777216
100
AcDbPoint
 10
1410.294213688734
 20
967.760713939937
 30
0.0
  0
POINT
  5
3E20
330
3E14
100
AcDbEntity
  8
Defpoints
 62
     0
440
 16777216
100
AcDbPoint
 10
1410.294213688734
 20
1001.159272129526
 30
0.0
  0
ENDBLK
  5
3E16
330
3E14
100
AcDbEntity
  8
0
100
AcDbBlockEnd
  0
BLOCK
  5
45C1
330
45C0
100
AcDbEntity
  8
0
100
AcDbBlockBegin
  2
*D45
 70
     1
 10
0.0
 20
0.0
 30
0.0
  3
*D45
  1

  0
LINE
  5
45F0
330
45C0
100
AcDbEntity
  8
0
 62
     0
440
 16777216
370
    -2
100
AcDbLine
 10
1303.759702977254
 20
689.0286200919709
 30
0.0
 11
1303.759702977254
 21
631.125860376252
 31
0.0
  0
LINE
  5
45F1
330
45C0
100
AcDbEntity
  8
0
 62
     0
440
 16777216
370
    -2
100
AcDbLine
 10
1503.759702977254
 20
689.0286200919709
 30
0.0
 11
1503.759702977254
 21
631.125860376252
 31
0.0
  0
LINE
  5
45F2
330
45C0
100
AcDbEntity
  8
0
 62
     0
440
 16777216
370
    -2
100
AcDbLine
 10
1303.939702977255
 20
631.3058603762518
 30
0.0
 11
1392.003036310588
 21
631.3058603762518
 31
0.0
  0
LINE
  5
45F3
330
45C0
100
AcDbEntity
  8
0
 62
     0
440
 16777216
370
    -2
100
AcDbLine
 10
1503.579702977254
 20
631.3058603762518
 30
0.0
 11
1415.516369643921
 21
631.3058603762518
 31
0.0
  0
SOLID
  5
45F4
330
45C0
100
AcDbEntity
  8
0
 62
     0
440
 16777216
100
AcDbTrace
 10
1303.939702977255
 20
631.335860376252
 30
0.0
 11
1303.939702977255
 21
631.275860376252
 31
0.0
 12
1303.759702977254
 22
631.3058603762518
 32
0.0
 13
1303.759702977254
 23
631.3058603762518
 33
0.0
  0
SOLID
  5
45F5
330
45C0
100
AcDbEntity
  8
0
 62
     0
440
 16777216
100
AcDbTrace
 10
1503.579702977254
 20
631.335860376252
 30
0.0
 11
1503.579702977254
 21
631.275860376252
 31
0.0
 12
1503.759702977254
 22
631.3058603762518
 32
0.0
 13
1503.759702977254
 23
631.3058603762518
 33
0.0
  0
MTEXT
  5
45F6
330
45C0
100
AcDbEntity
  8
0
 62
     0
440
 16777216
100
AcDbMText
 10
1403.759702977255
 20
631.3058603762518
 30
0.0
 40
10.0
 41
0.0
 46
0.0
 71
     5
 72
     1
  1
\A1;200
 73
     1
 44
1.0
  0
POINT
  5
45F7
330
45C0
100
AcDbEntity
  8
Defpoints
 62
     0
440
 16777216
100
AcDbPoint
 10
1303.759702977254
 20
689.0911200919709
 30
0.0000000000000042
  0
POINT
  5
45F8
330
45C0
100
AcDbEntity
  8
Defpoints
 62
     0
440
 16777216
100
AcDbPoint
 10
1503.759702977254
 20
689.0911200919709
 30
-0.0000000000000069
  0
POINT
  5
45F9
330
45C0
100
AcDbEntity
  8
Defpoints
 62
     0
440
 16777216
100
AcDbPoint
 10
1503.759702977254
 20
631.3058603762518
 30
0.0
  0
ENDBLK
  5
45C2
330
45C0
100
AcDbEntity
  8
0
100
AcDbBlockEnd
  0
BLOCK
  5
45CF
330
45CE
100
AcDbEntity
  8
0
100
AcDbBlockBegin
  2
*D46
 70
     1
 10
0.0
 20
0.0
 30
0.0
  3
*D46
  1

  0
LINE
  5
45FA
330
45CE
100
AcDbEntity
  8
0
 62
     0
440
 16777216
370
    -2
100
AcDbLine
 10
925.4567727690668
 20
686.0652718125775
 30
0.0
 11
925.4567727690668
 21
625.1991683506725
 31
0.0
  0
LINE
  5
45FB
330
45CE
100
AcDbEntity
  8
0
 62
     0
440
 16777216
370
    -2
100
AcDbLine
 10
1185.456772769067
 20
686.0652718125775
 30
0.0
 11
1185.456772769067
 21
625.1991683506725
 31
0.0
  0
LINE
  5
45FC
330
45CE
100
AcDbEntity
  8
0
 62
     0
440
 16777216
370
    -2
100
AcDbLine
 10
925.6367727690667
 20
625.3791683506721
 30
0.0
 11
1042.866772769067
 21
625.3791683506721
 31
0.0
  0
LINE
  5
45FD
330
45CE
100
AcDbEntity
  8
0
 62
     0
440
 16777216
370
    -2
100
AcDbLine
 10
1185.276772769067
 20
625.3791683506721
 30
0.0
 11
1068.046772769067
 21
625.3791683506721
 31
0.0
  0
SOLID
  5
45FE
330
45CE
100
AcDbEntity
  8
0
 62
     0
440
 16777216
100
AcDbTrace
 10
925.6367727690667
 20
625.4091683506722
 30
0.0
 11
925.6367727690667
 21
625.3491683506722
 31
0.0
 12
925.4567727690668
 22
625.3791683506721
 32
0.0
 13
925.4567727690668
 23
625.3791683506721
 33
0.0
  0
SOLID
  5
45FF
330
45CE
100
AcDbEntity
  8
0
 62
     0
440
 16777216
100
AcDbTrace
 10
1185.276772769067
 20
625.4091683506722
 30
0.0
 11
1185.276772769067
 21
625.3491683506722
 31
0.0
 12
1185.456772769067
 22
625.3791683506721
 32
0.0
 13
1185.456772769067
 23
625.3791683506721
 33
0.0
  0
MTEXT
  5
4600
330
45CE
100
AcDbEntity
  8
0
 62
     0
440
 16777216
100
AcDbMText
 10
1055.456772769067
 20
625.3791683506721
 30
0.0
 40
10.0
 41
0.0
 46
0.0
 71
     5
 72
     1
  1
\A1;260
 73
     1
 44
1.0
  0
POINT
  5
4601
330
45CE
100
AcDbEntity
  8
Defpoints
 62
     0
440
 16777216
100
AcDbPoint
 10
925.4567727690668
 20
686.1277718125775
 30
0.0
  0
POINT
  5
4602
330
45CE
100
AcDbEntity
  8
Defpoints
 62
     0
440
 16777216
100
AcDbPoint
 10
1185.456772769067
 20
686.1277718125775
 30
0.0
  0
POINT
  5
4603
330
45CE
100
AcDbEntity
  8
Defpoints
 62
     0
440
 16777216
100
AcDbPoint
 10
1185.456772769067
 20
625.3791683506721
 30
0.0
  0
ENDBLK
  5
45D0
330
45CE
100
AcDbEntity
  8
0
100
AcDbBlockEnd
  0
BLOCK
  5
4606
330
4605
100
AcDbEntity
  8
0
100
AcDbBlockBegin
  2
*D47
 70
     1
 10
0.0
 20
0.0
 30
0.0
  3
*D47
  1

  0
LINE
  5
4608
330
4605
100
AcDbEntity
  8
0
 62
     0
440
 16777216
370
    -2
100
AcDbLine
 10
1300.755539921219
 20
588.4243060766634
 30
0.0
 11
1300.755539921219
 21
562.3657022399186
 31
0.0
  0
LINE
  5
4609
330
4605
100
AcDbEntity
  8
0
 62
     0
440
 16777216
370
    -2
100
AcDbLine
 10
1503.759702977254
 20
588.4243060766634
 30
0.0
 11
1503.759702977254
 21
562.3657022399186
 31
0.0
  0
LINE
  5
460A
330
4605
100
AcDbEntity
  8
0
 62
     0
440
 16777216
370
    -2
100
AcDbLine
 10
1300.935539921219
 20
562.5457022399187
 30
0.0
 11
1401.582621449237
 21
562.5457022399187
 31
0.0
  0
LINE
  5
460B
330
4605
100
AcDbEntity
  8
0
 62
     0
440
 16777216
370
    -2
100
AcDbLine
 10
1503.579702977254
 20
562.5457022399187
 30
0.0
 11
1402.932621449236
 21
562.5457022399187
 31
0.0
  0
SOLID
  5
460C
330
4605
100
AcDbEntity
  8
0
 62
     0
440
 16777216
100
AcDbTrace
 10
1300.935539921219
 20
562.5757022399185
 30
0.0
 11
1300.935539921219
 21
562.5157022399187
 31
0.0
 12
1300.755539921219
 22
562.5457022399187
 32
0.0
 13
1300.755539921219
 23
562.5457022399187
 33
0.0
  0
SOLID
  5
460D
330
4605
100
AcDbEntity
  8
0
 62
     0
440
 16777216
100
AcDbTrace
 10
1503.579702977254
 20
562.5757022399185
 30
0.0
 11
1503.579702977254
 21
562.5157022399187
 31
0.0
 12
1503.759702977254
 22
562.5457022399187
 32
0.0
 13
1503.759702977254
 23
562.5457022399187
 33
0.0
  0
MTEXT
  5
460E
330
4605
100
AcDbEntity
  8
0
 62
     0
440
 16777216
100
AcDbMText
 10
1402.257621449237
 20
562.5457022399187
 30
0.0
 40
0.18
 41
0.0
 46
0.0
 71
     5
 72
     1
  1
\A1;203.0042
 73
     1
 44
1.0
  0
POINT
  5
460F
330
4605
100
AcDbEntity
  8
Defpoints
 62
     0
440
 16777216
100
AcDbPoint
 10
1300.755539921219
 20
588.4868060766632
 30
0.0000000000000043
  0
POINT
  5
4610
330
4605
100
AcDbEntity
  8
Defpoints
 62
     0
440
 16777216
100
AcDbPoint
 10
1503.759702977254
 20
588.4868060766632
 30
-0.0000000000000069
  0
POINT
  5
4611
330
4605
100
AcDbEntity
  8
Defpoints
 62
     0
440
 16777216
100
AcDbPoint
 10
1503.759702977254
 20
562.5457022399187
 30
0.0
  0
ENDBLK
  5
4607
330
4605
100
AcDbEntity
  8
0
100
AcDbBlockEnd
  0
BLOCK
  5
4616
330
4615
100
AcDbEntity
  8
0
100
AcDbBlockBegin
  2
*D48
 70
     1
 10
0.0
 20
0.0
 30
0.0
  3
*D48
  1

  0
LINE
  5
4693
330
4615
100
AcDbEntity
  8
HEWI
 62
     0
440
 16777216
370
    -2
100
AcDbLine
 10
1649.654828324622
 20
868.8558789519175
 30
0.0
 11
1649.654828324622
 21
798.9096029390857
 31
0.0
  0
LINE
  5
4694
330
4615
100
AcDbEntity
  8
HEWI
 62
     0
440
 16777216
370
    -2
100
AcDbLine
 10
1624.654828324622
 20
868.8558789519175
 30
0.0
 11
1624.654828324622
 21
798.9096029390857
 31
0.0
  0
LINE
  5
4695
330
4615
100
AcDbEntity
  8
HEWI
 62
     0
440
 16777216
370
    -2
100
AcDbLine
 10
1649.474828324622
 20
799.089602939086
 30
0.0
 11
1637.724828324622
 21
799.089602939086
 31
0.0
  0
LINE
  5
4696
330
4615
100
AcDbEntity
  8
HEWI
 62
     0
440
 16777216
370
    -2
100
AcDbLine
 10
1624.834828324622
 20
799.089602939086
 30
0.0
 11
1636.584828324622
 21
799.089602939086
 31
0.0
  0
SOLID
  5
4697
330
4615
100
AcDbEntity
  8
HEWI
 62
     0
440
 16777216
100
AcDbTrace
 10
1649.474828324622
 20
799.1196029390859
 30
0.0
 11
1649.474828324622
 21
799.0596029390858
 31
0.0
 12
1649.654828324622
 22
799.089602939086
 32
0.0
 13
1649.654828324622
 23
799.089602939086
 33
0.0
  0
SOLID
  5
4698
330
4615
100
AcDbEntity
  8
HEWI
 62
     0
440
 16777216
100
AcDbTrace
 10
1624.834828324622
 20
799.1196029390859
 30
0.0
 11
1624.834828324622
 21
799.0596029390858
 31
0.0
 12
1624.654828324622
 22
799.089602939086
 32
0.0
 13
1624.654828324622
 23
799.089602939086
 33
0.0
  0
MTEXT
  5
4699
330
4615
100
AcDbEntity
  8
HEWI
 62
     0
440
 16777216
100
AcDbMText
 10
1637.154828324622
 20
799.089602939086
 30
0.0
 40
0.18
 41
0.0
 46
0.0
 71
     5
 72
     1
  1
\A1;25.0000
 73
     1
 44
1.0
  0
POINT
  5
469A
330
4615
100
AcDbEntity
  8
Defpoints
 62
     0
440
 16777216
100
AcDbPoint
 10
1649.654828324622
 20
868.9183789519173
 30
0.0
  0
POINT
  5
469B
330
4615
100
AcDbEntity
  8
Defpoints
 62
     0
440
 16777216
100
AcDbPoint
 10
1624.654828324622
 20
868.9183789519173
 30
0.0
  0
POINT
  5
469C
330
4615
100
AcDbEntity
  8
Defpoints
 62
     0
440
 16777216
100
AcDbPoint
 10
1624.654828324622
 20
799.089602939086
 30
0.0
  0
ENDBLK
  5
4617
330
4615
100
AcDbEntity
  8
0
100
AcDbBlockEnd
  0
BLOCK
  5
4624
330
4623
100
AcDbEntity
  8
0
100
AcDbBlockBegin
  2
*D49
 70
     1
 10
0.0
 20
0.0
 30
0.0
  3
*D49
  1

  0
LINE
  5
4689
330
4623
100
AcDbEntity
  8
HEWI
 62
     0
440
 16777216
370
    -2
100
AcDbLine
 10
1636.154828324622
 20
888.4316148832054
 30
0.0
 11
1636.154828324622
 21
811.3307394211162
 31
0.0
  0
LINE
  5
468A
330
4623
100
AcDbEntity
  8
HEWI
 62
     0
440
 16777216
370
    -2
100
AcDbLine
 10
1663.154828324621
 20
888.4316148832054
 30
0.0
 11
1663.154828324621
 21
811.3307394211162
 31
0.0
  0
LINE
  5
468B
330
4623
100
AcDbEntity
  8
HEWI
 62
     0
440
 16777216
370
    -2
100
AcDbLine
 10
1636.334828324622
 20
811.5107394211161
 30
0.0
 11
1649.084828324622
 21
811.5107394211161
 31
0.0
  0
LINE
  5
468C
330
4623
100
AcDbEntity
  8
HEWI
 62
     0
440
 16777216
370
    -2
100
AcDbLine
 10
1662.974828324622
 20
811.5107394211161
 30
0.0
 11
1650.224828324622
 21
811.5107394211161
 31
0.0
  0
SOLID
  5
468D
330
4623
100
AcDbEntity
  8
HEWI
 62
     0
440
 16777216
100
AcDbTrace
 10
1636.334828324622
 20
811.5407394211162
 30
0.0
 11
1636.334828324622
 21
811.4807394211164
 31
0.0
 12
1636.154828324622
 22
811.5107394211161
 32
0.0
 13
1636.154828324622
 23
811.5107394211161
 33
0.0
  0
SOLID
  5
468E
330
4623
100
AcDbEntity
  8
HEWI
 62
     0
440
 16777216
100
AcDbTrace
 10
1662.974828324622
 20
811.5407394211162
 30
0.0
 11
1662.974828324622
 21
811.4807394211164
 31
0.0
 12
1663.154828324621
 22
811.5107394211161
 32
0.0
 13
1663.154828324621
 23
811.5107394211161
 33
0.0
  0
MTEXT
  5
468F
330
4623
100
AcDbEntity
  8
HEWI
 62
     0
440
 16777216
100
AcDbMText
 10
1649.654828324622
 20
811.5107394211161
 30
0.0
 40
0.18
 41
0.0
 46
0.0
 71
     5
 72
     1
  1
\A1;27.0000
 73
     1
 44
1.0
  0
POINT
  5
4690
330
4623
100
AcDbEntity
  8
Defpoints
 62
     0
440
 16777216
100
AcDbPoint
 10
1636.154828324622
 20
888.4941148832053
 30
0.0
  0
POINT
  5
4691
330
4623
100
AcDbEntity
  8
Defpoints
 62
     0
440
 16777216
100
AcDbPoint
 10
1663.154828324621
 20
888.4941148832053
 30
0.0
  0
POINT
  5
4692
330
4623
100
AcDbEntity
  8
Defpoints
 62
     0
440
 16777216
100
AcDbPoint
 10
1663.154828324621
 20
811.5107394211161
 30
0.0
  0
ENDBLK
  5
4625
330
4623
100
AcDbEntity
  8
0
100
AcDbBlockEnd
  0
BLOCK
  5
4634
330
4633
100
AcDbEntity
  8
0
100
AcDbBlockBegin
  2
*D50
 70
     1
 10
0.0
 20
0.0
 30
0.0
  3
*D50
  1

  0
LINE
  5
4636
330
4633
100
AcDbEntity
  8
0
 62
     0
440
 16777216
370
    -2
100
AcDbLine
 10
927.0567727690673
 20
290.4207596933428
 30
0.0
 11
927.0567727690673
 21
254.278553563908
 31
0.0
  0
LINE
  5
4637
330
4633
100
AcDbEntity
  8
0
 62
     0
440
 16777216
370
    -2
100
AcDbLine
 10
1183.856772769067
 20
290.4207596933428
 30
0.0
 11
1183.856772769067
 21
254.278553563908
 31
0.0
  0
LINE
  5
4638
330
4633
100
AcDbEntity
  8
0
 62
     0
440
 16777216
370
    -2
100
AcDbLine
 10
927.2367727690673
 20
254.458553563908
 30
0.0
 11
1054.781772769067
 21
254.458553563908
 31
0.0
  0
LINE
  5
4639
330
4633
100
AcDbEntity
  8
0
 62
     0
440
 16777216
370
    -2
100
AcDbLine
 10
1183.676772769067
 20
254.458553563908
 30
0.0
 11
1056.131772769067
 21
254.458553563908
 31
0.0
  0
SOLID
  5
463A
330
4633
100
AcDbEntity
  8
0
 62
     0
440
 16777216
100
AcDbTrace
 10
927.2367727690673
 20
254.488553563908
 30
0.0
 11
927.2367727690673
 21
254.428553563908
 31
0.0
 12
927.0567727690673
 22
254.458553563908
 32
0.0
 13
927.0567727690673
 23
254.458553563908
 33
0.0
  0
SOLID
  5
463B
330
4633
100
AcDbEntity
  8
0
 62
     0
440
 16777216
100
AcDbTrace
 10
1183.676772769067
 20
254.488553563908
 30
0.0
 11
1183.676772769067
 21
254.428553563908
 31
0.0
 12
1183.856772769067
 22
254.458553563908
 32
0.0
 13
1183.856772769067
 23
254.458553563908
 33
0.0
  0
MTEXT
  5
463C
330
4633
100
AcDbEntity
  8
0
 62
     0
440
 16777216
100
AcDbMText
 10
1055.456772769067
 20
254.458553563908
 30
0.0
 40
0.18
 41
0.0
 46
0.0
 71
     5
 72
     1
  1
\A1;256.8000
 73
     1
 44
1.0
  0
POINT
  5
463D
330
4633
100
AcDbEntity
  8
Defpoints
 62
     0
440
 16777216
100
AcDbPoint
 10
927.0567727690673
 20
290.4832596933429
 30
0.0
  0
POINT
  5
463E
330
4633
100
AcDbEntity
  8
Defpoints
 62
     0
440
 16777216
100
AcDbPoint
 10
1183.856772769067
 20
290.4832596933429
 30
0.0
  0
POINT
  5
463F
330
4633
100
AcDbEntity
  8
Defpoints
 62
     0
440
 16777216
100
AcDbPoint
 10
1183.856772769067
 20
254.458553563908
 30
0.0
  0
ENDBLK
  5
4635
330
4633
100
AcDbEntity
  8
0
100
AcDbBlockEnd
  0
BLOCK
  5
4647
330
4646
100
AcDbEntity
  8
0
100
AcDbBlockBegin
  2
*D51
 70
     1
 10
0.0
 20
0.0
 30
0.0
  3
*D51
  1

  0
LINE
  5
4649
330
4646
100
AcDbEntity
  8
0
 62
     0
440
 16777216
370
    -2
100
AcDbLine
 10
1437.759702977253
 20
990.5566148832043
 30
0.0
 11
1437.759702977253
 21
1005.695579689725
 31
0.0
  0
LINE
  5
464A
330
4646
100
AcDbEntity
  8
0
 62
     0
440
 16777216
370
    -2
100
AcDbLine
 10
1513.759702977253
 20
989.5566148832044
 30
0.0
 11
1513.759702977253
 21
1005.695579689725
 31
0.0
  0
LINE
  5
464B
330
4646
100
AcDbEntity
  8
0
 62
     0
440
 16777216
370
    -2
100
AcDbLine
 10
1437.939702977253
 20
1005.515579689725
 30
0.0
 11
1475.189702977253
 21
1005.515579689725
 31
0.0
  0
LINE
  5
464C
330
4646
100
AcDbEntity
  8
0
 62
     0
440
 16777216
370
    -2
100
AcDbLine
 10
1513.579702977253
 20
1005.515579689725
 30
0.0
 11
1476.329702977253
 21
1005.515579689725
 31
0.0
  0
SOLID
  5
464D
330
4646
100
AcDbEntity
  8
0
 62
     0
440
 16777216
100
AcDbTrace
 10
1437.939702977253
 20
1005.545579689725
 30
0.0
 11
1437.939702977253
 21
1005.485579689725
 31
0.0
 12
1437.759702977253
 22
1005.515579689725
 32
0.0
 13
1437.759702977253
 23
1005.515579689725
 33
0.0
  0
SOLID
  5
464E
330
4646
100
AcDbEntity
  8
0
 62
     0
440
 16777216
100
AcDbTrace
 10
1513.579702977253
 20
1005.545579689725
 30
0.0
 11
1513.579702977253
 21
1005.485579689725
 31
0.0
 12
1513.759702977253
 22
1005.515579689725
 32
0.0
 13
1513.759702977253
 23
1005.515579689725
 33
0.0
  0
MTEXT
  5
464F
330
4646
100
AcDbEntity
  8
0
 62
     0
440
 16777216
100
AcDbMText
 10
1475.759702977253
 20
1005.515579689725
 30
0.0
 40
0.18
 41
0.0
 46
0.0
 71
     5
 72
     1
  1
\A1;76.0000
 73
     1
 44
1.0
  0
POINT
  5
4650
330
4646
100
AcDbEntity
  8
Defpoints
 62
     0
440
 16777216
100
AcDbPoint
 10
1437.759702977253
 20
990.4941148832044
 30
-0.0000000000000033
  0
POINT
  5
4651
330
4646
100
AcDbEntity
  8
Defpoints
 62
     0
440
 16777216
100
AcDbPoint
 10
1513.759702977253
 20
989.4941148832044
 30
0.0000000000000067
  0
POINT
  5
4652
330
4646
100
AcDbEntity
  8
Defpoints
 62
     0
440
 16777216
100
AcDbPoint
 10
1513.759702977253
 20
1005.515579689725
 30
0.0
  0
ENDBLK
  5
4648
330
4646
100
AcDbEntity
  8
0
100
AcDbBlockEnd
  0
BLOCK
  5
4655
330
4654
100
AcDbEntity
  8
0
100
AcDbBlockBegin
  2
*D52
 70
     1
 10
0.0
 20
0.0
 30
0.0
  3
*D52
  1

  0
LINE
  5
4657
330
4654
100
AcDbEntity
  8
0
 62
     0
440
 16777216
370
    -2
100
AcDbLine
 10
1742.154828324624
 20
988.5566148832056
 30
0.0
 11
1742.154828324624
 21
1003.915647735725
 31
0.0
  0
LINE
  5
4658
330
4654
100
AcDbEntity
  8
0
 62
     0
440
 16777216
370
    -2
100
AcDbLine
 10
1767.154828324624
 20
988.5566148832056
 30
0.0
 11
1767.154828324624
 21
1003.915647735725
 31
0.0
  0
LINE
  5
4659
330
4654
100
AcDbEntity
  8
0
 62
     0
440
 16777216
370
    -2
100
AcDbLine
 10
1742.334828324624
 20
1003.735647735725
 30
0.0
 11
1754.084828324624
 21
1003.735647735725
 31
0.0
  0
LINE
  5
465A
330
4654
100
AcDbEntity
  8
0
 62
     0
440
 16777216
370
    -2
100
AcDbLine
 10
1766.974828324624
 20
1003.735647735725
 30
0.0
 11
1755.224828324624
 21
1003.735647735725
 31
0.0
  0
SOLID
  5
465B
330
4654
100
AcDbEntity
  8
0
 62
     0
440
 16777216
100
AcDbTrace
 10
1742.334828324624
 20
1003.765647735725
 30
0.0
 11
1742.334828324624
 21
1003.705647735725
 31
0.0
 12
1742.154828324624
 22
1003.735647735725
 32
0.0
 13
1742.154828324624
 23
1003.735647735725
 33
0.0
  0
SOLID
  5
465C
330
4654
100
AcDbEntity
  8
0
 62
     0
440
 16777216
100
AcDbTrace
 10
1766.974828324624
 20
1003.765647735725
 30
0.0
 11
1766.974828324624
 21
1003.705647735725
 31
0.0
 12
1767.154828324624
 22
1003.735647735725
 32
0.0
 13
1767.154828324624
 23
1003.735647735725
 33
0.0
  0
MTEXT
  5
465D
330
4654
100
AcDbEntity
  8
0
 62
     0
440
 16777216
100
AcDbMText
 10
1754.654828324624
 20
1003.735647735725
 30
0.0
 40
0.18
 41
0.0
 46
0.0
 71
     5
 72
     1
  1
\A1;25.0000
 73
     1
 44
1.0
  0
POINT
  5
465E
330
4654
100
AcDbEntity
  8
Defpoints
 62
     0
440
 16777216
100
AcDbPoint
 10
1742.154828324624
 20
988.4941148832055
 30
0.0
  0
POINT
  5
465F
330
4654
100
AcDbEntity
  8
Defpoints
 62
     0
440
 16777216
100
AcDbPoint
 10
1767.154828324624
 20
988.4941148832055
 30
0.0
  0
POINT
  5
4660
330
4654
100
AcDbEntity
  8
Defpoints
 62
     0
440
 16777216
100
AcDbPoint
 10
1767.154828324624
 20
1003.735647735725
 30
0.0
  0
ENDBLK
  5
4656
330
4654
100
AcDbEntity
  8
0
100
AcDbBlockEnd
  0
ENDSEC
  0
SECTION
  2
ENTITIES
  0
LWPOLYLINE
  5
49A3
330
1F
100
AcDbEntity
  8
HEWI
  6
CUSTOM
 62
    18
420
        0
370
     9
100
AcDbPolyline
 90
        3
 70
     0
 43
0.0
 10
691.6673253568447
 20
1003.331917837746
 10
691.4607136448003
 20
1003.349460642105
 10
691.3192922874205
 20
1003.349460642105
  0
LINE
  5
49A4
330
1F
100
AcDbEntity
  8
HEWI
  6
CUSTOM
 62
    18
420
        0
370
     9
100
AcDbLine
 10
691.4199902956275
 20
1002.549460649009
 30
0.0
 11
691.4607136448003
 21
1002.549460649009
 31
0.0
  0
LWPOLYLINE
  5
49A5
330
1F
100
AcDbEntity
  8
HEWI
  6
CUSTOM
 62
    18
420
        0
370
     9
100
AcDbPolyline
 90
        3
 70
     0
 43
0.0
 10
691.6107136503605
 20
1001.949460660148
 10
691.6107136502128
 20
1002.525502943918
 10
691.669489667237
 20
1002.504386233606
  0
LINE
  5
49A6
330
1F
100
AcDbEntity
  8
HEWI
  6
CUSTOM
 62
    18
420
        0
370
     9
100
AcDbLine
 10
691.7262331565634
 20
1002.478289962967
 30
0.0
 11
691.7797841943698
 21
1002.445346722117
 31
0.0
  0
LINE
  5
49A7
330
1F
100
AcDbEntity
  8
HEWI
  6
CUSTOM
 62
    18
420
        0
370
     9
100
AcDbLine
 10
493.6726586068121
 20
1002.05554017158
 30
0.0
 11
493.6607063151781
 21
1001.949460654187
 31
0.0
  0
LINE
  5
49A8
330
1F
100
AcDbEntity
  8
HEWI
  6
CUSTOM
 62
    18
420
        0
370
     9
100
AcDbLine
 10
691.8304793216853
 20
1002.408246820906
 30
0.0
 11
691.8767305737142
 21
1002.365477560199
 31
0.0
  0
LINE
  5
49A9
330
1F
100
AcDbEntity
  8
HEWI
  6
CUSTOM
 62
    18
420
        0
370
     9
100
AcDbLine
 10
691.9194998320691
 20
1002.319226314731
 30
0.0
 11
691.9565997338682
 21
1002.268531191188
 31
0.0
  0
LINE
  5
49AA
330
1F
100
AcDbEntity
  8
HEWI
  6
CUSTOM
 62
    18
420
        0
370
     9
100
AcDbLine
 10
691.9895429780913
 20
1002.214980153108
 30
0.0
 11
692.0156392502772
 21
1002.158236665811
 31
0.0
  0
LINE
  5
49AB
330
1F
100
AcDbEntity
  8
HEWI
  6
CUSTOM
 62
    18
420
        0
370
     9
100
AcDbLine
 10
494.1191438305386
 20
1002.528534320012
 30
0.0
 11
494.1488567686305
 21
1002.536049049522
 31
0.0
  0
LWPOLYLINE
  5
49AC
330
1F
100
AcDbEntity
  8
HEWI
  6
CUSTOM
 62
    18
420
        0
370
     9
100
AcDbPolyline
 90
       18
 70
     0
 43
0.0
 10
492.860706290959
 20
922.9695623538619
 10
490.8322790856223
 20
920.9411352411922
 10
490.7576613841879
 20
920.8502133130771
 10
490.702215430007
 20
920.7464812335793
 10
490.6680719800069
 20
920.6339253683411
 10
490.6565431478216
 20
920.5168711761412
 10
490.6565431478216
 20
904.3567703029209
 10
489.8565431181773
 20
904.3567703029209
 10
489.8565431181773
 20
920.5168711761412
 10
489.8834437266091
 20
920.789997624608
 10
489.9631117766116
 20
921.05262797683
 10
490.0924856696965
 20
921.2946694956572
 10
490.2665936397116
 20
921.506820661261
 10
492.6849703477333
 20
923.9251972587982
 10
492.7595880491676
 20
924.0161191869136
 10
492.8150340033462
 20
924.1198512664114
 10
492.8491774533463
 20
924.2324071316495
 10
492.8607062855316
 20
924.3494613238494
  0
LINE
  5
49AD
330
1F
100
AcDbEntity
  8
HEWI
  6
CUSTOM
 62
    18
420
        0
370
     9
100
AcDbLine
 10
493.6607063151781
 20
1001.949460654187
 30
0.0
 11
493.674117915888
 21
1002.061310220127
 31
0.0
  0
LWPOLYLINE
  5
49AE
330
1F
100
AcDbEntity
  8
HEWI
  6
CUSTOM
 62
    18
420
        0
370
     9
100
AcDbPolyline
 90
       18
 70
     0
 43
0.0
 10
492.8607062855316
 20
884.3494616690346
 10
492.8491774533463
 20
884.4665158612345
 10
492.8150340033462
 20
884.5790717264726
 10
492.7595880491676
 20
884.6828038059705
 10
492.6849703477333
 20
884.7737257340856
 10
490.2665936397093
 20
887.1921023316243
 10
490.0924856696965
 20
887.4042534972268
 10
489.9631117766094
 20
887.646295016054
 10
489.8834437266091
 20
887.9089253682771
 10
489.8565431181773
 20
888.1820518167417
 10
489.8565431181773
 20
904.3421526899631
 10
490.6565431478216
 20
904.3421526899631
 10
490.6565431478216
 20
888.1820518167417
 10
490.6680719800069
 20
888.0649976245429
 10
490.702215430007
 20
887.9524417593048
 10
490.7576613841879
 20
887.8487096798069
 10
490.8322790856223
 20
887.7577877516916
 10
492.8607062549226
 20
885.7293606750586
  0
LINE
  5
49AF
330
1F
100
AcDbEntity
  8
HEWI
  6
CUSTOM
 62
    18
420
        0
370
     9
100
AcDbLine
 10
692.0397873370816
 20
1002.091023154593
 30
0.0
 11
692.0473020669342
 21
1002.061310217859
 31
0.0
  0
LINE
  5
49B0
330
1F
100
AcDbEntity
  8
HEWI
  6
CUSTOM
 62
    18
420
        0
370
     9
100
AcDbLine
 10
493.6816326449334
 20
1002.091023154018
 30
0.0
 11
493.7057807326428
 21
1002.158236667086
 31
0.0
  0
LWPOLYLINE
  5
49B1
330
1F
100
AcDbEntity
  8
HEWI
  6
CUSTOM
 62
    18
420
        0
370
     9
100
AcDbPolyline
 90
       18
 70
     0
 43
0.0
 10
492.8607062909613
 20
622.969564942759
 10
490.8322790856223
 20
620.9411378300894
 10
490.7576613841879
 20
620.8502159019742
 10
490.7022154300093
 20
620.7464838224764
 10
490.6680719800092
 20
620.6339279572394
 10
490.6565431478238
 20
620.5168737650394
 10
490.6565431478238
 20
604.3567728918181
 10
489.8565431181796
 20
604.3567728918181
 10
489.8565431181796
 20
620.5168737650394
 10
489.8834437266113
 20
620.7900002135052
 10
489.9631117766116
 20
621.0526305657272
 10
490.0924856696987
 20
621.2946720845543
 10
490.2665936397116
 20
621.506823250158
 10
492.6849703477378
 20
623.9251998476943
 10
492.7595880491721
 20
624.0161217758107
 10
492.8150340033507
 20
624.1198538553085
 10
492.8491774533508
 20
624.2324097205455
 10
492.8607062855362
 20
624.3494639127455
  0
LWPOLYLINE
  5
49B2
330
1F
100
AcDbEntity
  8
HEWI
  6
CUSTOM
 62
    18
420
        0
370
     9
100
AcDbPolyline
 90
       18
 70
     0
 43
0.0
 10
492.860706285534
 20
584.3494642579316
 10
492.8491774533486
 20
584.4665184501316
 10
492.8150340033485
 20
584.5790743153697
 10
492.7595880491676
 20
584.6828063948664
 10
492.6849703477333
 20
584.7737283229828
 10
490.2665936397116
 20
587.1921049205202
 10
490.0924856696965
 20
587.4042560861227
 10
489.9631117766116
 20
587.646297604951
 10
489.8834437266091
 20
587.908927957173
 10
489.8565431181773
 20
588.1820544056377
 10
489.8565431181773
 20
604.3421552788601
 10
490.6565431478216
 20
604.3421552788601
 10
490.6565431478216
 20
588.1820544056377
 10
490.6680719800069
 20
588.0650002134388
 10
490.702215430007
 20
587.9524443482007
 10
490.7576613841879
 20
587.8487122687029
 10
490.8322790856223
 20
587.7577903405876
 10
492.8607062549226
 20
585.7293632639557
  0
LINE
  5
49B3
330
1F
100
AcDbEntity
  8
HEWI
  6
CUSTOM
 62
    18
420
        0
370
     9
100
AcDbLine
 10
493.890940659975
 20
1002.408246820495
 30
0.0
 11
493.941635785833
 21
1002.445346720601
 31
0.0
  0
LINE
  5
49B4
330
1F
100
AcDbEntity
  8
HEWI
  6
CUSTOM
 62
    18
420
        0
370
     9
100
AcDbLine
 10
493.7318770044717
 20
1002.214980153818
 30
0.0
 11
493.764820246828
 21
1002.26853118918
 31
0.0
  0
LINE
  5
49B5
330
1F
100
AcDbEntity
  8
HEWI
  6
CUSTOM
 62
    18
420
        0
370
     9
100
AcDbLine
 10
493.8019201497345
 20
1002.319226314178
 30
0.0
 11
493.8446894123958
 21
1002.365477564095
 31
0.0
  0
LINE
  5
49B6
330
1F
100
AcDbEntity
  8
HEWI
  6
CUSTOM
 62
    18
420
        0
370
     9
100
AcDbLine
 10
493.995186826361
 20
1002.478289963316
 30
0.0
 11
494.0519303162513
 21
1002.504386234311
 31
0.0
  0
LWPOLYLINE
  5
49B7
330
1F
100
AcDbEntity
  8
HEWI
  6
CUSTOM
 62
    18
420
        0
370
     9
100
AcDbPolyline
 90
       28
 70
     0
 43
0.0
 10
521.8574633527159
 20
503.3494649569338
 10
521.8324115974783
 20
503.1269440248975
 10
521.7585125313794
 20
502.9155812215613
 10
521.6394717621724
 20
502.7259751604556
 10
521.4812584910933
 20
502.567633481213
 10
521.291806192195
 20
502.4484960968067
 10
521.0806147948292
 20
502.3745370531657
 10
520.8582743175193
 20
502.3494649655636
 10
520.8000792769748
 20
502.3494649655636
 10
520.5710586161935
 20
502.3494649655636
 10
520.184522183521
 20
502.3494649655636
 10
519.6629340714244
 20
502.3494649655636
 10
519.0366070850805
 20
502.3494649655636
 10
518.3419410723322
 20
502.3494649655636
 10
517.6193074968309
 20
502.3494649655636
 10
516.9107031953185
 20
502.3494649655636
 10
516.2573096741279
 20
502.3494649655636
 10
515.6970997897214
 20
502.3494649655636
 10
515.2626309043003
 20
502.3494649655636
 10
514.9791527702554
 20
502.3494649655636
 10
514.8631401063348
 20
502.3494649655636
 10
514.6407996290249
 20
502.3745370531657
 10
514.4296082316591
 20
502.4484960968067
 10
514.2401559327608
 20
502.567633481213
 10
514.0819426616817
 20
502.7259751604556
 10
513.9629018924725
 20
502.9155812215613
 10
513.8890028263758
 20
503.1269440248975
 10
513.8639510711382
 20
503.3494649569338
  0
LWPOLYLINE
  5
49B8
330
1F
100
AcDbEntity
  8
HEWI
  6
CUSTOM
 62
    18
420
        0
370
     9
100
AcDbPolyline
 90
       28
 70
     0
 43
0.0
 10
680.8607132520083
 20
503.3494649569338
 10
680.8857853407576
 20
503.1269440248975
 10
680.9597443877773
 20
502.9155812215613
 10
681.078881777627
 20
502.7259751604556
 10
681.2372234641034
 20
502.567633481213
 10
681.4268295338697
 20
502.4484960968067
 10
681.6381923468625
 20
502.3745370531657
 10
681.8607132890647
 20
502.3494649655636
 10
681.9478878400186
 20
502.3494649655636
 10
682.2043452248399
 20
502.3494649655636
 10
682.6151810725096
 20
502.3494649655636
 10
683.156519096889
 20
502.3494649655636
 10
683.7968986996852
 20
502.3494649655636
 10
684.4991033460669
 20
502.3494649655636
 10
685.2223234543989
 20
502.3494649655636
 10
685.9245281007806
 20
502.3494649655636
 10
686.5649077035769
 20
502.3494649655636
 10
687.1062457279563
 20
502.3494649655636
 10
687.5170815756259
 20
502.3494649655636
 10
687.7735389604472
 20
502.3494649655636
 10
687.8607135113989
 20
502.3494649655636
 10
688.0832344536011
 20
502.3745370531657
 10
688.2945972665961
 20
502.4484960968067
 10
688.4842033363625
 20
502.567633481213
 10
688.6425450228389
 20
502.7259751604556
 10
688.7616824126885
 20
502.9155812215613
 10
688.8356414597083
 20
503.1269440248975
 10
688.8607135484553
 20
503.3494649569338
  0
LINE
  5
49B9
330
1F
100
AcDbEntity
  8
HEWI
  6
CUSTOM
 62
    18
420
        0
370
     9
100
AcDbLine
 10
510.0607069825005
 20
504.14946495003
 30
0.0
 11
511.0607069599532
 21
504.14946495003
 31
0.0
  0
LINE
  5
49BA
330
1F
100
AcDbEntity
  8
HEWI
  6
CUSTOM
 62
    18
420
        0
370
     9
100
AcDbLine
 10
678.8607131182985
 20
504.9494649431274
 30
0.0
 11
677.8607131408457
 21
504.9494649431274
 31
0.0
  0
LWPOLYLINE
  5
49BB
330
1F
100
AcDbEntity
  8
HEWI
  6
CUSTOM
 62
    18
420
        0
370
     9
100
AcDbPolyline
 90
        3
 70
     0
 43
0.0
 10
494.2607063374125
 20
1001.949460654187
 10
494.2607063374125
 20
1002.449460649872
 10
494.2942168916524
 20
1002.449460649872
  0
LINE
  5
49BC
330
1F
100
AcDbEntity
  8
HEWI
  6
CUSTOM
 62
    18
420
        0
370
     9
100
AcDbLine
 10
493.9491770183294
 20
1003.314359719463
 30
0.0
 11
494.2607063374125
 21
1003.349460642105
 31
0.0
  0
LINE
  5
49BD
330
1F
100
AcDbEntity
  8
HEWI
  6
CUSTOM
 62
    18
420
        0
370
     9
100
AcDbLine
 10
493.6532690801382
 20
1003.210817058366
 30
0.0
 11
493.9491770183294
 21
1003.314359719463
 31
0.0
  0
LWPOLYLINE
  5
49BE
330
1F
100
AcDbEntity
  8
HEWI
  6
CUSTOM
 62
    18
420
        0
370
     9
100
AcDbPolyline
 90
        6
 70
     0
 43
0.0
 10
493.9689169601742
 20
1003.314472913468
 10
493.6932234733412
 20
1003.215423338635
 10
493.4424962939342
 20
1003.061182334223
 10
493.2256058389762
 20
1002.860620316852
 10
493.0514225254946
 20
1002.622607703138
 10
492.9288167705103
 20
1002.356014909702
  0
LINE
  5
49BF
330
1F
100
AcDbEntity
  8
HEWI
  6
CUSTOM
 62
    18
420
        0
370
     9
100
AcDbLine
 10
677.8607131408457
 20
504.1494649500312
 30
0.0
 11
678.8607131853532
 21
504.1494649500312
 31
0.0
  0
LINE
  5
49C0
330
1F
100
AcDbEntity
  8
HEWI
  6
CUSTOM
 62
    18
420
        0
370
     9
100
AcDbLine
 10
511.0607069599532
 20
504.9494649431262
 30
0.0
 11
510.0607069050161
 21
504.9494649431262
 31
0.0
  0
LWPOLYLINE
  5
49C1
330
1F
100
AcDbEntity
  8
HEWI
  6
CUSTOM
 62
    18
420
        0
370
     9
100
AcDbPolyline
 90
        5
 70
     0
 43
0.0
 10
492.9288167705103
 20
1002.356014909702
 10
492.9993498756098
 20
1002.556897883709
 10
493.1661422213974
 20
1002.822346369257
 10
493.3878205824648
 20
1003.044024720197
 10
493.6532690801382
 20
1003.210817058366
  0
LWPOLYLINE
  5
49C2
330
1F
100
AcDbEntity
  8
HEWI
  6
CUSTOM
 62
    18
420
        0
370
     9
100
AcDbPolyline
 90
        3
 70
     0
 43
0.0
 10
492.9288167705103
 20
1002.356014909702
 10
492.8958072097807
 20
1002.260989959038
 10
492.8782490906964
 20
1002.156072356791
  0
LWPOLYLINE
  5
49C3
330
1F
100
AcDbEntity
  8
HEWI
  6
CUSTOM
 62
    18
420
        0
370
     9
100
AcDbPolyline
 90
        8
 70
     0
 43
0.0
 10
493.6898965230252
 20
1002.123698192264
 10
493.7424418465902
 20
1002.237952246596
 10
493.8170918380833
 20
1002.339957652472
 10
493.9100448902072
 20
1002.425912802774
 10
494.017499395667
 20
1002.492016090379
 10
494.1356537471679
 20
1002.534465908165
 10
494.2607063374125
 20
1002.549460649009
 10
494.3013661580439
 20
1002.549460649009
  0
LWPOLYLINE
  5
49C4
330
1F
100
AcDbEntity
  8
HEWI
  6
CUSTOM
 62
    18
420
        0
370
     9
100
AcDbPolyline
 90
       40
 70
     0
 43
0.0
 10
692.8607136966789
 20
1001.949460654187
 10
692.8607136966789
 20
503.3494649569338
 10
692.8256127724344
 20
503.3494649569338
 10
692.7220701066053
 20
503.3494649569338
 10
692.5552777608154
 20
503.3494649569338
 10
692.3335993997479
 20
503.3494649569338
 10
692.0681509020746
 20
503.3494649569338
 10
691.7722429638834
 20
503.3494649569338
 10
691.4607136448003
 20
503.3494649569338
 10
678.8607131778999
 20
503.3494649569338
 10
678.8607131778999
 20
505.3494649396744
 10
677.8607131408435
 20
505.3494649396744
 10
677.8607131408435
 20
504.7494649448521
 10
677.8607131408435
 20
504.4379356400026
 10
677.8607131408435
 20
504.1420277153299
 10
677.8607131408435
 20
503.8765792297835
 10
677.8607131408435
 20
503.6549008788433
 10
677.8607131408435
 20
503.4881085406738
 10
677.8607131408435
 20
503.3845658795764
 10
677.8607131408435
 20
503.3494649569338
 10
511.0607069599486
 20
503.3494649569338
 10
511.0607069599486
 20
503.3845658795764
 10
511.0607069599486
 20
503.4881085406738
 10
511.0607069599486
 20
503.6549008788433
 10
511.0607069599486
 20
503.8765792297835
 10
511.0607069599486
 20
504.1420277153299
 10
511.0607069599486
 20
504.4379356400026
 10
511.0607069599486
 20
504.7494649448521
 10
511.0607069599486
 20
505.3494649396744
 10
510.0607069228922
 20
505.3494649396744
 10
510.0607069228922
 20
503.3494649569338
 10
494.2607063374125
 20
503.3494649569338
 10
493.9491770183294
 20
503.3494649569338
 10
493.6532690801382
 20
503.3494649569338
 10
493.3878205824648
 20
503.3494649569338
 10
493.1661422213974
 20
503.3494649569338
 10
492.9993498756098
 20
503.3494649569338
 10
492.8958072097807
 20
503.3494649569338
 10
492.860706285534
 20
503.3494649569338
 10
492.860706285534
 20
1001.949460654187
  0
LINE
  5
49C5
330
1F
100
AcDbEntity
  8
HEWI
  6
CUSTOM
 62
    18
420
        0
370
     9
100
AcDbLine
 10
492.9288167705103
 20
1002.356014909702
 30
0.0
 11
492.8782490906964
 21
1002.156072356791
 31
0.0
  0
LINE
  5
49C6
330
1F
100
AcDbEntity
  8
HEWI
  6
CUSTOM
 62
    18
420
        0
370
     9
100
AcDbLine
 10
492.8782490906964
 20
1002.156072356791
 30
0.0
 11
492.860706285534
 21
1001.949460654187
 31
0.0
  0
LWPOLYLINE
  5
49C7
330
1F
100
AcDbEntity
  8
HEWI
  6
CUSTOM
 62
    18
420
        0
370
     9
100
AcDbPolyline
 90
        3
 70
     0
 43
0.0
 10
493.6607063151781
 20
1001.949460654187
 10
493.6682246602495
 20
1002.038008526731
 10
493.6898965230252
 20
1002.123698192264
  0
LWPOLYLINE
  5
49C8
330
1F
100
AcDbEntity
  8
HEWI
  6
CUSTOM
 62
    18
420
        0
370
     9
100
AcDbPolyline
 90
        8
 70
     0
 43
0.0
 10
494.2607063374125
 20
1001.949460654187
 10
493.9491770183294
 20
1001.949460654187
 10
493.6532690801382
 20
1001.949460654187
 10
493.3878205824648
 20
1001.949460654187
 10
493.1661422213974
 20
1001.949460654187
 10
492.9993498756098
 20
1001.949460654187
 10
492.8958072097807
 20
1001.949460654187
 10
492.860706285534
 20
1001.949460654187
  0
LINE
  5
49C9
330
1F
100
AcDbEntity
  8
HEWI
  6
CUSTOM
 62
    18
420
        0
370
     9
100
AcDbLine
 10
691.3192922833232
 20
1003.349460642105
 30
0.0
 11
494.4021276988896
 21
1003.349460642105
 31
0.0
  0
LWPOLYLINE
  5
49CA
330
1F
100
AcDbEntity
  8
HEWI
  6
CUSTOM
 62
    18
420
        0
370
     9
100
AcDbPolyline
 90
       16
 70
     0
 43
0.0
 10
692.8607136966789
 20
1001.949460654187
 10
692.8256127724344
 20
1001.949460654187
 10
692.7220701066053
 20
1001.949460654187
 10
692.5552777608154
 20
1001.949460654187
 10
692.3335993997479
 20
1001.949460654187
 10
692.0681509020746
 20
1001.949460654187
 10
691.7722429638834
 20
1001.949460654187
 10
691.4607136448003
 20
1001.949460654187
 10
691.4472786154615
 20
1002.156072356791
 10
691.4338435861204
 20
1002.356014909702
 10
691.414751702322
 20
1002.622607703138
 10
691.3956598185214
 20
1002.860620316852
 10
691.3765679347207
 20
1003.061182334223
 10
691.3574760509223
 20
1003.215423338635
 10
691.3383841671238
 20
1003.314472913468
 10
691.3192922833232
 20
1003.349460642105
  0
LINE
  5
49CB
330
1F
100
AcDbEntity
  8
HEWI
  6
CUSTOM
 62
    18
420
        0
370
     9
100
AcDbLine
 10
692.8257259664442
 20
1002.241250018094
 30
0.0
 11
692.8607136966789
 21
1001.949460654187
 31
0.0
  0
LINE
  5
49CC
330
1F
100
AcDbEntity
  8
HEWI
  6
CUSTOM
 62
    18
420
        0
370
     9
100
AcDbLine
 10
692.7266763870843
 20
1002.516943492334
 30
0.0
 11
692.8257259664442
 21
1002.241250018094
 31
0.0
  0
LWPOLYLINE
  5
49CD
330
1F
100
AcDbEntity
  8
HEWI
  6
CUSTOM
 62
    18
420
        0
370
     9
100
AcDbPolyline
 90
        8
 70
     0
 43
0.0
 10
692.0607136670346
 20
1001.949460654187
 10
692.0457189255048
 20
1002.074513238719
 10
692.0032691057794
 20
1002.192667584822
 10
691.9371658151558
 20
1002.300122085373
 10
691.8512106609264
 20
1002.393075133249
 10
691.7492052503884
 20
1002.467725121332
 10
691.6349511908393
 20
1002.520270442497
 10
691.5492615213898
 20
1002.541942304284
  0
LINE
  5
49CE
330
1F
100
AcDbEntity
  8
HEWI
  6
CUSTOM
 62
    18
420
        0
370
     9
100
AcDbLine
 10
692.5724353756268
 20
1002.767670660286
 30
0.0
 11
692.7266763870843
 21
1002.516943492334
 31
0.0
  0
LINE
  5
49CF
330
1F
100
AcDbEntity
  8
HEWI
  6
CUSTOM
 62
    18
420
        0
370
     9
100
AcDbLine
 10
692.3718733490923
 20
1002.984561105334
 30
0.0
 11
692.5724353756268
 21
1002.767670660286
 31
0.0
  0
LINE
  5
49D0
330
1F
100
AcDbEntity
  8
HEWI
  6
CUSTOM
 62
    18
420
        0
370
     9
100
AcDbLine
 10
692.1338607245061
 20
1003.158744410859
 30
0.0
 11
692.3718733490923
 21
1002.984561105334
 31
0.0
  0
LINE
  5
49D1
330
1F
100
AcDbEntity
  8
HEWI
  6
CUSTOM
 62
    18
420
        0
370
     9
100
AcDbLine
 10
691.8672679188889
 20
1003.281350160242
 30
0.0
 11
692.1338607245061
 21
1003.158744410859
 31
0.0
  0
LWPOLYLINE
  5
49D2
330
1F
100
AcDbEntity
  8
HEWI
  6
CUSTOM
 62
    18
420
        0
370
     9
100
AcDbPolyline
 90
        3
 70
     0
 43
0.0
 10
691.6673253568447
 20
1003.331917837746
 10
691.7525030220385
 20
1003.314472913468
 10
691.8672679188889
 20
1003.281350160242
  0
LWPOLYLINE
  5
49D3
330
1F
100
AcDbEntity
  8
HEWI
  6
CUSTOM
 62
    18
420
        0
370
     9
100
AcDbPolyline
 90
        3
 70
     0
 43
0.0
 10
691.8672679188889
 20
1003.281350160242
 10
692.0281965088738
 20
1003.215423338635
 10
692.1338607245061
 20
1003.158744410859
  0
LINE
  5
49D4
330
1F
100
AcDbEntity
  8
HEWI
  6
CUSTOM
 62
    18
420
        0
370
     9
100
AcDbLine
 10
691.6673253568447
 20
1003.331917837746
 30
0.0
 11
691.8672679188889
 21
1003.281350160242
 31
0.0
  0
LWPOLYLINE
  5
49D5
330
1F
100
AcDbEntity
  8
HEWI
  6
CUSTOM
 62
    18
420
        0
370
     9
100
AcDbPolyline
 90
        3
 70
     0
 43
0.0
 10
692.3718733490923
 20
1002.984561105334
 10
692.4958141432366
 20
1002.860620316852
 10
692.5724353756268
 20
1002.767670660286
  0
LWPOLYLINE
  5
49D6
330
1F
100
AcDbEntity
  8
HEWI
  6
CUSTOM
 62
    18
420
        0
370
     9
100
AcDbPolyline
 90
        9
 70
     0
 43
0.0
 10
494.4021276988896
 20
1003.349460642105
 10
494.3886926695486
 20
1003.331917837746
 10
494.3752576402098
 20
1003.281350160242
 10
494.3561657564091
 20
1003.158744410859
 10
494.3370738726107
 20
1002.984561105334
 10
494.31798198881
 20
1002.767670660286
 10
494.2988901050116
 20
1002.516943492334
 10
494.2797982212109
 20
1002.241250018094
 10
494.2607063374125
 20
1001.949460654187
  0
LWPOLYLINE
  5
49D7
330
1F
100
AcDbEntity
  8
HEWI
  6
CUSTOM
 62
    18
420
        0
370
     9
100
AcDbPolyline
 90
        3
 70
     0
 43
0.0
 10
692.1338607245061
 20
1003.158744410859
 10
692.2789236882809
 20
1003.061182334223
 10
692.3718733490923
 20
1002.984561105334
  0
LWPOLYLINE
  5
49D8
330
1F
100
AcDbEntity
  8
HEWI
  6
CUSTOM
 62
    18
420
        0
370
     9
100
AcDbPolyline
 90
        3
 70
     0
 43
0.0
 10
692.5724353756268
 20
1002.767670660286
 10
692.6699974567181
 20
1002.622607703138
 10
692.7266763870843
 20
1002.516943492334
  0
LWPOLYLINE
  5
49D9
330
1F
100
AcDbEntity
  8
HEWI
  6
CUSTOM
 62
    18
420
        0
370
     9
100
AcDbPolyline
 90
        3
 70
     0
 43
0.0
 10
692.7266763870843
 20
1002.516943492334
 10
692.7926032117047
 20
1002.356014909702
 10
692.8257259664442
 20
1002.241250018094
  0
LWPOLYLINE
  5
49DA
330
1F
100
AcDbEntity
  8
HEWI
  6
CUSTOM
 62
    18
420
        0
370
     9
100
AcDbPolyline
 90
        3
 70
     0
 43
0.0
 10
692.8257259664442
 20
1002.241250018094
 10
692.8431708915186
 20
1002.156072356791
 10
692.8607136966789
 20
1001.949460654187
  0
LWPOLYLINE
  5
49DB
330
1F
100
AcDbEntity
  8
HEWI
  6
CUSTOM
 62
    18
420
        0
370
     9
100
AcDbPolyline
 90
        3
 70
     0
 43
0.0
 10
494.2607063374125
 20
1003.349460642105
 10
494.0540946253704
 20
1003.331917837746
 10
493.9491770183294
 20
1003.314359719463
  0
LWPOLYLINE
  5
49DC
330
1F
100
AcDbEntity
  8
HEWI
  6
CUSTOM
 62
    18
420
        0
370
     9
100
AcDbPolyline
 90
        3
 70
     0
 43
0.0
 10
493.9491770183294
 20
1003.314359719463
 10
493.8541520633239
 20
1003.281350160242
 10
493.6532690801382
 20
1003.210817058366
  0
LINE
  5
49DD
330
1F
100
AcDbEntity
  8
HEWI
  6
CUSTOM
 62
    18
420
        0
370
     9
100
AcDbLine
 10
493.6903286093379
 20
1002.124637716682
 30
0.0
 11
493.6896271125979
 21
1002.122632954271
 31
0.0
  0
LINE
  5
49DE
330
1F
100
AcDbEntity
  8
HEWI
  6
CUSTOM
 62
    18
420
        0
370
     9
100
AcDbLine
 10
494.4021276607068
 20
1003.349460642105
 30
0.0
 11
494.2607063374125
 21
1003.349460642105
 31
0.0
  0
LWPOLYLINE
  5
4A49
330
1F
100
AcDbEntity
  8
HEWI
  6
CUSTOM
 62
    18
420
        0
370
     9
100
AcDbPolyline
 90
       10
 70
     0
 43
0.0
 10
215.496446944086
 20
190.1655066446069
 10
215.496446944086
 20
190.150463392119
 10
215.496446944086
 20
190.1060879661481
 10
215.496446944086
 20
190.0346055358495
 10
215.496446944086
 20
189.9396005287617
 10
215.496446944086
 20
189.8258368926481
 10
215.496446944086
 20
189.6990192112566
 10
215.496446944086
 20
189.5655066526792
 10
215.496446944086
 20
186.9655066876562
 10
250.4964464506579
 20
186.9655066876562
  0
LWPOLYLINE
  5
4A4A
330
1F
100
AcDbEntity
  8
HEWI
  6
CUSTOM
 62
    18
420
        0
370
     9
100
AcDbPolyline
 90
        9
 70
     0
 43
0.0
 10
213.9964469958854
 20
205.165506442815
 10
213.9964469958854
 20
205.1304055203418
 10
213.9964469958854
 20
205.0268628597446
 10
213.9964469958854
 20
204.8600705223812
 10
213.9964469958854
 20
204.6383921725096
 10
213.9964469958854
 20
204.3729436882422
 10
213.9964469958854
 20
204.0770357649985
 10
213.9964469958854
 20
203.7655064616497
 10
215.496446944086
 20
203.7655064616497
  0
LWPOLYLINE
  5
4A4B
330
1F
100
AcDbEntity
  8
HEWI
  6
CUSTOM
 62
    18
420
        0
370
     9
100
AcDbPolyline
 90
        9
 70
     0
 43
0.0
 10
55.49645246949828
 20
203.7655064616497
 10
56.99645241769892
 20
203.7655064616497
 10
56.99645241769892
 20
204.0770357649985
 10
56.99645241769892
 20
204.3729436882422
 10
56.99645241769892
 20
204.6383921725096
 10
56.99645241769892
 20
204.8600705223812
 10
56.99645241769892
 20
205.0268628597446
 10
56.99645241769892
 20
205.1304055203418
 10
56.99645241769892
 20
205.165506442815
  0
LWPOLYLINE
  5
4A4C
330
1F
100
AcDbEntity
  8
HEWI
  6
CUSTOM
 62
    18
420
        0
370
     9
100
AcDbPolyline
 90
       15
 70
     0
 43
0.0
 10
175.0964483392513
 20
190.1655066446114
 10
175.0713762523005
 20
189.9429857136483
 10
174.9974172105739
 20
189.7316229113307
 10
174.8782798292554
 20
189.5420168511391
 10
174.7199381541135
 20
189.3836751726617
 10
174.5303320979214
 20
189.2645377888284
 10
174.3189693000581
 20
189.1905787455443
 10
174.0964483737857
 20
189.1655066580637
 10
173.8739274475133
 20
189.1905787455443
 10
173.6625646496522
 20
189.2645377888284
 10
173.4729585934578
 20
189.3836751726617
 10
173.314616918316
 20
189.5420168511391
 10
173.1954795369974
 20
189.7316229113307
 10
173.1215204952709
 20
189.9429857136483
 10
173.0964484083201
 20
190.1655066446114
  0
LWPOLYLINE
  5
4A4D
330
1F
100
AcDbEntity
  8
HEWI
  6
CUSTOM
 62
    18
420
        0
370
     9
100
AcDbPolyline
 90
        9
 70
     0
 43
0.0
 10
55.49645246949828
 20
203.7655064616497
 10
55.49645246949828
 20
191.5655066257768
 10
55.49645246949828
 20
191.2539773224279
 10
55.49645246949828
 20
190.9580693991842
 10
55.49645246949828
 20
190.6926209149169
 10
55.49645246949828
 20
190.4709425650476
 10
55.49645246949828
 20
190.3041502276819
 10
55.49645246949828
 20
190.2006075670847
 10
55.49645246949828
 20
190.1655066446114
  0
LWPOLYLINE
  5
4A4E
330
1F
100
AcDbEntity
  8
HEWI
  6
CUSTOM
 62
    18
420
        0
370
     9
100
AcDbPolyline
 90
        9
 70
     0
 43
0.0
 10
213.9964469958854
 20
204.3655064535796
 10
214.0964469924315
 20
204.3655064535796
 10
214.2299595481941
 20
204.3504632010895
 10
214.3567772269139
 20
204.3060877751186
 10
214.4705408606264
 20
204.23460534482
 10
214.5655458657134
 20
204.1396003377322
 10
214.6370282945067
 20
204.0258367016186
 10
214.6814037195408
 20
203.8990190202271
 10
214.6964469717127
 20
203.7655064616497
  0
LINE
  5
4A4F
330
1F
100
AcDbEntity
  8
HEWI
  6
CUSTOM
 62
    18
420
        0
370
     9
100
AcDbLine
 10
213.9964469958854
 20
205.165506442815
 30
0.0
 11
56.99645241769892
 21
205.165506442815
 31
0.0
  0
LWPOLYLINE
  5
4A50
330
1F
100
AcDbEntity
  8
HEWI
  6
CUSTOM
 62
    18
420
        0
370
     9
100
AcDbPolyline
 90
        9
 70
     0
 43
0.0
 10
215.496446944086
 20
190.1655066446114
 10
215.496446944086
 20
190.2006075670847
 10
215.496446944086
 20
190.3041502276819
 10
215.496446944086
 20
190.4709425650476
 10
215.496446944086
 20
190.6926209149169
 10
215.496446944086
 20
190.9580693991842
 10
215.496446944086
 20
191.2539773224279
 10
215.496446944086
 20
191.5655066257768
 10
215.496446944086
 20
203.7655064616497
  0
LWPOLYLINE
  5
4A51
330
1F
100
AcDbEntity
  8
HEWI
  6
CUSTOM
 62
    18
420
        0
370
     9
100
AcDbPolyline
 90
        4
 70
     0
 43
0.0
 10
120.4964502247994
 20
188.5655066482531
 10
120.4964502247994
 20
189.5655066526814
 10
120.4964502247994
 20
189.8770359560303
 10
120.4964502247994
 20
190.1655066450048
  0
LINE
  5
4A52
330
1F
100
AcDbEntity
  8
HEWI
  6
CUSTOM
 62
    18
420
        0
370
     9
100
AcDbLine
 10
174.0964483737857
 20
190.1655066446114
 30
0.0
 11
174.1501086098755
 21
189.8611843168323
 31
0.0
  0
LWPOLYLINE
  5
4A53
330
1F
100
AcDbEntity
  8
HEWI
  6
CUSTOM
 62
    18
420
        0
370
     9
100
AcDbPolyline
 90
       10
 70
     0
 43
0.0
 10
55.49645246949828
 20
190.1655066446069
 10
55.49645246949828
 20
190.150463392119
 10
55.49645246949828
 20
190.1060879661481
 10
55.49645246949828
 20
190.0346055358495
 10
55.49645246949828
 20
189.9396005287617
 10
55.49645246949828
 20
189.8258368926481
 10
55.49645246949828
 20
189.6990192112566
 10
55.49645246949828
 20
189.5655066526792
 10
55.49645246949828
 20
186.9655066876562
 10
20.49645361857662
 20
186.9655066876562
  0
LINE
  5
4A54
330
1F
100
AcDbEntity
  8
HEWI
  6
CUSTOM
 62
    18
420
        0
370
     9
100
AcDbLine
 10
55.49645246949828
 20
190.1655066446114
 30
0.0
 11
215.496446944086
 21
190.1655066446114
 31
0.0
  0
LWPOLYLINE
  5
4A55
330
1F
100
AcDbEntity
  8
HEWI
  6
CUSTOM
 62
    18
420
        0
370
     9
100
AcDbPolyline
 90
        9
 70
     0
 43
0.0
 10
56.99645241769892
 20
205.165506442815
 10
56.89645242115282
 20
205.165506442815
 10
56.58492312437053
 20
205.1304055203418
 10
56.28901520736369
 20
205.0268628597446
 10
56.02356672869198
 20
204.8600705223812
 10
55.8018883834952
 20
204.6383921725096
 10
55.63509604964699
 20
204.3729436882422
 10
55.53155339123256
 20
204.0770357649985
 10
55.49645246949828
 20
203.7655064616497
  0
LWPOLYLINE
  5
4A56
330
1F
100
AcDbEntity
  8
HEWI
  6
CUSTOM
 62
    18
420
        0
370
     9
100
AcDbPolyline
 90
        8
 70
     0
 43
0.0
 10
124.496450086664
 20
190.1655066444523
 10
124.496450086664
 20
189.8770359560303
 10
124.496450086664
 20
189.5655066526814
 10
124.496450086664
 20
188.9655066607538
 10
133.4964497758587
 20
188.9655066607538
 10
133.4964497758587
 20
189.5655066526814
 10
133.4964497758587
 20
189.8770359560303
 10
133.4964497758587
 20
190.1655066450048
  0
LWPOLYLINE
  5
4A57
330
1F
100
AcDbEntity
  8
HEWI
  6
CUSTOM
 62
    18
420
        0
370
     9
100
AcDbPolyline
 90
        8
 70
     0
 43
0.0
 10
137.4964496377256
 20
190.1655066444523
 10
137.4964496377256
 20
189.8770359560303
 10
137.4964496377256
 20
189.5655066526814
 10
137.4964496377256
 20
188.9655066607538
 10
146.4964493269203
 20
188.9655066607538
 10
146.4964493269203
 20
189.5655066526814
 10
146.4964493269203
 20
189.8770359560303
 10
146.4964493269203
 20
190.1655066450048
  0
LWPOLYLINE
  5
4A58
330
1F
100
AcDbEntity
  8
HEWI
  6
CUSTOM
 62
    18
420
        0
370
     9
100
AcDbPolyline
 90
        9
 70
     0
 43
0.0
 10
215.496446944086
 20
203.7655064616497
 10
215.4613460223495
 20
204.0770357649985
 10
215.3578033639373
 20
204.3729436882422
 10
215.1910110300891
 20
204.6383921725096
 10
214.9693326848901
 20
204.8600705223812
 10
214.7038842062206
 20
205.0268628597446
 10
214.4079762892138
 20
205.1304055203418
 10
214.0964469924315
 20
205.165506442815
 10
213.9964469958854
 20
205.165506442815
  0
LWPOLYLINE
  5
4A59
330
1F
100
AcDbEntity
  8
HEWI
  6
CUSTOM
 62
    18
420
        0
370
     9
100
AcDbPolyline
 90
        4
 70
     0
 43
0.0
 10
150.4964491887826
 20
190.1655066444523
 10
150.4964491887826
 20
189.8770359560303
 10
150.4964491887826
 20
189.5655066526814
 10
150.4964491887826
 20
188.5655067257398
  0
LWPOLYLINE
  5
4A5A
330
1F
100
AcDbEntity
  8
HEWI
  6
CUSTOM
 62
    18
420
        0
370
     9
100
AcDbPolyline
 90
       11
 70
     0
 43
0.0
 10
173.4964483947296
 20
189.3689155522515
 10
173.3303321393591
 20
189.2645377888284
 10
173.118969341498
 20
189.1905787455443
 10
172.8964484152279
 20
189.1655066580637
 10
172.6739274889555
 20
189.1905787455443
 10
172.4625646910921
 20
189.2645377888284
 10
172.2729586349
 20
189.3836751726594
 10
172.1146169597582
 20
189.5420168511391
 10
171.9954795784374
 20
189.7316229113307
 10
171.9215205367131
 20
189.9429857136483
 10
171.8964484497601
 20
190.1655066446114
  0
LWPOLYLINE
  5
4A5B
330
1F
100
AcDbEntity
  8
HEWI
  6
CUSTOM
 62
    18
420
        0
370
     9
100
AcDbPolyline
 90
       11
 70
     0
 43
0.0
 10
99.09645096382426
 20
190.1655066446114
 10
99.0713788768712
 20
189.9429857136483
 10
98.99741983514694
 20
189.7316229113307
 10
98.87828245382614
 20
189.5420168511391
 10
98.71994077868428
 20
189.3836751726594
 10
98.53033472249215
 20
189.2645377888284
 10
98.31897192462882
 20
189.1905787455443
 10
98.09645099835641
 20
189.1655066580637
 10
97.873930072084
 20
189.1905787455443
 10
97.66256727422522
 20
189.2645377888284
 10
97.49645102309067
 20
189.3689155495867
  0
LWPOLYLINE
  5
4A5C
330
1F
100
AcDbEntity
  8
HEWI
  6
CUSTOM
 62
    18
420
        0
370
     9
100
AcDbPolyline
 90
        9
 70
     0
 43
0.0
 10
56.99645241769892
 20
204.3655064535796
 10
56.89645242115282
 20
204.3655064535796
 10
56.76293986539028
 20
204.3504632010895
 10
56.63612218667046
 20
204.3060877751186
 10
56.52235855295564
 20
204.23460534482
 10
56.42735354787098
 20
204.1396003377322
 10
56.35587111907759
 20
204.0258367016186
 10
56.31149569404349
 20
203.8990190202271
 10
56.29645244187165
 20
203.7655064616497
  0
LWPOLYLINE
  5
4A5D
330
1F
100
AcDbEntity
  8
HEWI
  6
CUSTOM
 62
    18
420
        0
370
     9
100
AcDbPolyline
 90
        6
 70
     0
 43
0.0
 10
125.4964500521295
 20
190.1655066446114
 10
125.4964500521295
 20
190.1539778130081
 10
125.4964500521295
 20
190.1198343647315
 10
125.4964500521295
 20
190.0643884133519
 10
125.4964500521295
 20
189.9897707156874
 10
125.4964500521295
 20
188.9655066412042
  0
LWPOLYLINE
  5
4A5E
330
1F
100
AcDbEntity
  8
HEWI
  6
CUSTOM
 62
    18
420
        0
370
     9
100
AcDbPolyline
 90
        6
 70
     0
 43
0.0
 10
145.4964493614547
 20
188.9655066412042
 10
145.4964493614547
 20
189.9897707156874
 10
145.4964493614547
 20
190.0643884133519
 10
145.4964493614547
 20
190.1198343647315
 10
145.4964493614547
 20
190.1539778130081
 10
145.4964493614547
 20
190.1655066446114
  0
LWPOLYLINE
  5
4A5F
330
1F
100
AcDbEntity
  8
HEWI
  6
CUSTOM
 62
    18
420
        0
370
     9
100
AcDbPolyline
 90
       15
 70
     0
 43
0.0
 10
97.89645100526421
 20
190.1655066446114
 10
97.87137891831342
 20
189.9429857136483
 10
97.79741987658688
 20
189.7316229113307
 10
97.67828249526608
 20
189.5420168511391
 10
97.5199408201265
 20
189.3836751726617
 10
97.33033476392982
 20
189.2645377888284
 10
97.11897196607104
 20
189.1905787455443
 10
96.89645103979863
 20
189.1655066580637
 10
96.67393011352622
 20
189.1905787455443
 10
96.46256731566289
 20
189.2645377888284
 10
96.27296125947076
 20
189.3836751726617
 10
96.1146195843289
 20
189.5420168511391
 10
95.99548220300809
 20
189.7316229113307
 10
95.92152316128382
 20
189.9429857136483
 10
95.89645107433304
 20
190.1655066446114
  0
LWPOLYLINE
  5
4A60
330
1F
100
AcDbEntity
  8
HEWI
  6
CUSTOM
 62
    18
420
        0
370
     9
100
AcDbPolyline
 90
       34
 70
     0
 43
0.0
 10
135.2464497154246
 20
184.5655067199477
 10
33.49645322924195
 20
184.56550671995
 10
31.27124396652695
 20
184.3147858451397
 10
29.15761598790274
 20
183.575195412297
 10
27.26155542597232
 20
182.3838215739801
 10
25.67813867455831
 20
180.8004047891877
 10
24.48676486135943
 20
178.9043441872849
 10
23.74717444410314
 20
176.7907161641069
 10
23.49645357458164
 20
174.5655068544801
 10
23.49645357458164
 20
32.5655087648074
 10
23.74717444410314
 20
30.34029945518066
 10
24.48676486135943
 20
28.22667143200258
 10
25.67813867455831
 20
26.33061083009759
 10
27.26155542597004
 20
24.7471940453074
 10
29.15761598790274
 20
23.55582020699055
 10
31.27124396652468
 20
22.81622977414552
 10
33.49645322924195
 20
22.56550889933758
 10
237.4964461843378
 20
22.56550889933758
 10
239.7216554470574
 20
22.81622977414552
 10
241.835283425677
 20
23.55582020699055
 10
243.731343987612
 20
24.74719404530513
 10
245.3147607390214
 20
26.33061083009759
 10
246.5061345522249
 20
28.22667143200031
 10
247.2457249694766
 20
30.34029945518066
 10
247.4964458390004
 20
32.5655087648074
 10
247.4964458390004
 20
174.5655068544779
 10
247.2457249694766
 20
176.7907161641069
 10
246.5061345522249
 20
178.9043441872827
 10
245.3147607390238
 20
180.8004047891877
 10
243.731343987612
 20
182.3838215739801
 10
241.835283425677
 20
183.5751954122947
 10
239.7216554470574
 20
184.3147858451397
 10
237.4964461843378
 20
184.5655067199477
 10
135.7464496981597
 20
184.5655067199477
  0
LWPOLYLINE
  5
4A61
330
1F
100
AcDbEntity
  8
HEWI
  6
CUSTOM
 62
    18
420
        0
370
     9
100
AcDbPolyline
 90
       64
 70
     0
 43
0.0
 10
135.7464496981597
 20
184.5655067199477
 10
135.7464496981597
 20
184.5166161493621
 10
135.7464496981597
 20
184.3723960149572
 10
135.7464496981597
 20
184.1400781164857
 10
135.7464496981597
 20
183.8313118434502
 10
135.7464496981597
 20
183.4615800260799
 10
135.7464496981597
 20
183.0494225615593
 10
135.7464496981597
 20
182.6155067461827
 10
135.7464496981597
 20
182.5155067475266
 10
135.7464496981597
 20
182.0815909321499
 10
135.7464496981597
 20
181.6694334676294
 10
135.7464496981597
 20
181.299701650259
 10
135.7464496981597
 20
180.9909353772259
 10
135.7464496981597
 20
180.7586174787543
 10
135.7464496981597
 20
180.6143973443495
 10
135.7464496981597
 20
180.5655067737616
 10
237.4964461843378
 20
180.5655067737593
 10
238.83157174197
 20
180.4150742488759
 10
240.0997485291432
 20
179.9713199891693
 10
241.2373848663051
 20
179.2564956861788
 10
242.1874349171516
 20
178.3064456153051
 10
242.9022592050719
 20
177.1688092541621
 10
243.346013455422
 20
175.9006324402544
 10
243.4964459771358
 20
174.5655068544779
 10
243.4964459771358
 20
32.5655087648074
 10
243.346013455422
 20
31.2303831790309
 10
242.9022592050719
 20
29.96220636512314
 10
242.1874349171516
 20
28.82457000398015
 10
241.2373848663028
 20
27.87451993310649
 10
240.0997485291432
 20
27.1596956301182
 10
238.8315717419677
 20
26.71594137040936
 10
237.4964461843378
 20
26.56550884552596
 10
33.49645322924195
 20
26.56550884552596
 10
32.16132767161204
 20
26.71594137041163
 10
30.89315088444116
 20
27.1596956301182
 10
29.75551454727926
 20
27.87451993310649
 10
28.80546449643268
 20
28.82457000398242
 10
28.09064020851244
 20
29.96220636512542
 10
27.64688595815775
 20
31.2303831790309
 10
27.49645343644394
 20
32.5655087648074
 10
27.49645343644394
 20
174.5655068544801
 10
27.6468859581623
 20
175.9006324402544
 10
28.09064020851244
 20
177.1688092541621
 10
28.80546449643268
 20
178.3064456153051
 10
29.75551454727926
 20
179.2564956861788
 10
30.89315088444116
 20
179.9713199891693
 10
32.16132767161204
 20
180.4150742488759
 10
33.49645322924195
 20
180.5655067737616
 10
135.2464497154246
 20
180.5655067737616
 10
135.2464497154246
 20
180.6143973443495
 10
135.2464497154246
 20
180.7586174787543
 10
135.2464497154246
 20
180.9909353772259
 10
135.2464497154246
 20
181.299701650259
 10
135.2464497154246
 20
181.6694334676294
 10
135.2464497154246
 20
182.0815909321499
 10
135.2464497154246
 20
182.5155067475266
 10
135.2464497154246
 20
182.6155067461827
 10
135.2464497154246
 20
183.0494225615593
 10
135.2464497154246
 20
183.4615800260799
 10
135.2464497154246
 20
183.8313118434502
 10
135.2464497154246
 20
184.1400781164857
 10
135.2464497154246
 20
184.3723960149572
 10
135.2464497154246
 20
184.5166161493621
 10
135.2464497154246
 20
184.5655067199477
  0
LWPOLYLINE
  5
4A62
330
1F
100
AcDbEntity
  8
HEWI
  6
CUSTOM
 62
    18
420
        0
370
     9
100
AcDbPolyline
 90
       28
 70
     0
 43
0.0
 10
58.50942313291077
 20
190.1655066446114
 10
58.5344139188114
 20
189.9429857136483
 10
58.60813313415426
 20
189.7316229113307
 10
58.72688418965615
 20
189.5420168511391
 10
58.88471241153772
 20
189.3836751726594
 10
59.07370363371362
 20
189.2645377888284
 10
59.28438104715175
 20
189.1905787455443
 10
59.50618040662582
 20
189.1655066580637
 10
59.65084300019177
 20
189.1655066580637
 10
59.96088205869361
 20
189.1655066580637
 10
60.41827923899879
 20
189.1655066580637
 10
60.99645227956123
 20
189.1655066580637
 10
61.66179986483618
 20
189.1655066580637
 10
62.37565441160447
 20
189.1655066580637
 10
63.09652928836746
 20
189.1655066580637
 10
63.7825298675593
 20
189.1655066580637
 10
64.39378828902724
 20
189.1655066580637
 10
64.8947804351487
 20
189.1655066580637
 10
65.2563904634271
 20
189.1655066580637
 10
65.45760291341728
 20
189.1655066580637
 10
65.48672404889791
 20
189.1655066580637
 10
65.70852340837197
 20
189.1905787455443
 10
65.91920082181011
 20
189.2645377888284
 10
66.10819204398601
 20
189.3836751726594
 10
66.26602026586758
 20
189.5420168511391
 10
66.38477132136947
 20
189.7316229113307
 10
66.45849053671233
 20
189.9429857136483
 10
66.48348132261296
 20
190.1655066446114
  0
LWPOLYLINE
  5
4A63
330
1F
100
AcDbEntity
  8
HEWI
  6
CUSTOM
 62
    18
420
        0
370
     9
100
AcDbPolyline
 90
        3
 70
     0
 43
0.0
 10
250.5140673115775
 20
20.16550893162
 10
250.4964457353994
 20
20.16550893162
 10
250.4964457353994
 20
20.14562222539733
  0
LWPOLYLINE
  5
4A64
330
1F
100
AcDbEntity
  8
HEWI
  6
CUSTOM
 62
    18
420
        0
370
     9
100
AcDbPolyline
 90
        3
 70
     0
 43
0.0
 10
20.49645367818491
 20
20.14788735507134
 10
20.49645367818491
 20
20.16550893162
 10
20.47870997767993
 20
20.16550893162
  0
LINE
  5
4A65
330
1F
100
AcDbEntity
  8
HEWI
  6
CUSTOM
 62
    18
420
        0
370
     9
100
AcDbLine
 10
135.7464498769709
 20
184.9655067145677
 30
0.0
 11
135.2464503114711
 21
184.9655067145677
 31
0.0
  0
LWPOLYLINE
  5
4A66
330
1F
100
AcDbEntity
  8
HEWI
  6
CUSTOM
 62
    18
420
        0
370
     9
100
AcDbPolyline
 90
       14
 70
     0
 43
0.0
 10
264.0964452657377
 20
5.165509133418687
 10
264.0830102373607
 20
5.18305193769445
 10
264.0695752089837
 20
5.233619614952637
 10
264.0504833265518
 20
5.356225363745558
 10
264.0313914441176
 20
5.530408668430006
 10
264.0122995616835
 20
5.747299112430916
 10
263.9932076792515
 20
5.998026279175498
 10
263.9741157968197
 20
6.27371975208414
 10
263.9550239143878
 20
6.565509114584052
 10
251.7550243356995
 20
18.76550895045691
 10
251.6635969384574
 20
18.90885578608002
 10
251.5718955518846
 20
19.05111893196315
 10
251.5213265417937
 20
19.12838744796497
 10
251.4968461493631
 20
19.16492518112543
  0
LWPOLYLINE
  5
4A67
330
1F
100
AcDbEntity
  8
HEWI
  6
CUSTOM
 62
    18
420
        0
370
     9
100
AcDbPolyline
 90
        8
 70
     0
 43
0.0
 10
263.9741157968197
 20
6.440456530655843
 10
263.9932076792515
 20
6.322302185123568
 10
264.0122995616835
 20
6.21484768509115
 10
264.0313914441176
 20
6.12189463766024
 10
264.0504833265518
 20
6.047244649939308
 10
264.0695752089837
 20
5.994699329027731
 10
264.0830102373607
 20
5.973027467345652
 10
264.0964452657377
 20
5.965509122656364
  0
LWPOLYLINE
  5
4A68
330
1F
100
AcDbEntity
  8
HEWI
  6
CUSTOM
 62
    18
420
        0
370
     9
100
AcDbPolyline
 90
        9
 70
     0
 43
0.0
 10
6.896454147842149
 20
203.6240851073144
 10
6.689842450590703
 20
203.6375201359778
 10
6.489899902859605
 20
203.650955164639
 10
6.22330711633046
 20
203.6700470474734
 10
5.985294508781379
 20
203.68913893031
 10
5.784732496605528
 20
203.7082308131444
 10
5.630491496186976
 20
203.7273226959787
 10
5.531441923921164
 20
203.746414578813
 10
5.496454196189887
 20
203.7655064616497
  0
LWPOLYLINE
  5
4A69
330
1F
100
AcDbEntity
  8
HEWI
  6
CUSTOM
 62
    18
420
        0
370
     9
100
AcDbPolyline
 90
        9
 70
     0
 43
0.0
 10
6.296454168560984
 20
203.7655064616497
 10
6.311448909019844
 20
203.746414578813
 10
6.353898725705192
 20
203.7273226959787
 10
6.420002011597233
 20
203.7082308131444
 10
6.505957159673897
 20
203.68913893031
 10
6.607962562908568
 20
203.6700470474734
 10
6.722216614279176
 20
203.650955164639
 10
6.807906277591854
 20
203.6375201359778
 10
6.896454147842149
 20
203.6240851073144
  0
LWPOLYLINE
  5
4A6A
330
1F
100
AcDbEntity
  8
HEWI
  6
CUSTOM
 62
    18
420
        0
370
     9
100
AcDbPolyline
 90
        9
 70
     0
 43
0.0
 10
5.496454196192161
 20
6.565509114584052
 10
5.513997000097305
 20
6.578944143245259
 10
5.564564676289109
 20
6.592379171908739
 10
5.687170422499065
 20
6.611471054743084
 10
5.861353723511427
 20
6.63056293757743
 10
6.078244162939853
 20
6.649654820414049
 10
6.328971324397997
 20
6.668746703248395
 10
6.604664791494968
 20
6.687838586085014
 10
6.896454147844423
 20
6.70693046891936
  0
LWPOLYLINE
  5
4A6B
330
1F
100
AcDbEntity
  8
HEWI
  6
CUSTOM
 62
    18
420
        0
370
     9
100
AcDbPolyline
 90
        9
 70
     0
 43
0.0
 10
6.896454147844423
 20
6.70693046891936
 10
6.771401566551475
 20
6.687838586085014
 10
6.653247223508941
 20
6.668746703248395
 10
6.545792725743439
 20
6.649654820414049
 10
6.452839680270216
 20
6.63056293757743
 10
6.378189694124984
 20
6.611471054743084
 10
6.325644374320717
 20
6.592379171908739
 10
6.303972513093384
 20
6.578944143245259
 10
6.296454168563258
 20
6.565509114584052
  0
LWPOLYLINE
  5
4A6C
330
1F
100
AcDbEntity
  8
HEWI
  6
CUSTOM
 62
    18
420
        0
370
     9
100
AcDbPolyline
 90
       24
 70
     0
 43
0.0
 10
251.4282703488393
 20
19.2108335928169
 10
251.4693879042638
 20
19.18320490734184
 10
251.4901013593648
 20
19.16939190094533
 10
251.5318198836816
 20
19.14176392106763
 10
251.5340989035271
 20
19.14026155982535
 10
251.5738890549769
 20
19.11413642409068
 10
251.5950406716697
 20
19.10032398513019
 10
251.637559697871
 20
19.07269684527544
 10
251.6589132161825
 20
19.05888443539604
 10
251.7017898101326
 20
19.03125704466172
 10
251.7448531571258
 20
19.0036292060058
 10
251.7664400704384
 20
18.98981626740076
 10
251.8097058530352
 20
18.96218766843228
 10
251.8530548229901
 20
18.93455882699252
 10
251.896445687054
 20
18.90693030479222
 10
264.0964452657377
 20
6.70693046891936
 10
264.3030569629914
 20
6.693495440258153
 10
264.5029995107225
 20
6.680060411594674
 10
264.7695922972539
 20
6.660968528760328
 10
265.0076049048007
 20
6.641876645923709
 10
265.2081669169788
 20
6.622784763089363
 10
265.3624079173928
 20
6.603692880255017
 10
265.4614574896609
 20
6.584600997418398
 10
265.4964452173922
 20
6.565509114584052
  0
LWPOLYLINE
  5
4A6D
330
1F
100
AcDbEntity
  8
HEWI
  6
CUSTOM
 62
    18
420
        0
370
     9
100
AcDbPolyline
 90
        8
 70
     0
 43
0.0
 10
264.6964452450188
 20
6.565509114584052
 10
264.6814505045645
 20
6.584600997418398
 10
264.6390006878769
 20
6.603692880255017
 10
264.5728974019826
 20
6.622784763089363
 10
264.4869422539082
 20
6.641876645923709
 10
264.3849368506758
 20
6.660968528760328
 10
264.2706827993029
 20
6.680060411594674
 10
264.1849931359902
 20
6.693495440258153
  0
LWPOLYLINE
  5
4A6E
330
1F
100
AcDbEntity
  8
HEWI
  6
CUSTOM
 62
    18
420
        0
370
     9
100
AcDbPolyline
 90
        9
 70
     0
 43
0.0
 10
265.4964452173922
 20
203.7655064616497
 10
265.4789024134848
 20
203.7520714329885
 10
265.428334737293
 20
203.738636404325
 10
265.3057289910853
 20
203.7195445214906
 10
265.1315456900729
 20
203.7004526386563
 10
264.9146552506445
 20
203.6813607558197
 10
264.6639280891863
 20
203.6622688729853
 10
264.3882346220894
 20
203.643176990151
 10
264.0964452657422
 20
203.6240851073144
  0
LWPOLYLINE
  5
4A6F
330
1F
100
AcDbEntity
  8
HEWI
  6
CUSTOM
 62
    18
420
        0
370
     9
100
AcDbPolyline
 90
        9
 70
     0
 43
0.0
 10
264.0964452657422
 20
203.6240851073144
 10
264.2214978470306
 20
203.643176990151
 10
264.3396521900754
 20
203.6622688729853
 10
264.4471066878409
 20
203.6813607558197
 10
264.5400597333118
 20
203.7004526386563
 10
264.6147097194594
 20
203.7195445214906
 10
264.6672550392636
 20
203.738636404325
 10
264.6889269004887
 20
203.7520714329885
 10
264.6964452450211
 20
203.7655064616497
  0
LWPOLYLINE
  5
4A70
330
1F
100
AcDbEntity
  8
HEWI
  6
CUSTOM
 62
    18
420
        0
370
     9
100
AcDbPolyline
 90
        8
 70
     0
 43
0.0
 10
264.0964452657422
 20
204.3655064535773
 10
264.0773533833103
 20
204.3505117128047
 10
264.0582615008739
 20
204.3080618952235
 10
264.039169618442
 20
204.2419586079377
 10
264.0200777360101
 20
204.1560034580511
 10
264.0009858535782
 20
204.0539980526655
 10
263.981893971144
 20
203.939743998887
 10
263.9684589427647
 20
203.8540543337667
  0
LWPOLYLINE
  5
4A71
330
1F
100
AcDbEntity
  8
HEWI
  6
CUSTOM
 62
    18
420
        0
370
     9
100
AcDbPolyline
 90
       13
 70
     0
 43
0.0
 10
251.4973910063295
 20
191.1664624567806
 10
251.5216484631596
 20
191.2031352034973
 10
251.5965757758126
 20
191.3179662209399
 10
251.7550243356995
 20
191.5655066257768
 10
263.9550239143878
 20
203.7655064616497
 10
263.9684589427647
 20
203.9721181632576
 10
263.981893971144
 20
204.1720607152019
 10
264.0009858535782
 20
204.438653507354
 10
264.0200777360101
 20
204.6766661199189
 10
264.039169618442
 20
204.8772281363217
 10
264.0582615008739
 20
205.0314691399917
 10
264.0773533833103
 20
205.1305187143471
 10
264.0964452657422
 20
205.165506442815
  0
LWPOLYLINE
  5
4A72
330
1F
100
AcDbEntity
  8
HEWI
  6
CUSTOM
 62
    18
420
        0
370
     9
100
AcDbPolyline
 90
       19
 70
     0
 43
0.0
 10
250.5209375569247
 20
190.1909563024214
 10
250.4464517812894
 20
190.1729708641091
 10
250.3550243840472
 20
190.1655066446114
 10
218.4964468404828
 20
190.1655066446114
 10
218.4964468404828
 20
190.2006075670824
 10
218.4964468404828
 20
190.3041502276819
 10
218.4964468404828
 20
190.4709425650453
 10
218.4964468404828
 20
190.6926209149169
 10
218.4964468404828
 20
190.9580693991842
 10
218.4964468404828
 20
191.2539773224279
 10
218.4964468404828
 20
191.5655066257768
 10
218.4964468404828
 20
203.7655064616497
 10
218.4964468404828
 20
204.0770357649962
 10
218.4964468404828
 20
204.3729436882422
 10
218.4964468404828
 20
204.6383921725096
 10
218.4964468404828
 20
204.8600705223789
 10
218.4964468404828
 20
205.0268628597446
 10
218.4964468404828
 20
205.1304055203418
 10
218.4964468404828
 20
205.1655064428173
  0
LWPOLYLINE
  5
4A73
330
1F
100
AcDbEntity
  8
HEWI
  6
CUSTOM
 62
    18
420
        0
370
     9
100
AcDbPolyline
 90
       24
 70
     0
 43
0.0
 10
19.51414967461139
 20
19.19256674224878
 10
19.50033666850365
 20
19.17185328671119
 10
19.49549723333936
 20
19.16454569118466
 10
19.47270868921029
 20
19.13013476151443
 10
19.4712063279953
 20
19.12785574162124
 10
19.44508119281315
 20
19.08806558933018
 10
19.4312687541437
 20
19.06691397219399
 10
19.40364161487329
 20
19.02439494509688
 10
19.38982920528494
 20
19.00304142633511
 10
19.36220181513042
 20
18.96016483148012
 10
19.33457397705885
 20
18.91710148358195
 10
19.32076103874485
 20
18.89551456981005
 10
19.29313244035845
 20
18.85224878630149
 10
19.26550359950076
 20
18.80889981543485
 10
19.23787507788481
 20
18.76550895045691
 10
7.037875499196587
 20
6.565509114584052
 10
7.024440470819598
 20
6.3588974129784
 10
7.011005442440335
 20
6.158954861031794
 10
6.991913560006167
 20
5.892362068879698
 10
6.972821677574273
 20
5.654349456314754
 10
6.953729795142379
 20
5.453787439909753
 10
6.934637912710485
 20
5.299546436242032
 10
6.915546030276317
 20
5.200496861886655
 10
6.896454147844423
 20
5.165509133418687
  0
LWPOLYLINE
  5
4A74
330
1F
100
AcDbEntity
  8
HEWI
  6
CUSTOM
 62
    18
420
        0
370
     9
100
AcDbPolyline
 90
       16
 70
     0
 43
0.0
 10
250.5205903497303
 20
190.1898518307593
 10
250.5167434764612
 20
190.1760394208799
 10
250.5100442465586
 20
190.1484120301456
 10
250.5046771827769
 20
190.1207841914897
 10
250.5024950407678
 20
190.1069712528846
 10
250.4991353901519
 20
190.0793426539139
 10
250.4971183137981
 20
190.0517138124741
 10
250.4964457353994
 20
190.0240852902761
 10
250.4964457353994
 20
20.30693028595758
 10
250.4973729303688
 20
20.27449040056079
 10
250.4983304318025
 20
20.26067715161341
 10
250.5012528263082
 20
20.23304843223239
 10
250.503216775784
 20
20.21923540871919
 10
250.5081485142741
 20
20.19160739835977
 10
250.5144142353142
 20
20.16397987999606
 10
250.5180451865558
 20
20.15016743484646
  0
LWPOLYLINE
  5
4A75
330
1F
100
AcDbEntity
  8
HEWI
  6
CUSTOM
 62
    18
420
        0
370
     9
100
AcDbPolyline
 90
       22
 70
     0
 43
0.0
 10
250.5208749811358
 20
20.14069686824039
 10
250.5134729439319
 20
20.14322785504599
 10
250.3550243840472
 20
20.16550893162455
 10
20.63787502953707
 20
20.16550893162455
 10
20.60543514482239
 20
20.16458173663475
 10
20.59162189616606
 20
20.16362423518056
 10
20.56399317736711
 20
20.16070184061343
 10
20.55018015414723
 20
20.15873789109444
 10
20.52255214436761
 20
20.15380615250204
 10
20.49492462658824
 20
20.14754043133232
 10
20.48111218172969
 20
20.14390948001117
 10
20.47230906385173
 20
20.14116374547437
 10
20.47615593712314
 20
20.15497615535376
 10
20.48285516702569
 20
20.18260354609036
 10
20.4882222308074
 20
20.210231384744
 10
20.49040437281425
 20
20.22404432334904
 10
20.4937640234302
 20
20.25167292231979
 10
20.49578109978617
 20
20.27930176375956
 10
20.49645367818491
 20
20.30693028595758
 10
20.49645367818263
 20
190.0240852902761
 10
20.48898945884181
 20
190.1155126894463
 10
20.47082790595957
 20
190.1907278377639
  0
LWPOLYLINE
  5
4A76
330
1F
100
AcDbEntity
  8
HEWI
  6
CUSTOM
 62
    18
420
        0
370
     9
100
AcDbPolyline
 90
       16
 70
     0
 43
0.0
 10
264.0964452657422
 20
203.6240851073144
 10
251.896445687054
 20
191.4240852714415
 10
251.8455017361716
 20
191.3916453860424
 10
251.8238261465207
 20
191.377832137095
 10
251.7805287083424
 20
191.350203417714
 10
251.7589209058874
 20
191.3363903942008
 10
251.7158056452981
 20
191.3087623838414
 10
251.6728636416442
 20
191.2811348654777
 10
251.6514723724653
 20
191.2673224203303
 10
251.608867778506
 20
191.2396952782337
 10
251.5876683730894
 20
191.2258828723811
 10
251.5454936634446
 20
191.1982554992682
 10
251.5340992336191
 20
191.1907542327726
 10
251.5036564366473
 20
191.1706276886065
 10
251.4828787454498
 20
191.1568147665407
 10
251.4416230318343
 20
191.1291862020261
  0
LWPOLYLINE
  5
4A77
330
1F
100
AcDbEntity
  8
HEWI
  6
CUSTOM
 62
    18
420
        0
370
     9
100
AcDbPolyline
 90
       16
 70
     0
 43
0.0
 10
6.896454147844423
 20
6.70693046891936
 10
19.09645372653037
 20
18.90693030479222
 10
19.14739767741273
 20
18.93937019019129
 10
19.16907326706357
 20
18.95318343913866
 10
19.21237070524191
 20
18.98081215851969
 10
19.23397850769694
 20
18.99462518203288
 10
19.27709376828622
 20
19.0222531923923
 10
19.32003577194243
 20
19.04988071075602
 10
19.34142704111897
 20
19.06369315590334
 10
19.38403163507834
 20
19.09132029800001
 10
19.40523104049723
 20
19.10513270385488
 10
19.44740575013972
 20
19.13276007696547
 10
19.45880017996521
 20
19.14026134346111
 10
19.48924297693699
 20
19.16038788762714
 10
19.5100206681345
 20
19.17420080969302
 10
19.55127638175006
 20
19.20182937420757
  0
LWPOLYLINE
  5
4A78
330
1F
100
AcDbEntity
  8
HEWI
  6
CUSTOM
 62
    18
420
        0
370
     9
100
AcDbPolyline
 90
       10
 70
     0
 43
0.0
 10
7.037875499196587
 20
203.7655064616497
 10
19.23787507788481
 20
191.5655066257768
 10
19.32930247512692
 20
191.4221597901537
 10
19.42100386169974
 20
191.2798966442705
 10
19.47157287178604
 20
191.2026281282687
 10
19.4956058737275
 20
191.1663805081043
 10
19.45882514117008
 20
191.1907093939835
 10
19.343994126149
 20
191.2656367082145
 10
19.09645372653037
 20
191.4240852714415
 10
6.896454147842149
 20
203.6240851073144
  0
LWPOLYLINE
  5
4A79
330
1F
100
AcDbEntity
  8
HEWI
  6
CUSTOM
 62
    18
420
        0
370
     9
100
AcDbPolyline
 90
        8
 70
     0
 43
0.0
 10
55.49645246949828
 20
203.7655064616497
 10
55.48140921732644
 20
203.8990190202271
 10
55.43703379229234
 20
204.0258367016186
 10
55.36555136349895
 20
204.1396003377322
 10
55.27054635841657
 20
204.23460534482
 10
55.15678272469947
 20
204.3060877751186
 10
55.02996504597965
 20
204.3504632010895
 10
54.89645249021712
 20
204.3655064535773
  0
LWPOLYLINE
  5
4A7A
330
1F
100
AcDbEntity
  8
HEWI
  6
CUSTOM
 62
    18
420
        0
370
     9
100
AcDbPolyline
 90
        8
 70
     0
 43
0.0
 10
216.096446923365
 20
204.3655064535796
 10
215.9629343676024
 20
204.3504632010895
 10
215.8361166888849
 20
204.3060877751209
 10
215.7223530551678
 20
204.23460534482
 10
215.6273480500831
 20
204.1396003377344
 10
215.555865621292
 20
204.0258367016186
 10
215.5114901962556
 20
203.8990190202293
 10
215.496446944086
 20
203.7655064616497
  0
LWPOLYLINE
  5
4A7B
330
1F
100
AcDbEntity
  8
HEWI
  6
CUSTOM
 62
    18
420
        0
370
     9
100
AcDbPolyline
 90
        4
 70
     0
 43
0.0
 10
215.0964469587452
 20
204.7329562475392
 10
215.2235612309064
 20
204.8600705223812
 10
215.4890097095781
 20
205.0268628597446
 10
215.4964469442429
 20
205.0294652607654
  0
LWPOLYLINE
  5
4A7C
330
1F
100
AcDbEntity
  8
HEWI
  6
CUSTOM
 62
    18
420
        0
370
     9
100
AcDbPolyline
 90
       20
 70
     0
 43
0.0
 10
252.9964456490656
 20
205.1655064428173
 10
252.9964456490656
 20
205.1770352744206
 10
252.9964456490656
 20
205.2111787226949
 10
252.9964456490656
 20
205.2666246740745
 10
252.9964456490656
 20
205.3412423717413
 10
252.9964456490656
 20
207.7596189576134
 10
252.9964456490656
 20
207.9337269188336
 10
252.9964456490656
 20
208.063100805386
 10
252.9964456490656
 20
208.1427688513617
 10
252.9964456490656
 20
208.1696694584361
 10
227.9964465124126
 20
208.1696694584361
 10
227.9964465124126
 20
208.1427688513617
 10
227.9964465124126
 20
208.063100805386
 10
227.9964465124126
 20
207.9337269188336
 10
227.9964465124126
 20
207.7596189576134
 10
227.9964465124126
 20
205.3412423717391
 10
227.9964465124126
 20
205.2666246740745
 10
227.9964465124126
 20
205.2111787226949
 10
227.9964465124126
 20
205.1770352744183
 10
227.9964465124126
 20
205.1655064428173
  0
LWPOLYLINE
  5
4A7D
330
1F
100
AcDbEntity
  8
HEWI
  6
CUSTOM
 62
    18
420
        0
370
     9
100
AcDbPolyline
 90
        4
 70
     0
 43
0.0
 10
55.49645246989164
 20
205.0294652605698
 10
55.50388970400624
 20
205.0268628597446
 10
55.76933818267568
 20
204.8600705223789
 10
55.89645246144434
 20
204.7329562409318
  0
LWPOLYLINE
  5
4A7E
330
1F
100
AcDbEntity
  8
HEWI
  6
CUSTOM
 62
    18
420
        0
370
     9
100
AcDbPolyline
 90
       15
 70
     1
 43
0.0
 10
94.99645114117489
 20
185.1655067118777
 10
95.59645108469018
 20
185.1655067118777
 10
95.59645108469018
 20
185.0319941533002
 10
95.59645108469018
 20
184.9051764719088
 10
95.59645108469018
 20
184.7914128357929
 10
95.59645108469018
 20
184.6964078287073
 10
95.59645108469018
 20
184.6249253984087
 10
95.59645108469018
 20
184.5805499724378
 10
95.59645108469018
 20
184.5655067199477
 10
95.46293852892764
 20
184.5805499724378
 10
95.33612085021237
 20
184.6249253984087
 10
95.22235721649527
 20
184.6964078287073
 10
95.12735221141289
 20
184.7914128357929
 10
95.0558697826195
 20
184.9051764719088
 10
95.01149435758312
 20
185.0319941533002
  0
LWPOLYLINE
  5
4A7F
330
1F
100
AcDbEntity
  8
HEWI
  6
CUSTOM
 62
    18
420
        0
370
     9
100
AcDbPolyline
 90
       20
 70
     0
 43
0.0
 10
42.99645290117175
 20
205.1655064428173
 10
42.99645290117175
 20
205.1770352744206
 10
42.99645290117175
 20
205.2111787226949
 10
42.99645290117175
 20
205.2666246740745
 10
42.99645290117175
 20
205.3412423717413
 10
42.99645290117175
 20
207.7596189576134
 10
42.99645290117175
 20
207.9337269188336
 10
42.99645290117175
 20
208.063100805386
 10
42.99645290117175
 20
208.1427688513617
 10
42.99645290117175
 20
208.1696694584361
 10
17.99645376451869
 20
208.1696694584361
 10
17.99645376451869
 20
208.1427688513617
 10
17.99645376451869
 20
208.063100805386
 10
17.99645376451869
 20
207.9337269188336
 10
17.99645376451869
 20
207.7596189576134
 10
17.99645376451869
 20
205.3412423717413
 10
17.99645376451869
 20
205.2666246740745
 10
17.99645376451869
 20
205.2111787226949
 10
17.99645376451869
 20
205.1770352744206
 10
17.99645376451869
 20
205.1655064428173
  0
LWPOLYLINE
  5
4A80
330
1F
100
AcDbEntity
  8
HEWI
  6
CUSTOM
 62
    18
420
        0
370
     9
100
AcDbPolyline
 90
       15
 70
     1
 43
0.0
 10
175.9964483081707
 20
185.1655067118777
 10
175.9814050560012
 20
185.0319941533002
 10
175.9370296309648
 20
184.9051764719088
 10
175.8655472021714
 20
184.7914128357929
 10
175.770542197089
 20
184.6964078287073
 10
175.6567785633719
 20
184.6249253984087
 10
175.5299608846567
 20
184.5805499724378
 10
175.3964483288918
 20
184.5655067199477
 10
175.3964483288918
 20
184.5805499724378
 10
175.3964483288918
 20
184.6249253984087
 10
175.3964483288918
 20
184.6964078287073
 10
175.3964483288918
 20
184.7914128357929
 10
175.3964483288918
 20
184.9051764719088
 10
175.3964483288918
 20
185.0319941533002
 10
175.3964483288918
 20
185.1655067118777
  0
LINE
  5
4A81
330
1F
100
AcDbEntity
  8
HEWI
  6
CUSTOM
 62
    18
420
        0
370
     9
100
AcDbLine
 10
175.9964483081707
 20
190.1655066446114
 30
0.0
 11
175.9964483081707
 21
185.1655067118777
 31
0.0
  0
LWPOLYLINE
  5
4A82
330
1F
100
AcDbEntity
  8
HEWI
  6
CUSTOM
 62
    18
420
        0
370
     9
100
AcDbPolyline
 90
        4
 70
     0
 43
0.0
 10
218.4964468404828
 20
205.1655064428173
 10
215.496446944086
 20
205.1655064428173
 10
215.496446944086
 20
204.3655064535796
 10
218.4964468404828
 20
204.3655064535796
  0
LWPOLYLINE
  5
4A83
330
1F
100
AcDbEntity
  8
HEWI
  6
CUSTOM
 62
    18
420
        0
370
     9
100
AcDbPolyline
 90
       14
 70
     0
 43
0.0
 10
251.4973195777943
 20
191.1663544701668
 10
251.4973910063295
 20
191.1664624567806
 10
251.5216484631596
 20
191.2031352034973
 10
251.5965757758126
 20
191.3179662209399
 10
251.7550243356995
 20
191.5655066257768
 10
263.9550239143878
 20
203.7655064616497
 10
263.9684589427647
 20
203.9721181632576
 10
263.981893971144
 20
204.1720607152019
 10
264.0009858535782
 20
204.438653507354
 10
264.0200777360101
 20
204.6766661199189
 10
264.039169618442
 20
204.8772281363217
 10
264.0582615008739
 20
205.0314691399917
 10
264.0773533833103
 20
205.1305187143471
 10
264.0964452657422
 20
205.165506442815
  0
LWPOLYLINE
  5
4A84
330
1F
100
AcDbEntity
  8
HEWI
  6
CUSTOM
 62
    18
420
        0
370
     9
100
AcDbPolyline
 90
        4
 70
     0
 43
0.0
 10
94.19645113304019
 20
190.1655066446114
 10
94.19645113304019
 20
185.1655067118777
 10
94.2315520547722
 20
184.8539774085288
 10
94.33249231222495
 20
184.5655067201068
  0
LINE
  5
4A85
330
1F
100
AcDbEntity
  8
HEWI
  6
CUSTOM
 62
    18
420
        0
370
     9
100
AcDbLine
 10
105.4964507428066
 20
184.56550671995
 30
0.0
 11
135.2464497154246
 21
184.5655067199477
 31
0.0
  0
LWPOLYLINE
  5
4A86
330
1F
100
AcDbEntity
  8
HEWI
  6
CUSTOM
 62
    18
420
        0
370
     9
100
AcDbPolyline
 90
       39
 70
     0
 43
0.0
 10
173.5464483927776
 20
184.5655067199477
 10
173.9803641990092
 20
184.6143972905356
 10
174.3925216548418
 20
184.7586174249404
 10
174.7622534644156
 20
184.990935323412
 10
175.0710197309413
 20
185.2997015964474
 10
175.3033376245152
 20
185.6694334138178
 10
175.4475577558801
 20
186.0815908783383
 10
175.4964483254379
 20
186.5155066937149
 10
175.4964483254379
 20
186.6155066923688
 10
175.4475577558801
 20
187.0494225077477
 10
175.3033376245152
 20
187.461579972266
 10
175.0710197309413
 20
187.8313117896386
 10
174.7622534644156
 20
188.1400780626718
 10
174.3925216548418
 20
188.3723959611434
 10
173.9803641990092
 20
188.5166160955482
 10
173.5464483927776
 20
188.5655066661361
 10
173.3446180928117
 20
188.5655066661361
 10
172.7492478069248
 20
188.5655066661361
 10
171.7901918872953
 20
188.5655066661361
 10
170.5155414024116
 20
188.5655066661361
 10
168.9892126500549
 20
188.5655066661361
 10
167.2877421272655
 20
188.5655066661361
 10
165.4964486707753
 20
188.5655066661361
 10
135.7464496981597
 20
188.5655066661361
 10
135.7464496981597
 20
188.5166160955482
 10
135.7464496981597
 20
188.3723959611434
 10
135.7464496981597
 20
188.1400780626718
 10
135.7464496981597
 20
187.8313117896386
 10
135.7464496981597
 20
187.461579972266
 10
135.7464496981597
 20
187.0494225077477
 10
135.7464496981597
 20
186.6155066923711
 10
135.7464496981597
 20
186.5155066937149
 10
135.7464496981597
 20
186.0815908783383
 10
135.7464496981597
 20
185.6694334138178
 10
135.7464496981597
 20
185.2997015964474
 10
135.7464496981597
 20
184.990935323412
 10
135.7464496981597
 20
184.7586174249404
 10
135.7464496981597
 20
184.6143972905356
 10
135.7464496981597
 20
184.5655067199477
  0
LWPOLYLINE
  5
4A87
330
1F
100
AcDbEntity
  8
HEWI
  6
CUSTOM
 62
    18
420
        0
370
     9
100
AcDbPolyline
 90
       39
 70
     0
 43
0.0
 10
135.2464497154246
 20
184.5655067199477
 10
135.2464497154246
 20
184.6143972905356
 10
135.2464497154246
 20
184.7586174249404
 10
135.2464497154246
 20
184.990935323412
 10
135.2464497154246
 20
185.2997015964474
 10
135.2464497154246
 20
185.6694334138178
 10
135.2464497154246
 20
186.0815908783383
 10
135.2464497154246
 20
186.5155066937149
 10
135.2464497154246
 20
186.6155066923711
 10
135.2464497154246
 20
187.0494225077477
 10
135.2464497154246
 20
187.461579972266
 10
135.2464497154246
 20
187.8313117896386
 10
135.2464497154246
 20
188.1400780626718
 10
135.2464497154246
 20
188.3723959611434
 10
135.2464497154246
 20
188.5166160955482
 10
135.2464497154246
 20
188.5655066661361
 10
105.4964507428066
 20
188.5655066661361
 10
103.7051572863187
 20
188.5655066661361
 10
102.0036867635294
 20
188.5655066661361
 10
100.4773580111727
 20
188.5655066661361
 10
99.20270752628447
 20
188.5655066661361
 10
98.24365160665955
 20
188.5655066661361
 10
97.64828132077035
 20
188.5655066661361
 10
97.44645102080447
 20
188.5655066661361
 10
97.01253521457282
 20
188.5166160955482
 10
96.60037775874251
 20
188.3723959611434
 10
96.23064594916421
 20
188.1400780626718
 10
95.92187968264076
 20
187.8313117896386
 10
95.68956178906679
 20
187.461579972266
 10
95.54534165770197
 20
187.0494225077477
 10
95.49645108814408
 20
186.6155066923711
 10
95.49645108814408
 20
186.5155066937149
 10
95.54534165770197
 20
186.0815908783383
 10
95.68956178906679
 20
185.6694334138178
 10
95.92187968264076
 20
185.2997015964474
 10
96.23064594916421
 20
184.990935323412
 10
96.60037775874251
 20
184.7586174249404
 10
97.01253521457282
 20
184.6143972905356
 10
97.44645102080447
 20
184.56550671995
  0
LINE
  5
4A88
330
1F
100
AcDbEntity
  8
HEWI
  6
CUSTOM
 62
    18
420
        0
370
     9
100
AcDbLine
 10
135.746448744484
 20
184.5655067199477
 30
0.0
 11
135.246450669098
 21
184.5655067199477
 31
0.0
  0
LINE
  5
4A89
330
1F
100
AcDbEntity
  8
HEWI
  6
CUSTOM
 62
    18
420
        0
370
     9
100
AcDbLine
 10
94.99645110541356
 20
185.1655067118777
 30
0.0
 11
94.99645110541356
 21
190.1655066446114
 31
0.0
  0
LWPOLYLINE
  5
4A8A
330
1F
100
AcDbEntity
  8
HEWI
  6
CUSTOM
 62
    18
420
        0
370
     9
100
AcDbPolyline
 90
        4
 70
     0
 43
0.0
 10
176.6604071011683
 20
184.5655067195566
 10
176.7613473588121
 20
184.8539774085288
 10
176.7964482805441
 20
185.1655067118777
 10
176.7964482805441
 20
190.1655066446114
  0
LINE
  5
4A8B
330
1F
100
AcDbEntity
  8
HEWI
  6
CUSTOM
 62
    18
420
        0
370
     9
100
AcDbLine
 10
135.246450669098
 20
183.7655067307123
 30
0.0
 11
135.746448744484
 21
183.7655067307123
 31
0.0
  0
LINE
  5
4A8C
330
1F
100
AcDbEntity
  8
HEWI
  6
CUSTOM
 62
    18
420
        0
370
     9
100
AcDbLine
 10
135.7464496981597
 20
184.5655067199477
 30
0.0
 11
165.4964486707753
 21
184.5655067199477
 31
0.0
  0
LWPOLYLINE
  5
4A8D
330
1F
100
AcDbEntity
  8
HEWI
  6
CUSTOM
 62
    18
420
        0
370
     9
100
AcDbPolyline
 90
        3
 70
     0
 43
0.0
 10
252.7263090590181
 20
17.79422421208617
 10
252.8692117757159
 20
17.9208249744597
 10
252.8746591347467
 20
17.92871683663359
  0
LINE
  5
4A8E
330
1F
100
AcDbEntity
  8
HEWI
  6
CUSTOM
 62
    18
420
        0
370
     9
100
AcDbLine
 10
262.8171560285514
 20
7.986219814103584
 30
0.0
 11
262.6757345961701
 21
7.844798378743668
 31
0.0
  0
LINE
  5
4A8F
330
1F
100
AcDbEntity
  8
HEWI
  6
CUSTOM
 62
    18
420
        0
370
     9
100
AcDbLine
 10
8.317164817414294
 20
7.844798378741394
 30
0.0
 11
8.175743385032973
 21
7.98621981410131
 31
0.0
  0
LWPOLYLINE
  5
4A90
330
1F
100
AcDbEntity
  8
HEWI
  6
CUSTOM
 62
    18
420
        0
370
     9
100
AcDbPolyline
 90
       28
 70
     0
 43
0.0
 10
212.4834762806713
 20
190.1655066446114
 10
212.4584854947706
 20
189.9429857136483
 10
212.3847662794301
 20
189.7316229113307
 10
212.2660152239236
 20
189.5420168511391
 10
212.1081870020466
 20
189.3836751726594
 10
211.9191957798707
 20
189.2645377888284
 10
211.7085183664326
 20
189.1905787455443
 10
211.4867190069585
 20
189.1655066580637
 10
211.4575978714756
 20
189.1655066580637
 10
211.2563854214854
 20
189.1655066580637
 10
210.8947753932093
 20
189.1655066580637
 10
210.3937832470855
 20
189.1655066580637
 10
209.7825248256154
 20
189.1655066580637
 10
209.0965242464258
 20
189.1655066580637
 10
208.3756493696651
 20
189.1655066580637
 10
207.6617948228945
 20
189.1655066580637
 10
206.9964472376218
 20
189.1655066580637
 10
206.4182741970594
 20
189.1655066580637
 10
205.9608770167519
 20
189.1655066580637
 10
205.6508379582501
 20
189.1655066580637
 10
205.5061753646842
 20
189.1655066580637
 10
205.2843760052124
 20
189.1905787455443
 10
205.0736985917742
 20
189.2645377888284
 10
204.884707369596
 20
189.3836751726594
 10
204.7268791477168
 20
189.5420168511391
 10
204.6081280922149
 20
189.7316229113307
 10
204.534408876872
 20
189.9429857136483
 10
204.5094180909714
 20
190.1655066446114
  0
LWPOLYLINE
  5
4A91
330
1F
100
AcDbEntity
  8
HEWI
  6
CUSTOM
 62
    18
420
        0
370
     9
100
AcDbPolyline
 90
        3
 70
     0
 43
0.0
 10
18.12516900863463
 20
17.93564556099634
 10
18.25176976833879
 20
17.79274284128585
 10
18.2596616303467
 20
17.78729548214139
  0
LINE
  5
4A92
330
1F
100
AcDbEntity
  8
HEWI
  6
CUSTOM
 62
    18
420
        0
370
     9
100
AcDbLine
 10
172.8964484152279
 20
190.1655066446114
 30
0.0
 11
172.9501086513132
 21
189.8611843168323
 31
0.0
  0
LINE
  5
4A93
330
1F
100
AcDbEntity
  8
HEWI
  6
CUSTOM
 62
    18
420
        0
370
     9
100
AcDbLine
 10
96.89645103979863
 20
190.1655066446114
 30
0.0
 11
96.95011127588621
 21
189.8611843168323
 31
0.0
  0
LINE
  5
4A94
330
1F
100
AcDbEntity
  8
HEWI
  6
CUSTOM
 62
    18
420
        0
370
     9
100
AcDbLine
 10
98.09645099835641
 20
190.1655066446114
 30
0.0
 11
98.15011123444627
 21
189.8611843168323
 31
0.0
  0
LWPOLYLINE
  5
4A95
330
1F
100
AcDbEntity
  8
HEWI
  6
CUSTOM
 62
    18
420
        0
370
     9
100
AcDbPolyline
 90
       18
 70
     0
 43
0.0
 10
52.49645257310155
 20
205.165506442815
 10
52.49645257310155
 20
205.1304055203418
 10
52.49645257310155
 20
205.0268628597446
 10
52.49645257310155
 20
204.8600705223789
 10
52.49645257310155
 20
204.6383921725096
 10
52.49645257310155
 20
204.3729436882422
 10
52.49645257310155
 20
204.0770357649962
 10
52.49645257310155
 20
203.7655064616497
 10
52.49645257310155
 20
191.5655066257768
 10
52.49645257310155
 20
191.2539773224279
 10
52.49645257310155
 20
190.9580693991842
 10
52.49645257310155
 20
190.6926209149169
 10
52.49645257310155
 20
190.4709425650453
 10
52.49645257310155
 20
190.3041502276819
 10
52.49645257310155
 20
190.2006075670847
 10
52.49645257310155
 20
190.1655066446114
 10
20.6378750295348
 20
190.1655066446114
 10
20.47942646965018
 20
190.1877877211877
  0
LWPOLYLINE
  5
4A96
330
1F
100
AcDbEntity
  8
HEWI
  6
CUSTOM
 62
    18
420
        0
370
     9
100
AcDbPolyline
 90
        9
 70
     0
 43
0.0
 10
7.037875499196587
 20
203.7655064616497
 10
7.018783616764693
 20
204.0572958241496
 10
6.999691734332799
 20
204.3329892970582
 10
6.980599851898631
 20
204.5837164638028
 10
6.961507969464463
 20
204.8006069078037
 10
6.942416087032569
 20
204.9747902124881
 10
6.923324204600675
 20
205.0973959612811
 10
6.909889176219138
 20
205.1479636385393
 10
6.896454147842149
 20
205.165506442815
  0
LINE
  5
4A97
330
1F
100
AcDbEntity
  8
HEWI
  6
CUSTOM
 62
    18
420
        0
370
     9
100
AcDbLine
 10
265.4964452173922
 20
6.565509114584052
 30
0.0
 11
265.4964452173922
 21
203.7655064616497
 31
0.0
  0
LINE
  5
4A98
330
1F
100
AcDbEntity
  8
HEWI
  6
CUSTOM
 62
    18
420
        0
370
     9
100
AcDbLine
 10
6.896454147842149
 20
205.165506442815
 30
0.0
 11
52.49645257310155
 21
205.165506442815
 31
0.0
  0
LWPOLYLINE
  5
4A99
330
1F
100
AcDbEntity
  8
HEWI
  6
CUSTOM
 62
    18
420
        0
370
     9
100
AcDbPolyline
 90
        9
 70
     0
 43
0.0
 10
6.896454147842149
 20
204.3655064535773
 10
6.909889176219138
 20
204.3579881088881
 10
6.923324204600675
 20
204.336316247206
 10
6.942416087032569
 20
204.2837709262944
 10
6.961507969464463
 20
204.2091209385735
 10
6.980599851898631
 20
204.1161678911425
 10
6.999691734332799
 20
204.0087133911101
 10
7.018783616764693
 20
203.8905590455779
 10
7.037875499196587
 20
203.7655064616497
  0
LINE
  5
4A9A
330
1F
100
AcDbEntity
  8
HEWI
  6
CUSTOM
 62
    18
420
        0
370
     9
100
AcDbLine
 10
5.496454196189887
 20
203.7655064616497
 30
0.0
 11
5.496454196192161
 21
6.565509114584052
 31
0.0
  0
LWPOLYLINE
  5
4A9B
330
1F
100
AcDbEntity
  8
HEWI
  6
CUSTOM
 62
    18
420
        0
370
     9
100
AcDbPolyline
 90
        8
 70
     0
 43
0.0
 10
6.896454147842149
 20
204.3655064535773
 10
6.762941592079613
 20
204.3504632010895
 10
6.636123913362069
 20
204.3060877751186
 10
6.522360279647244
 20
204.23460534482
 10
6.427355274560312
 20
204.1396003377322
 10
6.355872845769198
 20
204.0258367016186
 10
6.311497420735094
 20
203.8990190202271
 10
6.296454168560984
 20
203.7655064616497
  0
LINE
  5
4A9C
330
1F
100
AcDbEntity
  8
HEWI
  6
CUSTOM
 62
    18
420
        0
370
     9
100
AcDbLine
 10
6.896454147842149
 20
205.165506442815
 30
0.0
 11
6.896454147842149
 21
204.3655064535773
 31
0.0
  0
LINE
  5
4A9D
330
1F
100
AcDbEntity
  8
HEWI
  6
CUSTOM
 62
    18
420
        0
370
     9
100
AcDbLine
 10
6.896454147844423
 20
5.165509133418687
 30
0.0
 11
264.0964452657377
 21
5.165509133418687
 31
0.0
  0
LINE
  5
4A9E
330
1F
100
AcDbEntity
  8
HEWI
  6
CUSTOM
 62
    18
420
        0
370
     9
100
AcDbLine
 10
264.0964452657422
 20
205.165506442815
 30
0.0
 11
218.4964468404828
 21
205.1655064428173
 31
0.0
  0
LWPOLYLINE
  5
4A9F
330
1F
100
AcDbEntity
  8
HEWI
  6
CUSTOM
 62
    18
420
        0
370
     9
100
AcDbPolyline
 90
        4
 70
     0
 43
0.0
 10
52.49645257310155
 20
204.3655064535773
 10
55.49645246949828
 20
204.3655064535773
 10
55.49645246949828
 20
205.165506442815
 10
52.49645257310155
 20
205.165506442815
  0
LWPOLYLINE
  5
4AA0
330
1F
100
AcDbEntity
  8
HEWI
  6
CUSTOM
 62
    18
420
        0
370
     9
100
AcDbPolyline
 90
        8
 70
     0
 43
0.0
 10
5.496454196189887
 20
203.7655064616497
 10
5.53155511792417
 20
204.0770357649962
 10
5.635097776338596
 20
204.3729436882422
 10
5.801890110189077
 20
204.6383921725096
 10
6.023568455385856
 20
204.8600705223789
 10
6.289016934055297
 20
205.0268628597446
 10
6.58492485106214
 20
205.1304055203418
 10
6.896454147842149
 20
205.165506442815
  0
LINE
  5
4AA1
330
1F
100
AcDbEntity
  8
HEWI
  6
CUSTOM
 62
    18
420
        0
370
     9
100
AcDbLine
 10
6.296454168560984
 20
203.7655064616497
 30
0.0
 11
5.496454196189887
 21
203.7655064616497
 31
0.0
  0
LINE
  5
4AA2
330
1F
100
AcDbEntity
  8
HEWI
  6
CUSTOM
 62
    18
420
        0
370
     9
100
AcDbLine
 10
6.896454147844423
 20
5.965509122656364
 30
0.0
 11
6.896454147844423
 21
5.165509133418687
 31
0.0
  0
LWPOLYLINE
  5
4AA3
330
1F
100
AcDbEntity
  8
HEWI
  6
CUSTOM
 62
    18
420
        0
370
     9
100
AcDbPolyline
 90
        8
 70
     0
 43
0.0
 10
6.296454168563258
 20
6.565509114584052
 10
6.311497420735094
 20
6.43199655600663
 10
6.355872845771472
 20
6.305178874615172
 10
6.427355274562586
 20
6.191415238501555
 10
6.522360279647244
 20
6.096410231413734
 10
6.636123913364343
 20
6.024927801115133
 10
6.762941592079613
 20
5.980552375144249
 10
6.896454147844423
 20
5.965509122656364
  0
LWPOLYLINE
  5
4AA4
330
1F
100
AcDbEntity
  8
HEWI
  6
CUSTOM
 62
    18
420
        0
370
     9
100
AcDbPolyline
 90
        8
 70
     0
 43
0.0
 10
6.896454147844423
 20
5.165509133418687
 10
6.584924851064414
 20
5.200610055891935
 10
6.289016934057571
 20
5.304152716489149
 10
6.023568455385856
 20
5.470945053854826
 10
5.801890110189077
 20
5.692623403724134
 10
5.63509777634087
 20
5.958071887991515
 10
5.53155511792417
 20
6.253979811237492
 10
5.496454196192161
 20
6.565509114584052
  0
LINE
  5
4AA5
330
1F
100
AcDbEntity
  8
HEWI
  6
CUSTOM
 62
    18
420
        0
370
     9
100
AcDbLine
 10
5.496454196192161
 20
6.565509114584052
 30
0.0
 11
6.296454168563258
 21
6.565509114584052
 31
0.0
  0
LWPOLYLINE
  5
4AA6
330
1F
100
AcDbEntity
  8
HEWI
  6
CUSTOM
 62
    18
420
        0
370
     9
100
AcDbPolyline
 90
        8
 70
     0
 43
0.0
 10
265.4964452173922
 20
203.7655064616497
 10
265.4613442956602
 20
204.0770357649962
 10
265.3578016372435
 20
204.3729436882422
 10
265.1910093033953
 20
204.6383921725096
 10
264.9693309581985
 20
204.8600705223789
 10
264.7038824795268
 20
205.0268628597446
 10
264.4079745625199
 20
205.1304055203418
 10
264.0964452657422
 20
205.165506442815
  0
LWPOLYLINE
  5
4AA7
330
1F
100
AcDbEntity
  8
HEWI
  6
CUSTOM
 62
    18
420
        0
370
     9
100
AcDbPolyline
 90
        8
 70
     0
 43
0.0
 10
264.0964452657377
 20
5.165509133418687
 10
264.4079745625199
 20
5.200610055891935
 10
264.7038824795268
 20
5.304152716489149
 10
264.9693309581985
 20
5.470945053854826
 10
265.1910093033953
 20
5.692623403724134
 10
265.3578016372435
 20
5.958071887991515
 10
265.4613442956602
 20
6.253979811237492
 10
265.4964452173922
 20
6.565509114584052
  0
LWPOLYLINE
  5
4AA8
330
1F
100
AcDbEntity
  8
HEWI
  6
CUSTOM
 62
    18
420
        0
370
     9
100
AcDbPolyline
 90
        8
 70
     0
 43
0.0
 10
264.0964452657377
 20
5.965509122656364
 10
264.2299578215047
 20
5.980552375144249
 10
264.35677550022
 20
6.024927801115133
 10
264.4705391339371
 20
6.096410231413734
 10
264.5655441390195
 20
6.191415238501555
 10
264.6370265678129
 20
6.305178874615172
 10
264.6814019928493
 20
6.43199655600663
 10
264.6964452450188
 20
6.565509114584052
  0
LWPOLYLINE
  5
4AA9
330
1F
100
AcDbEntity
  8
HEWI
  6
CUSTOM
 62
    18
420
        0
370
     9
100
AcDbPolyline
 90
        8
 70
     0
 43
0.0
 10
264.6964452450211
 20
203.7655064616497
 10
264.6814019928493
 20
203.8990190202271
 10
264.6370265678129
 20
204.0258367016186
 10
264.5655441390218
 20
204.1396003377322
 10
264.4705391339371
 20
204.23460534482
 10
264.35677550022
 20
204.3060877751186
 10
264.2299578215047
 20
204.3504632010895
 10
264.0964452657422
 20
204.3655064535773
  0
LINE
  5
4AAA
330
1F
100
AcDbEntity
  8
HEWI
  6
CUSTOM
 62
    18
420
        0
370
     9
100
AcDbLine
 10
265.4964452173922
 20
203.7655064616497
 30
0.0
 11
264.6964452450211
 21
203.7655064616497
 31
0.0
  0
LINE
  5
4AAB
330
1F
100
AcDbEntity
  8
HEWI
  6
CUSTOM
 62
    18
420
        0
370
     9
100
AcDbLine
 10
264.0964452657422
 20
204.3655064535773
 30
0.0
 11
264.0964452657422
 21
205.165506442815
 31
0.0
  0
LWPOLYLINE
  5
4AAC
330
1F
100
AcDbEntity
  8
HEWI
  6
CUSTOM
 62
    18
420
        0
370
     9
100
AcDbPolyline
 90
        8
 70
     0
 43
0.0
 10
6.896454147844423
 20
5.965509122656364
 10
6.915546030276317
 20
5.980503863428999
 10
6.934637912710485
 20
6.0229536810102
 10
6.953729795142379
 20
6.089056968296041
 10
6.972821677574273
 20
6.1750121181826
 10
6.991913560006167
 20
6.277017523568225
 10
7.011005442440335
 20
6.391271577346721
 10
7.024440470819598
 20
6.476961242467019
  0
LINE
  5
4AAD
330
1F
100
AcDbEntity
  8
HEWI
  6
CUSTOM
 62
    18
420
        0
370
     9
100
AcDbLine
 10
264.0964452657377
 20
5.165509133418687
 30
0.0
 11
264.0964452657377
 21
5.965509122656364
 31
0.0
  0
LINE
  5
4AAE
330
1F
100
AcDbEntity
  8
HEWI
  6
CUSTOM
 62
    18
420
        0
370
     9
100
AcDbLine
 10
264.6964452450188
 20
6.565509114584052
 30
0.0
 11
265.4964452173922
 21
6.565509114584052
 31
0.0
  0
LWPOLYLINE
  5
4AB6
330
1F
100
AcDbEntity
  8
HEWI
  6
CUSTOM
 62
    18
420
        0
370
     9
100
AcDbPolyline
 90
       10
 70
     0
 43
0.0
 10
251.4964488393129
 20
503.3494649569338
 10
264.0964487450869
 20
503.3494649569338
 10
264.407978050298
 20
503.3494649569338
 10
264.7038859753106
 20
503.3494649569338
 10
264.9693344611628
 20
503.3494649569338
 10
265.1910128123577
 20
503.3494649569338
 10
265.3578051507193
 20
503.3494649569338
 10
265.461347811935
 20
503.3494649569338
 10
265.4964487346174
 20
503.3494649569338
 10
265.4964487346174
 20
1001.94947030804
  0
LWPOLYLINE
  5
4AB7
330
1F
100
AcDbEntity
  8
HEWI
  6
CUSTOM
 62
    18
420
        0
370
     9
100
AcDbPolyline
 90
       10
 70
     0
 43
0.0
 10
19.49645057426457
 20
503.3494649569338
 10
6.896450668490587
 20
503.3494649569338
 10
6.584921363281836
 20
503.3494649569338
 10
6.289013438269165
 20
503.3494649569338
 10
6.023564952414716
 20
503.3494649569338
 10
5.80188660121982
 20
503.3494649569338
 10
5.635094262860519
 20
503.3494649569338
 10
5.531551601642576
 20
503.3494649569338
 10
5.496450678960144
 20
503.3494649569338
 10
5.496450678960144
 20
1001.94947030804
  0
LWPOLYLINE
  5
4AB8
330
1F
100
AcDbEntity
  8
HEWI
  6
CUSTOM
 62
    18
420
        0
370
     9
100
AcDbPolyline
 90
       11
 70
     0
 43
0.0
 10
20.49645056678762
 20
503.3494649569338
 10
20.49645056678762
 20
503.3845658802552
 10
20.49645056678762
 20
503.488108543358
 10
20.49645056678762
 20
503.6549008847562
 10
20.49645056678762
 20
503.8765792399892
 10
20.49645056678762
 20
504.1420277306742
 10
20.49645056678762
 20
504.4379356610757
 10
20.49645056678762
 20
504.7494649719586
 10
20.49645056678762
 20
505.3494649783983
 10
19.49645057426457
 20
505.3494649783983
 10
19.49645057426457
 20
503.3494649569338
  0
LWPOLYLINE
  5
4AB9
330
1F
100
AcDbEntity
  8
HEWI
  6
CUSTOM
 62
    18
420
        0
370
     9
100
AcDbPolyline
 90
       11
 70
     0
 43
0.0
 10
251.4964488393129
 20
503.3494649569338
 10
251.4964488393129
 20
505.3494649783983
 10
250.4964488467922
 20
505.3494649783983
 10
250.4964488467922
 20
504.7494649719586
 10
250.4964488467922
 20
504.4379356610757
 10
250.4964488467922
 20
504.1420277306742
 10
250.4964488467922
 20
503.8765792399892
 10
250.4964488467922
 20
503.6549008847562
 10
250.4964488467922
 20
503.488108543358
 10
250.4964488467922
 20
503.3845658802552
 10
250.4964488467922
 20
503.3494649569338
  0
LINE
  5
4ABA
330
1F
100
AcDbEntity
  8
HEWI
  6
CUSTOM
 62
    18
420
        0
370
     9
100
AcDbLine
 10
263.9550273899081
 20
1003.349470323066
 30
0.0
 11
7.03787202366945
 21
1003.349470323066
 31
0.0
  0
LWPOLYLINE
  5
4ABB
330
1F
100
AcDbEntity
  8
HEWI
  6
CUSTOM
 62
    18
420
        0
370
     9
100
AcDbPolyline
 90
       16
 70
     0
 43
0.0
 10
7.03787202366945
 20
1003.349470323066
 10
7.024436994928663
 20
1003.331927518365
 10
7.011001966185602
 20
1003.281359839884
 10
6.99191008323757
 20
1003.158754088126
 10
6.972818200287264
 20
1002.984570779228
 10
6.953726317339231
 20
1002.767680329982
 10
6.934634434388925
 20
1002.516953157173
 10
6.915542551440893
 20
1002.241259677598
 10
6.896450668490587
 20
1001.94947030804
 10
6.584921363281836
 20
1001.94947030804
 10
6.289013438269165
 20
1001.94947030804
 10
6.023564952414716
 20
1001.94947030804
 10
5.80188660121982
 20
1001.94947030804
 10
5.635094262860519
 20
1001.94947030804
 10
5.531551601642576
 20
1001.94947030804
 10
5.496450678960144
 20
1001.94947030804
  0
LWPOLYLINE
  5
4ABC
330
1F
100
AcDbEntity
  8
HEWI
  6
CUSTOM
 62
    18
420
        0
370
     9
100
AcDbPolyline
 90
        3
 70
     0
 43
0.0
 10
5.687166910426157
 20
1002.622617370025
 10
5.630487982583844
 20
1002.516953157173
 10
5.564561160901092
 20
1002.356024571426
  0
LWPOLYLINE
  5
4ABD
330
1F
100
AcDbEntity
  8
HEWI
  6
CUSTOM
 62
    18
420
        0
370
     9
100
AcDbPolyline
 90
       16
 70
     0
 43
0.0
 10
265.4964487346174
 20
1001.94947030804
 10
265.461347811935
 20
1001.94947030804
 10
265.3578051507193
 20
1001.94947030804
 10
265.1910128123577
 20
1001.94947030804
 10
264.9693344611628
 20
1001.94947030804
 10
264.7038859753106
 20
1001.94947030804
 10
264.407978050298
 20
1001.94947030804
 10
264.0964487450869
 20
1001.94947030804
 10
264.0830137163462
 20
1002.156082014645
 10
264.0695786876031
 20
1002.356024571426
 10
264.0504868046551
 20
1002.622617370025
 10
264.0313949217047
 20
1002.860629988346
 10
264.0123030387567
 20
1003.061192009601
 10
263.9932111558064
 20
1003.215433016998
 10
263.9741192728584
 20
1003.31448259375
 10
263.9550273899081
 20
1003.349470323066
  0
LINE
  5
4ABE
330
1F
100
AcDbEntity
  8
HEWI
  6
CUSTOM
 62
    18
420
        0
370
     9
100
AcDbLine
 10
5.861350216151976
 20
1002.860629988346
 30
0.0
 11
6.078240661448916
 21
1003.061192009601
 31
0.0
  0
LINE
  5
4ABF
330
1F
100
AcDbEntity
  8
HEWI
  6
CUSTOM
 62
    18
420
        0
370
     9
100
AcDbLine
 10
6.32896782969189
 20
1003.215433016998
 30
0.0
 11
6.604661304246718
 21
1003.31448259375
 31
0.0
  0
LWPOLYLINE
  5
4AC0
330
1F
100
AcDbEntity
  8
HEWI
  6
CUSTOM
 62
    18
420
        0
370
     9
100
AcDbPolyline
 90
       11
 70
     0
 43
0.0
 10
6.937110487312082
 20
1002.54947031448
 10
6.896450668490587
 20
1002.54947031448
 10
6.771398083814318
 20
1002.534475573346
 10
6.653243737577184
 20
1002.492025754738
 10
6.545789236901299
 20
1002.425922465852
 10
6.452836188917871
 20
1002.339967313887
 10
6.378186200749013
 20
1002.237961906034
 10
6.32564087952366
 20
1002.123707849492
 10
6.303969017711978
 20
1002.0380181823
 10
6.296450672977215
 20
1001.94947030804
 10
6.309862273089009
 20
1002.061319876146
  0
LINE
  5
4AC1
330
1F
100
AcDbEntity
  8
HEWI
  6
CUSTOM
 62
    18
420
        0
370
     9
100
AcDbLine
 10
5.513993483340499
 20
1002.156082014645
 30
0.0
 11
5.564561160901092
 21
1002.356024571426
 31
0.0
  0
LWPOLYLINE
  5
4AC2
330
1F
100
AcDbEntity
  8
HEWI
  6
CUSTOM
 62
    18
420
        0
370
     9
100
AcDbPolyline
 90
        3
 70
     0
 43
0.0
 10
6.896450668490587
 20
1003.349470323066
 10
6.689838965648021
 20
1003.331927518365
 10
6.604661304246718
 20
1003.31448259375
  0
LWPOLYLINE
  5
4AC3
330
1F
100
AcDbEntity
  8
HEWI
  6
CUSTOM
 62
    18
420
        0
370
     9
100
AcDbPolyline
 90
        3
 70
     0
 43
0.0
 10
6.604661304246718
 20
1003.31448259375
 10
6.489896412507704
 20
1003.281359839884
 10
6.32896782969189
 20
1003.215433016998
  0
LWPOLYLINE
  5
4AC4
330
1F
100
AcDbEntity
  8
HEWI
  6
CUSTOM
 62
    18
420
        0
370
     9
100
AcDbPolyline
 90
        3
 70
     0
 43
0.0
 10
6.32896782969189
 20
1003.215433016998
 10
6.223303618763992
 20
1003.158754088126
 10
6.078240661448916
 20
1003.061192009601
  0
LINE
  5
4AC5
330
1F
100
AcDbEntity
  8
HEWI
  6
CUSTOM
 62
    18
420
        0
370
     9
100
AcDbLine
 10
5.687166910426157
 20
1002.622617370025
 30
0.0
 11
5.861350216151976
 21
1002.860629988346
 31
0.0
  0
LINE
  5
4AC6
330
1F
100
AcDbEntity
  8
HEWI
  6
CUSTOM
 62
    18
420
        0
370
     9
100
AcDbLine
 10
6.604661304246718
 20
1003.31448259375
 30
0.0
 11
6.896450668490587
 21
1003.349470323066
 31
0.0
  0
LINE
  5
4AC7
330
1F
100
AcDbEntity
  8
HEWI
  6
CUSTOM
 62
    18
420
        0
370
     9
100
AcDbLine
 10
5.496450678960144
 20
1001.94947030804
 30
0.0
 11
5.513993483340499
 21
1002.156082014645
 31
0.0
  0
LINE
  5
4AC8
330
1F
100
AcDbEntity
  8
HEWI
  6
CUSTOM
 62
    18
420
        0
370
     9
100
AcDbLine
 10
6.078240661448916
 20
1003.061192009601
 30
0.0
 11
6.32896782969189
 21
1003.215433016998
 31
0.0
  0
LINE
  5
4AC9
330
1F
100
AcDbEntity
  8
HEWI
  6
CUSTOM
 62
    18
420
        0
370
     9
100
AcDbLine
 10
5.564561160901092
 20
1002.356024571426
 30
0.0
 11
5.687166910426157
 21
1002.622617370025
 31
0.0
  0
LWPOLYLINE
  5
4ACA
330
1F
100
AcDbEntity
  8
HEWI
  6
CUSTOM
 62
    18
420
        0
370
     9
100
AcDbPolyline
 90
        3
 70
     0
 43
0.0
 10
6.078240661448916
 20
1003.061192009601
 10
5.985291004775689
 20
1002.984570779228
 10
5.861350216151976
 20
1002.860629988346
  0
LWPOLYLINE
  5
4ACB
330
1F
100
AcDbEntity
  8
HEWI
  6
CUSTOM
 62
    18
420
        0
370
     9
100
AcDbPolyline
 90
        3
 70
     0
 43
0.0
 10
5.861350216151976
 20
1002.860629988346
 10
5.784728987174702
 20
1002.767680329982
 10
5.687166910426157
 20
1002.622617370025
  0
LWPOLYLINE
  5
4ACC
330
1F
100
AcDbEntity
  8
HEWI
  6
CUSTOM
 62
    18
420
        0
370
     9
100
AcDbPolyline
 90
       10
 70
     0
 43
0.0
 10
264.6964487406003
 20
1001.94947030804
 10
264.681453999739
 20
1002.074522894994
 10
264.6390041819032
 20
1002.192677243383
 10
264.572900894224
 20
1002.300131746015
 10
264.4869457438213
 20
1002.393084795693
 10
264.3849403378263
 20
1002.467734785219
 10
264.2706862833656
 20
1002.520280107402
 10
264.1849966177338
 20
1002.541951969609
 10
264.0964487450869
 20
1002.54947031448
 10
264.0557253977286
 20
1002.54947031448
  0
LWPOLYLINE
  5
4ACD
330
1F
100
AcDbEntity
  8
HEWI
  6
CUSTOM
 62
    18
420
        0
370
     9
100
AcDbPolyline
 90
        3
 70
     0
 43
0.0
 10
264.7695957948136
 20
1003.158754088126
 10
264.9146587521286
 20
1003.061192009601
 10
265.0076084088019
 20
1002.984570779228
  0
LINE
  5
4ACE
330
1F
100
AcDbEntity
  8
HEWI
  6
CUSTOM
 62
    18
420
        0
370
     9
100
AcDbLine
 10
265.0076084088019
 20
1002.984570779228
 30
0.0
 11
265.2081704264028
 21
1002.767680329982
 31
0.0
  0
LWPOLYLINE
  5
4ACF
330
1F
100
AcDbEntity
  8
HEWI
  6
CUSTOM
 62
    18
420
        0
370
     9
100
AcDbPolyline
 90
        3
 70
     0
 43
0.0
 10
264.246448743967
 20
1001.949470314001
 10
264.2464487438192
 20
1002.525512608926
 10
264.3052247582263
 20
1002.504395898204
  0
LWPOLYLINE
  5
4AD0
330
1F
100
AcDbEntity
  8
HEWI
  6
CUSTOM
 62
    18
420
        0
370
     9
100
AcDbPolyline
 90
        3
 70
     0
 43
0.0
 10
5.564561160901092
 20
1002.356024571426
 10
5.531438407637295
 20
1002.241259677598
 10
5.513993483340499
 20
1002.156082014645
  0
LINE
  5
4AD1
330
1F
100
AcDbEntity
  8
HEWI
  6
CUSTOM
 62
    18
420
        0
370
     9
100
AcDbLine
 10
264.3030604479295
 20
1003.331927518365
 30
0.0
 11
264.5030030010698
 21
1003.281359839884
 31
0.0
  0
LINE
  5
4AD2
330
1F
100
AcDbEntity
  8
HEWI
  6
CUSTOM
 62
    18
420
        0
370
     9
100
AcDbLine
 10
265.2081704264028
 20
1002.767680329982
 30
0.0
 11
265.3624114309937
 21
1002.516953157173
 31
0.0
  0
LWPOLYLINE
  5
4AD3
330
1F
100
AcDbEntity
  8
HEWI
  6
CUSTOM
 62
    18
420
        0
370
     9
100
AcDbPolyline
 90
        3
 70
     0
 43
0.0
 10
263.9550273940054
 20
1003.349470323066
 10
264.0964487450869
 20
1003.349470323066
 10
264.3030604479295
 20
1003.331927518365
  0
LINE
  5
4AD4
330
1F
100
AcDbEntity
  8
HEWI
  6
CUSTOM
 62
    18
420
        0
370
     9
100
AcDbLine
 10
250.4964488467922
 20
503.3494649569338
 30
0.0
 11
20.49645056678762
 21
503.3494649569338
 31
0.0
  0
LINE
  5
4AD5
330
1F
100
AcDbEntity
  8
HEWI
  6
CUSTOM
 62
    18
420
        0
370
     9
100
AcDbLine
 10
251.4964494115193
 20
503.3494649569338
 30
0.0
 11
250.4964489421618
 21
503.3494649569338
 31
0.0
  0
LINE
  5
4AD6
330
1F
100
AcDbEntity
  8
HEWI
  6
CUSTOM
 62
    18
420
        0
370
     9
100
AcDbLine
 10
20.49645190193039
 20
503.3494649569338
 30
0.0
 11
19.49645000205825
 21
503.3494649569338
 31
0.0
  0
LWPOLYLINE
  5
4AD7
330
1F
100
AcDbEntity
  8
HEWI
  6
CUSTOM
 62
    18
420
        0
370
     9
100
AcDbPolyline
 90
        3
 70
     0
 43
0.0
 10
264.5030030010698
 20
1003.281359839884
 10
264.6639315838879
 20
1003.215433016998
 10
264.7695957948136
 20
1003.158754088126
  0
LWPOLYLINE
  5
4AD8
330
1F
100
AcDbEntity
  8
HEWI
  6
CUSTOM
 62
    18
420
        0
370
     9
100
AcDbPolyline
 90
        3
 70
     0
 43
0.0
 10
265.3624114309937
 20
1002.516953157173
 10
265.4283382526764
 20
1002.356024571426
 10
265.4614610059403
 20
1002.241259677598
  0
LWPOLYLINE
  5
4AD9
330
1F
100
AcDbEntity
  8
HEWI
  6
CUSTOM
 62
    18
420
        0
370
     9
100
AcDbPolyline
 90
        3
 70
     0
 43
0.0
 10
265.4614610059403
 20
1002.241259677598
 10
265.478905930237
 20
1002.156082014644
 10
265.4964487346174
 20
1001.94947030804
  0
LWPOLYLINE
  5
4ADA
330
1F
100
AcDbEntity
  8
HEWI
  6
CUSTOM
 62
    18
420
        0
370
     9
100
AcDbPolyline
 90
        3
 70
     0
 43
0.0
 10
265.0076084088019
 20
1002.984570779228
 10
265.1315491974255
 20
1002.860629988346
 10
265.2081704264028
 20
1002.767680329982
  0
LINE
  5
4ADB
330
1F
100
AcDbEntity
  8
HEWI
  6
CUSTOM
 62
    18
420
        0
370
     9
100
AcDbLine
 10
264.3619682450244
 20
1002.47829962706
 30
0.0
 11
264.4155192804478
 21
1002.445356385571
 31
0.0
  0
LINE
  5
4ADC
330
1F
100
AcDbEntity
  8
HEWI
  6
CUSTOM
 62
    18
420
        0
370
     9
100
AcDbLine
 10
264.4662144055055
 20
1002.408256483642
 30
0.0
 11
264.5124656554744
 21
1002.365487222107
 31
0.0
  0
LINE
  5
4ADD
330
1F
100
AcDbEntity
  8
HEWI
  6
CUSTOM
 62
    18
420
        0
370
     9
100
AcDbLine
 10
265.3624114309937
 20
1002.516953157173
 30
0.0
 11
265.4614610059403
 21
1002.241259677598
 31
0.0
  0
LWPOLYLINE
  5
4ADE
330
1F
100
AcDbEntity
  8
HEWI
  6
CUSTOM
 62
    18
420
        0
370
     9
100
AcDbPolyline
 90
        3
 70
     0
 43
0.0
 10
264.3030604479295
 20
1003.331927518365
 10
264.3882381093308
 20
1003.31448259375
 10
264.5030030010698
 20
1003.281359839884
  0
LWPOLYLINE
  5
4ADF
330
1F
100
AcDbEntity
  8
HEWI
  6
CUSTOM
 62
    18
420
        0
370
     9
100
AcDbPolyline
 90
        3
 70
     0
 43
0.0
 10
265.2081704264028
 20
1002.767680329982
 10
265.3057325031514
 20
1002.622617370025
 10
265.3624114309937
 20
1002.516953157173
  0
LINE
  5
4AE0
330
1F
100
AcDbEntity
  8
HEWI
  6
CUSTOM
 62
    18
420
        0
370
     9
100
AcDbLine
 10
6.526685007519489
 20
1002.408256483231
 30
0.0
 11
6.577380131119724
 21
1002.445356384055
 31
0.0
  0
LINE
  5
4AE1
330
1F
100
AcDbEntity
  8
HEWI
  6
CUSTOM
 62
    18
420
        0
370
     9
100
AcDbLine
 10
6.367621359101093
 20
1002.214989812812
 30
0.0
 11
6.400564599988655
 21
1002.26854084921
 31
0.0
  0
LINE
  5
4AE2
330
1F
100
AcDbEntity
  8
HEWI
  6
CUSTOM
 62
    18
420
        0
370
     9
100
AcDbLine
 10
6.630931169262538
 20
1002.478299627409
 30
0.0
 11
6.687674656626739
 21
1002.504395898908
 31
0.0
  0
LINE
  5
4AE3
330
1F
100
AcDbEntity
  8
HEWI
  6
CUSTOM
 62
    18
420
        0
370
     9
100
AcDbLine
 10
265.4614610059403
 20
1002.241259677598
 30
0.0
 11
265.4964487346174
 21
1001.94947030804
 31
0.0
  0
LINE
  5
4AE4
330
1F
100
AcDbEntity
  8
HEWI
  6
CUSTOM
 62
    18
420
        0
370
     9
100
AcDbLine
 10
264.5552349119239
 20
1002.319235975744
 30
0.0
 11
264.5923348120723
 21
1002.26854085122
 31
0.0
  0
LINE
  5
4AE5
330
1F
100
AcDbEntity
  8
HEWI
  6
CUSTOM
 62
    18
420
        0
370
     9
100
AcDbLine
 10
264.5030030010698
 20
1003.281359839884
 30
0.0
 11
264.7695957948136
 21
1003.158754088126
 31
0.0
  0
LINE
  5
4AE6
330
1F
100
AcDbEntity
  8
HEWI
  6
CUSTOM
 62
    18
420
        0
370
     9
100
AcDbLine
 10
6.317377001800167
 20
1002.091032810612
 30
0.0
 11
6.341525088431779
 21
1002.158246324981
 31
0.0
  0
LINE
  5
4AE7
330
1F
100
AcDbEntity
  8
HEWI
  6
CUSTOM
 62
    18
420
        0
370
     9
100
AcDbLine
 10
264.7695957948136
 20
1003.158754088126
 30
0.0
 11
265.0076084088019
 21
1002.984570779228
 31
0.0
  0
LINE
  5
4AE8
330
1F
100
AcDbEntity
  8
HEWI
  6
CUSTOM
 62
    18
420
        0
370
     9
100
AcDbLine
 10
6.437664501242096
 20
1002.319235975191
 30
0.0
 11
6.480433762000274
 21
1002.365487226003
 31
0.0
  0
LINE
  5
4AE9
330
1F
100
AcDbEntity
  8
HEWI
  6
CUSTOM
 62
    18
420
        0
370
     9
100
AcDbLine
 10
7.037871985486589
 20
1003.349470323066
 30
0.0
 11
6.896450668490587
 21
1003.349470323066
 31
0.0
  0
LWPOLYLINE
  5
4AEA
330
1F
100
AcDbEntity
  8
HEWI
  6
CUSTOM
 62
    18
420
        0
370
     9
100
AcDbPolyline
 90
       27
 70
     0
 43
0.0
 10
231.5256134922665
 20
503.3494649569338
 10
231.5505027761505
 20
503.1269440205887
 10
231.6239225751783
 20
502.9155812131587
 10
231.7421913140506
 20
502.7259751483832
 10
231.8993785043553
 20
502.5676334660745
 10
232.0876021240146
 20
502.4484960793615
 10
232.2974238547831
 20
502.374537034288
 10
232.518322358941
 20
502.3494649462004
 10
232.6914002518847
 20
502.3494649462004
 10
233.0274973797477
 20
502.3494649462004
 10
233.5070809991193
 20
502.3494649462004
 10
234.1022794532605
 20
502.3494649462004
 10
234.778501971472
 20
502.3494649462004
 10
235.4964489589647
 20
502.3494649462004
 10
236.2143959464574
 20
502.3494649462004
 10
236.8906184646712
 20
502.3494649462004
 10
237.48581691881
 20
502.3494649462004
 10
237.9654005381817
 20
502.3494649462004
 10
238.3014976660447
 20
502.3494649462004
 10
238.4745755589883
 20
502.3494649462004
 10
238.6954740631463
 20
502.374537034288
 10
238.9052957939147
 20
502.4484960793615
 10
239.0935194135741
 20
502.5676334660745
 10
239.2507066038788
 20
502.7259751483832
 10
239.3689753427534
 20
502.9155812131587
 10
239.4423951417789
 20
503.1269440205887
 10
239.4672844256629
 20
503.3494649569338
  0
LWPOLYLINE
  5
4AEB
330
1F
100
AcDbEntity
  8
HEWI
  6
CUSTOM
 62
    18
420
        0
370
     9
100
AcDbPolyline
 90
       28
 70
     0
 43
0.0
 10
17.48347982185484
 20
503.3494649569338
 10
17.45848903527891
 20
503.1269440205887
 10
17.38476981794199
 20
502.9155812131587
 10
17.26601875922731
 20
502.7259751483832
 10
17.10819053307793
 20
502.5676334660745
 10
16.91919930578612
 20
502.4484960793615
 10
16.70852188665
 20
502.374537034288
 10
16.48672252117555
 20
502.3494649462004
 10
16.34205992369649
 20
502.3494649462004
 10
16.03202085680456
 20
502.3494649462004
 10
15.57462366412116
 20
502.3494649462004
 10
14.99645060791769
 20
502.3494649462004
 10
14.33110300464156
 20
502.3494649462004
 10
13.61724843856015
 20
502.3494649462004
 10
12.89637354229305
 20
502.3494649462004
 10
12.21037294454297
 20
502.3494649462004
 10
11.59911450653587
 20
502.3494649462004
 10
11.09812234685839
 20
502.3494649462004
 10
10.73651230879838
 20
502.3494649462004
 10
10.53529985336487
 20
502.3494649462004
 10
10.50617871709298
 20
502.3494649462004
 10
10.28437935161852
 20
502.374537034288
 10
10.07370193248241
 20
502.4484960793615
 10
9.884710705190599
 20
502.5676334660745
 10
9.726882479041222
 20
502.7259751483832
 10
9.608131420326543
 20
502.9155812131587
 10
9.534412202989614
 20
503.1269440205887
 10
9.509421416413687
 20
503.3494649569338
  0
LWPOLYLINE
  5
4AEC
330
1F
100
AcDbEntity
  8
HEWI
  6
CUSTOM
 62
    18
420
        0
370
     9
100
AcDbPolyline
 90
       27
 70
     0
 43
0.0
 10
39.46728592130873
 20
503.3494649569338
 10
39.44239663742698
 20
503.1269440205887
 10
39.36897683839922
 20
502.9155812131587
 10
39.25070809952692
 20
502.7259751483832
 10
39.09352090922218
 20
502.5676334660745
 10
38.90529728956287
 20
502.4484960793615
 10
38.69547555879441
 20
502.374537034288
 10
38.47457705463418
 20
502.3494649462004
 10
38.30149916169054
 20
502.3494649462004
 10
37.9654020338298
 20
502.3494649462004
 10
37.48581841445818
 20
502.3494649462004
 10
36.89061996031703
 20
502.3494649462004
 10
36.21439744210554
 20
502.3494649462004
 10
35.49645045461054
 20
502.3494649462004
 10
34.77850346711782
 20
502.3494649462004
 10
34.10228094890633
 20
502.3494649462004
 10
33.50708249476517
 20
502.3494649462004
 10
33.02749887539355
 20
502.3494649462004
 10
32.69140174753281
 20
502.3494649462004
 10
32.51832385458917
 20
502.3494649462004
 10
32.29742535042894
 20
502.374537034288
 10
32.08760361966048
 20
502.4484960793615
 10
31.89938000000345
 20
502.5676334660745
 10
31.74219280969871
 20
502.7259751483832
 10
31.62392407082413
 20
502.9155812131587
 10
31.55050427179864
 20
503.1269440205887
 10
31.52561498791462
 20
503.3494649569338
  0
LINE
  5
4AED
330
1F
100
AcDbEntity
  8
HEWI
  6
CUSTOM
 62
    18
420
        0
370
     9
100
AcDbLine
 10
264.6252780548266
 20
1002.214989812102
 30
0.0
 11
264.6513743258506
 21
1002.158246323707
 31
0.0
  0
LINE
  5
4AEE
330
1F
100
AcDbEntity
  8
HEWI
  6
CUSTOM
 62
    18
420
        0
370
     9
100
AcDbLine
 10
264.6755224115795
 20
1002.091032811188
 30
0.0
 11
264.6830371410979
 21
1002.061319873878
 31
0.0
  0
LINE
  5
4AEF
330
1F
100
AcDbEntity
  8
HEWI
  6
CUSTOM
 62
    18
420
        0
370
     9
100
AcDbLine
 10
20.49645056678762
 20
504.9494649741047
 30
0.0
 11
19.49645056681353
 21
504.9494649741047
 31
0.0
  0
LWPOLYLINE
  5
4AF0
330
1F
100
AcDbEntity
  8
HEWI
  6
CUSTOM
 62
    18
420
        0
370
     9
100
AcDbPolyline
 90
       28
 70
     0
 43
0.0
 10
261.4834779971661
 20
503.3494649569338
 10
261.4584872105902
 20
503.1269440205887
 10
261.3847679932533
 20
502.9155812131587
 10
261.2660169345363
 20
502.7259751483832
 10
261.1081887083869
 20
502.5676334660745
 10
260.9191974810974
 20
502.4484960793615
 10
260.7085200619613
 20
502.374537034288
 10
260.4867206964846
 20
502.3494649462004
 10
260.3420580990055
 20
502.3494649462004
 10
260.0320190321136
 20
502.3494649462004
 10
259.5746218394324
 20
502.3494649462004
 10
258.9964487832267
 20
502.3494649462004
 10
258.3311011799529
 20
502.3494649462004
 10
257.6172466138692
 20
502.3494649462004
 10
256.8963717176043
 20
502.3494649462004
 10
256.210371119852
 20
502.3494649462004
 10
255.5991126818471
 20
502.3494649462004
 10
255.0981205221696
 20
502.3494649462004
 10
254.7365104841074
 20
502.3494649462004
 10
254.5352980286761
 20
502.3494649462004
 10
254.5061768924042
 20
502.3494649462004
 10
254.2843775269298
 20
502.374537034288
 10
254.0737001077914
 20
502.4484960793615
 10
253.8847088805018
 20
502.5676334660745
 10
253.7268806543525
 20
502.7259751483832
 10
253.6081295956378
 20
502.9155812131587
 10
253.5344103783009
 20
503.1269440205887
 10
253.5094195917249
 20
503.3494649569338
  0
LINE
  5
4AF1
330
1F
100
AcDbEntity
  8
HEWI
  6
CUSTOM
 62
    18
420
        0
370
     9
100
AcDbLine
 10
250.4964488467922
 20
504.1494649655187
 30
0.0
 11
251.496448846764
 21
504.1494649655187
 31
0.0
  0
LINE
  5
4AF2
330
1F
100
AcDbEntity
  8
HEWI
  6
CUSTOM
 62
    18
420
        0
370
     9
100
AcDbLine
 10
251.4964487797092
 20
504.9494649741047
 30
0.0
 11
250.4964488467922
 21
504.9494649741047
 31
0.0
  0
LINE
  5
4AF3
330
1F
100
AcDbEntity
  8
HEWI
  6
CUSTOM
 62
    18
420
        0
370
     9
100
AcDbLine
 10
6.746450669612812
 20
1002.525512609098
 30
0.0
 11
6.746450669612812
 21
1001.949470284198
 31
0.0
  0
LINE
  5
4AF4
330
1F
100
AcDbEntity
  8
HEWI
  6
CUSTOM
 62
    18
420
        0
370
     9
100
AcDbLine
 10
19.49645063387058
 20
504.1494649655187
 30
0.0
 11
20.49645056678762
 21
504.1494649655187
 31
0.0
  0
ENDSEC
  0
SECTION
  2
OBJECTS
  0
DICTIONARY
  5
C
330
0
100
AcDbDictionary
281
     1
  3
ACAD_CIP_PREVIOUS_PRODUCT_INFO
350
615
  3
ACAD_COLOR
350
1EB
  3
ACAD_DETAILVIEWSTYLE
350
5EB
  3
ACAD_GROUP
350
D
  3
ACAD_LAYOUT
350
1EE
  3
ACAD_MATERIAL
350
1D6
  3
ACAD_MLEADERSTYLE
350
5E7
  3
ACAD_MLINESTYLE
350
17
  3
ACAD_PLOTSETTINGS
350
19
  3
ACAD_PLOTSTYLENAME
350
10D
  3
ACAD_SCALELIST
350
5D5
  3
ACAD_SECTIONVIEWSTYLE
350
5E9
  3
ACAD_TABLESTYLE
350
1EC
  3
ACAD_VISUALSTYLE
350
1DA
  3
ACDB_RECOMPOSE_DATA
350
4AF7
  3
AcDbVariableDictionary
350
1F3
  0
DICTIONARY
  5
3E4
330
2
100
AcDbDictionary
280
     1
281
     1
  3
ACAD_LAYERSTATES
360
3E5
  0
DICTIONARY
  5
624
330
10
100
AcDbDictionary
280
     1
281
     1
  3
ADSK_XREC_LAYER_RECONCILED
360
625
  0
DICTIONARY
  5
626
330
3DD
100
AcDbDictionary
280
     1
281
     1
  3
ADSK_XREC_LAYER_RECONCILED
360
627
  0
DICTIONARY
  5
628
330
4D6
100
AcDbDictionary
280
     1
281
     1
  3
ADSK_XREC_LAYER_RECONCILED
360
629
  0
DICTIONARY
  5
62A
330
4D7
100
AcDbDictionary
280
     1
281
     1
  3
ADSK_XREC_LAYER_RECONCILED
360
62B
  0
DICTIONARY
  5
107
330
1F
100
AcDbDictionary
280
     1
281
     1
  3
ACAD_LAYOUTSELFREF
360
1D3
  3
ACAD_SORTENTS
360
3BB
  0
DICTIONARY
  5
105
330
1B
100
AcDbDictionary
280
     1
281
     1
  3
ACAD_LAYOUTSELFREF
360
1D2
  0
XRECORD
  5
615
102
{ACAD_REACTORS
330
C
102
}
330
C
100
AcDbXrecord
280
     1
300
ACDLT
300
2021
300

  0
DICTIONARY
  5
1EB
102
{ACAD_REACTORS
330
C
102
}
330
C
100
AcDbDictionary
281
     1
  0
DICTIONARY
  5
5EB
102
{ACAD_REACTORS
330
C
102
}
330
C
100
AcDbDictionary
281
     1
  3
Imperial24
350
5EC
  3
Metric50
350
677
  0
DICTIONARY
  5
D
102
{ACAD_REACTORS
330
C
102
}
330
C
100
AcDbDictionary
281
     1
  0
DICTIONARY
  5
1EE
102
{ACAD_REACTORS
330
C
102
}
330
C
100
AcDbDictionary
281
     1
  3
Layout1
350
1F0
  3
Model
350
1EF
  0
DICTIONARY
  5
1D6
102
{ACAD_REACTORS
330
C
102
}
330
C
100
AcDbDictionary
281
     1
  3
ByBlock
350
1D8
  3
ByLayer
350
1D7
  3
Global
350
1D9
  0
DICTIONARY
  5
5E7
102
{ACAD_REACTORS
330
C
102
}
330
C
100
AcDbDictionary
281
     1
  3
Standard
350
5E8
  0
DICTIONARY
  5
17
102
{ACAD_REACTORS
330
C
102
}
330
C
100
AcDbDictionary
281
     1
  3
STANDARD
350
18
  0
DICTIONARY
  5
19
102
{ACAD_REACTORS
330
C
102
}
330
C
100
AcDbDictionary
281
     1
  0
ACDBDICTIONARYWDFLT
  5
10D
102
{ACAD_REACTORS
330
C
102
}
330
C
100
AcDbDictionary
281
     1
  3
Normal
350
10E
100
AcDbDictionaryWithDefault
340
10E
  0
DICTIONARY
  5
5D5
102
{ACAD_REACTORS
330
C
102
}
330
C
100
AcDbDictionary
281
     1
  3
A0
350
5D6
  3
A1
350
5D7
  3
A2
350
5D8
  3
A3
350
5D9
  3
A4
350
5DA
  3
A5
350
5DB
  3
A6
350
5DC
  3
A7
350
5DD
  3
A8
350
5DE
  3
A9
350
5DF
  3
B0
350
5E0
  3
B1
350
5E1
  3
B2
350
5E2
  3
B3
350
5E3
  3
B4
350
5E4
  3
B5
350
5E5
  3
B6
350
5E6
  0
DICTIONARY
  5
5E9
102
{ACAD_REACTORS
330
C
102
}
330
C
100
AcDbDictionary
281
     1
  3
Imperial24
350
5EA
  3
Metric50
350
676
  0
DICTIONARY
  5
1EC
102
{ACAD_REACTORS
330
C
102
}
330
C
100
AcDbDictionary
281
     1
  3
Standard
350
1ED
  0
DICTIONARY
  5
1DA
102
{ACAD_REACTORS
330
C
102
}
330
C
100
AcDbDictionary
281
     1
  3
2dWireframe
350
1E0
  3
3D Hidden
350
1E2
  3
3dWireframe
350
1E1
  3
Basic
350
1DF
  3
Brighten
350
1E6
  3
ColorChange
350
1EA
  3
Conceptual
350
1E3
  3
Dim
350
1E5
  3
EdgeColorOff
350
5D4
  3
Facepattern
350
1E9
  3
Flat
350
1DB
  3
FlatWithEdges
350
1DC
  3
Gouraud
350
1DD
  3
GouraudWithEdges
350
1DE
  3
Hidden
350
5CC
  3
JitterOff
350
5D2
  3
Linepattern
350
1E8
  3
OverhangOff
350
5D3
  3
Realistic
350
1E4
  3
Shaded
350
5D1
  3
Shaded with edges
350
5D0
  3
Shades of Gray
350
5CD
  3
Sketchy
350
5CE
  3
Thicken
350
1E7
  3
Wireframe
350
5CB
  3
X-Ray
350
5CF
  0
XRECORD
  5
4AF7
102
{ACAD_REACTORS
330
C
102
}
330
C
100
AcDbXrecord
280
     1
 90
        1
330
1ED
  0
DICTIONARY
  5
1F3
102
{ACAD_REACTORS
330
C
102
}
330
C
100
AcDbDictionary
281
     1
  3
CANNOSCALE
350
630
  3
CMLEADERSTYLE
350
62C
  3
CTABLESTYLE
350
1F4
  3
CVIEWDETAILSTYLE
350
62D
  3
CVIEWSECTIONSTYLE
350
62E
  3
DIMASSOC
350
586
  3
INDEXCTL
350
585
  3
LAYEREVAL
350
632
  3
LAYERNOTIFY
350
633
  3
LIGHTINGUNITS
350
631
  3
MSLTSCALE
350
62F
  3
SORTENTS
350
584
  0
DICTIONARY
  5
3E5
102
{ACAD_REACTORS
330
3E4
102
}
330
3E4
100
AcDbDictionary
281
     1
  0
XRECORD
  5
625
102
{ACAD_REACTORS
330
624
102
}
330
624
100
AcDbXrecord
280
     1
290
     1
  0
XRECORD
  5
627
102
{ACAD_REACTORS
330
626
102
}
330
626
100
AcDbXrecord
280
     1
290
     1
  0
XRECORD
  5
629
102
{ACAD_REACTORS
330
628
102
}
330
628
100
AcDbXrecord
280
     1
290
     1
  0
XRECORD
  5
62B
102
{ACAD_REACTORS
330
62A
102
}
330
62A
100
AcDbXrecord
280
     1
290
     1
  0
XRECORD
  5
1D3
102
{ACAD_REACTORS
330
107
102
}
330
107
100
AcDbXrecord
280
     1
340
1F
  0
SORTENTSTABLE
  5
3BB
102
{ACAD_REACTORS
330
107
102
}
330
107
100
AcDbSortentsTable
330
1F
  0
XRECORD
  5
1D2
102
{ACAD_REACTORS
330
105
102
}
330
105
100
AcDbXrecord
280
     1
340
1B
  0
ACDBDETAILVIEWSTYLE
  5
5EC
102
{ACAD_XDICTIONARY
360
4AFA
102
}
102
{ACAD_REACTORS
330
5EB
102
}
330
5EB
100
AcDbModelDocViewStyle
 70
     0
  3
Imperial24
290
     0
100
AcDbDetailViewStyle
 70
     0
 71
     0
 90
        3
 71
     1
340
11
 62
   256
 40
0.24
340
0
 62
   256
 40
0.24
300

 40
0.36
280
     3
 71
     2
340
16
 90
       25
 62
   256
 71
     3
340
11
 62
   256
 40
0.24
 90
        1
 40
0.75
 90
        1
300
%<\AcVar ViewType \f "%tc1">% %<\AcVar ViewDetailId>%\PVARIA %<\AcVar ViewScale \f "%sn">%
 71
     4
340
16
 90
       25
 62
   256
340
16
 90
       25
 62
   256
280
     0
  0
ACDBDETAILVIEWSTYLE
  5
677
102
{ACAD_XDICTIONARY
360
4AFE
102
}
102
{ACAD_REACTORS
330
5EB
102
}
330
5EB
100
AcDbModelDocViewStyle
 70
     0
  3
Metric50
290
     0
100
AcDbDetailViewStyle
 70
     0
 71
     0
 90
        3
 71
     1
340
11
 62
   256
 40
5.0
340
0
 62
   256
 40
5.0
300

 40
0.0
280
     1
 71
     2
340
16
 90
       25
 62
   256
 71
     3
340
11
 62
   256
 40
5.0
 90
        0
 40
15.0
 90
        1
300
%<\AcVar ViewDetailId>% (%<\AcVar ViewScale \f "%sn">%)
 71
     4
340
16
 90
       25
 62
   256
340
16
 90
       25
 62
   256
280
     0
  0
LAYOUT
  5
1F0
102
{ACAD_REACTORS
330
1EE
102
}
330
1EE
100
AcDbPlotSettings
  1

  2
\\druckserv1\AROBBE04
  4

  6

 40
0.0
 41
0.0
 42
0.0
 43
0.0
 44
0.0
 45
0.0
 46
0.0
 47
0.0
 48
0.0
 49
0.0
140
0.0
141
0.0
142
1.0
143
1.0
 70
   688
 72
     0
 73
     0
 74
     5
  7

 75
    16
147
1.0
 76
     0
 77
     2
 78
   300
148
0.0
149
0.0
100
AcDbLayout
  1
Layout1
 70
     1
 71
     1
 10
0.0
 20
0.0
 11
12.0
 21
9.0
 12
0.0
 22
0.0
 32
0.0
 14
1.000000000000000E+20
 24
1.000000000000000E+20
 34
1.000000000000000E+20
 15
-1.000000000000000E+20
 25
-1.000000000000000E+20
 35
-1.000000000000000E+20
146
0.0
 13
0.0
 23
0.0
 33
0.0
 16
1.0
 26
0.0
 36
0.0
 17
0.0
 27
1.0
 37
0.0
 76
     0
330
1B
  0
LAYOUT
  5
1EF
102
{ACAD_REACTORS
330
1EE
102
}
330
1EE
100
AcDbPlotSettings
  1

  2
\\druckserv1\AROBBE04
  4

  6

 40
0.0
 41
0.0
 42
0.0
 43
0.0
 44
0.0
 45
0.0
 46
0.0
 47
0.0
 48
0.0
 49
0.0
140
0.0
141
0.0
142
1.0
143
1.0
 70
  1712
 72
     0
 73
     0
 74
     0
  7

 75
     0
147
1.0
 76
     0
 77
     2
 78
   300
148
0.0
149
0.0
100
AcDbLayout
  1
Model
 70
     1
 71
     0
 10
0.0
 20
0.0
 11
12.0
 21
9.0
 12
0.0
 22
0.0
 32
0.0
 14
0.0
 24
0.0
 34
0.0
 15
0.0
 25
0.0
 35
0.0
146
0.0
 13
0.0
 23
0.0
 33
0.0
 16
1.0
 26
0.0
 36
0.0
 17
0.0
 27
1.0
 37
0.0
 76
     0
330
1F
331
1B1
  0
MATERIAL
  5
1D8
102
{ACAD_XDICTIONARY
360
5BF
102
}
102
{ACAD_REACTORS
330
1D6
102
}
330
1D6
100
AcDbMaterial
  1
ByBlock
  0
MATERIAL
  5
1D7
102
{ACAD_XDICTIONARY
360
5BD
102
}
102
{ACAD_REACTORS
330
1D6
102
}
330
1D6
100
AcDbMaterial
  1
ByLayer
  0
MATERIAL
  5
1D9
102
{ACAD_XDICTIONARY
360
5C1
102
}
102
{ACAD_REACTORS
330
1D6
102
}
330
1D6
100
AcDbMaterial
  1
Global
  0
MLEADERSTYLE
  5
5E8
102
{ACAD_REACTORS
330
5E7
102
}
330
5E7
100
AcDbMLeaderStyle
179
     2
170
     2
171
     1
172
     0
 90
        2
 40
0.0
 41
0.0
173
     1
 91
-1056964608
340
14
 92
       -2
290
     1
 42
0.09
291
     1
 43
0.36
  3
Standard
 44
0.18
300

342
11
174
     1
178
     6
175
     1
176
     0
 93
-1056964608
 45
0.18
292
     0
297
     0
 46
0.18
 94
-1056964608
 47
1.0
 49
1.0
140
1.0
293
     1
141
0.0
294
     1
177
     0
142
1.0
295
     0
296
     0
143
0.125
271
     0
272
     9
273
     9
298
     0
  0
MLINESTYLE
  5
18
102
{ACAD_REACTORS
330
17
102
}
330
17
100
AcDbMlineStyle
  2
STANDARD
 70
     0
  3

 62
   256
 51
90.0
 52
90.0
 71
     2
 49
0.5
 62
   256
  6
BYLAYER
 49
-0.5
 62
   256
  6
BYLAYER
  0
ACDBPLACEHOLDER
  5
10E
102
{ACAD_REACTORS
330
10D
102
}
330
10D
  0
SCALE
  5
5D6
102
{ACAD_REACTORS
330
5D5
102
}
330
5D5
100
AcDbScale
 70
     0
300
1:1
140
1.0
141
1.0
290
     1
  0
SCALE
  5
5D7
102
{ACAD_REACTORS
330
5D5
102
}
330
5D5
100
AcDbScale
 70
     0
300
1/128" = 1'-0"
140
0.0078125
141
12.0
290
     0
  0
SCALE
  5
5D8
102
{ACAD_REACTORS
330
5D5
102
}
330
5D5
100
AcDbScale
 70
     0
300
1/64" = 1'-0"
140
0.015625
141
12.0
290
     0
  0
SCALE
  5
5D9
102
{ACAD_REACTORS
330
5D5
102
}
330
5D5
100
AcDbScale
 70
     0
300
1/32" = 1'-0"
140
0.03125
141
12.0
290
     0
  0
SCALE
  5
5DA
102
{ACAD_REACTORS
330
5D5
102
}
330
5D5
100
AcDbScale
 70
     0
300
1/16" = 1'-0"
140
0.0625
141
12.0
290
     0
  0
SCALE
  5
5DB
102
{ACAD_REACTORS
330
5D5
102
}
330
5D5
100
AcDbScale
 70
     0
300
3/32" = 1'-0"
140
0.09375
141
12.0
290
     0
  0
SCALE
  5
5DC
102
{ACAD_REACTORS
330
5D5
102
}
330
5D5
100
AcDbScale
 70
     0
300
1/8" = 1'-0"
140
0.125
141
12.0
290
     0
  0
SCALE
  5
5DD
102
{ACAD_REACTORS
330
5D5
102
}
330
5D5
100
AcDbScale
 70
     0
300
3/16" = 1'-0"
140
0.1875
141
12.0
290
     0
  0
SCALE
  5
5DE
102
{ACAD_REACTORS
330
5D5
102
}
330
5D5
100
AcDbScale
 70
     0
300
1/4" = 1'-0"
140
0.25
141
12.0
290
     0
  0
SCALE
  5
5DF
102
{ACAD_REACTORS
330
5D5
102
}
330
5D5
100
AcDbScale
 70
     0
300
3/8" = 1'-0"
140
0.375
141
12.0
290
     0
  0
SCALE
  5
5E0
102
{ACAD_REACTORS
330
5D5
102
}
330
5D5
100
AcDbScale
 70
     0
300
1/2" = 1'-0"
140
0.5
141
12.0
290
     0
  0
SCALE
  5
5E1
102
{ACAD_REACTORS
330
5D5
102
}
330
5D5
100
AcDbScale
 70
     0
300
3/4" = 1'-0"
140
0.75
141
12.0
290
     0
  0
SCALE
  5
5E2
102
{ACAD_REACTORS
330
5D5
102
}
330
5D5
100
AcDbScale
 70
     0
300
1" = 1'-0"
140
1.0
141
12.0
290
     0
  0
SCALE
  5
5E3
102
{ACAD_REACTORS
330
5D5
102
}
330
5D5
100
AcDbScale
 70
     0
300
1-1/2" = 1'-0"
140
1.5
141
12.0
290
     0
  0
SCALE
  5
5E4
102
{ACAD_REACTORS
330
5D5
102
}
330
5D5
100
AcDbScale
 70
     0
300
3" = 1'-0"
140
3.0
141
12.0
290
     0
  0
SCALE
  5
5E5
102
{ACAD_REACTORS
330
5D5
102
}
330
5D5
100
AcDbScale
 70
     0
300
6" = 1'-0"
140
6.0
141
12.0
290
     0
  0
SCALE
  5
5E6
102
{ACAD_REACTORS
330
5D5
102
}
330
5D5
100
AcDbScale
 70
     0
300
1'-0" = 1'-0"
140
12.0
141
12.0
290
     0
  0
ACDBSECTIONVIEWSTYLE
  5
5EA
102
{ACAD_XDICTIONARY
360
4AF8
102
}
102
{ACAD_REACTORS
330
5E9
102
}
330
5E9
100
AcDbModelDocViewStyle
 70
     0
  3
Imperial24
290
     0
100
AcDbSectionViewStyle
 70
     0
 71
     0
 90
       78
 71
     1
340
11
 62
   256
 40
0.24
340
0
340
0
 62
   256
 40
0.24
300
I, O, Q, S, X, Z
 40
0.48
 90
        3
 40
0.18
 90
        1
 71
     2
340
16
 90
       25
 62
   256
340
16
 90
       50
 62
   256
 40
0.24
 40
0.0
 40
0.24
 71
     3
340
11
 62
   256
 40
0.24
 90
        1
 40
0.75
 90
        1
300
%<\AcVar ViewType \f "%tc1">% %<\AcVar ViewSectionStartId>%-%<\AcVar ViewSectionEndId>%\PVARIA %<\AcVar ViewScale \f "%sn">%
 71
     4
 62
   256
 62
   257
300
ANSI31
 40
1.0
 90
        0
290
     0
290
     0
 90
        6
 40
0.0
 40
1.570796326794896
 40
0.2617993877991494
 40
1.308996938995747
 40
-0.2617993877991494
 40
1.832595714594044
  0
ACDBSECTIONVIEWSTYLE
  5
676
102
{ACAD_XDICTIONARY
360
4AFC
102
}
102
{ACAD_REACTORS
330
5E9
102
}
330
5E9
100
AcDbModelDocViewStyle
 70
     0
  3
Metric50
290
     0
100
AcDbSectionViewStyle
 70
     0
 71
     0
 90
      102
 71
     1
340
11
 62
   256
 40
5.0
340
0
340
0
 62
   256
 40
5.0
300
I, O, Q, S, X, Z
 40
10.0
 90
        0
 40
2.5
 90
        0
 71
     2
340
16
 90
       25
 62
   256
340
16
 90
       50
 62
   256
 40
5.0
 40
2.5
 40
5.0
 71
     3
340
11
 62
   256
 40
5.0
 90
        0
 40
15.0
 90
        1
300
%<\AcVar ViewSectionStartId>%-%<\AcVar ViewSectionEndId>% (%<\AcVar ViewScale \f "%sn">%)
 71
     4
 62
   256
 62
   257
300
ANSI31
 40
1.0
 90
        0
290
     0
290
     0
 90
        6
 40
0.0
 40
1.570796326794896
 40
0.2617993877991494
 40
1.308996938995747
 40
-0.2617993877991494
 40
1.832595714594044
  0
TABLESTYLE
  5
1ED
102
{ACAD_XDICTIONARY
360
634
102
}
102
{ACAD_REACTORS
330
1EC
102
}
330
1EC
100
AcDbTableStyle
280
     0
  3
Standard
 70
     0
 71
     0
 40
0.06
 41
0.06
280
     0
281
     0
  7
STANDARD
140
0.18
170
     2
 62
     0
 63
     7
283
     0
 90
      512
 91
        0
  1

274
    -2
284
     1
 64
     0
275
    -2
285
     1
 65
     0
276
    -2
286
     1
 66
     0
277
    -2
287
     1
 67
     0
278
    -2
288
     1
 68
     0
279
    -2
289
     1
 69
     0
  7
STANDARD
140
0.25
170
     5
 62
     0
 63
     7
283
     0
 90
      512
 91
        0
  1

274
    -2
284
     1
 64
     0
275
    -2
285
     1
 65
     0
276
    -2
286
     1
 66
     0
277
    -2
287
     1
 67
     0
278
    -2
288
     1
 68
     0
279
    -2
289
     1
 69
     0
  7
STANDARD
140
0.18
170
     5
 62
     0
 63
     7
283
     0
 90
      512
 91
        0
  1

274
    -2
284
     1
 64
     0
275
    -2
285
     1
 65
     0
276
    -2
286
     1
 66
     0
277
    -2
287
     1
 67
     0
278
    -2
288
     1
 68
     0
279
    -2
289
     1
 69
     0
  0
VISUALSTYLE
  5
1E0
102
{ACAD_REACTORS
330
1DA
102
}
330
1DA
100
AcDbVisualStyle
  2

 70
     4
177
     3
291
     0
 70
    58
 90
        0
176
     1
 90
        2
176
     1
 90
        0
176
     1
 90
        0
176
     1
 40
0.6
176
     1
 40
30.0
176
     1
 62
     7
176
     1
 90
        1
176
     1
 90
        4
176
     1
 62
     7
176
     1
 62
   257
176
     1
 90
        1
176
     1
 90
        1
176
     1
 40
1.0
176
     1
 90
        0
176
     1
 62
   257
176
     1
 40
1.0
176
     1
 90
        1
176
     1
 90
        6
176
     1
 90
        2
176
     1
 62
     7
176
     1
 90
        5
176
     1
 90
        0
176
     1
 90
        0
176
     1
290
     0
176
     1
 90
        1
176
     1
 40
0.0
176
     1
 90
        0
176
     1
290
     1
176
     1
290
     1
176
     1
290
     0
176
     1
290
     0
176
     1
290
     0
176
     1
290
     0
176
     1
290
     0
176
     1
290
     0
176
     1
290
     0
176
     1
 90
       50
176
     1
 40
0.0
176
     1
 40
1.0
176
     1
 90
        0
176
     1
 62
    18
176
     1
 90
       50
176
     1
 90
        3
176
     1
 62
     5
420
      255
176
     1
290
     0
176
     1
 90
       50
176
     1
 90
       50
176
     1
 90
       50
176
     1
290
     0
176
     1
 90
       50
176
     1
 62
   256
176
     0
 40
1.0
176
     0
 90
        2
176
     1
  1
strokes_ogs.tif
176
     1
290
     0
176
     1
 40
1.0
176
     1
 40
1.0
176
     1
1001
ACAD
1000
AcDbSavedByObjectVersion
1070
     0
  0
VISUALSTYLE
  5
1E2
102
{ACAD_REACTORS
330
1DA
102
}
330
1DA
100
AcDbVisualStyle
  2

 70
     6
177
     3
291
     0
 70
    58
 90
        1
176
     1
 90
        2
176
     1
 90
        2
176
     1
 90
        0
176
     1
 40
0.6
176
     1
 40
30.0
176
     1
 62
     7
176
     1
 90
        2
176
     1
 90
        2
176
     1
 62
     7
176
     1
 62
   257
176
     1
 90
        2
176
     1
 90
        1
176
     1
 40
40.0
176
     1
 90
        0
176
     1
 62
   257
176
     1
 40
1.0
176
     1
 90
        1
176
     1
 90
        6
176
     1
 90
        2
176
     1
 62
     7
176
     1
 90
        3
176
     1
 90
        0
176
     1
 90
        0
176
     1
290
     0
176
     1
 90
        1
176
     1
 40
0.0
176
     1
 90
        0
176
     1
290
     0
176
     1
290
     1
176
     1
290
     1
176
     1
290
     0
176
     1
290
     0
176
     1
290
     0
176
     1
290
     0
176
     1
290
     0
176
     1
290
     0
176
     1
 90
       50
176
     1
 40
0.0
176
     1
 40
1.0
176
     1
 90
        0
176
     1
 62
    18
176
     1
 90
       50
176
     1
 90
        3
176
     1
 62
     5
420
      255
176
     1
290
     0
176
     1
 90
       50
176
     1
 90
       50
176
     1
 90
       50
176
     1
290
     0
176
     1
 90
       50
176
     1
 62
   256
176
     0
 40
1.0
176
     0
 90
        2
176
     1
  1
strokes_ogs.tif
176
     1
290
     0
176
     1
 40
1.0
176
     1
 40
1.0
176
     1
1001
ACAD
1000
AcDbSavedByObjectVersion
1070
     0
  0
VISUALSTYLE
  5
1E1
102
{ACAD_REACTORS
330
1DA
102
}
330
1DA
100
AcDbVisualStyle
  2

 70
     5
177
     3
291
     0
 70
    58
 90
        0
176
     1
 90
        2
176
     1
 90
        0
176
     1
 90
        0
176
     1
 40
0.6
176
     1
 40
30.0
176
     1
 62
     7
176
     1
 90
        1
176
     1
 90
        4
176
     1
 62
     7
176
     1
 62
   257
176
     1
 90
        1
176
     1
 90
        1
176
     1
 40
1.0
176
     1
 90
        0
176
     1
 62
   257
176
     1
 40
1.0
176
     1
 90
        1
176
     1
 90
        6
176
     1
 90
        2
176
     1
 62
     7
176
     1
 90
        5
176
     1
 90
        0
176
     1
 90
        0
176
     1
290
     0
176
     1
 90
        1
176
     1
 40
0.0
176
     1
 90
        0
176
     1
290
     0
176
     1
290
     1
176
     1
290
     1
176
     1
290
     0
176
     1
290
     0
176
     1
290
     0
176
     1
290
     0
176
     1
290
     0
176
     1
290
     0
176
     1
 90
       50
176
     1
 40
0.0
176
     1
 40
1.0
176
     1
 90
        0
176
     1
 62
    18
176
     1
 90
       50
176
     1
 90
        3
176
     1
 62
     5
420
      255
176
     1
290
     0
176
     1
 90
       50
176
     1
 90
       50
176
     1
 90
       50
176
     1
290
     0
176
     1
 90
       50
176
     1
 62
   256
176
     0
 40
1.0
176
     0
 90
        2
176
     1
  1
strokes_ogs.tif
176
     1
290
     0
176
     1
 40
1.0
176
     1
 40
1.0
176
     1
1001
ACAD
1000
AcDbSavedByObjectVersion
1070
     0
  0
VISUALSTYLE
  5
1DF
102
{ACAD_REACTORS
330
1DA
102
}
330
1DA
100
AcDbVisualStyle
  2

 70
     7
177
     3
291
     1
 70
    58
 90
        1
176
     1
 90
        0
176
     1
 90
        1
176
     1
 90
        0
176
     1
 40
0.6
176
     1
 40
30.0
176
     1
 62
     7
176
     1
 90
        0
176
     1
 90
        4
176
     1
 62
     7
176
     1
 62
   257
176
     1
 90
        1
176
     1
 90
        1
176
     1
 40
1.0
176
     1
 90
        8
176
     1
 62
     7
176
     1
 40
1.0
176
     1
 90
        1
176
     1
 90
        6
176
     1
 90
        2
176
     1
 62
     7
176
     1
 90
        5
176
     1
 90
        0
176
     1
 90
        0
176
     1
290
     0
176
     1
 90
        1
176
     1
 40
0.0
176
     1
 90
        0
176
     1
290
     0
176
     1
290
     1
176
     1
290
     1
176
     1
290
     0
176
     1
290
     0
176
     1
290
     0
176
     1
290
     0
176
     1
290
     0
176
     1
290
     0
176
     1
 90
       50
176
     1
 40
0.0
176
     1
 40
1.0
176
     1
 90
        0
176
     1
 62
    18
176
     1
 90
       50
176
     1
 90
        3
176
     1
 62
     5
420
      255
176
     1
290
     0
176
     1
 90
       50
176
     1
 90
       50
176
     1
 90
       50
176
     1
290
     0
176
     1
 90
       50
176
     1
 62
   256
176
     0
 40
1.0
176
     0
 90
        2
176
     1
  1
strokes_ogs.tif
176
     1
290
     0
176
     1
 40
1.0
176
     1
 40
1.0
176
     1
1001
ACAD
1000
AcDbSavedByObjectVersion
1070
     0
  0
VISUALSTYLE
  5
1E6
102
{ACAD_REACTORS
330
1DA
102
}
330
1DA
100
AcDbVisualStyle
  2

 70
    12
177
     3
291
     1
 70
    58
 90
        2
176
     1
 90
        2
176
     1
 90
        0
176
     1
 90
        0
176
     1
 40
0.6
176
     1
 40
30.0
176
     1
 62
     7
176
     1
 90
        1
176
     1
 90
        4
176
     1
 62
     7
176
     1
 62
   257
176
     1
 90
        1
176
     1
 90
        1
176
     1
 40
1.0
176
     1
 90
        8
176
     1
 62
     7
176
     1
 40
1.0
176
     1
 90
        1
176
     1
 90
        6
176
     1
 90
        2
176
     1
 62
     7
176
     1
 90
        5
176
     1
 90
        0
176
     1
 90
        0
176
     1
290
     0
176
     1
 90
        1
176
     1
 40
50.0
176
     1
 90
        0
176
     1
290
     0
176
     1
290
     1
176
     1
290
     1
176
     1
290
     0
176
     1
290
     0
176
     1
290
     0
176
     1
290
     0
176
     1
290
     0
176
     1
290
     0
176
     1
 90
       50
176
     1
 40
0.0
176
     1
 40
1.0
176
     1
 90
        0
176
     1
 62
    18
176
     1
 90
       50
176
     1
 90
        3
176
     1
 62
     5
420
      255
176
     1
290
     0
176
     1
 90
       50
176
     1
 90
       50
176
     1
 90
       50
176
     1
290
     0
176
     1
 90
       50
176
     1
 62
   256
176
     0
 40
1.0
176
     0
 90
        2
176
     1
  1
strokes_ogs.tif
176
     1
290
     0
176
     1
 40
1.0
176
     1
 40
1.0
176
     1
1001
ACAD
1000
AcDbSavedByObjectVersion
1070
     0
  0
VISUALSTYLE
  5
1EA
102
{ACAD_REACTORS
330
1DA
102
}
330
1DA
100
AcDbVisualStyle
  2

 70
    16
177
     3
291
     1
 70
    58
 90
        2
176
     1
 90
        2
176
     1
 90
        3
176
     1
 90
        0
176
     1
 40
0.6
176
     1
 40
30.0
176
     1
 62
     8
176
     1
 90
        1
176
     1
 90
        4
176
     1
 62
     7
176
     1
 62
   257
176
     1
 90
        1
176
     1
 90
        1
176
     1
 40
1.0
176
     1
 90
        8
176
     1
 62
     8
176
     1
 40
1.0
176
     1
 90
        1
176
     1
 90
        6
176
     1
 90
        2
176
     1
 62
     7
176
     1
 90
        5
176
     1
 90
        0
176
     1
 90
        0
176
     1
290
     0
176
     1
 90
        1
176
     1
 40
0.0
176
     1
 90
        0
176
     1
290
     0
176
     1
290
     1
176
     1
290
     1
176
     1
290
     0
176
     1
290
     0
176
     1
290
     0
176
     1
290
     0
176
     1
290
     0
176
     1
290
     0
176
     1
 90
       50
176
     1
 40
0.0
176
     1
 40
1.0
176
     1
 90
        0
176
     1
 62
    18
176
     1
 90
       50
176
     1
 90
        3
176
     1
 62
     5
420
      255
176
     1
290
     0
176
     1
 90
       50
176
     1
 90
       50
176
     1
 90
       50
176
     1
290
     0
176
     1
 90
       50
176
     1
 62
   256
176
     0
 40
1.0
176
     0
 90
        2
176
     1
  1
strokes_ogs.tif
176
     1
290
     0
176
     1
 40
1.0
176
     1
 40
1.0
176
     1
1001
ACAD
1000
AcDbSavedByObjectVersion
1070
     0
  0
VISUALSTYLE
  5
1E3
102
{ACAD_REACTORS
330
1DA
102
}
330
1DA
100
AcDbVisualStyle
  2

 70
     9
177
     3
291
     0
 70
    58
 90
        3
176
     1
 90
        2
176
     1
 90
        0
176
     1
 90
        0
176
     1
 40
0.6
176
     1
 40
30.0
176
     1
 62
     7
176
     1
 90
        2
176
     1
 90
        2
176
     1
 62
     7
176
     1
 62
   257
176
     1
 90
        1
176
     1
 90
        1
176
     1
 40
40.0
176
     1
 90
        8
176
     1
 62
     7
176
     1
 40
1.0
176
     1
 90
        1
176
     1
 90
        6
176
     1
 90
        2
176
     1
 62
     7
176
     1
 90
        3
176
     1
 90
        0
176
     1
 90
        0
176
     1
290
     0
176
     1
 90
        1
176
     1
 40
0.0
176
     1
 90
        0
176
     1
290
     0
176
     1
290
     1
176
     1
290
     1
176
     1
290
     0
176
     1
290
     0
176
     1
290
     0
176
     1
290
     0
176
     1
290
     0
176
     1
290
     0
176
     1
 90
       50
176
     1
 40
0.0
176
     1
 40
1.0
176
     1
 90
        0
176
     1
 62
    18
176
     1
 90
       50
176
     1
 90
        3
176
     1
 62
     5
420
      255
176
     1
290
     0
176
     1
 90
       50
176
     1
 90
       50
176
     1
 90
       50
176
     1
290
     0
176
     1
 90
       50
176
     1
 62
   256
176
     0
 40
1.0
176
     0
 90
        2
176
     1
  1
strokes_ogs.tif
176
     1
290
     0
176
     1
 40
1.0
176
     1
 40
1.0
176
     1
1001
ACAD
1000
AcDbSavedByObjectVersion
1070
     0
  0
VISUALSTYLE
  5
1E5
102
{ACAD_REACTORS
330
1DA
102
}
330
1DA
100
AcDbVisualStyle
  2

 70
    11
177
     3
291
     1
 70
    58
 90
        2
176
     1
 90
        2
176
     1
 90
        0
176
     1
 90
        0
176
     1
 40
0.6
176
     1
 40
30.0
176
     1
 62
     7
176
     1
 90
        1
176
     1
 90
        4
176
     1
 62
     7
176
     1
 62
   257
176
     1
 90
        1
176
     1
 90
        1
176
     1
 40
1.0
176
     1
 90
        8
176
     1
 62
     7
176
     1
 40
1.0
176
     1
 90
        1
176
     1
 90
        6
176
     1
 90
        2
176
     1
 62
     7
176
     1
 90
        5
176
     1
 90
        0
176
     1
 90
        0
176
     1
290
     0
176
     1
 90
        1
176
     1
 40
-50.0
176
     1
 90
        0
176
     1
290
     0
176
     1
290
     1
176
     1
290
     1
176
     1
290
     0
176
     1
290
     0
176
     1
290
     0
176
     1
290
     0
176
     1
290
     0
176
     1
290
     0
176
     1
 90
       50
176
     1
 40
0.0
176
     1
 40
1.0
176
     1
 90
        0
176
     1
 62
    18
176
     1
 90
       50
176
     1
 90
        3
176
     1
 62
     5
420
      255
176
     1
290
     0
176
     1
 90
       50
176
     1
 90
       50
176
     1
 90
       50
176
     1
290
     0
176
     1
 90
       50
176
     1
 62
   256
176
     0
 40
1.0
176
     0
 90
        2
176
     1
  1
strokes_ogs.tif
176
     1
290
     0
176
     1
 40
1.0
176
     1
 40
1.0
176
     1
1001
ACAD
1000
AcDbSavedByObjectVersion
1070
     0
  0
VISUALSTYLE
  5
5D4
102
{ACAD_REACTORS
330
1DA
102
}
330
1DA
100
AcDbVisualStyle
  2
EdgeColorOff
 70
    22
177
     3
291
     1
 70
    58
 90
        2
176
     0
 90
        2
176
     0
 90
        0
176
     0
 90
        0
176
     0
 40
0.6
176
     0
 40
30.0
176
     0
 62
     7
420
 16777215
176
     0
 90
        1
176
     0
 90
        4
176
     0
 62
     7
176
     0
 62
   257
176
     0
 90
        1
176
     0
 90
        1
176
     0
 40
1.0
176
     0
 90
        8
176
     2
 62
     7
176
     0
 40
1.0
176
     0
 90
        1
176
     0
 90
        6
176
     0
 90
        2
176
     0
 62
     7
176
     0
 90
        5
176
     0
 90
        0
176
     0
 90
        0
176
     0
290
     0
176
     0
 90
        1
176
     0
 40
0.0
176
     0
 90
        0
176
     0
290
     0
176
     1
290
     1
176
     1
290
     1
176
     1
290
     0
176
     1
290
     0
176
     1
290
     0
176
     1
290
     0
176
     1
290
     0
176
     1
290
     0
176
     1
 90
       50
176
     0
 40
0.0
176
     0
 40
1.0
176
     0
 90
        0
176
     0
 62
    18
176
     0
 90
       50
176
     0
 90
        3
176
     0
 62
     5
420
      255
176
     0
290
     0
176
     1
 90
       50
176
     0
 90
       50
176
     0
 90
       50
176
     0
290
     0
176
     1
 90
       50
176
     0
 62
   256
176
     0
 40
1.0
176
     0
 90
        2
176
     0
  1
strokes_ogs.tif
176
     0
290
     0
176
     1
 40
1.0
176
     0
 40
1.0
176
     0
1001
ACAD
1000
AcDbSavedByObjectVersion
1070
     0
  0
VISUALSTYLE
  5
1E9
102
{ACAD_REACTORS
330
1DA
102
}
330
1DA
100
AcDbVisualStyle
  2

 70
    15
177
     3
291
     1
 70
    58
 90
        2
176
     1
 90
        2
176
     1
 90
        0
176
     1
 90
        0
176
     1
 40
0.6
176
     1
 40
30.0
176
     1
 62
     7
176
     1
 90
        1
176
     1
 90
        4
176
     1
 62
     7
176
     1
 62
   257
176
     1
 90
        1
176
     1
 90
        1
176
     1
 40
1.0
176
     1
 90
        8
176
     1
 62
     7
176
     1
 40
1.0
176
     1
 90
        1
176
     1
 90
        6
176
     1
 90
        2
176
     1
 62
     7
176
     1
 90
        5
176
     1
 90
        0
176
     1
 90
        0
176
     1
290
     0
176
     1
 90
        1
176
     1
 40
0.0
176
     1
 90
        0
176
     1
290
     0
176
     1
290
     1
176
     1
290
     1
176
     1
290
     0
176
     1
290
     0
176
     1
290
     0
176
     1
290
     0
176
     1
290
     0
176
     1
290
     0
176
     1
 90
       50
176
     1
 40
0.0
176
     1
 40
1.0
176
     1
 90
        0
176
     1
 62
    18
176
     1
 90
       50
176
     1
 90
        3
176
     1
 62
     5
420
      255
176
     1
290
     0
176
     1
 90
       50
176
     1
 90
       50
176
     1
 90
       50
176
     1
290
     0
176
     1
 90
       50
176
     1
 62
   256
176
     0
 40
1.0
176
     0
 90
        2
176
     1
  1
strokes_ogs.tif
176
     1
290
     0
176
     1
 40
1.0
176
     1
 40
1.0
176
     1
1001
ACAD
1000
AcDbSavedByObjectVersion
1070
     0
  0
VISUALSTYLE
  5
1DB
102
{ACAD_REACTORS
330
1DA
102
}
330
1DA
100
AcDbVisualStyle
  2

 70
     0
177
     3
291
     1
 70
    58
 90
        2
176
     1
 90
        1
176
     1
 90
        1
176
     1
 90
        2
176
     1
 40
0.6
176
     1
 40
30.0
176
     1
 62
     7
176
     1
 90
        0
176
     1
 90
        4
176
     1
 62
     7
176
     1
 62
   257
176
     1
 90
        1
176
     1
 90
        1
176
     1
 40
1.0
176
     1
 90
        8
176
     1
 62
     7
176
     1
 40
1.0
176
     1
 90
        1
176
     1
 90
        6
176
     1
 90
        2
176
     1
 62
     7
176
     1
 90
        5
176
     1
 90
        0
176
     1
 90
        0
176
     1
290
     0
176
     1
 90
       13
176
     1
 40
0.0
176
     1
 90
        0
176
     1
290
     0
176
     1
290
     1
176
     1
290
     1
176
     1
290
     0
176
     1
290
     0
176
     1
290
     0
176
     1
290
     0
176
     1
290
     0
176
     1
290
     0
176
     1
 90
       50
176
     1
 40
0.0
176
     1
 40
1.0
176
     1
 90
        0
176
     1
 62
    18
176
     1
 90
       50
176
     1
 90
        3
176
     1
 62
     5
420
      255
176
     1
290
     0
176
     1
 90
       50
176
     1
 90
       50
176
     1
 90
       50
176
     1
290
     0
176
     1
 90
       50
176
     1
 62
   256
176
     0
 40
1.0
176
     0
 90
        2
176
     1
  1
strokes_ogs.tif
176
     1
290
     0
176
     1
 40
1.0
176
     1
 40
1.0
176
     1
1001
ACAD
1000
AcDbSavedByObjectVersion
1070
     0
  0
VISUALSTYLE
  5
1DC
102
{ACAD_REACTORS
330
1DA
102
}
330
1DA
100
AcDbVisualStyle
  2

 70
     1
177
     3
291
     1
 70
    58
 90
        2
176
     1
 90
        1
176
     1
 90
        1
176
     1
 90
        2
176
     1
 40
0.6
176
     1
 40
30.0
176
     1
 62
     7
176
     1
 90
        1
176
     1
 90
        4
176
     1
 62
     7
176
     1
 62
   257
176
     1
 90
        1
176
     1
 90
        1
176
     1
 40
1.0
176
     1
 90
        0
176
     1
 62
   257
176
     1
 40
1.0
176
     1
 90
        1
176
     1
 90
        6
176
     1
 90
        2
176
     1
 62
     7
176
     1
 90
        5
176
     1
 90
        0
176
     1
 90
        0
176
     1
290
     0
176
     1
 90
       13
176
     1
 40
0.0
176
     1
 90
        0
176
     1
290
     0
176
     1
290
     1
176
     1
290
     1
176
     1
290
     0
176
     1
290
     0
176
     1
290
     0
176
     1
290
     0
176
     1
290
     0
176
     1
290
     0
176
     1
 90
       50
176
     1
 40
0.0
176
     1
 40
1.0
176
     1
 90
        0
176
     1
 62
    18
176
     1
 90
       50
176
     1
 90
        3
176
     1
 62
     5
420
      255
176
     1
290
     0
176
     1
 90
       50
176
     1
 90
       50
176
     1
 90
       50
176
     1
290
     0
176
     1
 90
       50
176
     1
 62
   256
176
     0
 40
1.0
176
     0
 90
        2
176
     1
  1
strokes_ogs.tif
176
     1
290
     0
176
     1
 40
1.0
176
     1
 40
1.0
176
     1
1001
ACAD
1000
AcDbSavedByObjectVersion
1070
     0
  0
VISUALSTYLE
  5
1DD
102
{ACAD_REACTORS
330
1DA
102
}
330
1DA
100
AcDbVisualStyle
  2

 70
     2
177
     3
291
     1
 70
    58
 90
        2
176
     1
 90
        2
176
     1
 90
        1
176
     1
 90
        2
176
     1
 40
0.6
176
     1
 40
30.0
176
     1
 62
     7
176
     1
 90
        0
176
     1
 90
        4
176
     1
 62
     7
176
     1
 62
   257
176
     1
 90
        1
176
     1
 90
        1
176
     1
 40
1.0
176
     1
 90
        0
176
     1
 62
     7
176
     1
 40
1.0
176
     1
 90
        1
176
     1
 90
        6
176
     1
 90
        2
176
     1
 62
     7
176
     1
 90
        5
176
     1
 90
        0
176
     1
 90
        0
176
     1
290
     0
176
     1
 90
       13
176
     1
 40
0.0
176
     1
 90
        0
176
     1
290
     0
176
     1
290
     1
176
     1
290
     1
176
     1
290
     0
176
     1
290
     0
176
     1
290
     0
176
     1
290
     0
176
     1
290
     0
176
     1
290
     0
176
     1
 90
       50
176
     1
 40
0.0
176
     1
 40
1.0
176
     1
 90
        0
176
     1
 62
    18
176
     1
 90
       50
176
     1
 90
        3
176
     1
 62
     5
420
      255
176
     1
290
     0
176
     1
 90
       50
176
     1
 90
       50
176
     1
 90
       50
176
     1
290
     0
176
     1
 90
       50
176
     1
 62
   256
176
     0
 40
1.0
176
     0
 90
        2
176
     1
  1
strokes_ogs.tif
176
     1
290
     0
176
     1
 40
1.0
176
     1
 40
1.0
176
     1
1001
ACAD
1000
AcDbSavedByObjectVersion
1070
     0
  0
VISUALSTYLE
  5
1DE
102
{ACAD_REACTORS
330
1DA
102
}
330
1DA
100
AcDbVisualStyle
  2

 70
     3
177
     3
291
     1
 70
    58
 90
        2
176
     1
 90
        2
176
     1
 90
        1
176
     1
 90
        2
176
     1
 40
0.6
176
     1
 40
30.0
176
     1
 62
     7
176
     1
 90
        1
176
     1
 90
        4
176
     1
 62
     7
176
     1
 62
   257
176
     1
 90
        1
176
     1
 90
        1
176
     1
 40
1.0
176
     1
 90
        0
176
     1
 62
   257
176
     1
 40
1.0
176
     1
 90
        1
176
     1
 90
        6
176
     1
 90
        2
176
     1
 62
     7
176
     1
 90
        5
176
     1
 90
        0
176
     1
 90
        0
176
     1
290
     0
176
     1
 90
       13
176
     1
 40
0.0
176
     1
 90
        0
176
     1
290
     0
176
     1
290
     1
176
     1
290
     1
176
     1
290
     0
176
     1
290
     0
176
     1
290
     0
176
     1
290
     0
176
     1
290
     0
176
     1
290
     0
176
     1
 90
       50
176
     1
 40
0.0
176
     1
 40
1.0
176
     1
 90
        0
176
     1
 62
    18
176
     1
 90
       50
176
     1
 90
        3
176
     1
 62
     5
420
      255
176
     1
290
     0
176
     1
 90
       50
176
     1
 90
       50
176
     1
 90
       50
176
     1
290
     0
176
     1
 90
       50
176
     1
 62
   256
176
     0
 40
1.0
176
     0
 90
        2
176
     1
  1
strokes_ogs.tif
176
     1
290
     0
176
     1
 40
1.0
176
     1
 40
1.0
176
     1
1001
ACAD
1000
AcDbSavedByObjectVersion
1070
     0
  0
VISUALSTYLE
  5
5CC
102
{ACAD_REACTORS
330
1DA
102
}
330
1DA
100
AcDbVisualStyle
  2
Hidden
 70
     6
177
     3
291
     0
 70
    58
 90
        1
176
     1
 90
        2
176
     1
 90
        2
176
     1
 90
        0
176
     1
 40
0.6
176
     1
 40
30.0
176
     1
 62
     7
420
 16777215
176
     1
 90
        2
176
     1
 90
        2
176
     1
 62
     7
176
     1
 62
   257
176
     1
 90
        2
176
     1
 90
        1
176
     1
 40
40.0
176
     1
 90
        0
176
     1
 62
   257
176
     1
 40
1.0
176
     1
 90
        1
176
     1
 90
        6
176
     1
 90
        2
176
     1
 62
     7
176
     1
 90
        3
176
     1
 90
        0
176
     1
 90
        0
176
     1
290
     0
176
     1
 90
        1
176
     1
 40
0.0
176
     1
 90
        0
176
     1
290
     0
176
     1
290
     1
176
     1
290
     1
176
     1
290
     0
176
     1
290
     0
176
     1
290
     0
176
     1
290
     0
176
     1
290
     0
176
     1
290
     0
176
     1
 90
       50
176
     1
 40
0.0
176
     1
 40
1.0
176
     1
 90
        0
176
     1
 62
    18
176
     1
 90
       50
176
     1
 90
        3
176
     1
 62
     5
420
      255
176
     1
290
     0
176
     1
 90
       50
176
     1
 90
       50
176
     1
 90
       50
176
     1
290
     0
176
     1
 90
       50
176
     1
 62
   256
176
     0
 40
1.0
176
     0
 90
        2
176
     1
  1
strokes_ogs.tif
176
     1
290
     0
176
     1
 40
1.0
176
     1
 40
1.0
176
     1
1001
ACAD
1000
AcDbSavedByObjectVersion
1070
     0
  0
VISUALSTYLE
  5
5D2
102
{ACAD_REACTORS
330
1DA
102
}
330
1DA
100
AcDbVisualStyle
  2
JitterOff
 70
    20
177
     3
291
     1
 70
    58
 90
        2
176
     0
 90
        2
176
     0
 90
        0
176
     0
 90
        0
176
     0
 40
0.6
176
     0
 40
30.0
176
     0
 62
     7
420
 16777215
176
     0
 90
        1
176
     0
 90
        4
176
     0
 62
     7
176
     0
 62
   257
176
     0
 90
        1
176
     0
 90
        1
176
     0
 40
1.0
176
     0
 90
       10
176
     2
 62
     7
176
     0
 40
1.0
176
     0
 90
        1
176
     0
 90
        6
176
     0
 90
        2
176
     0
 62
     7
176
     0
 90
        5
176
     0
 90
        0
176
     0
 90
        0
176
     0
290
     0
176
     0
 90
        1
176
     0
 40
0.0
176
     0
 90
        0
176
     0
290
     0
176
     1
290
     1
176
     1
290
     1
176
     1
290
     0
176
     1
290
     0
176
     1
290
     0
176
     1
290
     0
176
     1
290
     0
176
     1
290
     0
176
     1
 90
       50
176
     0
 40
0.0
176
     0
 40
1.0
176
     0
 90
        0
176
     0
 62
    18
176
     0
 90
       50
176
     0
 90
        3
176
     0
 62
     5
420
      255
176
     0
290
     0
176
     1
 90
       50
176
     0
 90
       50
176
     0
 90
       50
176
     0
290
     0
176
     1
 90
       50
176
     0
 62
   256
176
     0
 40
1.0
176
     0
 90
        2
176
     0
  1
strokes_ogs.tif
176
     0
290
     0
176
     1
 40
1.0
176
     0
 40
1.0
176
     0
1001
ACAD
1000
AcDbSavedByObjectVersion
1070
     0
  0
VISUALSTYLE
  5
1E8
102
{ACAD_REACTORS
330
1DA
102
}
330
1DA
100
AcDbVisualStyle
  2

 70
    14
177
     3
291
     1
 70
    58
 90
        2
176
     1
 90
        2
176
     1
 90
        0
176
     1
 90
        0
176
     1
 40
0.6
176
     1
 40
30.0
176
     1
 62
     7
176
     1
 90
        1
176
     1
 90
        4
176
     1
 62
     7
176
     1
 62
   257
176
     1
 90
        7
176
     1
 90
        7
176
     1
 40
1.0
176
     1
 90
        8
176
     1
 62
     7
176
     1
 40
1.0
176
     1
 90
        1
176
     1
 90
        6
176
     1
 90
        2
176
     1
 62
     7
176
     1
 90
        5
176
     1
 90
        0
176
     1
 90
        0
176
     1
290
     0
176
     1
 90
        1
176
     1
 40
0.0
176
     1
 90
        0
176
     1
290
     0
176
     1
290
     1
176
     1
290
     1
176
     1
290
     0
176
     1
290
     0
176
     1
290
     0
176
     1
290
     0
176
     1
290
     0
176
     1
290
     0
176
     1
 90
       50
176
     1
 40
0.0
176
     1
 40
1.0
176
     1
 90
        0
176
     1
 62
    18
176
     1
 90
       50
176
     1
 90
        3
176
     1
 62
     5
420
      255
176
     1
290
     0
176
     1
 90
       50
176
     1
 90
       50
176
     1
 90
       50
176
     1
290
     0
176
     1
 90
       50
176
     1
 62
   256
176
     0
 40
1.0
176
     0
 90
        2
176
     1
  1
strokes_ogs.tif
176
     1
290
     0
176
     1
 40
1.0
176
     1
 40
1.0
176
     1
1001
ACAD
1000
AcDbSavedByObjectVersion
1070
     0
  0
VISUALSTYLE
  5
5D3
102
{ACAD_REACTORS
330
1DA
102
}
330
1DA
100
AcDbVisualStyle
  2
OverhangOff
 70
    21
177
     3
291
     1
 70
    58
 90
        2
176
     0
 90
        2
176
     0
 90
        0
176
     0
 90
        0
176
     0
 40
0.6
176
     0
 40
30.0
176
     0
 62
     7
420
 16777215
176
     0
 90
        1
176
     0
 90
        4
176
     0
 62
     7
176
     0
 62
   257
176
     0
 90
        1
176
     0
 90
        1
176
     0
 40
1.0
176
     0
 90
        9
176
     2
 62
     7
176
     0
 40
1.0
176
     0
 90
        1
176
     0
 90
        6
176
     0
 90
        2
176
     0
 62
     7
176
     0
 90
        5
176
     0
 90
        0
176
     0
 90
        0
176
     0
290
     0
176
     0
 90
        1
176
     0
 40
0.0
176
     0
 90
        0
176
     0
290
     0
176
     1
290
     1
176
     1
290
     1
176
     1
290
     0
176
     1
290
     0
176
     1
290
     0
176
     1
290
     0
176
     1
290
     0
176
     1
290
     0
176
     1
 90
       50
176
     0
 40
0.0
176
     0
 40
1.0
176
     0
 90
        0
176
     0
 62
    18
176
     0
 90
       50
176
     0
 90
        3
176
     0
 62
     5
420
      255
176
     0
290
     0
176
     1
 90
       50
176
     0
 90
       50
176
     0
 90
       50
176
     0
290
     0
176
     1
 90
       50
176
     0
 62
   256
176
     0
 40
1.0
176
     0
 90
        2
176
     0
  1
strokes_ogs.tif
176
     0
290
     0
176
     1
 40
1.0
176
     0
 40
1.0
176
     0
1001
ACAD
1000
AcDbSavedByObjectVersion
1070
     0
  0
VISUALSTYLE
  5
1E4
102
{ACAD_REACTORS
330
1DA
102
}
330
1DA
100
AcDbVisualStyle
  2

 70
     8
177
     3
291
     0
 70
    58
 90
        2
176
     1
 90
        2
176
     1
 90
        0
176
     1
 90
        0
176
     1
 40
0.6
176
     1
 40
30.0
176
     1
 62
     7
176
     1
 90
        1
176
     1
 90
        0
176
     1
 62
     7
176
     1
 62
   257
176
     1
 90
        1
176
     1
 90
        1
176
     1
 40
1.0
176
     1
 90
        8
176
     1
 62
     8
176
     1
 40
1.0
176
     1
 90
        1
176
     1
 90
        6
176
     1
 90
        2
176
     1
 62
     7
176
     1
 90
        5
176
     1
 90
        0
176
     1
 90
        0
176
     1
290
     0
176
     1
 90
       13
176
     1
 40
0.0
176
     1
 90
        0
176
     1
290
     0
176
     1
290
     1
176
     1
290
     1
176
     1
290
     0
176
     1
290
     0
176
     1
290
     0
176
     1
290
     0
176
     1
290
     0
176
     1
290
     0
176
     1
 90
       50
176
     1
 40
0.0
176
     1
 40
1.0
176
     1
 90
        0
176
     1
 62
    18
176
     1
 90
       50
176
     1
 90
        3
176
     1
 62
     5
420
      255
176
     1
290
     0
176
     1
 90
       50
176
     1
 90
       50
176
     1
 90
       50
176
     1
290
     0
176
     1
 90
       50
176
     1
 62
   256
176
     0
 40
1.0
176
     0
 90
        2
176
     1
  1
strokes_ogs.tif
176
     1
290
     0
176
     1
 40
1.0
176
     1
 40
1.0
176
     1
1001
ACAD
1000
AcDbSavedByObjectVersion
1070
     0
  0
VISUALSTYLE
  5
5D1
102
{ACAD_REACTORS
330
1DA
102
}
330
1DA
100
AcDbVisualStyle
  2
Shaded
 70
    27
177
     3
291
     0
 70
    58
 90
        2
176
     1
 90
        2
176
     1
 90
        1
176
     1
 90
        2
176
     1
 40
0.6
176
     1
 40
30.0
176
     1
 62
     7
420
 16777215
176
     1
 90
        0
176
     1
 90
        4
176
     1
 62
     7
176
     1
 62
   257
176
     1
 90
        1
176
     1
 90
        1
176
     1
 40
1.0
176
     1
 90
        8
176
     1
 62
   257
176
     1
 40
1.0
176
     1
 90
        1
176
     1
 90
        6
176
     1
 90
        2
176
     1
 62
     8
420
  7895160
176
     1
 90
        3
176
     1
 90
        0
176
     1
 90
        0
176
     1
290
     0
176
     1
 90
        5
176
     1
 40
0.0
176
     1
 90
        0
176
     1
290
     0
176
     1
290
     1
176
     1
290
     1
176
     1
290
     0
176
     1
290
     0
176
     1
290
     0
176
     1
290
     0
176
     1
290
     0
176
     1
290
     0
176
     1
 90
       50
176
     1
 40
0.0
176
     1
 40
1.0
176
     1
 90
        0
176
     1
 62
    18
176
     1
 90
       50
176
     1
 90
        3
176
     1
 62
     5
420
      255
176
     1
290
     0
176
     1
 90
       50
176
     1
 90
       50
176
     1
 90
       50
176
     1
290
     0
176
     1
 90
       50
176
     1
 62
   256
176
     0
 40
1.0
176
     0
 90
        2
176
     1
  1
strokes_ogs.tif
176
     1
290
     0
176
     1
 40
1.0
176
     1
 40
1.0
176
     1
1001
ACAD
1000
AcDbSavedByObjectVersion
1070
     0
  0
VISUALSTYLE
  5
5D0
102
{ACAD_REACTORS
330
1DA
102
}
330
1DA
100
AcDbVisualStyle
  2
Shaded with edges
 70
    26
177
     3
291
     0
 70
    58
 90
        2
176
     1
 90
        2
176
     1
 90
        1
176
     1
 90
        2
176
     1
 40
0.6
176
     1
 40
30.0
176
     1
 62
     7
420
 16777215
176
     1
 90
        1
176
     1
 90
        2
176
     1
 62
     7
176
     1
 62
   257
176
     1
 90
        2
176
     1
 90
        1
176
     1
 40
1.0
176
     1
 90
        8
176
     1
 62
   257
176
     1
 40
1.0
176
     1
 90
        1
176
     1
 90
        6
176
     1
 90
        2
176
     1
 62
     7
176
     1
 90
        3
176
     1
 90
        0
176
     1
 90
        0
176
     1
290
     0
176
     1
 90
        5
176
     1
 40
0.0
176
     1
 90
        0
176
     1
290
     0
176
     1
290
     1
176
     1
290
     1
176
     1
290
     0
176
     1
290
     0
176
     1
290
     0
176
     1
290
     0
176
     1
290
     0
176
     1
290
     0
176
     1
 90
       50
176
     1
 40
0.0
176
     1
 40
1.0
176
     1
 90
        0
176
     1
 62
    18
176
     1
 90
       50
176
     1
 90
        3
176
     1
 62
     5
420
      255
176
     1
290
     0
176
     1
 90
       50
176
     1
 90
       50
176
     1
 90
       50
176
     1
290
     0
176
     1
 90
       50
176
     1
 62
   256
176
     0
 40
1.0
176
     0
 90
        2
176
     1
  1
strokes_ogs.tif
176
     1
290
     0
176
     1
 40
1.0
176
     1
 40
1.0
176
     1
1001
ACAD
1000
AcDbSavedByObjectVersion
1070
     0
  0
VISUALSTYLE
  5
5CD
102
{ACAD_REACTORS
330
1DA
102
}
330
1DA
100
AcDbVisualStyle
  2
Shades of Gray
 70
    23
177
     3
291
     0
 70
    58
 90
        2
176
     1
 90
        2
176
     1
 90
        3
176
     1
 90
        0
176
     1
 40
0.6
176
     1
 40
30.0
176
     1
 62
     7
420
 16777215
176
     1
 90
        2
176
     1
 90
        2
176
     1
 62
     7
176
     1
 62
     7
176
     1
 90
        1
176
     1
 90
        1
176
     1
 40
40.0
176
     1
 90
        8
176
     1
 62
     7
176
     1
 40
1.0
176
     1
 90
        1
176
     1
 90
        6
176
     1
 90
        2
176
     1
 62
     7
176
     1
 90
        3
176
     1
 90
        0
176
     1
 90
        0
176
     1
290
     0
176
     1
 90
        1
176
     1
 40
0.0
176
     1
 90
        0
176
     1
290
     0
176
     1
290
     1
176
     1
290
     1
176
     1
290
     0
176
     1
290
     0
176
     1
290
     0
176
     1
290
     0
176
     1
290
     0
176
     1
290
     0
176
     1
 90
       50
176
     1
 40
0.0
176
     1
 40
1.0
176
     1
 90
        0
176
     1
 62
    18
176
     1
 90
       50
176
     1
 90
        3
176
     1
 62
     5
420
      255
176
     1
290
     0
176
     1
 90
       50
176
     1
 90
       50
176
     1
 90
       50
176
     1
290
     0
176
     1
 90
       50
176
     1
 62
   256
176
     0
 40
1.0
176
     0
 90
        2
176
     1
  1
strokes_ogs.tif
176
     1
290
     0
176
     1
 40
1.0
176
     1
 40
1.0
176
     1
1001
ACAD
1000
AcDbSavedByObjectVersion
1070
     0
  0
VISUALSTYLE
  5
5CE
102
{ACAD_REACTORS
330
1DA
102
}
330
1DA
100
AcDbVisualStyle
  2
Sketchy
 70
    24
177
     3
291
     0
 70
    58
 90
        1
176
     1
 90
        2
176
     1
 90
        2
176
     1
 90
        0
176
     1
 40
0.6
176
     1
 40
30.0
176
     1
 62
     7
420
 16777215
176
     1
 90
        2
176
     1
 90
        2
176
     1
 62
     7
176
     1
 62
     7
176
     1
 90
        1
176
     1
 90
        1
176
     1
 40
40.0
176
     1
 90
       11
176
     1
 62
     7
176
     1
 40
1.0
176
     1
 90
        1
176
     1
 90
        6
176
     1
 90
        2
176
     1
 62
     7
176
     1
 90
        6
176
     1
 90
        0
176
     1
 90
        0
176
     1
290
     0
176
     1
 90
        1
176
     1
 40
0.0
176
     1
 90
        0
176
     1
290
     0
176
     1
290
     1
176
     1
290
     1
176
     1
290
     0
176
     1
290
     0
176
     1
290
     0
176
     1
290
     0
176
     1
290
     0
176
     1
290
     0
176
     1
 90
       50
176
     1
 40
0.0
176
     1
 40
1.0
176
     1
 90
        0
176
     1
 62
    18
176
     1
 90
       50
176
     1
 90
        3
176
     1
 62
     5
420
      255
176
     1
290
     0
176
     1
 90
       50
176
     1
 90
       50
176
     1
 90
       50
176
     1
290
     0
176
     1
 90
       50
176
     1
 62
   256
176
     0
 40
1.0
176
     0
 90
        2
176
     1
  1
strokes_ogs.tif
176
     1
290
     0
176
     1
 40
1.0
176
     1
 40
1.0
176
     1
1001
ACAD
1000
AcDbSavedByObjectVersion
1070
     0
  0
VISUALSTYLE
  5
1E7
102
{ACAD_REACTORS
330
1DA
102
}
330
1DA
100
AcDbVisualStyle
  2

 70
    13
177
     3
291
     1
 70
    58
 90
        2
176
     1
 90
        2
176
     1
 90
        0
176
     1
 90
        0
176
     1
 40
0.6
176
     1
 40
30.0
176
     1
 62
     7
176
     1
 90
        1
176
     1
 90
        4
176
     1
 62
     7
176
     1
 62
   257
176
     1
 90
        1
176
     1
 90
        1
176
     1
 40
1.0
176
     1
 90
       12
176
     1
 62
     7
176
     1
 40
1.0
176
     1
 90
        1
176
     1
 90
        6
176
     1
 90
        2
176
     1
 62
     7
176
     1
 90
        5
176
     1
 90
        0
176
     1
 90
        0
176
     1
290
     0
176
     1
 90
        1
176
     1
 40
0.0
176
     1
 90
        0
176
     1
290
     0
176
     1
290
     1
176
     1
290
     1
176
     1
290
     0
176
     1
290
     0
176
     1
290
     0
176
     1
290
     0
176
     1
290
     0
176
     1
290
     0
176
     1
 90
       50
176
     1
 40
0.0
176
     1
 40
1.0
176
     1
 90
        0
176
     1
 62
    18
176
     1
 90
       50
176
     1
 90
        3
176
     1
 62
     5
420
      255
176
     1
290
     0
176
     1
 90
       50
176
     1
 90
       50
176
     1
 90
       50
176
     1
290
     0
176
     1
 90
       50
176
     1
 62
   256
176
     0
 40
1.0
176
     0
 90
        2
176
     1
  1
strokes_ogs.tif
176
     1
290
     0
176
     1
 40
1.0
176
     1
 40
1.0
176
     1
1001
ACAD
1000
AcDbSavedByObjectVersion
1070
     0
  0
VISUALSTYLE
  5
5CB
102
{ACAD_REACTORS
330
1DA
102
}
330
1DA
100
AcDbVisualStyle
  2
Wireframe
 70
     5
177
     3
291
     0
 70
    58
 90
        0
176
     1
 90
        2
176
     1
 90
        0
176
     1
 90
        0
176
     1
 40
0.6
176
     1
 40
30.0
176
     1
 62
     7
420
 16777215
176
     1
 90
        1
176
     1
 90
        4
176
     1
 62
     7
176
     1
 62
   257
176
     1
 90
        1
176
     1
 90
        1
176
     1
 40
1.0
176
     1
 90
        0
176
     1
 62
   257
176
     1
 40
1.0
176
     1
 90
        1
176
     1
 90
        6
176
     1
 90
        2
176
     1
 62
     7
176
     1
 90
        3
176
     1
 90
        0
176
     1
 90
        0
176
     1
290
     0
176
     1
 90
        1
176
     1
 40
0.0
176
     1
 90
        0
176
     1
290
     0
176
     1
290
     1
176
     1
290
     1
176
     1
290
     0
176
     1
290
     0
176
     1
290
     0
176
     1
290
     0
176
     1
290
     0
176
     1
290
     0
176
     1
 90
       50
176
     1
 40
0.0
176
     1
 40
1.0
176
     1
 90
        0
176
     1
 62
    18
176
     1
 90
       50
176
     1
 90
        3
176
     1
 62
     5
420
      255
176
     1
290
     0
176
     1
 90
       50
176
     1
 90
       50
176
     1
 90
       50
176
     1
290
     0
176
     1
 90
       50
176
     1
 62
   256
176
     0
 40
1.0
176
     0
 90
        2
176
     1
  1
strokes_ogs.tif
176
     1
290
     0
176
     1
 40
1.0
176
     1
 40
1.0
176
     1
1001
ACAD
1000
AcDbSavedByObjectVersion
1070
     0
  0
VISUALSTYLE
  5
5CF
102
{ACAD_REACTORS
330
1DA
102
}
330
1DA
100
AcDbVisualStyle
  2
X-Ray
 70
    25
177
     3
291
     0
 70
    58
 90
        2
176
     1
 90
        2
176
     1
 90
        1
176
     1
 90
        1
176
     1
 40
0.5
176
     1
 40
30.0
176
     1
 62
     7
420
 16777215
176
     1
 90
        1
176
     1
 90
        0
176
     1
 62
     7
176
     1
 62
   257
176
     1
 90
        1
176
     1
 90
        1
176
     1
 40
1.0
176
     1
 90
        8
176
     1
 62
     7
176
     1
 40
1.0
176
     1
 90
        1
176
     1
 90
        6
176
     1
 90
        2
176
     1
 62
     7
176
     1
 90
        3
176
     1
 90
        0
176
     1
 90
        0
176
     1
290
     0
176
     1
 90
       13
176
     1
 40
0.0
176
     1
 90
        0
176
     1
290
     0
176
     1
290
     1
176
     1
290
     1
176
     1
290
     0
176
     1
290
     0
176
     1
290
     0
176
     1
290
     0
176
     1
290
     0
176
     1
290
     0
176
     1
 90
       50
176
     1
 40
0.0
176
     1
 40
1.0
176
     1
 90
        0
176
     1
 62
    18
176
     1
 90
       50
176
     1
 90
        3
176
     1
 62
     5
420
      255
176
     1
290
     0
176
     1
 90
       50
176
     1
 90
       50
176
     1
 90
       50
176
     1
290
     0
176
     1
 90
       50
176
     1
 62
   256
176
     0
 40
1.0
176
     0
 90
        2
176
     1
  1
strokes_ogs.tif
176
     1
290
     0
176
     1
 40
1.0
176
     1
 40
1.0
176
     1
1001
ACAD
1000
AcDbSavedByObjectVersion
1070
     0
  0
DICTIONARYVAR
  5
630
102
{ACAD_REACTORS
330
1F3
102
}
330
1F3
100
DictionaryVariables
280
     0
  1
1:1
  0
DICTIONARYVAR
  5
62C
102
{ACAD_REACTORS
330
1F3
102
}
330
1F3
100
DictionaryVariables
280
     0
  1
STANDARD
  0
DICTIONARYVAR
  5
1F4
102
{ACAD_REACTORS
330
1F3
102
}
330
1F3
100
DictionaryVariables
280
     0
  1
STANDARD
  0
DICTIONARYVAR
  5
62D
102
{ACAD_REACTORS
330
1F3
102
}
330
1F3
100
DictionaryVariables
280
     0
  1
Imperial24
  0
DICTIONARYVAR
  5
62E
102
{ACAD_REACTORS
330
1F3
102
}
330
1F3
100
DictionaryVariables
280
     0
  1
Imperial24
  0
DICTIONARYVAR
  5
586
102
{ACAD_REACTORS
330
1F3
102
}
330
1F3
100
DictionaryVariables
280
     0
  1
1
  0
DICTIONARYVAR
  5
585
102
{ACAD_REACTORS
330
1F3
102
}
330
1F3
100
DictionaryVariables
280
     0
  1
0
  0
DICTIONARYVAR
  5
632
102
{ACAD_REACTORS
330
1F3
102
}
330
1F3
100
DictionaryVariables
280
     0
  1
1
  0
DICTIONARYVAR
  5
633
102
{ACAD_REACTORS
330
1F3
102
}
330
1F3
100
DictionaryVariables
280
     0
  1
15
  0
DICTIONARYVAR
  5
631
102
{ACAD_REACTORS
330
1F3
102
}
330
1F3
100
DictionaryVariables
280
     0
  1
0
  0
DICTIONARYVAR
  5
62F
102
{ACAD_REACTORS
330
1F3
102
}
330
1F3
100
DictionaryVariables
280
     0
  1
0
  0
DICTIONARYVAR
  5
584
102
{ACAD_REACTORS
330
1F3
102
}
330
1F3
100
DictionaryVariables
280
     0
  1
127
  0
DICTIONARY
  5
4AFA
330
5EC
100
AcDbDictionary
280
     1
281
     1
  3
ACAD_XREC_ROUNDTRIP
360
4AFB
  0
DICTIONARY
  5
4AFE
330
677
100
AcDbDictionary
280
     1
281
     1
  3
ACAD_XREC_ROUNDTRIP
360
4AFF
  0
DICTIONARY
  5
5BF
330
1D8
100
AcDbDictionary
280
     1
281
     1
  3
ACAD_XREC_ROUNDTRIP
360
5C0
  0
DICTIONARY
  5
5BD
330
1D7
100
AcDbDictionary
280
     1
281
     1
  3
ACAD_XREC_ROUNDTRIP
360
5BE
  0
DICTIONARY
  5
5C1
330
1D9
100
AcDbDictionary
280
     1
281
     1
  3
ACAD_XREC_ROUNDTRIP
360
5C2
  0
DICTIONARY
  5
4AF8
330
5EA
100
AcDbDictionary
280
     1
281
     1
  3
ACAD_XREC_ROUNDTRIP
360
4AF9
  0
DICTIONARY
  5
4AFC
330
676
100
AcDbDictionary
280
     1
281
     1
  3
ACAD_XREC_ROUNDTRIP
360
4AFD
  0
DICTIONARY
  5
634
330
1ED
100
AcDbDictionary
280
     1
281
     1
  3
ACAD_ROUNDTRIP_2008_TABLESTYLE_CELLSTYLEMAP
360
4AF6
  0
XRECORD
  5
4AFB
102
{ACAD_REACTORS
330
4AFA
102
}
330
4AFA
100
AcDbXrecord
280
     1
102
DISPLAYNAME
  1
Imperial24
102
FLAGS
 90
        0
  0
XRECORD
  5
4AFF
102
{ACAD_REACTORS
330
4AFE
102
}
330
4AFE
100
AcDbXrecord
280
     1
102
DISPLAYNAME
  1
Metric50
102
FLAGS
 90
        0
  0
XRECORD
  5
5C0
102
{ACAD_REACTORS
330
5BF
102
}
330
5BF
100
AcDbXrecord
280
     1
102
MATERIAL
148
0.0
149
0.0
149
0.0
 93
        0
 94
       63
282
     0
 72
     1
 77
     1
171
     1
175
     1
179
     1
273
     0
  0
XRECORD
  5
5BE
102
{ACAD_REACTORS
330
5BD
102
}
330
5BD
100
AcDbXrecord
280
     1
102
MATERIAL
148
0.0
149
0.0
149
0.0
 93
        0
 94
       63
282
     0
 72
     1
 77
     1
171
     1
175
     1
179
     1
273
     0
  0
XRECORD
  5
5C2
102
{ACAD_REACTORS
330
5C1
102
}
330
5C1
100
AcDbXrecord
280
     1
102
MATERIAL
148
0.0
149
0.0
149
0.0
 93
        0
 94
       63
282
     0
 72
     1
 77
     1
171
     1
175
     1
179
     1
273
     0
  0
XRECORD
  5
4AF9
102
{ACAD_REACTORS
330
4AF8
102
}
330
4AF8
100
AcDbXrecord
280
     1
102
DISPLAYNAME
  1
Imperial24
102
FLAGS
 90
        0
  0
XRECORD
  5
4AFD
102
{ACAD_REACTORS
330
4AFC
102
}
330
4AFC
100
AcDbXrecord
280
     1
102
DISPLAYNAME
  1
Metric50
102
FLAGS
 90
        0
  0
CELLSTYLEMAP
  5
4AF6
102
{ACAD_REACTORS
330
634
102
}
330
634
100
AcDbCellStyleMap
 90
        3
300
CELLSTYLE
  1
TABLEFORMAT_BEGIN
 90
        5
170
     1
 91
        0
 92
    32768
 62
   257
 93
        1
300
CONTENTFORMAT
  1
CONTENTFORMAT_BEGIN
 90
        0
 91
        0
 92
      512
 93
        0
300

 40
0.0
140
1.0
 94
        5
 62
     0
340
11
144
0.25
309
CONTENTFORMAT_END
171
     1
301
MARGIN
  1
CELLMARGIN_BEGIN
 40
0.06
 40
0.06
 40
0.06
 40
0.06
 40
0.18
 40
0.18
309
CELLMARGIN_END
 94
        6
 95
        1
302
GRIDFORMAT
  1
GRIDFORMAT_BEGIN
 90
        0
 91
        1
 62
     0
 92
       -2
340
0
 93
        0
 40
0.045
309
GRIDFORMAT_END
 95
        2
302
GRIDFORMAT
  1
GRIDFORMAT_BEGIN
 90
        0
 91
        1
 62
     0
 92
       -2
340
0
 93
        0
 40
0.045
309
GRIDFORMAT_END
 95
        4
302
GRIDFORMAT
  1
GRIDFORMAT_BEGIN
 90
        0
 91
        1
 62
     0
 92
       -2
340
0
 93
        0
 40
0.045
309
GRIDFORMAT_END
 95
        8
302
GRIDFORMAT
  1
GRIDFORMAT_BEGIN
 90
        0
 91
        1
 62
     0
 92
       -2
340
0
 93
        0
 40
0.045
309
GRIDFORMAT_END
 95
       16
302
GRIDFORMAT
  1
GRIDFORMAT_BEGIN
 90
        0
 91
        1
 62
     0
 92
       -2
340
0
 93
        0
 40
0.045
309
GRIDFORMAT_END
 95
       32
302
GRIDFORMAT
  1
GRIDFORMAT_BEGIN
 90
        0
 91
        1
 62
     0
 92
       -2
340
0
 93
        0
 40
0.045
309
GRIDFORMAT_END
309
TABLEFORMAT_END
  1
CELLSTYLE_BEGIN
 90
        1
 91
        1
300
_TITLE
309
CELLSTYLE_END
300
CELLSTYLE
  1
TABLEFORMAT_BEGIN
 90
        5
170
     1
 91
        0
 92
        0
 62
   257
 93
        1
300
CONTENTFORMAT
  1
CONTENTFORMAT_BEGIN
 90
        0
 91
        0
 92
      512
 93
        0
300

 40
0.0
140
1.0
 94
        5
 62
     0
340
11
144
0.18
309
CONTENTFORMAT_END
171
     1
301
MARGIN
  1
CELLMARGIN_BEGIN
 40
0.06
 40
0.06
 40
0.06
 40
0.06
 40
0.18
 40
0.18
309
CELLMARGIN_END
 94
        6
 95
        1
302
GRIDFORMAT
  1
GRIDFORMAT_BEGIN
 90
        0
 91
        1
 62
     0
 92
       -2
340
0
 93
        0
 40
0.045
309
GRIDFORMAT_END
 95
        2
302
GRIDFORMAT
  1
GRIDFORMAT_BEGIN
 90
        0
 91
        1
 62
     0
 92
       -2
340
0
 93
        0
 40
0.045
309
GRIDFORMAT_END
 95
        4
302
GRIDFORMAT
  1
GRIDFORMAT_BEGIN
 90
        0
 91
        1
 62
     0
 92
       -2
340
0
 93
        0
 40
0.045
309
GRIDFORMAT_END
 95
        8
302
GRIDFORMAT
  1
GRIDFORMAT_BEGIN
 90
        0
 91
        1
 62
     0
 92
       -2
340
0
 93
        0
 40
0.045
309
GRIDFORMAT_END
 95
       16
302
GRIDFORMAT
  1
GRIDFORMAT_BEGIN
 90
        0
 91
        1
 62
     0
 92
       -2
340
0
 93
        0
 40
0.045
309
GRIDFORMAT_END
 95
       32
302
GRIDFORMAT
  1
GRIDFORMAT_BEGIN
 90
        0
 91
        1
 62
     0
 92
       -2
340
0
 93
        0
 40
0.045
309
GRIDFORMAT_END
309
TABLEFORMAT_END
  1
CELLSTYLE_BEGIN
 90
        2
 91
        1
300
_HEADER
309
CELLSTYLE_END
300
CELLSTYLE
  1
TABLEFORMAT_BEGIN
 90
        5
170
     1
 91
        0
 92
        0
 62
   257
 93
        1
300
CONTENTFORMAT
  1
CONTENTFORMAT_BEGIN
 90
        0
 91
        0
 92
      512
 93
        0
300

 40
0.0
140
1.0
 94
        2
 62
     0
340
11
144
0.18
309
CONTENTFORMAT_END
171
     1
301
MARGIN
  1
CELLMARGIN_BEGIN
 40
0.06
 40
0.06
 40
0.06
 40
0.06
 40
0.18
 40
0.18
309
CELLMARGIN_END
 94
        6
 95
        1
302
GRIDFORMAT
  1
GRIDFORMAT_BEGIN
 90
        0
 91
        1
 62
     0
 92
       -2
340
0
 93
        0
 40
0.045
309
GRIDFORMAT_END
 95
        2
302
GRIDFORMAT
  1
GRIDFORMAT_BEGIN
 90
        0
 91
        1
 62
     0
 92
       -2
340
0
 93
        0
 40
0.045
309
GRIDFORMAT_END
 95
        4
302
GRIDFORMAT
  1
GRIDFORMAT_BEGIN
 90
        0
 91
        1
 62
     0
 92
       -2
340
0
 93
        0
 40
0.045
309
GRIDFORMAT_END
 95
        8
302
GRIDFORMAT
  1
GRIDFORMAT_BEGIN
 90
        0
 91
        1
 62
     0
 92
       -2
340
0
 93
        0
 40
0.045
309
GRIDFORMAT_END
 95
       16
302
GRIDFORMAT
  1
GRIDFORMAT_BEGIN
 90
        0
 91
        1
 62
     0
 92
       -2
340
0
 93
        0
 40
0.045
309
GRIDFORMAT_END
 95
       32
302
GRIDFORMAT
  1
GRIDFORMAT_BEGIN
 90
        0
 91
        1
 62
     0
 92
       -2
340
0
 93
        0
 40
0.045
309
GRIDFORMAT_END
309
TABLEFORMAT_END
  1
CELLSTYLE_BEGIN
 90
        3
 91
        2
300
_DATA
309
CELLSTYLE_END
  0
ENDSEC
  0
EOF
