  0
SECTION
  2
HEADER
  9
$ACADVER
  1
AC1027
  9
$ACADMAINTVER
 70
   125
  9
$DWGCODEPAGE
  3
ANSI_1252
  9
$LASTSAVEDBY
  1
kaschu
  9
$REQUIREDVERSIONS
160
                 0
  9
$INSBASE
 10
0.0
 20
0.0
 30
0.0
  9
$EXTMIN
 10
37.83116243911718
 20
16.0032745497391
 30
-0.0000000000000737
  9
$EXTMAX
 10
2060.964978249842
 20
1778.335838858273
 30
0.0000000000000337
  9
$LIMMIN
 10
0.0
 20
0.0
  9
$LIMMAX
 10
12.0
 20
9.0
  9
$ORTHOMODE
 70
     1
  9
$REGENMODE
 70
     1
  9
$FILLMODE
 70
     1
  9
$QTEXTMODE
 70
     0
  9
$MIRRTEXT
 70
     1
  9
$LTSCALE
 40
1.0
  9
$ATTMODE
 70
     1
  9
$TEXTSIZE
 40
0.2
  9
$TRACEWID
 40
0.05
  9
$TEXTSTYLE
  7
STANDARD
  9
$CLAYER
  8
0
  9
$CELTYPE
  6
BYLAYER
  9
$CECOLOR
 62
   256
  9
$CELTSCALE
 40
1.0
  9
$DISPSILH
 70
     0
  9
$DIMSCALE
 40
1.0
  9
$DIMASZ
 40
0.18
  9
$DIMEXO
 40
0.0625
  9
$DIMDLI
 40
0.38
  9
$DIMRND
 40
0.0
  9
$DIMDLE
 40
0.0
  9
$DIMEXE
 40
0.18
  9
$DIMTP
 40
0.0
  9
$DIMTM
 40
0.0
  9
$DIMTXT
 40
0.18
  9
$DIMCEN
 40
0.09
  9
$DIMTSZ
 40
0.0
  9
$DIMTOL
 70
     0
  9
$DIMLIM
 70
     0
  9
$DIMTIH
 70
     1
  9
$DIMTOH
 70
     1
  9
$DIMSE1
 70
     0
  9
$DIMSE2
 70
     0
  9
$DIMTAD
 70
     0
  9
$DIMZIN
 70
     0
  9
$DIMBLK
  1

  9
$DIMASO
 70
     1
  9
$DIMSHO
 70
     1
  9
$DIMPOST
  1

  9
$DIMAPOST
  1

  9
$DIMALT
 70
     0
  9
$DIMALTD
 70
     2
  9
$DIMALTF
 40
25.4
  9
$DIMLFAC
 40
1.0
  9
$DIMTOFL
 70
     0
  9
$DIMTVP
 40
0.0
  9
$DIMTIX
 70
     0
  9
$DIMSOXD
 70
     0
  9
$DIMSAH
 70
     0
  9
$DIMBLK1
  1

  9
$DIMBLK2
  1

  9
$DIMSTYLE
  2
STANDARD
  9
$DIMCLRD
 70
     0
  9
$DIMCLRE
 70
     0
  9
$DIMCLRT
 70
     0
  9
$DIMTFAC
 40
1.0
  9
$DIMGAP
 40
0.09
  9
$DIMJUST
 70
     0
  9
$DIMSD1
 70
     0
  9
$DIMSD2
 70
     0
  9
$DIMTOLJ
 70
     1
  9
$DIMTZIN
 70
     0
  9
$DIMALTZ
 70
     0
  9
$DIMALTTZ
 70
     0
  9
$DIMUPT
 70
     0
  9
$DIMDEC
 70
     4
  9
$DIMTDEC
 70
     4
  9
$DIMALTU
 70
     2
  9
$DIMALTTD
 70
     2
  9
$DIMTXSTY
  7
STANDARD
  9
$DIMAUNIT
 70
     0
  9
$DIMADEC
 70
     0
  9
$DIMALTRND
 40
0.0
  9
$DIMAZIN
 70
     0
  9
$DIMDSEP
 70
    46
  9
$DIMATFIT
 70
     3
  9
$DIMFRAC
 70
     0
  9
$DIMLDRBLK
  1

  9
$DIMLUNIT
 70
     2
  9
$DIMLWD
 70
    -2
  9
$DIMLWE
 70
    -2
  9
$DIMTMOVE
 70
     0
  9
$DIMFXL
 40
1.0
  9
$DIMFXLON
 70
     0
  9
$DIMJOGANG
 40
1.570796326794896
  9
$DIMTFILL
 70
     0
  9
$DIMTFILLCLR
 70
     0
  9
$DIMARCSYM
 70
     0
  9
$DIMLTYPE
  6

  9
$DIMLTEX1
  6

  9
$DIMLTEX2
  6

  9
$DIMTXTDIRECTION
 70
     0
  9
$LUNITS
 70
     2
  9
$LUPREC
 70
     4
  9
$SKETCHINC
 40
0.1
  9
$FILLETRAD
 40
0.5
  9
$AUNITS
 70
     0
  9
$AUPREC
 70
     0
  9
$MENU
  1
.
  9
$ELEVATION
 40
0.0
  9
$PELEVATION
 40
0.0
  9
$THICKNESS
 40
0.0
  9
$LIMCHECK
 70
     0
  9
$CHAMFERA
 40
0.5
  9
$CHAMFERB
 40
0.5
  9
$CHAMFERC
 40
1.0
  9
$CHAMFERD
 40
0.0
  9
$SKPOLY
 70
     0
  9
$TDCREATE
 40
2451762.510034722
  9
$TDUCREATE
 40
2451762.426705324
  9
$TDUPDATE
 40
2459102.633506945
  9
$TDUUPDATE
 40
2459102.550173611
  9
$TDINDWG
 40
0.1127621875
  9
$TDUSRTIMER
 40
0.1127498611
  9
$USRTIMER
 70
     1
  9
$ANGBASE
 50
0.0
  9
$ANGDIR
 70
     0
  9
$PDMODE
 70
     0
  9
$PDSIZE
 40
0.0
  9
$PLINEWID
 40
0.0
  9
$SPLFRAME
 70
     0
  9
$SPLINETYPE
 70
     6
  9
$SPLINESEGS
 70
     8
  9
$HANDSEED
  5
48D1
  9
$SURFTAB1
 70
     6
  9
$SURFTAB2
 70
     6
  9
$SURFTYPE
 70
     6
  9
$SURFU
 70
     6
  9
$SURFV
 70
     6
  9
$UCSBASE
  2

  9
$UCSNAME
  2

  9
$UCSORG
 10
0.0
 20
0.0
 30
0.0
  9
$UCSXDIR
 10
1.0
 20
0.0
 30
0.0
  9
$UCSYDIR
 10
0.0
 20
1.0
 30
0.0
  9
$UCSORTHOREF
  2

  9
$UCSORTHOVIEW
 70
     0
  9
$UCSORGTOP
 10
0.0
 20
0.0
 30
0.0
  9
$UCSORGBOTTOM
 10
0.0
 20
0.0
 30
0.0
  9
$UCSORGLEFT
 10
0.0
 20
0.0
 30
0.0
  9
$UCSORGRIGHT
 10
0.0
 20
0.0
 30
0.0
  9
$UCSORGFRONT
 10
0.0
 20
0.0
 30
0.0
  9
$UCSORGBACK
 10
0.0
 20
0.0
 30
0.0
  9
$PUCSBASE
  2

  9
$PUCSNAME
  2

  9
$PUCSORG
 10
0.0
 20
0.0
 30
0.0
  9
$PUCSXDIR
 10
1.0
 20
0.0
 30
0.0
  9
$PUCSYDIR
 10
0.0
 20
1.0
 30
0.0
  9
$PUCSORTHOREF
  2

  9
$PUCSORTHOVIEW
 70
     0
  9
$PUCSORGTOP
 10
0.0
 20
0.0
 30
0.0
  9
$PUCSORGBOTTOM
 10
0.0
 20
0.0
 30
0.0
  9
$PUCSORGLEFT
 10
0.0
 20
0.0
 30
0.0
  9
$PUCSORGRIGHT
 10
0.0
 20
0.0
 30
0.0
  9
$PUCSORGFRONT
 10
0.0
 20
0.0
 30
0.0
  9
$PUCSORGBACK
 10
0.0
 20
0.0
 30
0.0
  9
$USERI1
 70
     0
  9
$USERI2
 70
     0
  9
$USERI3
 70
     0
  9
$USERI4
 70
     0
  9
$USERI5
 70
     0
  9
$USERR1
 40
0.0
  9
$USERR2
 40
0.0
  9
$USERR3
 40
0.0
  9
$USERR4
 40
0.0
  9
$USERR5
 40
0.0
  9
$WORLDVIEW
 70
     1
  9
$SHADEDGE
 70
     3
  9
$SHADEDIF
 70
    70
  9
$TILEMODE
 70
     1
  9
$MAXACTVP
 70
    64
  9
$PINSBASE
 10
0.0
 20
0.0
 30
0.0
  9
$PLIMCHECK
 70
     0
  9
$PEXTMIN
 10
1.000000000000000E+20
 20
1.000000000000000E+20
 30
1.000000000000000E+20
  9
$PEXTMAX
 10
-1.000000000000000E+20
 20
-1.000000000000000E+20
 30
-1.000000000000000E+20
  9
$PLIMMIN
 10
0.0
 20
0.0
  9
$PLIMMAX
 10
12.0
 20
9.0
  9
$UNITMODE
 70
     0
  9
$VISRETAIN
 70
     1
  9
$PLINEGEN
 70
     0
  9
$PSLTSCALE
 70
     1
  9
$TREEDEPTH
 70
  3020
  9
$CMLSTYLE
  2
STANDARD
  9
$CMLJUST
 70
     0
  9
$CMLSCALE
 40
1.0
  9
$PROXYGRAPHICS
 70
     1
  9
$MEASUREMENT
 70
     0
  9
$CELWEIGHT
370
    -1
  9
$ENDCAPS
280
     0
  9
$JOINSTYLE
280
     0
  9
$LWDISPLAY
290
     0
  9
$INSUNITS
 70
     0
  9
$HYPERLINKBASE
  1

  9
$STYLESHEET
  1

  9
$XEDIT
290
     1
  9
$CEPSNTYPE
380
     0
  9
$PSTYLEMODE
290
     1
  9
$FINGERPRINTGUID
  2
{07D082D4-8E9D-48F0-9949-F8C76B91C45A}
  9
$VERSIONGUID
  2
{835AB8C0-D456-4142-B832-CD40F5B14A62}
  9
$EXTNAMES
290
     1
  9
$PSVPSCALE
 40
0.0
  9
$OLESTARTUP
290
     0
  9
$SORTENTS
280
   127
  9
$INDEXCTL
280
     0
  9
$HIDETEXT
280
     0
  9
$XCLIPFRAME
280
     2
  9
$HALOGAP
280
     0
  9
$OBSCOLOR
 70
   257
  9
$OBSLTYPE
280
     0
  9
$INTERSECTIONDISPLAY
280
     0
  9
$INTERSECTIONCOLOR
 70
   257
  9
$DIMASSOC
280
     1
  9
$PROJECTNAME
  1

  9
$CAMERADISPLAY
290
     0
  9
$LENSLENGTH
 40
50.0
  9
$CAMERAHEIGHT
 40
0.0
  9
$STEPSPERSEC
 40
2.0
  9
$STEPSIZE
 40
6.0
  9
$3DDWFPREC
 40
2.0
  9
$PSOLWIDTH
 40
0.25
  9
$PSOLHEIGHT
 40
4.0
  9
$LOFTANG1
 40
1.570796326794896
  9
$LOFTANG2
 40
1.570796326794896
  9
$LOFTMAG1
 40
0.0
  9
$LOFTMAG2
 40
0.0
  9
$LOFTPARAM
 70
     7
  9
$LOFTNORMALS
280
     1
  9
$LATITUDE
 40
37.795
  9
$LONGITUDE
 40
-122.394
  9
$NORTHDIRECTION
 40
0.0
  9
$TIMEZONE
 70
 -8000
  9
$LIGHTGLYPHDISPLAY
280
     1
  9
$TILEMODELIGHTSYNCH
280
     1
  9
$CMATERIAL
347
1D7
  9
$SOLIDHIST
280
     0
  9
$SHOWHIST
280
     1
  9
$DWFFRAME
280
     2
  9
$DGNFRAME
280
     0
  9
$REALWORLDSCALE
290
     1
  9
$INTERFERECOLOR
 62
     1
  9
$INTERFEREOBJVS
345
1E4
  9
$INTERFEREVPVS
346
5CB
  9
$CSHADOW
280
     0
  9
$SHADOWPLANELOCATION
 40
0.0
  0
ENDSEC
  0
SECTION
  2
CLASSES
  0
CLASS
  1
ACDBDICTIONARYWDFLT
  2
AcDbDictionaryWithDefault
  3
ObjectDBX Classes
 90
        0
 91
        1
280
     0
281
     0
  0
CLASS
  1
MATERIAL
  2
AcDbMaterial
  3
ObjectDBX Classes
 90
     1153
 91
        3
280
     0
281
     0
  0
CLASS
  1
VISUALSTYLE
  2
AcDbVisualStyle
  3
ObjectDBX Classes
 90
     4095
 91
       26
280
     0
281
     0
  0
CLASS
  1
TABLESTYLE
  2
AcDbTableStyle
  3
ObjectDBX Classes
 90
     4095
 91
        1
280
     0
281
     0
  0
CLASS
  1
DICTIONARYVAR
  2
AcDbDictionaryVar
  3
ObjectDBX Classes
 90
        0
 91
       12
280
     0
281
     0
  0
CLASS
  1
SORTENTSTABLE
  2
AcDbSortentsTable
  3
ObjectDBX Classes
 90
        0
 91
        1
280
     0
281
     0
  0
CLASS
  1
SCALE
  2
AcDbScale
  3
ObjectDBX Classes
 90
     1153
 91
       17
280
     0
281
     0
  0
CLASS
  1
MLEADERSTYLE
  2
AcDbMLeaderStyle
  3
ACDB_MLEADERSTYLE_CLASS
 90
     4095
 91
        1
280
     0
281
     0
  0
CLASS
  1
ACDBSECTIONVIEWSTYLE
  2
AcDbSectionViewStyle
  3
ObjectDBX Classes
 90
     1025
 91
        2
280
     0
281
     0
  0
CLASS
  1
ACDBDETAILVIEWSTYLE
  2
AcDbDetailViewStyle
  3
ObjectDBX Classes
 90
     1025
 91
        2
280
     0
281
     0
  0
CLASS
  1
CELLSTYLEMAP
  2
AcDbCellStyleMap
  3
ObjectDBX Classes
 90
     1152
 91
        2
280
     0
281
     0
  0
ENDSEC
  0
SECTION
  2
TABLES
  0
TABLE
  2
VPORT
  5
8
330
0
100
AcDbSymbolTable
 70
     1
1001
ACAD
1000
DbSaveVer
1071
      224
  0
VPORT
  5
1B1
330
8
100
AcDbSymbolTableRecord
100
AcDbViewportTableRecord
  2
*ACTIVE
 70
     0
 10
0.0
 20
0.0
 11
1.0
 21
1.0
 12
996.986841406322
 22
932.6041237295017
 13
0.0
 23
0.0
 14
0.5
 24
0.5
 15
0.5
 25
0.5
 16
0.0
 26
0.0
 36
1.0
 17
0.0
 27
0.0
 37
0.0
 40
3135.973194350185
 41
2.046436285097192
 42
50.0
 43
0.0
 44
0.0
 50
0.0
 51
0.0
 71
     0
 72
   100
 73
     1
 74
     3
 75
     0
 76
     0
 77
     0
 78
     0
281
     0
 65
     1
110
0.0
120
0.0
130
0.0
111
1.0
121
0.0
131
0.0
112
0.0
122
1.0
132
0.0
 79
     0
146
0.0
348
1E0
 60
     3
 61
     5
292
     1
282
     1
141
0.0
142
0.0
 63
   250
421
  3355443
1001
ACAD_NAV_VCDISPLAY
1070
     3
  0
ENDTAB
  0
TABLE
  2
LTYPE
  5
5
330
0
100
AcDbSymbolTable
 70
     5
  0
LTYPE
  5
14
330
5
100
AcDbSymbolTableRecord
100
AcDbLinetypeTableRecord
  2
BYBLOCK
 70
     0
  3

 72
    65
 73
     0
 40
0.0
  0
LTYPE
  5
15
330
5
100
AcDbSymbolTableRecord
100
AcDbLinetypeTableRecord
  2
BYLAYER
 70
     0
  3

 72
    65
 73
     0
 40
0.0
  0
LTYPE
  5
16
330
5
100
AcDbSymbolTableRecord
100
AcDbLinetypeTableRecord
  2
CONTINUOUS
 70
     0
  3
Solid line
 72
    65
 73
     0
 40
0.0
  0
LTYPE
  5
3DA
330
5
100
AcDbSymbolTableRecord
100
AcDbLinetypeTableRecord
  2
IMPORT
 70
     0
  3

 72
    65
 73
     0
 40
0.0
  0
LTYPE
  5
4D5
330
5
100
AcDbSymbolTableRecord
100
AcDbLinetypeTableRecord
  2
VERDECKT
 70
     0
  3
__ __ __ __ __ __ __ __ __ __ __ __ __ __ __ __
 72
    65
 73
     2
 40
0.375
 49
0.25
 74
     0
 49
-0.125
 74
     0
  0
LTYPE
  5
46EC
330
5
100
AcDbSymbolTableRecord
100
AcDbLinetypeTableRecord
  2
CUSTOM
 70
     0
  3

 72
    65
 73
     0
 40
0.0
  0
ENDTAB
  0
TABLE
  2
LAYER
  5
2
102
{ACAD_XDICTIONARY
360
3E4
102
}
330
0
100
AcDbSymbolTable
 70
     6
  0
LAYER
  5
10
102
{ACAD_XDICTIONARY
360
624
102
}
330
2
100
AcDbSymbolTableRecord
100
AcDbLayerTableRecord
  2
0
 70
     0
 62
     7
  6
CONTINUOUS
370
    -3
390
10E
347
1D9
348
0
  0
LAYER
  5
2DC
330
2
100
AcDbSymbolTableRecord
100
AcDbLayerTableRecord
  2
Defpoints
 70
     0
 62
     7
  6
CONTINUOUS
290
     0
370
    -3
390
10E
347
1D9
348
0
  0
LAYER
  5
3DD
102
{ACAD_XDICTIONARY
360
626
102
}
330
2
100
AcDbSymbolTableRecord
100
AcDbLayerTableRecord
  2
STANDARD
 70
     0
 62
     7
  6
CONTINUOUS
370
    -3
390
10E
347
1D9
348
0
  0
LAYER
  5
4D6
102
{ACAD_XDICTIONARY
360
628
102
}
330
2
100
AcDbSymbolTableRecord
100
AcDbLayerTableRecord
  2
VD
 70
     0
 62
     4
  6
VERDECKT
370
    -3
390
10E
347
1D9
348
0
  0
LAYER
  5
4D7
102
{ACAD_XDICTIONARY
360
62A
102
}
330
2
100
AcDbSymbolTableRecord
100
AcDbLayerTableRecord
  2
HEWI
 70
     0
 62
     7
  6
CONTINUOUS
370
    -3
390
10E
347
1D9
348
0
  0
LAYER
  5
675
330
2
100
AcDbSymbolTableRecord
100
AcDbLayerTableRecord
  2
1
 70
     0
 62
     7
420
 16777215
  6
CONTINUOUS
370
    -3
390
10E
347
1D9
348
0
  0
ENDTAB
  0
TABLE
  2
STYLE
  5
3
330
0
100
AcDbSymbolTable
 70
     2
  0
STYLE
  5
11
330
3
100
AcDbSymbolTableRecord
100
AcDbTextStyleTableRecord
  2
STANDARD
 70
     0
 40
0.0
 41
1.0
 50
0.0
 71
     0
 42
0.2
  3
txt
  4

  0
STYLE
  5
3DE
330
3
100
AcDbSymbolTableRecord
100
AcDbTextStyleTableRecord
  2
Entro
 70
     0
 40
0.0
 41
1.0
 50
0.0
 71
     0
 42
3.0
  3
isocpeur.ttf
  4

1001
ACAD
1000
ISOCPEUR
1071
       34
  0
ENDTAB
  0
TABLE
  2
VIEW
  5
6
330
0
100
AcDbSymbolTable
 70
     0
  0
ENDTAB
  0
TABLE
  2
UCS
  5
7
330
0
100
AcDbSymbolTable
 70
     0
  0
ENDTAB
  0
TABLE
  2
APPID
  5
9
330
0
100
AcDbSymbolTable
 70
     6
  0
APPID
  5
12
330
9
100
AcDbSymbolTableRecord
100
AcDbRegAppTableRecord
  2
ACAD
 70
     0
  0
APPID
  5
3E2
330
9
100
AcDbSymbolTableRecord
100
AcDbRegAppTableRecord
  2
ACAD_PSEXT
 70
     0
  0
APPID
  5
3E3
330
9
100
AcDbSymbolTableRecord
100
AcDbRegAppTableRecord
  2
ACAD_DSTYLE_DIMJOGGED_JOGANGLE_SYMBOL
 70
     0
  0
APPID
  5
5B6
330
9
100
AcDbSymbolTableRecord
100
AcDbRegAppTableRecord
  2
ACAD_EXEMPT_FROM_CAD_STANDARDS
 70
     0
  0
APPID
  5
616
330
9
100
AcDbSymbolTableRecord
100
AcDbRegAppTableRecord
  2
ACAD_NAV_VCDISPLAY
 70
     0
  0
APPID
  5
1626
330
9
100
AcDbSymbolTableRecord
100
AcDbRegAppTableRecord
  2
ACAD_DSTYLE_DIMRADIAL_EXTENSION
 70
     0
  0
ENDTAB
  0
TABLE
  2
DIMSTYLE
  5
A
330
0
100
AcDbSymbolTable
 70
     5
100
AcDbDimStyleTable
 71
     2
340
27
340
3DF
  0
DIMSTYLE
105
27
330
A
100
AcDbSymbolTableRecord
100
AcDbDimStyleTableRecord
  2
STANDARD
 70
     0
340
11
  0
DIMSTYLE
105
3DF
330
A
100
AcDbSymbolTableRecord
100
AcDbDimStyleTableRecord
  2
AM_DIN
 70
     0
  4
"
 41
2.5
 42
1.0
 43
10.0
 44
1.0
 47
0.1
 48
0.1
 50
89.99999999999998
 73
     0
 74
     0
 77
     1
 78
     8
 79
     2
140
3.5
141
0.0
143
0.0393701
146
0.71
147
1.5
172
     1
176
   256
177
   256
178
     2
271
     2
272
     3
274
     4
283
     0
284
     8
340
11
371
    -1
372
    -1
1001
ACAD_DSTYLE_DIMJOGGED_JOGANGLE_SYMBOL
1070
   384
1040
1.570796326794896
  0
DIMSTYLE
105
3E1
330
A
100
AcDbSymbolTableRecord
100
AcDbDimStyleTableRecord
  2
AM_DIN$0
 70
     0
  4
"
 41
25.0
 42
1.0
 43
10.0
 44
10.0
 47
0.1
 48
0.1
 50
89.99999999999998
 73
     0
 74
     0
 77
     1
 78
     8
 79
     2
140
25.0
141
0.0
143
0.0393701
146
0.71
147
10.0
172
     1
176
   256
177
   256
178
   256
271
     2
272
     2
283
     0
284
     8
340
3DE
371
    -1
372
    -1
1001
ACAD_DSTYLE_DIMJOGGED_JOGANGLE_SYMBOL
1070
   384
1040
1.570796326794896
  0
DIMSTYLE
105
46ED
330
A
100
AcDbSymbolTableRecord
100
AcDbDimStyleTableRecord
  2
ISO-25
 70
     0
 41
2.5
 42
0.625
 43
3.75
 44
1.25
 73
     0
 74
     0
 77
     1
 78
     8
140
2.5
141
2.5
143
0.03937007874016
147
0.625
171
     3
172
     1
271
     2
272
     2
274
     3
278
    44
283
     0
284
     8
340
11
  0
ENDTAB
  0
TABLE
  2
BLOCK_RECORD
  5
1
330
0
100
AcDbSymbolTable
 70
    57
  0
BLOCK_RECORD
  5
1F
102
{ACAD_XDICTIONARY
360
107
102
}
330
1
100
AcDbSymbolTableRecord
100
AcDbBlockTableRecord
  2
*MODEL_SPACE
340
1EF
 70
     0
280
     1
281
     0
  0
BLOCK_RECORD
  5
1B
102
{ACAD_XDICTIONARY
360
105
102
}
330
1
100
AcDbSymbolTableRecord
100
AcDbBlockTableRecord
  2
*PAPER_SPACE
340
1F0
 70
     0
280
     1
281
     0
  0
BLOCK_RECORD
  5
4C0
330
1
100
AcDbSymbolTableRecord
100
AcDbBlockTableRecord
  2
*D0
340
0
 70
     0
280
     1
281
     0
  0
BLOCK_RECORD
  5
4E6
330
1
100
AcDbSymbolTableRecord
100
AcDbBlockTableRecord
  2
*D1
340
0
 70
     0
280
     1
281
     0
  0
BLOCK_RECORD
  5
5A7
330
1
100
AcDbSymbolTableRecord
100
AcDbBlockTableRecord
  2
*D2
340
0
 70
     0
280
     1
281
     0
  0
BLOCK_RECORD
  5
D57
330
1
100
AcDbSymbolTableRecord
100
AcDbBlockTableRecord
  2
*D3
340
0
 70
     0
280
     1
281
     0
  0
BLOCK_RECORD
  5
D66
330
1
100
AcDbSymbolTableRecord
100
AcDbBlockTableRecord
  2
*D4
340
0
 70
     0
280
     1
281
     0
  0
BLOCK_RECORD
  5
D7C
330
1
100
AcDbSymbolTableRecord
100
AcDbBlockTableRecord
  2
*D5
340
0
 70
     0
280
     1
281
     0
  0
BLOCK_RECORD
  5
D8A
330
1
100
AcDbSymbolTableRecord
100
AcDbBlockTableRecord
  2
*D6
340
0
 70
     0
280
     1
281
     0
  0
BLOCK_RECORD
  5
D99
330
1
100
AcDbSymbolTableRecord
100
AcDbBlockTableRecord
  2
*D7
340
0
 70
     0
280
     1
281
     0
  0
BLOCK_RECORD
  5
1531
330
1
100
AcDbSymbolTableRecord
100
AcDbBlockTableRecord
  2
*D8
340
0
 70
     0
280
     1
281
     0
  0
BLOCK_RECORD
  5
153F
330
1
100
AcDbSymbolTableRecord
100
AcDbBlockTableRecord
  2
*D9
340
0
 70
     0
280
     1
281
     0
  0
BLOCK_RECORD
  5
15E1
330
1
100
AcDbSymbolTableRecord
100
AcDbBlockTableRecord
  2
*D10
340
0
 70
     0
280
     1
281
     0
  0
BLOCK_RECORD
  5
15EF
330
1
100
AcDbSymbolTableRecord
100
AcDbBlockTableRecord
  2
*D11
340
0
 70
     0
280
     1
281
     0
  0
BLOCK_RECORD
  5
1628
330
1
100
AcDbSymbolTableRecord
100
AcDbBlockTableRecord
  2
*D12
340
0
 70
     0
280
     1
281
     0
  0
BLOCK_RECORD
  5
1635
330
1
100
AcDbSymbolTableRecord
100
AcDbBlockTableRecord
  2
*D13
340
0
 70
     0
280
     1
281
     0
  0
BLOCK_RECORD
  5
1A4B
330
1
100
AcDbSymbolTableRecord
100
AcDbBlockTableRecord
  2
*D14
340
0
 70
     0
280
     1
281
     0
  0
BLOCK_RECORD
  5
1A59
330
1
100
AcDbSymbolTableRecord
100
AcDbBlockTableRecord
  2
*D15
340
0
 70
     0
280
     1
281
     0
  0
BLOCK_RECORD
  5
1A68
330
1
100
AcDbSymbolTableRecord
100
AcDbBlockTableRecord
  2
*D16
340
0
 70
     0
280
     1
281
     0
  0
BLOCK_RECORD
  5
208D
330
1
100
AcDbSymbolTableRecord
100
AcDbBlockTableRecord
  2
*D17
340
0
 70
     0
280
     1
281
     0
  0
BLOCK_RECORD
  5
209B
330
1
100
AcDbSymbolTableRecord
100
AcDbBlockTableRecord
  2
*D18
340
0
 70
     0
280
     1
281
     0
  0
BLOCK_RECORD
  5
20BC
330
1
100
AcDbSymbolTableRecord
100
AcDbBlockTableRecord
  2
*D19
340
0
 70
     0
280
     1
281
     0
  0
BLOCK_RECORD
  5
20F3
330
1
100
AcDbSymbolTableRecord
100
AcDbBlockTableRecord
  2
*D20
340
0
 70
     0
280
     1
281
     0
  0
BLOCK_RECORD
  5
212B
330
1
100
AcDbSymbolTableRecord
100
AcDbBlockTableRecord
  2
*D21
340
0
 70
     0
280
     1
281
     0
  0
BLOCK_RECORD
  5
2139
330
1
100
AcDbSymbolTableRecord
100
AcDbBlockTableRecord
  2
*D22
340
0
 70
     0
280
     1
281
     0
  0
BLOCK_RECORD
  5
2148
330
1
100
AcDbSymbolTableRecord
100
AcDbBlockTableRecord
  2
*D23
340
0
 70
     0
280
     1
281
     0
  0
BLOCK_RECORD
  5
27E8
330
1
100
AcDbSymbolTableRecord
100
AcDbBlockTableRecord
  2
*D24
340
0
 70
     0
280
     1
281
     0
  0
BLOCK_RECORD
  5
27F7
330
1
100
AcDbSymbolTableRecord
100
AcDbBlockTableRecord
  2
*D25
340
0
 70
     0
280
     1
281
     0
  0
BLOCK_RECORD
  5
2806
330
1
100
AcDbSymbolTableRecord
100
AcDbBlockTableRecord
  2
*D26
340
0
 70
     0
280
     1
281
     0
  0
BLOCK_RECORD
  5
2817
330
1
100
AcDbSymbolTableRecord
100
AcDbBlockTableRecord
  2
*D27
340
0
 70
     0
280
     1
281
     0
  0
BLOCK_RECORD
  5
2825
330
1
100
AcDbSymbolTableRecord
100
AcDbBlockTableRecord
  2
*D28
340
0
 70
     0
280
     1
281
     0
  0
BLOCK_RECORD
  5
2875
330
1
100
AcDbSymbolTableRecord
100
AcDbBlockTableRecord
  2
*D29
340
0
 70
     0
280
     1
281
     0
  0
BLOCK_RECORD
  5
28BF
330
1
100
AcDbSymbolTableRecord
100
AcDbBlockTableRecord
  2
*D30
340
0
 70
     0
280
     1
281
     0
  0
BLOCK_RECORD
  5
28CD
330
1
100
AcDbSymbolTableRecord
100
AcDbBlockTableRecord
  2
*D31
340
0
 70
     0
280
     1
281
     0
  0
BLOCK_RECORD
  5
28F1
330
1
100
AcDbSymbolTableRecord
100
AcDbBlockTableRecord
  2
*D32
340
0
 70
     0
280
     1
281
     0
  0
BLOCK_RECORD
  5
28FF
330
1
100
AcDbSymbolTableRecord
100
AcDbBlockTableRecord
  2
*D33
340
0
 70
     0
280
     1
281
     0
  0
BLOCK_RECORD
  5
2E8B
330
1
100
AcDbSymbolTableRecord
100
AcDbBlockTableRecord
  2
*D34
340
0
 70
     0
280
     1
281
     0
  0
BLOCK_RECORD
  5
2E99
330
1
100
AcDbSymbolTableRecord
100
AcDbBlockTableRecord
  2
*D35
340
0
 70
     0
280
     1
281
     0
  0
BLOCK_RECORD
  5
2EE7
330
1
100
AcDbSymbolTableRecord
100
AcDbBlockTableRecord
  2
*D36
340
0
 70
     0
280
     1
281
     0
  0
BLOCK_RECORD
  5
2EF5
330
1
100
AcDbSymbolTableRecord
100
AcDbBlockTableRecord
  2
*D37
340
0
 70
     0
280
     1
281
     0
  0
BLOCK_RECORD
  5
3D6F
330
1
100
AcDbSymbolTableRecord
100
AcDbBlockTableRecord
  2
*D38
340
0
 70
     0
280
     1
281
     0
  0
BLOCK_RECORD
  5
3D7D
330
1
100
AcDbSymbolTableRecord
100
AcDbBlockTableRecord
  2
*D39
340
0
 70
     0
280
     1
281
     0
  0
BLOCK_RECORD
  5
3DD5
330
1
100
AcDbSymbolTableRecord
100
AcDbBlockTableRecord
  2
*D40
340
0
 70
     0
280
     1
281
     0
  0
BLOCK_RECORD
  5
3DE3
330
1
100
AcDbSymbolTableRecord
100
AcDbBlockTableRecord
  2
*D41
340
0
 70
     0
280
     1
281
     0
  0
BLOCK_RECORD
  5
3DF2
330
1
100
AcDbSymbolTableRecord
100
AcDbBlockTableRecord
  2
*D42
340
0
 70
     0
280
     1
281
     0
  0
BLOCK_RECORD
  5
3E06
330
1
100
AcDbSymbolTableRecord
100
AcDbBlockTableRecord
  2
*D43
340
0
 70
     0
280
     1
281
     0
  0
BLOCK_RECORD
  5
3E14
330
1
100
AcDbSymbolTableRecord
100
AcDbBlockTableRecord
  2
*D44
340
0
 70
     0
280
     1
281
     0
  0
BLOCK_RECORD
  5
45C0
330
1
100
AcDbSymbolTableRecord
100
AcDbBlockTableRecord
  2
*D45
340
0
 70
     0
280
     1
281
     0
  0
BLOCK_RECORD
  5
45CE
330
1
100
AcDbSymbolTableRecord
100
AcDbBlockTableRecord
  2
*D46
340
0
 70
     0
280
     1
281
     0
  0
BLOCK_RECORD
  5
4605
330
1
100
AcDbSymbolTableRecord
100
AcDbBlockTableRecord
  2
*D47
340
0
 70
     0
280
     1
281
     0
  0
BLOCK_RECORD
  5
4615
330
1
100
AcDbSymbolTableRecord
100
AcDbBlockTableRecord
  2
*D48
340
0
 70
     0
280
     1
281
     0
  0
BLOCK_RECORD
  5
4623
330
1
100
AcDbSymbolTableRecord
100
AcDbBlockTableRecord
  2
*D49
340
0
 70
     0
280
     1
281
     0
  0
BLOCK_RECORD
  5
4633
330
1
100
AcDbSymbolTableRecord
100
AcDbBlockTableRecord
  2
*D50
340
0
 70
     0
280
     1
281
     0
  0
BLOCK_RECORD
  5
4646
330
1
100
AcDbSymbolTableRecord
100
AcDbBlockTableRecord
  2
*D51
340
0
 70
     0
280
     1
281
     0
  0
BLOCK_RECORD
  5
4654
330
1
100
AcDbSymbolTableRecord
100
AcDbBlockTableRecord
  2
*D52
340
0
 70
     0
280
     1
281
     0
  0
ENDTAB
  0
ENDSEC
  0
SECTION
  2
BLOCKS
  0
BLOCK
  5
20
330
1F
100
AcDbEntity
  8
0
100
AcDbBlockBegin
  2
*MODEL_SPACE
 70
     0
 10
0.0
 20
0.0
 30
0.0
  3
*MODEL_SPACE
  1

  0
ENDBLK
  5
21
330
1F
100
AcDbEntity
  8
0
100
AcDbBlockEnd
  0
BLOCK
  5
1C
330
1B
100
AcDbEntity
 67
     1
  8
0
100
AcDbBlockBegin
  2
*PAPER_SPACE
 70
     0
 10
0.0
 20
0.0
 30
0.0
  3
*PAPER_SPACE
  1

  0
ENDBLK
  5
1D
330
1B
100
AcDbEntity
 67
     1
  8
0
100
AcDbBlockEnd
  0
BLOCK
  5
4CA
330
4C0
100
AcDbEntity
  8
0
100
AcDbBlockBegin
  2
*D0
 70
     1
 10
0.0
 20
0.0
 30
0.0
  3
*D0
  1

  0
LINE
  5
600
330
4C0
100
AcDbEntity
  8
0
440
 16777216
100
AcDbLine
 10
638.7173827835728
 20
1048.40919819918
 30
0.0
 11
527.8929333861474
 21
1048.40919819918
 31
0.0
  0
LINE
  5
601
330
4C0
100
AcDbEntity
  8
0
440
 16777216
100
AcDbLine
 10
612.600559225214
 20
1184.909198199115
 30
0.0
 11
527.8929333861474
 21
1184.909198199115
 31
0.0
  0
LINE
  5
602
330
4C0
100
AcDbEntity
  8
0
440
 16777216
100
AcDbLine
 10
537.8929333861474
 20
1073.40919819918
 30
0.0
 11
537.8929333861474
 21
1159.909198199115
 31
0.0
  0
SOLID
  5
603
330
4C0
100
AcDbEntity
  8
0
440
 16777216
100
AcDbTrace
 10
533.7262667194806
 20
1073.40919819918
 30
0.0
 11
542.059600052814
 21
1073.40919819918
 31
0.0
 12
537.8929333861474
 22
1048.40919819918
 32
0.0
 13
537.8929333861474
 23
1048.40919819918
 33
0.0
  0
SOLID
  5
604
330
4C0
100
AcDbEntity
  8
0
440
 16777216
100
AcDbTrace
 10
533.7262667194806
 20
1159.909198199115
 30
0.0
 11
542.059600052814
 21
1159.909198199115
 31
0.0
 12
537.8929333861474
 22
1184.909198199115
 32
0.0
 13
537.8929333861474
 23
1184.909198199115
 33
0.0
  0
MTEXT
  5
605
330
4C0
100
AcDbEntity
  8
0
440
 16777216
100
AcDbMText
 10
505.3929333861471
 20
1116.659198199148
 30
0.0
 40
45.0
 41
0.0
 46
0.0
 71
     5
 72
     1
  1
150
  7
Entro
 11
0.0000000000000001
 21
1.0
 31
0.0
 73
     1
 44
1.0
  0
POINT
  5
606
330
4C0
100
AcDbEntity
  8
Defpoints
 62
     0
440
 16777216
100
AcDbPoint
 10
639.7173827835728
 20
1048.40919819918
 30
0.0
  0
POINT
  5
607
330
4C0
100
AcDbEntity
  8
Defpoints
 62
     0
440
 16777216
100
AcDbPoint
 10
613.600559225214
 20
1184.909198199115
 30
0.0
  0
POINT
  5
608
330
4C0
100
AcDbEntity
  8
Defpoints
 62
     0
440
 16777216
100
AcDbPoint
 10
537.8929333861474
 20
1184.909198199115
 30
0.0
  0
ENDBLK
  5
4CB
330
4C0
100
AcDbEntity
  8
0
100
AcDbBlockEnd
  0
BLOCK
  5
4F1
330
4E6
100
AcDbEntity
  8
0
100
AcDbBlockBegin
  2
*D1
 70
     1
 10
0.0
 20
0.0
 30
0.0
  3
*D1
  1

  0
LINE
  5
609
330
4E6
100
AcDbEntity
  8
0
440
 16777216
100
AcDbLine
 10
1403.258789852631
 20
1208.551258404823
 30
0.0
 11
1403.258789852631
 21
1333.120661769634
 31
0.0
  0
LINE
  5
60A
330
4E6
100
AcDbEntity
  8
0
440
 16777216
100
AcDbLine
 10
732.2587898526303
 20
1208.551258404758
 30
0.0
 11
732.2587898526303
 21
1333.120661769634
 31
0.0
  0
LINE
  5
60B
330
4E6
100
AcDbEntity
  8
0
440
 16777216
100
AcDbLine
 10
1378.258789852631
 20
1323.120661769634
 30
0.0
 11
757.2587898526303
 21
1323.120661769634
 31
0.0
  0
SOLID
  5
60C
330
4E6
100
AcDbEntity
  8
0
440
 16777216
100
AcDbTrace
 10
1378.258789852631
 20
1327.2873284363
 30
0.0
 11
1378.258789852631
 21
1318.953995102967
 31
0.0
 12
1403.258789852631
 22
1323.120661769634
 32
0.0
 13
1403.258789852631
 23
1323.120661769634
 33
0.0
  0
SOLID
  5
60D
330
4E6
100
AcDbEntity
  8
0
440
 16777216
100
AcDbTrace
 10
757.2587898526303
 20
1327.2873284363
 30
0.0
 11
757.2587898526303
 21
1318.953995102967
 31
0.0
 12
732.2587898526303
 22
1323.120661769634
 32
0.0
 13
732.2587898526303
 23
1323.120661769634
 33
0.0
  0
MTEXT
  5
60E
330
4E6
100
AcDbEntity
  8
0
440
 16777216
100
AcDbMText
 10
1067.758789852631
 20
1355.637707224179
 30
0.0
 40
45.0
 41
0.0
 46
0.0
 71
     5
 72
     1
  1
670 - 730 
  7
Entro
 73
     1
 44
1.0
  0
POINT
  5
60F
330
4E6
100
AcDbEntity
  8
Defpoints
 62
     0
440
 16777216
100
AcDbPoint
 10
1403.258789852631
 20
1207.551258404823
 30
0.0
  0
POINT
  5
610
330
4E6
100
AcDbEntity
  8
Defpoints
 62
     0
440
 16777216
100
AcDbPoint
 10
732.2587898526303
 20
1207.551258404758
 30
0.0
  0
POINT
  5
611
330
4E6
100
AcDbEntity
  8
Defpoints
 62
     0
440
 16777216
100
AcDbPoint
 10
732.2587898526303
 20
1323.120661769634
 30
0.0
  0
ENDBLK
  5
4F2
330
4E6
100
AcDbEntity
  8
0
100
AcDbBlockEnd
  0
BLOCK
  5
5B2
330
5A7
100
AcDbEntity
  8
0
100
AcDbBlockBegin
  2
*D2
 70
     1
 10
0.0
 20
0.0
 30
0.0
  3
*D2
  1

  0
LINE
  5
5A8
330
5A7
100
AcDbEntity
  8
0
 62
     0
370
    -2
100
AcDbLine
 10
1366.25878985262
 20
1721.063376911456
 30
0.0
 11
1366.25878985262
 21
1749.707032685414
 31
0.0
  0
LINE
  5
5A9
330
5A7
100
AcDbEntity
  8
0
 62
     0
370
    -2
100
AcDbLine
 10
1440.25878985262
 20
1721.063376911458
 30
0.0
 11
1440.25878985262
 21
1749.707032685414
 31
0.0
  0
LINE
  5
5AA
330
5A7
100
AcDbEntity
  8
0
 62
     0
370
    -2
100
AcDbLine
 10
1366.43878985262
 20
1749.527032685414
 30
0.0
 11
1402.68878985262
 21
1749.527032685414
 31
0.0
  0
LINE
  5
5AB
330
5A7
100
AcDbEntity
  8
0
 62
     0
370
    -2
100
AcDbLine
 10
1440.07878985262
 20
1749.527032685414
 30
0.0
 11
1403.82878985262
 21
1749.527032685414
 31
0.0
  0
SOLID
  5
5AC
330
5A7
100
AcDbEntity
  8
0
 62
     0
100
AcDbTrace
 10
1366.43878985262
 20
1749.557032685414
 30
0.0
 11
1366.43878985262
 21
1749.497032685414
 31
0.0
 12
1366.25878985262
 22
1749.527032685414
 32
0.0
 13
1366.25878985262
 23
1749.527032685414
 33
0.0
  0
SOLID
  5
5AD
330
5A7
100
AcDbEntity
  8
0
 62
     0
100
AcDbTrace
 10
1440.07878985262
 20
1749.557032685414
 30
0.0
 11
1440.07878985262
 21
1749.497032685414
 31
0.0
 12
1440.25878985262
 22
1749.527032685414
 32
0.0
 13
1440.25878985262
 23
1749.527032685414
 33
0.0
  0
MTEXT
  5
5AE
330
5A7
100
AcDbEntity
  8
0
 62
     0
100
AcDbMText
 10
1403.25878985262
 20
1749.527032685414
 30
0.0
 40
0.18
 41
0.0
 46
0.0
 71
     5
 72
     1
  1
\A1;74.0000
 73
     1
 44
1.0
1001
ACAD
1000
MTEXTBEGIN
1070
    73
1070
     1
1070
    44
1040
1.0
1070
    74
1070
     0
1000
MTEXTEND
  0
POINT
  5
5AF
330
5A7
100
AcDbEntity
  8
Defpoints
 62
     0
100
AcDbPoint
 10
1366.25878985262
 20
1721.000876911456
 30
0.0
  0
POINT
  5
5B0
330
5A7
100
AcDbEntity
  8
Defpoints
 62
     0
100
AcDbPoint
 10
1440.25878985262
 20
1721.000876911458
 30
0.0
  0
POINT
  5
5B1
330
5A7
100
AcDbEntity
  8
Defpoints
 62
     0
100
AcDbPoint
 10
1440.25878985262
 20
1749.527032685414
 30
0.0
  0
ENDBLK
  5
5B3
330
5A7
100
AcDbEntity
  8
0
100
AcDbBlockEnd
  0
BLOCK
  5
D58
330
D57
100
AcDbEntity
  8
0
100
AcDbBlockBegin
  2
*D3
 70
     1
 10
0.0
 20
0.0
 30
0.0
  3
*D3
  1

  0
LINE
  5
DAC
330
D57
100
AcDbEntity
  8
0
 62
     0
440
 16777216
370
    -2
100
AcDbLine
 10
-231.9684398513505
 20
695.7124804650937
 30
0.0
 11
-231.9684398513505
 21
668.3540667198414
 31
0.0
  0
LINE
  5
DAD
330
D57
100
AcDbEntity
  8
0
 62
     0
440
 16777216
370
    -2
100
AcDbLine
 10
-71.96843985135045
 20
695.7124804650937
 30
0.0
 11
-71.96843985135045
 21
668.3540667198414
 31
0.0
  0
LINE
  5
DAE
330
D57
100
AcDbEntity
  8
0
 62
     0
440
 16777216
370
    -2
100
AcDbLine
 10
-231.7884398513505
 20
668.5340667198412
 30
0.0
 11
-152.5834398513504
 21
668.5340667198412
 31
0.0
  0
LINE
  5
DAF
330
D57
100
AcDbEntity
  8
0
 62
     0
440
 16777216
370
    -2
100
AcDbLine
 10
-72.14843985135047
 20
668.5340667198412
 30
0.0
 11
-151.3534398513504
 21
668.5340667198412
 31
0.0
  0
SOLID
  5
DB0
330
D57
100
AcDbEntity
  8
0
 62
     0
440
 16777216
100
AcDbTrace
 10
-231.7884398513505
 20
668.5640667198412
 30
0.0
 11
-231.7884398513505
 21
668.5040667198412
 31
0.0
 12
-231.9684398513505
 22
668.5340667198412
 32
0.0
 13
-231.9684398513505
 23
668.5340667198412
 33
0.0
  0
SOLID
  5
DB1
330
D57
100
AcDbEntity
  8
0
 62
     0
440
 16777216
100
AcDbTrace
 10
-72.14843985135047
 20
668.5640667198412
 30
0.0
 11
-72.14843985135047
 21
668.5040667198412
 31
0.0
 12
-71.96843985135045
 22
668.5340667198412
 32
0.0
 13
-71.96843985135045
 23
668.5340667198412
 33
0.0
  0
MTEXT
  5
DB2
330
D57
100
AcDbEntity
  8
0
 62
     0
440
 16777216
100
AcDbMText
 10
-151.9684398513504
 20
668.5340667198412
 30
0.0
 40
0.18
 41
0.0
 46
0.0
 71
     5
 72
     1
  1
\A1;160.0000
 73
     1
 44
1.0
  0
POINT
  5
DB3
330
D57
100
AcDbEntity
  8
Defpoints
 62
     0
440
 16777216
100
AcDbPoint
 10
-231.9684398513505
 20
695.7749804650936
 30
0.0
  0
POINT
  5
DB4
330
D57
100
AcDbEntity
  8
Defpoints
 62
     0
440
 16777216
100
AcDbPoint
 10
-71.96843985135045
 20
695.7749804650936
 30
0.0
  0
POINT
  5
DB5
330
D57
100
AcDbEntity
  8
Defpoints
 62
     0
440
 16777216
100
AcDbPoint
 10
-71.96843985135045
 20
668.5340667198412
 30
0.0
  0
ENDBLK
  5
D59
330
D57
100
AcDbEntity
  8
0
100
AcDbBlockEnd
  0
BLOCK
  5
D67
330
D66
100
AcDbEntity
  8
0
100
AcDbBlockBegin
  2
*D4
 70
     1
 10
0.0
 20
0.0
 30
0.0
  3
*D4
  1

  0
LINE
  5
D69
330
D66
100
AcDbEntity
  8
0
 62
     0
440
 16777216
370
    -2
100
AcDbLine
 10
2116.161813919972
 20
1609.088916389609
 30
0.0
 11
2116.161813919972
 21
1595.527801713193
 31
0.0
  0
LINE
  5
D6A
330
D66
100
AcDbEntity
  8
0
 62
     0
440
 16777216
370
    -2
100
AcDbLine
 10
2253.161813919972
 20
1609.088916389609
 30
0.0
 11
2253.161813919972
 21
1595.527801713193
 31
0.0
  0
LINE
  5
D6B
330
D66
100
AcDbEntity
  8
0
 62
     0
440
 16777216
370
    -2
100
AcDbLine
 10
2116.341813919972
 20
1595.707801713193
 30
0.0
 11
2184.031813919972
 21
1595.707801713193
 31
0.0
  0
LINE
  5
D6C
330
D66
100
AcDbEntity
  8
0
 62
     0
440
 16777216
370
    -2
100
AcDbLine
 10
2252.981813919972
 20
1595.707801713193
 30
0.0
 11
2185.291813919972
 21
1595.707801713193
 31
0.0
  0
SOLID
  5
D6D
330
D66
100
AcDbEntity
  8
0
 62
     0
440
 16777216
100
AcDbTrace
 10
2116.341813919972
 20
1595.737801713193
 30
0.0
 11
2116.341813919972
 21
1595.677801713193
 31
0.0
 12
2116.161813919972
 22
1595.707801713193
 32
0.0
 13
2116.161813919972
 23
1595.707801713193
 33
0.0
  0
SOLID
  5
D6E
330
D66
100
AcDbEntity
  8
0
 62
     0
440
 16777216
100
AcDbTrace
 10
2252.981813919972
 20
1595.737801713193
 30
0.0
 11
2252.981813919972
 21
1595.677801713193
 31
0.0
 12
2253.161813919972
 22
1595.707801713193
 32
0.0
 13
2253.161813919972
 23
1595.707801713193
 33
0.0
  0
MTEXT
  5
D6F
330
D66
100
AcDbEntity
  8
0
 62
     0
440
 16777216
100
AcDbMText
 10
2184.661813919972
 20
1595.707801713193
 30
0.0
 40
0.18
 41
0.0
 46
0.0
 71
     5
 72
     1
  1
\A1;137.0000
 73
     1
 44
1.0
  0
POINT
  5
D70
330
D66
100
AcDbEntity
  8
Defpoints
 62
     0
440
 16777216
100
AcDbPoint
 10
2116.161813919972
 20
1609.151416389609
 30
0.0
  0
POINT
  5
D71
330
D66
100
AcDbEntity
  8
Defpoints
 62
     0
440
 16777216
100
AcDbPoint
 10
2253.161813919972
 20
1609.151416389609
 30
0.0
  0
POINT
  5
D72
330
D66
100
AcDbEntity
  8
Defpoints
 62
     0
440
 16777216
100
AcDbPoint
 10
2253.161813919972
 20
1595.707801713193
 30
0.0
  0
ENDBLK
  5
D68
330
D66
100
AcDbEntity
  8
0
100
AcDbBlockEnd
  0
BLOCK
  5
D7D
330
D7C
100
AcDbEntity
  8
0
100
AcDbBlockBegin
  2
*D5
 70
     1
 10
0.0
 20
0.0
 30
0.0
  3
*D5
  1

  0
LINE
  5
DB6
330
D7C
100
AcDbEntity
  8
0
 62
     0
440
 16777216
370
    -2
100
AcDbLine
 10
-166.9684398513507
 20
722.3017196924812
 30
0.0
 11
-166.9684398513507
 21
731.5707179990471
 31
0.0
  0
LINE
  5
DB7
330
D7C
100
AcDbEntity
  8
0
 62
     0
440
 16777216
370
    -2
100
AcDbLine
 10
-136.9684398513507
 20
722.3017196924812
 30
0.0
 11
-136.9684398513507
 21
731.5707179990471
 31
0.0
  0
LINE
  5
DB8
330
D7C
100
AcDbEntity
  8
0
 62
     0
440
 16777216
370
    -2
100
AcDbLine
 10
-166.7884398513507
 20
731.390717999047
 30
0.0
 11
-152.5234398513507
 21
731.390717999047
 31
0.0
  0
LINE
  5
DB9
330
D7C
100
AcDbEntity
  8
0
 62
     0
440
 16777216
370
    -2
100
AcDbLine
 10
-137.1484398513507
 20
731.390717999047
 30
0.0
 11
-151.4134398513507
 21
731.390717999047
 31
0.0
  0
SOLID
  5
DBA
330
D7C
100
AcDbEntity
  8
0
 62
     0
440
 16777216
100
AcDbTrace
 10
-166.7884398513507
 20
731.4207179990469
 30
0.0
 11
-166.7884398513507
 21
731.3607179990472
 31
0.0
 12
-166.9684398513507
 22
731.390717999047
 32
0.0
 13
-166.9684398513507
 23
731.390717999047
 33
0.0
  0
SOLID
  5
DBB
330
D7C
100
AcDbEntity
  8
0
 62
     0
440
 16777216
100
AcDbTrace
 10
-137.1484398513507
 20
731.4207179990469
 30
0.0
 11
-137.1484398513507
 21
731.3607179990472
 31
0.0
 12
-136.9684398513507
 22
731.390717999047
 32
0.0
 13
-136.9684398513507
 23
731.390717999047
 33
0.0
  0
MTEXT
  5
DBC
330
D7C
100
AcDbEntity
  8
0
 62
     0
440
 16777216
100
AcDbMText
 10
-151.9684398513507
 20
731.390717999047
 30
0.0
 40
0.18
 41
0.0
 46
0.0
 71
     5
 72
     1
  1
\A1;30.0000
 73
     1
 44
1.0
  0
POINT
  5
DBD
330
D7C
100
AcDbEntity
  8
Defpoints
 62
     0
440
 16777216
100
AcDbPoint
 10
-166.9684398513507
 20
722.2392196924812
 30
0.0
  0
POINT
  5
DBE
330
D7C
100
AcDbEntity
  8
Defpoints
 62
     0
440
 16777216
100
AcDbPoint
 10
-136.9684398513507
 20
722.2392196924812
 30
0.0
  0
POINT
  5
DBF
330
D7C
100
AcDbEntity
  8
Defpoints
 62
     0
440
 16777216
100
AcDbPoint
 10
-136.9684398513507
 20
731.390717999047
 30
0.0
  0
ENDBLK
  5
D7E
330
D7C
100
AcDbEntity
  8
0
100
AcDbBlockEnd
  0
BLOCK
  5
D8B
330
D8A
100
AcDbEntity
  8
0
100
AcDbBlockBegin
  2
*D6
 70
     1
 10
0.0
 20
0.0
 30
0.0
  3
*D6
  1

  0
LINE
  5
D8D
330
D8A
100
AcDbEntity
  8
0
 62
     0
440
 16777216
370
    -2
100
AcDbLine
 10
2263.161813919969
 20
1616.06501719027
 30
0.0
 11
2263.161813919969
 21
1634.583061451241
 31
0.0
  0
LINE
  5
D8E
330
D8A
100
AcDbEntity
  8
0
 62
     0
440
 16777216
370
    -2
100
AcDbLine
 10
2203.161813919969
 20
1616.06501719027
 30
0.0
 11
2203.161813919969
 21
1634.583061451241
 31
0.0
  0
LINE
  5
D8F
330
D8A
100
AcDbEntity
  8
0
 62
     0
440
 16777216
370
    -2
100
AcDbLine
 10
2262.981813919969
 20
1634.403061451241
 30
0.0
 11
2233.716813919969
 21
1634.403061451241
 31
0.0
  0
LINE
  5
D90
330
D8A
100
AcDbEntity
  8
0
 62
     0
440
 16777216
370
    -2
100
AcDbLine
 10
2203.341813919969
 20
1634.403061451241
 30
0.0
 11
2232.606813919969
 21
1634.403061451241
 31
0.0
  0
SOLID
  5
D91
330
D8A
100
AcDbEntity
  8
0
 62
     0
440
 16777216
100
AcDbTrace
 10
2262.981813919969
 20
1634.433061451241
 30
0.0
 11
2262.981813919969
 21
1634.373061451241
 31
0.0
 12
2263.161813919969
 22
1634.403061451241
 32
0.0
 13
2263.161813919969
 23
1634.403061451241
 33
0.0
  0
SOLID
  5
D92
330
D8A
100
AcDbEntity
  8
0
 62
     0
440
 16777216
100
AcDbTrace
 10
2203.341813919969
 20
1634.433061451241
 30
0.0
 11
2203.341813919969
 21
1634.373061451241
 31
0.0
 12
2203.161813919969
 22
1634.403061451241
 32
0.0
 13
2203.161813919969
 23
1634.403061451241
 33
0.0
  0
MTEXT
  5
D93
330
D8A
100
AcDbEntity
  8
0
 62
     0
440
 16777216
100
AcDbMText
 10
2233.161813919969
 20
1634.403061451241
 30
0.0
 40
0.18
 41
0.0
 46
0.0
 71
     5
 72
     1
  1
\A1;60.0000
 73
     1
 44
1.0
  0
POINT
  5
D94
330
D8A
100
AcDbEntity
  8
Defpoints
 62
     0
440
 16777216
100
AcDbPoint
 10
2263.161813919969
 20
1616.00251719027
 30
0.0
  0
POINT
  5
D95
330
D8A
100
AcDbEntity
  8
Defpoints
 62
     0
440
 16777216
100
AcDbPoint
 10
2203.161813919969
 20
1616.00251719027
 30
0.0
  0
POINT
  5
D96
330
D8A
100
AcDbEntity
  8
Defpoints
 62
     0
440
 16777216
100
AcDbPoint
 10
2203.161813919969
 20
1634.403061451241
 30
0.0
  0
ENDBLK
  5
D8C
330
D8A
100
AcDbEntity
  8
0
100
AcDbBlockEnd
  0
BLOCK
  5
D9A
330
D99
100
AcDbEntity
  8
0
100
AcDbBlockBegin
  2
*D7
 70
     1
 10
0.0
 20
0.0
 30
0.0
  3
*D7
  1

  0
LINE
  5
D9C
330
D99
100
AcDbEntity
  8
0
 62
     0
440
 16777216
370
    -2
100
AcDbLine
 10
2263.161813919969
 20
1615.06501719027
 30
0.0
 11
2263.161813919969
 21
1626.524019053845
 31
0.0
  0
LINE
  5
D9D
330
D99
100
AcDbEntity
  8
0
 62
     0
440
 16777216
370
    -2
100
AcDbLine
 10
2253.161813919972
 20
1610.726648786398
 30
0.0
 11
2253.161813919972
 21
1626.524019053845
 31
0.0
  0
LINE
  5
D9E
330
D99
100
AcDbEntity
  8
0
 62
     0
440
 16777216
370
    -2
100
AcDbLine
 10
2262.981813919969
 20
1626.344019053845
 30
0.0
 11
2258.68681391997
 21
1626.344019053845
 31
0.0
  0
LINE
  5
D9F
330
D99
100
AcDbEntity
  8
0
 62
     0
440
 16777216
370
    -2
100
AcDbLine
 10
2253.341813919972
 20
1626.344019053845
 30
0.0
 11
2257.63681391997
 21
1626.344019053845
 31
0.0
  0
SOLID
  5
DA0
330
D99
100
AcDbEntity
  8
0
 62
     0
440
 16777216
100
AcDbTrace
 10
2262.981813919969
 20
1626.374019053845
 30
0.0
 11
2262.981813919969
 21
1626.314019053845
 31
0.0
 12
2263.161813919969
 22
1626.344019053845
 32
0.0
 13
2263.161813919969
 23
1626.344019053845
 33
0.0
  0
SOLID
  5
DA1
330
D99
100
AcDbEntity
  8
0
 62
     0
440
 16777216
100
AcDbTrace
 10
2253.341813919972
 20
1626.374019053845
 30
0.0
 11
2253.341813919972
 21
1626.314019053845
 31
0.0
 12
2253.161813919972
 22
1626.344019053845
 32
0.0
 13
2253.161813919972
 23
1626.344019053845
 33
0.0
  0
MTEXT
  5
DA2
330
D99
100
AcDbEntity
  8
0
 62
     0
440
 16777216
100
AcDbMText
 10
2258.16181391997
 20
1626.344019053845
 30
0.0
 40
0.18
 41
0.0
 46
0.0
 71
     5
 72
     1
  1
\A1;10.0000
 73
     1
 44
1.0
  0
POINT
  5
DA3
330
D99
100
AcDbEntity
  8
Defpoints
 62
     0
440
 16777216
100
AcDbPoint
 10
2263.161813919969
 20
1615.002517190269
 30
0.0
  0
POINT
  5
DA4
330
D99
100
AcDbEntity
  8
Defpoints
 62
     0
440
 16777216
100
AcDbPoint
 10
2253.161813919972
 20
1610.664148786398
 30
0.0
  0
POINT
  5
DA5
330
D99
100
AcDbEntity
  8
Defpoints
 62
     0
440
 16777216
100
AcDbPoint
 10
2253.161813919972
 20
1626.344019053845
 30
0.0
  0
ENDBLK
  5
D9B
330
D99
100
AcDbEntity
  8
0
100
AcDbBlockEnd
  0
BLOCK
  5
1532
330
1531
100
AcDbEntity
  8
0
100
AcDbBlockBegin
  2
*D8
 70
     1
 10
0.0
 20
0.0
 30
0.0
  3
*D8
  1

  0
LINE
  5
156A
330
1531
100
AcDbEntity
  8
0
 62
     0
440
 16777216
370
    -2
100
AcDbLine
 10
439.5368040077123
 20
452.2913517095966
 30
0.0
 11
439.5368040077123
 21
418.7670753109125
 31
0.0
  0
LINE
  5
156B
330
1531
100
AcDbEntity
  8
0
 62
     0
440
 16777216
370
    -2
100
AcDbLine
 10
541.5368040077123
 20
452.2913517095966
 30
0.0
 11
541.5368040077123
 21
418.7670753109125
 31
0.0
  0
LINE
  5
156C
330
1531
100
AcDbEntity
  8
0
 62
     0
440
 16777216
370
    -2
100
AcDbLine
 10
439.7168040077123
 20
418.9470753109126
 30
0.0
 11
474.1968040077123
 21
418.9470753109126
 31
0.0
  0
LINE
  5
156D
330
1531
100
AcDbEntity
  8
0
 62
     0
440
 16777216
370
    -2
100
AcDbLine
 10
541.3568040077124
 20
418.9470753109126
 30
0.0
 11
506.8768040077123
 21
418.9470753109126
 31
0.0
  0
SOLID
  5
156E
330
1531
100
AcDbEntity
  8
0
 62
     0
440
 16777216
100
AcDbTrace
 10
439.7168040077123
 20
418.9770753109126
 30
0.0
 11
439.7168040077123
 21
418.9170753109126
 31
0.0
 12
439.5368040077123
 22
418.9470753109126
 32
0.0
 13
439.5368040077123
 23
418.9470753109126
 33
0.0
  0
SOLID
  5
156F
330
1531
100
AcDbEntity
  8
0
 62
     0
440
 16777216
100
AcDbTrace
 10
541.3568040077124
 20
418.9770753109126
 30
0.0
 11
541.3568040077124
 21
418.9170753109126
 31
0.0
 12
541.5368040077123
 22
418.9470753109126
 32
0.0
 13
541.5368040077123
 23
418.9470753109126
 33
0.0
  0
MTEXT
  5
1570
330
1531
100
AcDbEntity
  8
0
 62
     0
440
 16777216
100
AcDbMText
 10
490.5368040077124
 20
418.9470753109126
 30
0.0
 40
15.0
 41
0.0
 46
0.0
 71
     5
 72
     1
  1
\A1;102
 73
     1
 44
1.0
  0
POINT
  5
1571
330
1531
100
AcDbEntity
  8
Defpoints
 62
     0
440
 16777216
100
AcDbPoint
 10
439.5368040077123
 20
452.3538517095967
 30
0.0
  0
POINT
  5
1572
330
1531
100
AcDbEntity
  8
Defpoints
 62
     0
440
 16777216
100
AcDbPoint
 10
541.5368040077123
 20
452.3538517095967
 30
0.0
  0
POINT
  5
1573
330
1531
100
AcDbEntity
  8
Defpoints
 62
     0
440
 16777216
100
AcDbPoint
 10
541.5368040077123
 20
418.9470753109126
 30
0.0
  0
ENDBLK
  5
1533
330
1531
100
AcDbEntity
  8
0
100
AcDbBlockEnd
  0
BLOCK
  5
1540
330
153F
100
AcDbEntity
  8
0
100
AcDbBlockBegin
  2
*D9
 70
     1
 10
0.0
 20
0.0
 30
0.0
  3
*D9
  1

  0
LINE
  5
1560
330
153F
100
AcDbEntity
  8
0
 62
     0
440
 16777216
370
    -2
100
AcDbLine
 10
641.7185151653583
 20
506.2846866388643
 30
0.0
 11
641.7185151653583
 21
562.7761961085531
 31
0.0
  0
LINE
  5
1561
330
153F
100
AcDbEntity
  8
0
 62
     0
440
 16777216
370
    -2
100
AcDbLine
 10
736.7185151653587
 20
506.2846866388643
 30
0.0
 11
736.7185151653587
 21
562.7761961085531
 31
0.0
  0
LINE
  5
1562
330
153F
100
AcDbEntity
  8
0
 62
     0
440
 16777216
370
    -2
100
AcDbLine
 10
641.8985151653584
 20
562.5961961085531
 30
0.0
 11
676.6285151653586
 21
562.5961961085531
 31
0.0
  0
LINE
  5
1563
330
153F
100
AcDbEntity
  8
0
 62
     0
440
 16777216
370
    -2
100
AcDbLine
 10
736.5385151653587
 20
562.5961961085531
 30
0.0
 11
701.8085151653584
 21
562.5961961085531
 31
0.0
  0
SOLID
  5
1564
330
153F
100
AcDbEntity
  8
0
 62
     0
440
 16777216
100
AcDbTrace
 10
641.8985151653584
 20
562.6261961085531
 30
0.0
 11
641.8985151653584
 21
562.5661961085532
 31
0.0
 12
641.7185151653583
 22
562.5961961085531
 32
0.0
 13
641.7185151653583
 23
562.5961961085531
 33
0.0
  0
SOLID
  5
1565
330
153F
100
AcDbEntity
  8
0
 62
     0
440
 16777216
100
AcDbTrace
 10
736.5385151653587
 20
562.6261961085531
 30
0.0
 11
736.5385151653587
 21
562.5661961085532
 31
0.0
 12
736.7185151653587
 22
562.5961961085531
 32
0.0
 13
736.7185151653587
 23
562.5961961085531
 33
0.0
  0
MTEXT
  5
1566
330
153F
100
AcDbEntity
  8
0
 62
     0
440
 16777216
100
AcDbMText
 10
689.2185151653587
 20
562.5961961085531
 30
0.0
 40
15.0
 41
0.0
 46
0.0
 71
     5
 72
     1
  1
\A1;95
 73
     1
 44
1.0
  0
POINT
  5
1567
330
153F
100
AcDbEntity
  8
Defpoints
 62
     0
440
 16777216
100
AcDbPoint
 10
641.7185151653583
 20
506.2221866388642
 30
0.0
  0
POINT
  5
1568
330
153F
100
AcDbEntity
  8
Defpoints
 62
     0
440
 16777216
100
AcDbPoint
 10
736.7185151653587
 20
506.2221866388642
 30
0.0
  0
POINT
  5
1569
330
153F
100
AcDbEntity
  8
Defpoints
 62
     0
440
 16777216
100
AcDbPoint
 10
736.7185151653587
 20
562.5961961085531
 30
0.0
  0
ENDBLK
  5
1541
330
153F
100
AcDbEntity
  8
0
100
AcDbBlockEnd
  0
BLOCK
  5
15E2
330
15E1
100
AcDbEntity
  8
0
100
AcDbBlockBegin
  2
*D10
 70
     1
 10
0.0
 20
0.0
 30
0.0
  3
*D10
  1

  0
LINE
  5
1610
330
15E1
100
AcDbEntity
  8
0
 62
     0
440
 16777216
370
    -2
100
AcDbLine
 10
480.536804007712
 20
523.2846866388645
 30
0.0
 11
480.536804007712
 21
568.4679920757932
 31
0.0
  0
LINE
  5
1611
330
15E1
100
AcDbEntity
  8
0
 62
     0
440
 16777216
370
    -2
100
AcDbLine
 10
500.536804007712
 20
523.2846866388645
 30
0.0
 11
500.536804007712
 21
568.4679920757932
 31
0.0
  0
LINE
  5
1612
330
15E1
100
AcDbEntity
  8
0
 62
     0
440
 16777216
370
    -2
100
AcDbLine
 10
480.7168040077121
 20
568.2879920757932
 30
0.0
 11
500.3568040077123
 21
568.2879920757932
 31
0.0
  0
LINE
  5
1613
330
15E1
100
AcDbEntity
  8
0
 62
     0
440
 16777216
370
    -2
100
AcDbLine
 10
500.536804007712
 20
568.2879920757932
 30
0.0
 11
500.7168040077123
 21
568.2879920757932
 31
0.0
  0
SOLID
  5
1614
330
15E1
100
AcDbEntity
  8
0
 62
     0
440
 16777216
100
AcDbTrace
 10
480.7168040077121
 20
568.3179920757932
 30
0.0
 11
480.7168040077121
 21
568.2579920757932
 31
0.0
 12
480.536804007712
 22
568.2879920757932
 32
0.0
 13
480.536804007712
 23
568.2879920757932
 33
0.0
  0
SOLID
  5
1615
330
15E1
100
AcDbEntity
  8
0
 62
     0
440
 16777216
100
AcDbTrace
 10
500.3568040077123
 20
568.3179920757932
 30
0.0
 11
500.3568040077123
 21
568.2579920757932
 31
0.0
 12
500.536804007712
 22
568.2879920757932
 32
0.0
 13
500.536804007712
 23
568.2879920757932
 33
0.0
  0
MTEXT
  5
1616
330
15E1
100
AcDbEntity
  8
0
 62
     0
440
 16777216
100
AcDbMText
 10
512.0568040077123
 20
568.2879920757932
 30
0.0
 40
15.0
 41
0.0
 46
0.0
 71
     5
 72
     1
  1
\A1;20
 73
     1
 44
1.0
  0
POINT
  5
1617
330
15E1
100
AcDbEntity
  8
Defpoints
 62
     0
440
 16777216
100
AcDbPoint
 10
480.536804007712
 20
523.2221866388645
 30
0.0
  0
POINT
  5
1618
330
15E1
100
AcDbEntity
  8
Defpoints
 62
     0
440
 16777216
100
AcDbPoint
 10
500.536804007712
 20
523.2221866388645
 30
0.0
  0
POINT
  5
1619
330
15E1
100
AcDbEntity
  8
Defpoints
 62
     0
440
 16777216
100
AcDbPoint
 10
500.536804007712
 20
568.2879920757932
 30
0.0
  0
ENDBLK
  5
15E3
330
15E1
100
AcDbEntity
  8
0
100
AcDbBlockEnd
  0
BLOCK
  5
15F0
330
15EF
100
AcDbEntity
  8
0
100
AcDbBlockBegin
  2
*D11
 70
     1
 10
0.0
 20
0.0
 30
0.0
  3
*D11
  1

  0
LINE
  5
161A
330
15EF
100
AcDbEntity
  8
0
 62
     0
440
 16777216
370
    -2
100
AcDbLine
 10
483.7868040073905
 20
527.0846866384101
 30
0.0
 11
483.7868040073905
 21
588.3894390220462
 31
0.0
  0
LINE
  5
161B
330
15EF
100
AcDbEntity
  8
0
 62
     0
440
 16777216
370
    -2
100
AcDbLine
 10
497.0368040079015
 20
527.0846866384101
 30
0.0
 11
497.0368040079015
 21
588.3894390220462
 31
0.0
  0
LINE
  5
161C
330
15EF
100
AcDbEntity
  8
0
 62
     0
440
 16777216
370
    -2
100
AcDbLine
 10
483.9668040073905
 20
588.2094390220462
 30
0.0
 11
496.8568040079015
 21
588.2094390220462
 31
0.0
  0
LINE
  5
161D
330
15EF
100
AcDbEntity
  8
0
 62
     0
440
 16777216
370
    -2
100
AcDbLine
 10
497.0368040079015
 20
588.2094390220462
 30
0.0
 11
497.2168040079012
 21
588.2094390220462
 31
0.0
  0
SOLID
  5
161E
330
15EF
100
AcDbEntity
  8
0
 62
     0
440
 16777216
100
AcDbTrace
 10
483.9668040073905
 20
588.2394390220463
 30
0.0
 11
483.9668040073905
 21
588.1794390220464
 31
0.0
 12
483.7868040073905
 22
588.2094390220462
 32
0.0
 13
483.7868040073905
 23
588.2094390220462
 33
0.0
  0
SOLID
  5
161F
330
15EF
100
AcDbEntity
  8
0
 62
     0
440
 16777216
100
AcDbTrace
 10
496.8568040079015
 20
588.2394390220463
 30
0.0
 11
496.8568040079015
 21
588.1794390220464
 31
0.0
 12
497.0368040079015
 22
588.2094390220462
 32
0.0
 13
497.0368040079015
 23
588.2094390220462
 33
0.0
  0
MTEXT
  5
1620
330
15EF
100
AcDbEntity
  8
0
 62
     0
440
 16777216
100
AcDbMText
 10
507.3068040079014
 20
588.2094390220462
 30
0.0
 40
15.0
 41
0.0
 46
0.0
 71
     5
 72
     1
  1
\A1;13
 73
     1
 44
1.0
  0
POINT
  5
1621
330
15EF
100
AcDbEntity
  8
Defpoints
 62
     0
440
 16777216
100
AcDbPoint
 10
483.7868040073905
 20
527.0221866384099
 30
0.0
  0
POINT
  5
1622
330
15EF
100
AcDbEntity
  8
Defpoints
 62
     0
440
 16777216
100
AcDbPoint
 10
497.0368040079015
 20
527.0221866384099
 30
0.0
  0
POINT
  5
1623
330
15EF
100
AcDbEntity
  8
Defpoints
 62
     0
440
 16777216
100
AcDbPoint
 10
497.0368040079015
 20
588.2094390220462
 30
0.0
  0
ENDBLK
  5
15F1
330
15EF
100
AcDbEntity
  8
0
100
AcDbBlockEnd
  0
BLOCK
  5
1629
330
1628
100
AcDbEntity
  8
0
100
AcDbBlockBegin
  2
*D12
 70
     1
 10
0.0
 20
0.0
 30
0.0
  3
*D12
  1

  0
LINE
  5
162B
330
1628
100
AcDbEntity
  8
0
 62
     0
440
 16777216
370
    -2
100
AcDbLine
 10
512.8711892413957
 20
148.3920281191922
 30
0.0
 11
505.972076304611
 21
147.1302148079224
 31
0.0
  0
MTEXT
  5
162C
330
1628
100
AcDbEntity
  8
0
 62
     0
440
 16777216
100
AcDbMText
 10
513.5311892413958
 20
148.3920281191922
 30
0.0
 40
0.18
 41
0.0
 46
0.0
 71
     5
 72
     1
  1
\A1;∅26.0000
 73
     1
 44
1.0
  0
SOLID
  5
162D
330
1628
100
AcDbEntity
  8
0
 62
     0
440
 16777216
100
AcDbTrace
 10
505.9666789836168
 20
147.1597252963306
 30
0.0
 11
505.9774736256051
 21
147.1007043195143
 31
0.0
 12
505.7950133741623
 22
147.097830881957
 32
0.0
 13
505.7950133741623
 23
147.097830881957
 33
0.0
  0
LINE
  5
162E
330
1628
100
AcDbEntity
  8
0
 62
     0
440
 16777216
370
    -2
100
AcDbLine
 10
492.9171350639828
 20
144.758991784448
 30
0.0
 11
493.0971350639826
 21
144.758991784448
 31
0.0
  0
LINE
  5
162F
330
1628
100
AcDbEntity
  8
0
 62
     0
440
 16777216
370
    -2
100
AcDbLine
 10
493.0071350639828
 20
144.668991784448
 30
0.0
 11
493.0071350639828
 21
144.8489917844479
 31
0.0
  0
POINT
  5
1630
330
1628
100
AcDbEntity
  8
Defpoints
 62
     0
440
 16777216
100
AcDbPoint
 10
505.7950133741623
 20
147.097830881957
 30
0.0
  0
POINT
  5
1631
330
1628
100
AcDbEntity
  8
Defpoints
 62
     0
440
 16777216
100
AcDbPoint
 10
480.2192567538031
 20
142.420152686939
 30
0.0
  0
ENDBLK
  5
162A
330
1628
100
AcDbEntity
  8
0
100
AcDbBlockEnd
  0
BLOCK
  5
1636
330
1635
100
AcDbEntity
  8
0
100
AcDbBlockBegin
  2
*D13
 70
     1
 10
0.0
 20
0.0
 30
0.0
  3
*D13
  1

  0
LINE
  5
1638
330
1635
100
AcDbEntity
  8
0
 62
     0
440
 16777216
370
    -2
100
AcDbLine
 10
509.973947520682
 20
150.6042856344456
 30
0.0
 11
509.7939475206819
 21
150.6042856344456
 31
0.0
  0
LINE
  5
1639
330
1635
100
AcDbEntity
  8
0
 62
     0
440
 16777216
370
    -2
100
AcDbLine
 10
509.7939475206819
 20
150.6042856344456
 30
0.0
 11
499.3156267246948
 21
146.955655838582
 31
0.0
  0
MTEXT
  5
163A
330
1635
100
AcDbEntity
  8
0
 62
     0
440
 16777216
100
AcDbMText
 10
510.6039475206818
 20
150.6042856344456
 30
0.0
 40
0.18
 41
0.0
 46
0.0
 71
     5
 72
     1
  1
\A1;∅13.0000
 73
     1
 44
1.0
  0
SOLID
  5
163B
330
1635
100
AcDbEntity
  8
0
 62
     0
440
 16777216
100
AcDbTrace
 10
499.3057614669664
 20
146.9839873879565
 30
0.0
 11
499.325491982423
 21
146.9273242892076
 31
0.0
 12
499.1456374284481
 22
146.8964642922132
 32
0.0
 13
499.1456374284481
 23
146.8964642922132
 33
0.0
  0
LINE
  5
163C
330
1635
100
AcDbEntity
  8
0
 62
     0
440
 16777216
370
    -2
100
AcDbLine
 10
492.9171350639826
 20
144.7589917844479
 30
0.0
 11
493.0971350639826
 21
144.758991784448
 31
0.0
  0
LINE
  5
163D
330
1635
100
AcDbEntity
  8
0
 62
     0
440
 16777216
370
    -2
100
AcDbLine
 10
493.0071350639827
 20
144.6689917844479
 30
0.0
 11
493.0071350639827
 21
144.8489917844479
 31
0.0
  0
POINT
  5
163E
330
1635
100
AcDbEntity
  8
Defpoints
 62
     0
440
 16777216
100
AcDbPoint
 10
499.1456374284481
 20
146.8964642922132
 30
0.0
  0
POINT
  5
163F
330
1635
100
AcDbEntity
  8
Defpoints
 62
     0
440
 16777216
100
AcDbPoint
 10
486.8686326995172
 20
142.6215192766826
 30
0.0
  0
ENDBLK
  5
1637
330
1635
100
AcDbEntity
  8
0
100
AcDbBlockEnd
  0
BLOCK
  5
1A4C
330
1A4B
100
AcDbEntity
  8
0
100
AcDbBlockBegin
  2
*D14
 70
     1
 10
0.0
 20
0.0
 30
0.0
  3
*D14
  1

  0
LINE
  5
1A4E
330
1A4B
100
AcDbEntity
  8
0
 62
     0
440
 16777216
370
    -2
100
AcDbLine
 10
382.6564697564935
 20
23.47782153231765
 30
0.0
 11
382.6564697564935
 21
41.49405281237949
 31
0.0
  0
LINE
  5
1A4F
330
1A4B
100
AcDbEntity
  8
0
 62
     0
440
 16777216
370
    -2
100
AcDbLine
 10
406.6564697564935
 20
23.47782153231765
 30
0.0
 11
406.6564697564935
 21
41.49405281237949
 31
0.0
  0
LINE
  5
1A50
330
1A4B
100
AcDbEntity
  8
0
 62
     0
440
 16777216
370
    -2
100
AcDbLine
 10
382.8364697564936
 20
41.31405281237947
 30
0.0
 11
394.0864697564935
 21
41.31405281237947
 31
0.0
  0
LINE
  5
1A51
330
1A4B
100
AcDbEntity
  8
0
 62
     0
440
 16777216
370
    -2
100
AcDbLine
 10
406.4764697564934
 20
41.31405281237947
 30
0.0
 11
395.2264697564936
 21
41.31405281237947
 31
0.0
  0
SOLID
  5
1A52
330
1A4B
100
AcDbEntity
  8
0
 62
     0
440
 16777216
100
AcDbTrace
 10
382.8364697564936
 20
41.34405281237946
 30
0.0
 11
382.8364697564936
 21
41.28405281237947
 31
0.0
 12
382.6564697564935
 22
41.31405281237947
 32
0.0
 13
382.6564697564935
 23
41.31405281237947
 33
0.0
  0
SOLID
  5
1A53
330
1A4B
100
AcDbEntity
  8
0
 62
     0
440
 16777216
100
AcDbTrace
 10
406.4764697564934
 20
41.34405281237946
 30
0.0
 11
406.4764697564934
 21
41.28405281237947
 31
0.0
 12
406.6564697564935
 22
41.31405281237947
 32
0.0
 13
406.6564697564935
 23
41.31405281237947
 33
0.0
  0
MTEXT
  5
1A54
330
1A4B
100
AcDbEntity
  8
0
 62
     0
440
 16777216
100
AcDbMText
 10
394.6564697564935
 20
41.31405281237947
 30
0.0
 40
0.18
 41
0.0
 46
0.0
 71
     5
 72
     1
  1
\A1;24.0000
 73
     1
 44
1.0
  0
POINT
  5
1A55
330
1A4B
100
AcDbEntity
  8
Defpoints
 62
     0
440
 16777216
100
AcDbPoint
 10
382.6564697564935
 20
23.41532153231765
 30
0.0
  0
POINT
  5
1A56
330
1A4B
100
AcDbEntity
  8
Defpoints
 62
     0
440
 16777216
100
AcDbPoint
 10
406.6564697564935
 20
23.41532153231765
 30
0.0
  0
POINT
  5
1A57
330
1A4B
100
AcDbEntity
  8
Defpoints
 62
     0
440
 16777216
100
AcDbPoint
 10
406.6564697564935
 20
41.31405281237947
 30
0.0
  0
ENDBLK
  5
1A4D
330
1A4B
100
AcDbEntity
  8
0
100
AcDbBlockEnd
  0
BLOCK
  5
1A5A
330
1A59
100
AcDbEntity
  8
0
100
AcDbBlockBegin
  2
*D15
 70
     1
 10
0.0
 20
0.0
 30
0.0
  3
*D15
  1

  0
LINE
  5
1A5C
330
1A59
100
AcDbEntity
  8
0
 62
     0
440
 16777216
370
    -2
100
AcDbLine
 10
233.6423861599599
 20
422.8050019013716
 30
0.0
 11
233.6423861599599
 21
382.4443877504858
 31
0.0
  0
LINE
  5
1A5D
330
1A59
100
AcDbEntity
  8
0
 62
     0
440
 16777216
370
    -2
100
AcDbLine
 10
236.6465492159941
 20
422.8050019013716
 30
0.0
 11
236.6465492159941
 21
382.4443877504858
 31
0.0
  0
LINE
  5
1A5E
330
1A59
100
AcDbEntity
  8
0
 62
     0
440
 16777216
370
    -2
100
AcDbLine
 10
233.8223861599599
 20
382.6243877504858
 30
0.0
 11
234.634467687977
 21
382.6243877504858
 31
0.0
  0
LINE
  5
1A5F
330
1A59
100
AcDbEntity
  8
0
 62
     0
440
 16777216
370
    -2
100
AcDbLine
 10
236.4665492159941
 20
382.6243877504858
 30
0.0
 11
235.654467687977
 21
382.6243877504858
 31
0.0
  0
SOLID
  5
1A60
330
1A59
100
AcDbEntity
  8
0
 62
     0
440
 16777216
100
AcDbTrace
 10
233.8223861599599
 20
382.6543877504857
 30
0.0
 11
233.8223861599599
 21
382.5943877504859
 31
0.0
 12
233.6423861599599
 22
382.6243877504858
 32
0.0
 13
233.6423861599599
 23
382.6243877504858
 33
0.0
  0
SOLID
  5
1A61
330
1A59
100
AcDbEntity
  8
0
 62
     0
440
 16777216
100
AcDbTrace
 10
236.4665492159941
 20
382.6543877504857
 30
0.0
 11
236.4665492159941
 21
382.5943877504859
 31
0.0
 12
236.6465492159941
 22
382.6243877504858
 32
0.0
 13
236.6465492159941
 23
382.6243877504858
 33
0.0
  0
MTEXT
  5
1A62
330
1A59
100
AcDbEntity
  8
0
 62
     0
440
 16777216
100
AcDbMText
 10
235.144467687977
 20
382.6243877504858
 30
0.0
 40
0.18
 41
0.0
 46
0.0
 71
     5
 72
     1
  1
\A1;3.0042
 73
     1
 44
1.0
  0
POINT
  5
1A63
330
1A59
100
AcDbEntity
  8
Defpoints
 62
     0
440
 16777216
100
AcDbPoint
 10
233.6423861599599
 20
422.8675019013715
 30
-0.0000000000000002
  0
POINT
  5
1A64
330
1A59
100
AcDbEntity
  8
Defpoints
 62
     0
440
 16777216
100
AcDbPoint
 10
236.6465492159941
 20
422.8675019013715
 30
0.0
  0
POINT
  5
1A65
330
1A59
100
AcDbEntity
  8
Defpoints
 62
     0
440
 16777216
100
AcDbPoint
 10
236.6465492159941
 20
382.6243877504858
 30
0.0
  0
ENDBLK
  5
1A5B
330
1A59
100
AcDbEntity
  8
0
100
AcDbBlockEnd
  0
BLOCK
  5
1A69
330
1A68
100
AcDbEntity
  8
0
100
AcDbBlockBegin
  2
*D16
 70
     1
 10
0.0
 20
0.0
 30
0.0
  3
*D16
  1

  0
LINE
  5
1A6B
330
1A68
100
AcDbEntity
  8
0
 62
     0
440
 16777216
370
    -2
100
AcDbLine
 10
394.6564697564935
 20
29.91972298257031
 30
0.0
 11
394.6564697564935
 21
130.7283420898999
 31
0.0
  0
LINE
  5
1A6C
330
1A68
100
AcDbEntity
  8
0
 62
     0
440
 16777216
370
    -2
100
AcDbLine
 10
373.6564697564929
 20
29.91972298257031
 30
0.0
 11
373.6564697564929
 21
130.7283420898999
 31
0.0
  0
LINE
  5
1A6D
330
1A68
100
AcDbEntity
  8
0
 62
     0
440
 16777216
370
    -2
100
AcDbLine
 10
394.4764697564935
 20
130.5483420898999
 30
0.0
 11
384.6964697564932
 21
130.5483420898999
 31
0.0
  0
LINE
  5
1A6E
330
1A68
100
AcDbEntity
  8
0
 62
     0
440
 16777216
370
    -2
100
AcDbLine
 10
373.8364697564928
 20
130.5483420898999
 30
0.0
 11
383.6164697564931
 21
130.5483420898999
 31
0.0
  0
SOLID
  5
1A6F
330
1A68
100
AcDbEntity
  8
0
 62
     0
440
 16777216
100
AcDbTrace
 10
394.4764697564935
 20
130.5783420898999
 30
0.0
 11
394.4764697564935
 21
130.5183420898999
 31
0.0
 12
394.6564697564935
 22
130.5483420898999
 32
0.0
 13
394.6564697564935
 23
130.5483420898999
 33
0.0
  0
SOLID
  5
1A70
330
1A68
100
AcDbEntity
  8
0
 62
     0
440
 16777216
100
AcDbTrace
 10
373.8364697564928
 20
130.5783420898999
 30
0.0
 11
373.8364697564928
 21
130.5183420898999
 31
0.0
 12
373.6564697564929
 22
130.5483420898999
 32
0.0
 13
373.6564697564929
 23
130.5483420898999
 33
0.0
  0
MTEXT
  5
1A71
330
1A68
100
AcDbEntity
  8
0
 62
     0
440
 16777216
100
AcDbMText
 10
384.1564697564932
 20
130.5483420898999
 30
0.0
 40
0.18
 41
0.0
 46
0.0
 71
     5
 72
     1
  1
\A1;21.0000
 73
     1
 44
1.0
  0
POINT
  5
1A72
330
1A68
100
AcDbEntity
  8
Defpoints
 62
     0
440
 16777216
100
AcDbPoint
 10
394.6564697564935
 20
29.8572229825703
 30
0.0
  0
POINT
  5
1A73
330
1A68
100
AcDbEntity
  8
Defpoints
 62
     0
440
 16777216
100
AcDbPoint
 10
373.6564697564929
 20
29.8572229825703
 30
0.0
  0
POINT
  5
1A74
330
1A68
100
AcDbEntity
  8
Defpoints
 62
     0
440
 16777216
100
AcDbPoint
 10
373.6564697564929
 20
130.5483420898999
 30
0.0
  0
ENDBLK
  5
1A6A
330
1A68
100
AcDbEntity
  8
0
100
AcDbBlockEnd
  0
BLOCK
  5
208E
330
208D
100
AcDbEntity
  8
0
100
AcDbBlockBegin
  2
*D17
 70
     1
 10
0.0
 20
0.0
 30
0.0
  3
*D17
  1

  0
LINE
  5
2090
330
208D
100
AcDbEntity
  8
0
 62
     0
440
 16777216
370
    -2
100
AcDbLine
 10
427.2761784091929
 20
492.2367021139272
 30
0.0
 11
427.2761784091929
 21
540.862707244271
 31
0.0
  0
LINE
  5
2091
330
208D
100
AcDbEntity
  8
0
 62
     0
440
 16777216
370
    -2
100
AcDbLine
 10
757.2761784091929
 20
492.2367021139272
 30
0.0
 11
757.2761784091929
 21
540.862707244271
 31
0.0
  0
LINE
  5
2092
330
208D
100
AcDbEntity
  8
0
 62
     0
440
 16777216
370
    -2
100
AcDbLine
 10
427.4561784091931
 20
540.6827072442711
 30
0.0
 11
591.6311784091931
 21
540.6827072442711
 31
0.0
  0
LINE
  5
2093
330
208D
100
AcDbEntity
  8
0
 62
     0
440
 16777216
370
    -2
100
AcDbLine
 10
757.0961784091931
 20
540.6827072442711
 30
0.0
 11
592.9211784091931
 21
540.6827072442711
 31
0.0
  0
SOLID
  5
2094
330
208D
100
AcDbEntity
  8
0
 62
     0
440
 16777216
100
AcDbTrace
 10
427.4561784091931
 20
540.7127072442711
 30
0.0
 11
427.4561784091931
 21
540.6527072442711
 31
0.0
 12
427.2761784091929
 22
540.6827072442711
 32
0.0
 13
427.2761784091929
 23
540.6827072442711
 33
0.0
  0
SOLID
  5
2095
330
208D
100
AcDbEntity
  8
0
 62
     0
440
 16777216
100
AcDbTrace
 10
757.0961784091931
 20
540.7127072442711
 30
0.0
 11
757.0961784091931
 21
540.6527072442711
 31
0.0
 12
757.2761784091929
 22
540.6827072442711
 32
0.0
 13
757.2761784091929
 23
540.6827072442711
 33
0.0
  0
MTEXT
  5
2096
330
208D
100
AcDbEntity
  8
0
 62
     0
440
 16777216
100
AcDbMText
 10
592.2761784091931
 20
540.6827072442711
 30
0.0
 40
0.18
 41
0.0
 46
0.0
 71
     5
 72
     1
  1
\A1;330.0000
 73
     1
 44
1.0
  0
POINT
  5
2097
330
208D
100
AcDbEntity
  8
Defpoints
 62
     0
440
 16777216
100
AcDbPoint
 10
427.2761784091929
 20
492.1742021139269
 30
0.0
  0
POINT
  5
2098
330
208D
100
AcDbEntity
  8
Defpoints
 62
     0
440
 16777216
100
AcDbPoint
 10
757.2761784091929
 20
492.1742021139269
 30
0.0
  0
POINT
  5
2099
330
208D
100
AcDbEntity
  8
Defpoints
 62
     0
440
 16777216
100
AcDbPoint
 10
757.2761784091929
 20
540.6827072442711
 30
0.0
  0
ENDBLK
  5
208F
330
208D
100
AcDbEntity
  8
0
100
AcDbBlockEnd
  0
BLOCK
  5
209C
330
209B
100
AcDbEntity
  8
0
100
AcDbBlockBegin
  2
*D18
 70
     1
 10
0.0
 20
0.0
 30
0.0
  3
*D18
  1

  0
LINE
  5
209E
330
209B
100
AcDbEntity
  8
0
 62
     0
440
 16777216
370
    -2
100
AcDbLine
 10
869.3924830497373
 20
481.7296578438871
 30
0.0
 11
869.3924830497373
 21
552.2167948218464
 31
0.0
  0
LINE
  5
209F
330
209B
100
AcDbEntity
  8
0
 62
     0
440
 16777216
370
    -2
100
AcDbLine
 10
1011.392483049738
 20
486.2991122589773
 30
0.0
 11
1011.392483049738
 21
552.2167948218464
 31
0.0
  0
LINE
  5
20A0
330
209B
100
AcDbEntity
  8
0
 62
     0
440
 16777216
370
    -2
100
AcDbLine
 10
869.5724830497372
 20
552.0367948218463
 30
0.0
 11
939.7624830497376
 21
552.0367948218463
 31
0.0
  0
LINE
  5
20A1
330
209B
100
AcDbEntity
  8
0
 62
     0
440
 16777216
370
    -2
100
AcDbLine
 10
1011.212483049738
 20
552.0367948218463
 30
0.0
 11
941.0224830497375
 21
552.0367948218463
 31
0.0
  0
SOLID
  5
20A2
330
209B
100
AcDbEntity
  8
0
 62
     0
440
 16777216
100
AcDbTrace
 10
869.5724830497372
 20
552.0667948218463
 30
0.0
 11
869.5724830497372
 21
552.0067948218463
 31
0.0
 12
869.3924830497373
 22
552.0367948218463
 32
0.0
 13
869.3924830497373
 23
552.0367948218463
 33
0.0
  0
SOLID
  5
20A3
330
209B
100
AcDbEntity
  8
0
 62
     0
440
 16777216
100
AcDbTrace
 10
1011.212483049738
 20
552.0667948218463
 30
0.0
 11
1011.212483049738
 21
552.0067948218463
 31
0.0
 12
1011.392483049738
 22
552.0367948218463
 32
0.0
 13
1011.392483049738
 23
552.0367948218463
 33
0.0
  0
MTEXT
  5
20A4
330
209B
100
AcDbEntity
  8
0
 62
     0
440
 16777216
100
AcDbMText
 10
940.3924830497375
 20
552.0367948218463
 30
0.0
 40
0.18
 41
0.0
 46
0.0
 71
     5
 72
     1
  1
\A1;142.0000
 73
     1
 44
1.0
  0
POINT
  5
20A5
330
209B
100
AcDbEntity
  8
Defpoints
 62
     0
440
 16777216
100
AcDbPoint
 10
869.3924830497373
 20
481.6671578438872
 30
0.0
  0
POINT
  5
20A6
330
209B
100
AcDbEntity
  8
Defpoints
 62
     0
440
 16777216
100
AcDbPoint
 10
1011.392483049738
 20
486.2366122589773
 30
0.0
  0
POINT
  5
20A7
330
209B
100
AcDbEntity
  8
Defpoints
 62
     0
440
 16777216
100
AcDbPoint
 10
1011.392483049738
 20
552.0367948218463
 30
0.0
  0
ENDBLK
  5
209D
330
209B
100
AcDbEntity
  8
0
100
AcDbBlockEnd
  0
BLOCK
  5
20BD
330
20BC
100
AcDbEntity
  8
0
100
AcDbBlockBegin
  2
*D19
 70
     1
 10
0.0
 20
0.0
 30
0.0
  3
*D19
  1

  0
LINE
  5
20BF
330
20BC
100
AcDbEntity
  8
0
 62
     0
440
 16777216
370
    -2
100
AcDbLine
 10
427.2761784091929
 20
195.250101934047
 30
0.0
 11
427.2761784091929
 21
120.8408842177353
 31
0.0
  0
LINE
  5
20C0
330
20BC
100
AcDbEntity
  8
0
 62
     0
440
 16777216
370
    -2
100
AcDbLine
 10
428.876178409193
 20
195.250101934047
 30
0.0
 11
428.876178409193
 21
120.8408842177353
 31
0.0
  0
LINE
  5
20C1
330
20BC
100
AcDbEntity
  8
0
 62
     0
440
 16777216
370
    -2
100
AcDbLine
 10
427.4561784091929
 20
121.0208842177353
 30
0.0
 11
427.6111784091931
 21
121.0208842177353
 31
0.0
  0
LINE
  5
20C2
330
20BC
100
AcDbEntity
  8
0
 62
     0
440
 16777216
370
    -2
100
AcDbLine
 10
428.6961784091931
 20
121.0208842177353
 30
0.0
 11
428.5411784091929
 21
121.0208842177353
 31
0.0
  0
SOLID
  5
20C3
330
20BC
100
AcDbEntity
  8
0
 62
     0
440
 16777216
100
AcDbTrace
 10
427.4561784091929
 20
121.0508842177353
 30
0.0
 11
427.4561784091929
 21
120.9908842177353
 31
0.0
 12
427.2761784091929
 22
121.0208842177353
 32
0.0
 13
427.2761784091929
 23
121.0208842177353
 33
0.0
  0
SOLID
  5
20C4
330
20BC
100
AcDbEntity
  8
0
 62
     0
440
 16777216
100
AcDbTrace
 10
428.6961784091931
 20
121.0508842177353
 30
0.0
 11
428.6961784091931
 21
120.9908842177353
 31
0.0
 12
428.876178409193
 22
121.0208842177353
 32
0.0
 13
428.876178409193
 23
121.0208842177353
 33
0.0
  0
MTEXT
  5
20C5
330
20BC
100
AcDbEntity
  8
0
 62
     0
440
 16777216
100
AcDbMText
 10
428.0761784091929
 20
121.0208842177353
 30
0.0
 40
0.18
 41
0.0
 46
0.0
 71
     5
 72
     1
  1
\A1;1.6000
 73
     1
 44
1.0
  0
POINT
  5
20C6
330
20BC
100
AcDbEntity
  8
Defpoints
 62
     0
440
 16777216
100
AcDbPoint
 10
427.2761784091929
 20
195.312601934047
 30
0.0
  0
POINT
  5
20C7
330
20BC
100
AcDbEntity
  8
Defpoints
 62
     0
440
 16777216
100
AcDbPoint
 10
428.876178409193
 20
195.312601934047
 30
0.0
  0
POINT
  5
20C8
330
20BC
100
AcDbEntity
  8
Defpoints
 62
     0
440
 16777216
100
AcDbPoint
 10
428.876178409193
 20
121.0208842177353
 30
0.0
  0
ENDBLK
  5
20BE
330
20BC
100
AcDbEntity
  8
0
100
AcDbBlockEnd
  0
BLOCK
  5
20F4
330
20F3
100
AcDbEntity
  8
0
100
AcDbBlockBegin
  2
*D20
 70
     1
 10
0.0
 20
0.0
 30
0.0
  3
*D20
  1

  0
LINE
  5
20F6
330
20F3
100
AcDbEntity
  8
0
 62
     0
440
 16777216
370
    -2
100
AcDbLine
 10
882.3065856138397
 20
166.0954862175195
 30
0.0
 11
882.3065856138397
 21
109.2660838629647
 31
0.0
  0
LINE
  5
20F7
330
20F3
100
AcDbEntity
  8
0
 62
     0
440
 16777216
370
    -2
100
AcDbLine
 10
869.3924830497374
 20
166.0954862175195
 30
0.0
 11
869.3924830497374
 21
109.2660838629647
 31
0.0
  0
LINE
  5
20F8
330
20F3
100
AcDbEntity
  8
0
 62
     0
440
 16777216
370
    -2
100
AcDbLine
 10
882.1265856138399
 20
109.4460838629647
 30
0.0
 11
876.3895343317884
 21
109.4460838629647
 31
0.0
  0
LINE
  5
20F9
330
20F3
100
AcDbEntity
  8
0
 62
     0
440
 16777216
370
    -2
100
AcDbLine
 10
869.5724830497374
 20
109.4460838629647
 30
0.0
 11
875.3095343317886
 21
109.4460838629647
 31
0.0
  0
SOLID
  5
20FA
330
20F3
100
AcDbEntity
  8
0
 62
     0
440
 16777216
100
AcDbTrace
 10
882.1265856138399
 20
109.4760838629647
 30
0.0
 11
882.1265856138399
 21
109.4160838629647
 31
0.0
 12
882.3065856138397
 22
109.4460838629647
 32
0.0
 13
882.3065856138397
 23
109.4460838629647
 33
0.0
  0
SOLID
  5
20FB
330
20F3
100
AcDbEntity
  8
0
 62
     0
440
 16777216
100
AcDbTrace
 10
869.5724830497374
 20
109.4760838629647
 30
0.0
 11
869.5724830497374
 21
109.4160838629647
 31
0.0
 12
869.3924830497374
 22
109.4460838629647
 32
0.0
 13
869.3924830497374
 23
109.4460838629647
 33
0.0
  0
MTEXT
  5
20FC
330
20F3
100
AcDbEntity
  8
0
 62
     0
440
 16777216
100
AcDbMText
 10
875.8495343317886
 20
109.4460838629647
 30
0.0
 40
0.18
 41
0.0
 46
0.0
 71
     5
 72
     1
  1
\A1;12.9141
 73
     1
 44
1.0
  0
POINT
  5
20FD
330
20F3
100
AcDbEntity
  8
Defpoints
 62
     0
440
 16777216
100
AcDbPoint
 10
882.3065856138397
 20
166.1579862175195
 30
0.0
  0
POINT
  5
20FE
330
20F3
100
AcDbEntity
  8
Defpoints
 62
     0
440
 16777216
100
AcDbPoint
 10
869.3924830497374
 20
166.1579862175195
 30
0.0
  0
POINT
  5
20FF
330
20F3
100
AcDbEntity
  8
Defpoints
 62
     0
440
 16777216
100
AcDbPoint
 10
869.3924830497374
 20
109.4460838629647
 30
0.0
  0
ENDBLK
  5
20F5
330
20F3
100
AcDbEntity
  8
0
100
AcDbBlockEnd
  0
BLOCK
  5
212C
330
212B
100
AcDbEntity
  8
0
100
AcDbBlockBegin
  2
*D21
 70
     1
 10
0.0
 20
0.0
 30
0.0
  3
*D21
  1

  0
LINE
  5
212E
330
212B
100
AcDbEntity
  8
0
 62
     0
440
 16777216
370
    -2
100
AcDbLine
 10
1167.697856717411
 20
469.8615118585451
 30
0.0
 11
1167.697856717411
 21
487.4150737431452
 31
0.0
  0
LINE
  5
212F
330
212B
100
AcDbEntity
  8
0
 62
     0
440
 16777216
370
    -2
100
AcDbLine
 10
1194.697856717411
 20
469.8615118585451
 30
0.0
 11
1194.697856717411
 21
487.4150737431452
 31
0.0
  0
LINE
  5
2130
330
212B
100
AcDbEntity
  8
0
 62
     0
440
 16777216
370
    -2
100
AcDbLine
 10
1167.877856717411
 20
487.2350737431452
 30
0.0
 11
1180.627856717411
 21
487.2350737431452
 31
0.0
  0
LINE
  5
2131
330
212B
100
AcDbEntity
  8
0
 62
     0
440
 16777216
370
    -2
100
AcDbLine
 10
1194.517856717411
 20
487.2350737431452
 30
0.0
 11
1181.767856717411
 21
487.2350737431452
 31
0.0
  0
SOLID
  5
2132
330
212B
100
AcDbEntity
  8
0
 62
     0
440
 16777216
100
AcDbTrace
 10
1167.877856717411
 20
487.2650737431452
 30
0.0
 11
1167.877856717411
 21
487.2050737431451
 31
0.0
 12
1167.697856717411
 22
487.2350737431452
 32
0.0
 13
1167.697856717411
 23
487.2350737431452
 33
0.0
  0
SOLID
  5
2133
330
212B
100
AcDbEntity
  8
0
 62
     0
440
 16777216
100
AcDbTrace
 10
1194.517856717411
 20
487.2650737431452
 30
0.0
 11
1194.517856717411
 21
487.2050737431451
 31
0.0
 12
1194.697856717411
 22
487.2350737431452
 32
0.0
 13
1194.697856717411
 23
487.2350737431452
 33
0.0
  0
MTEXT
  5
2134
330
212B
100
AcDbEntity
  8
0
 62
     0
440
 16777216
100
AcDbMText
 10
1181.197856717411
 20
487.2350737431452
 30
0.0
 40
0.18
 41
0.0
 46
0.0
 71
     5
 72
     1
  1
\A1;27.0000
 73
     1
 44
1.0
  0
POINT
  5
2135
330
212B
100
AcDbEntity
  8
Defpoints
 62
     0
440
 16777216
100
AcDbPoint
 10
1167.697856717411
 20
469.7990118585451
 30
0.0
  0
POINT
  5
2136
330
212B
100
AcDbEntity
  8
Defpoints
 62
     0
440
 16777216
100
AcDbPoint
 10
1194.697856717411
 20
469.7990118585451
 30
0.0
  0
POINT
  5
2137
330
212B
100
AcDbEntity
  8
Defpoints
 62
     0
440
 16777216
100
AcDbPoint
 10
1194.697856717411
 20
487.2350737431452
 30
0.0
  0
ENDBLK
  5
212D
330
212B
100
AcDbEntity
  8
0
100
AcDbBlockEnd
  0
BLOCK
  5
213A
330
2139
100
AcDbEntity
  8
0
100
AcDbBlockBegin
  2
*D22
 70
     1
 10
0.0
 20
0.0
 30
0.0
  3
*D22
  1

  0
LINE
  5
213C
330
2139
100
AcDbEntity
  8
0
 62
     0
440
 16777216
370
    -2
100
AcDbLine
 10
866.388319993703
 20
447.7292030520032
 30
0.0
 11
866.388319993703
 21
415.0700194225321
 31
0.0
  0
LINE
  5
213D
330
2139
100
AcDbEntity
  8
0
 62
     0
440
 16777216
370
    -2
100
AcDbLine
 10
869.3924830497374
 20
447.7292030520032
 30
0.0
 11
869.3924830497374
 21
415.0700194225321
 31
0.0
  0
LINE
  5
213E
330
2139
100
AcDbEntity
  8
0
 62
     0
440
 16777216
370
    -2
100
AcDbLine
 10
866.568319993703
 20
415.2500194225321
 30
0.0
 11
867.3804015217202
 21
415.2500194225321
 31
0.0
  0
LINE
  5
213F
330
2139
100
AcDbEntity
  8
0
 62
     0
440
 16777216
370
    -2
100
AcDbLine
 10
869.2124830497375
 20
415.2500194225321
 30
0.0
 11
868.4004015217201
 21
415.2500194225321
 31
0.0
  0
SOLID
  5
2140
330
2139
100
AcDbEntity
  8
0
 62
     0
440
 16777216
100
AcDbTrace
 10
866.568319993703
 20
415.2800194225322
 30
0.0
 11
866.568319993703
 21
415.2200194225321
 31
0.0
 12
866.388319993703
 22
415.2500194225321
 32
0.0
 13
866.388319993703
 23
415.2500194225321
 33
0.0
  0
SOLID
  5
2141
330
2139
100
AcDbEntity
  8
0
 62
     0
440
 16777216
100
AcDbTrace
 10
869.2124830497375
 20
415.2800194225322
 30
0.0
 11
869.2124830497375
 21
415.2200194225321
 31
0.0
 12
869.3924830497374
 22
415.2500194225321
 32
0.0
 13
869.3924830497374
 23
415.2500194225321
 33
0.0
  0
MTEXT
  5
2142
330
2139
100
AcDbEntity
  8
0
 62
     0
440
 16777216
100
AcDbMText
 10
867.8904015217201
 20
415.2500194225321
 30
0.0
 40
0.18
 41
0.0
 46
0.0
 71
     5
 72
     1
  1
\A1;3.0042
 73
     1
 44
1.0
  0
POINT
  5
2143
330
2139
100
AcDbEntity
  8
Defpoints
 62
     0
440
 16777216
100
AcDbPoint
 10
866.388319993703
 20
447.7917030520033
 30
0.0
  0
POINT
  5
2144
330
2139
100
AcDbEntity
  8
Defpoints
 62
     0
440
 16777216
100
AcDbPoint
 10
869.3924830497374
 20
447.7917030520033
 30
0.0
  0
POINT
  5
2145
330
2139
100
AcDbEntity
  8
Defpoints
 62
     0
440
 16777216
100
AcDbPoint
 10
869.3924830497374
 20
415.2500194225321
 30
0.0
  0
ENDBLK
  5
213B
330
2139
100
AcDbEntity
  8
0
100
AcDbBlockEnd
  0
BLOCK
  5
2149
330
2148
100
AcDbEntity
  8
0
100
AcDbBlockBegin
  2
*D23
 70
     1
 10
0.0
 20
0.0
 30
0.0
  3
*D23
  1

  0
LINE
  5
214B
330
2148
100
AcDbEntity
  8
0
 62
     0
440
 16777216
370
    -2
100
AcDbLine
 10
1296.197856717411
 20
502.8615118585453
 30
0.0
 11
1296.197856717411
 21
544.8195848787332
 31
0.0
  0
LINE
  5
214C
330
2148
100
AcDbEntity
  8
0
 62
     0
440
 16777216
370
    -2
100
AcDbLine
 10
1181.197856717411
 20
467.4372477898332
 30
0.0
 11
1181.197856717411
 21
544.8195848787332
 31
0.0
  0
LINE
  5
214D
330
2148
100
AcDbEntity
  8
0
 62
     0
440
 16777216
370
    -2
100
AcDbLine
 10
1296.017856717411
 20
544.6395848787333
 30
0.0
 11
1239.297856717411
 21
544.6395848787333
 31
0.0
  0
LINE
  5
214E
330
2148
100
AcDbEntity
  8
0
 62
     0
440
 16777216
370
    -2
100
AcDbLine
 10
1181.377856717411
 20
544.6395848787333
 30
0.0
 11
1238.097856717411
 21
544.6395848787333
 31
0.0
  0
SOLID
  5
214F
330
2148
100
AcDbEntity
  8
0
 62
     0
440
 16777216
100
AcDbTrace
 10
1296.017856717411
 20
544.6695848787332
 30
0.0
 11
1296.017856717411
 21
544.6095848787332
 31
0.0
 12
1296.197856717411
 22
544.6395848787333
 32
0.0
 13
1296.197856717411
 23
544.6395848787333
 33
0.0
  0
SOLID
  5
2150
330
2148
100
AcDbEntity
  8
0
 62
     0
440
 16777216
100
AcDbTrace
 10
1181.377856717411
 20
544.6695848787332
 30
0.0
 11
1181.377856717411
 21
544.6095848787332
 31
0.0
 12
1181.197856717411
 22
544.6395848787333
 32
0.0
 13
1181.197856717411
 23
544.6395848787333
 33
0.0
  0
MTEXT
  5
2151
330
2148
100
AcDbEntity
  8
0
 62
     0
440
 16777216
100
AcDbMText
 10
1238.697856717411
 20
544.6395848787333
 30
0.0
 40
0.18
 41
0.0
 46
0.0
 71
     5
 72
     1
  1
\A1;115.0000
 73
     1
 44
1.0
  0
POINT
  5
2152
330
2148
100
AcDbEntity
  8
Defpoints
 62
     0
440
 16777216
100
AcDbPoint
 10
1296.197856717411
 20
502.7990118585453
 30
0.0
  0
POINT
  5
2153
330
2148
100
AcDbEntity
  8
Defpoints
 62
     0
440
 16777216
100
AcDbPoint
 10
1181.197856717411
 20
467.3747477898332
 30
0.0
  0
POINT
  5
2154
330
2148
100
AcDbEntity
  8
Defpoints
 62
     0
440
 16777216
100
AcDbPoint
 10
1181.197856717411
 20
544.6395848787333
 30
0.0
  0
ENDBLK
  5
214A
330
2148
100
AcDbEntity
  8
0
100
AcDbBlockEnd
  0
BLOCK
  5
27E9
330
27E8
100
AcDbEntity
  8
0
100
AcDbBlockBegin
  2
*D24
 70
     1
 10
0.0
 20
0.0
 30
0.0
  3
*D24
  1

  0
LINE
  5
27EB
330
27E8
100
AcDbEntity
  8
0
 62
     0
440
 16777216
370
    -2
100
AcDbLine
 10
1148.312193357678
 20
423.4947680885687
 30
0.0
 11
1148.312193357678
 21
394.0395660055713
 31
0.0
  0
LINE
  5
27EC
330
27E8
100
AcDbEntity
  8
0
 62
     0
440
 16777216
370
    -2
100
AcDbLine
 10
1355.312193357679
 20
421.9947680885687
 30
0.0
 11
1355.312193357679
 21
394.0395660055713
 31
0.0
  0
LINE
  5
27ED
330
27E8
100
AcDbEntity
  8
0
 62
     0
440
 16777216
370
    -2
100
AcDbLine
 10
1148.492193357678
 20
394.2195660055713
 30
0.0
 11
1251.167193357678
 21
394.2195660055713
 31
0.0
  0
LINE
  5
27EE
330
27E8
100
AcDbEntity
  8
0
 62
     0
440
 16777216
370
    -2
100
AcDbLine
 10
1355.132193357679
 20
394.2195660055713
 30
0.0
 11
1252.457193357678
 21
394.2195660055713
 31
0.0
  0
SOLID
  5
27EF
330
27E8
100
AcDbEntity
  8
0
 62
     0
440
 16777216
100
AcDbTrace
 10
1148.492193357678
 20
394.2495660055713
 30
0.0
 11
1148.492193357678
 21
394.1895660055714
 31
0.0
 12
1148.312193357678
 22
394.2195660055713
 32
0.0
 13
1148.312193357678
 23
394.2195660055713
 33
0.0
  0
SOLID
  5
27F0
330
27E8
100
AcDbEntity
  8
0
 62
     0
440
 16777216
100
AcDbTrace
 10
1355.132193357679
 20
394.2495660055713
 30
0.0
 11
1355.132193357679
 21
394.1895660055714
 31
0.0
 12
1355.312193357679
 22
394.2195660055713
 32
0.0
 13
1355.312193357679
 23
394.2195660055713
 33
0.0
  0
MTEXT
  5
27F1
330
27E8
100
AcDbEntity
  8
0
 62
     0
440
 16777216
100
AcDbMText
 10
1251.812193357678
 20
394.2195660055713
 30
0.0
 40
0.18
 41
0.0
 46
0.0
 71
     5
 72
     1
  1
\A1;207.0000
 73
     1
 44
1.0
  0
POINT
  5
27F2
330
27E8
100
AcDbEntity
  8
Defpoints
 62
     0
440
 16777216
100
AcDbPoint
 10
1148.312193357678
 20
423.5572680885686
 30
0.0
  0
POINT
  5
27F3
330
27E8
100
AcDbEntity
  8
Defpoints
 62
     0
440
 16777216
100
AcDbPoint
 10
1355.312193357679
 20
422.0572680885688
 30
0.0
  0
POINT
  5
27F4
330
27E8
100
AcDbEntity
  8
Defpoints
 62
     0
440
 16777216
100
AcDbPoint
 10
1355.312193357679
 20
394.2195660055713
 30
0.0
  0
ENDBLK
  5
27EA
330
27E8
100
AcDbEntity
  8
0
100
AcDbBlockEnd
  0
BLOCK
  5
27F8
330
27F7
100
AcDbEntity
  8
0
100
AcDbBlockBegin
  2
*D25
 70
     1
 10
0.0
 20
0.0
 30
0.0
  3
*D25
  1

  0
LINE
  5
27FA
330
27F7
100
AcDbEntity
  8
0
 62
     0
440
 16777216
370
    -2
100
AcDbLine
 10
1052.388932243386
 20
269.0379355713985
 30
0.0
 11
1052.388932243386
 21
196.2205942543472
 31
0.0
  0
LINE
  5
27FB
330
27F7
100
AcDbEntity
  8
0
 62
     0
440
 16777216
370
    -2
100
AcDbLine
 10
1053.988932243386
 20
269.0379355713985
 30
0.0
 11
1053.988932243386
 21
196.2205942543472
 31
0.0
  0
LINE
  5
27FC
330
27F7
100
AcDbEntity
  8
0
 62
     0
440
 16777216
370
    -2
100
AcDbLine
 10
1052.568932243386
 20
196.4005942543472
 30
0.0
 11
1052.723932243386
 21
196.4005942543472
 31
0.0
  0
LINE
  5
27FD
330
27F7
100
AcDbEntity
  8
0
 62
     0
440
 16777216
370
    -2
100
AcDbLine
 10
1053.808932243386
 20
196.4005942543472
 30
0.0
 11
1053.653932243386
 21
196.4005942543472
 31
0.0
  0
SOLID
  5
27FE
330
27F7
100
AcDbEntity
  8
0
 62
     0
440
 16777216
100
AcDbTrace
 10
1052.568932243386
 20
196.4305942543472
 30
0.0
 11
1052.568932243386
 21
196.3705942543472
 31
0.0
 12
1052.388932243386
 22
196.4005942543472
 32
0.0
 13
1052.388932243386
 23
196.4005942543472
 33
0.0
  0
SOLID
  5
27FF
330
27F7
100
AcDbEntity
  8
0
 62
     0
440
 16777216
100
AcDbTrace
 10
1053.808932243386
 20
196.4305942543472
 30
0.0
 11
1053.808932243386
 21
196.3705942543472
 31
0.0
 12
1053.988932243386
 22
196.4005942543472
 32
0.0
 13
1053.988932243386
 23
196.4005942543472
 33
0.0
  0
MTEXT
  5
2800
330
27F7
100
AcDbEntity
  8
0
 62
     0
440
 16777216
100
AcDbMText
 10
1053.188932243386
 20
196.4005942543472
 30
0.0
 40
0.18
 41
0.0
 46
0.0
 71
     5
 72
     1
  1
\A1;1.6000
 73
     1
 44
1.0
  0
POINT
  5
2801
330
27F7
100
AcDbEntity
  8
Defpoints
 62
     0
440
 16777216
100
AcDbPoint
 10
1052.388932243386
 20
269.1004355713985
 30
0.0
  0
POINT
  5
2802
330
27F7
100
AcDbEntity
  8
Defpoints
 62
     0
440
 16777216
100
AcDbPoint
 10
1053.988932243386
 20
269.1004355713985
 30
0.0
  0
POINT
  5
2803
330
27F7
100
AcDbEntity
  8
Defpoints
 62
     0
440
 16777216
100
AcDbPoint
 10
1053.988932243386
 20
196.4005942543472
 30
0.0
  0
ENDBLK
  5
27F9
330
27F7
100
AcDbEntity
  8
0
100
AcDbBlockEnd
  0
BLOCK
  5
2807
330
2806
100
AcDbEntity
  8
0
100
AcDbBlockBegin
  2
*D26
 70
     1
 10
0.0
 20
0.0
 30
0.0
  3
*D26
  1

  0
LINE
  5
2809
330
2806
100
AcDbEntity
  8
0
 62
     0
440
 16777216
370
    -2
100
AcDbLine
 10
1528.414642119927
 20
538.4947680885687
 30
0.0
 11
1528.414642119927
 21
480.6588638800606
 31
0.0
  0
LINE
  5
280A
330
2806
100
AcDbEntity
  8
0
 62
     0
440
 16777216
370
    -2
100
AcDbLine
 10
1486.614642119926
 20
538.4947680885687
 30
0.0
 11
1486.614642119926
 21
480.6588638800606
 31
0.0
  0
LINE
  5
280B
330
2806
100
AcDbEntity
  8
0
 62
     0
440
 16777216
370
    -2
100
AcDbLine
 10
1528.234642119927
 20
480.8388638800606
 30
0.0
 11
1508.069642119927
 21
480.8388638800606
 31
0.0
  0
LINE
  5
280C
330
2806
100
AcDbEntity
  8
0
 62
     0
440
 16777216
370
    -2
100
AcDbLine
 10
1486.794642119926
 20
480.8388638800606
 30
0.0
 11
1506.959642119926
 21
480.8388638800606
 31
0.0
  0
SOLID
  5
280D
330
2806
100
AcDbEntity
  8
0
 62
     0
440
 16777216
100
AcDbTrace
 10
1528.234642119927
 20
480.8688638800606
 30
0.0
 11
1528.234642119927
 21
480.8088638800606
 31
0.0
 12
1528.414642119927
 22
480.8388638800606
 32
0.0
 13
1528.414642119927
 23
480.8388638800606
 33
0.0
  0
SOLID
  5
280E
330
2806
100
AcDbEntity
  8
0
 62
     0
440
 16777216
100
AcDbTrace
 10
1486.794642119926
 20
480.8688638800606
 30
0.0
 11
1486.794642119926
 21
480.8088638800606
 31
0.0
 12
1486.614642119926
 22
480.8388638800606
 32
0.0
 13
1486.614642119926
 23
480.8388638800606
 33
0.0
  0
MTEXT
  5
280F
330
2806
100
AcDbEntity
  8
0
 62
     0
440
 16777216
100
AcDbMText
 10
1507.514642119927
 20
480.8388638800606
 30
0.0
 40
0.18
 41
0.0
 46
0.0
 71
     5
 72
     1
  1
\A1;41.8000
 73
     1
 44
1.0
  0
POINT
  5
2810
330
2806
100
AcDbEntity
  8
Defpoints
 62
     0
440
 16777216
100
AcDbPoint
 10
1528.414642119927
 20
538.5572680885688
 30
0.0
  0
POINT
  5
2811
330
2806
100
AcDbEntity
  8
Defpoints
 62
     0
440
 16777216
100
AcDbPoint
 10
1486.614642119926
 20
538.5572680885688
 30
0.0
  0
POINT
  5
2812
330
2806
100
AcDbEntity
  8
Defpoints
 62
     0
440
 16777216
100
AcDbPoint
 10
1486.614642119926
 20
480.8388638800606
 30
0.0
  0
ENDBLK
  5
2808
330
2806
100
AcDbEntity
  8
0
100
AcDbBlockEnd
  0
BLOCK
  5
2818
330
2817
100
AcDbEntity
  8
0
100
AcDbBlockBegin
  2
*D27
 70
     1
 10
0.0
 20
0.0
 30
0.0
  3
*D27
  1

  0
LINE
  5
281A
330
2817
100
AcDbEntity
  8
0
 62
     0
440
 16777216
370
    -2
100
AcDbLine
 10
770.3889322433861
 20
393.1342113351129
 30
0.0
 11
770.3889322433861
 21
349.7458961147152
 31
0.0
  0
LINE
  5
281B
330
2817
100
AcDbEntity
  8
0
 62
     0
440
 16777216
370
    -2
100
AcDbLine
 10
1053.988932243386
 20
393.1342113351129
 30
0.0
 11
1053.988932243386
 21
349.7458961147152
 31
0.0
  0
LINE
  5
281C
330
2817
100
AcDbEntity
  8
0
 62
     0
440
 16777216
370
    -2
100
AcDbLine
 10
770.5689322433859
 20
349.9258961147152
 30
0.0
 11
911.513932243386
 21
349.9258961147152
 31
0.0
  0
LINE
  5
281D
330
2817
100
AcDbEntity
  8
0
 62
     0
440
 16777216
370
    -2
100
AcDbLine
 10
1053.808932243386
 20
349.9258961147152
 30
0.0
 11
912.8639322433858
 21
349.9258961147152
 31
0.0
  0
SOLID
  5
281E
330
2817
100
AcDbEntity
  8
0
 62
     0
440
 16777216
100
AcDbTrace
 10
770.5689322433859
 20
349.9558961147152
 30
0.0
 11
770.5689322433859
 21
349.8958961147152
 31
0.0
 12
770.3889322433861
 22
349.9258961147152
 32
0.0
 13
770.3889322433861
 23
349.9258961147152
 33
0.0
  0
SOLID
  5
281F
330
2817
100
AcDbEntity
  8
0
 62
     0
440
 16777216
100
AcDbTrace
 10
1053.808932243386
 20
349.9558961147152
 30
0.0
 11
1053.808932243386
 21
349.8958961147152
 31
0.0
 12
1053.988932243386
 22
349.9258961147152
 32
0.0
 13
1053.988932243386
 23
349.9258961147152
 33
0.0
  0
MTEXT
  5
2820
330
2817
100
AcDbEntity
  8
0
 62
     0
440
 16777216
100
AcDbMText
 10
912.1889322433858
 20
349.9258961147152
 30
0.0
 40
0.18
 41
0.0
 46
0.0
 71
     5
 72
     1
  1
\A1;283.6000
 73
     1
 44
1.0
  0
POINT
  5
2821
330
2817
100
AcDbEntity
  8
Defpoints
 62
     0
440
 16777216
100
AcDbPoint
 10
770.3889322433861
 20
393.1967113351129
 30
0.0
  0
POINT
  5
2822
330
2817
100
AcDbEntity
  8
Defpoints
 62
     0
440
 16777216
100
AcDbPoint
 10
1053.988932243386
 20
393.1967113351129
 30
0.0
  0
POINT
  5
2823
330
2817
100
AcDbEntity
  8
Defpoints
 62
     0
440
 16777216
100
AcDbPoint
 10
1053.988932243386
 20
349.9258961147152
 30
0.0
  0
ENDBLK
  5
2819
330
2817
100
AcDbEntity
  8
0
100
AcDbBlockEnd
  0
BLOCK
  5
2826
330
2825
100
AcDbEntity
  8
0
100
AcDbBlockBegin
  2
*D28
 70
     1
 10
0.0
 20
0.0
 30
0.0
  3
*D28
  1

  0
LINE
  5
2828
330
2825
100
AcDbEntity
  8
0
 62
     0
440
 16777216
370
    -2
100
AcDbLine
 10
1148.312193357678
 20
607.3493132507119
 30
0.0
 11
1148.312193357678
 21
654.6500534787806
 31
0.0
  0
LINE
  5
2829
330
2825
100
AcDbEntity
  8
0
 62
     0
440
 16777216
370
    -2
100
AcDbLine
 10
1355.312193357679
 20
607.3493132507119
 30
0.0
 11
1355.312193357679
 21
654.6500534787806
 31
0.0
  0
LINE
  5
282A
330
2825
100
AcDbEntity
  8
0
 62
     0
440
 16777216
370
    -2
100
AcDbLine
 10
1148.492193357678
 20
654.4700534787807
 30
0.0
 11
1251.167193357678
 21
654.4700534787807
 31
0.0
  0
LINE
  5
282B
330
2825
100
AcDbEntity
  8
0
 62
     0
440
 16777216
370
    -2
100
AcDbLine
 10
1355.132193357679
 20
654.4700534787807
 30
0.0
 11
1252.457193357678
 21
654.4700534787807
 31
0.0
  0
SOLID
  5
282C
330
2825
100
AcDbEntity
  8
0
 62
     0
440
 16777216
100
AcDbTrace
 10
1148.492193357678
 20
654.5000534787807
 30
0.0
 11
1148.492193357678
 21
654.4400534787808
 31
0.0
 12
1148.312193357678
 22
654.4700534787807
 32
0.0
 13
1148.312193357678
 23
654.4700534787807
 33
0.0
  0
SOLID
  5
282D
330
2825
100
AcDbEntity
  8
0
 62
     0
440
 16777216
100
AcDbTrace
 10
1355.132193357679
 20
654.5000534787807
 30
0.0
 11
1355.132193357679
 21
654.4400534787808
 31
0.0
 12
1355.312193357679
 22
654.4700534787807
 32
0.0
 13
1355.312193357679
 23
654.4700534787807
 33
0.0
  0
MTEXT
  5
282E
330
2825
100
AcDbEntity
  8
0
 62
     0
440
 16777216
100
AcDbMText
 10
1251.812193357678
 20
654.4700534787807
 30
0.0
 40
0.18
 41
0.0
 46
0.0
 71
     5
 72
     1
  1
\A1;207.0000
 73
     1
 44
1.0
  0
POINT
  5
282F
330
2825
100
AcDbEntity
  8
Defpoints
 62
     0
440
 16777216
100
AcDbPoint
 10
1148.312193357678
 20
607.2868132507119
 30
0.0
  0
POINT
  5
2830
330
2825
100
AcDbEntity
  8
Defpoints
 62
     0
440
 16777216
100
AcDbPoint
 10
1355.312193357679
 20
607.2868132507119
 30
0.0
  0
POINT
  5
2831
330
2825
100
AcDbEntity
  8
Defpoints
 62
     0
440
 16777216
100
AcDbPoint
 10
1355.312193357679
 20
654.4700534787807
 30
0.0
  0
ENDBLK
  5
2827
330
2825
100
AcDbEntity
  8
0
100
AcDbBlockEnd
  0
BLOCK
  5
2876
330
2875
100
AcDbEntity
  8
0
100
AcDbBlockBegin
  2
*D29
 70
     1
 10
0.0
 20
0.0
 30
0.0
  3
*D29
  1

  0
LINE
  5
28B4
330
2875
100
AcDbEntity
  8
0
 62
     0
440
 16777216
370
    -2
100
AcDbLine
 10
1528.414642119927
 20
578.0705040198567
 30
0.0
 11
1528.414642119927
 21
62.53914717430814
 31
0.0
  0
LINE
  5
28B5
330
2875
100
AcDbEntity
  8
0
 62
     0
440
 16777216
370
    -2
100
AcDbLine
 10
1486.614642119926
 20
578.0705040198567
 30
0.0
 11
1486.614642119926
 21
62.53914717430814
 31
0.0
  0
LINE
  5
28B6
330
2875
100
AcDbEntity
  8
0
 62
     0
440
 16777216
370
    -2
100
AcDbLine
 10
1520.414642119927
 20
62.71914717430809
 30
0.0
 11
1494.614642119926
 21
62.71914717430809
 31
0.0
  0
LINE
  5
28B7
330
2875
100
AcDbEntity
  8
0
 62
     0
440
 16777216
370
    -2
100
AcDbLine
 10
1486.614642119926
 20
62.71914717430809
 30
0.0
 11
1478.614642119926
 21
62.71914717430809
 31
0.0
  0
SOLID
  5
28B8
330
2875
100
AcDbEntity
  8
0
 62
     0
440
 16777216
100
AcDbTrace
 10
1520.414642119927
 20
64.05248050764142
 30
0.0
 11
1520.414642119927
 21
61.38581384097475
 31
0.0
 12
1528.414642119927
 22
62.71914717430809
 32
0.0
 13
1528.414642119927
 23
62.71914717430809
 33
0.0
  0
SOLID
  5
28B9
330
2875
100
AcDbEntity
  8
0
 62
     0
440
 16777216
100
AcDbTrace
 10
1494.614642119926
 20
64.05248050764142
 30
0.0
 11
1494.614642119926
 21
61.38581384097475
 31
0.0
 12
1486.614642119926
 22
62.71914717430809
 32
0.0
 13
1486.614642119926
 23
62.71914717430809
 33
0.0
  0
MTEXT
  5
28BA
330
2875
100
AcDbEntity
  8
0
 62
     0
440
 16777216
100
AcDbMText
 10
1466.947975453259
 20
62.71914717430809
 30
0.0
 40
8.0
 41
0.0
 46
0.0
 71
     5
 72
     1
  1
\A1;42
 73
     1
 44
1.0
  0
POINT
  5
28BB
330
2875
100
AcDbEntity
  8
Defpoints
 62
     0
440
 16777216
100
AcDbPoint
 10
1528.414642119927
 20
578.1330040198566
 30
0.0
  0
POINT
  5
28BC
330
2875
100
AcDbEntity
  8
Defpoints
 62
     0
440
 16777216
100
AcDbPoint
 10
1486.614642119926
 20
578.1330040198566
 30
0.0
  0
POINT
  5
28BD
330
2875
100
AcDbEntity
  8
Defpoints
 62
     0
440
 16777216
100
AcDbPoint
 10
1486.614642119926
 20
62.71914717430809
 30
0.0
  0
ENDBLK
  5
2877
330
2875
100
AcDbEntity
  8
0
100
AcDbBlockEnd
  0
BLOCK
  5
28C0
330
28BF
100
AcDbEntity
  8
0
100
AcDbBlockBegin
  2
*D30
 70
     1
 10
0.0
 20
0.0
 30
0.0
  3
*D30
  1

  0
LINE
  5
28E4
330
28BF
100
AcDbEntity
  8
0
 62
     0
440
 16777216
370
    -2
100
AcDbLine
 10
1575.414642119927
 20
283.4947680885688
 30
0.0
 11
1575.414642119927
 21
113.7403273336852
 31
0.0
  0
LINE
  5
28E5
330
28BF
100
AcDbEntity
  8
0
 62
     0
440
 16777216
370
    -2
100
AcDbLine
 10
1528.414642119927
 20
283.4947680885688
 30
0.0
 11
1528.414642119927
 21
113.7403273336852
 31
0.0
  0
LINE
  5
28E6
330
28BF
100
AcDbEntity
  8
0
 62
     0
440
 16777216
370
    -2
100
AcDbLine
 10
1567.414642119927
 20
113.9203273336852
 30
0.0
 11
1536.414642119927
 21
113.9203273336852
 31
0.0
  0
LINE
  5
28E7
330
28BF
100
AcDbEntity
  8
0
 62
     0
440
 16777216
370
    -2
100
AcDbLine
 10
1528.414642119927
 20
113.9203273336852
 30
0.0
 11
1520.414642119927
 21
113.9203273336852
 31
0.0
  0
SOLID
  5
28E8
330
28BF
100
AcDbEntity
  8
0
 62
     0
440
 16777216
100
AcDbTrace
 10
1567.414642119927
 20
115.2536606670185
 30
0.0
 11
1567.414642119927
 21
112.5869940003519
 31
0.0
 12
1575.414642119927
 22
113.9203273336852
 32
0.0
 13
1575.414642119927
 23
113.9203273336852
 33
0.0
  0
SOLID
  5
28E9
330
28BF
100
AcDbEntity
  8
0
 62
     0
440
 16777216
100
AcDbTrace
 10
1536.414642119927
 20
115.2536606670185
 30
0.0
 11
1536.414642119927
 21
112.5869940003519
 31
0.0
 12
1528.414642119927
 22
113.9203273336852
 32
0.0
 13
1528.414642119927
 23
113.9203273336852
 33
0.0
  0
MTEXT
  5
28EA
330
28BF
100
AcDbEntity
  8
0
 62
     0
440
 16777216
100
AcDbMText
 10
1508.74797545326
 20
113.9203273336852
 30
0.0
 40
8.0
 41
0.0
 46
0.0
 71
     5
 72
     1
  1
\A1;47
 73
     1
 44
1.0
  0
POINT
  5
28EB
330
28BF
100
AcDbEntity
  8
Defpoints
 62
     0
440
 16777216
100
AcDbPoint
 10
1575.414642119927
 20
283.5572680885688
 30
0.0
  0
POINT
  5
28EC
330
28BF
100
AcDbEntity
  8
Defpoints
 62
     0
440
 16777216
100
AcDbPoint
 10
1528.414642119927
 20
283.5572680885688
 30
0.0
  0
POINT
  5
28ED
330
28BF
100
AcDbEntity
  8
Defpoints
 62
     0
440
 16777216
100
AcDbPoint
 10
1528.414642119927
 20
113.9203273336852
 30
0.0
  0
ENDBLK
  5
28C1
330
28BF
100
AcDbEntity
  8
0
100
AcDbBlockEnd
  0
BLOCK
  5
28CE
330
28CD
100
AcDbEntity
  8
0
100
AcDbBlockBegin
  2
*D31
 70
     1
 10
0.0
 20
0.0
 30
0.0
  3
*D31
  1

  0
LINE
  5
28DA
330
28CD
100
AcDbEntity
  8
0
 62
     0
440
 16777216
370
    -2
100
AcDbLine
 10
1575.414642119927
 20
283.4322680885687
 30
0.0
 11
1575.414642119927
 21
130.1621004963138
 31
0.0
  0
LINE
  5
28DB
330
28CD
100
AcDbEntity
  8
0
 62
     0
440
 16777216
370
    -2
100
AcDbLine
 10
1707.414642119927
 20
283.4947680885688
 30
0.0
 11
1707.414642119927
 21
130.1621004963138
 31
0.0
  0
LINE
  5
28DC
330
28CD
100
AcDbEntity
  8
0
 62
     0
440
 16777216
370
    -2
100
AcDbLine
 10
1583.414642119927
 20
130.3421004963138
 30
0.0
 11
1627.081308786594
 21
130.3421004963138
 31
0.0
  0
LINE
  5
28DD
330
28CD
100
AcDbEntity
  8
0
 62
     0
440
 16777216
370
    -2
100
AcDbLine
 10
1699.414642119927
 20
130.3421004963138
 30
0.0
 11
1655.74797545326
 21
130.3421004963138
 31
0.0
  0
SOLID
  5
28DE
330
28CD
100
AcDbEntity
  8
0
 62
     0
440
 16777216
100
AcDbTrace
 10
1583.414642119927
 20
131.6754338296471
 30
0.0
 11
1583.414642119927
 21
129.0087671629805
 31
0.0
 12
1575.414642119927
 22
130.3421004963138
 32
0.0
 13
1575.414642119927
 23
130.3421004963138
 33
0.0
  0
SOLID
  5
28DF
330
28CD
100
AcDbEntity
  8
0
 62
     0
440
 16777216
100
AcDbTrace
 10
1699.414642119927
 20
131.6754338296471
 30
0.0
 11
1699.414642119927
 21
129.0087671629805
 31
0.0
 12
1707.414642119927
 22
130.3421004963138
 32
0.0
 13
1707.414642119927
 23
130.3421004963138
 33
0.0
  0
MTEXT
  5
28E0
330
28CD
100
AcDbEntity
  8
0
 62
     0
440
 16777216
100
AcDbMText
 10
1641.414642119927
 20
130.3421004963138
 30
0.0
 40
8.0
 41
0.0
 46
0.0
 71
     5
 72
     1
  1
\A1;132
 73
     1
 44
1.0
  0
POINT
  5
28E1
330
28CD
100
AcDbEntity
  8
Defpoints
 62
     0
440
 16777216
100
AcDbPoint
 10
1575.414642119927
 20
283.4947680885688
 30
0.0
  0
POINT
  5
28E2
330
28CD
100
AcDbEntity
  8
Defpoints
 62
     0
440
 16777216
100
AcDbPoint
 10
1707.414642119927
 20
283.5572680885688
 30
0.0
  0
POINT
  5
28E3
330
28CD
100
AcDbEntity
  8
Defpoints
 62
     0
440
 16777216
100
AcDbPoint
 10
1707.414642119927
 20
130.3421004963138
 30
0.0
  0
ENDBLK
  5
28CF
330
28CD
100
AcDbEntity
  8
0
100
AcDbBlockEnd
  0
BLOCK
  5
28F2
330
28F1
100
AcDbEntity
  8
0
100
AcDbBlockBegin
  2
*D32
 70
     1
 10
0.0
 20
0.0
 30
0.0
  3
*D32
  1

  0
LINE
  5
28F4
330
28F1
100
AcDbEntity
  8
0
 62
     0
440
 16777216
370
    -2
100
AcDbLine
 10
811.9889322433861
 20
152.4307962161865
 30
0.0
 11
811.9889322433861
 21
183.6904023219137
 31
0.0
  0
LINE
  5
28F5
330
28F1
100
AcDbEntity
  8
0
 62
     0
440
 16777216
370
    -2
100
AcDbLine
 10
858.9889322433862
 20
152.4307962161865
 30
0.0
 11
858.9889322433862
 21
183.6904023219137
 31
0.0
  0
LINE
  5
28F6
330
28F1
100
AcDbEntity
  8
0
 62
     0
440
 16777216
370
    -2
100
AcDbLine
 10
812.1689322433862
 20
183.5104023219137
 30
0.0
 11
834.918932243386
 21
183.5104023219137
 31
0.0
  0
LINE
  5
28F7
330
28F1
100
AcDbEntity
  8
0
 62
     0
440
 16777216
370
    -2
100
AcDbLine
 10
858.8089322433862
 20
183.5104023219137
 30
0.0
 11
836.0589322433863
 21
183.5104023219137
 31
0.0
  0
SOLID
  5
28F8
330
28F1
100
AcDbEntity
  8
0
 62
     0
440
 16777216
100
AcDbTrace
 10
812.1689322433862
 20
183.5404023219137
 30
0.0
 11
812.1689322433862
 21
183.4804023219137
 31
0.0
 12
811.9889322433861
 22
183.5104023219137
 32
0.0
 13
811.9889322433861
 23
183.5104023219137
 33
0.0
  0
SOLID
  5
28F9
330
28F1
100
AcDbEntity
  8
0
 62
     0
440
 16777216
100
AcDbTrace
 10
858.8089322433862
 20
183.5404023219137
 30
0.0
 11
858.8089322433862
 21
183.4804023219137
 31
0.0
 12
858.9889322433862
 22
183.5104023219137
 32
0.0
 13
858.9889322433862
 23
183.5104023219137
 33
0.0
  0
MTEXT
  5
28FA
330
28F1
100
AcDbEntity
  8
0
 62
     0
440
 16777216
100
AcDbMText
 10
835.4889322433862
 20
183.5104023219137
 30
0.0
 40
0.18
 41
0.0
 46
0.0
 71
     5
 72
     1
  1
\A1;47.0000
 73
     1
 44
1.0
  0
POINT
  5
28FB
330
28F1
100
AcDbEntity
  8
Defpoints
 62
     0
440
 16777216
100
AcDbPoint
 10
811.9889322433861
 20
152.3682962161865
 30
0.0
  0
POINT
  5
28FC
330
28F1
100
AcDbEntity
  8
Defpoints
 62
     0
440
 16777216
100
AcDbPoint
 10
858.9889322433862
 20
152.3682962161865
 30
0.0
  0
POINT
  5
28FD
330
28F1
100
AcDbEntity
  8
Defpoints
 62
     0
440
 16777216
100
AcDbPoint
 10
858.9889322433862
 20
183.5104023219137
 30
0.0
  0
ENDBLK
  5
28F3
330
28F1
100
AcDbEntity
  8
0
100
AcDbBlockEnd
  0
BLOCK
  5
2900
330
28FF
100
AcDbEntity
  8
0
100
AcDbBlockBegin
  2
*D33
 70
     1
 10
0.0
 20
0.0
 30
0.0
  3
*D33
  1

  0
LINE
  5
2902
330
28FF
100
AcDbEntity
  8
0
 62
     0
440
 16777216
370
    -2
100
AcDbLine
 10
1728.414642119927
 20
538.4947680885687
 30
0.0
 11
1728.414642119927
 21
104.6668236125554
 31
0.0
  0
LINE
  5
2903
330
28FF
100
AcDbEntity
  8
0
 62
     0
440
 16777216
370
    -2
100
AcDbLine
 10
1707.414642119927
 20
323.0705040198568
 30
0.0
 11
1707.414642119927
 21
104.6668236125554
 31
0.0
  0
LINE
  5
2904
330
28FF
100
AcDbEntity
  8
0
 62
     0
440
 16777216
370
    -2
100
AcDbLine
 10
1728.234642119927
 20
104.8468236125554
 30
0.0
 11
1718.454642119927
 21
104.8468236125554
 31
0.0
  0
LINE
  5
2905
330
28FF
100
AcDbEntity
  8
0
 62
     0
440
 16777216
370
    -2
100
AcDbLine
 10
1707.594642119927
 20
104.8468236125554
 30
0.0
 11
1717.374642119927
 21
104.8468236125554
 31
0.0
  0
SOLID
  5
2906
330
28FF
100
AcDbEntity
  8
0
 62
     0
440
 16777216
100
AcDbTrace
 10
1728.234642119927
 20
104.8768236125554
 30
0.0
 11
1728.234642119927
 21
104.8168236125554
 31
0.0
 12
1728.414642119927
 22
104.8468236125554
 32
0.0
 13
1728.414642119927
 23
104.8468236125554
 33
0.0
  0
SOLID
  5
2907
330
28FF
100
AcDbEntity
  8
0
 62
     0
440
 16777216
100
AcDbTrace
 10
1707.594642119927
 20
104.8768236125554
 30
0.0
 11
1707.594642119927
 21
104.8168236125554
 31
0.0
 12
1707.414642119927
 22
104.8468236125554
 32
0.0
 13
1707.414642119927
 23
104.8468236125554
 33
0.0
  0
MTEXT
  5
2908
330
28FF
100
AcDbEntity
  8
0
 62
     0
440
 16777216
100
AcDbMText
 10
1717.914642119927
 20
104.8468236125554
 30
0.0
 40
0.18
 41
0.0
 46
0.0
 71
     5
 72
     1
  1
\A1;21.0000
 73
     1
 44
1.0
  0
POINT
  5
2909
330
28FF
100
AcDbEntity
  8
Defpoints
 62
     0
440
 16777216
100
AcDbPoint
 10
1728.414642119927
 20
538.5572680885688
 30
0.0
  0
POINT
  5
290A
330
28FF
100
AcDbEntity
  8
Defpoints
 62
     0
440
 16777216
100
AcDbPoint
 10
1707.414642119927
 20
323.1330040198569
 30
0.0
  0
POINT
  5
290B
330
28FF
100
AcDbEntity
  8
Defpoints
 62
     0
440
 16777216
100
AcDbPoint
 10
1707.414642119927
 20
104.8468236125554
 30
0.0
  0
ENDBLK
  5
2901
330
28FF
100
AcDbEntity
  8
0
100
AcDbBlockEnd
  0
BLOCK
  5
2E8C
330
2E8B
100
AcDbEntity
  8
0
100
AcDbBlockBegin
  2
*D34
 70
     1
 10
0.0
 20
0.0
 30
0.0
  3
*D34
  1

  0
LINE
  5
2E8E
330
2E8B
100
AcDbEntity
  8
0
 62
     0
440
 16777216
370
    -2
100
AcDbLine
 10
784.3516652221381
 20
623.1532601791315
 30
0.0
 11
784.3516652221381
 21
806.7044384994085
 31
0.0
  0
LINE
  5
2E8F
330
2E8B
100
AcDbEntity
  8
0
 62
     0
440
 16777216
370
    -2
100
AcDbLine
 10
1044.351665222138
 20
623.1532601791315
 30
0.0
 11
1044.351665222138
 21
806.7044384994085
 31
0.0
  0
LINE
  5
2E90
330
2E8B
100
AcDbEntity
  8
0
 62
     0
440
 16777216
370
    -2
100
AcDbLine
 10
784.5316652221379
 20
806.5244384994084
 30
0.0
 11
913.7066652221378
 21
806.5244384994084
 31
0.0
  0
LINE
  5
2E91
330
2E8B
100
AcDbEntity
  8
0
 62
     0
440
 16777216
370
    -2
100
AcDbLine
 10
1044.171665222138
 20
806.5244384994084
 30
0.0
 11
914.9966652221378
 21
806.5244384994084
 31
0.0
  0
SOLID
  5
2E92
330
2E8B
100
AcDbEntity
  8
0
 62
     0
440
 16777216
100
AcDbTrace
 10
784.5316652221379
 20
806.5544384994083
 30
0.0
 11
784.5316652221379
 21
806.4944384994086
 31
0.0
 12
784.3516652221381
 22
806.5244384994084
 32
0.0
 13
784.3516652221381
 23
806.5244384994084
 33
0.0
  0
SOLID
  5
2E93
330
2E8B
100
AcDbEntity
  8
0
 62
     0
440
 16777216
100
AcDbTrace
 10
1044.171665222138
 20
806.5544384994083
 30
0.0
 11
1044.171665222138
 21
806.4944384994086
 31
0.0
 12
1044.351665222138
 22
806.5244384994084
 32
0.0
 13
1044.351665222138
 23
806.5244384994084
 33
0.0
  0
MTEXT
  5
2E94
330
2E8B
100
AcDbEntity
  8
0
 62
     0
440
 16777216
100
AcDbMText
 10
914.351665222138
 20
806.5244384994084
 30
0.0
 40
0.18
 41
0.0
 46
0.0
 71
     5
 72
     1
  1
\A1;260.0000
 73
     1
 44
1.0
  0
POINT
  5
2E95
330
2E8B
100
AcDbEntity
  8
Defpoints
 62
     0
440
 16777216
100
AcDbPoint
 10
784.3516652221381
 20
623.0907601791315
 30
0.0
  0
POINT
  5
2E96
330
2E8B
100
AcDbEntity
  8
Defpoints
 62
     0
440
 16777216
100
AcDbPoint
 10
1044.351665222138
 20
623.0907601791315
 30
0.0
  0
POINT
  5
2E97
330
2E8B
100
AcDbEntity
  8
Defpoints
 62
     0
440
 16777216
100
AcDbPoint
 10
1044.351665222138
 20
806.5244384994084
 30
0.0
  0
ENDBLK
  5
2E8D
330
2E8B
100
AcDbEntity
  8
0
100
AcDbBlockEnd
  0
BLOCK
  5
2E9A
330
2E99
100
AcDbEntity
  8
0
100
AcDbBlockBegin
  2
*D35
 70
     1
 10
0.0
 20
0.0
 30
0.0
  3
*D35
  1

  0
LINE
  5
2E9C
330
2E99
100
AcDbEntity
  8
0
 62
     0
440
 16777216
370
    -2
100
AcDbLine
 10
1191.186419847298
 20
707.8920790770257
 30
0.0
 11
1191.186419847298
 21
757.087129095919
 31
0.0
  0
LINE
  5
2E9D
330
2E99
100
AcDbEntity
  8
0
 62
     0
440
 16777216
370
    -2
100
AcDbLine
 10
1328.186419847299
 20
707.8920790770257
 30
0.0
 11
1328.186419847299
 21
757.087129095919
 31
0.0
  0
LINE
  5
2E9E
330
2E99
100
AcDbEntity
  8
0
 62
     0
440
 16777216
370
    -2
100
AcDbLine
 10
1191.366419847298
 20
756.9071290959192
 30
0.0
 11
1259.056419847298
 21
756.9071290959192
 31
0.0
  0
LINE
  5
2E9F
330
2E99
100
AcDbEntity
  8
0
 62
     0
440
 16777216
370
    -2
100
AcDbLine
 10
1328.006419847299
 20
756.9071290959192
 30
0.0
 11
1260.316419847298
 21
756.9071290959192
 31
0.0
  0
SOLID
  5
2EA0
330
2E99
100
AcDbEntity
  8
0
 62
     0
440
 16777216
100
AcDbTrace
 10
1191.366419847298
 20
756.9371290959192
 30
0.0
 11
1191.366419847298
 21
756.8771290959191
 31
0.0
 12
1191.186419847298
 22
756.9071290959192
 32
0.0
 13
1191.186419847298
 23
756.9071290959192
 33
0.0
  0
SOLID
  5
2EA1
330
2E99
100
AcDbEntity
  8
0
 62
     0
440
 16777216
100
AcDbTrace
 10
1328.006419847299
 20
756.9371290959192
 30
0.0
 11
1328.006419847299
 21
756.8771290959191
 31
0.0
 12
1328.186419847299
 22
756.9071290959192
 32
0.0
 13
1328.186419847299
 23
756.9071290959192
 33
0.0
  0
MTEXT
  5
2EA2
330
2E99
100
AcDbEntity
  8
0
 62
     0
440
 16777216
100
AcDbMText
 10
1259.686419847298
 20
756.9071290959192
 30
0.0
 40
0.18
 41
0.0
 46
0.0
 71
     5
 72
     1
  1
\A1;137.0000
 73
     1
 44
1.0
  0
POINT
  5
2EA3
330
2E99
100
AcDbEntity
  8
Defpoints
 62
     0
440
 16777216
100
AcDbPoint
 10
1191.186419847298
 20
707.8295790770257
 30
0.0
  0
POINT
  5
2EA4
330
2E99
100
AcDbEntity
  8
Defpoints
 62
     0
440
 16777216
100
AcDbPoint
 10
1328.186419847299
 20
707.8295790770257
 30
0.0
  0
POINT
  5
2EA5
330
2E99
100
AcDbEntity
  8
Defpoints
 62
     0
440
 16777216
100
AcDbPoint
 10
1328.186419847299
 20
756.9071290959192
 30
0.0
  0
ENDBLK
  5
2E9B
330
2E99
100
AcDbEntity
  8
0
100
AcDbBlockEnd
  0
BLOCK
  5
2EE8
330
2EE7
100
AcDbEntity
  8
0
100
AcDbBlockBegin
  2
*D36
 70
     1
 10
0.0
 20
0.0
 30
0.0
  3
*D36
  1

  0
LINE
  5
2EEA
330
2EE7
100
AcDbEntity
  8
0
 62
     0
440
 16777216
370
    -2
100
AcDbLine
 10
1542.559152786395
 20
504.1010583095433
 30
0.0
 11
1542.559152786395
 21
571.3056621270112
 31
0.0
  0
LINE
  5
2EEB
330
2EE7
100
AcDbEntity
  8
0
 62
     0
440
 16777216
370
    -2
100
AcDbLine
 10
1502.559152786395
 20
504.1010583095433
 30
0.0
 11
1502.559152786395
 21
571.3056621270112
 31
0.0
  0
LINE
  5
2EEC
330
2EE7
100
AcDbEntity
  8
0
 62
     0
440
 16777216
370
    -2
100
AcDbLine
 10
1542.379152786396
 20
571.1256621270113
 30
0.0
 11
1523.114152786396
 21
571.1256621270113
 31
0.0
  0
LINE
  5
2EED
330
2EE7
100
AcDbEntity
  8
0
 62
     0
440
 16777216
370
    -2
100
AcDbLine
 10
1502.739152786396
 20
571.1256621270113
 30
0.0
 11
1522.004152786396
 21
571.1256621270113
 31
0.0
  0
SOLID
  5
2EEE
330
2EE7
100
AcDbEntity
  8
0
 62
     0
440
 16777216
100
AcDbTrace
 10
1542.379152786396
 20
571.1556621270112
 30
0.0
 11
1542.379152786396
 21
571.0956621270112
 31
0.0
 12
1542.559152786395
 22
571.1256621270113
 32
0.0
 13
1542.559152786395
 23
571.1256621270113
 33
0.0
  0
SOLID
  5
2EEF
330
2EE7
100
AcDbEntity
  8
0
 62
     0
440
 16777216
100
AcDbTrace
 10
1502.739152786396
 20
571.1556621270112
 30
0.0
 11
1502.739152786396
 21
571.0956621270112
 31
0.0
 12
1502.559152786395
 22
571.1256621270113
 32
0.0
 13
1502.559152786395
 23
571.1256621270113
 33
0.0
  0
MTEXT
  5
2EF0
330
2EE7
100
AcDbEntity
  8
0
 62
     0
440
 16777216
100
AcDbMText
 10
1522.559152786396
 20
571.1256621270113
 30
0.0
 40
0.18
 41
0.0
 46
0.0
 71
     5
 72
     1
  1
\A1;40.0000
 73
     1
 44
1.0
  0
POINT
  5
2EF1
330
2EE7
100
AcDbEntity
  8
Defpoints
 62
     0
440
 16777216
100
AcDbPoint
 10
1542.559152786395
 20
504.0385583095431
 30
0.0
  0
POINT
  5
2EF2
330
2EE7
100
AcDbEntity
  8
Defpoints
 62
     0
440
 16777216
100
AcDbPoint
 10
1502.559152786395
 20
504.0385583095431
 30
0.0
  0
POINT
  5
2EF3
330
2EE7
100
AcDbEntity
  8
Defpoints
 62
     0
440
 16777216
100
AcDbPoint
 10
1502.559152786395
 20
571.1256621270113
 30
0.0
  0
ENDBLK
  5
2EE9
330
2EE7
100
AcDbEntity
  8
0
100
AcDbBlockEnd
  0
BLOCK
  5
2EF6
330
2EF5
100
AcDbEntity
  8
0
100
AcDbBlockBegin
  2
*D37
 70
     1
 10
0.0
 20
0.0
 30
0.0
  3
*D37
  1

  0
LINE
  5
2EF8
330
2EF5
100
AcDbEntity
  8
0
 62
     0
440
 16777216
370
    -2
100
AcDbLine
 10
1529.059152786396
 20
505.9760583095433
 30
0.0
 11
1529.059152786396
 21
447.0726694688011
 31
0.0
  0
LINE
  5
2EF9
330
2EF5
100
AcDbEntity
  8
0
 62
     0
440
 16777216
370
    -2
100
AcDbLine
 10
1556.059152786396
 20
505.9760583095433
 30
0.0
 11
1556.059152786396
 21
447.0726694688011
 31
0.0
  0
LINE
  5
2EFA
330
2EF5
100
AcDbEntity
  8
0
 62
     0
440
 16777216
370
    -2
100
AcDbLine
 10
1529.239152786396
 20
447.2526694688013
 30
0.0
 11
1541.989152786396
 21
447.2526694688013
 31
0.0
  0
LINE
  5
2EFB
330
2EF5
100
AcDbEntity
  8
0
 62
     0
440
 16777216
370
    -2
100
AcDbLine
 10
1555.879152786396
 20
447.2526694688013
 30
0.0
 11
1543.129152786396
 21
447.2526694688013
 31
0.0
  0
SOLID
  5
2EFC
330
2EF5
100
AcDbEntity
  8
0
 62
     0
440
 16777216
100
AcDbTrace
 10
1529.239152786396
 20
447.2826694688012
 30
0.0
 11
1529.239152786396
 21
447.2226694688012
 31
0.0
 12
1529.059152786396
 22
447.2526694688013
 32
0.0
 13
1529.059152786396
 23
447.2526694688013
 33
0.0
  0
SOLID
  5
2EFD
330
2EF5
100
AcDbEntity
  8
0
 62
     0
440
 16777216
100
AcDbTrace
 10
1555.879152786396
 20
447.2826694688012
 30
0.0
 11
1555.879152786396
 21
447.2226694688012
 31
0.0
 12
1556.059152786396
 22
447.2526694688013
 32
0.0
 13
1556.059152786396
 23
447.2526694688013
 33
0.0
  0
MTEXT
  5
2EFE
330
2EF5
100
AcDbEntity
  8
0
 62
     0
440
 16777216
100
AcDbMText
 10
1542.559152786395
 20
447.2526694688013
 30
0.0
 40
0.18
 41
0.0
 46
0.0
 71
     5
 72
     1
  1
\A1;27.0000
 73
     1
 44
1.0
  0
POINT
  5
2EFF
330
2EF5
100
AcDbEntity
  8
Defpoints
 62
     0
440
 16777216
100
AcDbPoint
 10
1529.059152786396
 20
506.0385583095433
 30
0.0
  0
POINT
  5
2F00
330
2EF5
100
AcDbEntity
  8
Defpoints
 62
     0
440
 16777216
100
AcDbPoint
 10
1556.059152786396
 20
506.0385583095433
 30
0.0
  0
POINT
  5
2F01
330
2EF5
100
AcDbEntity
  8
Defpoints
 62
     0
440
 16777216
100
AcDbPoint
 10
1556.059152786396
 20
447.2526694688013
 30
0.0
  0
ENDBLK
  5
2EF7
330
2EF5
100
AcDbEntity
  8
0
100
AcDbBlockEnd
  0
BLOCK
  5
3D70
330
3D6F
100
AcDbEntity
  8
0
100
AcDbBlockBegin
  2
*D38
 70
     1
 10
0.0
 20
0.0
 30
0.0
  3
*D38
  1

  0
LINE
  5
3D72
330
3D6F
100
AcDbEntity
  8
0
 62
     0
440
 16777216
370
    -2
100
AcDbLine
 10
657.3606446970744
 20
962.4565325527536
 30
0.0
 11
657.3606446970744
 21
881.6591151499373
 31
0.0
  0
LINE
  5
3D73
330
3D6F
100
AcDbEntity
  8
0
 62
     0
440
 16777216
370
    -2
100
AcDbLine
 10
997.3606446970745
 20
962.4565325527536
 30
0.0
 11
997.3606446970745
 21
881.6591151499373
 31
0.0
  0
LINE
  5
3D74
330
3D6F
100
AcDbEntity
  8
0
 62
     0
440
 16777216
370
    -2
100
AcDbLine
 10
657.5406446970745
 20
881.8391151499373
 30
0.0
 11
826.7156446970744
 21
881.8391151499373
 31
0.0
  0
LINE
  5
3D75
330
3D6F
100
AcDbEntity
  8
0
 62
     0
440
 16777216
370
    -2
100
AcDbLine
 10
997.1806446970743
 20
881.8391151499373
 30
0.0
 11
828.0056446970744
 21
881.8391151499373
 31
0.0
  0
SOLID
  5
3D76
330
3D6F
100
AcDbEntity
  8
0
 62
     0
440
 16777216
100
AcDbTrace
 10
657.5406446970745
 20
881.8691151499374
 30
0.0
 11
657.5406446970745
 21
881.8091151499372
 31
0.0
 12
657.3606446970744
 22
881.8391151499373
 32
0.0
 13
657.3606446970744
 23
881.8391151499373
 33
0.0
  0
SOLID
  5
3D77
330
3D6F
100
AcDbEntity
  8
0
 62
     0
440
 16777216
100
AcDbTrace
 10
997.1806446970743
 20
881.8691151499374
 30
0.0
 11
997.1806446970743
 21
881.8091151499372
 31
0.0
 12
997.3606446970745
 22
881.8391151499373
 32
0.0
 13
997.3606446970745
 23
881.8391151499373
 33
0.0
  0
MTEXT
  5
3D78
330
3D6F
100
AcDbEntity
  8
0
 62
     0
440
 16777216
100
AcDbMText
 10
827.3606446970742
 20
881.8391151499373
 30
0.0
 40
0.18
 41
0.0
 46
0.0
 71
     5
 72
     1
  1
\A1;340.0000
 73
     1
 44
1.0
  0
POINT
  5
3D79
330
3D6F
100
AcDbEntity
  8
Defpoints
 62
     0
440
 16777216
100
AcDbPoint
 10
657.3606446970744
 20
962.5190325527537
 30
0.0
  0
POINT
  5
3D7A
330
3D6F
100
AcDbEntity
  8
Defpoints
 62
     0
440
 16777216
100
AcDbPoint
 10
997.3606446970745
 20
962.5190325527537
 30
0.0
  0
POINT
  5
3D7B
330
3D6F
100
AcDbEntity
  8
Defpoints
 62
     0
440
 16777216
100
AcDbPoint
 10
997.3606446970745
 20
881.8391151499373
 30
0.0
  0
ENDBLK
  5
3D71
330
3D6F
100
AcDbEntity
  8
0
100
AcDbBlockEnd
  0
BLOCK
  5
3D7E
330
3D7D
100
AcDbEntity
  8
0
100
AcDbBlockBegin
  2
*D39
 70
     1
 10
0.0
 20
0.0
 30
0.0
  3
*D39
  1

  0
LINE
  5
3D80
330
3D7D
100
AcDbEntity
  8
0
 62
     0
440
 16777216
370
    -2
100
AcDbLine
 10
1064.798569667094
 20
994.9252778653237
 30
0.0
 11
1064.798569667094
 21
922.9829769415776
 31
0.0
  0
LINE
  5
3D81
330
3D7D
100
AcDbEntity
  8
0
 62
     0
440
 16777216
370
    -2
100
AcDbLine
 10
1324.798569667094
 20
994.9252778653237
 30
0.0
 11
1324.798569667094
 21
922.9829769415776
 31
0.0
  0
LINE
  5
3D82
330
3D7D
100
AcDbEntity
  8
0
 62
     0
440
 16777216
370
    -2
100
AcDbLine
 10
1064.978569667094
 20
923.1629769415777
 30
0.0
 11
1194.153569667094
 21
923.1629769415777
 31
0.0
  0
LINE
  5
3D83
330
3D7D
100
AcDbEntity
  8
0
 62
     0
440
 16777216
370
    -2
100
AcDbLine
 10
1324.618569667094
 20
923.1629769415777
 30
0.0
 11
1195.443569667094
 21
923.1629769415777
 31
0.0
  0
SOLID
  5
3D84
330
3D7D
100
AcDbEntity
  8
0
 62
     0
440
 16777216
100
AcDbTrace
 10
1064.978569667094
 20
923.1929769415776
 30
0.0
 11
1064.978569667094
 21
923.1329769415776
 31
0.0
 12
1064.798569667094
 22
923.1629769415777
 32
0.0
 13
1064.798569667094
 23
923.1629769415777
 33
0.0
  0
SOLID
  5
3D85
330
3D7D
100
AcDbEntity
  8
0
 62
     0
440
 16777216
100
AcDbTrace
 10
1324.618569667094
 20
923.1929769415776
 30
0.0
 11
1324.618569667094
 21
923.1329769415776
 31
0.0
 12
1324.798569667094
 22
923.1629769415777
 32
0.0
 13
1324.798569667094
 23
923.1629769415777
 33
0.0
  0
MTEXT
  5
3D86
330
3D7D
100
AcDbEntity
  8
0
 62
     0
440
 16777216
100
AcDbMText
 10
1194.798569667094
 20
923.1629769415777
 30
0.0
 40
0.18
 41
0.0
 46
0.0
 71
     5
 72
     1
  1
\A1;260.0000
 73
     1
 44
1.0
  0
POINT
  5
3D87
330
3D7D
100
AcDbEntity
  8
Defpoints
 62
     0
440
 16777216
100
AcDbPoint
 10
1064.798569667094
 20
994.9877778653236
 30
0.0
  0
POINT
  5
3D88
330
3D7D
100
AcDbEntity
  8
Defpoints
 62
     0
440
 16777216
100
AcDbPoint
 10
1324.798569667094
 20
994.9877778653236
 30
0.0
  0
POINT
  5
3D89
330
3D7D
100
AcDbEntity
  8
Defpoints
 62
     0
440
 16777216
100
AcDbPoint
 10
1324.798569667094
 20
923.1629769415777
 30
0.0
  0
ENDBLK
  5
3D7F
330
3D7D
100
AcDbEntity
  8
0
100
AcDbBlockEnd
  0
BLOCK
  5
3DD6
330
3DD5
100
AcDbEntity
  8
0
100
AcDbBlockBegin
  2
*D40
 70
     1
 10
0.0
 20
0.0
 30
0.0
  3
*D40
  1

  0
LINE
  5
3DD8
330
3DD5
100
AcDbEntity
  8
0
 62
     0
440
 16777216
370
    -2
100
AcDbLine
 10
1258.798569667096
 20
1049.823213939936
 30
0.0
 11
1258.798569667096
 21
1068.533592606992
 31
0.0
  0
LINE
  5
3DD9
330
3DD5
100
AcDbEntity
  8
0
 62
     0
440
 16777216
370
    -2
100
AcDbLine
 10
1334.798569667096
 20
1049.823213939936
 30
0.0
 11
1334.798569667096
 21
1068.533592606992
 31
0.0
  0
LINE
  5
3DDA
330
3DD5
100
AcDbEntity
  8
0
 62
     0
440
 16777216
370
    -2
100
AcDbLine
 10
1258.978569667096
 20
1068.353592606992
 30
0.0
 11
1296.228569667096
 21
1068.353592606992
 31
0.0
  0
LINE
  5
3DDB
330
3DD5
100
AcDbEntity
  8
0
 62
     0
440
 16777216
370
    -2
100
AcDbLine
 10
1334.618569667096
 20
1068.353592606992
 30
0.0
 11
1297.368569667096
 21
1068.353592606992
 31
0.0
  0
SOLID
  5
3DDC
330
3DD5
100
AcDbEntity
  8
0
 62
     0
440
 16777216
100
AcDbTrace
 10
1258.978569667096
 20
1068.383592606992
 30
0.0
 11
1258.978569667096
 21
1068.323592606992
 31
0.0
 12
1258.798569667096
 22
1068.353592606992
 32
0.0
 13
1258.798569667096
 23
1068.353592606992
 33
0.0
  0
SOLID
  5
3DDD
330
3DD5
100
AcDbEntity
  8
0
 62
     0
440
 16777216
100
AcDbTrace
 10
1334.618569667096
 20
1068.383592606992
 30
0.0
 11
1334.618569667096
 21
1068.323592606992
 31
0.0
 12
1334.798569667096
 22
1068.353592606992
 32
0.0
 13
1334.798569667096
 23
1068.353592606992
 33
0.0
  0
MTEXT
  5
3DDE
330
3DD5
100
AcDbEntity
  8
0
 62
     0
440
 16777216
100
AcDbMText
 10
1296.798569667096
 20
1068.353592606992
 30
0.0
 40
0.18
 41
0.0
 46
0.0
 71
     5
 72
     1
  1
\A1;76.0000
 73
     1
 44
1.0
  0
POINT
  5
3DDF
330
3DD5
100
AcDbEntity
  8
Defpoints
 62
     0
440
 16777216
100
AcDbPoint
 10
1258.798569667096
 20
1049.760713939936
 30
0.0
  0
POINT
  5
3DE0
330
3DD5
100
AcDbEntity
  8
Defpoints
 62
     0
440
 16777216
100
AcDbPoint
 10
1334.798569667096
 20
1049.760713939936
 30
0.0
  0
POINT
  5
3DE1
330
3DD5
100
AcDbEntity
  8
Defpoints
 62
     0
440
 16777216
100
AcDbPoint
 10
1334.798569667096
 20
1068.353592606992
 30
0.0
  0
ENDBLK
  5
3DD7
330
3DD5
100
AcDbEntity
  8
0
100
AcDbBlockEnd
  0
BLOCK
  5
3DE4
330
3DE3
100
AcDbEntity
  8
0
100
AcDbBlockBegin
  2
*D41
 70
     1
 10
0.0
 20
0.0
 30
0.0
  3
*D41
  1

  0
LINE
  5
3E43
330
3DE3
100
AcDbEntity
  8
HEWI
 62
     0
440
 16777216
370
    -2
100
AcDbLine
 10
190.1933368005566
 20
1048.823213939936
 30
0.0
 11
190.1933368005566
 21
1059.349610100679
 31
0.0
  0
LINE
  5
3E44
330
3DE3
100
AcDbEntity
  8
HEWI
 62
     0
440
 16777216
370
    -2
100
AcDbLine
 10
215.1933368005566
 20
1048.823213939936
 30
0.0
 11
215.1933368005566
 21
1059.349610100679
 31
0.0
  0
LINE
  5
3E45
330
3DE3
100
AcDbEntity
  8
HEWI
 62
     0
440
 16777216
370
    -2
100
AcDbLine
 10
190.3733368005566
 20
1059.169610100679
 30
0.0
 11
202.1233368005566
 21
1059.169610100679
 31
0.0
  0
LINE
  5
3E46
330
3DE3
100
AcDbEntity
  8
HEWI
 62
     0
440
 16777216
370
    -2
100
AcDbLine
 10
215.0133368005566
 20
1059.169610100679
 30
0.0
 11
203.2633368005566
 21
1059.169610100679
 31
0.0
  0
SOLID
  5
3E47
330
3DE3
100
AcDbEntity
  8
HEWI
 62
     0
440
 16777216
100
AcDbTrace
 10
190.3733368005566
 20
1059.199610100679
 30
0.0
 11
190.3733368005566
 21
1059.139610100679
 31
0.0
 12
190.1933368005566
 22
1059.169610100679
 32
0.0
 13
190.1933368005566
 23
1059.169610100679
 33
0.0
  0
SOLID
  5
3E48
330
3DE3
100
AcDbEntity
  8
HEWI
 62
     0
440
 16777216
100
AcDbTrace
 10
215.0133368005566
 20
1059.199610100679
 30
0.0
 11
215.0133368005566
 21
1059.139610100679
 31
0.0
 12
215.1933368005566
 22
1059.169610100679
 32
0.0
 13
215.1933368005566
 23
1059.169610100679
 33
0.0
  0
MTEXT
  5
3E49
330
3DE3
100
AcDbEntity
  8
HEWI
 62
     0
440
 16777216
100
AcDbMText
 10
202.6933368005566
 20
1059.169610100679
 30
0.0
 40
0.18
 41
0.0
 46
0.0
 71
     5
 72
     1
  1
\A1;25.0000
 73
     1
 44
1.0
  0
POINT
  5
3E4A
330
3DE3
100
AcDbEntity
  8
Defpoints
 62
     0
440
 16777216
100
AcDbPoint
 10
190.1933368005566
 20
1048.760713939936
 30
0.0
  0
POINT
  5
3E4B
330
3DE3
100
AcDbEntity
  8
Defpoints
 62
     0
440
 16777216
100
AcDbPoint
 10
215.1933368005566
 20
1048.760713939936
 30
0.0
  0
POINT
  5
3E4C
330
3DE3
100
AcDbEntity
  8
Defpoints
 62
     0
440
 16777216
100
AcDbPoint
 10
215.1933368005566
 20
1059.169610100679
 30
0.0
  0
ENDBLK
  5
3DE5
330
3DE3
100
AcDbEntity
  8
0
100
AcDbBlockEnd
  0
BLOCK
  5
3DF3
330
3DF2
100
AcDbEntity
  8
0
100
AcDbBlockBegin
  2
*D42
 70
     1
 10
0.0
 20
0.0
 30
0.0
  3
*D42
  1

  0
LINE
  5
3DF5
330
3DF2
100
AcDbEntity
  8
0
 62
     0
440
 16777216
370
    -2
100
AcDbLine
 10
1324.798569667094
 20
1046.298213939937
 30
0.0
 11
1324.798569667094
 21
1031.246374850482
 31
0.0
  0
LINE
  5
3DF6
330
3DF2
100
AcDbEntity
  8
0
 62
     0
440
 16777216
370
    -2
100
AcDbLine
 10
1334.798569667096
 20
1047.698213939936
 30
0.0
 11
1334.798569667096
 21
1031.246374850482
 31
0.0
  0
LINE
  5
3DF7
330
3DF2
100
AcDbEntity
  8
0
 62
     0
440
 16777216
370
    -2
100
AcDbLine
 10
1324.978569667094
 20
1031.426374850482
 30
0.0
 11
1329.273569667095
 21
1031.426374850482
 31
0.0
  0
LINE
  5
3DF8
330
3DF2
100
AcDbEntity
  8
0
 62
     0
440
 16777216
370
    -2
100
AcDbLine
 10
1334.618569667096
 20
1031.426374850482
 30
0.0
 11
1330.323569667095
 21
1031.426374850482
 31
0.0
  0
SOLID
  5
3DF9
330
3DF2
100
AcDbEntity
  8
0
 62
     0
440
 16777216
100
AcDbTrace
 10
1324.978569667094
 20
1031.456374850483
 30
0.0
 11
1324.978569667094
 21
1031.396374850483
 31
0.0
 12
1324.798569667094
 22
1031.426374850482
 32
0.0
 13
1324.798569667094
 23
1031.426374850482
 33
0.0
  0
SOLID
  5
3DFA
330
3DF2
100
AcDbEntity
  8
0
 62
     0
440
 16777216
100
AcDbTrace
 10
1334.618569667096
 20
1031.456374850483
 30
0.0
 11
1334.618569667096
 21
1031.396374850483
 31
0.0
 12
1334.798569667096
 22
1031.426374850482
 32
0.0
 13
1334.798569667096
 23
1031.426374850482
 33
0.0
  0
MTEXT
  5
3DFB
330
3DF2
100
AcDbEntity
  8
0
 62
     0
440
 16777216
100
AcDbMText
 10
1329.798569667095
 20
1031.426374850482
 30
0.0
 40
0.18
 41
0.0
 46
0.0
 71
     5
 72
     1
  1
\A1;10.0000
 73
     1
 44
1.0
  0
POINT
  5
3DFC
330
3DF2
100
AcDbEntity
  8
Defpoints
 62
     0
440
 16777216
100
AcDbPoint
 10
1324.798569667094
 20
1046.360713939937
 30
0.0
  0
POINT
  5
3DFD
330
3DF2
100
AcDbEntity
  8
Defpoints
 62
     0
440
 16777216
100
AcDbPoint
 10
1334.798569667096
 20
1047.760713939936
 30
0.0
  0
POINT
  5
3DFE
330
3DF2
100
AcDbEntity
  8
Defpoints
 62
     0
440
 16777216
100
AcDbPoint
 10
1334.798569667096
 20
1031.426374850482
 30
0.0
  0
ENDBLK
  5
3DF4
330
3DF2
100
AcDbEntity
  8
0
100
AcDbBlockEnd
  0
BLOCK
  5
3E07
330
3E06
100
AcDbEntity
  8
0
100
AcDbBlockBegin
  2
*D43
 70
     1
 10
0.0
 20
0.0
 30
0.0
  3
*D43
  1

  0
LINE
  5
3E09
330
3E06
100
AcDbEntity
  8
0
 62
     0
440
 16777216
370
    -2
100
AcDbLine
 10
1421.794213688733
 20
947.823213939937
 30
0.0
 11
1421.794213688733
 21
998.9307657077748
 31
0.0
  0
LINE
  5
3E0A
330
3E06
100
AcDbEntity
  8
0
 62
     0
440
 16777216
370
    -2
100
AcDbLine
 10
1448.794213688734
 20
947.823213939937
 30
0.0
 11
1448.794213688734
 21
998.9307657077748
 31
0.0
  0
LINE
  5
3E0B
330
3E06
100
AcDbEntity
  8
0
 62
     0
440
 16777216
370
    -2
100
AcDbLine
 10
1421.974213688734
 20
998.7507657077747
 30
0.0
 11
1434.724213688734
 21
998.7507657077747
 31
0.0
  0
LINE
  5
3E0C
330
3E06
100
AcDbEntity
  8
0
 62
     0
440
 16777216
370
    -2
100
AcDbLine
 10
1448.614213688734
 20
998.7507657077747
 30
0.0
 11
1435.864213688734
 21
998.7507657077747
 31
0.0
  0
SOLID
  5
3E0D
330
3E06
100
AcDbEntity
  8
0
 62
     0
440
 16777216
100
AcDbTrace
 10
1421.974213688734
 20
998.7807657077748
 30
0.0
 11
1421.974213688734
 21
998.720765707775
 31
0.0
 12
1421.794213688733
 22
998.7507657077747
 32
0.0
 13
1421.794213688733
 23
998.7507657077747
 33
0.0
  0
SOLID
  5
3E0E
330
3E06
100
AcDbEntity
  8
0
 62
     0
440
 16777216
100
AcDbTrace
 10
1448.614213688734
 20
998.7807657077748
 30
0.0
 11
1448.614213688734
 21
998.720765707775
 31
0.0
 12
1448.794213688734
 22
998.7507657077747
 32
0.0
 13
1448.794213688734
 23
998.7507657077747
 33
0.0
  0
MTEXT
  5
3E0F
330
3E06
100
AcDbEntity
  8
0
 62
     0
440
 16777216
100
AcDbMText
 10
1435.294213688734
 20
998.7507657077747
 30
0.0
 40
0.18
 41
0.0
 46
0.0
 71
     5
 72
     1
  1
\A1;27.0000
 73
     1
 44
1.0
  0
POINT
  5
3E10
330
3E06
100
AcDbEntity
  8
Defpoints
 62
     0
440
 16777216
100
AcDbPoint
 10
1421.794213688733
 20
947.7607139399365
 30
0.0
  0
POINT
  5
3E11
330
3E06
100
AcDbEntity
  8
Defpoints
 62
     0
440
 16777216
100
AcDbPoint
 10
1448.794213688734
 20
947.7607139399365
 30
0.0
  0
POINT
  5
3E12
330
3E06
100
AcDbEntity
  8
Defpoints
 62
     0
440
 16777216
100
AcDbPoint
 10
1448.794213688734
 20
998.7507657077747
 30
0.0
  0
ENDBLK
  5
3E08
330
3E06
100
AcDbEntity
  8
0
100
AcDbBlockEnd
  0
BLOCK
  5
3E15
330
3E14
100
AcDbEntity
  8
0
100
AcDbBlockBegin
  2
*D44
 70
     1
 10
0.0
 20
0.0
 30
0.0
  3
*D44
  1

  0
LINE
  5
3E17
330
3E14
100
AcDbEntity
  8
0
 62
     0
440
 16777216
370
    -2
100
AcDbLine
 10
1435.294213688734
 20
967.8232139399366
 30
0.0
 11
1435.294213688734
 21
1001.339272129526
 31
0.0
  0
LINE
  5
3E18
330
3E14
100
AcDbEntity
  8
0
 62
     0
440
 16777216
370
    -2
100
AcDbLine
 10
1410.294213688734
 20
967.8232139399366
 30
0.0
 11
1410.294213688734
 21
1001.339272129526
 31
0.0
  0
LINE
  5
3E19
330
3E14
100
AcDbEntity
  8
0
 62
     0
440
 16777216
370
    -2
100
AcDbLine
 10
1435.114213688733
 20
1001.159272129526
 30
0.0
 11
1423.364213688734
 21
1001.159272129526
 31
0.0
  0
LINE
  5
3E1A
330
3E14
100
AcDbEntity
  8
0
 62
     0
440
 16777216
370
    -2
100
AcDbLine
 10
1410.474213688734
 20
1001.159272129526
 30
0.0
 11
1422.224213688734
 21
1001.159272129526
 31
0.0
  0
SOLID
  5
3E1B
330
3E14
100
AcDbEntity
  8
0
 62
     0
440
 16777216
100
AcDbTrace
 10
1435.114213688733
 20
1001.189272129526
 30
0.0
 11
1435.114213688733
 21
1001.129272129526
 31
0.0
 12
1435.294213688734
 22
1001.159272129526
 32
0.0
 13
1435.294213688734
 23
1001.159272129526
 33
0.0
  0
SOLID
  5
3E1C
330
3E14
100
AcDbEntity
  8
0
 62
     0
440
 16777216
100
AcDbTrace
 10
1410.474213688734
 20
1001.189272129526
 30
0.0
 11
1410.474213688734
 21
1001.129272129526
 31
0.0
 12
1410.294213688734
 22
1001.159272129526
 32
0.0
 13
1410.294213688734
 23
1001.159272129526
 33
0.0
  0
MTEXT
  5
3E1D
330
3E14
100
AcDbEntity
  8
0
 62
     0
440
 16777216
100
AcDbMText
 10
1422.794213688734
 20
1001.159272129526
 30
0.0
 40
0.18
 41
0.0
 46
0.0
 71
     5
 72
     1
  1
\A1;25.0000
 73
     1
 44
1.0
  0
POINT
  5
3E1E
330
3E14
100
AcDbEntity
  8
Defpoints
 62
     0
440
 16777216
100
AcDbPoint
 10
1435.294213688734
 20
967.760713939937
 30
0.0
  0
POINT
  5
3E1F
330
3E14
100
AcDbEntity
  8
Defpoints
 62
     0
440
 16777216
100
AcDbPoint
 10
1410.294213688734
 20
967.760713939937
 30
0.0
  0
POINT
  5
3E20
330
3E14
100
AcDbEntity
  8
Defpoints
 62
     0
440
 16777216
100
AcDbPoint
 10
1410.294213688734
 20
1001.159272129526
 30
0.0
  0
ENDBLK
  5
3E16
330
3E14
100
AcDbEntity
  8
0
100
AcDbBlockEnd
  0
BLOCK
  5
45C1
330
45C0
100
AcDbEntity
  8
0
100
AcDbBlockBegin
  2
*D45
 70
     1
 10
0.0
 20
0.0
 30
0.0
  3
*D45
  1

  0
LINE
  5
45F0
330
45C0
100
AcDbEntity
  8
0
 62
     0
440
 16777216
370
    -2
100
AcDbLine
 10
1303.759702977254
 20
689.0286200919709
 30
0.0
 11
1303.759702977254
 21
631.125860376252
 31
0.0
  0
LINE
  5
45F1
330
45C0
100
AcDbEntity
  8
0
 62
     0
440
 16777216
370
    -2
100
AcDbLine
 10
1503.759702977254
 20
689.0286200919709
 30
0.0
 11
1503.759702977254
 21
631.125860376252
 31
0.0
  0
LINE
  5
45F2
330
45C0
100
AcDbEntity
  8
0
 62
     0
440
 16777216
370
    -2
100
AcDbLine
 10
1303.939702977255
 20
631.3058603762518
 30
0.0
 11
1392.003036310588
 21
631.3058603762518
 31
0.0
  0
LINE
  5
45F3
330
45C0
100
AcDbEntity
  8
0
 62
     0
440
 16777216
370
    -2
100
AcDbLine
 10
1503.579702977254
 20
631.3058603762518
 30
0.0
 11
1415.516369643921
 21
631.3058603762518
 31
0.0
  0
SOLID
  5
45F4
330
45C0
100
AcDbEntity
  8
0
 62
     0
440
 16777216
100
AcDbTrace
 10
1303.939702977255
 20
631.335860376252
 30
0.0
 11
1303.939702977255
 21
631.275860376252
 31
0.0
 12
1303.759702977254
 22
631.3058603762518
 32
0.0
 13
1303.759702977254
 23
631.3058603762518
 33
0.0
  0
SOLID
  5
45F5
330
45C0
100
AcDbEntity
  8
0
 62
     0
440
 16777216
100
AcDbTrace
 10
1503.579702977254
 20
631.335860376252
 30
0.0
 11
1503.579702977254
 21
631.275860376252
 31
0.0
 12
1503.759702977254
 22
631.3058603762518
 32
0.0
 13
1503.759702977254
 23
631.3058603762518
 33
0.0
  0
MTEXT
  5
45F6
330
45C0
100
AcDbEntity
  8
0
 62
     0
440
 16777216
100
AcDbMText
 10
1403.759702977255
 20
631.3058603762518
 30
0.0
 40
10.0
 41
0.0
 46
0.0
 71
     5
 72
     1
  1
\A1;200
 73
     1
 44
1.0
  0
POINT
  5
45F7
330
45C0
100
AcDbEntity
  8
Defpoints
 62
     0
440
 16777216
100
AcDbPoint
 10
1303.759702977254
 20
689.0911200919709
 30
0.0000000000000042
  0
POINT
  5
45F8
330
45C0
100
AcDbEntity
  8
Defpoints
 62
     0
440
 16777216
100
AcDbPoint
 10
1503.759702977254
 20
689.0911200919709
 30
-0.0000000000000069
  0
POINT
  5
45F9
330
45C0
100
AcDbEntity
  8
Defpoints
 62
     0
440
 16777216
100
AcDbPoint
 10
1503.759702977254
 20
631.3058603762518
 30
0.0
  0
ENDBLK
  5
45C2
330
45C0
100
AcDbEntity
  8
0
100
AcDbBlockEnd
  0
BLOCK
  5
45CF
330
45CE
100
AcDbEntity
  8
0
100
AcDbBlockBegin
  2
*D46
 70
     1
 10
0.0
 20
0.0
 30
0.0
  3
*D46
  1

  0
LINE
  5
45FA
330
45CE
100
AcDbEntity
  8
0
 62
     0
440
 16777216
370
    -2
100
AcDbLine
 10
925.4567727690668
 20
686.0652718125775
 30
0.0
 11
925.4567727690668
 21
625.1991683506725
 31
0.0
  0
LINE
  5
45FB
330
45CE
100
AcDbEntity
  8
0
 62
     0
440
 16777216
370
    -2
100
AcDbLine
 10
1185.456772769067
 20
686.0652718125775
 30
0.0
 11
1185.456772769067
 21
625.1991683506725
 31
0.0
  0
LINE
  5
45FC
330
45CE
100
AcDbEntity
  8
0
 62
     0
440
 16777216
370
    -2
100
AcDbLine
 10
925.6367727690667
 20
625.3791683506723
 30
0.0
 11
1042.866772769067
 21
625.3791683506723
 31
0.0
  0
LINE
  5
45FD
330
45CE
100
AcDbEntity
  8
0
 62
     0
440
 16777216
370
    -2
100
AcDbLine
 10
1185.276772769067
 20
625.3791683506723
 30
0.0
 11
1068.046772769067
 21
625.3791683506723
 31
0.0
  0
SOLID
  5
45FE
330
45CE
100
AcDbEntity
  8
0
 62
     0
440
 16777216
100
AcDbTrace
 10
925.6367727690667
 20
625.4091683506722
 30
0.0
 11
925.6367727690667
 21
625.3491683506723
 31
0.0
 12
925.4567727690668
 22
625.3791683506723
 32
0.0
 13
925.4567727690668
 23
625.3791683506723
 33
0.0
  0
SOLID
  5
45FF
330
45CE
100
AcDbEntity
  8
0
 62
     0
440
 16777216
100
AcDbTrace
 10
1185.276772769067
 20
625.4091683506722
 30
0.0
 11
1185.276772769067
 21
625.3491683506723
 31
0.0
 12
1185.456772769067
 22
625.3791683506723
 32
0.0
 13
1185.456772769067
 23
625.3791683506723
 33
0.0
  0
MTEXT
  5
4600
330
45CE
100
AcDbEntity
  8
0
 62
     0
440
 16777216
100
AcDbMText
 10
1055.456772769067
 20
625.3791683506723
 30
0.0
 40
10.0
 41
0.0
 46
0.0
 71
     5
 72
     1
  1
\A1;260
 73
     1
 44
1.0
  0
POINT
  5
4601
330
45CE
100
AcDbEntity
  8
Defpoints
 62
     0
440
 16777216
100
AcDbPoint
 10
925.4567727690668
 20
686.1277718125775
 30
0.0
  0
POINT
  5
4602
330
45CE
100
AcDbEntity
  8
Defpoints
 62
     0
440
 16777216
100
AcDbPoint
 10
1185.456772769067
 20
686.1277718125775
 30
0.0
  0
POINT
  5
4603
330
45CE
100
AcDbEntity
  8
Defpoints
 62
     0
440
 16777216
100
AcDbPoint
 10
1185.456772769067
 20
625.3791683506723
 30
0.0
  0
ENDBLK
  5
45D0
330
45CE
100
AcDbEntity
  8
0
100
AcDbBlockEnd
  0
BLOCK
  5
4606
330
4605
100
AcDbEntity
  8
0
100
AcDbBlockBegin
  2
*D47
 70
     1
 10
0.0
 20
0.0
 30
0.0
  3
*D47
  1

  0
LINE
  5
4608
330
4605
100
AcDbEntity
  8
0
 62
     0
440
 16777216
370
    -2
100
AcDbLine
 10
1300.755539921219
 20
588.4243060766634
 30
0.0
 11
1300.755539921219
 21
562.3657022399186
 31
0.0
  0
LINE
  5
4609
330
4605
100
AcDbEntity
  8
0
 62
     0
440
 16777216
370
    -2
100
AcDbLine
 10
1503.759702977254
 20
588.4243060766634
 30
0.0
 11
1503.759702977254
 21
562.3657022399186
 31
0.0
  0
LINE
  5
460A
330
4605
100
AcDbEntity
  8
0
 62
     0
440
 16777216
370
    -2
100
AcDbLine
 10
1300.935539921219
 20
562.5457022399187
 30
0.0
 11
1401.582621449237
 21
562.5457022399187
 31
0.0
  0
LINE
  5
460B
330
4605
100
AcDbEntity
  8
0
 62
     0
440
 16777216
370
    -2
100
AcDbLine
 10
1503.579702977254
 20
562.5457022399187
 30
0.0
 11
1402.932621449236
 21
562.5457022399187
 31
0.0
  0
SOLID
  5
460C
330
4605
100
AcDbEntity
  8
0
 62
     0
440
 16777216
100
AcDbTrace
 10
1300.935539921219
 20
562.5757022399185
 30
0.0
 11
1300.935539921219
 21
562.5157022399187
 31
0.0
 12
1300.755539921219
 22
562.5457022399187
 32
0.0
 13
1300.755539921219
 23
562.5457022399187
 33
0.0
  0
SOLID
  5
460D
330
4605
100
AcDbEntity
  8
0
 62
     0
440
 16777216
100
AcDbTrace
 10
1503.579702977254
 20
562.5757022399185
 30
0.0
 11
1503.579702977254
 21
562.5157022399187
 31
0.0
 12
1503.759702977254
 22
562.5457022399187
 32
0.0
 13
1503.759702977254
 23
562.5457022399187
 33
0.0
  0
MTEXT
  5
460E
330
4605
100
AcDbEntity
  8
0
 62
     0
440
 16777216
100
AcDbMText
 10
1402.257621449237
 20
562.5457022399187
 30
0.0
 40
0.18
 41
0.0
 46
0.0
 71
     5
 72
     1
  1
\A1;203.0042
 73
     1
 44
1.0
  0
POINT
  5
460F
330
4605
100
AcDbEntity
  8
Defpoints
 62
     0
440
 16777216
100
AcDbPoint
 10
1300.755539921219
 20
588.4868060766633
 30
0.0000000000000043
  0
POINT
  5
4610
330
4605
100
AcDbEntity
  8
Defpoints
 62
     0
440
 16777216
100
AcDbPoint
 10
1503.759702977254
 20
588.4868060766633
 30
-0.0000000000000069
  0
POINT
  5
4611
330
4605
100
AcDbEntity
  8
Defpoints
 62
     0
440
 16777216
100
AcDbPoint
 10
1503.759702977254
 20
562.5457022399187
 30
0.0
  0
ENDBLK
  5
4607
330
4605
100
AcDbEntity
  8
0
100
AcDbBlockEnd
  0
BLOCK
  5
4616
330
4615
100
AcDbEntity
  8
0
100
AcDbBlockBegin
  2
*D48
 70
     1
 10
0.0
 20
0.0
 30
0.0
  3
*D48
  1

  0
LINE
  5
4693
330
4615
100
AcDbEntity
  8
HEWI
 62
     0
440
 16777216
370
    -2
100
AcDbLine
 10
1649.654828324622
 20
868.8558789519175
 30
0.0
 11
1649.654828324622
 21
798.9096029390858
 31
0.0
  0
LINE
  5
4694
330
4615
100
AcDbEntity
  8
HEWI
 62
     0
440
 16777216
370
    -2
100
AcDbLine
 10
1624.654828324622
 20
868.8558789519175
 30
0.0
 11
1624.654828324622
 21
798.9096029390858
 31
0.0
  0
LINE
  5
4695
330
4615
100
AcDbEntity
  8
HEWI
 62
     0
440
 16777216
370
    -2
100
AcDbLine
 10
1649.474828324622
 20
799.089602939086
 30
0.0
 11
1637.724828324622
 21
799.089602939086
 31
0.0
  0
LINE
  5
4696
330
4615
100
AcDbEntity
  8
HEWI
 62
     0
440
 16777216
370
    -2
100
AcDbLine
 10
1624.834828324622
 20
799.089602939086
 30
0.0
 11
1636.584828324622
 21
799.089602939086
 31
0.0
  0
SOLID
  5
4697
330
4615
100
AcDbEntity
  8
HEWI
 62
     0
440
 16777216
100
AcDbTrace
 10
1649.474828324622
 20
799.1196029390859
 30
0.0
 11
1649.474828324622
 21
799.0596029390859
 31
0.0
 12
1649.654828324622
 22
799.089602939086
 32
0.0
 13
1649.654828324622
 23
799.089602939086
 33
0.0
  0
SOLID
  5
4698
330
4615
100
AcDbEntity
  8
HEWI
 62
     0
440
 16777216
100
AcDbTrace
 10
1624.834828324622
 20
799.1196029390859
 30
0.0
 11
1624.834828324622
 21
799.0596029390859
 31
0.0
 12
1624.654828324622
 22
799.089602939086
 32
0.0
 13
1624.654828324622
 23
799.089602939086
 33
0.0
  0
MTEXT
  5
4699
330
4615
100
AcDbEntity
  8
HEWI
 62
     0
440
 16777216
100
AcDbMText
 10
1637.154828324622
 20
799.089602939086
 30
0.0
 40
0.18
 41
0.0
 46
0.0
 71
     5
 72
     1
  1
\A1;25.0000
 73
     1
 44
1.0
  0
POINT
  5
469A
330
4615
100
AcDbEntity
  8
Defpoints
 62
     0
440
 16777216
100
AcDbPoint
 10
1649.654828324622
 20
868.9183789519173
 30
0.0
  0
POINT
  5
469B
330
4615
100
AcDbEntity
  8
Defpoints
 62
     0
440
 16777216
100
AcDbPoint
 10
1624.654828324622
 20
868.9183789519173
 30
0.0
  0
POINT
  5
469C
330
4615
100
AcDbEntity
  8
Defpoints
 62
     0
440
 16777216
100
AcDbPoint
 10
1624.654828324622
 20
799.089602939086
 30
0.0
  0
ENDBLK
  5
4617
330
4615
100
AcDbEntity
  8
0
100
AcDbBlockEnd
  0
BLOCK
  5
4624
330
4623
100
AcDbEntity
  8
0
100
AcDbBlockBegin
  2
*D49
 70
     1
 10
0.0
 20
0.0
 30
0.0
  3
*D49
  1

  0
LINE
  5
4689
330
4623
100
AcDbEntity
  8
HEWI
 62
     0
440
 16777216
370
    -2
100
AcDbLine
 10
1636.154828324622
 20
888.4316148832054
 30
0.0
 11
1636.154828324622
 21
811.3307394211162
 31
0.0
  0
LINE
  5
468A
330
4623
100
AcDbEntity
  8
HEWI
 62
     0
440
 16777216
370
    -2
100
AcDbLine
 10
1663.154828324621
 20
888.4316148832054
 30
0.0
 11
1663.154828324621
 21
811.3307394211162
 31
0.0
  0
LINE
  5
468B
330
4623
100
AcDbEntity
  8
HEWI
 62
     0
440
 16777216
370
    -2
100
AcDbLine
 10
1636.334828324622
 20
811.5107394211161
 30
0.0
 11
1649.084828324622
 21
811.5107394211161
 31
0.0
  0
LINE
  5
468C
330
4623
100
AcDbEntity
  8
HEWI
 62
     0
440
 16777216
370
    -2
100
AcDbLine
 10
1662.974828324622
 20
811.5107394211161
 30
0.0
 11
1650.224828324622
 21
811.5107394211161
 31
0.0
  0
SOLID
  5
468D
330
4623
100
AcDbEntity
  8
HEWI
 62
     0
440
 16777216
100
AcDbTrace
 10
1636.334828324622
 20
811.5407394211162
 30
0.0
 11
1636.334828324622
 21
811.4807394211164
 31
0.0
 12
1636.154828324622
 22
811.5107394211161
 32
0.0
 13
1636.154828324622
 23
811.5107394211161
 33
0.0
  0
SOLID
  5
468E
330
4623
100
AcDbEntity
  8
HEWI
 62
     0
440
 16777216
100
AcDbTrace
 10
1662.974828324622
 20
811.5407394211162
 30
0.0
 11
1662.974828324622
 21
811.4807394211164
 31
0.0
 12
1663.154828324621
 22
811.5107394211161
 32
0.0
 13
1663.154828324621
 23
811.5107394211161
 33
0.0
  0
MTEXT
  5
468F
330
4623
100
AcDbEntity
  8
HEWI
 62
     0
440
 16777216
100
AcDbMText
 10
1649.654828324622
 20
811.5107394211161
 30
0.0
 40
0.18
 41
0.0
 46
0.0
 71
     5
 72
     1
  1
\A1;27.0000
 73
     1
 44
1.0
  0
POINT
  5
4690
330
4623
100
AcDbEntity
  8
Defpoints
 62
     0
440
 16777216
100
AcDbPoint
 10
1636.154828324622
 20
888.4941148832053
 30
0.0
  0
POINT
  5
4691
330
4623
100
AcDbEntity
  8
Defpoints
 62
     0
440
 16777216
100
AcDbPoint
 10
1663.154828324621
 20
888.4941148832053
 30
0.0
  0
POINT
  5
4692
330
4623
100
AcDbEntity
  8
Defpoints
 62
     0
440
 16777216
100
AcDbPoint
 10
1663.154828324621
 20
811.5107394211161
 30
0.0
  0
ENDBLK
  5
4625
330
4623
100
AcDbEntity
  8
0
100
AcDbBlockEnd
  0
BLOCK
  5
4634
330
4633
100
AcDbEntity
  8
0
100
AcDbBlockBegin
  2
*D50
 70
     1
 10
0.0
 20
0.0
 30
0.0
  3
*D50
  1

  0
LINE
  5
4636
330
4633
100
AcDbEntity
  8
0
 62
     0
440
 16777216
370
    -2
100
AcDbLine
 10
927.0567727690673
 20
290.4207596933428
 30
0.0
 11
927.0567727690673
 21
254.278553563908
 31
0.0
  0
LINE
  5
4637
330
4633
100
AcDbEntity
  8
0
 62
     0
440
 16777216
370
    -2
100
AcDbLine
 10
1183.856772769067
 20
290.4207596933428
 30
0.0
 11
1183.856772769067
 21
254.278553563908
 31
0.0
  0
LINE
  5
4638
330
4633
100
AcDbEntity
  8
0
 62
     0
440
 16777216
370
    -2
100
AcDbLine
 10
927.2367727690673
 20
254.458553563908
 30
0.0
 11
1054.781772769067
 21
254.458553563908
 31
0.0
  0
LINE
  5
4639
330
4633
100
AcDbEntity
  8
0
 62
     0
440
 16777216
370
    -2
100
AcDbLine
 10
1183.676772769067
 20
254.458553563908
 30
0.0
 11
1056.131772769067
 21
254.458553563908
 31
0.0
  0
SOLID
  5
463A
330
4633
100
AcDbEntity
  8
0
 62
     0
440
 16777216
100
AcDbTrace
 10
927.2367727690673
 20
254.488553563908
 30
0.0
 11
927.2367727690673
 21
254.428553563908
 31
0.0
 12
927.0567727690673
 22
254.458553563908
 32
0.0
 13
927.0567727690673
 23
254.458553563908
 33
0.0
  0
SOLID
  5
463B
330
4633
100
AcDbEntity
  8
0
 62
     0
440
 16777216
100
AcDbTrace
 10
1183.676772769067
 20
254.488553563908
 30
0.0
 11
1183.676772769067
 21
254.428553563908
 31
0.0
 12
1183.856772769067
 22
254.458553563908
 32
0.0
 13
1183.856772769067
 23
254.458553563908
 33
0.0
  0
MTEXT
  5
463C
330
4633
100
AcDbEntity
  8
0
 62
     0
440
 16777216
100
AcDbMText
 10
1055.456772769067
 20
254.458553563908
 30
0.0
 40
0.18
 41
0.0
 46
0.0
 71
     5
 72
     1
  1
\A1;256.8000
 73
     1
 44
1.0
  0
POINT
  5
463D
330
4633
100
AcDbEntity
  8
Defpoints
 62
     0
440
 16777216
100
AcDbPoint
 10
927.0567727690673
 20
290.4832596933429
 30
0.0
  0
POINT
  5
463E
330
4633
100
AcDbEntity
  8
Defpoints
 62
     0
440
 16777216
100
AcDbPoint
 10
1183.856772769067
 20
290.4832596933429
 30
0.0
  0
POINT
  5
463F
330
4633
100
AcDbEntity
  8
Defpoints
 62
     0
440
 16777216
100
AcDbPoint
 10
1183.856772769067
 20
254.458553563908
 30
0.0
  0
ENDBLK
  5
4635
330
4633
100
AcDbEntity
  8
0
100
AcDbBlockEnd
  0
BLOCK
  5
4647
330
4646
100
AcDbEntity
  8
0
100
AcDbBlockBegin
  2
*D51
 70
     1
 10
0.0
 20
0.0
 30
0.0
  3
*D51
  1

  0
LINE
  5
4649
330
4646
100
AcDbEntity
  8
0
 62
     0
440
 16777216
370
    -2
100
AcDbLine
 10
1437.759702977253
 20
990.5566148832043
 30
0.0
 11
1437.759702977253
 21
1005.695579689725
 31
0.0
  0
LINE
  5
464A
330
4646
100
AcDbEntity
  8
0
 62
     0
440
 16777216
370
    -2
100
AcDbLine
 10
1513.759702977253
 20
989.5566148832044
 30
0.0
 11
1513.759702977253
 21
1005.695579689725
 31
0.0
  0
LINE
  5
464B
330
4646
100
AcDbEntity
  8
0
 62
     0
440
 16777216
370
    -2
100
AcDbLine
 10
1437.939702977253
 20
1005.515579689725
 30
0.0
 11
1475.189702977253
 21
1005.515579689725
 31
0.0
  0
LINE
  5
464C
330
4646
100
AcDbEntity
  8
0
 62
     0
440
 16777216
370
    -2
100
AcDbLine
 10
1513.579702977253
 20
1005.515579689725
 30
0.0
 11
1476.329702977253
 21
1005.515579689725
 31
0.0
  0
SOLID
  5
464D
330
4646
100
AcDbEntity
  8
0
 62
     0
440
 16777216
100
AcDbTrace
 10
1437.939702977253
 20
1005.545579689725
 30
0.0
 11
1437.939702977253
 21
1005.485579689725
 31
0.0
 12
1437.759702977253
 22
1005.515579689725
 32
0.0
 13
1437.759702977253
 23
1005.515579689725
 33
0.0
  0
SOLID
  5
464E
330
4646
100
AcDbEntity
  8
0
 62
     0
440
 16777216
100
AcDbTrace
 10
1513.579702977253
 20
1005.545579689725
 30
0.0
 11
1513.579702977253
 21
1005.485579689725
 31
0.0
 12
1513.759702977253
 22
1005.515579689725
 32
0.0
 13
1513.759702977253
 23
1005.515579689725
 33
0.0
  0
MTEXT
  5
464F
330
4646
100
AcDbEntity
  8
0
 62
     0
440
 16777216
100
AcDbMText
 10
1475.759702977253
 20
1005.515579689725
 30
0.0
 40
0.18
 41
0.0
 46
0.0
 71
     5
 72
     1
  1
\A1;76.0000
 73
     1
 44
1.0
  0
POINT
  5
4650
330
4646
100
AcDbEntity
  8
Defpoints
 62
     0
440
 16777216
100
AcDbPoint
 10
1437.759702977253
 20
990.4941148832044
 30
-0.0000000000000033
  0
POINT
  5
4651
330
4646
100
AcDbEntity
  8
Defpoints
 62
     0
440
 16777216
100
AcDbPoint
 10
1513.759702977253
 20
989.4941148832044
 30
0.0000000000000067
  0
POINT
  5
4652
330
4646
100
AcDbEntity
  8
Defpoints
 62
     0
440
 16777216
100
AcDbPoint
 10
1513.759702977253
 20
1005.515579689725
 30
0.0
  0
ENDBLK
  5
4648
330
4646
100
AcDbEntity
  8
0
100
AcDbBlockEnd
  0
BLOCK
  5
4655
330
4654
100
AcDbEntity
  8
0
100
AcDbBlockBegin
  2
*D52
 70
     1
 10
0.0
 20
0.0
 30
0.0
  3
*D52
  1

  0
LINE
  5
4657
330
4654
100
AcDbEntity
  8
0
 62
     0
440
 16777216
370
    -2
100
AcDbLine
 10
1742.154828324624
 20
988.5566148832056
 30
0.0
 11
1742.154828324624
 21
1003.915647735725
 31
0.0
  0
LINE
  5
4658
330
4654
100
AcDbEntity
  8
0
 62
     0
440
 16777216
370
    -2
100
AcDbLine
 10
1767.154828324624
 20
988.5566148832056
 30
0.0
 11
1767.154828324624
 21
1003.915647735725
 31
0.0
  0
LINE
  5
4659
330
4654
100
AcDbEntity
  8
0
 62
     0
440
 16777216
370
    -2
100
AcDbLine
 10
1742.334828324624
 20
1003.735647735725
 30
0.0
 11
1754.084828324624
 21
1003.735647735725
 31
0.0
  0
LINE
  5
465A
330
4654
100
AcDbEntity
  8
0
 62
     0
440
 16777216
370
    -2
100
AcDbLine
 10
1766.974828324624
 20
1003.735647735725
 30
0.0
 11
1755.224828324624
 21
1003.735647735725
 31
0.0
  0
SOLID
  5
465B
330
4654
100
AcDbEntity
  8
0
 62
     0
440
 16777216
100
AcDbTrace
 10
1742.334828324624
 20
1003.765647735725
 30
0.0
 11
1742.334828324624
 21
1003.705647735725
 31
0.0
 12
1742.154828324624
 22
1003.735647735725
 32
0.0
 13
1742.154828324624
 23
1003.735647735725
 33
0.0
  0
SOLID
  5
465C
330
4654
100
AcDbEntity
  8
0
 62
     0
440
 16777216
100
AcDbTrace
 10
1766.974828324624
 20
1003.765647735725
 30
0.0
 11
1766.974828324624
 21
1003.705647735725
 31
0.0
 12
1767.154828324624
 22
1003.735647735725
 32
0.0
 13
1767.154828324624
 23
1003.735647735725
 33
0.0
  0
MTEXT
  5
465D
330
4654
100
AcDbEntity
  8
0
 62
     0
440
 16777216
100
AcDbMText
 10
1754.654828324624
 20
1003.735647735725
 30
0.0
 40
0.18
 41
0.0
 46
0.0
 71
     5
 72
     1
  1
\A1;25.0000
 73
     1
 44
1.0
  0
POINT
  5
465E
330
4654
100
AcDbEntity
  8
Defpoints
 62
     0
440
 16777216
100
AcDbPoint
 10
1742.154828324624
 20
988.4941148832055
 30
0.0
  0
POINT
  5
465F
330
4654
100
AcDbEntity
  8
Defpoints
 62
     0
440
 16777216
100
AcDbPoint
 10
1767.154828324624
 20
988.4941148832055
 30
0.0
  0
POINT
  5
4660
330
4654
100
AcDbEntity
  8
Defpoints
 62
     0
440
 16777216
100
AcDbPoint
 10
1767.154828324624
 20
1003.735647735725
 30
0.0
  0
ENDBLK
  5
4656
330
4654
100
AcDbEntity
  8
0
100
AcDbBlockEnd
  0
ENDSEC
  0
SECTION
  2
ENTITIES
  0
LWPOLYLINE
  5
4755
330
1F
100
AcDbEntity
  8
HEWI
  6
Continuous
370
    18
100
AcDbPolyline
 90
       64
 70
     0
 43
0.0
 10
218.0811581376693
 20
273.1105466646586
 10
218.0811581376693
 20
273.0616560922617
 10
218.0811581376693
 20
272.9174359525195
 10
218.0811581376693
 20
272.6851180454487
 10
218.0811581376693
 20
272.3763517609868
 10
218.0811581376693
 20
272.0066199299322
 10
218.0811581376693
 20
271.5944624501581
 10
218.0811581376693
 20
271.1605466187216
 10
218.0811581376693
 20
271.0605466163656
 10
218.0811581376693
 20
270.6266307849292
 10
218.0811581376693
 20
270.214473305155
 10
218.0811581376693
 20
269.844741474099
 10
218.0811581376693
 20
269.5359751896376
 10
218.0811581376693
 20
269.3036572825672
 10
218.0811581376693
 20
269.159437142825
 10
218.0811581376693
 20
269.1105465704282
 10
359.8311577834011
 20
269.1105465704282
 10
361.1662833838018
 20
268.9601140399745
 10
362.4344602115998
 20
268.5163597638448
 10
363.5720965852052
 20
267.8015354343988
 10
364.5221466664843
 20
266.8514853283618
 10
365.2369709773048
 20
265.7138489251147
 10
365.680725241873
 20
264.4456720642716
 10
365.8311577684053
 20
263.1105464290813
 10
365.8311577684053
 20
61.11054167043426
 10
365.6807252418712
 20
59.77541603524378
 10
365.2369709773048
 20
58.50723917440063
 10
364.5221466664843
 20
57.36960277115395
 10
363.5720965852033
 20
56.41955266511672
 10
362.4344602115998
 20
55.70472833567055
 10
361.1662833838018
 20
55.26097405954124
 10
359.8311577833992
 20
55.11054152908741
 10
75.8311584931871
 20
55.11054152908901
 10
74.49603289278821
 20
55.26097405954215
 10
73.22785606499019
 20
55.70472833567237
 10
72.09021969138484
 20
56.4195526651174
 10
71.14016961010384
 20
57.36960277115485
 10
70.42534529928525
 20
58.50723917440177
 10
69.98159103471699
 20
59.77541603524469
 10
69.83115850818467
 20
61.11054167043494
 10
69.83115850818467
 20
263.1105464290831
 10
69.98159103471881
 20
264.4456720642734
 10
70.42534529928525
 20
265.7138489251156
 10
71.14016961010566
 20
266.8514853283632
 10
72.09021969138666
 20
267.8015354343997
 10
73.22785606499019
 20
268.5163597638457
 10
74.49603289278821
 20
268.9601140399759
 10
75.83115849318892
 20
269.1105465704286
 10
217.5811581389207
 20
269.1105465704282
 10
217.5811581389207
 20
269.159437142825
 10
217.5811581389207
 20
269.3036572825672
 10
217.5811581389207
 20
269.5359751896376
 10
217.5811581389207
 20
269.844741474099
 10
217.5811581389207
 20
270.214473305155
 10
217.5811581389207
 20
270.6266307849292
 10
217.5811581389207
 20
271.0605466163656
 10
217.5811581389207
 20
271.1605466187216
 10
217.5811581389207
 20
271.5944624501581
 10
217.5811581389207
 20
272.0066199299322
 10
217.5811581389207
 20
272.3763517609868
 10
217.5811581389207
 20
272.6851180454487
 10
217.5811581389207
 20
272.9174359525195
 10
217.5811581389207
 20
273.0616560922617
 10
217.5811581389207
 20
273.1105466646586
  0
LWPOLYLINE
  5
4756
330
1F
100
AcDbEntity
  8
HEWI
  6
Continuous
370
    18
100
AcDbPolyline
 90
        3
 70
     0
 43
0.0
 10
60.45987378015706
 20
46.48067792519987
 10
60.58647454391757
 20
46.33777520020112
 10
60.59436640617787
 20
46.33232784085612
  0
LWPOLYLINE
  5
4757
330
1F
100
AcDbEntity
  8
HEWI
  6
Continuous
370
    18
100
AcDbPolyline
 90
       34
 70
     0
 43
0.0
 10
217.5811581389207
 20
273.1105466646586
 10
75.83115849318892
 20
273.1105466646595
 10
73.60594915918773
 20
272.8598257805706
 10
71.4923211128571
 20
272.1202353203539
 10
69.59626049018334
 20
270.9288614379438
 10
68.01284368804954
 20
269.3454445945499
 10
66.82146983668281
 20
267.4493839224711
 10
66.0818793957369
 20
265.3357558210664
 10
65.83115851818184
 20
263.1105464290831
 10
65.83115851818002
 20
61.11054167043494
 10
66.0818793957369
 20
58.88533227845119
 10
66.82146983668281
 20
56.7717041770461
 10
68.01284368804954
 20
54.87564350496791
 10
69.59626049018334
 20
53.29222666157306
 10
71.4923211128571
 20
52.10085277916324
 10
73.60594915918773
 20
51.36126231894627
 10
75.8311584931871
 20
51.11054143485853
 10
359.8311577833992
 20
51.11054143485763
 10
362.0563671174023
 20
51.36126231894536
 10
364.1699951637311
 20
52.10085277916255
 10
366.0660557864048
 20
53.29222666157216
 10
367.6494725885405
 20
54.87564350496723
 10
368.8408464399072
 20
56.7717041770452
 10
369.5804368808531
 20
58.88533227844959
 10
369.8311577584064
 20
61.11054167043426
 10
369.8311577584082
 20
263.1105464290813
 10
369.5804368808531
 20
265.335755821066
 10
368.8408464399072
 20
267.4493839224697
 10
367.6494725885423
 20
269.3454445945481
 10
366.0660557864066
 20
270.9288614379429
 10
364.1699951637329
 20
272.120235320353
 10
362.0563671174041
 20
272.8598257805702
 10
359.8311577834011
 20
273.1105466646577
 10
218.0811581376693
 20
273.1105466646577
  0
LINE
  5
4758
330
1F
100
AcDbEntity
  8
HEWI
  6
Continuous
370
    18
100
AcDbLine
 10
50.65186927474133
 20
36.38983036947593
 30
0.0
 11
50.51044783783073
 21
36.5312518100709
 31
0.0
  0
LWPOLYLINE
  5
4759
330
1F
100
AcDbEntity
  8
HEWI
  6
Continuous
370
    18
100
AcDbPolyline
 90
        4
 70
     0
 43
0.0
 10
258.9951168513417
 20
273.1105466642652
 10
259.0960571122177
 20
273.3990173639158
 10
259.1311580350757
 20
273.7105466787934
 10
259.1311580350757
 20
278.7105467965816
  0
LWPOLYLINE
  5
475A
330
1F
100
AcDbEntity
  8
HEWI
  6
Continuous
370
    18
100
AcDbPolyline
 90
       15
 70
     1
 43
0.0
 10
177.3311582752794
 20
273.7105466787943
 10
177.931158238016
 20
273.7105466787943
 10
177.931158238016
 20
273.5770341152747
 10
177.931158238016
 20
273.4502164291907
 10
177.931158238016
 20
273.3364527888662
 10
177.931158238016
 20
273.2414477782622
 10
177.931158238016
 20
273.1699653453179
 10
177.931158238016
 20
273.1255899177049
 10
177.931158238016
 20
273.1105466646595
 10
177.7976456779761
 20
273.1255899177045
 10
177.6708279951963
 20
273.1699653453179
 10
177.5570643578357
 20
273.2414477782613
 10
177.4620593497075
 20
273.3364527888662
 10
177.3905769186258
 20
273.4502164291898
 10
177.3462014921679
 20
273.5770341152738
  0
LWPOLYLINE
  5
475B
330
1F
100
AcDbEntity
  8
HEWI
  6
Continuous
370
    18
100
AcDbPolyline
 90
       15
 70
     1
 43
0.0
 10
258.3311580370755
 20
273.7105466787934
 10
258.3161147844221
 20
273.5770341152738
 10
258.271739357966
 20
273.4502164291898
 10
258.2002569268843
 20
273.3364527888662
 10
258.1052519187561
 20
273.2414477782613
 10
257.9914882813955
 20
273.1699653453179
 10
257.8646705986157
 20
273.1255899177045
 10
257.7311580385758
 20
273.1105466646595
 10
257.7311580385758
 20
273.1255899177045
 10
257.7311580385758
 20
273.1699653453179
 10
257.7311580385758
 20
273.2414477782622
 10
257.7311580385758
 20
273.3364527888662
 10
257.7311580385758
 20
273.4502164291907
 10
257.7311580385758
 20
273.5770341152747
 10
257.7311580385758
 20
273.7105466787943
  0
LINE
  5
475C
330
1F
100
AcDbEntity
  8
HEWI
  6
Continuous
370
    18
100
AcDbLine
 10
177.3311582395145
 20
273.7105466787943
 30
0.0
 11
177.3311582395145
 21
278.7105467965826
 31
0.0
  0
LINE
  5
475D
330
1F
100
AcDbEntity
  8
HEWI
  6
Continuous
370
    18
100
AcDbLine
 10
217.581159092595
 20
272.3105466458128
 30
0.0
 11
218.0811571839968
 21
272.3105466458128
 31
0.0
  0
LWPOLYLINE
  5
475E
330
1F
100
AcDbEntity
  8
HEWI
  6
Continuous
370
    18
100
AcDbPolyline
 90
        4
 70
     0
 43
0.0
 10
176.6671994250573
 20
273.1105466648164
 10
176.5662591643722
 20
273.3990173639158
 10
176.5311582415161
 20
273.7105466787943
 10
176.5311582415161
 20
278.7105467965826
  0
LINE
  5
475F
330
1F
100
AcDbEntity
  8
HEWI
  6
Continuous
370
    18
100
AcDbLine
 10
218.0811571839968
 20
273.1105466646595
 30
0.0
 11
217.581159092595
 21
273.1105466646595
 31
0.0
  0
LWPOLYLINE
  5
4760
330
1F
100
AcDbEntity
  8
HEWI
  6
Continuous
370
    18
100
AcDbPolyline
 90
       27
 70
     0
 43
0.0
 10
326.8603223694136
 20
278.7105467965826
 10
326.8852116534217
 20
278.4880258573844
 10
326.9586314528133
 20
278.2766630472433
 10
327.0769001922763
 20
278.0870569800359
 10
327.2340873833637
 20
277.9287152956968
 10
327.4223110039584
 20
277.8095779074551
 10
327.632132735771
 20
277.7356188614335
 10
327.8530312410312
 20
277.7105467730248
 10
328.0261091348366
 20
277.7105467730248
 10
328.3622062643717
 20
277.7105467730248
 10
328.8417898861317
 20
277.7105467730248
 10
329.4369883432355
 20
277.7105467730248
 10
330.1132108648126
 20
277.7105467730248
 10
330.8311578558805
 20
277.7105467730248
 10
331.5491048469503
 20
277.7105467730248
 10
332.2253273685292
 20
277.7105467730248
 10
332.8205258256312
 20
277.7105467730248
 10
333.300109447393
 20
277.7105467730248
 10
333.6362065769281
 20
277.7105467730248
 10
333.8092844707335
 20
277.7105467730248
 10
334.0301829759919
 20
277.7356188614335
 10
334.2400047078063
 20
277.8095779074551
 10
334.428228328401
 20
277.9287152956958
 10
334.5854155194884
 20
278.0870569800359
 10
334.7036842589496
 20
278.2766630472433
 10
334.777104058343
 20
278.4880258573844
 10
334.8019933423493
 20
278.7105467965826
  0
LINE
  5
4761
330
1F
100
AcDbEntity
  8
HEWI
  6
Continuous
370
    18
100
AcDbLine
 10
258.3311580370755
 20
278.7105467965816
 30
0.0
 11
258.3311580370755
 21
273.7105466787934
 31
0.0
  0
LWPOLYLINE
  5
4762
330
1F
100
AcDbEntity
  8
HEWI
  6
Continuous
370
    18
100
AcDbPolyline
 90
       18
 70
     0
 43
0.0
 10
49.23115855966898
 20
292.1691257574053
 10
61.43115852917799
 20
279.9691254700015
 10
61.67869893672468
 20
279.8106769009101
 10
61.79352995542649
 20
279.7357495839055
 10
61.83077350255371
 20
279.7111075649923
 10
61.8062776864499
 20
279.7476683186328
 10
61.75570867474198
 20
279.8249368374927
 10
61.66400728523331
 20
279.9671999886418
 10
61.57257988506171
 20
280.11054682957
 10
49.3725799155527
 20
292.3105471169729
 10
49.35348803250781
 20
292.602336490273
 10
49.33439614946292
 20
292.8780299733853
 10
49.31530426641984
 20
293.1287571494077
 10
49.29621238337495
 20
293.3456476014371
 10
49.27712050033005
 20
293.5198309125681
 10
49.25802861728517
 20
293.6424366658985
 10
49.24459358847707
 20
293.6930043450288
 10
49.23115855966717
 20
293.7105471499535
  0
LWPOLYLINE
  5
4763
330
1F
100
AcDbEntity
  8
HEWI
  6
Continuous
370
    18
100
AcDbPolyline
 90
       18
 70
     0
 43
0.0
 10
94.83115844570239
 20
293.7105471499535
 10
94.83115844570239
 20
293.675446226182
 10
94.83115844570239
 20
293.5719035617517
 10
94.83115844570239
 20
293.4051112182146
 10
94.83115844570239
 20
293.1834328601394
 10
94.83115844570239
 20
292.9179843660486
 10
94.83115844570239
 20
292.6220764318505
 10
94.83115844570239
 20
292.3105471169729
 10
94.83115844570239
 20
280.11054682957
 10
94.83115844570239
 20
279.7990175146924
 10
94.83115844570239
 20
279.5031095804957
 10
94.83115844570239
 20
279.2376610864049
 10
94.83115844570239
 20
279.0159827283292
 10
94.83115844570239
 20
278.8491903847921
 10
94.83115844570239
 20
278.7456477203609
 10
94.83115844570239
 20
278.7105467965885
 10
62.97257988156343
 20
278.7105467965885
 10
62.81413131659974
 20
278.732827873991
  0
LWPOLYLINE
  5
4764
330
1F
100
AcDbEntity
  8
HEWI
  6
Continuous
370
    18
100
AcDbPolyline
 90
        8
 70
     0
 43
0.0
 10
49.23115855966717
 20
292.9105471311077
 10
49.24459358847707
 20
292.9030287861396
 10
49.25802861728517
 20
292.8813569236554
 10
49.27712050033005
 20
292.8288116007998
 10
49.29621238337495
 20
292.7541616103149
 10
49.31530426641984
 20
292.6612085594452
 10
49.33439614946292
 20
292.5537540554351
 10
49.35348803250781
 20
292.43559970553
  0
LINE
  5
4765
330
1F
100
AcDbEntity
  8
HEWI
  6
Continuous
370
    18
100
AcDbLine
 10
47.83115856316726
 20
292.3105471169729
 30
0.0
 11
47.83115856316908
 21
35.11054105794301
 31
0.0
  0
LINE
  5
4766
330
1F
100
AcDbEntity
  8
HEWI
  6
Continuous
370
    18
100
AcDbLine
 10
49.23115855966898
 20
33.71054102496146
 30
0.0
 11
386.431157716921
 21
33.71054102496146
 31
0.0
  0
LINE
  5
4767
330
1F
100
AcDbEntity
  8
HEWI
  6
Continuous
370
    18
100
AcDbLine
 10
387.8311577134227
 20
35.11054105794187
 30
0.0
 11
387.8311577134227
 21
292.3105471169729
 31
0.0
  0
LINE
  5
4768
330
1F
100
AcDbEntity
  8
HEWI
  6
Continuous
370
    18
100
AcDbLine
 10
49.23115855966717
 20
293.7105471499535
 30
0.0
 11
94.83115844570239
 21
293.7105471499535
 31
0.0
  0
LWPOLYLINE
  5
4769
330
1F
100
AcDbEntity
  8
HEWI
  6
Continuous
370
    18
100
AcDbPolyline
 90
        8
 70
     0
 43
0.0
 10
386.431157716921
 20
33.71054102496146
 10
386.7426870236814
 20
33.74564194873392
 10
387.0385949501669
 20
33.8491846131642
 10
387.3040434373415
 20
34.01597695670216
 10
387.5257217896396
 20
34.23765531477739
 10
387.6925141288321
 20
34.50310380886822
 10
387.7960567905648
 20
34.79901174306519
 10
387.8311577134227
 20
35.11054105794187
  0
LWPOLYLINE
  5
476A
330
1F
100
AcDbEntity
  8
HEWI
  6
Continuous
370
    18
100
AcDbPolyline
 90
        4
 70
     0
 43
0.0
 10
340.8311578308858
 20
293.7105471499563
 10
337.8311578383855
 20
293.7105471499563
 10
337.8311578383855
 20
292.9105471311104
 10
340.8311578308858
 20
292.9105471311104
  0
LWPOLYLINE
  5
476B
330
1F
100
AcDbEntity
  8
HEWI
  6
Continuous
370
    18
100
AcDbPolyline
 90
        8
 70
     0
 43
0.0
 10
386.431157716921
 20
34.51054104380796
 10
386.5646702769609
 20
34.52558429685382
 10
386.6914879597407
 20
34.56995972446703
 10
386.8052515971013
 20
34.64144215741089
 10
386.9002566052295
 20
34.73644716801459
 10
386.9717390363112
 20
34.85021080833917
 10
387.0161144627673
 20
34.97702849442362
 10
387.0311577154207
 20
35.11054105794187
  0
LWPOLYLINE
  5
476C
330
1F
100
AcDbEntity
  8
HEWI
  6
Continuous
370
    18
100
AcDbPolyline
 90
        8
 70
     0
 43
0.0
 10
49.23115855966717
 20
292.9105471311077
 10
49.09764599962909
 20
292.8955038780628
 10
48.97082831684747
 20
292.8511284504498
 10
48.85706467948875
 20
292.7796460175059
 10
48.76205967136048
 20
292.6846410069011
 10
48.69057724027697
 20
292.5708773665765
 10
48.6462018138227
 20
292.4440596804925
 10
48.63115856116746
 20
292.3105471169729
  0
LWPOLYLINE
  5
476D
330
1F
100
AcDbEntity
  8
HEWI
  6
Continuous
370
    18
100
AcDbPolyline
 90
        8
 70
     0
 43
0.0
 10
48.63115856116746
 20
35.11054105794301
 10
48.6462018138227
 20
34.97702849442362
 10
48.6905772402788
 20
34.85021080833917
 10
48.76205967136048
 20
34.73644716801459
 10
48.85706467948875
 20
34.64144215741089
 10
48.97082831684929
 20
34.56995972446703
 10
49.09764599962909
 20
34.52558429685382
 10
49.23115855966898
 20
34.51054104380796
  0
LINE
  5
476E
330
1F
100
AcDbEntity
  8
HEWI
  6
Continuous
370
    18
100
AcDbLine
 10
49.23115855966717
 20
293.7105471499535
 30
0.0
 11
49.23115855966717
 21
292.9105471311077
 31
0.0
  0
LWPOLYLINE
  5
476F
330
1F
100
AcDbEntity
  8
HEWI
  6
Continuous
370
    18
100
AcDbPolyline
 90
       24
 70
     0
 43
0.0
 10
49.23115855966898
 20
33.71054102496146
 10
49.25025044271388
 20
33.74552875472546
 10
49.26934232575877
 20
33.84457833274792
 10
49.28843420880184
 20
33.99881934212363
 10
49.30752609184492
 20
34.19938136595078
 10
49.32661797489164
 20
34.43739398732555
 10
49.34570985793652
 20
34.70398678934293
 10
49.35914488674462
 20
34.90392934868874
 10
49.3725799155527
 20
35.11054105794301
 10
61.57257988506171
 20
47.31054134534588
 10
61.60020840756442
 20
47.35393221192953
 10
61.62783724930704
 20
47.39728118440189
 10
61.65546584857839
 20
47.44054696951048
 10
61.66927878733623
 20
47.46213388408205
 10
61.69690662629182
 20
47.50519723357411
 10
61.72453401733037
 20
47.54807383001526
 10
61.73834642736256
 20
47.56942734956782
 10
61.76597356751881
 20
47.61194637823905
 10
61.77978600663118
 20
47.63309799615763
 10
61.80591114265007
 20
47.6728881499207
 10
61.80741350390963
 20
47.67516716989689
 10
61.83020204876993
 20
47.70957810084292
 10
61.83504148408974
 20
47.7168856966391
 10
61.84885449063767
 20
47.73759915294454
  0
LWPOLYLINE
  5
4770
330
1F
100
AcDbEntity
  8
HEWI
  6
Continuous
370
    18
100
AcDbPolyline
 90
        8
 70
     0
 43
0.0
 10
47.83115856316726
 20
292.3105471169729
 10
47.86625948602522
 20
292.6220764318505
 10
47.96980214775612
 20
292.9179843660486
 10
48.13659448694853
 20
293.1834328601389
 10
48.35827283924664
 20
293.4051112182137
 10
48.62372132642303
 20
293.5719035617508
 10
48.91962925290681
 20
293.675446226182
 10
49.23115855966717
 20
293.7105471499535
  0
LINE
  5
4771
330
1F
100
AcDbEntity
  8
HEWI
  6
Continuous
370
    18
100
AcDbLine
 10
49.23115855966898
 20
34.51054104380796
 30
0.0
 11
49.23115855966898
 21
33.71054102496146
 31
0.0
  0
LWPOLYLINE
  5
4772
330
1F
100
AcDbEntity
  8
HEWI
  6
Continuous
370
    18
100
AcDbPolyline
 90
       13
 70
     0
 43
0.0
 10
387.8311577134227
 20
35.11054105794187
 10
387.7961699845691
 20
35.12963294148472
 10
387.6971204091296
 20
35.14872482502642
 10
387.5428794037707
 20
35.16781670856744
 10
387.3423173851715
 20
35.18690859211029
 10
387.1043047699986
 20
35.20600047565131
 10
386.8377119749275
 20
35.22509235919415
 10
386.6377694207913
 20
35.2385273883524
 10
386.431157716921
 20
35.25196241751064
 10
374.2311577474138
 20
47.45196270491487
 10
373.9836173398635
 20
47.61041127400608
 10
373.8687863211617
 20
47.68533859101035
 10
373.8321135740461
 20
47.70959604925065
  0
LWPOLYLINE
  5
4773
330
1F
100
AcDbEntity
  8
HEWI
  6
Continuous
370
    18
100
AcDbPolyline
 90
        8
 70
     0
 43
0.0
 10
49.23115855966898
 20
33.71054102496146
 10
48.91962925290863
 20
33.74564194873392
 10
48.62372132642303
 20
33.8491846131642
 10
48.35827283924846
 20
34.01597695670216
 10
48.13659448695034
 20
34.23765531477739
 10
47.96980214775977
 20
34.50310380886822
 10
47.86625948602522
 20
34.79901174306519
 10
47.83115856316908
 20
35.11054105794301
  0
LINE
  5
4774
330
1F
100
AcDbEntity
  8
HEWI
  6
Continuous
370
    18
100
AcDbLine
 10
386.431157716921
 20
293.7105471499535
 30
0.0
 11
340.8311578308858
 21
293.7105471499563
 31
0.0
  0
LWPOLYLINE
  5
4775
330
1F
100
AcDbEntity
  8
HEWI
  6
Continuous
370
    18
100
AcDbPolyline
 90
       24
 70
     0
 43
0.0
 10
372.8464992478548
 20
278.7321462490008
 10
372.8326868025543
 20
278.7285152975464
 10
372.8050592838899
 20
278.7222495761439
 10
372.7774312732272
 20
278.7173178373678
 10
372.7636182495626
 20
278.715353887776
 10
372.7359895298796
 20
278.7124314931025
 10
372.7221762807803
 20
278.7114739916119
 10
372.6897363950266
 20
278.7105467965885
 10
340.8311578308858
 20
278.7105467965912
 10
340.8311578308858
 20
278.7456477203609
 10
340.8311578308858
 20
278.8491903847912
 10
340.8311578308858
 20
279.0159827283292
 10
340.8311578308858
 20
279.2376610864044
 10
340.8311578308858
 20
279.5031095804957
 10
340.8311578308858
 20
279.7990175146924
 10
340.8311578308858
 20
280.11054682957
 10
340.8311578308858
 20
292.3105471169729
 10
340.8311578308858
 20
292.6220764318505
 10
340.8311578308858
 20
292.9179843660486
 10
340.8311578308858
 20
293.1834328601389
 10
340.8311578308858
 20
293.4051112182137
 10
340.8311578308858
 20
293.5719035617508
 10
340.8311578308858
 20
293.675446226182
 10
340.8311578308858
 20
293.7105471499563
  0
LWPOLYLINE
  5
4776
330
1F
100
AcDbEntity
  8
HEWI
  6
Continuous
370
    18
100
AcDbPolyline
 90
        4
 70
     0
 43
0.0
 10
94.83115844570239
 20
292.9105471311077
 10
97.83115843820452
 20
292.9105471311077
 10
97.83115843820452
 20
293.7105471499535
 10
94.83115844570239
 20
293.7105471499535
  0
LWPOLYLINE
  5
4777
330
1F
100
AcDbEntity
  8
HEWI
  6
Continuous
370
    18
100
AcDbPolyline
 90
        8
 70
     0
 43
0.0
 10
387.8311577134227
 20
292.3105471169729
 10
387.7960567905648
 20
292.6220764318505
 10
387.6925141288321
 20
292.9179843660477
 10
387.5257217896415
 20
293.1834328601389
 10
387.3040434373415
 20
293.4051112182137
 10
387.0385949501688
 20
293.5719035617508
 10
386.7426870236814
 20
293.675446226182
 10
386.431157716921
 20
293.7105471499535
  0
LWPOLYLINE
  5
4778
330
1F
100
AcDbEntity
  8
HEWI
  6
Continuous
370
    18
100
AcDbPolyline
 90
        6
 70
     0
 43
0.0
 10
373.8317415123693
 20
279.7109472686675
 10
373.8682792459294
 20
279.7354276625224
 10
373.9455477627762
 20
279.7859966755482
 10
374.0878109102196
 20
279.8776980674465
 10
374.2311577474138
 20
279.9691254700015
 10
386.431157716921
 20
292.1691257574043
  0
LINE
  5
4779
330
1F
100
AcDbEntity
  8
HEWI
  6
Continuous
370
    18
100
AcDbLine
 10
48.63115856116746
 20
292.3105471169729
 30
0.0
 11
47.83115856316726
 21
292.3105471169729
 31
0.0
  0
LWPOLYLINE
  5
477A
330
1F
100
AcDbEntity
  8
HEWI
  6
Continuous
370
    18
100
AcDbPolyline
 90
       16
 70
     0
 43
0.0
 10
61.88598119896778
 20
47.74686178524416
 10
61.84472548403028
 20
47.71923321970712
 10
61.8239477921652
 20
47.70542029712987
 10
61.79350499421889
 20
47.6852937522201
 10
61.7821105640287
 20
47.67779248544684
 10
61.73993585303287
 20
47.65016511131125
 10
61.71873644693732
 20
47.63635270494638
 10
61.67613185161281
 20
47.60872556182812
 10
61.65474058175096
 20
47.59491311616807
 10
61.61179857671959
 20
47.56728559678299
 10
61.56868331474834
 20
47.53965758539971
 10
61.54707551160391
 20
47.52584456137492
 10
61.50377807203767
 20
47.49821584097185
 10
61.48210248169198
 20
47.48440259151289
 10
61.43115852917799
 20
47.45196270491487
 10
49.23115855966898
 20
35.25196241751155
  0
LWPOLYLINE
  5
477B
330
1F
100
AcDbEntity
  8
HEWI
  6
Continuous
370
    18
100
AcDbPolyline
 90
       24
 70
     0
 43
0.0
 10
373.7948373188847
 20
47.76536402698503
 10
373.8224658837007
 20
47.7241083109734
 10
373.8362788059167
 20
47.70333061856763
 10
373.8564053503032
 20
47.67288781982915
 10
373.8639066168817
 20
47.66149338934065
 10
373.891533990296
 20
47.61931867724615
 10
373.9053463963028
 20
47.59811927059717
 10
373.9329735387
 20
47.55551467416217
 10
373.9467859840006
 20
47.53412340374325
 10
373.9744135026649
 20
47.49118139759275
 10
374.0020415133295
 20
47.44806613450009
 10
374.0158545369941
 20
47.4264583307904
 10
374.0434832566771
 20
47.38316089009731
 10
374.0572965057763
 20
47.36148529918546
 10
374.0897363915283
 20
47.31054134534588
 10
386.2897363610373
 20
35.11054105794301
 10
386.3088282440804
 20
34.81875168464376
 10
386.3279201271252
 20
34.54305820153058
 10
386.3470120101701
 20
34.29233102550802
 10
386.3661038932132
 20
34.07544057347968
 10
386.3851957762581
 20
33.90125726234783
 10
386.404287659303
 20
33.77865150901744
 10
386.4177226881111
 20
33.72808382988706
 10
386.431157716921
 20
33.71054102496146
  0
LWPOLYLINE
  5
477C
330
1F
100
AcDbEntity
  8
HEWI
  6
Continuous
370
    18
100
AcDbPolyline
 90
       24
 70
     0
 43
0.0
 10
386.431157716921
 20
293.7105471499535
 10
386.4120658338779
 20
293.6755594201904
 10
386.392973950833
 20
293.5765098421689
 10
386.37388206779
 20
293.4222688327923
 10
386.3547901847433
 20
293.2217068089658
 10
386.3356983017002
 20
292.9836941875915
 10
386.3166064186571
 20
292.7171013855737
 10
386.3031713898472
 20
292.5171588262269
 10
386.2897363610391
 20
292.3105471169729
 10
374.0897363915283
 20
280.11054682957
 10
374.0621078690274
 20
280.0671559629872
 10
374.0344790272847
 20
280.0238069905149
 10
374.0068504280116
 20
279.9805412054052
 10
373.9930374892556
 20
279.9589542908352
 10
373.9654096502982
 20
279.9158909413427
 10
373.9377822592596
 20
279.8730143449016
 10
373.9239698492274
 20
279.8516608253481
 10
373.8963427090712
 20
279.8091417966775
 10
373.8825302699588
 20
279.7879901787583
 10
373.8564051339417
 20
279.7482000249952
 10
373.8549027726822
 20
279.7459210050188
 10
373.8272747925003
 20
279.7042024782768
 10
373.8134617859523
 20
279.683489021972
 10
373.7858331001735
 20
279.6423714641615
  0
LINE
  5
477D
330
1F
100
AcDbEntity
  8
HEWI
  6
Continuous
370
    18
100
AcDbLine
 10
47.83115856316908
 20
35.11054105794301
 30
0.0
 11
48.63115856116746
 21
35.11054105794301
 31
0.0
  0
LINE
  5
477E
330
1F
100
AcDbEntity
  8
HEWI
  6
Continuous
370
    18
100
AcDbLine
 10
386.431157716921
 20
33.71054102496146
 30
0.0
 11
386.431157716921
 21
34.51054104380796
 31
0.0
  0
LWPOLYLINE
  5
477F
330
1F
100
AcDbEntity
  8
HEWI
  6
Continuous
370
    18
100
AcDbPolyline
 90
        8
 70
     0
 43
0.0
 10
387.0311577154207
 20
292.3105471169729
 10
387.0161144627691
 20
292.4440596804925
 10
386.9717390363112
 20
292.5708773665765
 10
386.9002566052295
 20
292.6846410069011
 10
386.805251597103
 20
292.7796460175059
 10
386.6914879597407
 20
292.8511284504498
 10
386.5646702769627
 20
292.8955038780628
 10
386.431157716921
 20
292.9105471311077
  0
LWPOLYLINE
  5
4780
330
1F
100
AcDbEntity
  8
HEWI
  6
Continuous
370
    18
100
AcDbPolyline
 90
        8
 70
     0
 43
0.0
 10
386.3088282440804
 20
34.98548846938593
 10
386.3279201271252
 20
34.86733411948057
 10
386.3470120101701
 20
34.75987961547048
 10
386.3661038932132
 20
34.666926564601
 10
386.3851957762581
 20
34.59227657411612
 10
386.404287659303
 20
34.53973125126049
 10
386.4177226881111
 20
34.51805938877555
 10
386.431157716921
 20
34.51054104380796
  0
LWPOLYLINE
  5
4781
330
1F
100
AcDbEntity
  8
HEWI
  6
Continuous
370
    18
100
AcDbPolyline
 90
        9
 70
     0
 43
0.0
 10
48.63115856116746
 20
292.3105471169729
 10
48.64615330210472
 20
292.2914552334319
 10
48.68860312015022
 20
292.2723633498899
 10
48.75470640816093
 20
292.253271466348
 10
48.84066155899017
 20
292.2341795828065
 10
48.94266696549312
 20
292.2150876992646
 10
49.05692102052308
 20
292.1959958157227
 10
49.14261068658015
 20
292.1825607865644
 10
49.23115855966898
 20
292.1691257574053
  0
LWPOLYLINE
  5
4782
330
1F
100
AcDbEntity
  8
HEWI
  6
Continuous
370
    18
100
AcDbPolyline
 90
        8
 70
     0
 43
0.0
 10
49.23115855966898
 20
34.51054104380796
 10
49.25025044271388
 20
34.52553578513516
 10
49.26934232575877
 20
34.56798560428729
 10
49.28843420880184
 20
34.63408889402035
 10
49.30752609184492
 20
34.72004404708855
 10
49.32661797489164
 20
34.82204945624949
 10
49.34570985793652
 20
34.93630351425645
 10
49.35914488674462
 20
35.02199318254838
  0
LWPOLYLINE
  5
4783
330
1F
100
AcDbEntity
  8
HEWI
  6
Continuous
370
    18
100
AcDbPolyline
 90
        9
 70
     0
 43
0.0
 10
49.23115855966898
 20
292.1691257574053
 10
49.02454685579687
 20
292.1825607865644
 10
48.82460430166247
 20
292.1959958157227
 10
48.55801150659136
 20
292.2150876992646
 10
48.31999889141844
 20
292.2341795828065
 10
48.11943687281746
 20
292.253271466348
 10
47.96519586746035
 20
292.2723633498899
 10
47.86614629201904
 20
292.2914552334319
 10
47.83115856316726
 20
292.3105471169729
  0
LINE
  5
4784
330
1F
100
AcDbEntity
  8
HEWI
  6
Continuous
370
    18
100
AcDbLine
 10
387.0311577154207
 20
35.11054105794187
 30
0.0
 11
387.8311577134227
 21
35.11054105794187
 31
0.0
  0
LINE
  5
4785
330
1F
100
AcDbEntity
  8
HEWI
  6
Continuous
370
    18
100
AcDbLine
 10
386.431157716921
 20
292.9105471311077
 30
0.0
 11
386.431157716921
 21
293.7105471499535
 31
0.0
  0
LINE
  5
4786
330
1F
100
AcDbEntity
  8
HEWI
  6
Continuous
370
    18
100
AcDbLine
 10
387.8311577134227
 20
292.3105471169729
 30
0.0
 11
387.0311577154207
 21
292.3105471169729
 31
0.0
  0
LWPOLYLINE
  5
4787
330
1F
100
AcDbEntity
  8
HEWI
  6
Continuous
370
    18
100
AcDbPolyline
 90
        9
 70
     0
 43
0.0
 10
47.83115856316908
 20
35.11054105794301
 10
47.84870136763674
 20
35.12397608710216
 10
47.89926904544882
 20
35.13741111626132
 10
48.02187479558416
 20
35.15650299980257
 10
48.19605810217763
 20
35.17559488334427
 10
48.41294854855369
 20
35.19468676688598
 10
48.66367571804403
 20
35.21377865042814
 10
48.93936919397311
 20
35.23287053396984
 10
49.23115855966898
 20
35.25196241751155
  0
LWPOLYLINE
  5
4788
330
1F
100
AcDbEntity
  8
HEWI
  6
Continuous
370
    18
100
AcDbPolyline
 90
        9
 70
     0
 43
0.0
 10
49.23115855966898
 20
35.25196241751155
 10
49.10610597437153
 20
35.23287053396984
 10
48.98795162754322
 20
35.21377865042814
 10
48.88049712633438
 20
35.19468676688598
 10
48.78754407788801
 20
35.17559488334427
 10
48.71289408934718
 20
35.15650299980257
 10
48.66034876786034
 20
35.13741111626132
 10
48.63867690594088
 20
35.12397608710216
 10
48.63115856116746
 20
35.11054105794301
  0
LWPOLYLINE
  5
4789
330
1F
100
AcDbEntity
  8
HEWI
  6
Continuous
370
    18
100
AcDbPolyline
 90
        9
 70
     0
 43
0.0
 10
387.8311577134227
 20
292.3105471169729
 10
387.8136149089532
 20
292.2971120878147
 10
387.7630472311412
 20
292.2836770586555
 10
387.6404414810058
 20
292.2645851751131
 10
387.4662581744124
 20
292.2454932915725
 10
387.2493677280345
 20
292.2264014080297
 10
386.998640558546
 20
292.2073095244877
 10
386.7229470826187
 20
292.1882176409468
 10
386.431157716921
 20
292.1691257574043
  0
LWPOLYLINE
  5
478A
330
1F
100
AcDbEntity
  8
HEWI
  6
Continuous
370
    18
100
AcDbPolyline
 90
        9
 70
     0
 43
0.0
 10
386.431157716921
 20
292.1691257574043
 10
386.5562103022203
 20
292.1882176409468
 10
386.674364649045
 20
292.2073095244877
 10
386.7818191502556
 20
292.2264014080297
 10
386.874772198702
 20
292.2454932915725
 10
386.9494221872428
 20
292.2645851751131
 10
387.0019675087296
 20
292.2836770586555
 10
387.0236393706491
 20
292.2971120878147
 10
387.0311577154207
 20
292.3105471169729
  0
LWPOLYLINE
  5
478B
330
1F
100
AcDbEntity
  8
HEWI
  6
Continuous
370
    18
100
AcDbPolyline
 90
        8
 70
     0
 43
0.0
 10
387.0311577154207
 20
35.11054105794187
 10
387.0161629744853
 20
35.12963294148472
 10
386.9737131564379
 20
35.14872482502642
 10
386.9076098684291
 20
35.16781670856744
 10
386.821654717598
 20
35.18690859211029
 10
386.7196493110969
 20
35.20600047565131
 10
386.6053952560669
 20
35.22509235919415
 10
386.519705590008
 20
35.2385273883524
  0
LWPOLYLINE
  5
478C
330
1F
100
AcDbEntity
  8
HEWI
  6
Continuous
370
    18
100
AcDbPolyline
 90
        8
 70
     0
 43
0.0
 10
386.431157716921
 20
292.9105471311077
 10
386.4120658338779
 20
292.8955523897807
 10
386.392973950833
 20
292.8531025706288
 10
386.37388206779
 20
292.7869992808955
 10
386.3547901847433
 20
292.7010441278262
 10
386.3356983017002
 20
292.5990387186666
 10
386.3166064186571
 20
292.4847846606594
 10
386.3031713898472
 20
292.3990949923677
  0
LWPOLYLINE
  5
478D
330
1F
100
AcDbEntity
  8
HEWI
  6
Continuous
370
    18
100
AcDbPolyline
 90
       27
 70
     0
 43
0.0
 10
372.8555029373256
 20
48.68639676259158
 10
372.8416905272952
 20
48.69024363608651
 10
372.8140631362585
 20
48.69694286638014
 10
372.7864352973011
 20
48.70230993047266
 10
372.7726223585432
 20
48.70449207260685
 10
372.7449937592701
 20
48.70785172341766
 10
372.7173649175293
 20
48.7098687998905
 10
372.6897363950266
 20
48.71054137832629
 10
62.97257988156343
 20
48.71054137832629
 10
62.94013999581148
 20
48.70961418330466
 10
62.92632674671222
 20
48.70865668181409
 10
62.89869802702924
 20
48.70573428714078
 10
62.88488500336462
 20
48.70377033754903
 10
62.85725699270006
 20
48.69883859877268
 10
62.82962947403757
 20
48.69257287737037
 10
62.81581702873518
 20
48.68894192591596
 10
62.807013910573
 20
48.68619619127662
 10
62.81086078396765
 20
48.70000860166874
 10
62.81756001408576
 20
48.72763599342625
 10
62.82292707803936
 20
48.75526383310307
 10
62.82510922011716
 20
48.76907677221925
 10
62.82846887084088
 20
48.79670537221091
 10
62.83048594726096
 20
48.82433421467453
 10
62.83115852567971
 20
48.85196273789597
 10
62.83115852567789
 20
278.5691254370208
 10
62.82369430609833
 20
278.6605528395735
 10
62.80553275263446
 20
278.7357679906745
  0
LWPOLYLINE
  5
478E
330
1F
100
AcDbEntity
  8
HEWI
  6
Continuous
370
    18
100
AcDbPolyline
 90
        6
 70
     0
 43
0.0
 10
372.8559698145655
 20
278.7349760437432
 10
372.853438827733
 20
278.7275740061118
 10
372.8311577509121
 20
278.5691254370208
 10
372.8311577509121
 20
48.85196273789507
 10
372.8386219704916
 20
48.76053533534241
 10
372.8566074089995
 20
48.68604955537989
  0
LWPOLYLINE
  5
478F
330
1F
100
AcDbEntity
  8
HEWI
  6
Continuous
370
    18
100
AcDbPolyline
 90
       20
 70
     0
 43
0.0
 10
375.3311577446639
 20
293.7105471499563
 10
375.3311577446639
 20
293.7220759819861
 10
375.3311577446639
 20
293.7562194315256
 10
375.3311577446639
 20
293.8116653849565
 10
375.3311577446639
 20
293.8862830853846
 10
375.3311577446639
 20
296.3046597607631
 10
375.3311577446639
 20
296.4787677284271
 10
375.3311577446639
 20
296.6081416197667
 10
375.3311577446639
 20
296.6878096686924
 10
375.3311577446639
 20
296.7147102767612
 10
350.3311578071443
 20
296.7147102767612
 10
350.3311578071443
 20
296.6878096686924
 10
350.3311578071443
 20
296.6081416197667
 10
350.3311578071443
 20
296.4787677284271
 10
350.3311578071443
 20
296.3046597607631
 10
350.3311578071443
 20
293.8862830853846
 10
350.3311578071443
 20
293.8116653849565
 10
350.3311578071443
 20
293.7562194315256
 10
350.3311578071443
 20
293.7220759819861
 10
350.3311578071443
 20
293.7105471499563
  0
LWPOLYLINE
  5
4790
330
1F
100
AcDbEntity
  8
HEWI
  6
Continuous
370
    18
100
AcDbPolyline
 90
        4
 70
     0
 43
0.0
 10
337.4311578402321
 20
293.2779969386693
 10
337.5582721164647
 20
293.4051112182156
 10
337.8237206036392
 20
293.5719035617522
 10
337.8311578385437
 20
293.574505962868
  0
LWPOLYLINE
  5
4791
330
1F
100
AcDbEntity
  8
HEWI
  6
Continuous
370
    18
100
AcDbPolyline
 90
        4
 70
     0
 43
0.0
 10
97.83115843859924
 20
293.5745059626734
 10
97.83859567295076
 20
293.5719035617508
 10
98.10404416012534
 20
293.4051112182137
 10
98.23115844296626
 20
293.2779969320614
  0
LWPOLYLINE
  5
4792
330
1F
100
AcDbEntity
  8
HEWI
  6
Continuous
370
    18
100
AcDbPolyline
 90
        8
 70
     0
 43
0.0
 10
97.83115843820452
 20
292.3105471169729
 10
97.81611518555109
 20
292.4440596804925
 10
97.771739759095
 20
292.5708773665765
 10
97.70025732801332
 20
292.6846410069011
 10
97.60525231988323
 20
292.7796460175059
 10
97.49148868252451
 20
292.8511284504498
 10
97.36467099974289
 20
292.8955038780628
 10
97.23115843970299
 20
292.9105471311077
  0
LWPOLYLINE
  5
4793
330
1F
100
AcDbEntity
  8
HEWI
  6
Continuous
370
    18
100
AcDbPolyline
 90
        8
 70
     0
 43
0.0
 10
338.431157836887
 20
292.9105471311104
 10
338.2976452768471
 20
292.8955038780646
 10
338.1708275940673
 20
292.8511284504516
 10
338.0570639567068
 20
292.7796460175064
 10
337.9620589485785
 20
292.6846410069029
 10
337.890576517495
 20
292.5708773665783
 10
337.8462010910371
 20
292.4440596804934
 10
337.8311578383855
 20
292.3105471169747
  0
LWPOLYLINE
  5
4794
330
1F
100
AcDbEntity
  8
HEWI
  6
Continuous
370
    18
100
AcDbPolyline
 90
       20
 70
     0
 43
0.0
 10
85.33115846944747
 20
293.7105471499563
 10
85.33115846944747
 20
293.7220759819861
 10
85.33115846944747
 20
293.7562194315256
 10
85.33115846944747
 20
293.8116653849565
 10
85.33115846944747
 20
293.8862830853846
 10
85.33115846944747
 20
296.3046597607631
 10
85.33115846944747
 20
296.4787677284271
 10
85.33115846944747
 20
296.6081416197667
 10
85.33115846944747
 20
296.6878096686924
 10
85.33115846944747
 20
296.7147102767612
 10
60.33115853192794
 20
296.7147102767612
 10
60.33115853192794
 20
296.6878096686924
 10
60.33115853192794
 20
296.6081416197667
 10
60.33115853192794
 20
296.4787677284271
 10
60.33115853192794
 20
296.3046597607631
 10
60.33115853192794
 20
293.8862830853846
 10
60.33115853192794
 20
293.8116653849565
 10
60.33115853192794
 20
293.7562194315256
 10
60.33115853192794
 20
293.7220759819861
 10
60.33115853192794
 20
293.7105471499563
  0
LWPOLYLINE
  5
4795
330
1F
100
AcDbEntity
  8
HEWI
  6
Continuous
370
    18
100
AcDbPolyline
 90
       27
 70
     0
 43
0.0
 10
108.8019939071291
 20
278.7105467965789
 10
108.777104623121
 20
278.4880258573812
 10
108.7036848237294
 20
278.2766630472401
 10
108.5854160842682
 20
278.0870569800327
 10
108.4282288931808
 20
277.9287152956922
 10
108.2400052725843
 20
277.8095779074515
 10
108.0301835407699
 20
277.7356188614299
 10
107.8092850355115
 20
277.7105467730216
 10
107.6362071417061
 20
277.7105467730216
 10
107.300110012171
 20
277.7105467730216
 10
106.820526390411
 20
277.7105467730216
 10
106.225327933309
 20
277.7105467730216
 10
105.5491054117301
 20
277.7105467730216
 10
104.8311584206603
 20
277.7105467730216
 10
104.1132114295924
 20
277.7105467730216
 10
103.4369889080135
 20
277.7105467730216
 10
102.8417904509097
 20
277.7105467730216
 10
102.3622068291497
 20
277.7105467730216
 10
102.0261096996146
 20
277.7105467730216
 10
101.8530318058092
 20
277.7105467730216
 10
101.6321333005508
 20
277.7356188614299
 10
101.4223115687382
 20
277.8095779074515
 10
101.2340879481417
 20
277.9287152956922
 10
101.0769007570543
 20
278.0870569800327
 10
100.9586320175931
 20
278.2766630472401
 10
100.8852122181997
 20
278.4880258573812
 10
100.8603229341934
 20
278.7105467965789
  0
LWPOLYLINE
  5
4796
330
1F
100
AcDbEntity
  8
HEWI
  6
Continuous
370
    18
100
AcDbPolyline
 90
       14
 70
     0
 43
0.0
 10
373.8320055874301
 20
47.70966747779129
 10
373.8321135740461
 20
47.70959604925065
 10
373.8687863211617
 20
47.68533859101035
 10
373.9836173398635
 20
47.61041127400608
 10
374.2311577474138
 20
47.45196270491487
 10
386.431157716921
 20
35.25196241751064
 10
386.6377694207913
 20
35.2385273883524
 10
386.8377119749275
 20
35.22509235919415
 10
387.1043047699986
 20
35.20600047565131
 10
387.3423173851715
 20
35.18690859211029
 10
387.5428794037707
 20
35.16781670856744
 10
387.6971204091296
 20
35.14872482502642
 10
387.7961699845691
 20
35.12963294148472
 10
387.8311577134227
 20
35.11054105794187
  0
LWPOLYLINE
  5
4797
330
1F
100
AcDbEntity
  8
HEWI
  6
Continuous
370
    18
100
AcDbPolyline
 90
        9
 70
     0
 43
0.0
 10
99.33115843440646
 20
293.7105471499472
 10
99.23115843465712
 20
293.7105471499472
 10
98.91962912789677
 20
293.6754462261747
 10
98.62372120140936
 20
293.5719035617449
 10
98.35827271423477
 20
293.4051112182069
 10
98.13659436193667
 20
293.1834328601317
 10
97.96980202274609
 20
292.9179843660404
 10
97.86625936101337
 20
292.6220764318446
 10
97.8311584381554
 20
292.310547116967
  0
LINE
  5
4798
330
1F
100
AcDbEntity
  8
HEWI
  6
Continuous
370
    18
100
AcDbLine
 10
336.3311578420835
 20
293.7105471499472
 30
0.0
 11
99.33115843440646
 21
293.7105471499472
 31
0.0
  0
LWPOLYLINE
  5
4799
330
1F
100
AcDbEntity
  8
HEWI
  6
Continuous
370
    18
100
AcDbPolyline
 90
       15
 70
     0
 43
0.0
 10
180.2311582322163
 20
278.7105467965826
 10
180.2060861444606
 20
278.4880258573835
 10
180.1321271003671
 20
278.2766630472425
 10
180.012989715231
 20
278.087056980035
 10
179.854648035016
 20
277.9287152956958
 10
179.6650419727484
 20
277.8095779074547
 10
179.4536791681166
 20
277.7356188614335
 10
179.2311582347156
 20
277.7105467730239
 10
179.0086373013164
 20
277.7356188614335
 10
178.7972744966828
 20
277.8095779074547
 10
178.607668434417
 20
277.9287152956958
 10
178.449326754202
 20
278.087056980035
 10
178.3301893690659
 20
278.2766630472425
 10
178.2562303249706
 20
278.4880258573835
 10
178.2311582372149
 20
278.7105467965826
  0
LWPOLYLINE
  5
479A
330
1F
100
AcDbEntity
  8
HEWI
  6
Continuous
370
    18
100
AcDbPolyline
 90
        9
 70
     0
 43
0.0
 10
336.3311578420835
 20
292.9105471311009
 10
336.4311578418328
 20
292.9105471311009
 10
336.5646704018745
 20
292.895503878055
 10
336.6914880846525
 20
292.851128450442
 10
336.8052517220131
 20
292.7796460174977
 10
336.9002567301413
 20
292.6846410068943
 10
336.971739161223
 20
292.5708773665697
 10
337.0161145876809
 20
292.4440596804852
 10
337.0311578403343
 20
292.3105471169661
  0
LWPOLYLINE
  5
479B
330
1F
100
AcDbEntity
  8
HEWI
  6
Continuous
370
    18
100
AcDbPolyline
 90
       11
 70
     0
 43
0.0
 10
181.4311582292175
 20
278.7105467965826
 10
181.4060861414618
 20
278.4880258573835
 10
181.3321270973683
 20
278.2766630472425
 10
181.2129897122322
 20
278.087056980035
 10
181.0546480320172
 20
277.9287152956958
 10
180.8650419697515
 20
277.8095779074547
 10
180.6536791651178
 20
277.7356188614335
 10
180.4311582317168
 20
277.7105467730239
 10
180.2086372983176
 20
277.7356188614335
 10
179.997274493684
 20
277.8095779074547
 10
179.8311582372298
 20
277.9139556720766
  0
LWPOLYLINE
  5
479C
330
1F
100
AcDbEntity
  8
HEWI
  6
Continuous
370
    18
100
AcDbPolyline
 90
       11
 70
     0
 43
0.0
 10
255.8311580434966
 20
277.9139556747395
 10
255.6650417828059
 20
277.8095779074547
 10
255.4536789781723
 20
277.7356188614335
 10
255.2311580447731
 20
277.7105467730239
 10
255.0086371113721
 20
277.7356188614335
 10
254.7972743067403
 20
277.8095779074547
 10
254.6076682444727
 20
277.9287152956958
 10
254.4493265642596
 20
278.087056980035
 10
254.3301891791234
 20
278.2766630472425
 10
254.2562301350281
 20
278.4880258573835
 10
254.2311580472724
 20
278.7105467965826
  0
LWPOLYLINE
  5
479D
330
1F
100
AcDbEntity
  8
HEWI
  6
Continuous
370
    18
100
AcDbPolyline
 90
       15
 70
     0
 43
0.0
 10
257.4311580392732
 20
278.7105467965826
 10
257.4060859515193
 20
278.4880258573835
 10
257.332126907424
 20
278.2766630472425
 10
257.2129895222879
 20
278.087056980035
 10
257.0546478420729
 20
277.9287152956958
 10
256.8650417798053
 20
277.8095779074547
 10
256.6536789751735
 20
277.7356188614335
 10
256.4311580417743
 20
277.7105467730239
 10
256.2086371083733
 20
277.7356188614335
 10
255.9972743037397
 20
277.8095779074547
 10
255.8076682414721
 20
277.9287152956958
 10
255.6493265612589
 20
278.087056980035
 10
255.5301891761228
 20
278.2766630472425
 10
255.4562301320275
 20
278.4880258573835
 10
255.4311580442736
 20
278.7105467965826
  0
LWPOLYLINE
  5
479E
330
1F
100
AcDbEntity
  8
HEWI
  6
Continuous
370
    18
100
AcDbPolyline
 90
        8
 70
     0
 43
0.0
 10
219.8311581332455
 20
278.7105467964238
 10
219.8311581332455
 20
278.4220760973258
 10
219.8311581332455
 20
278.1105467824477
 10
219.8311581332455
 20
277.5105467683129
 10
228.8311581107537
 20
277.5105467683129
 10
228.8311581107537
 20
278.1105467824477
 10
228.8311581107537
 20
278.4220760973258
 10
228.8311581107537
 20
278.710546796975
  0
LINE
  5
479F
330
1F
100
AcDbEntity
  8
HEWI
  6
Continuous
370
    18
100
AcDbLine
 10
97.8311584381554
 20
278.7105467965826
 30
0.0
 11
337.8311578383346
 21
278.7105467965826
 31
0.0
  0
LINE
  5
47A0
330
1F
100
AcDbEntity
  8
HEWI
  6
Continuous
370
    18
100
AcDbLine
 10
179.2311582347156
 20
278.7105467965826
 30
0.0
 11
179.2848184725226
 21
278.4062244575403
 31
0.0
  0
LWPOLYLINE
  5
47A1
330
1F
100
AcDbEntity
  8
HEWI
  6
Continuous
370
    18
100
AcDbPolyline
 90
        8
 70
     0
 43
0.0
 10
206.8311581657363
 20
278.7105467964238
 10
206.8311581657363
 20
278.4220760973258
 10
206.8311581657363
 20
278.1105467824477
 10
206.8311581657363
 20
277.5105467683129
 10
215.8311581432445
 20
277.5105467683129
 10
215.8311581432445
 20
278.1105467824477
 10
215.8311581432445
 20
278.4220760973258
 10
215.8311581432445
 20
278.710546796975
  0
LINE
  5
47A2
330
1F
100
AcDbEntity
  8
HEWI
  6
Continuous
370
    18
100
AcDbLine
 10
180.4311582317168
 20
278.7105467965826
 30
0.0
 11
180.4848184695238
 21
278.4062244575403
 31
0.0
  0
LWPOLYLINE
  5
47A3
330
1F
100
AcDbEntity
  8
HEWI
  6
Continuous
370
    18
100
AcDbPolyline
 90
        4
 70
     0
 43
0.0
 10
232.8311581007565
 20
278.7105467964238
 10
232.8311581007565
 20
278.4220760973258
 10
232.8311581007565
 20
278.1105467824477
 10
232.8311581007565
 20
277.1105468184946
  0
LWPOLYLINE
  5
47A4
330
1F
100
AcDbEntity
  8
HEWI
  6
Continuous
370
    18
100
AcDbPolyline
 90
        9
 70
     0
 43
0.0
 10
337.8311578383346
 20
292.3105471169661
 10
337.7960569154766
 20
292.6220764318446
 10
337.6925142537439
 20
292.9179843660404
 10
337.5257219145533
 20
293.1834328601317
 10
337.3040435622534
 20
293.4051112182069
 10
337.0385950750806
 20
293.5719035617449
 10
336.742687148595
 20
293.6754462261747
 10
336.4311578418328
 20
293.7105471499472
 10
336.3311578420835
 20
293.7105471499472
  0
LINE
  5
47A5
330
1F
100
AcDbEntity
  8
HEWI
  6
Continuous
370
    18
100
AcDbLine
 10
255.2311580447731
 20
278.7105467965826
 30
0.0
 11
255.2848182825801
 21
278.4062244575403
 31
0.0
  0
LINE
  5
47A6
330
1F
100
AcDbEntity
  8
HEWI
  6
Continuous
370
    18
100
AcDbLine
 10
256.4311580417743
 20
278.7105467965826
 30
0.0
 11
256.4848182795813
 21
278.4062244575403
 31
0.0
  0
LWPOLYLINE
  5
47A7
330
1F
100
AcDbEntity
  8
HEWI
  6
Continuous
370
    18
100
AcDbPolyline
 90
        9
 70
     0
 43
0.0
 10
337.8311578383346
 20
278.7105467965826
 10
337.8311578383346
 20
278.7456477203541
 10
337.8311578383346
 20
278.8491903847853
 10
337.8311578383346
 20
279.0159827283223
 10
337.8311578383346
 20
279.2376610863976
 10
337.8311578383346
 20
279.5031095804884
 10
337.8311578383346
 20
279.7990175146852
 10
337.8311578383346
 20
280.1105468295632
 10
337.8311578383346
 20
292.3105471169661
  0
LWPOLYLINE
  5
47A8
330
1F
100
AcDbEntity
  8
HEWI
  6
Continuous
370
    18
100
AcDbPolyline
 90
        9
 70
     0
 43
0.0
 10
97.8311584381554
 20
292.310547116967
 10
99.33115843440646
 20
292.310547116967
 10
99.33115843440646
 20
292.6220764318446
 10
99.33115843440646
 20
292.9179843660404
 10
99.33115843440646
 20
293.1834328601317
 10
99.33115843440646
 20
293.4051112182069
 10
99.33115843440646
 20
293.5719035617449
 10
99.33115843440646
 20
293.6754462261747
 10
99.33115843440646
 20
293.7105471499472
  0
LWPOLYLINE
  5
47A9
330
1F
100
AcDbEntity
  8
HEWI
  6
Continuous
370
    18
100
AcDbPolyline
 90
        9
 70
     0
 43
0.0
 10
336.3311578420835
 20
293.7105471499472
 10
336.3311578420835
 20
293.6754462261747
 10
336.3311578420835
 20
293.5719035617449
 10
336.3311578420835
 20
293.4051112182069
 10
336.3311578420835
 20
293.1834328601317
 10
336.3311578420835
 20
292.9179843660404
 10
336.3311578420835
 20
292.6220764318446
 10
336.3311578420835
 20
292.3105471169661
 10
337.8311578383346
 20
292.3105471169661
  0
LWPOLYLINE
  5
47AA
330
1F
100
AcDbEntity
  8
HEWI
  6
Continuous
370
    18
100
AcDbPolyline
 90
        9
 70
     0
 43
0.0
 10
97.8311584381554
 20
292.310547116967
 10
97.8311584381554
 20
280.1105468295632
 10
97.8311584381554
 20
279.7990175146852
 10
97.8311584381554
 20
279.5031095804884
 10
97.8311584381554
 20
279.2376610863976
 10
97.8311584381554
 20
279.0159827283223
 10
97.8311584381554
 20
278.8491903847853
 10
97.8311584381554
 20
278.7456477203541
 10
97.8311584381554
 20
278.7105467965826
  0
LWPOLYLINE
  5
47AB
330
1F
100
AcDbEntity
  8
HEWI
  6
Continuous
370
    18
100
AcDbPolyline
 90
       10
 70
     0
 43
0.0
 10
372.8311584661169
 20
275.5105467211974
 10
337.8311578383346
 20
275.5105467211974
 10
337.8311578383346
 20
278.1105467824477
 10
337.8311578383346
 20
278.2440593459664
 10
337.8311578383346
 20
278.3708770320505
 10
337.8311578383346
 20
278.4846406723764
 10
337.8311578383346
 20
278.5796456829785
 10
337.8311578383346
 20
278.6511281159237
 10
337.8311578383346
 20
278.6955035435367
 10
337.8311578383346
 20
278.7105467965826
  0
LWPOLYLINE
  5
47AC
330
1F
100
AcDbEntity
  8
HEWI
  6
Continuous
370
    18
100
AcDbPolyline
 90
       10
 70
     0
 43
0.0
 10
97.8311584381554
 20
278.7105467965826
 10
97.8311584381554
 20
278.6955035435367
 10
97.8311584381554
 20
278.6511281159237
 10
97.8311584381554
 20
278.5796456829798
 10
97.8311584381554
 20
278.4846406723764
 10
97.8311584381554
 20
278.3708770320505
 10
97.8311584381554
 20
278.2440593459664
 10
97.8311584381554
 20
278.1105467824477
 10
97.8311584381554
 20
275.5105467211974
 10
62.83115846602413
 20
275.5105467211974
  0
LWPOLYLINE
  5
47AD
330
1F
100
AcDbEntity
  8
HEWI
  6
Continuous
370
    18
100
AcDbPolyline
 90
        9
 70
     0
 43
0.0
 10
99.33115843440646
 20
292.9105471311009
 10
99.23115843465712
 20
292.9105471311009
 10
99.09764587461541
 20
292.895503878055
 10
98.97082819183561
 20
292.851128450442
 10
98.85706455447508
 20
292.7796460174977
 10
98.76205954634862
 20
292.6846410068943
 10
98.69057711526512
 20
292.5708773665697
 10
98.64620168880902
 20
292.4440596804852
 10
98.6311584361556
 20
292.310547116967
  0
LWPOLYLINE
  5
47AE
330
1F
100
AcDbEntity
  8
HEWI
  6
Continuous
370
    18
100
AcDbPolyline
 90
       39
 70
     0
 43
0.0
 10
255.8811580431975
 20
273.1105466646586
 10
256.3150738633303
 20
273.1594372370555
 10
256.7272313323629
 20
273.3036573767977
 10
257.0969631537846
 20
273.5359752838685
 10
257.4057294302002
 20
273.84474156833
 10
257.6380473312165
 20
274.2144733993846
 10
257.7822674672025
 20
274.6266308791587
 10
257.8311580383251
 20
275.0605467105966
 10
257.8311580383251
 20
275.1605467129512
 10
257.7822674672025
 20
275.5944625443881
 10
257.6380473312165
 20
276.0066200241622
 10
257.4057294302002
 20
276.3763518552178
 10
257.0969631537846
 20
276.6851181396796
 10
256.7272313323629
 20
276.9174360467491
 10
256.3150738633303
 20
277.0616561864922
 10
255.8811580431975
 20
277.1105467588895
 10
255.679327736767
 20
277.1105467588895
 10
255.0839574318052
 20
277.1105467588895
 10
254.1249014814566
 20
277.1105467588895
 10
252.8502509557366
 20
277.1105467588895
 10
251.3239221544846
 20
277.1105467588895
 10
249.6224515771883
 20
277.1105467588895
 10
247.8311580633181
 20
277.1105467588895
 10
218.0811581376693
 20
277.1105467588895
 10
218.0811581376693
 20
277.0616561864922
 10
218.0811581376693
 20
276.9174360467491
 10
218.0811581376693
 20
276.6851181396796
 10
218.0811581376693
 20
276.3763518552178
 10
218.0811581376693
 20
276.0066200241631
 10
218.0811581376693
 20
275.594462544389
 10
218.0811581376693
 20
275.1605467129512
 10
218.0811581376693
 20
275.0605467105966
 10
218.0811581376693
 20
274.6266308791587
 10
218.0811581376693
 20
274.2144733993846
 10
218.0811581376693
 20
273.84474156833
 10
218.0811581376693
 20
273.5359752838685
 10
218.0811581376693
 20
273.3036573767977
 10
218.0811581376693
 20
273.1594372370555
 10
218.0811581376693
 20
273.1105466646586
  0
LWPOLYLINE
  5
47AF
330
1F
100
AcDbEntity
  8
HEWI
  6
Continuous
370
    18
100
AcDbPolyline
 90
        6
 70
     0
 43
0.0
 10
207.831158163237
 20
278.7105467965826
 10
207.831158163237
 20
278.6990179645518
 10
207.831158163237
 20
278.6648745150133
 10
207.831158163237
 20
278.6094285615818
 10
207.831158163237
 20
278.5348108611543
 10
207.831158163237
 20
277.5105467487624
  0
LWPOLYLINE
  5
47B0
330
1F
100
AcDbEntity
  8
HEWI
  6
Continuous
370
    18
100
AcDbPolyline
 90
        3
 70
     0
 43
0.0
 10
375.0610211459607
 20
46.339256570933
 10
375.2039238672369
 20
46.4658573379927
 10
375.2093712264414
 20
46.47374920045831
  0
LWPOLYLINE
  5
47B1
330
1F
100
AcDbEntity
  8
HEWI
  6
Continuous
370
    18
100
AcDbPolyline
 90
        6
 70
     0
 43
0.0
 10
227.831158113253
 20
277.5105467487624
 10
227.831158113253
 20
278.5348108611543
 10
227.831158113253
 20
278.6094285615818
 10
227.831158113253
 20
278.6648745150133
 10
227.831158113253
 20
278.6990179645518
 10
227.831158113253
 20
278.7105467965826
  0
LWPOLYLINE
  5
47B2
330
1F
100
AcDbEntity
  8
HEWI
  6
Continuous
370
    18
100
AcDbPolyline
 90
        4
 70
     0
 43
0.0
 10
202.8311581757334
 20
278.7105467964238
 10
202.8311581757334
 20
278.4220760973258
 10
202.8311581757334
 20
278.1105467824477
 10
202.8311581757334
 20
277.1105467410089
  0
LINE
  5
47B3
330
1F
100
AcDbEntity
  8
HEWI
  6
Continuous
370
    18
100
AcDbLine
 10
218.0811583164341
 20
273.5105466740824
 30
0.0
 11
217.5811587349163
 21
273.5105466740824
 31
0.0
  0
LINE
  5
47B4
330
1F
100
AcDbEntity
  8
HEWI
  6
Continuous
370
    18
100
AcDbLine
 10
385.1518684387502
 20
36.53125180994948
 30
0.0
 11
385.0104470018396
 21
36.38983036935429
 31
0.0
  0
LWPOLYLINE
  5
47B5
330
1F
100
AcDbEntity
  8
HEWI
  6
Continuous
370
    18
100
AcDbPolyline
 90
       39
 70
     0
 43
0.0
 10
179.7811582333925
 20
273.1105466646586
 10
179.3472424132614
 20
273.1594372370555
 10
178.9350849442271
 20
273.3036573767986
 10
178.5653531228054
 20
273.5359752838685
 10
178.2565868463898
 20
273.84474156833
 10
178.0242689453735
 20
274.2144733993855
 10
177.8800488093875
 20
274.6266308791587
 10
177.8311582382648
 20
275.0605467105966
 10
177.8311582382648
 20
275.1605467129512
 10
177.8800488093875
 20
275.594462544389
 10
178.0242689453735
 20
276.0066200241631
 10
178.2565868463898
 20
276.3763518552178
 10
178.5653531228054
 20
276.6851181396796
 10
178.9350849442271
 20
276.91743604675
 10
179.3472424132614
 20
277.0616561864922
 10
179.7811582333925
 20
277.1105467588895
 10
179.9829885398249
 20
277.1105467588895
 10
180.5783588447848
 20
277.1105467588895
 10
181.5374147951333
 20
277.1105467588895
 10
182.8120653208534
 20
277.1105467588895
 10
184.3383941221054
 20
277.1105467588895
 10
186.0398646994017
 20
277.1105467588895
 10
187.8311582132737
 20
277.1105467588895
 10
217.5811581389207
 20
277.1105467588895
 10
217.5811581389207
 20
277.0616561864922
 10
217.5811581389207
 20
276.9174360467491
 10
217.5811581389207
 20
276.6851181396796
 10
217.5811581389207
 20
276.3763518552178
 10
217.5811581389207
 20
276.0066200241631
 10
217.5811581389207
 20
275.594462544389
 10
217.5811581389207
 20
275.1605467129512
 10
217.5811581389207
 20
275.0605467105966
 10
217.5811581389207
 20
274.6266308791587
 10
217.5811581389207
 20
274.2144733993846
 10
217.5811581389207
 20
273.84474156833
 10
217.5811581389207
 20
273.5359752838685
 10
217.5811581389207
 20
273.3036573767977
 10
217.5811581389207
 20
273.1594372370555
 10
217.5811581389207
 20
273.1105466646586
  0
LINE
  5
47B6
330
1F
100
AcDbEntity
  8
HEWI
  6
Continuous
370
    18
100
AcDbLine
 10
218.0811581376693
 20
273.1105466646586
 30
0.0
 11
247.8311580633181
 21
273.1105466646586
 31
0.0
  0
LINE
  5
47B7
330
1F
100
AcDbEntity
  8
HEWI
  6
Continuous
370
    18
100
AcDbLine
 10
187.8311582132737
 20
273.1105466646586
 30
0.0
 11
217.5811581389207
 21
273.1105466646586
 31
0.0
  0
LWPOLYLINE
  5
47FB
330
1F
100
AcDbEntity
  8
HEWI
  6
Continuous
370
    18
100
AcDbPolyline
 90
       28
 70
     0
 43
0.0
 10
905.3220093127029
 20
533.4187545480327
 10
905.3470813994653
 20
533.1962336056959
 10
905.4210404406303
 20
532.984870792574
 10
905.5401778210462
 20
532.7952647226917
 10
905.6985194949875
 20
532.6369230361184
 10
905.8881255497427
 20
532.5177856461975
 10
906.0994883459997
 20
532.4438265991322
 10
906.322009270586
 20
532.4187545103696
 10
906.4091838146351
 20
532.4187545103696
 10
906.6656411791527
 20
532.4187545103696
 10
907.0764769942952
 20
532.4187545103696
 10
907.6178149758153
 20
532.4187545103696
 10
908.2581945279081
 20
532.4187545103696
 10
908.9603991186949
 20
532.4187545103696
 10
909.6836191697667
 20
532.4187545103696
 10
910.3858237605535
 20
532.4187545103696
 10
911.0262033126483
 20
532.4187545103696
 10
911.5675412941682
 20
532.4187545103696
 10
911.9783771093107
 20
532.4187545103696
 10
912.2348344738266
 20
532.4187545103696
 10
912.3220090178774
 20
532.4187545103696
 10
912.5445299424619
 20
532.4438265991322
 10
912.7558927387209
 20
532.5177856461975
 10
912.945498793476
 20
532.6369230361184
 10
913.1038404674155
 20
532.7952647226917
 10
913.2229778478331
 20
532.984870792574
 10
913.2969368889963
 20
533.1962336056959
 10
913.3220089757587
 20
533.4187545480327
  0
LWPOLYLINE
  5
47FC
330
1F
100
AcDbEntity
  8
HEWI
  6
Continuous
370
    18
100
AcDbPolyline
 90
       28
 70
     0
 43
0.0
 10
678.3220188734985
 20
533.4187545480327
 10
678.3470909602611
 20
533.1962336056959
 10
678.4210500014242
 20
532.984870792574
 10
678.5401873818418
 20
532.7952647226917
 10
678.6985290557831
 20
532.6369230361184
 10
678.8881351105365
 20
532.5177856461975
 10
679.0994979067955
 20
532.4438265991322
 10
679.3220188313816
 20
532.4187545103696
 10
679.4091933754307
 20
532.4187545103696
 10
679.6656507399466
 20
532.4187545103696
 10
680.0764865550909
 20
532.4187545103696
 10
680.6178245366108
 20
532.4187545103696
 10
681.2582040887036
 20
532.4187545103696
 10
681.9604086794907
 20
532.4187545103696
 10
682.6836287305622
 20
532.4187545103696
 10
683.3858333213474
 20
532.4187545103696
 10
684.0262128734421
 20
532.4187545103696
 10
684.5675508549621
 20
532.4187545103696
 10
684.9783866701045
 20
532.4187545103696
 10
685.2348440346222
 20
532.4187545103696
 10
685.3220185786731
 20
532.4187545103696
 10
685.5445395032557
 20
532.4438265991322
 10
685.7559022995147
 20
532.5177856461969
 10
685.9455083542716
 20
532.6369230361184
 10
686.1038500282111
 20
532.7952647226917
 10
686.222987408627
 20
532.984870792574
 10
686.2969464497918
 20
533.1962336056959
 10
686.3220185365544
 20
533.4187545480327
  0
LWPOLYLINE
  5
47FD
330
1F
100
AcDbEntity
  8
HEWI
  6
Continuous
370
    18
100
AcDbPolyline
 90
        7
 70
     0
 43
0.0
 10
658.7220196990065
 20
1153.418777899162
 10
658.4302303448721
 20
1153.383790168905
 10
658.1545368798643
 20
1153.284740589486
 10
657.9038097203092
 20
1153.130499577935
 10
657.6869192825243
 20
1152.929937551278
 10
657.5127359828321
 20
1152.691924926546
 10
657.3901302375552
 20
1152.425332120769
  0
LINE
  5
47FE
330
1F
100
AcDbEntity
  8
HEWI
  6
Continuous
370
    18
100
AcDbLine
 10
658.4104904045898
 20
1153.383676974894
 30
0.0
 11
658.7220196990065
 21
1153.418777899162
 31
0.0
  0
LINE
  5
47FF
330
1F
100
AcDbEntity
  8
HEWI
  6
Continuous
370
    18
100
AcDbLine
 10
658.1145824898258
 20
1153.280134309004
 30
0.0
 11
658.4104904045898
 21
1153.383676974894
 31
0.0
  0
LWPOLYLINE
  5
4800
330
1F
100
AcDbEntity
  8
HEWI
  6
Continuous
370
    18
100
AcDbPolyline
 90
        5
 70
     0
 43
0.0
 10
657.3901302375552
 20
1152.425332120769
 10
657.4606633370685
 20
1152.626215104076
 10
657.6274556696508
 20
1152.891663601911
 10
657.8491340131686
 20
1153.113341963114
 10
658.1145824898258
 20
1153.280134309004
  0
LWPOLYLINE
  5
4801
330
1F
100
AcDbEntity
  8
HEWI
  6
Continuous
370
    18
100
AcDbPolyline
 90
        3
 70
     0
 43
0.0
 10
916.0720088599019
 20
1152.018777852388
 10
916.0720088597836
 20
1152.594820162831
 10
916.1307848721545
 20
1152.573703451541
  0
LWPOLYLINE
  5
4802
330
1F
100
AcDbEntity
  8
HEWI
  6
Continuous
370
    18
100
AcDbPolyline
 90
        8
 70
     0
 43
0.0
 10
658.1512099298134
 20
1152.193015392578
 10
658.2037552492193
 20
1152.307269452196
 10
658.2784052348006
 20
1152.409274862795
 10
658.3713582795653
 20
1152.495230017077
 10
658.4788127765177
 20
1152.561333307742
 10
658.5969671186622
 20
1152.603783127493
 10
658.7220196990065
 20
1152.618777869031
 10
658.7626795164188
 20
1152.618777869031
  0
LWPOLYLINE
  5
4803
330
1F
100
AcDbEntity
  8
HEWI
  6
Continuous
370
    18
100
AcDbPolyline
 90
       40
 70
     0
 43
0.0
 10
917.3220088072822
 20
1152.018777846434
 10
917.3220088072822
 20
533.4187545480327
 10
917.2869078858139
 20
533.4187545480327
 10
917.1833652281847
 20
533.4187545480327
 10
917.0165728956007
 20
533.4187545480327
 10
916.794894552083
 20
533.4187545480327
 10
916.5294460754276
 20
533.4187545480327
 10
916.2335381606654
 20
533.4187545480327
 10
915.9220088662468
 20
533.4187545480327
 10
903.322009396933
 20
533.4187545480327
 10
903.322009396933
 20
535.4187546233589
 10
902.3220094390516
 20
535.4187546233589
 10
902.3220094390516
 20
534.8187546007612
 10
902.3220094390516
 20
534.5072252814889
 10
902.3220094390516
 20
534.2113173431186
 10
902.3220094390516
 20
533.9458688452833
 10
902.3220094390516
 20
533.7241904840813
 10
902.3220094390516
 20
533.5573981381913
 10
902.3220094390516
 20
533.4538554723004
 10
902.3220094390516
 20
533.4187545480327
 10
675.3220189998473
 20
533.4187545480327
 10
675.3220189998473
 20
533.4538554723004
 10
675.3220189998473
 20
533.5573981381913
 10
675.3220189998473
 20
533.7241904840813
 10
675.3220189998473
 20
533.9458688452833
 10
675.3220189998473
 20
534.2113173431186
 10
675.3220189998473
 20
534.5072252814889
 10
675.3220189998473
 20
534.8187546007612
 10
675.3220189998473
 20
535.4187546233589
 10
674.3220190419661
 20
535.4187546233589
 10
674.3220190419661
 20
533.4187545480327
 10
658.7220196990065
 20
533.4187545480327
 10
658.4104904045898
 20
533.4187545480327
 10
658.1145824898258
 20
533.4187545480327
 10
657.8491340131686
 20
533.4187545480327
 10
657.6274556696508
 20
533.4187545480327
 10
657.4606633370685
 20
533.4187545480327
 10
657.3571206794395
 20
533.4187545480327
 10
657.3220197579712
 20
533.4187545480327
 10
657.3220197579712
 20
1152.018777846434
  0
LINE
  5
4804
330
1F
100
AcDbEntity
  8
HEWI
  6
Continuous
370
    18
100
AcDbLine
 10
915.7805875159656
 20
1153.418777899162
 30
0.0
 11
658.8634410492877
 21
1153.418777899162
 31
0.0
  0
LWPOLYLINE
  5
4805
330
1F
100
AcDbEntity
  8
HEWI
  6
Continuous
370
    18
100
AcDbPolyline
 90
        8
 70
     0
 43
0.0
 10
658.7220196990065
 20
1152.018777846434
 10
658.4104904045898
 20
1152.018777846434
 10
658.1145824898258
 20
1152.018777846434
 10
657.8491340131686
 20
1152.018777846434
 10
657.6274556696525
 20
1152.018777846434
 10
657.4606633370704
 20
1152.018777846434
 10
657.3571206794395
 20
1152.018777846434
 10
657.322019757973
 20
1152.018777846434
  0
LWPOLYLINE
  5
4806
330
1F
100
AcDbEntity
  8
HEWI
  6
Continuous
370
    18
100
AcDbPolyline
 90
        3
 70
     0
 43
0.0
 10
657.3901302375552
 20
1152.425332120769
 10
657.3571206794395
 20
1152.330307165705
 10
657.3395625617441
 20
1152.225389558602
  0
LINE
  5
4807
330
1F
100
AcDbEntity
  8
HEWI
  6
Continuous
370
    18
100
AcDbLine
 10
657.3901302375552
 20
1152.425332120769
 30
0.0
 11
657.3395625617441
 21
1152.225389558602
 31
0.0
  0
LWPOLYLINE
  5
4808
330
1F
100
AcDbEntity
  8
HEWI
  6
Continuous
370
    18
100
AcDbPolyline
 90
       18
 70
     0
 43
0.0
 10
657.3220197579749
 20
654.4187591052692
 10
657.3104909267012
 20
654.3017049076508
 10
657.2763474794055
 20
654.1891490372027
 10
657.2209015296148
 20
654.0854169529031
 10
657.1462838340876
 20
653.9944950205782
 10
654.727907317535
 20
651.5761183110877
 10
654.5537993613061
 20
651.3639671356637
 10
654.4244254784635
 20
651.1219256056311
 10
654.344757434771
 20
650.8592952412515
 10
654.3178568284684
 20
650.5861687801422
 10
654.3178568284684
 20
634.4260671588245
 10
655.1178567947745
 20
634.4260671588245
 10
655.1178567947745
 20
650.5861687801422
 10
655.1293856260463
 20
650.7032229777607
 10
655.163529073342
 20
650.815778848209
 10
655.2189750231327
 20
650.9195109325088
 10
655.29359271866
 20
651.0104328648331
 10
657.3220197634009
 20
653.0388600714037
  0
LWPOLYLINE
  5
4809
330
1F
100
AcDbEntity
  8
HEWI
  6
Continuous
370
    18
100
AcDbPolyline
 90
       16
 70
     0
 43
0.0
 10
917.3220088072822
 20
1152.018777846434
 10
917.2869078858139
 20
1152.018777846434
 10
917.1833652281847
 20
1152.018777846434
 10
917.0165728956007
 20
1152.018777846434
 10
916.7948945520848
 20
1152.018777846434
 10
916.5294460754276
 20
1152.018777846434
 10
916.2335381606654
 20
1152.018777846434
 10
915.9220088662468
 20
1152.018777846434
 10
915.9085738379699
 20
1152.225389558602
 10
915.895138809693
 20
1152.425332120769
 10
915.8760469274048
 20
1152.691924926546
 10
915.8569550451165
 20
1152.929937551278
 10
915.8378631628284
 20
1153.130499577935
 10
915.8187712805419
 20
1153.284740589486
 10
915.7996793982539
 20
1153.383790168905
 10
915.7805875159656
 20
1153.418777899162
  0
LINE
  5
480A
330
1F
100
AcDbEntity
  8
HEWI
  6
Continuous
370
    18
100
AcDbLine
 10
657.3395625617441
 20
1152.225389558602
 30
0.0
 11
657.322019757973
 21
1152.018777846434
 31
0.0
  0
LWPOLYLINE
  5
480B
330
1F
100
AcDbEntity
  8
HEWI
  6
Continuous
370
    18
100
AcDbPolyline
 90
       18
 70
     0
 43
0.0
 10
657.3220197579694
 20
1074.418774923776
 10
657.3104909266976
 20
1074.301720726158
 10
657.2763474794001
 20
1074.189164855709
 10
657.2209015296094
 20
1074.08543277141
 10
657.1462838340822
 20
1073.994510839085
 10
654.7279073175314
 20
1071.576134129594
 10
654.5537993613042
 20
1071.36398295417
 10
654.4244254784616
 20
1071.121941424137
 10
654.3447574347673
 20
1070.859311059758
 10
654.3178568284665
 20
1070.586184598649
 10
654.3178568284665
 20
1054.426082977331
 10
655.1178567947708
 20
1054.426082977331
 10
655.1178567947708
 20
1070.586184598649
 10
655.1293856260445
 20
1070.703238796268
 10
655.1635290733401
 20
1070.815794666716
 10
655.2189750231309
 20
1070.919526751015
 10
655.2935927186563
 20
1071.01044868334
 10
657.3220197633973
 20
1073.03887588991
  0
LWPOLYLINE
  5
480C
330
1F
100
AcDbEntity
  8
HEWI
  6
Continuous
370
    18
100
AcDbPolyline
 90
        3
 70
     0
 43
0.0
 10
658.1220197242774
 20
1152.018777846434
 10
658.1295380687524
 20
1152.107325723077
 10
658.1512099298134
 20
1152.193015392578
  0
LWPOLYLINE
  5
480D
330
1F
100
AcDbEntity
  8
HEWI
  6
Continuous
370
    18
100
AcDbPolyline
 90
        8
 70
     0
 43
0.0
 10
916.522008840976
 20
1152.018777846434
 10
916.5070141006335
 20
1152.143830436755
 10
916.4645642842687
 20
1152.261984788326
 10
916.3984609988775
 20
1152.369439293852
 10
916.3125058514534
 20
1152.462392346032
 10
916.2105004489941
 20
1152.53704233757
 10
916.0962463984898
 20
1152.589587661167
 10
916.010556735825
 20
1152.611259523957
  0
LINE
  5
480E
330
1F
100
AcDbEntity
  8
HEWI
  6
Continuous
370
    18
100
AcDbLine
 10
917.0337305090534
 20
1152.836987890409
 30
0.0
 11
917.1879715082987
 21
1152.586260710851
 31
0.0
  0
LINE
  5
480F
330
1F
100
AcDbEntity
  8
HEWI
  6
Continuous
370
    18
100
AcDbLine
 10
916.5951558926545
 20
1153.228061659086
 30
0.0
 11
916.8331684983977
 21
1153.053878345497
 31
0.0
  0
LINE
  5
4810
330
1F
100
AcDbEntity
  8
HEWI
  6
Continuous
370
    18
100
AcDbLine
 10
916.3285631081462
 20
1153.350667414145
 30
0.0
 11
916.5951558926545
 21
1153.228061659086
 31
0.0
  0
LINE
  5
4811
330
1F
100
AcDbEntity
  8
HEWI
  6
Continuous
370
    18
100
AcDbLine
 10
917.1879715082987
 20
1152.586260710851
 30
0.0
 11
917.2870210798164
 21
1152.310567223849
 31
0.0
  0
LINE
  5
4812
330
1F
100
AcDbEntity
  8
HEWI
  6
Continuous
370
    18
100
AcDbLine
 10
916.8331684983977
 20
1153.053878345497
 30
0.0
 11
917.0337305090534
 21
1152.836987890409
 31
0.0
  0
LINE
  5
4813
330
1F
100
AcDbEntity
  8
HEWI
  6
Continuous
370
    18
100
AcDbLine
 10
916.1286205619317
 20
1153.40123509399
 30
0.0
 11
916.3285631081462
 21
1153.350667414145
 31
0.0
  0
LINE
  5
4814
330
1F
100
AcDbEntity
  8
HEWI
  6
Continuous
370
    18
100
AcDbLine
 10
917.2870210798164
 20
1152.310567223849
 30
0.0
 11
917.3220088072822
 21
1152.018777846434
 31
0.0
  0
LWPOLYLINE
  5
4815
330
1F
100
AcDbEntity
  8
HEWI
  6
Continuous
370
    18
100
AcDbPolyline
 90
        3
 70
     0
 43
0.0
 10
916.1286205619317
 20
1153.40123509399
 10
916.213798220383
 20
1153.383790168905
 10
916.3285631081462
 20
1153.350667414145
  0
LWPOLYLINE
  5
4816
330
1F
100
AcDbEntity
  8
HEWI
  6
Continuous
370
    18
100
AcDbPolyline
 90
        3
 70
     0
 43
0.0
 10
917.0337305090534
 20
1152.836987890409
 10
917.1312925824214
 20
1152.691924926546
 10
917.1879715082987
 20
1152.586260710851
  0
LWPOLYLINE
  5
4817
330
1F
100
AcDbEntity
  8
HEWI
  6
Continuous
370
    18
100
AcDbPolyline
 90
        9
 70
     0
 43
0.0
 10
658.8634410492877
 20
1153.418777899162
 10
658.8500060210108
 20
1153.40123509399
 10
658.8365709927338
 20
1153.350667414145
 10
658.8174791104457
 20
1153.228061659086
 10
658.7983872281575
 20
1153.053878345497
 10
658.7792953458711
 20
1152.836987890409
 10
658.7602034635828
 20
1152.586260710851
 10
658.7411115812947
 20
1152.310567223849
 10
658.7220196990065
 20
1152.018777846434
  0
LWPOLYLINE
  5
4818
330
1F
100
AcDbEntity
  8
HEWI
  6
Continuous
370
    18
100
AcDbPolyline
 90
        3
 70
     0
 43
0.0
 10
917.2870210798164
 20
1152.310567223849
 10
917.3044660035074
 20
1152.225389558602
 10
917.3220088072822
 20
1152.018777846434
  0
LWPOLYLINE
  5
4819
330
1F
100
AcDbEntity
  8
HEWI
  6
Continuous
370
    18
100
AcDbPolyline
 90
        3
 70
     0
 43
0.0
 10
916.5951558926545
 20
1153.228061659086
 10
916.7402188449441
 20
1153.130499577934
 10
916.8331684983977
 20
1153.053878345497
  0
LWPOLYLINE
  5
481A
330
1F
100
AcDbEntity
  8
HEWI
  6
Continuous
370
    18
100
AcDbPolyline
 90
        3
 70
     0
 43
0.0
 10
917.1879715082987
 20
1152.586260710851
 10
917.2538983277
 20
1152.425332120769
 10
917.2870210798164
 20
1152.310567223849
  0
LWPOLYLINE
  5
481B
330
1F
100
AcDbEntity
  8
HEWI
  6
Continuous
370
    18
100
AcDbPolyline
 90
        3
 70
     0
 43
0.0
 10
916.3285631081462
 20
1153.350667414145
 10
916.489491685389
 20
1153.284740589486
 10
916.5951558926545
 20
1153.228061659086
  0
LWPOLYLINE
  5
481C
330
1F
100
AcDbEntity
  8
HEWI
  6
Continuous
370
    18
100
AcDbPolyline
 90
        3
 70
     0
 43
0.0
 10
915.7805875200621
 20
1153.418777899162
 10
915.9220088662468
 20
1153.418777899162
 10
916.1286205619317
 20
1153.40123509399
  0
LWPOLYLINE
  5
481D
330
1F
100
AcDbEntity
  8
HEWI
  6
Continuous
370
    18
100
AcDbPolyline
 90
        3
 70
     0
 43
0.0
 10
916.8331684983977
 20
1153.053878345497
 10
916.9571092827291
 20
1152.929937551278
 10
917.0337305090534
 20
1152.836987890409
  0
LINE
  5
481E
330
1F
100
AcDbEntity
  8
HEWI
  6
Continuous
370
    18
100
AcDbLine
 10
658.5154080033216
 20
1153.40123509399
 30
0.0
 11
658.4104904045898
 21
1153.383676974894
 31
0.0
  0
LWPOLYLINE
  5
481F
330
1F
100
AcDbEntity
  8
HEWI
  6
Continuous
370
    18
100
AcDbPolyline
 90
        3
 70
     0
 43
0.0
 10
658.4104904045898
 20
1153.383676974894
 10
658.3154654571071
 20
1153.350667414145
 10
658.1145824898258
 20
1153.280134309004
  0
LWPOLYLINE
  5
4820
330
1F
100
AcDbEntity
  8
HEWI
  6
Continuous
370
    18
100
AcDbPolyline
 90
       18
 70
     0
 43
0.0
 10
657.3220197579694
 20
1034.418773417252
 10
657.3104909266976
 20
1034.53582761487
 10
657.2763474794001
 20
1034.648383485318
 10
657.2209015296094
 20
1034.752115569618
 10
657.1462838340822
 20
1034.843037501943
 10
654.7279073175314
 20
1037.261414211436
 10
654.5537993613025
 20
1037.473565386859
 10
654.4244254784598
 20
1037.715606916891
 10
654.3447574347673
 20
1037.978237281271
 10
654.3178568284647
 20
1038.251363742381
 10
654.3178568284647
 20
1054.411465363697
 10
655.117856794769
 20
1054.411465363697
 10
655.117856794769
 20
1038.25136374238
 10
655.1293856260427
 20
1038.134309544761
 10
655.1635290733401
 20
1038.021753674313
 10
655.2189750231309
 20
1037.918021590013
 10
655.2935927186563
 20
1037.827099657689
 10
657.3220197273594
 20
1035.798672487155
  0
LWPOLYLINE
  5
4821
330
1F
100
AcDbEntity
  8
HEWI
  6
Continuous
370
    18
100
AcDbPolyline
 90
       18
 70
     0
 43
0.0
 10
657.3220197579694
 20
614.4187575987449
 10
657.3104909266976
 20
614.5358117963634
 10
657.2763474794001
 20
614.6483676668118
 10
657.2209015296094
 20
614.7520997511111
 10
657.1462838340822
 20
614.8430216834359
 10
654.727907317535
 20
617.2613983929269
 10
654.5537993613042
 20
617.4735495683509
 10
654.4244254784616
 20
617.715591098383
 10
654.3447574347673
 20
617.9782214627631
 10
654.3178568284665
 20
618.2513479238724
 10
654.3178568284665
 20
634.4114495451896
 10
655.1178567947708
 20
634.4114495451896
 10
655.1178567947708
 20
618.2513479238724
 10
655.1293856260445
 20
618.1342937262544
 10
655.1635290733401
 20
618.021737855806
 10
655.2189750231309
 20
617.9180057715062
 10
655.2935927186563
 20
617.8270838391819
 10
657.3220197273594
 20
615.7986566686487
  0
LINE
  5
4822
330
1F
100
AcDbEntity
  8
HEWI
  6
Continuous
370
    18
100
AcDbLine
 10
658.8634410111053
 20
1153.418777899162
 30
0.0
 11
658.7220196990065
 21
1153.418777899162
 31
0.0
  0
LINE
  5
4823
330
1F
100
AcDbEntity
  8
HEWI
  6
Continuous
370
    18
100
AcDbLine
 10
658.1516420160905
 20
1152.193954917038
 30
0.0
 11
658.1509405194055
 21
1152.191950154535
 31
0.0
  0
LINE
  5
4824
330
1F
100
AcDbEntity
  8
HEWI
  6
Continuous
370
    18
100
AcDbLine
 10
658.1339720149653
 20
1152.124857368737
 30
0.0
 11
658.1220197242774
 21
1152.018777846434
 31
0.0
  0
LINE
  5
4825
330
1F
100
AcDbEntity
  8
HEWI
  6
Continuous
370
    18
100
AcDbLine
 10
915.8812855202969
 20
1152.618777869031
 30
0.0
 11
915.9220088662468
 21
1152.618777869031
 31
0.0
  0
LINE
  5
4826
330
1F
100
AcDbEntity
  8
HEWI
  6
Continuous
370
    18
100
AcDbLine
 10
916.1875283569852
 20
1152.547607179694
 30
0.0
 11
916.2410793905538
 21
1152.51466393732
 31
0.0
  0
LINE
  5
4827
330
1F
100
AcDbEntity
  8
HEWI
  6
Continuous
370
    18
100
AcDbLine
 10
916.3807950171912
 20
1152.388543524095
 30
0.0
 11
916.4178949160532
 21
1152.337848398206
 31
0.0
  0
LINE
  5
4828
330
1F
100
AcDbEntity
  8
HEWI
  6
Continuous
370
    18
100
AcDbLine
 10
916.5010825126783
 20
1152.160340353393
 30
0.0
 11
916.5085972419374
 21
1152.130627415283
 31
0.0
  0
LINE
  5
4829
330
1F
100
AcDbEntity
  8
HEWI
  6
Continuous
370
    18
100
AcDbLine
 10
916.4508381576661
 20
1152.284297357645
 30
0.0
 11
916.4769344277855
 21
1152.227553867722
 31
0.0
  0
LINE
  5
482A
330
1F
100
AcDbEntity
  8
HEWI
  6
Continuous
370
    18
100
AcDbLine
 10
658.142946052375
 20
1152.160340352818
 30
0.0
 11
658.1670941381717
 21
1152.227553868997
 31
0.0
  0
LINE
  5
482B
330
1F
100
AcDbEntity
  8
HEWI
  6
Continuous
370
    18
100
AcDbLine
 10
658.1931904079383
 20
1152.284297358356
 30
0.0
 11
658.2261336476831
 21
1152.337848396197
 31
0.0
  0
LINE
  5
482C
330
1F
100
AcDbEntity
  8
HEWI
  6
Continuous
370
    18
100
AcDbLine
 10
916.2917745138539
 20
1152.477564034391
 30
0.0
 11
916.338025762222
 21
1152.434794771703
 31
0.0
  0
LINE
  5
482D
330
1F
100
AcDbEntity
  8
HEWI
  6
Continuous
370
    18
100
AcDbLine
 10
658.4565002089793
 20
1152.547607180044
 30
0.0
 11
658.5132436943759
 21
1152.573703452246
 31
0.0
  0
LWPOLYLINE
  5
482E
330
1F
100
AcDbEntity
  8
HEWI
  6
Continuous
370
    18
100
AcDbPolyline
 90
        4
 70
     0
 43
0.0
 10
902.3220094437647
 20
534.2187545781817
 10
902.3239471747828
 20
534.2187545781817
 10
902.471865257111
 20
534.2187545781817
 10
902.522009430636
 20
534.2187545781817
  0
LWPOLYLINE
  5
482F
330
1F
100
AcDbEntity
  8
HEWI
  6
Continuous
370
    18
100
AcDbPolyline
 90
        4
 70
     0
 43
0.0
 10
902.522009430636
 20
535.018754608313
 10
902.471865257111
 20
535.0187546083117
 10
902.3239471747828
 20
535.0187546083117
 10
902.3220094391044
 20
535.0187546083117
  0
LINE
  5
4830
330
1F
100
AcDbEntity
  8
HEWI
  6
Continuous
370
    18
100
AcDbLine
 10
658.1220197242755
 20
1152.018777846434
 30
0.0
 11
658.1354313239253
 21
1152.130627417552
 31
0.0
  0
LINE
  5
4831
330
1F
100
AcDbEntity
  8
HEWI
  6
Continuous
370
    18
100
AcDbLine
 10
902.522009430636
 20
534.2187545781822
 30
0.0
 11
902.522009430636
 21
535.018754608313
 31
0.0
  0
LWPOLYLINE
  5
4832
330
1F
100
AcDbEntity
  8
HEWI
  6
Continuous
370
    18
100
AcDbPolyline
 90
        3
 70
     0
 43
0.0
 10
658.7220196990138
 20
1152.018777846453
 10
658.7220196990138
 20
1152.518777865284
 10
658.7555302506016
 20
1152.518777865284
  0
LINE
  5
4833
330
1F
100
AcDbEntity
  8
HEWI
  6
Continuous
370
    18
100
AcDbLine
 10
675.322018992404
 20
534.2187545781822
 30
0.0
 11
674.3220190360125
 21
534.2187545781822
 31
0.0
  0
LINE
  5
4834
330
1F
100
AcDbEntity
  8
HEWI
  6
Continuous
370
    18
100
AcDbLine
 10
674.3220191134978
 20
535.018754608313
 30
0.0
 11
675.3220190117745
 21
535.018754608313
 31
0.0
  0
LINE
  5
4835
330
1F
100
AcDbEntity
  8
HEWI
  6
Continuous
370
    18
100
AcDbLine
 10
658.2632335476528
 20
1152.388543523541
 30
0.0
 11
658.3060028069276
 21
1152.434794775599
 31
0.0
  0
LINE
  5
4836
330
1F
100
AcDbEntity
  8
HEWI
  6
Continuous
370
    18
100
AcDbLine
 10
658.3522540508465
 20
1152.47756403398
 30
0.0
 11
658.4029491726915
 21
1152.514663935803
 31
0.0
  0
LINE
  5
4837
330
1F
100
AcDbEntity
  8
HEWI
  6
Continuous
370
    18
100
AcDbLine
 10
658.5804572033403
 20
1152.597851539065
 30
0.0
 11
658.6101701390825
 21
1152.605366268922
 31
0.0
  0
LINE
  5
4838
330
1F
100
AcDbEntity
  8
HEWI
  6
Continuous
370
    18
100
AcDbLine
 10
903.3220091585217
 20
535.0187546083126
 30
0.0
 11
902.522009430636
 21
535.018754608313
 31
0.0
  0
LINE
  5
4839
330
1F
100
AcDbEntity
  8
HEWI
  6
Continuous
370
    18
100
AcDbLine
 10
902.522009430636
 20
534.2187545781822
 30
0.0
 11
903.3220094207818
 21
534.2187545781822
 31
0.0
  0
LWPOLYLINE
  5
487E
330
1F
100
AcDbEntity
  8
HEWI
  6
Continuous
370
    18
100
AcDbPolyline
 90
       27
 70
     0
 43
0.0
 10
41.86032684133351
 20
533.418754548033
 10
41.88521612477598
 20
533.1962336103309
 10
41.95863592250498
 20
532.9848708016124
 10
42.07690465928862
 20
532.7952647356799
 10
42.2340918468144
 20
532.6369230524059
 10
42.42231546314724
 20
532.517785664966
 10
42.63213719020678
 20
532.4438266194419
 10
42.85303569046118
 20
532.4187545312014
 10
43.02611358034482
 20
532.4187545312014
 10
43.36221070226748
 20
532.4187545312014
 10
43.84179431316442
 20
532.4187545312014
 10
44.43699275678409
 20
532.4187545312014
 10
45.11321526304527
 20
532.4187545312014
 10
45.83116223784964
 20
532.4187545312014
 10
46.549109212654
 20
532.4187545312014
 10
47.22533171891337
 20
532.4187545312014
 10
47.82053016253485
 20
532.4187545312014
 10
48.30011377342998
 20
532.4187545312014
 10
48.63621089535081
 20
532.4187545312014
 10
48.80928878523628
 20
532.4187545312014
 10
49.0301872854925
 20
532.4438266194419
 10
49.24000901255204
 20
532.517785664966
 10
49.42823262888305
 20
532.6369230524059
 10
49.58541981641065
 20
532.7952647356799
 10
49.7036885531943
 20
532.9848708016124
 10
49.7771083509233
 20
533.1962336103309
 10
49.80199763436576
 20
533.418754548033
  0
LWPOLYLINE
  5
487F
330
1F
100
AcDbEntity
  8
HEWI
  6
Continuous
370
    18
100
AcDbPolyline
 90
       10
 70
     0
 43
0.0
 10
37.83116243911718
 20
1152.018764959916
 10
37.83116243911718
 20
533.418754548033
 10
37.86626336117843
 20
533.418754548033
 10
37.96980602056647
 20
533.418754548033
 10
38.13659835598082
 20
533.418754548033
 10
38.3582767032567
 20
533.418754548033
 10
38.62372518441771
 20
533.418754548033
 10
38.91963310420033
 20
533.418754548033
 10
39.231162403903
 20
533.418754548033
 10
51.83116208698629
 20
533.418754548033
  0
LWPOLYLINE
  5
4880
330
1F
100
AcDbEntity
  8
HEWI
  6
Continuous
370
    18
100
AcDbPolyline
 90
       11
 70
     0
 43
0.0
 10
52.83116206183331
 20
533.418754548033
 10
52.83116206183331
 20
533.453855471569
 10
52.83116206183331
 20
533.557398135303
 10
52.83116206183331
 20
533.7241904777187
 10
52.83116206183331
 20
533.9458688343028
 10
52.83116206183331
 20
534.2113173266083
 10
52.83116206183331
 20
534.5072252588146
 10
52.83116206183331
 20
534.8187545715967
 10
52.83116206183331
 20
535.4187545816956
 10
51.83116208698629
 20
535.4187545816956
 10
51.83116208698629
 20
533.418754548033
  0
LWPOLYLINE
  5
4881
330
1F
100
AcDbEntity
  8
HEWI
  6
Continuous
370
    18
100
AcDbPolyline
 90
       16
 70
     0
 43
0.0
 10
39.3725837565853
 20
1153.41876498348
 10
39.35914872807916
 20
1153.401222178673
 10
39.34571369957485
 20
1153.350654499883
 10
39.32662181696287
 20
1153.228048747377
 10
39.30752993435272
 20
1153.053865437418
 10
39.28843805173892
 20
1152.836974986847
 10
39.26934616912695
 20
1152.586247812511
 10
39.25025428651498
 20
1152.310554331253
 10
39.231162403903
 20
1152.018764959916
 10
38.91963310420033
 20
1152.018764959916
 10
38.62372518441771
 20
1152.018764959916
 10
38.3582767032567
 20
1152.018764959916
 10
38.13659835598082
 20
1152.018764959916
 10
37.96980602056647
 20
1152.018764959916
 10
37.86626336117843
 20
1152.018764959916
 10
37.83116243911718
 20
1152.018764959916
  0
LWPOLYLINE
  5
4882
330
1F
100
AcDbEntity
  8
HEWI
  6
Continuous
370
    18
100
AcDbPolyline
 90
       10
 70
     0
 43
0.0
 10
377.8311538873568
 20
1152.018764959916
 10
377.8311538873568
 20
533.4187545480325
 10
377.7960529652955
 20
533.4187545480325
 10
377.6925103059093
 20
533.4187545480325
 10
377.5257179704949
 20
533.4187545480325
 10
377.3040396232172
 20
533.4187545480325
 10
377.0385911420563
 20
533.4187545480325
 10
376.7426832222736
 20
533.4187545480325
 10
376.431153922571
 20
533.4187545480325
 10
363.8311542394877
 20
533.4187545480325
  0
LWPOLYLINE
  5
4883
330
1F
100
AcDbEntity
  8
HEWI
  6
Continuous
370
    18
100
AcDbPolyline
 90
       11
 70
     0
 43
0.0
 10
363.8311542394877
 20
533.4187545480325
 10
363.8311542394877
 20
535.4187545816956
 10
362.8311542646406
 20
535.4187545816956
 10
362.8311542646406
 20
534.8187545715967
 10
362.8311542646406
 20
534.5072252588141
 10
362.8311542646406
 20
534.2113173266078
 10
362.8311542646406
 20
533.9458688343028
 10
362.8311542646406
 20
533.7241904777182
 10
362.8311542646406
 20
533.557398135303
 10
362.8311542646406
 20
533.453855471569
 10
362.8311542646406
 20
533.4187545480325
  0
LINE
  5
4884
330
1F
100
AcDbEntity
  8
HEWI
  6
Continuous
370
    18
100
AcDbLine
 10
376.2897325698905
 20
1153.41876498348
 30
0.0
 11
39.3725837565853
 21
1153.41876498348
 31
0.0
  0
LWPOLYLINE
  5
4885
330
1F
100
AcDbEntity
  8
HEWI
  6
Continuous
370
    18
100
AcDbPolyline
 90
       16
 70
     0
 43
0.0
 10
376.2897325698905
 20
1153.41876498348
 10
376.3088244525024
 20
1153.383777253952
 10
376.3279163351144
 20
1153.284727676596
 10
376.3470082177264
 20
1153.130486668257
 10
376.3661001003384
 20
1152.929924645779
 10
376.3851919829503
 20
1152.691912026007
 10
376.4042838655623
 20
1152.425319225782
 10
376.4177188940666
 20
1152.22537666778
 10
376.431153922571
 20
1152.018764959916
 10
376.7426832222736
 20
1152.018764959916
 10
377.0385911420563
 20
1152.018764959916
 10
377.3040396232172
 20
1152.018764959916
 10
377.5257179704949
 20
1152.018764959916
 10
377.6925103059093
 20
1152.018764959916
 10
377.7960529652955
 20
1152.018764959916
 10
377.8311538873568
 20
1152.018764959916
  0
LWPOLYLINE
  5
4886
330
1F
100
AcDbEntity
  8
HEWI
  6
Continuous
370
    18
100
AcDbPolyline
 90
        3
 70
     0
 43
0.0
 10
39.231162403903
 20
1153.41876498348
 10
39.02455070471479
 20
1153.401222178673
 10
38.93937304481733
 20
1153.383777253952
  0
LWPOLYLINE
  5
4887
330
1F
100
AcDbEntity
  8
HEWI
  6
Continuous
370
    18
100
AcDbPolyline
 90
        3
 70
     0
 43
0.0
 10
38.93937304481733
 20
1153.383777253952
 10
38.82460815510786
 20
1153.350654499883
 10
38.66367957513467
 20
1153.284727676597
  0
LWPOLYLINE
  5
4888
330
1F
100
AcDbEntity
  8
HEWI
  6
Continuous
370
    18
100
AcDbPolyline
 90
        3
 70
     0
 43
0.0
 10
38.4129524113232
 20
1153.130486668257
 10
38.32000275629435
 20
1153.053865437418
 10
38.19606196986024
 20
1152.929924645779
  0
LINE
  5
4889
330
1F
100
AcDbEntity
  8
HEWI
  6
Continuous
370
    18
100
AcDbLine
 10
38.19606196986024
 20
1152.929924645779
 30
0.0
 11
38.4129524113232
 21
1153.130486668257
 31
0.0
  0
LINE
  5
488A
330
1F
100
AcDbEntity
  8
HEWI
  6
Continuous
370
    18
100
AcDbLine
 10
37.89927291985441
 20
1152.425319225782
 30
0.0
 11
38.02187866721397
 21
1152.691912026007
 31
0.0
  0
LWPOLYLINE
  5
488B
330
1F
100
AcDbEntity
  8
HEWI
  6
Continuous
370
    18
100
AcDbPolyline
 90
        3
 70
     0
 43
0.0
 10
38.19606196986024
 20
1152.929924645779
 10
38.1194407422372
 20
1152.836974986847
 10
38.02187866721397
 20
1152.691912026007
  0
LINE
  5
488C
330
1F
100
AcDbEntity
  8
HEWI
  6
Continuous
370
    18
100
AcDbLine
 10
38.66367957513467
 20
1153.284727676597
 30
0.0
 11
38.93937304481733
 21
1153.383777253952
 31
0.0
  0
LINE
  5
488D
330
1F
100
AcDbEntity
  8
HEWI
  6
Continuous
370
    18
100
AcDbLine
 10
38.02187866721397
 20
1152.691912026007
 30
0.0
 11
38.19606196986024
 21
1152.929924645779
 31
0.0
  0
LWPOLYLINE
  5
488E
330
1F
100
AcDbEntity
  8
HEWI
  6
Continuous
370
    18
100
AcDbPolyline
 90
       11
 70
     0
 43
0.0
 10
39.27182222200645
 20
1152.618764970015
 10
39.231162403903
 20
1152.618764970015
 10
39.10610982143771
 20
1152.603770228788
 10
38.98795547728878
 20
1152.561320409922
 10
38.88050097851192
 20
1152.495217120634
 10
38.78754793217195
 20
1152.409261968143
 10
38.71289794532277
 20
1152.307256559669
 10
38.66035262502555
 20
1152.19300250243
 10
38.63868076359722
 20
1152.107312834715
 10
38.63116241899479
 20
1152.018764959916
 10
38.64457401887012
 20
1152.130614528703
  0
LINE
  5
488F
330
1F
100
AcDbEntity
  8
HEWI
  6
Continuous
370
    18
100
AcDbLine
 10
37.83116243911718
 20
1152.018764959916
 30
0.0
 11
37.84870524318831
 21
1152.22537666778
 31
0.0
  0
LWPOLYLINE
  5
4890
330
1F
100
AcDbEntity
  8
HEWI
  6
Continuous
370
    18
100
AcDbPolyline
 90
        3
 70
     0
 43
0.0
 10
38.66367957513467
 20
1153.284727676597
 10
38.55801536607396
 20
1153.228048747377
 10
38.4129524113232
 20
1153.130486668257
  0
LINE
  5
4891
330
1F
100
AcDbEntity
  8
HEWI
  6
Continuous
370
    18
100
AcDbLine
 10
37.84870524318831
 20
1152.22537666778
 30
0.0
 11
37.89927291985441
 21
1152.425319225782
 31
0.0
  0
LINE
  5
4892
330
1F
100
AcDbEntity
  8
HEWI
  6
Continuous
370
    18
100
AcDbLine
 10
38.4129524113232
 20
1153.130486668257
 30
0.0
 11
38.66367957513467
 21
1153.284727676597
 31
0.0
  0
LINE
  5
4893
330
1F
100
AcDbEntity
  8
HEWI
  6
Continuous
370
    18
100
AcDbLine
 10
38.93937304481733
 20
1153.383777253952
 30
0.0
 11
39.231162403903
 21
1153.41876498348
 31
0.0
  0
LWPOLYLINE
  5
4894
330
1F
100
AcDbEntity
  8
HEWI
  6
Continuous
370
    18
100
AcDbPolyline
 90
        3
 70
     0
 43
0.0
 10
38.02187866721397
 20
1152.691912026007
 10
37.96519974037256
 20
1152.586247812511
 10
37.89927291985441
 20
1152.425319225782
  0
LWPOLYLINE
  5
4895
330
1F
100
AcDbEntity
  8
HEWI
  6
Continuous
370
    18
100
AcDbPolyline
 90
        3
 70
     0
 43
0.0
 10
37.89927291985441
 20
1152.425319225782
 10
37.86615016717588
 20
1152.310554331253
 10
37.84870524318831
 20
1152.22537666778
  0
LINE
  5
4896
330
1F
100
AcDbEntity
  8
HEWI
  6
Continuous
370
    18
100
AcDbLine
 10
362.8311542646406
 20
533.4187545480325
 30
0.0
 11
52.83116206183331
 21
533.418754548033
 31
0.0
  0
LWPOLYLINE
  5
4897
330
1F
100
AcDbEntity
  8
HEWI
  6
Continuous
370
    18
100
AcDbPolyline
 90
        3
 70
     0
 43
0.0
 10
377.7961661592981
 20
1152.310554331253
 10
377.8136110832875
 20
1152.22537666778
 10
377.8311538873568
 20
1152.018764959916
  0
LINE
  5
4898
330
1F
100
AcDbEntity
  8
HEWI
  6
Continuous
370
    18
100
AcDbLine
 10
376.6377656217592
 20
1153.401222178673
 30
0.0
 11
376.8377081713679
 21
1153.350654499883
 31
0.0
  0
LINE
  5
4899
330
1F
100
AcDbEntity
  8
HEWI
  6
Continuous
370
    18
100
AcDbLine
 10
363.8311548116945
 20
533.418754548033
 30
0.0
 11
362.8311543600103
 21
533.418754548033
 31
0.0
  0
LINE
  5
489A
330
1F
100
AcDbEntity
  8
HEWI
  6
Continuous
370
    18
100
AcDbLine
 10
52.83116339697699
 20
533.418754548033
 30
0.0
 11
51.83116151477952
 21
533.418754548033
 31
0.0
  0
LINE
  5
489B
330
1F
100
AcDbEntity
  8
HEWI
  6
Continuous
370
    18
100
AcDbLine
 10
39.37258371840107
 20
1153.41876498348
 30
0.0
 11
39.231162403903
 21
1153.41876498348
 31
0.0
  0
LWPOLYLINE
  5
489C
330
1F
100
AcDbEntity
  8
HEWI
  6
Continuous
370
    18
100
AcDbPolyline
 90
        3
 70
     0
 43
0.0
 10
376.6377656217592
 20
1153.401222178673
 10
376.431153922571
 20
1153.41876498348
 10
376.2897325739869
 20
1153.41876498348
  0
LINE
  5
489D
330
1F
100
AcDbEntity
  8
HEWI
  6
Continuous
370
    18
100
AcDbLine
 10
377.6971165861014
 20
1152.586247812511
 30
0.0
 11
377.7961661592981
 21
1152.310554331253
 31
0.0
  0
LWPOLYLINE
  5
489E
330
1F
100
AcDbEntity
  8
HEWI
  6
Continuous
370
    18
100
AcDbPolyline
 90
        8
 70
     0
 43
0.0
 10
377.0311539074792
 20
1152.018764959916
 10
377.016159166882
 20
1152.143817547632
 10
376.9737093497988
 20
1152.261971896742
 10
376.9076060632851
 20
1152.369426400029
 10
376.8216509144022
 20
1152.462379450273
 10
376.7196455102112
 20
1152.537029440256
 10
376.6053914577697
 20
1152.589574762758
 10
376.5197017936516
 20
1152.611246625098
  0
LINE
  5
489F
330
1F
100
AcDbEntity
  8
HEWI
  6
Continuous
370
    18
100
AcDbLine
 10
376.3904305759315
 20
1152.618764970015
 30
0.0
 11
376.431153922571
 21
1152.618764970015
 31
0.0
  0
LINE
  5
48A0
330
1F
100
AcDbEntity
  8
HEWI
  6
Continuous
370
    18
100
AcDbLine
 10
38.65208874744894
 20
1152.16032746335
 30
0.0
 11
38.67623683365309
 21
1152.22754097813
 31
0.0
  0
LWPOLYLINE
  5
48A1
330
1F
100
AcDbEntity
  8
HEWI
  6
Continuous
370
    18
100
AcDbPolyline
 90
        3
 70
     0
 43
0.0
 10
377.3423135701796
 20
1153.053865437416
 10
377.4662543566155
 20
1152.929924645779
 10
377.5428755842386
 20
1152.836974986847
  0
LINE
  5
48A2
330
1F
100
AcDbEntity
  8
HEWI
  6
Continuous
370
    18
100
AcDbLine
 10
38.70233310385993
 20
1152.284284466307
 30
0.0
 11
38.73527634416678
 21
1152.337835503033
 31
0.0
  0
LINE
  5
48A3
330
1F
100
AcDbEntity
  8
HEWI
  6
Continuous
370
    18
100
AcDbLine
 10
38.77237624476402
 20
1152.388530629321
 30
0.0
 11
38.81514550476641
 21
1152.434781880416
 31
0.0
  0
LINE
  5
48A4
330
1F
100
AcDbEntity
  8
HEWI
  6
Continuous
370
    18
100
AcDbLine
 10
38.86139674946935
 20
1152.477551137906
 30
0.0
 11
38.91209187217283
 21
1152.514651038955
 31
0.0
  0
LINE
  5
48A5
330
1F
100
AcDbEntity
  8
HEWI
  6
Continuous
370
    18
100
AcDbLine
 10
38.96564290937022
 20
1152.54759428251
 30
0.0
 11
39.02238639572897
 21
1152.573690554169
 31
0.0
  0
LINE
  5
48A6
330
1F
100
AcDbEntity
  8
HEWI
  6
Continuous
370
    18
100
AcDbLine
 10
377.7961661592981
 20
1152.310554331253
 30
0.0
 11
377.8311538873568
 21
1152.018764959916
 31
0.0
  0
LWPOLYLINE
  5
48A7
330
1F
100
AcDbEntity
  8
HEWI
  6
Continuous
370
    18
100
AcDbPolyline
 90
        3
 70
     0
 43
0.0
 10
376.6377656217592
 20
1153.401222178673
 10
376.7229432816585
 20
1153.383777253952
 10
376.8377081713679
 20
1153.350654499883
  0
LINE
  5
48A8
330
1F
100
AcDbEntity
  8
HEWI
  6
Continuous
370
    18
100
AcDbLine
 10
376.8377081713679
 20
1153.350654499883
 30
0.0
 11
377.1043009604
 21
1153.228048747377
 31
0.0
  0
LWPOLYLINE
  5
48A9
330
1F
100
AcDbEntity
  8
HEWI
  6
Continuous
370
    18
100
AcDbPolyline
 90
        3
 70
     0
 43
0.0
 10
377.1043009604
 20
1153.228048747377
 10
377.2493639151508
 20
1153.130486668257
 10
377.3423135701796
 20
1153.053865437416
  0
LWPOLYLINE
  5
48AA
330
1F
100
AcDbEntity
  8
HEWI
  6
Continuous
370
    18
100
AcDbPolyline
 90
        3
 70
     0
 43
0.0
 10
377.5428755842386
 20
1152.836974986847
 10
377.64043765926
 20
1152.691912026006
 10
377.6971165861014
 20
1152.586247812511
  0
LWPOLYLINE
  5
48AB
330
1F
100
AcDbEntity
  8
HEWI
  6
Continuous
370
    18
100
AcDbPolyline
 90
        3
 70
     0
 43
0.0
 10
377.6971165861014
 20
1152.586247812511
 10
377.7630434066196
 20
1152.425319225782
 10
377.7961661592981
 20
1152.310554331253
  0
LINE
  5
48AC
330
1F
100
AcDbEntity
  8
HEWI
  6
Continuous
370
    18
100
AcDbLine
 10
377.3423135701796
 20
1153.053865437416
 30
0.0
 11
377.5428755842386
 21
1152.836974986847
 31
0.0
  0
LWPOLYLINE
  5
48AD
330
1F
100
AcDbEntity
  8
HEWI
  6
Continuous
370
    18
100
AcDbPolyline
 90
        3
 70
     0
 43
0.0
 10
376.8377081713679
 20
1153.350654499883
 10
376.9986367513411
 20
1153.284727676596
 10
377.1043009604
 20
1153.228048747377
  0
LINE
  5
48AE
330
1F
100
AcDbEntity
  8
HEWI
  6
Continuous
370
    18
100
AcDbLine
 10
377.5428755842386
 20
1152.836974986847
 30
0.0
 11
377.6971165861014
 21
1152.586247812511
 31
0.0
  0
LINE
  5
48AF
330
1F
100
AcDbEntity
  8
HEWI
  6
Continuous
370
    18
100
AcDbLine
 10
377.1043009604
 20
1153.228048747377
 30
0.0
 11
377.3423135701796
 21
1153.053865437416
 31
0.0
  0
LWPOLYLINE
  5
48B0
330
1F
100
AcDbEntity
  8
HEWI
  6
Continuous
370
    18
100
AcDbPolyline
 90
       27
 70
     0
 43
0.0
 10
348.8603191196453
 20
533.4187545480325
 10
348.8852084030896
 20
533.1962336103309
 10
348.9586282008186
 20
532.9848708016124
 10
349.0768969376004
 20
532.7952647356799
 10
349.234084125128
 20
532.6369230524059
 10
349.4223077414608
 20
532.5177856649656
 10
349.6321294685222
 20
532.4438266194414
 10
349.8530279687748
 20
532.4187545312014
 10
350.0261058586602
 20
532.4187545312014
 10
350.3622029805811
 20
532.4187545312014
 10
350.8417865914762
 20
532.4187545312014
 10
351.4369850350977
 20
532.4187545312014
 10
352.1132075413589
 20
532.4187545312014
 10
352.8311545161632
 20
532.4187545312014
 10
353.5491014909676
 20
532.4187545312014
 10
354.2253239972288
 20
532.4187545312014
 10
354.8205224408484
 20
532.4187545312014
 10
355.3001060517454
 20
532.4187545312014
 10
355.6362031736662
 20
532.4187545312014
 10
355.8092810635517
 20
532.4187545312014
 10
356.0301795638043
 20
532.4438266194414
 10
356.2400012908656
 20
532.5177856649656
 10
356.4282249071985
 20
532.6369230524059
 10
356.585412094726
 20
532.7952647356799
 10
356.703680831506
 20
532.9848708016124
 10
356.7771006292369
 20
533.1962336103309
 10
356.8019899126812
 20
533.4187545480325
  0
LWPOLYLINE
  5
48B1
330
1F
100
AcDbEntity
  8
HEWI
  6
Continuous
370
    18
100
AcDbPolyline
 90
       27
 70
     0
 43
0.0
 10
373.8019894850422
 20
533.418754548033
 10
373.7771002015979
 20
533.1962336103309
 10
373.7036804038689
 20
532.9848708016124
 10
373.5854116670871
 20
532.7952647356799
 10
373.4282244795613
 20
532.6369230524059
 10
373.2400008632285
 20
532.517785664966
 10
373.0301791361672
 20
532.4438266194419
 10
372.8092806359127
 20
532.4187545312014
 10
372.6362027460291
 20
532.4187545312014
 10
372.3001056241046
 20
532.4187545312014
 10
371.8205220132113
 20
532.4187545312014
 10
371.2253235695898
 20
532.4187545312014
 10
370.5491010633305
 20
532.4187545312014
 10
369.8311540885243
 20
532.4187545312014
 10
369.1132071137217
 20
532.4187545312014
 10
368.4369846074606
 20
532.4187545312014
 10
367.841786163839
 20
532.4187545312014
 10
367.3622025529439
 20
532.4187545312014
 10
367.0261054310213
 20
532.4187545312014
 10
366.8530275411376
 20
532.4187545312014
 10
366.6321290408814
 20
532.4438266194419
 10
366.4223073138219
 20
532.517785664966
 10
366.2340836974909
 20
532.6369230524059
 10
366.0768965099633
 20
532.7952647356799
 10
365.9586277731796
 20
532.9848708016124
 10
365.8852079754506
 20
533.1962336103309
 10
365.8603186920081
 20
533.418754548033
  0
LWPOLYLINE
  5
48B2
330
1F
100
AcDbEntity
  8
HEWI
  6
Continuous
370
    18
100
AcDbPolyline
 90
        3
 70
     0
 43
0.0
 10
376.581153918798
 20
1152.018764965876
 10
376.5811539186507
 20
1152.594807264314
 10
376.6399299320201
 20
1152.573690553463
  0
LINE
  5
48B3
330
1F
100
AcDbEntity
  8
HEWI
  6
Continuous
370
    18
100
AcDbLine
 10
362.8311542645915
 20
535.0187545749812
 30
0.0
 11
363.8311542468891
 21
535.0187545749812
 31
0.0
  0
LINE
  5
48B4
330
1F
100
AcDbEntity
  8
HEWI
  6
Continuous
370
    18
100
AcDbLine
 10
363.8311541798339
 20
534.218754561516
 30
0.0
 11
362.8311542645915
 21
534.218754561516
 31
0.0
  0
LINE
  5
48B5
330
1F
100
AcDbEntity
  8
HEWI
  6
Continuous
370
    18
100
AcDbLine
 10
51.83116214654001
 20
534.2187545615169
 30
0.0
 11
52.83116206178419
 21
534.2187545615169
 31
0.0
  0
LINE
  5
48B6
330
1F
100
AcDbEntity
  8
HEWI
  6
Continuous
370
    18
100
AcDbLine
 10
376.8899400812988
 20
1152.388530629874
 30
0.0
 11
376.927039980792
 21
1152.337835505042
 31
0.0
  0
LINE
  5
48B7
330
1F
100
AcDbEntity
  8
HEWI
  6
Continuous
370
    18
100
AcDbLine
 10
52.83116206178419
 20
535.0187545749821
 30
0.0
 11
51.83116207948478
 21
535.0187545749821
 31
0.0
  0
LINE
  5
48B8
330
1F
100
AcDbEntity
  8
HEWI
  6
Continuous
370
    18
100
AcDbLine
 10
376.8009195764516
 20
1152.477551138316
 30
0.0
 11
376.8471708256038
 21
1152.43478187652
 31
0.0
  0
LINE
  5
48B9
330
1F
100
AcDbEntity
  8
HEWI
  6
Continuous
370
    18
100
AcDbLine
 10
376.9599832229633
 20
1152.284284465597
 30
0.0
 11
376.9860794935248
 21
1152.227540976855
 31
0.0
  0
LINE
  5
48BA
330
1F
100
AcDbEntity
  8
HEWI
  6
Continuous
370
    18
100
AcDbLine
 10
377.0102275788267
 20
1152.160327463927
 30
0.0
 11
377.0177423082132
 21
1152.130614526435
 31
0.0
  0
LINE
  5
48BB
330
1F
100
AcDbEntity
  8
HEWI
  6
Continuous
370
    18
100
AcDbLine
 10
39.08116240766685
 20
1152.594807264481
 30
0.0
 11
39.08116240766685
 21
1152.018764936069
 31
0.0
  0
LINE
  5
48BC
330
1F
100
AcDbEntity
  8
HEWI
  6
Continuous
370
    18
100
AcDbLine
 10
376.6966734178132
 20
1152.54759428216
 30
0.0
 11
376.7502244522912
 21
1152.514651040471
 31
0.0
  0
LWPOLYLINE
  5
48BD
330
1F
100
AcDbEntity
  8
HEWI
  6
Continuous
370
    18
100
AcDbPolyline
 90
       27
 70
     0
 43
0.0
 10
58.8603264137455
 20
533.418754548033
 10
58.88521569718796
 20
533.1962336103309
 10
58.95863549491696
 20
532.9848708016124
 10
59.07690423170061
 20
532.7952647356799
 10
59.23409141922639
 20
532.6369230524059
 10
59.4223150355574
 20
532.5177856649656
 10
59.63213676261876
 20
532.4438266194419
 10
59.85303526287316
 20
532.4187545312014
 10
60.02611315275681
 20
532.4187545312014
 10
60.36221027467945
 20
532.4187545312014
 10
60.84179388557458
 20
532.4187545312014
 10
61.43699232919607
 20
532.4187545312014
 10
62.11321483545543
 20
532.4187545312014
 10
62.8311618102598
 20
532.4187545312014
 10
63.54910878506598
 20
532.4187545312014
 10
64.22533129132535
 20
532.4187545312014
 10
64.82052973494683
 20
532.4187545312014
 10
65.30011334584196
 20
532.4187545312014
 10
65.63621046776461
 20
532.4187545312014
 10
65.80928835764826
 20
532.4187545312014
 10
66.03018685790448
 20
532.4438266194419
 10
66.24000858496401
 20
532.5177856649656
 10
66.42823220129503
 20
532.6369230524059
 10
66.58541938882263
 20
532.7952647356799
 10
66.70368812560628
 20
532.9848708016124
 10
66.77710792333527
 20
533.1962336103309
 10
66.80199720677956
 20
533.418754548033
  0
ENDSEC
  0
SECTION
  2
OBJECTS
  0
DICTIONARY
  5
C
330
0
100
AcDbDictionary
281
     1
  3
ACAD_CIP_PREVIOUS_PRODUCT_INFO
350
615
  3
ACAD_COLOR
350
1EB
  3
ACAD_DETAILVIEWSTYLE
350
5EB
  3
ACAD_GROUP
350
D
  3
ACAD_LAYOUT
350
1EE
  3
ACAD_MATERIAL
350
1D6
  3
ACAD_MLEADERSTYLE
350
5E7
  3
ACAD_MLINESTYLE
350
17
  3
ACAD_PLOTSETTINGS
350
19
  3
ACAD_PLOTSTYLENAME
350
10D
  3
ACAD_SCALELIST
350
5D5
  3
ACAD_SECTIONVIEWSTYLE
350
5E9
  3
ACAD_TABLESTYLE
350
1EC
  3
ACAD_VISUALSTYLE
350
1DA
  3
ACDB_RECOMPOSE_DATA
350
48C8
  3
AcDbVariableDictionary
350
1F3
  0
DICTIONARY
  5
3E4
330
2
100
AcDbDictionary
280
     1
281
     1
  3
ACAD_LAYERSTATES
360
3E5
  0
DICTIONARY
  5
624
330
10
100
AcDbDictionary
280
     1
281
     1
  3
ADSK_XREC_LAYER_RECONCILED
360
625
  0
DICTIONARY
  5
626
330
3DD
100
AcDbDictionary
280
     1
281
     1
  3
ADSK_XREC_LAYER_RECONCILED
360
627
  0
DICTIONARY
  5
628
330
4D6
100
AcDbDictionary
280
     1
281
     1
  3
ADSK_XREC_LAYER_RECONCILED
360
629
  0
DICTIONARY
  5
62A
330
4D7
100
AcDbDictionary
280
     1
281
     1
  3
ADSK_XREC_LAYER_RECONCILED
360
62B
  0
DICTIONARY
  5
107
330
1F
100
AcDbDictionary
280
     1
281
     1
  3
ACAD_LAYOUTSELFREF
360
1D3
  3
ACAD_SORTENTS
360
3BB
  0
DICTIONARY
  5
105
330
1B
100
AcDbDictionary
280
     1
281
     1
  3
ACAD_LAYOUTSELFREF
360
1D2
  0
XRECORD
  5
615
102
{ACAD_REACTORS
330
C
102
}
330
C
100
AcDbXrecord
280
     1
300
ACDLT
300
2021
300

  0
DICTIONARY
  5
1EB
102
{ACAD_REACTORS
330
C
102
}
330
C
100
AcDbDictionary
281
     1
  0
DICTIONARY
  5
5EB
102
{ACAD_REACTORS
330
C
102
}
330
C
100
AcDbDictionary
281
     1
  3
Imperial24
350
5EC
  3
Metric50
350
677
  0
DICTIONARY
  5
D
102
{ACAD_REACTORS
330
C
102
}
330
C
100
AcDbDictionary
281
     1
  0
DICTIONARY
  5
1EE
102
{ACAD_REACTORS
330
C
102
}
330
C
100
AcDbDictionary
281
     1
  3
Layout1
350
1F0
  3
Model
350
1EF
  0
DICTIONARY
  5
1D6
102
{ACAD_REACTORS
330
C
102
}
330
C
100
AcDbDictionary
281
     1
  3
ByBlock
350
1D8
  3
ByLayer
350
1D7
  3
Global
350
1D9
  0
DICTIONARY
  5
5E7
102
{ACAD_REACTORS
330
C
102
}
330
C
100
AcDbDictionary
281
     1
  3
Standard
350
5E8
  0
DICTIONARY
  5
17
102
{ACAD_REACTORS
330
C
102
}
330
C
100
AcDbDictionary
281
     1
  3
STANDARD
350
18
  0
DICTIONARY
  5
19
102
{ACAD_REACTORS
330
C
102
}
330
C
100
AcDbDictionary
281
     1
  0
ACDBDICTIONARYWDFLT
  5
10D
102
{ACAD_REACTORS
330
C
102
}
330
C
100
AcDbDictionary
281
     1
  3
Normal
350
10E
100
AcDbDictionaryWithDefault
340
10E
  0
DICTIONARY
  5
5D5
102
{ACAD_REACTORS
330
C
102
}
330
C
100
AcDbDictionary
281
     1
  3
A0
350
5D6
  3
A1
350
5D7
  3
A2
350
5D8
  3
A3
350
5D9
  3
A4
350
5DA
  3
A5
350
5DB
  3
A6
350
5DC
  3
A7
350
5DD
  3
A8
350
5DE
  3
A9
350
5DF
  3
B0
350
5E0
  3
B1
350
5E1
  3
B2
350
5E2
  3
B3
350
5E3
  3
B4
350
5E4
  3
B5
350
5E5
  3
B6
350
5E6
  0
DICTIONARY
  5
5E9
102
{ACAD_REACTORS
330
C
102
}
330
C
100
AcDbDictionary
281
     1
  3
Imperial24
350
5EA
  3
Metric50
350
676
  0
DICTIONARY
  5
1EC
102
{ACAD_REACTORS
330
C
102
}
330
C
100
AcDbDictionary
281
     1
  3
Standard
350
1ED
  0
DICTIONARY
  5
1DA
102
{ACAD_REACTORS
330
C
102
}
330
C
100
AcDbDictionary
281
     1
  3
2dWireframe
350
1E0
  3
3D Hidden
350
1E2
  3
3dWireframe
350
1E1
  3
Basic
350
1DF
  3
Brighten
350
1E6
  3
ColorChange
350
1EA
  3
Conceptual
350
1E3
  3
Dim
350
1E5
  3
EdgeColorOff
350
5D4
  3
Facepattern
350
1E9
  3
Flat
350
1DB
  3
FlatWithEdges
350
1DC
  3
Gouraud
350
1DD
  3
GouraudWithEdges
350
1DE
  3
Hidden
350
5CC
  3
JitterOff
350
5D2
  3
Linepattern
350
1E8
  3
OverhangOff
350
5D3
  3
Realistic
350
1E4
  3
Shaded
350
5D1
  3
Shaded with edges
350
5D0
  3
Shades of Gray
350
5CD
  3
Sketchy
350
5CE
  3
Thicken
350
1E7
  3
Wireframe
350
5CB
  3
X-Ray
350
5CF
  0
XRECORD
  5
48C8
102
{ACAD_REACTORS
330
C
102
}
330
C
100
AcDbXrecord
280
     1
 90
        1
330
1ED
  0
DICTIONARY
  5
1F3
102
{ACAD_REACTORS
330
C
102
}
330
C
100
AcDbDictionary
281
     1
  3
CANNOSCALE
350
630
  3
CMLEADERSTYLE
350
62C
  3
CTABLESTYLE
350
1F4
  3
CVIEWDETAILSTYLE
350
62D
  3
CVIEWSECTIONSTYLE
350
62E
  3
DIMASSOC
350
586
  3
INDEXCTL
350
585
  3
LAYEREVAL
350
632
  3
LAYERNOTIFY
350
633
  3
LIGHTINGUNITS
350
631
  3
MSLTSCALE
350
62F
  3
SORTENTS
350
584
  0
DICTIONARY
  5
3E5
102
{ACAD_REACTORS
330
3E4
102
}
330
3E4
100
AcDbDictionary
281
     1
  0
XRECORD
  5
625
102
{ACAD_REACTORS
330
624
102
}
330
624
100
AcDbXrecord
280
     1
290
     1
  0
XRECORD
  5
627
102
{ACAD_REACTORS
330
626
102
}
330
626
100
AcDbXrecord
280
     1
290
     1
  0
XRECORD
  5
629
102
{ACAD_REACTORS
330
628
102
}
330
628
100
AcDbXrecord
280
     1
290
     1
  0
XRECORD
  5
62B
102
{ACAD_REACTORS
330
62A
102
}
330
62A
100
AcDbXrecord
280
     1
290
     1
  0
XRECORD
  5
1D3
102
{ACAD_REACTORS
330
107
102
}
330
107
100
AcDbXrecord
280
     1
340
1F
  0
SORTENTSTABLE
  5
3BB
102
{ACAD_REACTORS
330
107
102
}
330
107
100
AcDbSortentsTable
330
1F
  0
XRECORD
  5
1D2
102
{ACAD_REACTORS
330
105
102
}
330
105
100
AcDbXrecord
280
     1
340
1B
  0
ACDBDETAILVIEWSTYLE
  5
5EC
102
{ACAD_XDICTIONARY
360
48CB
102
}
102
{ACAD_REACTORS
330
5EB
102
}
330
5EB
100
AcDbModelDocViewStyle
 70
     0
  3
Imperial24
290
     0
100
AcDbDetailViewStyle
 70
     0
 71
     0
 90
        3
 71
     1
340
11
 62
   256
 40
0.24
340
0
 62
   256
 40
0.24
300

 40
0.36
280
     3
 71
     2
340
16
 90
       25
 62
   256
 71
     3
340
11
 62
   256
 40
0.24
 90
        1
 40
0.75
 90
        1
300
%<\AcVar ViewType \f "%tc1">% %<\AcVar ViewDetailId>%\PVARIA %<\AcVar ViewScale \f "%sn">%
 71
     4
340
16
 90
       25
 62
   256
340
16
 90
       25
 62
   256
280
     0
  0
ACDBDETAILVIEWSTYLE
  5
677
102
{ACAD_XDICTIONARY
360
48CF
102
}
102
{ACAD_REACTORS
330
5EB
102
}
330
5EB
100
AcDbModelDocViewStyle
 70
     0
  3
Metric50
290
     0
100
AcDbDetailViewStyle
 70
     0
 71
     0
 90
        3
 71
     1
340
11
 62
   256
 40
5.0
340
0
 62
   256
 40
5.0
300

 40
0.0
280
     1
 71
     2
340
16
 90
       25
 62
   256
 71
     3
340
11
 62
   256
 40
5.0
 90
        0
 40
15.0
 90
        1
300
%<\AcVar ViewDetailId>% (%<\AcVar ViewScale \f "%sn">%)
 71
     4
340
16
 90
       25
 62
   256
340
16
 90
       25
 62
   256
280
     0
  0
LAYOUT
  5
1F0
102
{ACAD_REACTORS
330
1EE
102
}
330
1EE
100
AcDbPlotSettings
  1

  2
\\druckserv1\AROBBE04
  4

  6

 40
0.0
 41
0.0
 42
0.0
 43
0.0
 44
0.0
 45
0.0
 46
0.0
 47
0.0
 48
0.0
 49
0.0
140
0.0
141
0.0
142
1.0
143
1.0
 70
   688
 72
     0
 73
     0
 74
     5
  7

 75
    16
147
1.0
 76
     0
 77
     2
 78
   300
148
0.0
149
0.0
100
AcDbLayout
  1
Layout1
 70
     1
 71
     1
 10
0.0
 20
0.0
 11
12.0
 21
9.0
 12
0.0
 22
0.0
 32
0.0
 14
1.000000000000000E+20
 24
1.000000000000000E+20
 34
1.000000000000000E+20
 15
-1.000000000000000E+20
 25
-1.000000000000000E+20
 35
-1.000000000000000E+20
146
0.0
 13
0.0
 23
0.0
 33
0.0
 16
1.0
 26
0.0
 36
0.0
 17
0.0
 27
1.0
 37
0.0
 76
     0
330
1B
  0
LAYOUT
  5
1EF
102
{ACAD_REACTORS
330
1EE
102
}
330
1EE
100
AcDbPlotSettings
  1

  2
\\druckserv1\AROBBE04
  4

  6

 40
0.0
 41
0.0
 42
0.0
 43
0.0
 44
0.0
 45
0.0
 46
0.0
 47
0.0
 48
0.0
 49
0.0
140
0.0
141
0.0
142
1.0
143
1.0
 70
  1712
 72
     0
 73
     0
 74
     0
  7

 75
     0
147
1.0
 76
     0
 77
     2
 78
   300
148
0.0
149
0.0
100
AcDbLayout
  1
Model
 70
     1
 71
     0
 10
0.0
 20
0.0
 11
12.0
 21
9.0
 12
0.0
 22
0.0
 32
0.0
 14
0.0
 24
0.0
 34
0.0
 15
0.0
 25
0.0
 35
0.0
146
0.0
 13
0.0
 23
0.0
 33
0.0
 16
1.0
 26
0.0
 36
0.0
 17
0.0
 27
1.0
 37
0.0
 76
     0
330
1F
331
1B1
  0
MATERIAL
  5
1D8
102
{ACAD_XDICTIONARY
360
5BF
102
}
102
{ACAD_REACTORS
330
1D6
102
}
330
1D6
100
AcDbMaterial
  1
ByBlock
  0
MATERIAL
  5
1D7
102
{ACAD_XDICTIONARY
360
5BD
102
}
102
{ACAD_REACTORS
330
1D6
102
}
330
1D6
100
AcDbMaterial
  1
ByLayer
  0
MATERIAL
  5
1D9
102
{ACAD_XDICTIONARY
360
5C1
102
}
102
{ACAD_REACTORS
330
1D6
102
}
330
1D6
100
AcDbMaterial
  1
Global
  0
MLEADERSTYLE
  5
5E8
102
{ACAD_REACTORS
330
5E7
102
}
330
5E7
100
AcDbMLeaderStyle
179
     2
170
     2
171
     1
172
     0
 90
        2
 40
0.0
 41
0.0
173
     1
 91
-1056964608
340
14
 92
       -2
290
     1
 42
0.09
291
     1
 43
0.36
  3
Standard
 44
0.18
300

342
11
174
     1
178
     6
175
     1
176
     0
 93
-1056964608
 45
0.18
292
     0
297
     0
 46
0.18
 94
-1056964608
 47
1.0
 49
1.0
140
1.0
293
     1
141
0.0
294
     1
177
     0
142
1.0
295
     0
296
     0
143
0.125
271
     0
272
     9
273
     9
298
     0
  0
MLINESTYLE
  5
18
102
{ACAD_REACTORS
330
17
102
}
330
17
100
AcDbMlineStyle
  2
STANDARD
 70
     0
  3

 62
   256
 51
90.0
 52
90.0
 71
     2
 49
0.5
 62
   256
  6
BYLAYER
 49
-0.5
 62
   256
  6
BYLAYER
  0
ACDBPLACEHOLDER
  5
10E
102
{ACAD_REACTORS
330
10D
102
}
330
10D
  0
SCALE
  5
5D6
102
{ACAD_REACTORS
330
5D5
102
}
330
5D5
100
AcDbScale
 70
     0
300
1:1
140
1.0
141
1.0
290
     1
  0
SCALE
  5
5D7
102
{ACAD_REACTORS
330
5D5
102
}
330
5D5
100
AcDbScale
 70
     0
300
1/128" = 1'-0"
140
0.0078125
141
12.0
290
     0
  0
SCALE
  5
5D8
102
{ACAD_REACTORS
330
5D5
102
}
330
5D5
100
AcDbScale
 70
     0
300
1/64" = 1'-0"
140
0.015625
141
12.0
290
     0
  0
SCALE
  5
5D9
102
{ACAD_REACTORS
330
5D5
102
}
330
5D5
100
AcDbScale
 70
     0
300
1/32" = 1'-0"
140
0.03125
141
12.0
290
     0
  0
SCALE
  5
5DA
102
{ACAD_REACTORS
330
5D5
102
}
330
5D5
100
AcDbScale
 70
     0
300
1/16" = 1'-0"
140
0.0625
141
12.0
290
     0
  0
SCALE
  5
5DB
102
{ACAD_REACTORS
330
5D5
102
}
330
5D5
100
AcDbScale
 70
     0
300
3/32" = 1'-0"
140
0.09375
141
12.0
290
     0
  0
SCALE
  5
5DC
102
{ACAD_REACTORS
330
5D5
102
}
330
5D5
100
AcDbScale
 70
     0
300
1/8" = 1'-0"
140
0.125
141
12.0
290
     0
  0
SCALE
  5
5DD
102
{ACAD_REACTORS
330
5D5
102
}
330
5D5
100
AcDbScale
 70
     0
300
3/16" = 1'-0"
140
0.1875
141
12.0
290
     0
  0
SCALE
  5
5DE
102
{ACAD_REACTORS
330
5D5
102
}
330
5D5
100
AcDbScale
 70
     0
300
1/4" = 1'-0"
140
0.25
141
12.0
290
     0
  0
SCALE
  5
5DF
102
{ACAD_REACTORS
330
5D5
102
}
330
5D5
100
AcDbScale
 70
     0
300
3/8" = 1'-0"
140
0.375
141
12.0
290
     0
  0
SCALE
  5
5E0
102
{ACAD_REACTORS
330
5D5
102
}
330
5D5
100
AcDbScale
 70
     0
300
1/2" = 1'-0"
140
0.5
141
12.0
290
     0
  0
SCALE
  5
5E1
102
{ACAD_REACTORS
330
5D5
102
}
330
5D5
100
AcDbScale
 70
     0
300
3/4" = 1'-0"
140
0.75
141
12.0
290
     0
  0
SCALE
  5
5E2
102
{ACAD_REACTORS
330
5D5
102
}
330
5D5
100
AcDbScale
 70
     0
300
1" = 1'-0"
140
1.0
141
12.0
290
     0
  0
SCALE
  5
5E3
102
{ACAD_REACTORS
330
5D5
102
}
330
5D5
100
AcDbScale
 70
     0
300
1-1/2" = 1'-0"
140
1.5
141
12.0
290
     0
  0
SCALE
  5
5E4
102
{ACAD_REACTORS
330
5D5
102
}
330
5D5
100
AcDbScale
 70
     0
300
3" = 1'-0"
140
3.0
141
12.0
290
     0
  0
SCALE
  5
5E5
102
{ACAD_REACTORS
330
5D5
102
}
330
5D5
100
AcDbScale
 70
     0
300
6" = 1'-0"
140
6.0
141
12.0
290
     0
  0
SCALE
  5
5E6
102
{ACAD_REACTORS
330
5D5
102
}
330
5D5
100
AcDbScale
 70
     0
300
1'-0" = 1'-0"
140
12.0
141
12.0
290
     0
  0
ACDBSECTIONVIEWSTYLE
  5
5EA
102
{ACAD_XDICTIONARY
360
48C9
102
}
102
{ACAD_REACTORS
330
5E9
102
}
330
5E9
100
AcDbModelDocViewStyle
 70
     0
  3
Imperial24
290
     0
100
AcDbSectionViewStyle
 70
     0
 71
     0
 90
       78
 71
     1
340
11
 62
   256
 40
0.24
340
0
340
0
 62
   256
 40
0.24
300
I, O, Q, S, X, Z
 40
0.48
 90
        3
 40
0.18
 90
        1
 71
     2
340
16
 90
       25
 62
   256
340
16
 90
       50
 62
   256
 40
0.24
 40
0.0
 40
0.24
 71
     3
340
11
 62
   256
 40
0.24
 90
        1
 40
0.75
 90
        1
300
%<\AcVar ViewType \f "%tc1">% %<\AcVar ViewSectionStartId>%-%<\AcVar ViewSectionEndId>%\PVARIA %<\AcVar ViewScale \f "%sn">%
 71
     4
 62
   256
 62
   257
300
ANSI31
 40
1.0
 90
        0
290
     0
290
     0
 90
        6
 40
0.0
 40
1.570796326794896
 40
0.2617993877991494
 40
1.308996938995747
 40
-0.2617993877991494
 40
1.832595714594044
  0
ACDBSECTIONVIEWSTYLE
  5
676
102
{ACAD_XDICTIONARY
360
48CD
102
}
102
{ACAD_REACTORS
330
5E9
102
}
330
5E9
100
AcDbModelDocViewStyle
 70
     0
  3
Metric50
290
     0
100
AcDbSectionViewStyle
 70
     0
 71
     0
 90
      102
 71
     1
340
11
 62
   256
 40
5.0
340
0
340
0
 62
   256
 40
5.0
300
I, O, Q, S, X, Z
 40
10.0
 90
        0
 40
2.5
 90
        0
 71
     2
340
16
 90
       25
 62
   256
340
16
 90
       50
 62
   256
 40
5.0
 40
2.5
 40
5.0
 71
     3
340
11
 62
   256
 40
5.0
 90
        0
 40
15.0
 90
        1
300
%<\AcVar ViewSectionStartId>%-%<\AcVar ViewSectionEndId>% (%<\AcVar ViewScale \f "%sn">%)
 71
     4
 62
   256
 62
   257
300
ANSI31
 40
1.0
 90
        0
290
     0
290
     0
 90
        6
 40
0.0
 40
1.570796326794896
 40
0.2617993877991494
 40
1.308996938995747
 40
-0.2617993877991494
 40
1.832595714594044
  0
TABLESTYLE
  5
1ED
102
{ACAD_XDICTIONARY
360
634
102
}
102
{ACAD_REACTORS
330
1EC
102
}
330
1EC
100
AcDbTableStyle
280
     0
  3
Standard
 70
     0
 71
     0
 40
0.06
 41
0.06
280
     0
281
     0
  7
STANDARD
140
0.18
170
     2
 62
     0
 63
     7
283
     0
 90
      512
 91
        0
  1

274
    -2
284
     1
 64
     0
275
    -2
285
     1
 65
     0
276
    -2
286
     1
 66
     0
277
    -2
287
     1
 67
     0
278
    -2
288
     1
 68
     0
279
    -2
289
     1
 69
     0
  7
STANDARD
140
0.25
170
     5
 62
     0
 63
     7
283
     0
 90
      512
 91
        0
  1

274
    -2
284
     1
 64
     0
275
    -2
285
     1
 65
     0
276
    -2
286
     1
 66
     0
277
    -2
287
     1
 67
     0
278
    -2
288
     1
 68
     0
279
    -2
289
     1
 69
     0
  7
STANDARD
140
0.18
170
     5
 62
     0
 63
     7
283
     0
 90
      512
 91
        0
  1

274
    -2
284
     1
 64
     0
275
    -2
285
     1
 65
     0
276
    -2
286
     1
 66
     0
277
    -2
287
     1
 67
     0
278
    -2
288
     1
 68
     0
279
    -2
289
     1
 69
     0
  0
VISUALSTYLE
  5
1E0
102
{ACAD_REACTORS
330
1DA
102
}
330
1DA
100
AcDbVisualStyle
  2

 70
     4
177
     3
291
     0
 70
    58
 90
        0
176
     1
 90
        2
176
     1
 90
        0
176
     1
 90
        0
176
     1
 40
0.6
176
     1
 40
30.0
176
     1
 62
     7
176
     1
 90
        1
176
     1
 90
        4
176
     1
 62
     7
176
     1
 62
   257
176
     1
 90
        1
176
     1
 90
        1
176
     1
 40
1.0
176
     1
 90
        0
176
     1
 62
   257
176
     1
 40
1.0
176
     1
 90
        1
176
     1
 90
        6
176
     1
 90
        2
176
     1
 62
     7
176
     1
 90
        5
176
     1
 90
        0
176
     1
 90
        0
176
     1
290
     0
176
     1
 90
        1
176
     1
 40
0.0
176
     1
 90
        0
176
     1
290
     1
176
     1
290
     1
176
     1
290
     0
176
     1
290
     0
176
     1
290
     0
176
     1
290
     0
176
     1
290
     0
176
     1
290
     0
176
     1
290
     0
176
     1
 90
       50
176
     1
 40
0.0
176
     1
 40
1.0
176
     1
 90
        0
176
     1
 62
    18
420
        0
176
     1
 90
       50
176
     1
 90
        3
176
     1
 62
     5
420
      255
176
     1
290
     0
176
     1
 90
       50
176
     1
 90
       50
176
     1
 90
       50
176
     1
290
     0
176
     1
 90
       50
176
     1
 62
   256
176
     0
 40
1.0
176
     0
 90
        2
176
     1
  1
strokes_ogs.tif
176
     1
290
     0
176
     1
 40
1.0
176
     1
 40
1.0
176
     1
1001
ACAD
1000
AcDbSavedByObjectVersion
1070
     0
  0
VISUALSTYLE
  5
1E2
102
{ACAD_REACTORS
330
1DA
102
}
330
1DA
100
AcDbVisualStyle
  2

 70
     6
177
     3
291
     0
 70
    58
 90
        1
176
     1
 90
        2
176
     1
 90
        2
176
     1
 90
        0
176
     1
 40
0.6
176
     1
 40
30.0
176
     1
 62
     7
176
     1
 90
        2
176
     1
 90
        2
176
     1
 62
     7
176
     1
 62
   257
176
     1
 90
        2
176
     1
 90
        1
176
     1
 40
40.0
176
     1
 90
        0
176
     1
 62
   257
176
     1
 40
1.0
176
     1
 90
        1
176
     1
 90
        6
176
     1
 90
        2
176
     1
 62
     7
176
     1
 90
        3
176
     1
 90
        0
176
     1
 90
        0
176
     1
290
     0
176
     1
 90
        1
176
     1
 40
0.0
176
     1
 90
        0
176
     1
290
     0
176
     1
290
     1
176
     1
290
     1
176
     1
290
     0
176
     1
290
     0
176
     1
290
     0
176
     1
290
     0
176
     1
290
     0
176
     1
290
     0
176
     1
 90
       50
176
     1
 40
0.0
176
     1
 40
1.0
176
     1
 90
        0
176
     1
 62
    18
420
        0
176
     1
 90
       50
176
     1
 90
        3
176
     1
 62
     5
420
      255
176
     1
290
     0
176
     1
 90
       50
176
     1
 90
       50
176
     1
 90
       50
176
     1
290
     0
176
     1
 90
       50
176
     1
 62
   256
176
     0
 40
1.0
176
     0
 90
        2
176
     1
  1
strokes_ogs.tif
176
     1
290
     0
176
     1
 40
1.0
176
     1
 40
1.0
176
     1
1001
ACAD
1000
AcDbSavedByObjectVersion
1070
     0
  0
VISUALSTYLE
  5
1E1
102
{ACAD_REACTORS
330
1DA
102
}
330
1DA
100
AcDbVisualStyle
  2

 70
     5
177
     3
291
     0
 70
    58
 90
        0
176
     1
 90
        2
176
     1
 90
        0
176
     1
 90
        0
176
     1
 40
0.6
176
     1
 40
30.0
176
     1
 62
     7
176
     1
 90
        1
176
     1
 90
        4
176
     1
 62
     7
176
     1
 62
   257
176
     1
 90
        1
176
     1
 90
        1
176
     1
 40
1.0
176
     1
 90
        0
176
     1
 62
   257
176
     1
 40
1.0
176
     1
 90
        1
176
     1
 90
        6
176
     1
 90
        2
176
     1
 62
     7
176
     1
 90
        5
176
     1
 90
        0
176
     1
 90
        0
176
     1
290
     0
176
     1
 90
        1
176
     1
 40
0.0
176
     1
 90
        0
176
     1
290
     0
176
     1
290
     1
176
     1
290
     1
176
     1
290
     0
176
     1
290
     0
176
     1
290
     0
176
     1
290
     0
176
     1
290
     0
176
     1
290
     0
176
     1
 90
       50
176
     1
 40
0.0
176
     1
 40
1.0
176
     1
 90
        0
176
     1
 62
    18
420
        0
176
     1
 90
       50
176
     1
 90
        3
176
     1
 62
     5
420
      255
176
     1
290
     0
176
     1
 90
       50
176
     1
 90
       50
176
     1
 90
       50
176
     1
290
     0
176
     1
 90
       50
176
     1
 62
   256
176
     0
 40
1.0
176
     0
 90
        2
176
     1
  1
strokes_ogs.tif
176
     1
290
     0
176
     1
 40
1.0
176
     1
 40
1.0
176
     1
1001
ACAD
1000
AcDbSavedByObjectVersion
1070
     0
  0
VISUALSTYLE
  5
1DF
102
{ACAD_REACTORS
330
1DA
102
}
330
1DA
100
AcDbVisualStyle
  2

 70
     7
177
     3
291
     1
 70
    58
 90
        1
176
     1
 90
        0
176
     1
 90
        1
176
     1
 90
        0
176
     1
 40
0.6
176
     1
 40
30.0
176
     1
 62
     7
176
     1
 90
        0
176
     1
 90
        4
176
     1
 62
     7
176
     1
 62
   257
176
     1
 90
        1
176
     1
 90
        1
176
     1
 40
1.0
176
     1
 90
        8
176
     1
 62
     7
176
     1
 40
1.0
176
     1
 90
        1
176
     1
 90
        6
176
     1
 90
        2
176
     1
 62
     7
176
     1
 90
        5
176
     1
 90
        0
176
     1
 90
        0
176
     1
290
     0
176
     1
 90
        1
176
     1
 40
0.0
176
     1
 90
        0
176
     1
290
     0
176
     1
290
     1
176
     1
290
     1
176
     1
290
     0
176
     1
290
     0
176
     1
290
     0
176
     1
290
     0
176
     1
290
     0
176
     1
290
     0
176
     1
 90
       50
176
     1
 40
0.0
176
     1
 40
1.0
176
     1
 90
        0
176
     1
 62
    18
420
        0
176
     1
 90
       50
176
     1
 90
        3
176
     1
 62
     5
420
      255
176
     1
290
     0
176
     1
 90
       50
176
     1
 90
       50
176
     1
 90
       50
176
     1
290
     0
176
     1
 90
       50
176
     1
 62
   256
176
     0
 40
1.0
176
     0
 90
        2
176
     1
  1
strokes_ogs.tif
176
     1
290
     0
176
     1
 40
1.0
176
     1
 40
1.0
176
     1
1001
ACAD
1000
AcDbSavedByObjectVersion
1070
     0
  0
VISUALSTYLE
  5
1E6
102
{ACAD_REACTORS
330
1DA
102
}
330
1DA
100
AcDbVisualStyle
  2

 70
    12
177
     3
291
     1
 70
    58
 90
        2
176
     1
 90
        2
176
     1
 90
        0
176
     1
 90
        0
176
     1
 40
0.6
176
     1
 40
30.0
176
     1
 62
     7
176
     1
 90
        1
176
     1
 90
        4
176
     1
 62
     7
176
     1
 62
   257
176
     1
 90
        1
176
     1
 90
        1
176
     1
 40
1.0
176
     1
 90
        8
176
     1
 62
     7
176
     1
 40
1.0
176
     1
 90
        1
176
     1
 90
        6
176
     1
 90
        2
176
     1
 62
     7
176
     1
 90
        5
176
     1
 90
        0
176
     1
 90
        0
176
     1
290
     0
176
     1
 90
        1
176
     1
 40
50.0
176
     1
 90
        0
176
     1
290
     0
176
     1
290
     1
176
     1
290
     1
176
     1
290
     0
176
     1
290
     0
176
     1
290
     0
176
     1
290
     0
176
     1
290
     0
176
     1
290
     0
176
     1
 90
       50
176
     1
 40
0.0
176
     1
 40
1.0
176
     1
 90
        0
176
     1
 62
    18
420
        0
176
     1
 90
       50
176
     1
 90
        3
176
     1
 62
     5
420
      255
176
     1
290
     0
176
     1
 90
       50
176
     1
 90
       50
176
     1
 90
       50
176
     1
290
     0
176
     1
 90
       50
176
     1
 62
   256
176
     0
 40
1.0
176
     0
 90
        2
176
     1
  1
strokes_ogs.tif
176
     1
290
     0
176
     1
 40
1.0
176
     1
 40
1.0
176
     1
1001
ACAD
1000
AcDbSavedByObjectVersion
1070
     0
  0
VISUALSTYLE
  5
1EA
102
{ACAD_REACTORS
330
1DA
102
}
330
1DA
100
AcDbVisualStyle
  2

 70
    16
177
     3
291
     1
 70
    58
 90
        2
176
     1
 90
        2
176
     1
 90
        3
176
     1
 90
        0
176
     1
 40
0.6
176
     1
 40
30.0
176
     1
 62
     8
176
     1
 90
        1
176
     1
 90
        4
176
     1
 62
     7
176
     1
 62
   257
176
     1
 90
        1
176
     1
 90
        1
176
     1
 40
1.0
176
     1
 90
        8
176
     1
 62
     8
176
     1
 40
1.0
176
     1
 90
        1
176
     1
 90
        6
176
     1
 90
        2
176
     1
 62
     7
176
     1
 90
        5
176
     1
 90
        0
176
     1
 90
        0
176
     1
290
     0
176
     1
 90
        1
176
     1
 40
0.0
176
     1
 90
        0
176
     1
290
     0
176
     1
290
     1
176
     1
290
     1
176
     1
290
     0
176
     1
290
     0
176
     1
290
     0
176
     1
290
     0
176
     1
290
     0
176
     1
290
     0
176
     1
 90
       50
176
     1
 40
0.0
176
     1
 40
1.0
176
     1
 90
        0
176
     1
 62
    18
420
        0
176
     1
 90
       50
176
     1
 90
        3
176
     1
 62
     5
420
      255
176
     1
290
     0
176
     1
 90
       50
176
     1
 90
       50
176
     1
 90
       50
176
     1
290
     0
176
     1
 90
       50
176
     1
 62
   256
176
     0
 40
1.0
176
     0
 90
        2
176
     1
  1
strokes_ogs.tif
176
     1
290
     0
176
     1
 40
1.0
176
     1
 40
1.0
176
     1
1001
ACAD
1000
AcDbSavedByObjectVersion
1070
     0
  0
VISUALSTYLE
  5
1E3
102
{ACAD_REACTORS
330
1DA
102
}
330
1DA
100
AcDbVisualStyle
  2

 70
     9
177
     3
291
     0
 70
    58
 90
        3
176
     1
 90
        2
176
     1
 90
        0
176
     1
 90
        0
176
     1
 40
0.6
176
     1
 40
30.0
176
     1
 62
     7
176
     1
 90
        2
176
     1
 90
        2
176
     1
 62
     7
176
     1
 62
   257
176
     1
 90
        1
176
     1
 90
        1
176
     1
 40
40.0
176
     1
 90
        8
176
     1
 62
     7
176
     1
 40
1.0
176
     1
 90
        1
176
     1
 90
        6
176
     1
 90
        2
176
     1
 62
     7
176
     1
 90
        3
176
     1
 90
        0
176
     1
 90
        0
176
     1
290
     0
176
     1
 90
        1
176
     1
 40
0.0
176
     1
 90
        0
176
     1
290
     0
176
     1
290
     1
176
     1
290
     1
176
     1
290
     0
176
     1
290
     0
176
     1
290
     0
176
     1
290
     0
176
     1
290
     0
176
     1
290
     0
176
     1
 90
       50
176
     1
 40
0.0
176
     1
 40
1.0
176
     1
 90
        0
176
     1
 62
    18
420
        0
176
     1
 90
       50
176
     1
 90
        3
176
     1
 62
     5
420
      255
176
     1
290
     0
176
     1
 90
       50
176
     1
 90
       50
176
     1
 90
       50
176
     1
290
     0
176
     1
 90
       50
176
     1
 62
   256
176
     0
 40
1.0
176
     0
 90
        2
176
     1
  1
strokes_ogs.tif
176
     1
290
     0
176
     1
 40
1.0
176
     1
 40
1.0
176
     1
1001
ACAD
1000
AcDbSavedByObjectVersion
1070
     0
  0
VISUALSTYLE
  5
1E5
102
{ACAD_REACTORS
330
1DA
102
}
330
1DA
100
AcDbVisualStyle
  2

 70
    11
177
     3
291
     1
 70
    58
 90
        2
176
     1
 90
        2
176
     1
 90
        0
176
     1
 90
        0
176
     1
 40
0.6
176
     1
 40
30.0
176
     1
 62
     7
176
     1
 90
        1
176
     1
 90
        4
176
     1
 62
     7
176
     1
 62
   257
176
     1
 90
        1
176
     1
 90
        1
176
     1
 40
1.0
176
     1
 90
        8
176
     1
 62
     7
176
     1
 40
1.0
176
     1
 90
        1
176
     1
 90
        6
176
     1
 90
        2
176
     1
 62
     7
176
     1
 90
        5
176
     1
 90
        0
176
     1
 90
        0
176
     1
290
     0
176
     1
 90
        1
176
     1
 40
-50.0
176
     1
 90
        0
176
     1
290
     0
176
     1
290
     1
176
     1
290
     1
176
     1
290
     0
176
     1
290
     0
176
     1
290
     0
176
     1
290
     0
176
     1
290
     0
176
     1
290
     0
176
     1
 90
       50
176
     1
 40
0.0
176
     1
 40
1.0
176
     1
 90
        0
176
     1
 62
    18
420
        0
176
     1
 90
       50
176
     1
 90
        3
176
     1
 62
     5
420
      255
176
     1
290
     0
176
     1
 90
       50
176
     1
 90
       50
176
     1
 90
       50
176
     1
290
     0
176
     1
 90
       50
176
     1
 62
   256
176
     0
 40
1.0
176
     0
 90
        2
176
     1
  1
strokes_ogs.tif
176
     1
290
     0
176
     1
 40
1.0
176
     1
 40
1.0
176
     1
1001
ACAD
1000
AcDbSavedByObjectVersion
1070
     0
  0
VISUALSTYLE
  5
5D4
102
{ACAD_REACTORS
330
1DA
102
}
330
1DA
100
AcDbVisualStyle
  2
EdgeColorOff
 70
    22
177
     3
291
     1
 70
    58
 90
        2
176
     0
 90
        2
176
     0
 90
        0
176
     0
 90
        0
176
     0
 40
0.6
176
     0
 40
30.0
176
     0
 62
     7
420
 16777215
176
     0
 90
        1
176
     0
 90
        4
176
     0
 62
     7
176
     0
 62
   257
176
     0
 90
        1
176
     0
 90
        1
176
     0
 40
1.0
176
     0
 90
        8
176
     2
 62
     7
176
     0
 40
1.0
176
     0
 90
        1
176
     0
 90
        6
176
     0
 90
        2
176
     0
 62
     7
176
     0
 90
        5
176
     0
 90
        0
176
     0
 90
        0
176
     0
290
     0
176
     0
 90
        1
176
     0
 40
0.0
176
     0
 90
        0
176
     0
290
     0
176
     1
290
     1
176
     1
290
     1
176
     1
290
     0
176
     1
290
     0
176
     1
290
     0
176
     1
290
     0
176
     1
290
     0
176
     1
290
     0
176
     1
 90
       50
176
     0
 40
0.0
176
     0
 40
1.0
176
     0
 90
        0
176
     0
 62
    18
420
        0
176
     0
 90
       50
176
     0
 90
        3
176
     0
 62
     5
420
      255
176
     0
290
     0
176
     1
 90
       50
176
     0
 90
       50
176
     0
 90
       50
176
     0
290
     0
176
     1
 90
       50
176
     0
 62
   256
176
     0
 40
1.0
176
     0
 90
        2
176
     0
  1
strokes_ogs.tif
176
     0
290
     0
176
     1
 40
1.0
176
     0
 40
1.0
176
     0
1001
ACAD
1000
AcDbSavedByObjectVersion
1070
     0
  0
VISUALSTYLE
  5
1E9
102
{ACAD_REACTORS
330
1DA
102
}
330
1DA
100
AcDbVisualStyle
  2

 70
    15
177
     3
291
     1
 70
    58
 90
        2
176
     1
 90
        2
176
     1
 90
        0
176
     1
 90
        0
176
     1
 40
0.6
176
     1
 40
30.0
176
     1
 62
     7
176
     1
 90
        1
176
     1
 90
        4
176
     1
 62
     7
176
     1
 62
   257
176
     1
 90
        1
176
     1
 90
        1
176
     1
 40
1.0
176
     1
 90
        8
176
     1
 62
     7
176
     1
 40
1.0
176
     1
 90
        1
176
     1
 90
        6
176
     1
 90
        2
176
     1
 62
     7
176
     1
 90
        5
176
     1
 90
        0
176
     1
 90
        0
176
     1
290
     0
176
     1
 90
        1
176
     1
 40
0.0
176
     1
 90
        0
176
     1
290
     0
176
     1
290
     1
176
     1
290
     1
176
     1
290
     0
176
     1
290
     0
176
     1
290
     0
176
     1
290
     0
176
     1
290
     0
176
     1
290
     0
176
     1
 90
       50
176
     1
 40
0.0
176
     1
 40
1.0
176
     1
 90
        0
176
     1
 62
    18
420
        0
176
     1
 90
       50
176
     1
 90
        3
176
     1
 62
     5
420
      255
176
     1
290
     0
176
     1
 90
       50
176
     1
 90
       50
176
     1
 90
       50
176
     1
290
     0
176
     1
 90
       50
176
     1
 62
   256
176
     0
 40
1.0
176
     0
 90
        2
176
     1
  1
strokes_ogs.tif
176
     1
290
     0
176
     1
 40
1.0
176
     1
 40
1.0
176
     1
1001
ACAD
1000
AcDbSavedByObjectVersion
1070
     0
  0
VISUALSTYLE
  5
1DB
102
{ACAD_REACTORS
330
1DA
102
}
330
1DA
100
AcDbVisualStyle
  2

 70
     0
177
     3
291
     1
 70
    58
 90
        2
176
     1
 90
        1
176
     1
 90
        1
176
     1
 90
        2
176
     1
 40
0.6
176
     1
 40
30.0
176
     1
 62
     7
176
     1
 90
        0
176
     1
 90
        4
176
     1
 62
     7
176
     1
 62
   257
176
     1
 90
        1
176
     1
 90
        1
176
     1
 40
1.0
176
     1
 90
        8
176
     1
 62
     7
176
     1
 40
1.0
176
     1
 90
        1
176
     1
 90
        6
176
     1
 90
        2
176
     1
 62
     7
176
     1
 90
        5
176
     1
 90
        0
176
     1
 90
        0
176
     1
290
     0
176
     1
 90
       13
176
     1
 40
0.0
176
     1
 90
        0
176
     1
290
     0
176
     1
290
     1
176
     1
290
     1
176
     1
290
     0
176
     1
290
     0
176
     1
290
     0
176
     1
290
     0
176
     1
290
     0
176
     1
290
     0
176
     1
 90
       50
176
     1
 40
0.0
176
     1
 40
1.0
176
     1
 90
        0
176
     1
 62
    18
420
        0
176
     1
 90
       50
176
     1
 90
        3
176
     1
 62
     5
420
      255
176
     1
290
     0
176
     1
 90
       50
176
     1
 90
       50
176
     1
 90
       50
176
     1
290
     0
176
     1
 90
       50
176
     1
 62
   256
176
     0
 40
1.0
176
     0
 90
        2
176
     1
  1
strokes_ogs.tif
176
     1
290
     0
176
     1
 40
1.0
176
     1
 40
1.0
176
     1
1001
ACAD
1000
AcDbSavedByObjectVersion
1070
     0
  0
VISUALSTYLE
  5
1DC
102
{ACAD_REACTORS
330
1DA
102
}
330
1DA
100
AcDbVisualStyle
  2

 70
     1
177
     3
291
     1
 70
    58
 90
        2
176
     1
 90
        1
176
     1
 90
        1
176
     1
 90
        2
176
     1
 40
0.6
176
     1
 40
30.0
176
     1
 62
     7
176
     1
 90
        1
176
     1
 90
        4
176
     1
 62
     7
176
     1
 62
   257
176
     1
 90
        1
176
     1
 90
        1
176
     1
 40
1.0
176
     1
 90
        0
176
     1
 62
   257
176
     1
 40
1.0
176
     1
 90
        1
176
     1
 90
        6
176
     1
 90
        2
176
     1
 62
     7
176
     1
 90
        5
176
     1
 90
        0
176
     1
 90
        0
176
     1
290
     0
176
     1
 90
       13
176
     1
 40
0.0
176
     1
 90
        0
176
     1
290
     0
176
     1
290
     1
176
     1
290
     1
176
     1
290
     0
176
     1
290
     0
176
     1
290
     0
176
     1
290
     0
176
     1
290
     0
176
     1
290
     0
176
     1
 90
       50
176
     1
 40
0.0
176
     1
 40
1.0
176
     1
 90
        0
176
     1
 62
    18
420
        0
176
     1
 90
       50
176
     1
 90
        3
176
     1
 62
     5
420
      255
176
     1
290
     0
176
     1
 90
       50
176
     1
 90
       50
176
     1
 90
       50
176
     1
290
     0
176
     1
 90
       50
176
     1
 62
   256
176
     0
 40
1.0
176
     0
 90
        2
176
     1
  1
strokes_ogs.tif
176
     1
290
     0
176
     1
 40
1.0
176
     1
 40
1.0
176
     1
1001
ACAD
1000
AcDbSavedByObjectVersion
1070
     0
  0
VISUALSTYLE
  5
1DD
102
{ACAD_REACTORS
330
1DA
102
}
330
1DA
100
AcDbVisualStyle
  2

 70
     2
177
     3
291
     1
 70
    58
 90
        2
176
     1
 90
        2
176
     1
 90
        1
176
     1
 90
        2
176
     1
 40
0.6
176
     1
 40
30.0
176
     1
 62
     7
176
     1
 90
        0
176
     1
 90
        4
176
     1
 62
     7
176
     1
 62
   257
176
     1
 90
        1
176
     1
 90
        1
176
     1
 40
1.0
176
     1
 90
        0
176
     1
 62
     7
176
     1
 40
1.0
176
     1
 90
        1
176
     1
 90
        6
176
     1
 90
        2
176
     1
 62
     7
176
     1
 90
        5
176
     1
 90
        0
176
     1
 90
        0
176
     1
290
     0
176
     1
 90
       13
176
     1
 40
0.0
176
     1
 90
        0
176
     1
290
     0
176
     1
290
     1
176
     1
290
     1
176
     1
290
     0
176
     1
290
     0
176
     1
290
     0
176
     1
290
     0
176
     1
290
     0
176
     1
290
     0
176
     1
 90
       50
176
     1
 40
0.0
176
     1
 40
1.0
176
     1
 90
        0
176
     1
 62
    18
420
        0
176
     1
 90
       50
176
     1
 90
        3
176
     1
 62
     5
420
      255
176
     1
290
     0
176
     1
 90
       50
176
     1
 90
       50
176
     1
 90
       50
176
     1
290
     0
176
     1
 90
       50
176
     1
 62
   256
176
     0
 40
1.0
176
     0
 90
        2
176
     1
  1
strokes_ogs.tif
176
     1
290
     0
176
     1
 40
1.0
176
     1
 40
1.0
176
     1
1001
ACAD
1000
AcDbSavedByObjectVersion
1070
     0
  0
VISUALSTYLE
  5
1DE
102
{ACAD_REACTORS
330
1DA
102
}
330
1DA
100
AcDbVisualStyle
  2

 70
     3
177
     3
291
     1
 70
    58
 90
        2
176
     1
 90
        2
176
     1
 90
        1
176
     1
 90
        2
176
     1
 40
0.6
176
     1
 40
30.0
176
     1
 62
     7
176
     1
 90
        1
176
     1
 90
        4
176
     1
 62
     7
176
     1
 62
   257
176
     1
 90
        1
176
     1
 90
        1
176
     1
 40
1.0
176
     1
 90
        0
176
     1
 62
   257
176
     1
 40
1.0
176
     1
 90
        1
176
     1
 90
        6
176
     1
 90
        2
176
     1
 62
     7
176
     1
 90
        5
176
     1
 90
        0
176
     1
 90
        0
176
     1
290
     0
176
     1
 90
       13
176
     1
 40
0.0
176
     1
 90
        0
176
     1
290
     0
176
     1
290
     1
176
     1
290
     1
176
     1
290
     0
176
     1
290
     0
176
     1
290
     0
176
     1
290
     0
176
     1
290
     0
176
     1
290
     0
176
     1
 90
       50
176
     1
 40
0.0
176
     1
 40
1.0
176
     1
 90
        0
176
     1
 62
    18
420
        0
176
     1
 90
       50
176
     1
 90
        3
176
     1
 62
     5
420
      255
176
     1
290
     0
176
     1
 90
       50
176
     1
 90
       50
176
     1
 90
       50
176
     1
290
     0
176
     1
 90
       50
176
     1
 62
   256
176
     0
 40
1.0
176
     0
 90
        2
176
     1
  1
strokes_ogs.tif
176
     1
290
     0
176
     1
 40
1.0
176
     1
 40
1.0
176
     1
1001
ACAD
1000
AcDbSavedByObjectVersion
1070
     0
  0
VISUALSTYLE
  5
5CC
102
{ACAD_REACTORS
330
1DA
102
}
330
1DA
100
AcDbVisualStyle
  2
Hidden
 70
     6
177
     3
291
     0
 70
    58
 90
        1
176
     1
 90
        2
176
     1
 90
        2
176
     1
 90
        0
176
     1
 40
0.6
176
     1
 40
30.0
176
     1
 62
     7
420
 16777215
176
     1
 90
        2
176
     1
 90
        2
176
     1
 62
     7
176
     1
 62
   257
176
     1
 90
        2
176
     1
 90
        1
176
     1
 40
40.0
176
     1
 90
        0
176
     1
 62
   257
176
     1
 40
1.0
176
     1
 90
        1
176
     1
 90
        6
176
     1
 90
        2
176
     1
 62
     7
176
     1
 90
        3
176
     1
 90
        0
176
     1
 90
        0
176
     1
290
     0
176
     1
 90
        1
176
     1
 40
0.0
176
     1
 90
        0
176
     1
290
     0
176
     1
290
     1
176
     1
290
     1
176
     1
290
     0
176
     1
290
     0
176
     1
290
     0
176
     1
290
     0
176
     1
290
     0
176
     1
290
     0
176
     1
 90
       50
176
     1
 40
0.0
176
     1
 40
1.0
176
     1
 90
        0
176
     1
 62
    18
420
        0
176
     1
 90
       50
176
     1
 90
        3
176
     1
 62
     5
420
      255
176
     1
290
     0
176
     1
 90
       50
176
     1
 90
       50
176
     1
 90
       50
176
     1
290
     0
176
     1
 90
       50
176
     1
 62
   256
176
     0
 40
1.0
176
     0
 90
        2
176
     1
  1
strokes_ogs.tif
176
     1
290
     0
176
     1
 40
1.0
176
     1
 40
1.0
176
     1
1001
ACAD
1000
AcDbSavedByObjectVersion
1070
     0
  0
VISUALSTYLE
  5
5D2
102
{ACAD_REACTORS
330
1DA
102
}
330
1DA
100
AcDbVisualStyle
  2
JitterOff
 70
    20
177
     3
291
     1
 70
    58
 90
        2
176
     0
 90
        2
176
     0
 90
        0
176
     0
 90
        0
176
     0
 40
0.6
176
     0
 40
30.0
176
     0
 62
     7
420
 16777215
176
     0
 90
        1
176
     0
 90
        4
176
     0
 62
     7
176
     0
 62
   257
176
     0
 90
        1
176
     0
 90
        1
176
     0
 40
1.0
176
     0
 90
       10
176
     2
 62
     7
176
     0
 40
1.0
176
     0
 90
        1
176
     0
 90
        6
176
     0
 90
        2
176
     0
 62
     7
176
     0
 90
        5
176
     0
 90
        0
176
     0
 90
        0
176
     0
290
     0
176
     0
 90
        1
176
     0
 40
0.0
176
     0
 90
        0
176
     0
290
     0
176
     1
290
     1
176
     1
290
     1
176
     1
290
     0
176
     1
290
     0
176
     1
290
     0
176
     1
290
     0
176
     1
290
     0
176
     1
290
     0
176
     1
 90
       50
176
     0
 40
0.0
176
     0
 40
1.0
176
     0
 90
        0
176
     0
 62
    18
420
        0
176
     0
 90
       50
176
     0
 90
        3
176
     0
 62
     5
420
      255
176
     0
290
     0
176
     1
 90
       50
176
     0
 90
       50
176
     0
 90
       50
176
     0
290
     0
176
     1
 90
       50
176
     0
 62
   256
176
     0
 40
1.0
176
     0
 90
        2
176
     0
  1
strokes_ogs.tif
176
     0
290
     0
176
     1
 40
1.0
176
     0
 40
1.0
176
     0
1001
ACAD
1000
AcDbSavedByObjectVersion
1070
     0
  0
VISUALSTYLE
  5
1E8
102
{ACAD_REACTORS
330
1DA
102
}
330
1DA
100
AcDbVisualStyle
  2

 70
    14
177
     3
291
     1
 70
    58
 90
        2
176
     1
 90
        2
176
     1
 90
        0
176
     1
 90
        0
176
     1
 40
0.6
176
     1
 40
30.0
176
     1
 62
     7
176
     1
 90
        1
176
     1
 90
        4
176
     1
 62
     7
176
     1
 62
   257
176
     1
 90
        7
176
     1
 90
        7
176
     1
 40
1.0
176
     1
 90
        8
176
     1
 62
     7
176
     1
 40
1.0
176
     1
 90
        1
176
     1
 90
        6
176
     1
 90
        2
176
     1
 62
     7
176
     1
 90
        5
176
     1
 90
        0
176
     1
 90
        0
176
     1
290
     0
176
     1
 90
        1
176
     1
 40
0.0
176
     1
 90
        0
176
     1
290
     0
176
     1
290
     1
176
     1
290
     1
176
     1
290
     0
176
     1
290
     0
176
     1
290
     0
176
     1
290
     0
176
     1
290
     0
176
     1
290
     0
176
     1
 90
       50
176
     1
 40
0.0
176
     1
 40
1.0
176
     1
 90
        0
176
     1
 62
    18
420
        0
176
     1
 90
       50
176
     1
 90
        3
176
     1
 62
     5
420
      255
176
     1
290
     0
176
     1
 90
       50
176
     1
 90
       50
176
     1
 90
       50
176
     1
290
     0
176
     1
 90
       50
176
     1
 62
   256
176
     0
 40
1.0
176
     0
 90
        2
176
     1
  1
strokes_ogs.tif
176
     1
290
     0
176
     1
 40
1.0
176
     1
 40
1.0
176
     1
1001
ACAD
1000
AcDbSavedByObjectVersion
1070
     0
  0
VISUALSTYLE
  5
5D3
102
{ACAD_REACTORS
330
1DA
102
}
330
1DA
100
AcDbVisualStyle
  2
OverhangOff
 70
    21
177
     3
291
     1
 70
    58
 90
        2
176
     0
 90
        2
176
     0
 90
        0
176
     0
 90
        0
176
     0
 40
0.6
176
     0
 40
30.0
176
     0
 62
     7
420
 16777215
176
     0
 90
        1
176
     0
 90
        4
176
     0
 62
     7
176
     0
 62
   257
176
     0
 90
        1
176
     0
 90
        1
176
     0
 40
1.0
176
     0
 90
        9
176
     2
 62
     7
176
     0
 40
1.0
176
     0
 90
        1
176
     0
 90
        6
176
     0
 90
        2
176
     0
 62
     7
176
     0
 90
        5
176
     0
 90
        0
176
     0
 90
        0
176
     0
290
     0
176
     0
 90
        1
176
     0
 40
0.0
176
     0
 90
        0
176
     0
290
     0
176
     1
290
     1
176
     1
290
     1
176
     1
290
     0
176
     1
290
     0
176
     1
290
     0
176
     1
290
     0
176
     1
290
     0
176
     1
290
     0
176
     1
 90
       50
176
     0
 40
0.0
176
     0
 40
1.0
176
     0
 90
        0
176
     0
 62
    18
420
        0
176
     0
 90
       50
176
     0
 90
        3
176
     0
 62
     5
420
      255
176
     0
290
     0
176
     1
 90
       50
176
     0
 90
       50
176
     0
 90
       50
176
     0
290
     0
176
     1
 90
       50
176
     0
 62
   256
176
     0
 40
1.0
176
     0
 90
        2
176
     0
  1
strokes_ogs.tif
176
     0
290
     0
176
     1
 40
1.0
176
     0
 40
1.0
176
     0
1001
ACAD
1000
AcDbSavedByObjectVersion
1070
     0
  0
VISUALSTYLE
  5
1E4
102
{ACAD_REACTORS
330
1DA
102
}
330
1DA
100
AcDbVisualStyle
  2

 70
     8
177
     3
291
     0
 70
    58
 90
        2
176
     1
 90
        2
176
     1
 90
        0
176
     1
 90
        0
176
     1
 40
0.6
176
     1
 40
30.0
176
     1
 62
     7
176
     1
 90
        1
176
     1
 90
        0
176
     1
 62
     7
176
     1
 62
   257
176
     1
 90
        1
176
     1
 90
        1
176
     1
 40
1.0
176
     1
 90
        8
176
     1
 62
     8
176
     1
 40
1.0
176
     1
 90
        1
176
     1
 90
        6
176
     1
 90
        2
176
     1
 62
     7
176
     1
 90
        5
176
     1
 90
        0
176
     1
 90
        0
176
     1
290
     0
176
     1
 90
       13
176
     1
 40
0.0
176
     1
 90
        0
176
     1
290
     0
176
     1
290
     1
176
     1
290
     1
176
     1
290
     0
176
     1
290
     0
176
     1
290
     0
176
     1
290
     0
176
     1
290
     0
176
     1
290
     0
176
     1
 90
       50
176
     1
 40
0.0
176
     1
 40
1.0
176
     1
 90
        0
176
     1
 62
    18
420
        0
176
     1
 90
       50
176
     1
 90
        3
176
     1
 62
     5
420
      255
176
     1
290
     0
176
     1
 90
       50
176
     1
 90
       50
176
     1
 90
       50
176
     1
290
     0
176
     1
 90
       50
176
     1
 62
   256
176
     0
 40
1.0
176
     0
 90
        2
176
     1
  1
strokes_ogs.tif
176
     1
290
     0
176
     1
 40
1.0
176
     1
 40
1.0
176
     1
1001
ACAD
1000
AcDbSavedByObjectVersion
1070
     0
  0
VISUALSTYLE
  5
5D1
102
{ACAD_REACTORS
330
1DA
102
}
330
1DA
100
AcDbVisualStyle
  2
Shaded
 70
    27
177
     3
291
     0
 70
    58
 90
        2
176
     1
 90
        2
176
     1
 90
        1
176
     1
 90
        2
176
     1
 40
0.6
176
     1
 40
30.0
176
     1
 62
     7
420
 16777215
176
     1
 90
        0
176
     1
 90
        4
176
     1
 62
     7
176
     1
 62
   257
176
     1
 90
        1
176
     1
 90
        1
176
     1
 40
1.0
176
     1
 90
        8
176
     1
 62
   257
176
     1
 40
1.0
176
     1
 90
        1
176
     1
 90
        6
176
     1
 90
        2
176
     1
 62
     8
420
  7895160
176
     1
 90
        3
176
     1
 90
        0
176
     1
 90
        0
176
     1
290
     0
176
     1
 90
        5
176
     1
 40
0.0
176
     1
 90
        0
176
     1
290
     0
176
     1
290
     1
176
     1
290
     1
176
     1
290
     0
176
     1
290
     0
176
     1
290
     0
176
     1
290
     0
176
     1
290
     0
176
     1
290
     0
176
     1
 90
       50
176
     1
 40
0.0
176
     1
 40
1.0
176
     1
 90
        0
176
     1
 62
    18
420
        0
176
     1
 90
       50
176
     1
 90
        3
176
     1
 62
     5
420
      255
176
     1
290
     0
176
     1
 90
       50
176
     1
 90
       50
176
     1
 90
       50
176
     1
290
     0
176
     1
 90
       50
176
     1
 62
   256
176
     0
 40
1.0
176
     0
 90
        2
176
     1
  1
strokes_ogs.tif
176
     1
290
     0
176
     1
 40
1.0
176
     1
 40
1.0
176
     1
1001
ACAD
1000
AcDbSavedByObjectVersion
1070
     0
  0
VISUALSTYLE
  5
5D0
102
{ACAD_REACTORS
330
1DA
102
}
330
1DA
100
AcDbVisualStyle
  2
Shaded with edges
 70
    26
177
     3
291
     0
 70
    58
 90
        2
176
     1
 90
        2
176
     1
 90
        1
176
     1
 90
        2
176
     1
 40
0.6
176
     1
 40
30.0
176
     1
 62
     7
420
 16777215
176
     1
 90
        1
176
     1
 90
        2
176
     1
 62
     7
176
     1
 62
   257
176
     1
 90
        2
176
     1
 90
        1
176
     1
 40
1.0
176
     1
 90
        8
176
     1
 62
   257
176
     1
 40
1.0
176
     1
 90
        1
176
     1
 90
        6
176
     1
 90
        2
176
     1
 62
     7
176
     1
 90
        3
176
     1
 90
        0
176
     1
 90
        0
176
     1
290
     0
176
     1
 90
        5
176
     1
 40
0.0
176
     1
 90
        0
176
     1
290
     0
176
     1
290
     1
176
     1
290
     1
176
     1
290
     0
176
     1
290
     0
176
     1
290
     0
176
     1
290
     0
176
     1
290
     0
176
     1
290
     0
176
     1
 90
       50
176
     1
 40
0.0
176
     1
 40
1.0
176
     1
 90
        0
176
     1
 62
    18
420
        0
176
     1
 90
       50
176
     1
 90
        3
176
     1
 62
     5
420
      255
176
     1
290
     0
176
     1
 90
       50
176
     1
 90
       50
176
     1
 90
       50
176
     1
290
     0
176
     1
 90
       50
176
     1
 62
   256
176
     0
 40
1.0
176
     0
 90
        2
176
     1
  1
strokes_ogs.tif
176
     1
290
     0
176
     1
 40
1.0
176
     1
 40
1.0
176
     1
1001
ACAD
1000
AcDbSavedByObjectVersion
1070
     0
  0
VISUALSTYLE
  5
5CD
102
{ACAD_REACTORS
330
1DA
102
}
330
1DA
100
AcDbVisualStyle
  2
Shades of Gray
 70
    23
177
     3
291
     0
 70
    58
 90
        2
176
     1
 90
        2
176
     1
 90
        3
176
     1
 90
        0
176
     1
 40
0.6
176
     1
 40
30.0
176
     1
 62
     7
420
 16777215
176
     1
 90
        2
176
     1
 90
        2
176
     1
 62
     7
176
     1
 62
     7
176
     1
 90
        1
176
     1
 90
        1
176
     1
 40
40.0
176
     1
 90
        8
176
     1
 62
     7
176
     1
 40
1.0
176
     1
 90
        1
176
     1
 90
        6
176
     1
 90
        2
176
     1
 62
     7
176
     1
 90
        3
176
     1
 90
        0
176
     1
 90
        0
176
     1
290
     0
176
     1
 90
        1
176
     1
 40
0.0
176
     1
 90
        0
176
     1
290
     0
176
     1
290
     1
176
     1
290
     1
176
     1
290
     0
176
     1
290
     0
176
     1
290
     0
176
     1
290
     0
176
     1
290
     0
176
     1
290
     0
176
     1
 90
       50
176
     1
 40
0.0
176
     1
 40
1.0
176
     1
 90
        0
176
     1
 62
    18
420
        0
176
     1
 90
       50
176
     1
 90
        3
176
     1
 62
     5
420
      255
176
     1
290
     0
176
     1
 90
       50
176
     1
 90
       50
176
     1
 90
       50
176
     1
290
     0
176
     1
 90
       50
176
     1
 62
   256
176
     0
 40
1.0
176
     0
 90
        2
176
     1
  1
strokes_ogs.tif
176
     1
290
     0
176
     1
 40
1.0
176
     1
 40
1.0
176
     1
1001
ACAD
1000
AcDbSavedByObjectVersion
1070
     0
  0
VISUALSTYLE
  5
5CE
102
{ACAD_REACTORS
330
1DA
102
}
330
1DA
100
AcDbVisualStyle
  2
Sketchy
 70
    24
177
     3
291
     0
 70
    58
 90
        1
176
     1
 90
        2
176
     1
 90
        2
176
     1
 90
        0
176
     1
 40
0.6
176
     1
 40
30.0
176
     1
 62
     7
420
 16777215
176
     1
 90
        2
176
     1
 90
        2
176
     1
 62
     7
176
     1
 62
     7
176
     1
 90
        1
176
     1
 90
        1
176
     1
 40
40.0
176
     1
 90
       11
176
     1
 62
     7
176
     1
 40
1.0
176
     1
 90
        1
176
     1
 90
        6
176
     1
 90
        2
176
     1
 62
     7
176
     1
 90
        6
176
     1
 90
        0
176
     1
 90
        0
176
     1
290
     0
176
     1
 90
        1
176
     1
 40
0.0
176
     1
 90
        0
176
     1
290
     0
176
     1
290
     1
176
     1
290
     1
176
     1
290
     0
176
     1
290
     0
176
     1
290
     0
176
     1
290
     0
176
     1
290
     0
176
     1
290
     0
176
     1
 90
       50
176
     1
 40
0.0
176
     1
 40
1.0
176
     1
 90
        0
176
     1
 62
    18
420
        0
176
     1
 90
       50
176
     1
 90
        3
176
     1
 62
     5
420
      255
176
     1
290
     0
176
     1
 90
       50
176
     1
 90
       50
176
     1
 90
       50
176
     1
290
     0
176
     1
 90
       50
176
     1
 62
   256
176
     0
 40
1.0
176
     0
 90
        2
176
     1
  1
strokes_ogs.tif
176
     1
290
     0
176
     1
 40
1.0
176
     1
 40
1.0
176
     1
1001
ACAD
1000
AcDbSavedByObjectVersion
1070
     0
  0
VISUALSTYLE
  5
1E7
102
{ACAD_REACTORS
330
1DA
102
}
330
1DA
100
AcDbVisualStyle
  2

 70
    13
177
     3
291
     1
 70
    58
 90
        2
176
     1
 90
        2
176
     1
 90
        0
176
     1
 90
        0
176
     1
 40
0.6
176
     1
 40
30.0
176
     1
 62
     7
176
     1
 90
        1
176
     1
 90
        4
176
     1
 62
     7
176
     1
 62
   257
176
     1
 90
        1
176
     1
 90
        1
176
     1
 40
1.0
176
     1
 90
       12
176
     1
 62
     7
176
     1
 40
1.0
176
     1
 90
        1
176
     1
 90
        6
176
     1
 90
        2
176
     1
 62
     7
176
     1
 90
        5
176
     1
 90
        0
176
     1
 90
        0
176
     1
290
     0
176
     1
 90
        1
176
     1
 40
0.0
176
     1
 90
        0
176
     1
290
     0
176
     1
290
     1
176
     1
290
     1
176
     1
290
     0
176
     1
290
     0
176
     1
290
     0
176
     1
290
     0
176
     1
290
     0
176
     1
290
     0
176
     1
 90
       50
176
     1
 40
0.0
176
     1
 40
1.0
176
     1
 90
        0
176
     1
 62
    18
420
        0
176
     1
 90
       50
176
     1
 90
        3
176
     1
 62
     5
420
      255
176
     1
290
     0
176
     1
 90
       50
176
     1
 90
       50
176
     1
 90
       50
176
     1
290
     0
176
     1
 90
       50
176
     1
 62
   256
176
     0
 40
1.0
176
     0
 90
        2
176
     1
  1
strokes_ogs.tif
176
     1
290
     0
176
     1
 40
1.0
176
     1
 40
1.0
176
     1
1001
ACAD
1000
AcDbSavedByObjectVersion
1070
     0
  0
VISUALSTYLE
  5
5CB
102
{ACAD_REACTORS
330
1DA
102
}
330
1DA
100
AcDbVisualStyle
  2
Wireframe
 70
     5
177
     3
291
     0
 70
    58
 90
        0
176
     1
 90
        2
176
     1
 90
        0
176
     1
 90
        0
176
     1
 40
0.6
176
     1
 40
30.0
176
     1
 62
     7
420
 16777215
176
     1
 90
        1
176
     1
 90
        4
176
     1
 62
     7
176
     1
 62
   257
176
     1
 90
        1
176
     1
 90
        1
176
     1
 40
1.0
176
     1
 90
        0
176
     1
 62
   257
176
     1
 40
1.0
176
     1
 90
        1
176
     1
 90
        6
176
     1
 90
        2
176
     1
 62
     7
176
     1
 90
        3
176
     1
 90
        0
176
     1
 90
        0
176
     1
290
     0
176
     1
 90
        1
176
     1
 40
0.0
176
     1
 90
        0
176
     1
290
     0
176
     1
290
     1
176
     1
290
     1
176
     1
290
     0
176
     1
290
     0
176
     1
290
     0
176
     1
290
     0
176
     1
290
     0
176
     1
290
     0
176
     1
 90
       50
176
     1
 40
0.0
176
     1
 40
1.0
176
     1
 90
        0
176
     1
 62
    18
420
        0
176
     1
 90
       50
176
     1
 90
        3
176
     1
 62
     5
420
      255
176
     1
290
     0
176
     1
 90
       50
176
     1
 90
       50
176
     1
 90
       50
176
     1
290
     0
176
     1
 90
       50
176
     1
 62
   256
176
     0
 40
1.0
176
     0
 90
        2
176
     1
  1
strokes_ogs.tif
176
     1
290
     0
176
     1
 40
1.0
176
     1
 40
1.0
176
     1
1001
ACAD
1000
AcDbSavedByObjectVersion
1070
     0
  0
VISUALSTYLE
  5
5CF
102
{ACAD_REACTORS
330
1DA
102
}
330
1DA
100
AcDbVisualStyle
  2
X-Ray
 70
    25
177
     3
291
     0
 70
    58
 90
        2
176
     1
 90
        2
176
     1
 90
        1
176
     1
 90
        1
176
     1
 40
0.5
176
     1
 40
30.0
176
     1
 62
     7
420
 16777215
176
     1
 90
        1
176
     1
 90
        0
176
     1
 62
     7
176
     1
 62
   257
176
     1
 90
        1
176
     1
 90
        1
176
     1
 40
1.0
176
     1
 90
        8
176
     1
 62
     7
176
     1
 40
1.0
176
     1
 90
        1
176
     1
 90
        6
176
     1
 90
        2
176
     1
 62
     7
176
     1
 90
        3
176
     1
 90
        0
176
     1
 90
        0
176
     1
290
     0
176
     1
 90
       13
176
     1
 40
0.0
176
     1
 90
        0
176
     1
290
     0
176
     1
290
     1
176
     1
290
     1
176
     1
290
     0
176
     1
290
     0
176
     1
290
     0
176
     1
290
     0
176
     1
290
     0
176
     1
290
     0
176
     1
 90
       50
176
     1
 40
0.0
176
     1
 40
1.0
176
     1
 90
        0
176
     1
 62
    18
420
        0
176
     1
 90
       50
176
     1
 90
        3
176
     1
 62
     5
420
      255
176
     1
290
     0
176
     1
 90
       50
176
     1
 90
       50
176
     1
 90
       50
176
     1
290
     0
176
     1
 90
       50
176
     1
 62
   256
176
     0
 40
1.0
176
     0
 90
        2
176
     1
  1
strokes_ogs.tif
176
     1
290
     0
176
     1
 40
1.0
176
     1
 40
1.0
176
     1
1001
ACAD
1000
AcDbSavedByObjectVersion
1070
     0
  0
DICTIONARYVAR
  5
630
102
{ACAD_REACTORS
330
1F3
102
}
330
1F3
100
DictionaryVariables
280
     0
  1
1:1
  0
DICTIONARYVAR
  5
62C
102
{ACAD_REACTORS
330
1F3
102
}
330
1F3
100
DictionaryVariables
280
     0
  1
STANDARD
  0
DICTIONARYVAR
  5
1F4
102
{ACAD_REACTORS
330
1F3
102
}
330
1F3
100
DictionaryVariables
280
     0
  1
STANDARD
  0
DICTIONARYVAR
  5
62D
102
{ACAD_REACTORS
330
1F3
102
}
330
1F3
100
DictionaryVariables
280
     0
  1
Imperial24
  0
DICTIONARYVAR
  5
62E
102
{ACAD_REACTORS
330
1F3
102
}
330
1F3
100
DictionaryVariables
280
     0
  1
Imperial24
  0
DICTIONARYVAR
  5
586
102
{ACAD_REACTORS
330
1F3
102
}
330
1F3
100
DictionaryVariables
280
     0
  1
1
  0
DICTIONARYVAR
  5
585
102
{ACAD_REACTORS
330
1F3
102
}
330
1F3
100
DictionaryVariables
280
     0
  1
0
  0
DICTIONARYVAR
  5
632
102
{ACAD_REACTORS
330
1F3
102
}
330
1F3
100
DictionaryVariables
280
     0
  1
1
  0
DICTIONARYVAR
  5
633
102
{ACAD_REACTORS
330
1F3
102
}
330
1F3
100
DictionaryVariables
280
     0
  1
15
  0
DICTIONARYVAR
  5
631
102
{ACAD_REACTORS
330
1F3
102
}
330
1F3
100
DictionaryVariables
280
     0
  1
0
  0
DICTIONARYVAR
  5
62F
102
{ACAD_REACTORS
330
1F3
102
}
330
1F3
100
DictionaryVariables
280
     0
  1
0
  0
DICTIONARYVAR
  5
584
102
{ACAD_REACTORS
330
1F3
102
}
330
1F3
100
DictionaryVariables
280
     0
  1
127
  0
DICTIONARY
  5
48CB
330
5EC
100
AcDbDictionary
280
     1
281
     1
  3
ACAD_XREC_ROUNDTRIP
360
48CC
  0
DICTIONARY
  5
48CF
330
677
100
AcDbDictionary
280
     1
281
     1
  3
ACAD_XREC_ROUNDTRIP
360
48D0
  0
DICTIONARY
  5
5BF
330
1D8
100
AcDbDictionary
280
     1
281
     1
  3
ACAD_XREC_ROUNDTRIP
360
5C0
  0
DICTIONARY
  5
5BD
330
1D7
100
AcDbDictionary
280
     1
281
     1
  3
ACAD_XREC_ROUNDTRIP
360
5BE
  0
DICTIONARY
  5
5C1
330
1D9
100
AcDbDictionary
280
     1
281
     1
  3
ACAD_XREC_ROUNDTRIP
360
5C2
  0
DICTIONARY
  5
48C9
330
5EA
100
AcDbDictionary
280
     1
281
     1
  3
ACAD_XREC_ROUNDTRIP
360
48CA
  0
DICTIONARY
  5
48CD
330
676
100
AcDbDictionary
280
     1
281
     1
  3
ACAD_XREC_ROUNDTRIP
360
48CE
  0
DICTIONARY
  5
634
330
1ED
100
AcDbDictionary
280
     1
281
     1
  3
ACAD_ROUNDTRIP_2008_TABLESTYLE_CELLSTYLEMAP
360
48C6
  0
XRECORD
  5
48CC
102
{ACAD_REACTORS
330
48CB
102
}
330
48CB
100
AcDbXrecord
280
     1
102
DISPLAYNAME
  1
Imperial24
102
FLAGS
 90
        0
  0
XRECORD
  5
48D0
102
{ACAD_REACTORS
330
48CF
102
}
330
48CF
100
AcDbXrecord
280
     1
102
DISPLAYNAME
  1
Metric50
102
FLAGS
 90
        0
  0
XRECORD
  5
5C0
102
{ACAD_REACTORS
330
5BF
102
}
330
5BF
100
AcDbXrecord
280
     1
102
MATERIAL
148
0.0
149
0.0
149
0.0
 93
        0
 94
       63
282
     0
 72
     1
 77
     1
171
     1
175
     1
179
     1
273
     0
  0
XRECORD
  5
5BE
102
{ACAD_REACTORS
330
5BD
102
}
330
5BD
100
AcDbXrecord
280
     1
102
MATERIAL
148
0.0
149
0.0
149
0.0
 93
        0
 94
       63
282
     0
 72
     1
 77
     1
171
     1
175
     1
179
     1
273
     0
  0
XRECORD
  5
5C2
102
{ACAD_REACTORS
330
5C1
102
}
330
5C1
100
AcDbXrecord
280
     1
102
MATERIAL
148
0.0
149
0.0
149
0.0
 93
        0
 94
       63
282
     0
 72
     1
 77
     1
171
     1
175
     1
179
     1
273
     0
  0
XRECORD
  5
48CA
102
{ACAD_REACTORS
330
48C9
102
}
330
48C9
100
AcDbXrecord
280
     1
102
DISPLAYNAME
  1
Imperial24
102
FLAGS
 90
        0
  0
XRECORD
  5
48CE
102
{ACAD_REACTORS
330
48CD
102
}
330
48CD
100
AcDbXrecord
280
     1
102
DISPLAYNAME
  1
Metric50
102
FLAGS
 90
        0
  0
CELLSTYLEMAP
  5
48C6
102
{ACAD_REACTORS
330
634
102
}
330
634
100
AcDbCellStyleMap
 90
        3
300
CELLSTYLE
  1
TABLEFORMAT_BEGIN
 90
        5
170
     1
 91
        0
 92
    32768
 62
   257
 93
        1
300
CONTENTFORMAT
  1
CONTENTFORMAT_BEGIN
 90
        0
 91
        0
 92
      512
 93
        0
300

 40
0.0
140
1.0
 94
        5
 62
     0
340
11
144
0.25
309
CONTENTFORMAT_END
171
     1
301
MARGIN
  1
CELLMARGIN_BEGIN
 40
0.06
 40
0.06
 40
0.06
 40
0.06
 40
0.18
 40
0.18
309
CELLMARGIN_END
 94
        6
 95
        1
302
GRIDFORMAT
  1
GRIDFORMAT_BEGIN
 90
        0
 91
        1
 62
     0
 92
       -2
340
0
 93
        0
 40
0.045
309
GRIDFORMAT_END
 95
        2
302
GRIDFORMAT
  1
GRIDFORMAT_BEGIN
 90
        0
 91
        1
 62
     0
 92
       -2
340
0
 93
        0
 40
0.045
309
GRIDFORMAT_END
 95
        4
302
GRIDFORMAT
  1
GRIDFORMAT_BEGIN
 90
        0
 91
        1
 62
     0
 92
       -2
340
0
 93
        0
 40
0.045
309
GRIDFORMAT_END
 95
        8
302
GRIDFORMAT
  1
GRIDFORMAT_BEGIN
 90
        0
 91
        1
 62
     0
 92
       -2
340
0
 93
        0
 40
0.045
309
GRIDFORMAT_END
 95
       16
302
GRIDFORMAT
  1
GRIDFORMAT_BEGIN
 90
        0
 91
        1
 62
     0
 92
       -2
340
0
 93
        0
 40
0.045
309
GRIDFORMAT_END
 95
       32
302
GRIDFORMAT
  1
GRIDFORMAT_BEGIN
 90
        0
 91
        1
 62
     0
 92
       -2
340
0
 93
        0
 40
0.045
309
GRIDFORMAT_END
309
TABLEFORMAT_END
  1
CELLSTYLE_BEGIN
 90
        1
 91
        1
300
_TITLE
309
CELLSTYLE_END
300
CELLSTYLE
  1
TABLEFORMAT_BEGIN
 90
        5
170
     1
 91
        0
 92
        0
 62
   257
 93
        1
300
CONTENTFORMAT
  1
CONTENTFORMAT_BEGIN
 90
        0
 91
        0
 92
      512
 93
        0
300

 40
0.0
140
1.0
 94
        5
 62
     0
340
11
144
0.18
309
CONTENTFORMAT_END
171
     1
301
MARGIN
  1
CELLMARGIN_BEGIN
 40
0.06
 40
0.06
 40
0.06
 40
0.06
 40
0.18
 40
0.18
309
CELLMARGIN_END
 94
        6
 95
        1
302
GRIDFORMAT
  1
GRIDFORMAT_BEGIN
 90
        0
 91
        1
 62
     0
 92
       -2
340
0
 93
        0
 40
0.045
309
GRIDFORMAT_END
 95
        2
302
GRIDFORMAT
  1
GRIDFORMAT_BEGIN
 90
        0
 91
        1
 62
     0
 92
       -2
340
0
 93
        0
 40
0.045
309
GRIDFORMAT_END
 95
        4
302
GRIDFORMAT
  1
GRIDFORMAT_BEGIN
 90
        0
 91
        1
 62
     0
 92
       -2
340
0
 93
        0
 40
0.045
309
GRIDFORMAT_END
 95
        8
302
GRIDFORMAT
  1
GRIDFORMAT_BEGIN
 90
        0
 91
        1
 62
     0
 92
       -2
340
0
 93
        0
 40
0.045
309
GRIDFORMAT_END
 95
       16
302
GRIDFORMAT
  1
GRIDFORMAT_BEGIN
 90
        0
 91
        1
 62
     0
 92
       -2
340
0
 93
        0
 40
0.045
309
GRIDFORMAT_END
 95
       32
302
GRIDFORMAT
  1
GRIDFORMAT_BEGIN
 90
        0
 91
        1
 62
     0
 92
       -2
340
0
 93
        0
 40
0.045
309
GRIDFORMAT_END
309
TABLEFORMAT_END
  1
CELLSTYLE_BEGIN
 90
        2
 91
        1
300
_HEADER
309
CELLSTYLE_END
300
CELLSTYLE
  1
TABLEFORMAT_BEGIN
 90
        5
170
     1
 91
        0
 92
        0
 62
   257
 93
        1
300
CONTENTFORMAT
  1
CONTENTFORMAT_BEGIN
 90
        0
 91
        0
 92
      512
 93
        0
300

 40
0.0
140
1.0
 94
        2
 62
     0
340
11
144
0.18
309
CONTENTFORMAT_END
171
     1
301
MARGIN
  1
CELLMARGIN_BEGIN
 40
0.06
 40
0.06
 40
0.06
 40
0.06
 40
0.18
 40
0.18
309
CELLMARGIN_END
 94
        6
 95
        1
302
GRIDFORMAT
  1
GRIDFORMAT_BEGIN
 90
        0
 91
        1
 62
     0
 92
       -2
340
0
 93
        0
 40
0.045
309
GRIDFORMAT_END
 95
        2
302
GRIDFORMAT
  1
GRIDFORMAT_BEGIN
 90
        0
 91
        1
 62
     0
 92
       -2
340
0
 93
        0
 40
0.045
309
GRIDFORMAT_END
 95
        4
302
GRIDFORMAT
  1
GRIDFORMAT_BEGIN
 90
        0
 91
        1
 62
     0
 92
       -2
340
0
 93
        0
 40
0.045
309
GRIDFORMAT_END
 95
        8
302
GRIDFORMAT
  1
GRIDFORMAT_BEGIN
 90
        0
 91
        1
 62
     0
 92
       -2
340
0
 93
        0
 40
0.045
309
GRIDFORMAT_END
 95
       16
302
GRIDFORMAT
  1
GRIDFORMAT_BEGIN
 90
        0
 91
        1
 62
     0
 92
       -2
340
0
 93
        0
 40
0.045
309
GRIDFORMAT_END
 95
       32
302
GRIDFORMAT
  1
GRIDFORMAT_BEGIN
 90
        0
 91
        1
 62
     0
 92
       -2
340
0
 93
        0
 40
0.045
309
GRIDFORMAT_END
309
TABLEFORMAT_END
  1
CELLSTYLE_BEGIN
 90
        3
 91
        2
300
_DATA
309
CELLSTYLE_END
  0
ENDSEC
  0
EOF
