  0
SECTION
  2
HEADER
  9
$ACADVER
  1
AC1024
  9
$ACADMAINTVER
 70
   205
  9
$DWGCODEPAGE
  3
ANSI_1252
  9
$LASTSAVEDBY
  1
kaschu
  9
$INSBASE
 10
0.0
 20
0.0
 30
0.0
  9
$EXTMIN
 10
-2095.578081108483
 20
-198.5439643982966
 30
0.0
  9
$EXTMAX
 10
-862.4521441001117
 20
1667.035786273934
 30
0.0
  9
$LIMMIN
 10
0.0
 20
0.0
  9
$LIMMAX
 10
0.0
 20
0.0
  9
$ORTHOMODE
 70
     1
  9
$REGENMODE
 70
     1
  9
$FILLMODE
 70
     1
  9
$QTEXTMODE
 70
     0
  9
$MIRRTEXT
 70
     1
  9
$LTSCALE
 40
1.0
  9
$ATTMODE
 70
     1
  9
$TEXTSIZE
 40
0.0
  9
$TRACEWID
 40
0.05
  9
$TEXTSTYLE
  7
STANDARD
  9
$CLAYER
  8
0
  9
$CELTYPE
  6
CONTINUOUS
  9
$CECOLOR
 62
   256
  9
$CELTSCALE
 40
1.0
  9
$DISPSILH
 70
     0
  9
$DIMSCALE
 40
1.0
  9
$DIMASZ
 40
0.18
  9
$DIMEXO
 40
0.0625
  9
$DIMDLI
 40
0.38
  9
$DIMRND
 40
0.0
  9
$DIMDLE
 40
0.0
  9
$DIMEXE
 40
0.18
  9
$DIMTP
 40
0.0
  9
$DIMTM
 40
0.0
  9
$DIMTXT
 40
0.18
  9
$DIMCEN
 40
0.09
  9
$DIMTSZ
 40
0.0
  9
$DIMTOL
 70
     0
  9
$DIMLIM
 70
     0
  9
$DIMTIH
 70
     1
  9
$DIMTOH
 70
     1
  9
$DIMSE1
 70
     0
  9
$DIMSE2
 70
     0
  9
$DIMTAD
 70
     0
  9
$DIMZIN
 70
     0
  9
$DIMBLK
  1

  9
$DIMASO
 70
     1
  9
$DIMSHO
 70
     1
  9
$DIMPOST
  1

  9
$DIMAPOST
  1

  9
$DIMALT
 70
     0
  9
$DIMALTD
 70
     2
  9
$DIMALTF
 40
25.4
  9
$DIMLFAC
 40
1.0
  9
$DIMTOFL
 70
     0
  9
$DIMTVP
 40
0.0
  9
$DIMTIX
 70
     0
  9
$DIMSOXD
 70
     0
  9
$DIMSAH
 70
     0
  9
$DIMBLK1
  1

  9
$DIMBLK2
  1

  9
$DIMSTYLE
  2
STANDARD
  9
$DIMCLRD
 70
     0
  9
$DIMCLRE
 70
     0
  9
$DIMCLRT
 70
     0
  9
$DIMTFAC
 40
1.0
  9
$DIMGAP
 40
0.09
  9
$DIMJUST
 70
     0
  9
$DIMSD1
 70
     0
  9
$DIMSD2
 70
     0
  9
$DIMTOLJ
 70
     1
  9
$DIMTZIN
 70
     0
  9
$DIMALTZ
 70
     0
  9
$DIMALTTZ
 70
     0
  9
$DIMUPT
 70
     0
  9
$DIMDEC
 70
     4
  9
$DIMTDEC
 70
     4
  9
$DIMALTU
 70
     2
  9
$DIMALTTD
 70
     2
  9
$DIMTXSTY
  7
STANDARD
  9
$DIMAUNIT
 70
     0
  9
$DIMADEC
 70
     0
  9
$DIMALTRND
 40
0.0
  9
$DIMAZIN
 70
     0
  9
$DIMDSEP
 70
    46
  9
$DIMATFIT
 70
     3
  9
$DIMFRAC
 70
     0
  9
$DIMLDRBLK
  1

  9
$DIMLUNIT
 70
     2
  9
$DIMLWD
 70
    -2
  9
$DIMLWE
 70
    -2
  9
$DIMTMOVE
 70
     0
  9
$DIMFXL
 40
1.0
  9
$DIMFXLON
 70
     0
  9
$DIMJOGANG
 40
0.7853981633974483
  9
$DIMTFILL
 70
     0
  9
$DIMTFILLCLR
 70
     0
  9
$DIMARCSYM
 70
     0
  9
$DIMLTYPE
  6

  9
$DIMLTEX1
  6

  9
$DIMLTEX2
  6

  9
$DIMTXTDIRECTION
 70
     0
  9
$LUNITS
 70
     2
  9
$LUPREC
 70
     4
  9
$SKETCHINC
 40
0.1
  9
$FILLETRAD
 40
0.0
  9
$AUNITS
 70
     0
  9
$AUPREC
 70
     0
  9
$MENU
  1
acad
  9
$ELEVATION
 40
0.0
  9
$PELEVATION
 40
0.0
  9
$THICKNESS
 40
0.0
  9
$LIMCHECK
 70
     0
  9
$CHAMFERA
 40
0.0
  9
$CHAMFERB
 40
0.0
  9
$CHAMFERC
 40
0.0
  9
$CHAMFERD
 40
0.0
  9
$SKPOLY
 70
     0
  9
$TDCREATE
 40
2444972.083333333
  9
$TDUCREATE
 40
2444972.000000000
  9
$TDUPDATE
 40
2458417.694754329
  9
$TDUUPDATE
 40
2458417.611420995
  9
$TDINDWG
 40
0.0020523032
  9
$TDUSRTIMER
 40
0.0020522569
  9
$USRTIMER
 70
     1
  9
$ANGBASE
 50
0.0
  9
$ANGDIR
 70
     0
  9
$PDMODE
 70
     0
  9
$PDSIZE
 40
0.0
  9
$PLINEWID
 40
0.0
  9
$SPLFRAME
 70
     0
  9
$SPLINETYPE
 70
     6
  9
$SPLINESEGS
 70
     8
  9
$HANDSEED
  5
769
  9
$SURFTAB1
 70
     6
  9
$SURFTAB2
 70
     6
  9
$SURFTYPE
 70
     6
  9
$SURFU
 70
     6
  9
$SURFV
 70
     6
  9
$UCSBASE
  2

  9
$UCSNAME
  2

  9
$UCSORG
 10
0.0
 20
0.0
 30
0.0
  9
$UCSXDIR
 10
1.0
 20
0.0
 30
0.0
  9
$UCSYDIR
 10
0.0
 20
1.0
 30
0.0
  9
$UCSORTHOREF
  2

  9
$UCSORTHOVIEW
 70
     0
  9
$UCSORGTOP
 10
0.0
 20
0.0
 30
0.0
  9
$UCSORGBOTTOM
 10
0.0
 20
0.0
 30
0.0
  9
$UCSORGLEFT
 10
0.0
 20
0.0
 30
0.0
  9
$UCSORGRIGHT
 10
0.0
 20
0.0
 30
0.0
  9
$UCSORGFRONT
 10
0.0
 20
0.0
 30
0.0
  9
$UCSORGBACK
 10
0.0
 20
0.0
 30
0.0
  9
$PUCSBASE
  2

  9
$PUCSNAME
  2

  9
$PUCSORG
 10
0.0
 20
0.0
 30
0.0
  9
$PUCSXDIR
 10
1.0
 20
0.0
 30
0.0
  9
$PUCSYDIR
 10
0.0
 20
1.0
 30
0.0
  9
$PUCSORTHOREF
  2

  9
$PUCSORTHOVIEW
 70
     0
  9
$PUCSORGTOP
 10
0.0
 20
0.0
 30
0.0
  9
$PUCSORGBOTTOM
 10
0.0
 20
0.0
 30
0.0
  9
$PUCSORGLEFT
 10
0.0
 20
0.0
 30
0.0
  9
$PUCSORGRIGHT
 10
0.0
 20
0.0
 30
0.0
  9
$PUCSORGFRONT
 10
0.0
 20
0.0
 30
0.0
  9
$PUCSORGBACK
 10
0.0
 20
0.0
 30
0.0
  9
$USERI1
 70
     0
  9
$USERI2
 70
     0
  9
$USERI3
 70
     0
  9
$USERI4
 70
     0
  9
$USERI5
 70
     0
  9
$USERR1
 40
0.0
  9
$USERR2
 40
0.0
  9
$USERR3
 40
0.0
  9
$USERR4
 40
0.0
  9
$USERR5
 40
0.0
  9
$WORLDVIEW
 70
     1
  9
$SHADEDGE
 70
     3
  9
$SHADEDIF
 70
    70
  9
$TILEMODE
 70
     1
  9
$MAXACTVP
 70
    16
  9
$PINSBASE
 10
0.0
 20
0.0
 30
0.0
  9
$PLIMCHECK
 70
     0
  9
$PEXTMIN
 10
1.000000000000000E+20
 20
1.000000000000000E+20
 30
1.000000000000000E+20
  9
$PEXTMAX
 10
-1.000000000000000E+20
 20
-1.000000000000000E+20
 30
-1.000000000000000E+20
  9
$PLIMMIN
 10
0.0
 20
0.0
  9
$PLIMMAX
 10
12.0
 20
9.0
  9
$UNITMODE
 70
     0
  9
$VISRETAIN
 70
     0
  9
$PLINEGEN
 70
     1
  9
$PSLTSCALE
 70
     0
  9
$TREEDEPTH
 70
  3020
  9
$CMLSTYLE
  2
STANDARD
  9
$CMLJUST
 70
     0
  9
$CMLSCALE
 40
1.0
  9
$PROXYGRAPHICS
 70
     1
  9
$MEASUREMENT
 70
     0
  9
$CELWEIGHT
370
    -1
  9
$ENDCAPS
280
     0
  9
$JOINSTYLE
280
     0
  9
$LWDISPLAY
290
     0
  9
$INSUNITS
 70
     0
  9
$HYPERLINKBASE
  1

  9
$STYLESHEET
  1

  9
$XEDIT
290
     1
  9
$CEPSNTYPE
380
     0
  9
$PSTYLEMODE
290
     1
  9
$FINGERPRINTGUID
  2
{79AD9AB8-1866-4952-9A68-F08EA87ACCA6}
  9
$VERSIONGUID
  2
{879DFAE6-FEB3-4001-9699-7D2F095985D5}
  9
$EXTNAMES
290
     1
  9
$PSVPSCALE
 40
0.0
  9
$OLESTARTUP
290
     0
  9
$SORTENTS
280
   127
  9
$INDEXCTL
280
     0
  9
$HIDETEXT
280
     0
  9
$XCLIPFRAME
280
     2
  9
$HALOGAP
280
     0
  9
$OBSCOLOR
 70
   257
  9
$OBSLTYPE
280
     0
  9
$INTERSECTIONDISPLAY
280
     0
  9
$INTERSECTIONCOLOR
 70
   257
  9
$DIMASSOC
280
     1
  9
$PROJECTNAME
  1

  9
$CAMERADISPLAY
290
     0
  9
$LENSLENGTH
 40
50.0
  9
$CAMERAHEIGHT
 40
0.0
  9
$STEPSPERSEC
 40
2.0
  9
$STEPSIZE
 40
6.0
  9
$3DDWFPREC
 40
2.0
  9
$PSOLWIDTH
 40
0.25
  9
$PSOLHEIGHT
 40
4.0
  9
$LOFTANG1
 40
1.570796326794896
  9
$LOFTANG2
 40
1.570796326794896
  9
$LOFTMAG1
 40
0.0
  9
$LOFTMAG2
 40
0.0
  9
$LOFTPARAM
 70
     7
  9
$LOFTNORMALS
280
     1
  9
$LATITUDE
 40
37.795
  9
$LONGITUDE
 40
-122.394
  9
$NORTHDIRECTION
 40
0.0
  9
$TIMEZONE
 70
 -8000
  9
$LIGHTGLYPHDISPLAY
280
     1
  9
$TILEMODELIGHTSYNCH
280
     1
  9
$CMATERIAL
347
565
  9
$SOLIDHIST
280
     0
  9
$SHOWHIST
280
     1
  9
$DWFFRAME
280
     2
  9
$DGNFRAME
280
     0
  9
$REALWORLDSCALE
290
     1
  9
$INTERFERECOLOR
 62
     1
  9
$INTERFEREOBJVS
345
587
  9
$INTERFEREVPVS
346
584
  9
$CSHADOW
280
     0
  9
$SHADOWPLANELOCATION
 40
0.0
  0
ENDSEC
  0
SECTION
  2
CLASSES
  0
CLASS
  1
IMAGE
  2
AcDbRasterImage
  3
ISM
 90
     2175
 91
        0
280
     0
281
     1
  0
CLASS
  1
DICTIONARYVAR
  2
AcDbDictionaryVar
  3
ObjectDBX Classes
 90
        0
 91
        9
280
     0
281
     0
  0
CLASS
  1
RASTERVARIABLES
  2
AcDbRasterVariables
  3
ISM
 90
        0
 91
        0
280
     0
281
     0
  0
CLASS
  1
IMAGEDEF
  2
AcDbRasterImageDef
  3
ISM
 90
        0
 91
        0
280
     0
281
     0
  0
CLASS
  1
IMAGEDEF_REACTOR
  2
AcDbRasterImageDefReactor
  3
ISM
 90
        1
 91
        0
280
     0
281
     0
  0
CLASS
  1
IDBUFFER
  2
AcDbIdBuffer
  3
ObjectDBX Classes
 90
        0
 91
        0
280
     0
281
     0
  0
CLASS
  1
SPATIAL_FILTER
  2
AcDbSpatialFilter
  3
ObjectDBX Classes
 90
        0
 91
        0
280
     0
281
     0
  0
CLASS
  1
SORTENTSTABLE
  2
AcDbSortentsTable
  3
ObjectDBX Classes
 90
        0
 91
        0
280
     0
281
     0
  0
CLASS
  1
LAYER_INDEX
  2
AcDbLayerIndex
  3
ObjectDBX Classes
 90
        0
 91
        0
280
     0
281
     0
  0
CLASS
  1
SPATIAL_INDEX
  2
AcDbSpatialIndex
  3
ObjectDBX Classes
 90
        0
 91
        0
280
     0
281
     0
  0
CLASS
  1
OBJECT_PTR
  2
CAseDLPNTableRecord
  3
"ASE-LPNTableRecord"
 90
        0
 91
        0
280
     0
281
     0
  0
CLASS
  1
PLOTSETTINGS
  2
AcDbPlotSettings
  3
ObjectDBX Classes
 90
        0
 91
        0
280
     0
281
     0
  0
CLASS
  1
ACDBDICTIONARYWDFLT
  2
AcDbDictionaryWithDefault
  3
ObjectDBX Classes
 90
        0
 91
        1
280
     0
281
     0
  0
CLASS
  1
WIPEOUT
  2
AcDbWipeout
  3
WipeOut|Product Desc: Object Enabler for WipeOut entity | Company: Autodesk, Inc. | WEB Address: www.autodesk.com
 90
     2175
 91
        0
280
     0
281
     1
  0
CLASS
  1
WIPEOUTVARIABLES
  2
AcDbWipeoutVariables
  3
"WipeOut|Product Desc:     WipeOut Dbx Application|Company:          Autodesk, Inc.|WEB Address:      www.autodesk.com"
 90
        0
 91
        0
280
     0
281
     0
  0
CLASS
  1
RTEXT
  2
RText
  3
RText|AutoCAD Express Tool|expresstools@autodesk.com
 90
        0
 91
        0
280
     0
281
     1
  0
CLASS
  1
ARCALIGNEDTEXT
  2
AcDbArcAlignedText
  3
ATEXT|AutoCAD Express Tool|expresstools@autodesk.com
 90
        0
 91
        0
280
     0
281
     1
  0
CLASS
  1
MATERIAL
  2
AcDbMaterial
  3
ObjectDBX Classes
 90
     1153
 91
        3
280
     0
281
     0
  0
CLASS
  1
VISUALSTYLE
  2
AcDbVisualStyle
  3
ObjectDBX Classes
 90
     4095
 91
       24
280
     0
281
     0
  0
CLASS
  1
TABLESTYLE
  2
AcDbTableStyle
  3
ObjectDBX Classes
 90
     4095
 91
        1
280
     0
281
     0
  0
CLASS
  1
SCALE
  2
AcDbScale
  3
ObjectDBX Classes
 90
     1153
 91
       17
280
     0
281
     0
  0
CLASS
  1
MLEADERSTYLE
  2
AcDbMLeaderStyle
  3
ACDB_MLEADERSTYLE_CLASS
 90
     4095
 91
        1
280
     0
281
     0
  0
CLASS
  1
ACDBSECTIONVIEWSTYLE
  2
AcDbSectionViewStyle
  3
ObjectDBX Classes
 90
     1025
 91
        2
280
     0
281
     0
  0
CLASS
  1
ACDBDETAILVIEWSTYLE
  2
AcDbDetailViewStyle
  3
ObjectDBX Classes
 90
     1025
 91
        2
280
     0
281
     0
  0
CLASS
  1
CELLSTYLEMAP
  2
AcDbCellStyleMap
  3
ObjectDBX Classes
 90
     1152
 91
        2
280
     0
281
     0
  0
ENDSEC
  0
SECTION
  2
TABLES
  0
TABLE
  2
VPORT
  5
7
330
0
100
AcDbSymbolTable
 70
     1
  0
VPORT
  5
15
330
7
100
AcDbSymbolTableRecord
100
AcDbViewportTableRecord
  2
*ACTIVE
 70
     0
 10
0.0
 20
0.0
 11
1.0
 21
1.0
 12
-1180.964893131452
 22
1410.41481081215
 13
0.0
 23
0.0
 14
1.0
 24
1.0
 15
0.0
 25
0.0
 16
0.0
 26
0.0
 36
1.0
 17
0.0
 27
0.0
 37
0.0
 40
1042.334365393609
 41
2.250340136054421
 42
50.0
 43
0.0
 44
0.0
 50
0.0
 51
0.0
 71
     0
 72
   100
 73
     1
 74
     1
 75
     0
 76
     0
 77
     0
 78
     0
281
     0
 65
     1
110
0.0
120
0.0
130
0.0
111
1.0
121
0.0
131
0.0
112
0.0
122
1.0
132
0.0
 79
     0
146
0.0
348
583
 60
     3
 61
     5
292
     1
282
     1
141
0.0
142
0.0
 63
   250
421
  3355443
1001
ACAD_NAV_VCDISPLAY
1070
     3
  0
ENDTAB
  0
TABLE
  2
LTYPE
  5
4
330
0
100
AcDbSymbolTable
 70
     2
  0
LTYPE
  5
11
330
4
100
AcDbSymbolTableRecord
100
AcDbLinetypeTableRecord
  2
BYBLOCK
 70
     0
  3

 72
    65
 73
     0
 40
0.0
  0
LTYPE
  5
12
330
4
100
AcDbSymbolTableRecord
100
AcDbLinetypeTableRecord
  2
BYLAYER
 70
     0
  3

 72
    65
 73
     0
 40
0.0
  0
LTYPE
  5
13
330
4
100
AcDbSymbolTableRecord
100
AcDbLinetypeTableRecord
  2
CONTINUOUS
 70
     0
  3
Solid line
 72
    65
 73
     0
 40
0.0
  0
LTYPE
  5
1E
330
4
100
AcDbSymbolTableRecord
100
AcDbLinetypeTableRecord
  2
STANDARD
 70
     0
  3

 72
    65
 73
     0
 40
0.0
  0
ENDTAB
  0
TABLE
  2
LAYER
  5
2
102
{ACAD_XDICTIONARY
360
5BE
102
}
330
0
100
AcDbSymbolTable
 70
     3
  0
LAYER
  5
14
102
{ACAD_XDICTIONARY
360
6DC
102
}
330
2
100
AcDbSymbolTableRecord
100
AcDbLayerTableRecord
  2
0
 70
     0
 62
     7
  6
CONTINUOUS
370
    -3
390
563
347
575
  0
LAYER
  5
1D
102
{ACAD_XDICTIONARY
360
6DE
102
}
330
2
100
AcDbSymbolTableRecord
100
AcDbLayerTableRecord
  2
BEMA_UNG
 70
     0
 62
   171
  6
CONTINUOUS
370
    -3
390
563
347
575
  0
LAYER
  5
5BA
102
{ACAD_XDICTIONARY
360
6E0
102
}
330
2
100
AcDbSymbolTableRecord
100
AcDbLayerTableRecord
  2
HEWI
 70
     0
 62
     7
  6
CONTINUOUS
370
     9
390
563
347
575
1001
AcAecLayerStandard
1000

1000

1001
AcCmTransparency
1071
        0
  0
ENDTAB
  0
TABLE
  2
STYLE
  5
3
330
0
100
AcDbSymbolTable
 70
     1
  0
STYLE
  5
17
330
3
100
AcDbSymbolTableRecord
100
AcDbTextStyleTableRecord
  2
STANDARD
 70
     0
 40
0.0
 41
1.0
 50
0.0
 71
     0
 42
0.0
  3
txt
  4

  0
ENDTAB
  0
TABLE
  2
VIEW
  5
5
330
0
100
AcDbSymbolTable
 70
     0
  0
ENDTAB
  0
TABLE
  2
UCS
  5
6
330
0
100
AcDbSymbolTable
 70
     0
  0
ENDTAB
  0
TABLE
  2
APPID
  5
8
330
0
100
AcDbSymbolTable
 70
     4
  0
APPID
  5
16
330
8
100
AcDbSymbolTableRecord
100
AcDbRegAppTableRecord
  2
ACAD
 70
     0
  0
APPID
  5
5BB
330
8
100
AcDbSymbolTableRecord
100
AcDbRegAppTableRecord
  2
ACAD_NAV_VCDISPLAY
 70
     0
  0
APPID
  5
5BC
330
8
100
AcDbSymbolTableRecord
100
AcDbRegAppTableRecord
  2
AcAecLayerStandard
 70
     0
  0
APPID
  5
5BD
330
8
100
AcDbSymbolTableRecord
100
AcDbRegAppTableRecord
  2
AcCmTransparency
 70
     0
  0
ENDTAB
  0
TABLE
  2
DIMSTYLE
  5
9
330
0
100
AcDbSymbolTable
 70
     1
100
AcDbDimStyleTable
 71
     0
  0
DIMSTYLE
105
18
330
9
100
AcDbSymbolTableRecord
100
AcDbDimStyleTableRecord
  2
STANDARD
 70
     0
289
     0
340
17
  0
ENDTAB
  0
TABLE
  2
BLOCK_RECORD
  5
1
330
0
100
AcDbSymbolTable
 70
     0
  0
BLOCK_RECORD
  5
A
330
1
100
AcDbSymbolTableRecord
100
AcDbBlockTableRecord
  2
*MODEL_SPACE
340
5B3
 70
     0
280
     1
281
     0
  0
BLOCK_RECORD
  5
B
330
1
100
AcDbSymbolTableRecord
100
AcDbBlockTableRecord
  2
*PAPER_SPACE
340
5B4
 70
     0
280
     1
281
     0
  0
ENDTAB
  0
ENDSEC
  0
SECTION
  2
BLOCKS
  0
BLOCK
  5
D
330
A
100
AcDbEntity
  8
0
100
AcDbBlockBegin
  2
*MODEL_SPACE
 70
     0
 10
0.0
 20
0.0
 30
0.0
  3
*MODEL_SPACE
  1

  0
ENDBLK
  5
E
330
A
100
AcDbEntity
  8
0
100
AcDbBlockEnd
  0
BLOCK
  5
F
330
B
100
AcDbEntity
 67
     1
  8
0
100
AcDbBlockBegin
  2
*PAPER_SPACE
 70
     0
 10
0.0
 20
0.0
 30
0.0
  3
*PAPER_SPACE
  1

  0
ENDBLK
  5
10
330
B
100
AcDbEntity
 67
     1
  8
0
100
AcDbBlockEnd
  0
ENDSEC
  0
SECTION
  2
ENTITIES
  0
LINE
  5
37
330
A
100
AcDbEntity
  8
HEWI
100
AcDbLine
 10
-1418.996403897945
 20
1166.799069314913
 30
0.0
 11
-1418.996403897945
 21
1152.549191385225
 31
0.0
  0
LINE
  5
38
330
A
100
AcDbEntity
  8
HEWI
100
AcDbLine
 10
-1456.996434415523
 20
1166.799069314913
 30
0.0
 11
-1456.996434415523
 21
1152.549191385225
 31
0.0
  0
LINE
  5
39
330
A
100
AcDbEntity
  8
HEWI
100
AcDbLine
 10
-1410.996449674312
 20
1165.549069314913
 30
0.0
 11
-1410.996449674312
 21
1152.549191385225
 31
0.0
  0
LINE
  5
3A
330
A
100
AcDbEntity
  8
HEWI
100
AcDbLine
 10
-1464.996426786129
 20
1165.549069314913
 30
0.0
 11
-1464.996426786129
 21
1152.549191385225
 31
0.0
  0
LINE
  5
3B
330
A
100
AcDbEntity
  8
HEWI
100
AcDbLine
 10
-1478.246434415523
 20
1165.549069314913
 30
0.0
 11
-1478.246434415523
 21
1002.54911509128
 31
0.0
  0
LINE
  5
3C
330
A
100
AcDbEntity
  8
HEWI
100
AcDbLine
 10
-1472.096417630855
 20
1166.799069314913
 30
0.0
 11
-1472.096417630855
 21
1165.549069314913
 31
0.0
  0
LINE
  5
3D
330
A
100
AcDbEntity
  8
HEWI
100
AcDbLine
 10
-1397.746403897945
 20
1165.549069314913
 30
0.0
 11
-1397.746403897945
 21
1002.54911509128
 31
0.0
  0
LINE
  5
3E
330
A
100
AcDbEntity
  8
HEWI
100
AcDbLine
 10
-1403.89638253564
 20
1166.799069314913
 30
0.0
 11
-1403.89638253564
 21
1165.549069314913
 31
0.0
  0
LINE
  5
3F
330
A
100
AcDbEntity
  8
HEWI
100
AcDbLine
 10
-1470.246403897945
 20
1169.299069314913
 30
0.0
 11
-1470.246403897945
 21
1168.765164285616
 31
0.0
  0
LINE
  5
40
330
A
100
AcDbEntity
  8
HEWI
100
AcDbLine
 10
-1475.996411527339
 20
1169.299069314913
 30
0.0
 11
-1475.996411527339
 21
1168.765164285616
 31
0.0
  0
LINE
  5
41
330
A
100
AcDbEntity
  8
HEWI
100
AcDbLine
 10
-1405.746434415523
 20
1169.299069314913
 30
0.0
 11
-1405.746434415523
 21
1168.765164285616
 31
0.0
  0
LINE
  5
42
330
A
100
AcDbEntity
  8
HEWI
100
AcDbLine
 10
-1399.996388639156
 20
1169.299069314913
 30
0.0
 11
-1399.996388639156
 21
1168.765164285616
 31
0.0
  0
LINE
  5
43
330
A
100
AcDbEntity
  8
HEWI
100
AcDbLine
 10
-1476.996434415523
 20
1168.765164285616
 30
0.0
 11
-1476.996434415523
 21
1166.542721658663
 31
0.0
  0
LINE
  5
44
330
A
100
AcDbEntity
  8
HEWI
100
AcDbLine
 10
-1398.996403897945
 20
1168.765164285616
 30
0.0
 11
-1398.996403897945
 21
1166.542721658663
 31
0.0
  0
LINE
  5
50
330
A
100
AcDbEntity
  8
HEWI
100
AcDbLine
 10
-1406.796391690914
 20
1171.549130350069
 30
0.0
 11
-1406.796391690914
 21
1169.049130350069
 31
0.0
  0
LINE
  5
51
330
A
100
AcDbEntity
  8
HEWI
100
AcDbLine
 10
-1469.196408475582
 20
1171.549130350069
 30
0.0
 11
-1469.196408475582
 21
1169.049130350069
 31
0.0
  0
LINE
  5
52
330
A
100
AcDbEntity
  8
HEWI
100
AcDbLine
 10
-1473.596432889644
 20
1172.599087625459
 30
0.0
 11
-1473.596432889644
 21
1171.549130350069
 31
0.0
  0
LINE
  5
53
330
A
100
AcDbEntity
  8
HEWI
100
AcDbLine
 10
-1402.396443570796
 20
1172.599087625459
 30
0.0
 11
-1402.396443570796
 21
1171.549130350069
 31
0.0
  0
LINE
  5
54
330
A
100
AcDbEntity
  8
HEWI
100
AcDbLine
 10
-1424.121449674312
 20
1172.599087625459
 30
0.0
 11
-1424.121449674312
 21
1171.549130350069
 31
0.0
  0
LINE
  5
55
330
A
100
AcDbEntity
  8
HEWI
100
AcDbLine
 10
-1411.871388639156
 20
1172.599087625459
 30
0.0
 11
-1411.871388639156
 21
1171.549130350069
 31
0.0
  0
LINE
  5
56
330
A
100
AcDbEntity
  8
HEWI
100
AcDbLine
 10
-1473.49641152734
 20
1172.599087625459
 30
0.0
 11
-1473.49641152734
 21
1171.549130350069
 31
0.0
  0
LINE
  5
57
330
A
100
AcDbEntity
  8
HEWI
100
AcDbLine
 10
-1444.046414579097
 20
1172.799130350069
 30
0.0
 11
-1444.046414579097
 21
1172.549191385225
 31
0.0
  0
LINE
  5
58
330
A
100
AcDbEntity
  8
HEWI
100
AcDbLine
 10
-1431.946423734371
 20
1172.799130350069
 30
0.0
 11
-1431.946423734371
 21
1172.549191385225
 31
0.0
  0
LINE
  5
59
330
A
100
AcDbEntity
  8
HEWI
100
AcDbLine
 10
-1419.596379483883
 20
1171.549130350069
 30
0.0
 11
-1419.596379483883
 21
1168.765164285616
 31
0.0
  0
LINE
  5
5A
330
A
100
AcDbEntity
  8
HEWI
100
AcDbLine
 10
-1409.846394742672
 20
1169.049130350069
 30
0.0
 11
-1409.846394742672
 21
1168.765164285616
 31
0.0
  0
LINE
  5
5B
330
A
100
AcDbEntity
  8
HEWI
100
AcDbLine
 10
-1456.396420682613
 20
1171.549130350069
 30
0.0
 11
-1456.396420682613
 21
1168.765164285616
 31
0.0
  0
LINE
  5
5C
330
A
100
AcDbEntity
  8
HEWI
100
AcDbLine
 10
-1466.146405423824
 20
1169.049130350069
 30
0.0
 11
-1466.146405423824
 21
1168.765164285616
 31
0.0
  0
LINE
  5
5D
330
A
100
AcDbEntity
  8
HEWI
100
AcDbLine
 10
-1476.59642526025
 20
1171.549130350069
 30
0.0
 11
-1476.59642526025
 21
1168.765164285616
 31
0.0
  0
LINE
  5
5E
330
A
100
AcDbEntity
  8
HEWI
100
AcDbLine
 10
-1399.396413053218
 20
1171.549130350069
 30
0.0
 11
-1399.396413053218
 21
1168.765164285616
 31
0.0
  0
LINE
  5
5F
330
A
100
AcDbEntity
  8
HEWI
100
AcDbLine
 10
-1402.496388639156
 20
1172.599087625459
 30
0.0
 11
-1402.496388639156
 21
1171.549130350069
 31
0.0
  0
LINE
  5
60
330
A
100
AcDbEntity
  8
HEWI
100
AcDbLine
 10
-1409.596379483883
 20
1173.049069314913
 30
0.0
 11
-1409.596379483883
 21
1172.599087625459
 31
0.0
  0
LINE
  5
61
330
A
100
AcDbEntity
  8
HEWI
100
AcDbLine
 10
-1404.746449674312
 20
1173.049069314913
 30
0.0
 11
-1404.746449674312
 21
1172.599087625459
 31
0.0
  0
LINE
  5
62
330
A
100
AcDbEntity
  8
HEWI
100
AcDbLine
 10
-1471.246426786129
 20
1173.049069314913
 30
0.0
 11
-1471.246426786129
 21
1172.599087625459
 31
0.0
  0
LINE
  5
63
330
A
100
AcDbEntity
  8
HEWI
100
AcDbLine
 10
-1466.396420682613
 20
1173.049069314913
 30
0.0
 11
-1466.396420682613
 21
1172.599087625459
 31
0.0
  0
LINE
  5
64
330
A
100
AcDbEntity
  8
HEWI
100
AcDbLine
 10
-1464.121411527339
 20
1172.599087625459
 30
0.0
 11
-1464.121411527339
 21
1171.549130350069
 31
0.0
  0
LINE
  5
65
330
A
100
AcDbEntity
  8
HEWI
100
AcDbLine
 10
-1451.871426786128
 20
1172.599087625459
 30
0.0
 11
-1451.871426786128
 21
1171.549130350069
 31
0.0
  0
LINE
  5
66
330
A
100
AcDbEntity
  8
HEWI
100
AcDbLine
 10
-1432.077420438472
 20
1172.549191385225
 30
0.0
 11
-1432.077420438472
 21
1171.549130350069
 31
0.0
  0
LINE
  5
67
330
A
100
AcDbEntity
  8
HEWI
100
AcDbLine
 10
-1443.915417874996
 20
1172.549191385225
 30
0.0
 11
-1443.915417874996
 21
1171.549130350069
 31
0.0
  0
LINE
  5
68
330
A
100
AcDbEntity
  8
HEWI
100
AcDbLine
 10
-1427.246449674312
 20
974.2671021518273
 30
0.0
 11
-1427.246449674312
 21
969.2671021518274
 31
0.0
  0
LINE
  5
69
330
A
100
AcDbEntity
  8
HEWI
100
AcDbLine
 10
-1448.746426786129
 20
974.2671021518273
 30
0.0
 11
-1448.746426786129
 21
969.2790803012412
 31
0.0
  0
LINE
  5
6A
330
A
100
AcDbEntity
  8
HEWI
100
AcDbLine
 10
-1463.746426786129
 20
1162.700100809054
 30
0.0
 11
-1463.746426786129
 21
983.6751374301474
 31
0.0
  0
LINE
  5
6B
330
A
100
AcDbEntity
  8
HEWI
100
AcDbLine
 10
-1458.746426786128
 20
1162.700100809054
 30
0.0
 11
-1458.746426786128
 21
983.6751374301474
 31
0.0
  0
LINE
  5
6C
330
A
100
AcDbEntity
  8
HEWI
100
AcDbLine
 10
-1417.246449674312
 20
1162.700100809054
 30
0.0
 11
-1417.246449674312
 21
983.6859711703819
 31
0.0
  0
LINE
  5
6D
330
A
100
AcDbEntity
  8
HEWI
100
AcDbLine
 10
-1412.246449674312
 20
1162.700100809054
 30
0.0
 11
-1412.246449674312
 21
983.6751374301474
 31
0.0
  0
LINE
  5
7A
330
A
100
AcDbEntity
  8
HEWI
100
AcDbLine
 10
-1409.596379483883
 20
1173.049069314913
 30
0.0
 11
-1404.746449674312
 21
1173.049069314913
 31
0.0
  0
LINE
  5
7B
330
A
100
AcDbEntity
  8
HEWI
100
AcDbLine
 10
-1471.246426786129
 20
1173.049069314913
 30
0.0
 11
-1466.396420682613
 21
1173.049069314913
 31
0.0
  0
LINE
  5
82
330
A
100
AcDbEntity
  8
HEWI
100
AcDbLine
 10
-1410.996449674312
 20
1165.549069314913
 30
0.0
 11
-1397.746403897945
 21
1165.549069314913
 31
0.0
  0
LINE
  5
83
330
A
100
AcDbEntity
  8
HEWI
100
AcDbLine
 10
-1478.246434415523
 20
1165.549069314913
 30
0.0
 11
-1464.996426786129
 21
1165.549069314913
 31
0.0
  0
LINE
  5
84
330
A
100
AcDbEntity
  8
HEWI
100
AcDbLine
 10
-1403.89638253564
 20
1166.799069314913
 30
0.0
 11
-1399.996388639156
 21
1166.799069314913
 31
0.0
  0
LINE
  5
85
330
A
100
AcDbEntity
  8
HEWI
100
AcDbLine
 10
-1456.996434415523
 20
1166.799069314913
 30
0.0
 11
-1418.996403897945
 21
1166.799069314913
 31
0.0
  0
LINE
  5
86
330
A
100
AcDbEntity
  8
HEWI
100
AcDbLine
 10
-1475.996411527339
 20
1166.799069314913
 30
0.0
 11
-1472.096417630855
 21
1166.799069314913
 31
0.0
  0
LINE
  5
87
330
A
100
AcDbEntity
  8
HEWI
100
AcDbLine
 10
-1412.246449674312
 20
1002.54911509128
 30
0.0
 11
-1397.746403897945
 21
1002.54911509128
 31
0.0
  0
LINE
  5
88
330
A
100
AcDbEntity
  8
HEWI
100
AcDbLine
 10
-1458.746426786128
 20
1002.54911509128
 30
0.0
 11
-1417.246449674312
 21
1002.54911509128
 31
0.0
  0
LINE
  5
89
330
A
100
AcDbEntity
  8
HEWI
100
AcDbLine
 10
-1478.246434415523
 20
1002.54911509128
 30
0.0
 11
-1463.746426786129
 21
1002.54911509128
 31
0.0
  0
LINE
  5
8A
330
A
100
AcDbEntity
  8
HEWI
100
AcDbLine
 10
-1405.746434415523
 20
1169.299069314913
 30
0.0
 11
-1399.996388639156
 21
1169.299069314913
 31
0.0
  0
LINE
  5
8B
330
A
100
AcDbEntity
  8
HEWI
100
AcDbLine
 10
-1475.996411527339
 20
1169.299069314913
 30
0.0
 11
-1470.246403897945
 21
1169.299069314913
 31
0.0
  0
LINE
  5
8C
330
A
100
AcDbEntity
  8
HEWI
100
AcDbLine
 10
-1476.996434415523
 20
1168.765164285616
 30
0.0
 11
-1398.996403897945
 21
1168.765164285616
 31
0.0
  0
LINE
  5
8D
330
A
100
AcDbEntity
  8
HEWI
100
AcDbLine
 10
-1405.746434415523
 20
1169.099179178194
 30
0.0
 11
-1399.996388639156
 21
1169.099179178194
 31
0.0
  0
LINE
  5
8E
330
A
100
AcDbEntity
  8
HEWI
100
AcDbLine
 10
-1475.996411527339
 20
1169.099179178194
 30
0.0
 11
-1470.246403897945
 21
1169.099179178194
 31
0.0
  0
LINE
  5
92
330
A
100
AcDbEntity
  8
HEWI
100
AcDbLine
 10
-1476.59642526025
 20
1171.549130350069
 30
0.0
 11
-1399.396413053218
 21
1171.549130350069
 31
0.0
  0
LINE
  5
93
330
A
100
AcDbEntity
  8
HEWI
100
AcDbLine
 10
-1409.846394742672
 20
1169.049130350069
 30
0.0
 11
-1406.796391690914
 21
1169.049130350069
 31
0.0
  0
LINE
  5
94
330
A
100
AcDbEntity
  8
HEWI
100
AcDbLine
 10
-1469.196408475582
 20
1169.049130350069
 30
0.0
 11
-1466.146405423824
 21
1169.049130350069
 31
0.0
  0
LINE
  5
95
330
A
100
AcDbEntity
  8
HEWI
100
AcDbLine
 10
-1424.121449674312
 20
1172.599087625459
 30
0.0
 11
-1402.396443570796
 21
1172.599087625459
 31
0.0
  0
LINE
  5
96
330
A
100
AcDbEntity
  8
HEWI
100
AcDbLine
 10
-1473.596432889644
 20
1172.599087625459
 30
0.0
 11
-1451.871426786128
 21
1172.599087625459
 31
0.0
  0
LINE
  5
97
330
A
100
AcDbEntity
  8
HEWI
100
AcDbLine
 10
-1444.046414579097
 20
1172.799130350069
 30
0.0
 11
-1431.946423734371
 21
1172.799130350069
 31
0.0
  0
LINE
  5
98
330
A
100
AcDbEntity
  8
HEWI
100
AcDbLine
 10
-1432.077420438472
 20
1172.549191385225
 30
0.0
 11
-1424.121449674312
 21
1172.549191385225
 31
0.0
  0
LINE
  5
99
330
A
100
AcDbEntity
  8
HEWI
100
AcDbLine
 10
-1451.871426786128
 20
1172.549191385225
 30
0.0
 11
-1443.915417874996
 21
1172.549191385225
 31
0.0
  0
LINE
  5
9A
330
A
100
AcDbEntity
  8
HEWI
100
AcDbLine
 10
-1448.746426786129
 20
974.2671021518273
 30
0.0
 11
-1427.246449674312
 21
974.2671021518273
 31
0.0
  0
LINE
  5
9B
330
A
100
AcDbEntity
  8
HEWI
100
AcDbLine
 10
-1448.746426786129
 20
969.2671021518274
 30
0.0
 11
-1427.246449674312
 21
969.2671021518274
 31
0.0
  0
LINE
  5
9C
330
A
100
AcDbEntity
  8
HEWI
100
AcDbLine
 10
-1398.405430997554
 20
1166.140194803194
 30
0.0
 11
-1398.381398404781
 21
1166.116085916475
 31
0.0
  0
LINE
  5
9E
330
A
100
AcDbEntity
  8
HEWI
100
AcDbLine
 10
-1477.52431222314
 20
1166.175442605928
 30
0.0
 11
-1477.634824002925
 21
1166.08297434421
 31
0.0
  0
LINE
  5
9F
330
A
100
AcDbEntity
  8
HEWI
100
AcDbLine
 10
-1477.182400907222
 20
1166.461087137179
 30
0.0
 11
-1477.52431222314
 21
1166.175442605928
 31
0.0
  0
LINE
  5
A0
330
A
100
AcDbEntity
  8
HEWI
100
AcDbLine
 10
-1477.634824002925
 20
1166.08297434421
 30
0.0
 11
-1477.669423307125
 21
1166.054135232882
 31
0.0
  0
LINE
  5
A3
330
A
100
AcDbEntity
  8
HEWI
100
AcDbLine
 10
-1459.353421415035
 20
973.5710724887413
 30
0.0
 11
-1459.22841378564
 21
973.409100442843
 31
0.0
  0
LINE
  5
A5
330
A
100
AcDbEntity
  8
HEWI
100
AcDbLine
 10
-1398.358052457515
 20
1166.08297434421
 30
0.0
 11
-1397.980397428218
 21
1165.549069314913
 31
0.0
  0
LINE
  5
A6
330
A
100
AcDbEntity
  8
HEWI
100
AcDbLine
 10
-1398.381398404781
 20
1166.116085916475
 30
0.0
 11
-1398.358052457515
 21
1166.08297434421
 31
0.0
  0
LINE
  5
A7
330
A
100
AcDbEntity
  8
HEWI
100
AcDbLine
 10
-1462.693417752925
 20
978.4151276645227
 30
0.0
 11
-1459.353421415035
 21
973.5710724887413
 31
0.0
  0
LINE
  5
A8
330
A
100
AcDbEntity
  8
HEWI
100
AcDbLine
 10
-1458.044408048336
 20
980.1691254672569
 30
0.0
 11
-1455.919774259273
 21
977.0875367221396
 31
0.0
  0
LINE
  5
AB
330
A
100
AcDbEntity
  8
HEWI
100
AcDbLine
 10
-1477.52431222314
 20
1166.175442605928
 30
0.0
 11
-1477.611401761715
 21
1166.116085916475
 31
0.0
  0
LINE
  5
AC
330
A
100
AcDbEntity
  8
HEWI
100
AcDbLine
 10
-1476.962559903804
 20
1166.557675271944
 30
0.0
 11
-1477.52431222314
 21
1166.175442605928
 31
0.0
  0
LINE
  5
AE
330
A
100
AcDbEntity
  8
HEWI
100
AcDbLine
 10
-1476.860402311031
 20
1166.627102762179
 30
0.0
 11
-1476.962559903804
 21
1166.557675271944
 31
0.0
  0
LINE
  5
AF
330
A
100
AcDbEntity
  8
HEWI
100
AcDbLine
 10
-1398.323415006343
 20
1166.054135232882
 30
0.0
 11
-1397.980397428218
 21
1165.549069314913
 31
0.0
  0
LINE
  5
B1
330
A
100
AcDbEntity
  8
HEWI
100
AcDbLine
 10
-1477.48208352441
 20
1166.210690408663
 30
0.0
 11
-1477.587407315914
 21
1166.140194803194
 31
0.0
  0
LINE
  5
B8
330
A
100
AcDbEntity
  8
HEWI
100
AcDbLine
 10
-1458.168423856441
 20
1149.721127420382
 30
0.0
 11
-1458.746426786128
 21
1149.341336160616
 31
0.0
  0
LINE
  5
B9
330
A
100
AcDbEntity
  8
HEWI
100
AcDbLine
 10
-1464.71539803857
 20
1151.077176004366
 30
0.0
 11
-1463.824399198237
 21
1149.721127420382
 31
0.0
  0
LINE
  5
BA
330
A
100
AcDbEntity
  8
HEWI
100
AcDbLine
 10
-1418.715413297359
 20
1151.077176004366
 30
0.0
 11
-1417.824452604
 21
1149.721127420382
 31
0.0
  0
LINE
  5
BD
330
A
100
AcDbEntity
  8
HEWI
100
AcDbLine
 10
-1462.166417325679
 20
1165.024166971163
 30
0.0
 11
-1463.014424527828
 21
1164.467068582491
 31
0.0
  0
LINE
  5
BE
330
A
100
AcDbEntity
  8
HEWI
100
AcDbLine
 10
-1415.66640206689
 20
1165.024166971163
 30
0.0
 11
-1416.514409269039
 21
1164.467068582491
 31
0.0
  0
LINE
  5
BF
330
A
100
AcDbEntity
  8
HEWI
100
AcDbLine
 10
-1412.168400968258
 20
1149.721127420382
 30
0.0
 11
-1412.246449674312
 21
1149.669857889132
 31
0.0
  0
LINE
  5
C1
330
A
100
AcDbEntity
  8
HEWI
100
AcDbLine
 10
-1459.478429044429
 20
1164.467068582491
 30
0.0
 11
-1458.922398770992
 21
1163.620053201632
 31
0.0
  0
LINE
  5
C2
330
A
100
AcDbEntity
  8
HEWI
100
AcDbLine
 10
-1412.97841378564
 20
1164.467068582491
 30
0.0
 11
-1412.422383512203
 21
1163.620053201632
 31
0.0
  0
LINE
  5
C5
330
A
100
AcDbEntity
  8
HEWI
100
AcDbLine
 10
-1398.396275724117
 20
1166.126309305147
 30
0.0
 11
-1398.380025113765
 21
1166.101437478975
 31
0.0
  0
LINE
  5
C8
330
A
100
AcDbEntity
  8
HEWI
100
AcDbLine
 10
-1420.051396573726
 20
977.1011170444053
 30
0.0
 11
-1423.500416959468
 21
974.9420746860067
 31
0.0
  0
LINE
  5
C9
330
A
100
AcDbEntity
  8
HEWI
100
AcDbLine
 10
-1416.764424527828
 20
973.409100442843
 30
0.0
 11
-1421.78944894189
 21
970.264111429171
 31
0.0
  0
LINE
  5
CA
330
A
100
AcDbEntity
  8
HEWI
100
AcDbLine
 10
-1463.105405057613
 20
984.1831025180383
 30
0.0
 11
-1463.584416593257
 21
983.9451417026083
 31
0.0
  0
LINE
  5
CE
330
A
100
AcDbEntity
  8
HEWI
100
AcDbLine
 10
-1476.962559903804
 20
1166.557675271944
 30
0.0
 11
-1477.182400907222
 21
1166.461087137179
 31
0.0
  0
LINE
  5
CF
330
A
100
AcDbEntity
  8
HEWI
100
AcDbLine
 10
-1476.601422513668
 20
1166.716061502413
 30
0.0
 11
-1476.757519925777
 21
1166.647549539522
 31
0.0
  0
LINE
  5
D0
330
A
100
AcDbEntity
  8
HEWI
100
AcDbLine
 10
-1476.757519925777
 20
1166.647549539522
 30
0.0
 11
-1476.962559903804
 21
1166.557675271944
 31
0.0
  0
LINE
  5
D1
330
A
100
AcDbEntity
  8
HEWI
100
AcDbLine
 10
-1463.382886136715
 20
984.0452393588586
 30
0.0
 11
-1463.544400418941
 21
983.9751252231163
 31
0.0
  0
LINE
  5
D2
330
A
100
AcDbEntity
  8
HEWI
100
AcDbLine
 10
-1462.959416593258
 20
984.2291077670616
 30
0.0
 11
-1463.016713346187
 21
984.2042359408896
 31
0.0
  0
LINE
  5
D7
330
A
100
AcDbEntity
  8
HEWI
100
AcDbLine
 10
-1462.412427152339
 20
984.3481263217492
 30
0.0
 11
-1463.105405057613
 21
984.1831025180383
 31
0.0
  0
LINE
  5
DC
330
A
100
AcDbEntity
  8
HEWI
100
AcDbLine
 10
-1458.746426786128
 20
983.6751374301474
 30
0.0
 11
-1458.044408048336
 21
980.1691254672569
 31
0.0
  0
LINE
  5
DD
330
A
100
AcDbEntity
  8
HEWI
100
AcDbLine
 10
-1463.746426786129
 20
983.6751374301474
 30
0.0
 11
-1462.693417752925
 21
978.4151276645227
 31
0.0
  0
LINE
  5
E1
330
A
100
AcDbEntity
  8
HEWI
100
AcDbLine
 10
-1475.996411527339
 20
1166.799069314913
 30
0.0
 11
-1476.757519925777
 21
1166.647549539522
 31
0.0
  0
LINE
  5
E2
330
A
100
AcDbEntity
  8
HEWI
100
AcDbLine
 10
-1476.757519925777
 20
1166.647549539522
 30
0.0
 11
-1476.860402311031
 21
1166.627102762179
 31
0.0
  0
LINE
  5
E3
330
A
100
AcDbEntity
  8
HEWI
100
AcDbLine
 10
-1462.715237821285
 20
984.2760285434287
 30
0.0
 11
-1462.959416593258
 21
984.2291077670616
 31
0.0
  0
LINE
  5
E5
330
A
100
AcDbEntity
  8
HEWI
100
AcDbLine
 10
-1458.922398770992
 20
1163.620053201632
 30
0.0
 11
-1458.746426786128
 21
1162.700100809054
 31
0.0
  0
LINE
  5
E6
330
A
100
AcDbEntity
  8
HEWI
100
AcDbLine
 10
-1414.746449674312
 20
1165.200100809054
 30
0.0
 11
-1415.66640206689
 21
1165.024166971163
 31
0.0
  0
LINE
  5
E7
330
A
100
AcDbEntity
  8
HEWI
100
AcDbLine
 10
-1412.422383512203
 20
1163.620053201632
 30
0.0
 11
-1412.246449674312
 21
1162.700100809054
 31
0.0
  0
LINE
  5
E8
330
A
100
AcDbEntity
  8
HEWI
100
AcDbLine
 10
-1461.246426786129
 20
1165.200100809054
 30
0.0
 11
-1462.166417325679
 21
1165.024166971163
 31
0.0
  0
LINE
  5
EB
330
A
100
AcDbEntity
  8
HEWI
100
AcDbLine
 10
-1464.996426786129
 20
1152.549191385225
 30
0.0
 11
-1464.71539803857
 21
1151.077176004366
 31
0.0
  0
LINE
  5
EE
330
A
100
AcDbEntity
  8
HEWI
100
AcDbLine
 10
-1418.996403897945
 20
1152.549191385225
 30
0.0
 11
-1418.715413297359
 21
1151.077176004366
 31
0.0
  0
LINE
  5
F3
330
A
100
AcDbEntity
  8
HEWI
100
AcDbLine
 10
-1421.78944894189
 20
970.264111429171
 30
0.0
 11
-1427.246449674312
 21
969.2721375522181
 31
0.0
  0
LINE
  5
F5
330
A
100
AcDbEntity
  8
HEWI
100
AcDbLine
 10
-1423.500416959468
 20
974.9420746860067
 30
0.0
 11
-1427.246449674312
 21
974.2671021518273
 31
0.0
  0
LINE
  5
F6
330
A
100
AcDbEntity
  8
HEWI
100
AcDbLine
 10
-1475.996411527339
 20
1166.799069314913
 30
0.0
 11
-1476.601422513668
 21
1166.716061502413
 31
0.0
  0
LINE
  5
F8
330
A
100
AcDbEntity
  8
HEWI
100
AcDbLine
 10
-1462.259305204097
 20
984.3636139926475
 30
0.0
 11
-1462.412427152339
 21
984.3481263217492
 31
0.0
  0
LINE
  5
F9
330
A
100
AcDbEntity
  8
HEWI
100
AcDbLine
 10
-1461.640408719722
 20
984.4260987338586
 30
0.0
 11
-1461.934941495601
 21
984.3963440951867
 31
0.0
  0
LINE
  5
FA
330
A
100
AcDbEntity
  8
HEWI
100
AcDbLine
 10
-1461.934941495601
 20
984.3963440951867
 30
0.0
 11
-1462.259305204097
 21
984.3636139926475
 31
0.0
  0
LINE
  5
104
330
A
100
AcDbEntity
  8
HEWI
100
AcDbLine
 10
-1461.427930082027
 20
984.4248780307337
 30
0.0
 11
-1461.046117032711
 21
984.4227418002647
 31
0.0
  0
LINE
  5
105
330
A
100
AcDbEntity
  8
HEWI
100
AcDbLine
 10
-1461.640408719722
 20
984.4260987338586
 30
0.0
 11
-1461.427930082027
 21
984.4248780307337
 31
0.0
  0
LINE
  5
106
330
A
100
AcDbEntity
  8
HEWI
100
AcDbLine
 10
-1461.046117032711
 20
984.4227418002647
 30
0.0
 11
-1460.767415250484
 21
984.4211396274131
 31
0.0
  0
LINE
  5
10F
330
A
100
AcDbEntity
  8
HEWI
100
AcDbLine
 10
-1460.116704190914
 20
984.3433198031943
 30
0.0
 11
-1459.914410794918
 21
984.3191346225303
 31
0.0
  0
LINE
  5
110
330
A
100
AcDbEntity
  8
HEWI
100
AcDbLine
 10
-1460.495694364254
 20
984.3886384067101
 30
0.0
 11
-1460.116704190914
 21
984.3433198031943
 31
0.0
  0
LINE
  5
111
330
A
100
AcDbEntity
  8
HEWI
100
AcDbLine
 10
-1460.767415250484
 20
984.4211396274131
 30
0.0
 11
-1460.495694364254
 21
984.3886384067101
 31
0.0
  0
LINE
  5
114
330
A
100
AcDbEntity
  8
HEWI
100
AcDbLine
 10
-1399.996388639156
 20
1166.799069314913
 30
0.0
 11
-1399.391377652828
 21
1166.716061502413
 31
0.0
  0
LINE
  5
115
330
A
100
AcDbEntity
  8
HEWI
100
AcDbLine
 10
-1448.903439725582
 20
974.2906006869837
 30
0.0
 11
-1448.746426786129
 21
974.2671021518273
 31
0.0
  0
LINE
  5
118
330
A
100
AcDbEntity
  8
HEWI
100
AcDbLine
 10
-1454.20342751855
 20
970.264111429171
 30
0.0
 11
-1448.746426786129
 21
969.2790803012412
 31
0.0
  0
LINE
  5
119
330
A
100
AcDbEntity
  8
HEWI
100
AcDbLine
 10
-1452.492421354
 20
974.9420746860067
 30
0.0
 11
-1448.746426786129
 21
974.2621430453819
 31
0.0
  0
LINE
  5
11F
330
A
100
AcDbEntity
  8
HEWI
100
AcDbLine
 10
-1410.996449674312
 20
1152.549191385225
 30
0.0
 11
-1411.277440274898
 21
1151.077176004366
 31
0.0
  0
LINE
  5
120
330
A
100
AcDbEntity
  8
HEWI
100
AcDbLine
 10
-1456.996434415523
 20
1152.549191385225
 30
0.0
 11
-1457.277425016109
 21
1151.077176004366
 31
0.0
  0
LINE
  5
123
330
A
100
AcDbEntity
  8
HEWI
100
AcDbLine
 10
-1461.246426786129
 20
1165.200100809054
 30
0.0
 11
-1460.326398099605
 21
1165.024166971163
 31
0.0
  0
LINE
  5
124
330
A
100
AcDbEntity
  8
HEWI
100
AcDbLine
 10
-1414.746449674312
 20
1165.200100809054
 30
0.0
 11
-1413.826420987789
 21
1165.024166971163
 31
0.0
  0
LINE
  5
125
330
A
100
AcDbEntity
  8
HEWI
100
AcDbLine
 10
-1463.570416654293
 20
1163.620053201632
 30
0.0
 11
-1463.746426786129
 21
1162.700100809054
 31
0.0
  0
LINE
  5
126
330
A
100
AcDbEntity
  8
HEWI
100
AcDbLine
 10
-1417.070439542476
 20
1163.620053201632
 30
0.0
 11
-1417.246449674312
 21
1162.700100809054
 31
0.0
  0
LINE
  5
128
330
A
100
AcDbEntity
  8
HEWI
100
AcDbLine
 10
-1399.235280240718
 20
1166.647549539522
 30
0.0
 11
-1399.132436002437
 21
1166.627102762179
 31
0.0
  0
LINE
  5
129
330
A
100
AcDbEntity
  8
HEWI
100
AcDbLine
 10
-1399.996388639156
 20
1166.799069314913
 30
0.0
 11
-1399.235280240718
 21
1166.647549539522
 31
0.0
  0
LINE
  5
12B
330
A
100
AcDbEntity
  8
HEWI
100
AcDbLine
 10
-1417.232411588375
 20
983.7560853061242
 30
0.0
 11
-1417.948430265133
 21
980.1691254672569
 31
0.0
  0
LINE
  5
12E
330
A
100
AcDbEntity
  8
HEWI
100
AcDbLine
 10
-1412.246449674312
 20
983.6751374301474
 30
0.0
 11
-1413.29938241357
 21
978.4151276645227
 31
0.0
  0
LINE
  5
132
330
A
100
AcDbEntity
  8
HEWI
100
AcDbLine
 10
-1459.354108060543
 20
984.161816507296
 30
0.0
 11
-1459.248402799312
 21
984.1321381625697
 31
0.0
  0
LINE
  5
133
330
A
100
AcDbEntity
  8
HEWI
100
AcDbLine
 10
-1459.636166776363
 20
984.2410096225304
 30
0.0
 11
-1459.354108060543
 21
984.161816507296
 31
0.0
  0
LINE
  5
134
330
A
100
AcDbEntity
  8
HEWI
100
AcDbLine
 10
-1459.914410794918
 20
984.3191346225303
 30
0.0
 11
-1459.636166776363
 21
984.2410096225304
 31
0.0
  0
LINE
  5
139
330
A
100
AcDbEntity
  8
HEWI
100
AcDbLine
 10
-1399.235280240718
 20
1166.647549539522
 30
0.0
 11
-1399.030278409664
 21
1166.557675271944
 31
0.0
  0
LINE
  5
13A
330
A
100
AcDbEntity
  8
HEWI
100
AcDbLine
 10
-1399.391377652828
 20
1166.716061502413
 30
0.0
 11
-1399.235280240718
 21
1166.647549539522
 31
0.0
  0
LINE
  5
13B
330
A
100
AcDbEntity
  8
HEWI
100
AcDbLine
 10
-1399.030278409664
 20
1166.557675271944
 30
0.0
 11
-1398.810399259273
 21
1166.461087137179
 31
0.0
  0
LINE
  5
13D
330
A
100
AcDbEntity
  8
HEWI
100
AcDbLine
 10
-1459.050687040035
 20
984.0157136020224
 30
0.0
 11
-1458.916409696285
 21
983.9510926303427
 31
0.0
  0
LINE
  5
140
330
A
100
AcDbEntity
  8
HEWI
100
AcDbLine
 10
-1459.248402799312
 20
984.1321381625697
 30
0.0
 11
-1458.864415372554
 21
983.9060792026083
 31
0.0
  0
LINE
  5
141
330
A
100
AcDbEntity
  8
HEWI
100
AcDbLine
 10
-1463.584416593257
 20
983.9451417026083
 30
0.0
 11
-1463.746426786129
 21
983.6751374301474
 31
0.0
  0
LINE
  5
143
330
A
100
AcDbEntity
  8
HEWI
100
AcDbLine
 10
-1459.22841378564
 20
973.409100442843
 30
0.0
 11
-1454.20342751855
 21
970.264111429171
 31
0.0
  0
LINE
  5
144
330
A
100
AcDbEntity
  8
HEWI
100
AcDbLine
 10
-1455.941403592769
 20
977.1011170444053
 30
0.0
 11
-1452.492421354
 21
974.9420746860067
 31
0.0
  0
LINE
  5
147
330
A
100
AcDbEntity
  8
HEWI
100
AcDbLine
 10
-1463.014424527828
 20
1164.467068582491
 30
0.0
 11
-1463.570416654293
 21
1163.620053201632
 31
0.0
  0
LINE
  5
148
330
A
100
AcDbEntity
  8
HEWI
100
AcDbLine
 10
-1477.596524442378
 20
1166.126309305147
 30
0.0
 11
-1477.612851346675
 21
1166.101437478975
 31
0.0
  0
LINE
  5
14B
330
A
100
AcDbEntity
  8
HEWI
100
AcDbLine
 10
-1416.514409269039
 20
1164.467068582491
 30
0.0
 11
-1417.070439542476
 21
1163.620053201632
 31
0.0
  0
LINE
  5
14F
330
A
100
AcDbEntity
  8
HEWI
100
AcDbLine
 10
-1413.826420987789
 20
1165.024166971163
 30
0.0
 11
-1412.97841378564
 21
1164.467068582491
 31
0.0
  0
LINE
  5
150
330
A
100
AcDbEntity
  8
HEWI
100
AcDbLine
 10
-1460.326398099605
 20
1165.024166971163
 30
0.0
 11
-1459.478429044429
 21
1164.467068582491
 31
0.0
  0
LINE
  5
151
330
A
100
AcDbEntity
  8
HEWI
100
AcDbLine
 10
-1411.277440274898
 20
1151.077176004366
 30
0.0
 11
-1412.168400968258
 21
1149.721127420382
 31
0.0
  0
LINE
  5
152
330
A
100
AcDbEntity
  8
HEWI
100
AcDbLine
 10
-1457.277425016109
 20
1151.077176004366
 30
0.0
 11
-1458.168423856441
 21
1149.721127420382
 31
0.0
  0
LINE
  5
153
330
A
100
AcDbEntity
  8
HEWI
100
AcDbLine
 10
-1417.824452604
 20
1149.721127420382
 30
0.0
 11
-1417.246449674312
 21
1149.341336160616
 31
0.0
  0
LINE
  5
157
330
A
100
AcDbEntity
  8
HEWI
100
AcDbLine
 10
-1463.824399198237
 20
1149.721127420382
 30
0.0
 11
-1463.746426786129
 21
1149.669857889132
 31
0.0
  0
LINE
  5
15B
330
A
100
AcDbEntity
  8
HEWI
100
AcDbLine
 10
-1398.510716642086
 20
1166.210690408663
 30
0.0
 11
-1398.405430997554
 21
1166.140194803194
 31
0.0
  0
LINE
  5
15C
330
A
100
AcDbEntity
  8
HEWI
100
AcDbLine
 10
-1463.544400418941
 20
983.9751252231163
 30
0.0
 11
-1463.554661954586
 21
983.9598664340538
 31
0.0
  0
LINE
  5
15E
330
A
100
AcDbEntity
  8
HEWI
100
AcDbLine
 10
-1477.669423307125
 20
1166.054135232882
 30
0.0
 11
-1478.012402738277
 21
1165.549069314913
 31
0.0
  0
LINE
  5
15F
330
A
100
AcDbEntity
  8
HEWI
100
AcDbLine
 10
-1399.132436002437
 20
1166.627102762179
 30
0.0
 11
-1399.030278409664
 21
1166.557675271944
 31
0.0
  0
LINE
  5
161
330
A
100
AcDbEntity
  8
HEWI
100
AcDbLine
 10
-1399.030278409664
 20
1166.557675271944
 30
0.0
 11
-1398.468526090328
 21
1166.175442605928
 31
0.0
  0
LINE
  5
162
330
A
100
AcDbEntity
  8
HEWI
100
AcDbLine
 10
-1398.468526090328
 20
1166.175442605928
 30
0.0
 11
-1398.381398404781
 21
1166.116085916475
 31
0.0
  0
LINE
  5
165
330
A
100
AcDbEntity
  8
HEWI
100
AcDbLine
 10
-1417.948430265133
 20
980.1691254672569
 30
0.0
 11
-1420.073064054195
 21
977.0875367221396
 31
0.0
  0
LINE
  5
166
330
A
100
AcDbEntity
  8
HEWI
100
AcDbLine
 10
-1413.29938241357
 20
978.4151276645227
 30
0.0
 11
-1416.639378751461
 21
973.5710724887413
 31
0.0
  0
LINE
  5
168
330
A
100
AcDbEntity
  8
HEWI
100
AcDbLine
 10
-1417.128422940914
 20
983.9060792026083
 30
0.0
 11
-1417.232411588375
 21
983.7560853061242
 31
0.0
  0
LINE
  5
169
330
A
100
AcDbEntity
  8
HEWI
100
AcDbLine
 10
-1477.634824002925
 20
1166.08297434421
 30
0.0
 11
-1478.012402738277
 21
1165.549069314913
 31
0.0
  0
LINE
  5
16A
330
A
100
AcDbEntity
  8
HEWI
100
AcDbLine
 10
-1477.611401761715
 20
1166.116085916475
 30
0.0
 11
-1477.634824002925
 21
1166.08297434421
 31
0.0
  0
LINE
  5
16C
330
A
100
AcDbEntity
  8
HEWI
100
AcDbLine
 10
-1416.639378751461
 20
973.5710724887413
 30
0.0
 11
-1416.764424527828
 21
973.409100442843
 31
0.0
  0
LINE
  5
170
330
A
100
AcDbEntity
  8
HEWI
100
AcDbLine
 10
-1398.358052457515
 20
1166.08297434421
 30
0.0
 11
-1398.323415006343
 21
1166.054135232882
 31
0.0
  0
LINE
  5
171
330
A
100
AcDbEntity
  8
HEWI
100
AcDbLine
 10
-1398.810399259273
 20
1166.461087137179
 30
0.0
 11
-1398.468526090328
 21
1166.175442605928
 31
0.0
  0
LINE
  5
172
330
A
100
AcDbEntity
  8
HEWI
100
AcDbLine
 10
-1398.468526090328
 20
1166.175442605928
 30
0.0
 11
-1398.358052457515
 21
1166.08297434421
 31
0.0
  0
LINE
  5
173
330
A
100
AcDbEntity
  8
HEWI
100
AcDbLine
 10
-1458.916409696285
 20
983.9510926303427
 30
0.0
 11
-1458.864415372554
 21
983.9060792026083
 31
0.0
  0
LINE
  5
175
330
A
100
AcDbEntity
  8
HEWI
100
AcDbLine
 10
-1477.587407315914
 20
1166.140194803194
 30
0.0
 11
-1477.611401761715
 21
1166.116085916475
 31
0.0
  0
LINE
  5
188
330
A
100
AcDbEntity
  8
HEWI
100
AcDbLine
 10
-1466.49643489236
 20
1576.680752399422
 30
0.0
 11
-1409.496432031337
 21
1576.680752399422
 31
0.0
  0
LINE
  5
18A
330
A
100
AcDbEntity
  8
HEWI
100
AcDbLine
 10
-1466.996436799709
 20
1578.430744770028
 30
0.0
 11
-1408.996439660732
 21
1578.430744770028
 31
0.0
  0
LINE
  5
18C
330
A
100
AcDbEntity
  8
HEWI
100
AcDbLine
 10
-1466.996436799709
 20
1577.180744770028
 30
0.0
 11
-1408.996439660732
 21
1577.180744770028
 31
0.0
  0
LINE
  5
18E
330
A
100
AcDbEntity
  8
HEWI
100
AcDbLine
 10
-1398.996439660732
 20
1534.180752399422
 30
0.0
 11
-1397.746439660732
 21
1534.180752399422
 31
0.0
  0
LINE
  5
18F
330
A
100
AcDbEntity
  8
HEWI
100
AcDbLine
 10
-1478.246436799708
 20
1534.180752399422
 30
0.0
 11
-1476.996436799709
 21
1534.180752399422
 31
0.0
  0
LINE
  5
192
330
A
100
AcDbEntity
  8
HEWI
100
AcDbLine
 10
-1399.591789926235
 20
1567.180744770028
 30
0.0
 11
-1398.996439660732
 21
1567.180744770028
 31
0.0
  0
LINE
  5
193
330
A
100
AcDbEntity
  8
HEWI
100
AcDbLine
 10
-1476.996436799709
 20
1567.180744770028
 30
0.0
 11
-1476.401076997463
 21
1567.180744770028
 31
0.0
  0
LINE
  5
196
330
A
100
AcDbEntity
  8
HEWI
100
AcDbLine
 10
-1399.496432031337
 20
1552.280766132333
 30
0.0
 11
-1398.996439660732
 21
1552.280766132333
 31
0.0
  0
LINE
  5
197
330
A
100
AcDbEntity
  8
HEWI
100
AcDbLine
 10
-1476.996436799709
 20
1552.280766132333
 30
0.0
 11
-1476.496437276546
 21
1552.280766132333
 31
0.0
  0
LINE
  5
19A
330
A
100
AcDbEntity
  8
HEWI
100
AcDbLine
 10
-1399.496432031337
 20
1546.280743244149
 30
0.0
 11
-1398.996439660732
 21
1546.280743244149
 31
0.0
  0
LINE
  5
19B
330
A
100
AcDbEntity
  8
HEWI
100
AcDbLine
 10
-1476.996436799709
 20
1546.280743244149
 30
0.0
 11
-1476.496437276546
 21
1546.280743244149
 31
0.0
  0
LINE
  5
1AA
330
A
100
AcDbEntity
  8
HEWI
100
AcDbLine
 10
-1445.016437257472
 20
1325.180775287606
 30
0.0
 11
-1430.753436769191
 21
1325.180775287606
 31
0.0
  0
LINE
  5
1AB
330
A
100
AcDbEntity
  8
HEWI
100
AcDbLine
 10
-1445.485435212795
 20
1325.308720233895
 30
0.0
 11
-1430.507436479274
 21
1325.308720233895
 31
0.0
  0
LINE
  5
1AC
330
A
100
AcDbEntity
  8
HEWI
100
AcDbLine
 10
-1442.33543464059
 20
1325.188786151864
 30
0.0
 11
-1439.985438073818
 21
1325.188786151864
 31
0.0
  0
LINE
  5
1AD
330
A
100
AcDbEntity
  8
HEWI
100
AcDbLine
 10
-1437.362437928859
 20
1324.580723407723
 30
0.0
 11
-1431.969438279812
 21
1324.580723407723
 31
0.0
  0
LINE
  5
1AE
330
A
100
AcDbEntity
  8
HEWI
100
AcDbLine
 10
-1444.023438180629
 20
1324.580723407723
 30
0.0
 11
-1439.708438600246
 21
1324.580723407723
 31
0.0
  0
LINE
  5
1AF
330
A
100
AcDbEntity
  8
HEWI
100
AcDbLine
 10
-1431.78783484811
 20
1324.780766132332
 30
0.0
 11
-1431.771436418239
 21
1324.780766132332
 31
0.0
  0
LINE
  5
1B0
330
A
100
AcDbEntity
  8
HEWI
100
AcDbLine
 10
-1437.442436898891
 20
1324.780766132332
 30
0.0
 11
-1431.985436166469
 21
1324.780766132332
 31
0.0
  0
LINE
  5
1B1
330
A
100
AcDbEntity
  8
HEWI
100
AcDbLine
 10
-1444.22143527383
 20
1324.780766132332
 30
0.0
 11
-1439.706435884182
 21
1324.780766132332
 31
0.0
  0
LINE
  5
1B2
330
A
100
AcDbEntity
  8
HEWI
100
AcDbLine
 10
-1444.010434831325
 20
1324.594761493661
 30
0.0
 11
-1443.219438279811
 21
1324.594761493661
 31
0.0
  0
LINE
  5
1B3
330
A
100
AcDbEntity
  8
HEWI
100
AcDbLine
 10
-1407.096434320156
 20
1330.680729511239
 30
0.0
 11
-1397.746439660732
 21
1330.680729511239
 31
0.0
  0
LINE
  5
1B4
330
A
100
AcDbEntity
  8
HEWI
100
AcDbLine
 10
-1478.246436799708
 20
1330.680729511239
 30
0.0
 11
-1468.896437371913
 21
1330.680729511239
 31
0.0
  0
LINE
  5
1B5
330
A
100
AcDbEntity
  8
HEWI
100
AcDbLine
 10
-1399.541435922329
 20
1503.980747821786
 30
0.0
 11
-1398.996439660732
 21
1503.980747821786
 31
0.0
  0
LINE
  5
1B6
330
A
100
AcDbEntity
  8
HEWI
100
AcDbLine
 10
-1476.996436799709
 20
1503.980747821786
 30
0.0
 11
-1476.451435769741
 21
1503.980747821786
 31
0.0
  0
LINE
  5
1B7
330
A
100
AcDbEntity
  8
HEWI
100
AcDbLine
 10
-1399.541435922329
 20
1518.856770160653
 30
0.0
 11
-1398.996439660732
 21
1518.856770160653
 31
0.0
  0
LINE
  5
1B8
330
A
100
AcDbEntity
  8
HEWI
100
AcDbLine
 10
-1476.996436799709
 20
1518.856770160653
 30
0.0
 11
-1476.451435769741
 21
1518.856770160653
 31
0.0
  0
LINE
  5
1B9
330
A
100
AcDbEntity
  8
HEWI
100
AcDbLine
 10
-1399.541435922329
 20
1504.172779682137
 30
0.0
 11
-1398.996439660732
 21
1504.172779682137
 31
0.0
  0
LINE
  5
1BA
330
A
100
AcDbEntity
  8
HEWI
100
AcDbLine
 10
-1476.996436799709
 20
1504.172779682137
 30
0.0
 11
-1476.451435769741
 21
1504.172779682137
 31
0.0
  0
LINE
  5
1BB
330
A
100
AcDbEntity
  8
HEWI
100
AcDbLine
 10
-1399.496432031337
 20
1543.639752033211
 30
0.0
 11
-1398.996439660732
 21
1543.639752033211
 31
0.0
  0
LINE
  5
1BC
330
A
100
AcDbEntity
  8
HEWI
100
AcDbLine
 10
-1476.996436799709
 20
1543.639752033211
 30
0.0
 11
-1476.496437276546
 21
1543.639752033211
 31
0.0
  0
LINE
  5
1BD
330
A
100
AcDbEntity
  8
HEWI
100
AcDbLine
 10
-1399.496432031337
 20
1566.036755207039
 30
0.0
 11
-1398.996439660732
 21
1566.036755207039
 31
0.0
  0
LINE
  5
1BE
330
A
100
AcDbEntity
  8
HEWI
100
AcDbLine
 10
-1476.996436799709
 20
1566.036755207039
 30
0.0
 11
-1476.496437276546
 21
1566.036755207039
 31
0.0
  0
LINE
  5
1C1
330
A
100
AcDbEntity
  8
HEWI
100
AcDbLine
 10
-1427.096434320156
 20
1330.880772235848
 30
0.0
 11
-1401.396437371914
 21
1330.880772235848
 31
0.0
  0
LINE
  5
1C2
330
A
100
AcDbEntity
  8
HEWI
100
AcDbLine
 10
-1474.596436704342
 20
1330.880772235848
 30
0.0
 11
-1448.896437371914
 21
1330.880772235848
 31
0.0
  0
LINE
  5
1C3
330
A
100
AcDbEntity
  8
HEWI
100
AcDbLine
 10
-1448.746433938686
 20
1661.996761920907
 30
0.0
 11
-1427.246437753383
 21
1661.996761920907
 31
0.0
  0
LINE
  5
1C4
330
A
100
AcDbEntity
  8
HEWI
100
AcDbLine
 10
-1448.746433938686
 20
1666.996761920907
 30
0.0
 11
-1427.246437753383
 21
1666.996761920907
 31
0.0
  0
LINE
  5
1C5
330
A
100
AcDbEntity
  8
HEWI
100
AcDbLine
 10
-1402.041435922328
 20
1341.930729511239
 30
0.0
 11
-1399.496432031337
 21
1341.930729511239
 31
0.0
  0
LINE
  5
1C6
330
A
100
AcDbEntity
  8
HEWI
100
AcDbLine
 10
-1476.496437276546
 20
1341.930729511239
 30
0.0
 11
-1473.95143576974
 21
1341.930729511239
 31
0.0
  0
LINE
  5
1C7
330
A
100
AcDbEntity
  8
HEWI
100
AcDbLine
 10
-1402.041435922328
 20
1525.180775287606
 30
0.0
 11
-1399.496432031337
 21
1525.180775287606
 31
0.0
  0
LINE
  5
1C8
330
A
100
AcDbEntity
  8
HEWI
100
AcDbLine
 10
-1476.496437276546
 20
1525.180775287606
 30
0.0
 11
-1473.95143576974
 21
1525.180775287606
 31
0.0
  0
LINE
  5
1C9
330
A
100
AcDbEntity
  8
HEWI
100
AcDbLine
 10
-1476.496437276546
 20
1331.180760028817
 30
0.0
 11
-1399.496432031337
 21
1331.180760028817
 31
0.0
  0
LINE
  5
1CA
330
A
100
AcDbEntity
  8
HEWI
100
AcDbLine
 10
-1449.646435464565
 20
1376.05571425245
 30
0.0
 11
-1426.346436227504
 21
1376.05571425245
 31
0.0
  0
LINE
  5
1CB
330
A
100
AcDbEntity
  8
HEWI
100
AcDbLine
 10
-1449.646435464565
 20
1491.05571425245
 30
0.0
 11
-1426.346436227504
 21
1491.05571425245
 31
0.0
  0
LINE
  5
1CC
330
A
100
AcDbEntity
  8
HEWI
100
AcDbLine
 10
-1435.346646989528
 20
1534.680744770028
 30
0.0
 11
-1399.496432031337
 21
1534.680744770028
 31
0.0
  0
LINE
  5
1CD
330
A
100
AcDbEntity
  8
HEWI
100
AcDbLine
 10
-1476.496437276546
 20
1534.680744770028
 30
0.0
 11
-1440.646215165798
 21
1534.680744770028
 31
0.0
  0
LINE
  5
1CE
330
A
100
AcDbEntity
  8
HEWI
100
AcDbLine
 10
-1434.996433938685
 20
1535.930744770028
 30
0.0
 11
-1433.79316398019
 21
1535.930744770028
 31
0.0
  0
LINE
  5
1CF
330
A
100
AcDbEntity
  8
HEWI
100
AcDbLine
 10
-1442.217484201137
 20
1535.930744770028
 30
0.0
 11
-1440.996437753383
 21
1535.930744770028
 31
0.0
  0
LINE
  5
1D0
330
A
100
AcDbEntity
  8
HEWI
100
AcDbLine
 10
-1453.18335601205
 20
1490.38074171827
 30
0.0
 11
-1422.809506143276
 21
1490.38074171827
 31
0.0
  0
LINE
  5
1D1
330
A
100
AcDbEntity
  8
HEWI
100
AcDbLine
 10
-1450.563417161647
 20
1490.880772235848
 30
0.0
 11
-1425.429459298793
 21
1490.880772235848
 31
0.0
  0
LINE
  5
1ED
330
A
100
AcDbEntity
  8
HEWI
100
AcDbLine
 10
-1427.096434320156
 20
1330.180775287606
 30
0.0
 11
-1427.096434320156
 21
1331.180760028817
 31
0.0
  0
LINE
  5
1EE
330
A
100
AcDbEntity
  8
HEWI
100
AcDbLine
 10
-1448.896437371914
 20
1330.180775287606
 30
0.0
 11
-1448.896437371914
 21
1331.180760028817
 31
0.0
  0
LINE
  5
1EF
330
A
100
AcDbEntity
  8
HEWI
100
AcDbLine
 10
-1456.996436799709
 20
1576.680752399422
 30
0.0
 11
-1456.996436799709
 21
1577.180744770028
 31
0.0
  0
LINE
  5
1F0
330
A
100
AcDbEntity
  8
HEWI
100
AcDbLine
 10
-1418.996439660732
 20
1576.680752399422
 30
0.0
 11
-1418.996439660732
 21
1577.180744770028
 31
0.0
  0
LINE
  5
1F1
330
A
100
AcDbEntity
  8
HEWI
100
AcDbLine
 10
-1476.996436799709
 20
1330.680729511239
 30
0.0
 11
-1476.996436799709
 21
1567.180744770028
 31
0.0
  0
LINE
  5
1F2
330
A
100
AcDbEntity
  8
HEWI
100
AcDbLine
 10
-1478.246436799708
 20
1330.680729511239
 30
0.0
 11
-1478.246436799708
 21
1567.180744770028
 31
0.0
  0
LINE
  5
1F3
330
A
100
AcDbEntity
  8
HEWI
100
AcDbLine
 10
-1397.746439660732
 20
1330.680729511239
 30
0.0
 11
-1397.746439660732
 21
1567.180744770028
 31
0.0
  0
LINE
  5
1F4
330
A
100
AcDbEntity
  8
HEWI
100
AcDbLine
 10
-1398.996439660732
 20
1330.680729511239
 30
0.0
 11
-1398.996439660732
 21
1567.180744770028
 31
0.0
  0
LINE
  5
1F5
330
A
100
AcDbEntity
  8
HEWI
100
AcDbLine
 10
-1468.896437371913
 20
1330.680729511239
 30
0.0
 11
-1468.896437371913
 21
1330.880772235848
 31
0.0
  0
LINE
  5
1F6
330
A
100
AcDbEntity
  8
HEWI
100
AcDbLine
 10
-1407.096434320156
 20
1330.680729511239
 30
0.0
 11
-1407.096434320156
 21
1330.880772235848
 31
0.0
  0
LINE
  5
1FD
330
A
100
AcDbEntity
  8
HEWI
100
AcDbLine
 10
-1399.396439279262
 20
1332.88074171827
 30
0.0
 11
-1399.396439279262
 21
1358.880726459481
 31
0.0
  0
LINE
  5
1FE
330
A
100
AcDbEntity
  8
HEWI
100
AcDbLine
 10
-1476.596437181179
 20
1332.88074171827
 30
0.0
 11
-1476.596437181179
 21
1358.880726459481
 31
0.0
  0
LINE
  5
1FF
330
A
100
AcDbEntity
  8
HEWI
100
AcDbLine
 10
-1427.246437753383
 20
1663.576733234383
 30
0.0
 11
-1427.246437753383
 21
1666.051746967293
 31
0.0
  0
LINE
  5
200
330
A
100
AcDbEntity
  8
HEWI
100
AcDbLine
 10
-1427.246437753383
 20
1661.996761920907
 30
0.0
 11
-1427.246437753383
 21
1662.17273390577
 31
0.0
  0
LINE
  5
201
330
A
100
AcDbEntity
  8
HEWI
100
AcDbLine
 10
-1448.746433938686
 20
1661.996761920907
 30
0.0
 11
-1448.746433938686
 21
1666.996761920907
 31
0.0
  0
LINE
  5
202
330
A
100
AcDbEntity
  8
HEWI
100
AcDbLine
 10
-1417.246437753383
 20
1578.430744770028
 30
0.0
 11
-1417.246437753383
 21
1660.065075519539
 31
0.0
  0
LINE
  5
203
330
A
100
AcDbEntity
  8
HEWI
100
AcDbLine
 10
-1417.246437753383
 20
1576.680752399422
 30
0.0
 11
-1417.246437753383
 21
1577.180744770028
 31
0.0
  0
LINE
  5
204
330
A
100
AcDbEntity
  8
HEWI
100
AcDbLine
 10
-1463.746433938686
 20
1578.430744770028
 30
0.0
 11
-1463.746433938686
 21
1660.696751239754
 31
0.0
  0
LINE
  5
205
330
A
100
AcDbEntity
  8
HEWI
100
AcDbLine
 10
-1463.746433938686
 20
1576.680752399422
 30
0.0
 11
-1463.746433938686
 21
1577.180744770028
 31
0.0
  0
LINE
  5
206
330
A
100
AcDbEntity
  8
HEWI
100
AcDbLine
 10
-1458.746433938686
 20
1578.430744770028
 30
0.0
 11
-1458.746433938686
 21
1660.085140827157
 31
0.0
  0
LINE
  5
207
330
A
100
AcDbEntity
  8
HEWI
100
AcDbLine
 10
-1458.746433938686
 20
1576.680752399422
 30
0.0
 11
-1458.746433938686
 21
1577.180744770028
 31
0.0
  0
LINE
  5
208
330
A
100
AcDbEntity
  8
HEWI
100
AcDbLine
 10
-1412.246437753383
 20
1578.430744770028
 30
0.0
 11
-1412.246437753383
 21
1660.696751239754
 31
0.0
  0
LINE
  5
209
330
A
100
AcDbEntity
  8
HEWI
100
AcDbLine
 10
-1412.246437753383
 20
1576.680752399422
 30
0.0
 11
-1412.246437753383
 21
1577.180744770028
 31
0.0
  0
LINE
  5
20A
330
A
100
AcDbEntity
  8
HEWI
100
AcDbLine
 10
-1399.496432031337
 20
1525.180775287606
 30
0.0
 11
-1399.496432031337
 21
1566.680752399422
 31
0.0
  0
LINE
  5
20B
330
A
100
AcDbEntity
  8
HEWI
100
AcDbLine
 10
-1399.496432031337
 20
1331.180760028817
 30
0.0
 11
-1399.496432031337
 21
1346.430775287606
 31
0.0
  0
LINE
  5
20C
330
A
100
AcDbEntity
  8
HEWI
100
AcDbLine
 10
-1476.496437276546
 20
1525.180775287606
 30
0.0
 11
-1476.496437276546
 21
1566.680752399422
 31
0.0
  0
LINE
  5
20D
330
A
100
AcDbEntity
  8
HEWI
100
AcDbLine
 10
-1476.496437276546
 20
1331.180760028817
 30
0.0
 11
-1476.496437276546
 21
1346.430775287606
 31
0.0
  0
LINE
  5
20E
330
A
100
AcDbEntity
  8
HEWI
100
AcDbLine
 10
-1416.496439660732
 20
1385.905720355965
 30
0.0
 11
-1416.496439660732
 21
1481.205784442879
 31
0.0
  0
LINE
  5
20F
330
A
100
AcDbEntity
  8
HEWI
100
AcDbLine
 10
-1459.496436799709
 20
1385.905720355965
 30
0.0
 11
-1459.496436799709
 21
1481.205784442879
 31
0.0
  0
LINE
  5
210
330
A
100
AcDbEntity
  8
HEWI
100
AcDbLine
 10
-1433.496437753383
 20
1534.680744770028
 30
0.0
 11
-1433.496437753383
 21
1535.316731098153
 31
0.0
  0
LINE
  5
211
330
A
100
AcDbEntity
  8
HEWI
100
AcDbLine
 10
-1442.496433938686
 20
1534.680744770028
 30
0.0
 11
-1442.496433938686
 21
1535.316731098153
 31
0.0
  0
LINE
  5
212
330
A
100
AcDbEntity
  8
HEWI
100
AcDbLine
 10
-1399.541435922329
 20
1341.930729511239
 30
0.0
 11
-1399.541435922329
 21
1525.180775287606
 31
0.0
  0
LINE
  5
213
330
A
100
AcDbEntity
  8
HEWI
100
AcDbLine
 10
-1476.451435769741
 20
1341.930729511239
 30
0.0
 11
-1476.451435769741
 21
1525.180775287606
 31
0.0
  0
LINE
  5
214
330
A
100
AcDbEntity
  8
HEWI
100
AcDbLine
 10
-1435.496435846035
 20
1530.666767719247
 30
0.0
 11
-1435.496435846035
 21
1534.679752948739
 31
0.0
  0
LINE
  5
215
330
A
100
AcDbEntity
  8
HEWI
100
AcDbLine
 10
-1440.496435846035
 20
1530.666767719247
 30
0.0
 11
-1440.496435846035
 21
1534.679752948739
 31
0.0
  0
LINE
  5
216
330
A
100
AcDbEntity
  8
HEWI
100
AcDbLine
 10
-1434.996433938685
 20
1535.429760578133
 30
0.0
 11
-1434.996433938685
 21
1537.030827167489
 31
0.0
  0
LINE
  5
217
330
A
100
AcDbEntity
  8
HEWI
100
AcDbLine
 10
-1440.996437753383
 20
1535.429760578133
 30
0.0
 11
-1440.996437753383
 21
1537.03056013868
 31
0.0
  0
LINE
  5
219
330
A
100
AcDbEntity
  8
HEWI
100
AcDbLine
 10
-1430.615435327236
 20
1325.21472609327
 30
0.0
 11
-1430.507436479274
 21
1325.308720233895
 31
0.0
  0
LINE
  5
21A
330
A
100
AcDbEntity
  8
HEWI
100
AcDbLine
 10
-1416.86143943185
 20
1659.426762226082
 30
0.0
 11
-1416.459437097255
 21
1658.961750629403
 31
0.0
  0
LINE
  5
21C
330
A
100
AcDbEntity
  8
HEWI
100
AcDbLine
 10
-1442.13843413705
 20
1536.104733112313
 30
0.0
 11
-1441.12443515176
 21
1536.971737506844
 31
0.0
  0
LINE
  5
21E
330
A
100
AcDbEntity
  8
HEWI
100
AcDbLine
 10
-1445.43743678445
 20
1325.255772235848
 30
0.0
 11
-1445.371437753383
 21
1325.308720233895
 31
0.0
  0
LINE
  5
21F
330
A
100
AcDbEntity
  8
HEWI
100
AcDbLine
 10
-1440.320435250942
 20
1531.126743915536
 30
0.0
 11
-1439.764438356105
 21
1531.55074751661
 31
0.0
  0
LINE
  5
220
330
A
100
AcDbEntity
  8
HEWI
100
AcDbLine
 10
-1436.228438104335
 20
1529.782749774911
 30
0.0
 11
-1435.672436441127
 21
1530.206753375985
 31
0.0
  0
LINE
  5
223
330
A
100
AcDbEntity
  8
HEWI
100
AcDbLine
 10
-1439.856434549037
 20
1531.034733417489
 30
0.0
 11
-1439.410434449855
 21
1531.373745563485
 31
0.0
  0
LINE
  5
224
330
A
100
AcDbEntity
  8
HEWI
100
AcDbLine
 10
-1436.582437242214
 20
1529.959751728036
 30
0.0
 11
-1436.136437143032
 21
1530.298763874032
 31
0.0
  0
LINE
  5
227
330
A
100
AcDbEntity
  8
HEWI
100
AcDbLine
 10
-1431.787934983913
 20
1324.768635395028
 30
0.0
 11
-1431.771436418239
 21
1324.780766132332
 31
0.0
  0
LINE
  5
229
330
A
100
AcDbEntity
  8
HEWI
100
AcDbLine
 10
-1440.785437310878
 20
1534.877735736825
 30
0.0
 11
-1440.496435846035
 21
1534.46880018995
 31
0.0
  0
LINE
  5
22B
330
A
100
AcDbEntity
  8
HEWI
100
AcDbLine
 10
-1448.896437371914
 20
1330.180775287606
 30
0.0
 11
-1445.485435212795
 21
1325.308720233895
 31
0.0
  0
LINE
  5
22D
330
A
100
AcDbEntity
  8
HEWI
100
AcDbLine
 10
-1413.980437005703
 20
1663.977734210946
 30
0.0
 11
-1413.462439264003
 21
1663.23173201368
 31
0.0
  0
LINE
  5
22F
330
A
100
AcDbEntity
  8
HEWI
100
AcDbLine
 10
-1413.536434854213
 20
1658.611752155282
 30
0.0
 11
-1413.075438226406
 21
1658.924748065926
 31
0.0
  0
LINE
  5
231
330
A
100
AcDbEntity
  8
HEWI
100
AcDbLine
 10
-1412.975750650112
 20
1659.03121626661
 30
0.0
 11
-1412.925434793178
 21
1659.064747455575
 31
0.0
  0
LINE
  5
232
330
A
100
AcDbEntity
  8
HEWI
100
AcDbLine
 10
-1413.761435235683
 20
1658.507763507821
 30
0.0
 11
-1413.703604425136
 21
1658.546291950204
 31
0.0
  0
LINE
  5
233
330
A
100
AcDbEntity
  8
HEWI
100
AcDbLine
 10
-1400.660439218227
 20
1331.020771625497
 30
0.0
 11
-1400.417204583828
 21
1331.180760028817
 31
0.0
  0
LINE
  5
238
330
A
100
AcDbEntity
  8
HEWI
100
AcDbLine
 10
-1474.067435945217
 20
1574.251743915536
 30
0.0
 11
-1470.677436078731
 21
1576.478764179207
 31
0.0
  0
LINE
  5
23B
330
A
100
AcDbEntity
  8
HEWI
100
AcDbLine
 10
-1401.925440515224
 20
1574.251743915536
 30
0.0
 11
-1399.698439325038
 21
1570.861736896493
 31
0.0
  0
LINE
  5
23C
330
A
100
AcDbEntity
  8
HEWI
100
AcDbLine
 10
-1402.425432885829
 20
1573.75175154493
 30
0.0
 11
-1400.198431695644
 21
1570.361744525887
 31
0.0
  0
LINE
  5
23E
330
A
100
AcDbEntity
  8
HEWI
100
AcDbLine
 10
-1473.567436422054
 20
1573.75175154493
 30
0.0
 11
-1470.177436555568
 21
1575.97873366163
 31
0.0
  0
LINE
  5
241
330
A
100
AcDbEntity
  8
HEWI
100
AcDbLine
 10
-1444.20443602914
 20
1324.706761005379
 30
0.0
 11
-1444.160438264552
 21
1324.639774921395
 31
0.0
  0
LINE
  5
243
330
A
100
AcDbEntity
  8
HEWI
100
AcDbLine
 10
-1474.951437200252
 20
1575.135761859872
 30
0.0
 11
-1471.137436116878
 21
1577.64075911329
 31
0.0
  0
LINE
  5
245
330
A
100
AcDbEntity
  8
HEWI
100
AcDbLine
 10
-1401.041432107631
 20
1575.135761859872
 30
0.0
 11
-1398.536434854213
 21
1571.321751239755
 31
0.0
  0
LINE
  5
246
330
A
100
AcDbEntity
  8
HEWI
100
AcDbLine
 10
-1419.381437982265
 20
1488.170735004403
 30
0.0
 11
-1417.188435281459
 21
1484.831730487801
 31
0.0
  0
LINE
  5
247
330
A
100
AcDbEntity
  8
HEWI
100
AcDbLine
 10
-1422.720432962123
 20
1376.747776630379
 30
0.0
 11
-1419.381437982265
 21
1378.940769794442
 31
0.0
  0
LINE
  5
248
330
A
100
AcDbEntity
  8
HEWI
100
AcDbLine
 10
-1458.80443641061
 20
1382.279774311043
 30
0.0
 11
-1456.611438478176
 21
1378.940769794442
 31
0.0
  0
LINE
  5
249
330
A
100
AcDbEntity
  8
HEWI
100
AcDbLine
 10
-1456.611438478176
 20
1488.170735004403
 30
0.0
 11
-1453.272433961574
 21
1490.363728168465
 31
0.0
  0
LINE
  5
24A
330
A
100
AcDbEntity
  8
HEWI
100
AcDbLine
 10
-1399.541435922329
 20
1359.624363544442
 30
0.0
 11
-1399.536438668911
 21
1359.616734149911
 31
0.0
  0
LINE
  5
24C
330
A
100
AcDbEntity
  8
HEWI
100
AcDbLine
 10
-1413.462439264003
 20
1663.23173201368
 30
0.0
 11
-1412.448435510341
 21
1661.634747150399
 31
0.0
  0
LINE
  5
24E
330
A
100
AcDbEntity
  8
HEWI
100
AcDbLine
 10
-1444.120436395351
 20
1324.706761005379
 30
0.0
 11
-1443.998437608425
 21
1324.780766132332
 31
0.0
  0
LINE
  5
24F
330
A
100
AcDbEntity
  8
HEWI
100
AcDbLine
 10
-1430.601435388271
 20
1476.152760150887
 30
0.0
 11
-1428.381434167568
 21
1477.493778827645
 31
0.0
  0
LINE
  5
250
330
A
100
AcDbEntity
  8
HEWI
100
AcDbLine
 10
-1417.303133691494
 20
1660.159107807137
 30
0.0
 11
-1416.86143943185
 21
1659.426762226082
 31
0.0
  0
LINE
  5
251
330
A
100
AcDbEntity
  8
HEWI
100
AcDbLine
 10
-1445.43743678445
 20
1325.255772235848
 30
0.0
 11
-1445.348435128871
 21
1325.308720233895
 31
0.0
  0
LINE
  5
254
330
A
100
AcDbEntity
  8
HEWI
100
AcDbLine
 10
-1462.012434686366
 20
1663.977734210946
 30
0.0
 11
-1461.224437440578
 21
1664.412762287118
 31
0.0
  0
LINE
  5
256
330
A
100
AcDbEntity
  8
HEWI
100
AcDbLine
 10
-1433.886438096706
 20
1536.123768451668
 30
0.0
 11
-1433.496437753383
 21
1535.316731098153
 31
0.0
  0
LINE
  5
257
330
A
100
AcDbEntity
  8
HEWI
100
AcDbLine
 10
-1459.513436044399
 20
1659.777752521493
 30
0.0
 11
-1456.934438432399
 21
1660.971752765633
 31
0.0
  0
LINE
  5
258
330
A
100
AcDbEntity
  8
HEWI
100
AcDbLine
 10
-1461.224437440578
 20
1664.412762287118
 30
0.0
 11
-1458.236437524501
 21
1665.795742633797
 31
0.0
  0
LINE
  5
259
330
A
100
AcDbEntity
  8
HEWI
100
AcDbLine
 10
-1441.12443515176
 20
1536.971737506844
 30
0.0
 11
-1439.690437997524
 21
1537.630764606453
 31
0.0
  0
LINE
  5
25E
330
A
100
AcDbEntity
  8
HEWI
100
AcDbLine
 10
-1431.969438279812
 20
1324.580723407723
 30
0.0
 11
-1431.832438195888
 21
1324.639774921395
 31
0.0
  0
LINE
  5
260
330
A
100
AcDbEntity
  8
HEWI
100
AcDbLine
 10
-1432.974434579555
 20
1475.152775409676
 30
0.0
 11
-1430.601435388271
 21
1476.152760150887
 31
0.0
  0
LINE
  5
264
330
A
100
AcDbEntity
  8
HEWI
100
AcDbLine
 10
-1414.062433923427
 20
1658.405758502938
 30
0.0
 11
-1413.536434854213
 21
1658.611752155282
 31
0.0
  0
LINE
  5
265
330
A
100
AcDbEntity
  8
HEWI
100
AcDbLine
 10
-1435.672436441127
 20
1531.126743915536
 30
0.0
 11
-1435.496435846035
 21
1530.666767719247
 31
0.0
  0
LINE
  5
266
330
A
100
AcDbEntity
  8
HEWI
100
AcDbLine
 10
-1440.496435846035
 20
1530.666767719247
 30
0.0
 11
-1440.320435250942
 21
1530.206753375985
 31
0.0
  0
LINE
  5
268
330
A
100
AcDbEntity
  8
HEWI
100
AcDbLine
 10
-1440.996437753383
 20
1535.429760578133
 30
0.0
 11
-1440.785437310878
 21
1534.877735736825
 31
0.0
  0
LINE
  5
26C
330
A
100
AcDbEntity
  8
HEWI
100
AcDbLine
 10
-1436.136437143032
 20
1531.034733417489
 30
0.0
 11
-1435.996437753383
 21
1530.666767719247
 31
0.0
  0
LINE
  5
26D
330
A
100
AcDbEntity
  8
HEWI
100
AcDbLine
 10
-1439.996433938686
 20
1530.666767719247
 30
0.0
 11
-1439.856434549037
 21
1530.298763874032
 31
0.0
  0
LINE
  5
271
330
A
100
AcDbEntity
  8
HEWI
100
AcDbLine
 10
-1432.200437272731
 20
1324.706761005379
 30
0.0
 11
-1431.985436166469
 21
1324.780766132332
 31
0.0
  0
LINE
  5
274
330
A
100
AcDbEntity
  8
HEWI
100
AcDbLine
 10
-1439.410434449855
 20
1531.373745563485
 30
0.0
 11
-1438.732433999721
 21
1531.596752765633
 31
0.0
  0
LINE
  5
275
330
A
100
AcDbEntity
  8
HEWI
100
AcDbLine
 10
-1437.260437692348
 20
1529.736744525887
 30
0.0
 11
-1436.582437242214
 21
1529.959751728036
 31
0.0
  0
LINE
  5
276
330
A
100
AcDbEntity
  8
HEWI
100
AcDbLine
 10
-1437.076435769741
 20
1529.504734638192
 30
0.0
 11
-1436.228438104335
 21
1529.782749774911
 31
0.0
  0
LINE
  5
277
330
A
100
AcDbEntity
  8
HEWI
100
AcDbLine
 10
-1439.764438356105
 20
1531.55074751661
 30
0.0
 11
-1438.916435922329
 21
1531.828762653329
 31
0.0
  0
LINE
  5
27A
330
A
100
AcDbEntity
  8
HEWI
100
AcDbLine
 10
-1433.381434167568
 20
1324.706761005379
 30
0.0
 11
-1433.110438073818
 21
1324.780766132332
 31
0.0
  0
LINE
  5
27B
330
A
100
AcDbEntity
  8
HEWI
100
AcDbLine
 10
-1435.457435334865
 20
1474.5347181587
 30
0.0
 11
-1432.974434579555
 21
1475.152775409676
 31
0.0
  0
LINE
  5
27C
330
A
100
AcDbEntity
  8
HEWI
100
AcDbLine
 10
-1430.753436769191
 20
1325.180775287606
 30
0.0
 11
-1430.615435327236
 21
1325.21472609327
 31
0.0
  0
LINE
  5
27D
330
A
100
AcDbEntity
  8
HEWI
100
AcDbLine
 10
-1444.22143527383
 20
1324.780766132332
 30
0.0
 11
-1444.20443602914
 21
1324.706761005379
 31
0.0
  0
LINE
  5
27E
330
A
100
AcDbEntity
  8
HEWI
100
AcDbLine
 10
-1412.448435510341
 20
1661.634747150399
 30
0.0
 11
-1412.246437753383
 21
1660.696751239754
 31
0.0
  0
LINE
  5
280
330
A
100
AcDbEntity
  8
HEWI
100
AcDbLine
 10
-1458.236437524501
 20
1665.795742633797
 30
0.0
 11
-1453.686438287441
 21
1666.704746845223
 31
0.0
  0
LINE
  5
281
330
A
100
AcDbEntity
  8
HEWI
100
AcDbLine
 10
-1456.934438432399
 20
1660.971752765633
 30
0.0
 11
-1453.008437837306
 21
1661.755749347664
 31
0.0
  0
LINE
  5
284
330
A
100
AcDbEntity
  8
HEWI
100
AcDbLine
 10
-1414.746437753383
 20
1658.31473982618
 30
0.0
 11
-1414.70287391061
 21
1658.323284748055
 31
0.0
  0
LINE
  5
285
330
A
100
AcDbEntity
  8
HEWI
100
AcDbLine
 10
-1413.842583383266
 20
1658.491856220223
 30
0.0
 11
-1413.761435235683
 21
1658.507763507821
 31
0.0
  0
LINE
  5
287
330
A
100
AcDbEntity
  8
HEWI
100
AcDbLine
 10
-1399.541435922329
 20
1346.666447284676
 30
0.0
 11
-1399.496432031337
 21
1346.430775287606
 31
0.0
  0
LINE
  5
288
330
A
100
AcDbEntity
  8
HEWI
100
AcDbLine
 10
-1426.346436227504
 20
1376.05571425245
 30
0.0
 11
-1422.720432962123
 21
1376.747776630379
 31
0.0
  0
LINE
  5
289
330
A
100
AcDbEntity
  8
HEWI
100
AcDbLine
 10
-1459.496436799709
 20
1385.905720355965
 30
0.0
 11
-1458.80443641061
 21
1382.279774311043
 31
0.0
  0
LINE
  5
28A
330
A
100
AcDbEntity
  8
HEWI
100
AcDbLine
 10
-1417.188435281459
 20
1484.831730487801
 30
0.0
 11
-1416.496439660732
 21
1481.205784442879
 31
0.0
  0
LINE
  5
28B
330
A
100
AcDbEntity
  8
HEWI
100
AcDbLine
 10
-1453.272433961574
 20
1490.363728168465
 30
0.0
 11
-1449.646435464565
 21
1491.05571425245
 31
0.0
  0
LINE
  5
28D
330
A
100
AcDbEntity
  8
HEWI
100
AcDbLine
 10
-1398.536434854213
 20
1571.321751239755
 30
0.0
 11
-1397.746439660732
 21
1567.180744770028
 31
0.0
  0
LINE
  5
28E
330
A
100
AcDbEntity
  8
HEWI
100
AcDbLine
 10
-1471.137436116878
 20
1577.64075911329
 30
0.0
 11
-1466.996436799709
 21
1578.430744770028
 31
0.0
  0
LINE
  5
291
330
A
100
AcDbEntity
  8
HEWI
100
AcDbLine
 10
-1470.177436555568
 20
1575.97873366163
 30
0.0
 11
-1466.49643489236
 21
1576.680752399422
 31
0.0
  0
LINE
  5
294
330
A
100
AcDbEntity
  8
HEWI
100
AcDbLine
 10
-1399.698439325038
 20
1570.861736896493
 30
0.0
 11
-1398.996439660732
 21
1567.180744770028
 31
0.0
  0
LINE
  5
295
330
A
100
AcDbEntity
  8
HEWI
100
AcDbLine
 10
-1400.198431695644
 20
1570.361744525887
 30
0.0
 11
-1399.496432031337
 21
1566.680752399422
 31
0.0
  0
LINE
  5
298
330
A
100
AcDbEntity
  8
HEWI
100
AcDbLine
 10
-1470.677436078731
 20
1576.478764179207
 30
0.0
 11
-1466.996436799709
 21
1577.180744770028
 31
0.0
  0
LINE
  5
29C
330
A
100
AcDbEntity
  8
HEWI
100
AcDbLine
 10
-1476.596437181179
 20
1332.88074171827
 30
0.0
 11
-1476.496437276546
 21
1332.355076435067
 31
0.0
  0
LINE
  5
29D
330
A
100
AcDbEntity
  8
HEWI
100
AcDbLine
 10
-1401.396437371914
 20
1330.880772235848
 30
0.0
 11
-1400.660439218227
 21
1331.020771625497
 31
0.0
  0
LINE
  5
29E
330
A
100
AcDbEntity
  8
HEWI
100
AcDbLine
 10
-1399.536438668911
 20
1359.616734149911
 30
0.0
 11
-1399.396439279262
 21
1358.880726459481
 31
0.0
  0
LINE
  5
2A0
330
A
100
AcDbEntity
  8
HEWI
100
AcDbLine
 10
-1444.532438005153
 20
1325.255772235848
 30
0.0
 11
-1444.229436601345
 21
1325.308720233895
 31
0.0
  0
LINE
  5
2A1
330
A
100
AcDbEntity
  8
HEWI
100
AcDbLine
 10
-1443.561435426418
 20
1325.255772235848
 30
0.0
 11
-1443.246436799709
 21
1325.308720233895
 31
0.0
  0
LINE
  5
2A4
330
A
100
AcDbEntity
  8
HEWI
100
AcDbLine
 10
-1414.61043425912
 20
1658.318745258309
 30
0.0
 11
-1414.062433923427
 21
1658.405758502938
 31
0.0
  0
LINE
  5
2A5
330
A
100
AcDbEntity
  8
HEWI
100
AcDbLine
 10
-1435.592437471095
 20
1324.706761005379
 30
0.0
 11
-1435.083437646572
 21
1324.780766132332
 31
0.0
  0
LINE
  5
2A6
330
A
100
AcDbEntity
  8
HEWI
100
AcDbLine
 10
-1431.401434625331
 20
1325.255772235848
 30
0.0
 11
-1431.036434854213
 21
1325.308720233895
 31
0.0
  0
LINE
  5
2A8
330
A
100
AcDbEntity
  8
HEWI
100
AcDbLine
 10
-1442.411437715236
 20
1325.255772235848
 30
0.0
 11
-1442.041435922329
 21
1325.308720233895
 31
0.0
  0
LINE
  5
2AA
330
A
100
AcDbEntity
  8
HEWI
100
AcDbLine
 10
-1439.690437997524
 20
1537.630764606453
 30
0.0
 11
-1437.995434488002
 21
1537.865749958016
 31
0.0
  0
LINE
  5
2AB
330
A
100
AcDbEntity
  8
HEWI
100
AcDbLine
 10
-1441.435437883083
 20
1324.706761005379
 30
0.0
 11
-1440.833435739223
 21
1324.780766132332
 31
0.0
  0
LINE
  5
2AD
330
A
100
AcDbEntity
  8
HEWI
100
AcDbLine
 10
-1442.52043792123
 20
1324.706761005379
 30
0.0
 11
-1441.893435205165
 21
1324.780766132332
 31
0.0
  0
LINE
  5
2AF
330
A
100
AcDbEntity
  8
HEWI
100
AcDbLine
 10
-1438.916435922329
 20
1531.828762653329
 30
0.0
 11
-1437.996435846035
 21
1531.916767719247
 31
0.0
  0
LINE
  5
2B1
330
A
100
AcDbEntity
  8
HEWI
100
AcDbLine
 10
-1437.996435846035
 20
1529.416767719246
 30
0.0
 11
-1437.076435769741
 21
1529.504734638192
 31
0.0
  0
LINE
  5
2B2
330
A
100
AcDbEntity
  8
HEWI
100
AcDbLine
 10
-1437.996435846035
 20
1529.666744831063
 30
0.0
 11
-1437.260437692348
 21
1529.736744525887
 31
0.0
  0
LINE
  5
2B3
330
A
100
AcDbEntity
  8
HEWI
100
AcDbLine
 10
-1438.732433999721
 20
1531.596752765633
 30
0.0
 11
-1437.996435846035
 21
1531.666752460458
 31
0.0
  0
LINE
  5
2B7
330
A
100
AcDbEntity
  8
HEWI
100
AcDbLine
 10
-1437.996435846035
 20
1474.3247572212
 30
0.0
 11
-1435.457435334865
 21
1474.5347181587
 31
0.0
  0
LINE
  5
2B8
330
A
100
AcDbEntity
  8
HEWI
100
AcDbLine
 10
-1432.349434579555
 20
1325.255772235848
 30
0.0
 11
-1431.694436753932
 21
1325.308720233895
 31
0.0
  0
LINE
  5
2B9
330
A
100
AcDbEntity
  8
HEWI
100
AcDbLine
 10
-1435.852437699977
 20
1325.255772235848
 30
0.0
 11
-1435.181437219326
 21
1325.308720233895
 31
0.0
  0
LINE
  5
2BA
330
A
100
AcDbEntity
  8
HEWI
100
AcDbLine
 10
-1440.019436563198
 20
1325.255772235848
 30
0.0
 11
-1439.297438348476
 21
1325.308720233895
 31
0.0
  0
LINE
  5
2BB
330
A
100
AcDbEntity
  8
HEWI
100
AcDbLine
 10
-1438.583436692897
 20
1324.706761005379
 30
0.0
 11
-1437.442436898891
 21
1324.780766132332
 31
0.0
  0
LINE
  5
2BC
330
A
100
AcDbEntity
  8
HEWI
100
AcDbLine
 10
-1453.008437837306
 20
1661.755749347664
 30
0.0
 11
-1448.746433938686
 21
1662.024761798836
 31
0.0
  0
LINE
  5
2BE
330
A
100
AcDbEntity
  8
HEWI
100
AcDbLine
 10
-1453.686438287441
 20
1666.704746845223
 30
0.0
 11
-1448.746433938686
 21
1666.991764667489
 31
0.0
  0
LINE
  5
2C0
330
A
100
AcDbEntity
  8
HEWI
100
AcDbLine
 10
-1432.630434716884
 20
1324.580723407723
 30
0.0
 11
-1432.305436814968
 21
1324.594761493661
 31
0.0
  0
LINE
  5
2C1
330
A
100
AcDbEntity
  8
HEWI
100
AcDbLine
 10
-1443.768435205165
 20
1324.580723407723
 30
0.0
 11
-1443.219438279811
 21
1324.594761493661
 31
0.0
  0
LINE
  5
2C3
330
A
100
AcDbEntity
  8
HEWI
100
AcDbLine
 10
-1433.299437249843
 20
1324.580723407723
 30
0.0
 11
-1432.305436814968
 21
1324.594761493661
 31
0.0
  0
LINE
  5
2C4
330
A
100
AcDbEntity
  8
HEWI
100
AcDbLine
 10
-1439.708438600246
 20
1324.580723407723
 30
0.0
 11
-1438.572436059658
 21
1324.594761493661
 31
0.0
  0
LINE
  5
2C7
330
A
100
AcDbEntity
  8
HEWI
100
AcDbLine
 10
-1444.20826503152
 20
1325.180775287606
 30
0.0
 11
-1444.205036843959
 21
1324.780766132332
 31
0.0
  0
LINE
  5
2C9
330
A
100
AcDbEntity
  8
HEWI
100
AcDbLine
 10
-1441.170435632411
 20
1325.180775287606
 30
0.0
 11
-1439.985438073818
 21
1325.188786151864
 31
0.0
  0
LINE
  5
2CD
330
A
100
AcDbEntity
  8
HEWI
100
AcDbLine
 10
-1439.985438073818
 20
1325.188786151864
 30
0.0
 11
-1437.996435846035
 21
1325.180775287606
 31
0.0
  0
LINE
  5
2CF
330
A
100
AcDbEntity
  8
HEWI
100
AcDbLine
 10
-1442.33543464059
 20
1325.188786151864
 30
0.0
 11
-1441.170435632411
 21
1325.180775287606
 31
0.0
  0
LINE
  5
2D0
330
A
100
AcDbEntity
  8
HEWI
100
AcDbLine
 10
-1431.788435662929
 20
1324.706761005379
 30
0.0
 11
-1431.784597123806
 21
1325.180775287606
 31
0.0
  0
LINE
  5
2D2
330
A
100
AcDbEntity
  8
HEWI
100
AcDbLine
 10
-1438.572436059658
 20
1324.594761493661
 30
0.0
 11
-1437.362437928859
 21
1324.580723407723
 31
0.0
  0
LINE
  5
2D4
330
A
100
AcDbEntity
  8
HEWI
100
AcDbLine
 10
-1439.985438073818
 20
1325.188786151864
 30
0.0
 11
-1439.479437555019
 21
1325.180775287606
 31
0.0
  0
LINE
  5
2D5
330
A
100
AcDbEntity
  8
HEWI
100
AcDbLine
 10
-1445.309434617702
 20
1325.188786151864
 30
0.0
 11
-1445.016437257472
 21
1325.180775287606
 31
0.0
  0
LINE
  5
2D7
330
A
100
AcDbEntity
  8
HEWI
100
AcDbLine
 10
-1432.305436814968
 20
1324.594761493661
 30
0.0
 11
-1431.969438279812
 21
1324.580723407723
 31
0.0
  0
LINE
  5
2D8
330
A
100
AcDbEntity
  8
HEWI
100
AcDbLine
 10
-1415.140438760463
 20
1658.344761493661
 30
0.0
 11
-1414.61043425912
 21
1658.318745258309
 31
0.0
  0
LINE
  5
2DB
330
A
100
AcDbEntity
  8
HEWI
100
AcDbLine
 10
-1427.246437753383
 20
1666.968762042977
 30
0.0
 11
-1422.306433404628
 21
1666.704746845223
 31
0.0
  0
LINE
  5
2DD
330
A
100
AcDbEntity
  8
HEWI
100
AcDbLine
 10
-1427.246437753383
 20
1662.001759174325
 30
0.0
 11
-1422.984438623134
 21
1661.755749347664
 31
0.0
  0
LINE
  5
2DE
330
A
100
AcDbEntity
  8
HEWI
100
AcDbLine
 10
-1444.010434831325
 20
1324.594761493661
 30
0.0
 11
-1443.768435205165
 21
1324.580723407723
 31
0.0
  0
LINE
  5
2DF
330
A
100
AcDbEntity
  8
HEWI
100
AcDbLine
 10
-1439.706435884182
 20
1324.780766132332
 30
0.0
 11
-1438.583436692897
 21
1324.706761005379
 31
0.0
  0
LINE
  5
2E0
330
A
100
AcDbEntity
  8
HEWI
100
AcDbLine
 10
-1444.011436189357
 20
1324.580723407723
 30
0.0
 11
-1444.010434831325
 21
1324.594761493661
 31
0.0
  0
LINE
  5
2E1
330
A
100
AcDbEntity
  8
HEWI
100
AcDbLine
 10
-1440.760436738674
 20
1325.308720233895
 30
0.0
 11
-1440.019436563198
 21
1325.255772235848
 31
0.0
  0
LINE
  5
2E2
330
A
100
AcDbEntity
  8
HEWI
100
AcDbLine
 10
-1436.572437967006
 20
1325.308720233895
 30
0.0
 11
-1435.852437699977
 21
1325.255772235848
 31
0.0
  0
LINE
  5
2E3
330
A
100
AcDbEntity
  8
HEWI
100
AcDbLine
 10
-1444.229436601345
 20
1325.308720233895
 30
0.0
 11
-1443.561435426418
 21
1325.255772235848
 31
0.0
  0
LINE
  5
2E4
330
A
100
AcDbEntity
  8
HEWI
100
AcDbLine
 10
-1440.535436357204
 20
1474.5347181587
 30
0.0
 11
-1437.996435846035
 21
1474.3247572212
 31
0.0
  0
LINE
  5
2E7
330
A
100
AcDbEntity
  8
HEWI
100
AcDbLine
 10
-1438.732433999721
 20
1529.736744525887
 30
0.0
 11
-1437.996435846035
 21
1529.666744831063
 31
0.0
  0
LINE
  5
2E8
330
A
100
AcDbEntity
  8
HEWI
100
AcDbLine
 10
-1437.996435846035
 20
1531.666752460458
 30
0.0
 11
-1437.260437692348
 21
1531.596752765633
 31
0.0
  0
LINE
  5
2EA
330
A
100
AcDbEntity
  8
HEWI
100
AcDbLine
 10
-1438.916435922329
 20
1529.504734638192
 30
0.0
 11
-1437.996435846035
 21
1529.416767719246
 31
0.0
  0
LINE
  5
2EB
330
A
100
AcDbEntity
  8
HEWI
100
AcDbLine
 10
-1437.996435846035
 20
1531.916767719247
 30
0.0
 11
-1437.076435769741
 21
1531.828762653329
 31
0.0
  0
LINE
  5
2ED
330
A
100
AcDbEntity
  8
HEWI
100
AcDbLine
 10
-1436.252437318508
 20
1324.780766132332
 30
0.0
 11
-1435.592437471095
 21
1324.706761005379
 31
0.0
  0
LINE
  5
2EF
330
A
100
AcDbEntity
  8
HEWI
100
AcDbLine
 10
-1444.935436929409
 20
1325.308720233895
 30
0.0
 11
-1444.532438005153
 21
1325.255772235848
 31
0.0
  0
LINE
  5
2F0
330
A
100
AcDbEntity
  8
HEWI
100
AcDbLine
 10
-1432.305436814968
 20
1324.594761493661
 30
0.0
 11
-1432.199435914699
 21
1324.580723407723
 31
0.0
  0
LINE
  5
2F2
330
A
100
AcDbEntity
  8
HEWI
100
AcDbLine
 10
-1437.995434488002
 20
1537.865749958016
 30
0.0
 11
-1436.302438462917
 21
1537.629734638192
 31
0.0
  0
LINE
  5
2F4
330
A
100
AcDbEntity
  8
HEWI
100
AcDbLine
 10
-1433.846436227504
 20
1325.308720233895
 30
0.0
 11
-1433.481436456386
 21
1325.255772235848
 31
0.0
  0
LINE
  5
2F5
330
A
100
AcDbEntity
  8
HEWI
100
AcDbLine
 10
-1432.708435739223
 20
1325.308720233895
 30
0.0
 11
-1432.349434579555
 21
1325.255772235848
 31
0.0
  0
LINE
  5
2F6
330
A
100
AcDbEntity
  8
HEWI
100
AcDbLine
 10
-1441.893435205165
 20
1324.780766132332
 30
0.0
 11
-1441.435437883083
 21
1324.706761005379
 31
0.0
  0
LINE
  5
2F9
330
A
100
AcDbEntity
  8
HEWI
100
AcDbLine
 10
-1414.828673089687
 20
1658.329464557625
 30
0.0
 11
-1414.746437753383
 21
1658.31473982618
 31
0.0
  0
LINE
  5
2FB
330
A
100
AcDbEntity
  8
HEWI
100
AcDbLine
 10
-1431.694436753932
 20
1325.308720233895
 30
0.0
 11
-1431.401434625331
 21
1325.255772235848
 31
0.0
  0
LINE
  5
2FE
330
A
100
AcDbEntity
  8
HEWI
100
AcDbLine
 10
-1475.332437242214
 20
1331.020771625497
 30
0.0
 11
-1474.596436704342
 21
1330.880772235848
 31
0.0
  0
LINE
  5
2FF
330
A
100
AcDbEntity
  8
HEWI
100
AcDbLine
 10
-1476.596437181179
 20
1358.880726459481
 30
0.0
 11
-1476.456435407344
 21
1359.616734149911
 31
0.0
  0
LINE
  5
300
330
A
100
AcDbEntity
  8
HEWI
100
AcDbLine
 10
-1399.496432031337
 20
1332.355076435067
 30
0.0
 11
-1399.396439279262
 21
1332.88074171827
 31
0.0
  0
LINE
  5
304
330
A
100
AcDbEntity
  8
HEWI
100
AcDbLine
 10
-1408.996439660732
 20
1577.180744770028
 30
0.0
 11
-1405.315437997524
 21
1576.478764179207
 31
0.0
  0
LINE
  5
309
330
A
100
AcDbEntity
  8
HEWI
100
AcDbLine
 10
-1476.996436799709
 20
1567.180744770028
 30
0.0
 11
-1476.294437135402
 21
1570.861736896493
 31
0.0
  0
LINE
  5
30A
330
A
100
AcDbEntity
  8
HEWI
100
AcDbLine
 10
-1476.496437276546
 20
1566.680752399422
 30
0.0
 11
-1475.794435228054
 21
1570.361744525887
 31
0.0
  0
LINE
  5
30C
330
A
100
AcDbEntity
  8
HEWI
100
AcDbLine
 10
-1409.496432031337
 20
1576.680752399422
 30
0.0
 11
-1405.815439904873
 21
1575.97873366163
 31
0.0
  0
LINE
  5
30D
330
A
100
AcDbEntity
  8
HEWI
100
AcDbLine
 10
-1408.996439660732
 20
1578.430744770028
 30
0.0
 11
-1404.855433191005
 21
1577.64075911329
 31
0.0
  0
LINE
  5
310
330
A
100
AcDbEntity
  8
HEWI
100
AcDbLine
 10
-1478.246436799708
 20
1567.180744770028
 30
0.0
 11
-1477.456436837856
 21
1571.321751239755
 31
0.0
  0
LINE
  5
311
330
A
100
AcDbEntity
  8
HEWI
100
AcDbLine
 10
-1426.346436227504
 20
1491.05571425245
 30
0.0
 11
-1422.720432962123
 21
1490.363728168465
 31
0.0
  0
LINE
  5
312
330
A
100
AcDbEntity
  8
HEWI
100
AcDbLine
 10
-1417.188435281459
 20
1382.279774311043
 30
0.0
 11
-1416.496439660732
 21
1385.905720355965
 31
0.0
  0
LINE
  5
313
330
A
100
AcDbEntity
  8
HEWI
100
AcDbLine
 10
-1459.496436799709
 20
1481.205784442879
 30
0.0
 11
-1458.80443641061
 21
1484.831730487801
 31
0.0
  0
LINE
  5
314
330
A
100
AcDbEntity
  8
HEWI
100
AcDbLine
 10
-1453.272433961574
 20
1376.747776630379
 30
0.0
 11
-1449.646435464565
 21
1376.05571425245
 31
0.0
  0
LINE
  5
315
330
A
100
AcDbEntity
  8
HEWI
100
AcDbLine
 10
-1476.496437276546
 20
1346.430775287606
 30
0.0
 11
-1476.451435769741
 21
1346.666447284676
 31
0.0
  0
LINE
  5
318
330
A
100
AcDbEntity
  8
HEWI
100
AcDbLine
 10
-1463.746433938686
 20
1660.696751239754
 30
0.0
 11
-1463.584438050929
 21
1661.540753009774
 31
0.0
  0
LINE
  5
31B
330
A
100
AcDbEntity
  8
HEWI
100
AcDbLine
 10
-1422.984438623134
 20
1661.755749347664
 30
0.0
 11
-1419.058438028041
 21
1660.971752765633
 31
0.0
  0
LINE
  5
31C
330
A
100
AcDbEntity
  8
HEWI
100
AcDbLine
 10
-1422.306433404628
 20
1666.704746845223
 30
0.0
 11
-1417.756434167568
 21
1665.795742633797
 31
0.0
  0
LINE
  5
31E
330
A
100
AcDbEntity
  8
HEWI
100
AcDbLine
 10
-1463.554244722072
 20
1661.589161518075
 30
0.0
 11
-1463.544436181727
 21
1661.634747150399
 31
0.0
  0
LINE
  5
31F
330
A
100
AcDbEntity
  8
HEWI
100
AcDbLine
 10
-1431.788435662929
 20
1324.706761005379
 30
0.0
 11
-1431.771436418239
 21
1324.780766132332
 31
0.0
  0
LINE
  5
321
330
A
100
AcDbEntity
  8
HEWI
100
AcDbLine
 10
-1443.018437112514
 20
1475.152775409676
 30
0.0
 11
-1440.535436357204
 21
1474.5347181587
 31
0.0
  0
LINE
  5
322
330
A
100
AcDbEntity
  8
HEWI
100
AcDbLine
 10
-1432.427435601894
 20
1324.780766132332
 30
0.0
 11
-1432.200437272731
 21
1324.706761005379
 31
0.0
  0
LINE
  5
325
330
A
100
AcDbEntity
  8
HEWI
100
AcDbLine
 10
-1439.764438356105
 20
1529.782749774911
 30
0.0
 11
-1438.916435922329
 21
1529.504734638192
 31
0.0
  0
LINE
  5
326
330
A
100
AcDbEntity
  8
HEWI
100
AcDbLine
 10
-1437.076435769741
 20
1531.828762653329
 30
0.0
 11
-1436.228438104335
 21
1531.55074751661
 31
0.0
  0
LINE
  5
327
330
A
100
AcDbEntity
  8
HEWI
100
AcDbLine
 10
-1439.410434449855
 20
1529.959751728036
 30
0.0
 11
-1438.732433999721
 21
1529.736744525887
 31
0.0
  0
LINE
  5
328
330
A
100
AcDbEntity
  8
HEWI
100
AcDbLine
 10
-1437.260437692348
 20
1531.596752765633
 30
0.0
 11
-1436.582437242214
 21
1531.373745563485
 31
0.0
  0
LINE
  5
32B
330
A
100
AcDbEntity
  8
HEWI
100
AcDbLine
 10
-1443.526435579006
 20
1324.780766132332
 30
0.0
 11
-1443.315435136501
 21
1324.706761005379
 31
0.0
  0
LINE
  5
32D
330
A
100
AcDbEntity
  8
HEWI
100
AcDbLine
 10
-1415.364304269496
 20
1658.425213458993
 30
0.0
 11
-1415.140438760463
 21
1658.344761493661
 31
0.0
  0
LINE
  5
32E
330
A
100
AcDbEntity
  8
HEWI
100
AcDbLine
 10
-1416.083431924526
 20
1658.683735492684
 30
0.0
 11
-1415.364304269496
 21
1658.425213458993
 31
0.0
  0
LINE
  5
330
330
A
100
AcDbEntity
  8
HEWI
100
AcDbLine
 10
-1431.985436166469
 20
1324.780766132332
 30
0.0
 11
-1431.788435662929
 21
1324.706761005379
 31
0.0
  0
LINE
  5
333
330
A
100
AcDbEntity
  8
HEWI
100
AcDbLine
 10
-1436.136437143032
 20
1530.298763874032
 30
0.0
 11
-1435.996437753383
 21
1530.666767719247
 31
0.0
  0
LINE
  5
334
330
A
100
AcDbEntity
  8
HEWI
100
AcDbLine
 10
-1439.996433938686
 20
1530.666767719247
 30
0.0
 11
-1439.856434549037
 21
1531.034733417489
 31
0.0
  0
LINE
  5
337
330
A
100
AcDbEntity
  8
HEWI
100
AcDbLine
 10
-1435.207434381191
 20
1534.877735736825
 30
0.0
 11
-1434.996433938685
 21
1535.429760578133
 31
0.0
  0
LINE
  5
339
330
A
100
AcDbEntity
  8
HEWI
100
AcDbLine
 10
-1435.672436441127
 20
1530.206753375985
 30
0.0
 11
-1435.496435846035
 21
1530.666767719247
 31
0.0
  0
LINE
  5
33A
330
A
100
AcDbEntity
  8
HEWI
100
AcDbLine
 10
-1440.496435846035
 20
1530.666767719247
 30
0.0
 11
-1440.320435250942
 21
1531.126743915536
 31
0.0
  0
LINE
  5
33C
330
A
100
AcDbEntity
  8
HEWI
100
AcDbLine
 10
-1445.391436303798
 20
1476.152760150887
 30
0.0
 11
-1443.018437112514
 21
1475.152775409676
 31
0.0
  0
LINE
  5
33D
330
A
100
AcDbEntity
  8
HEWI
100
AcDbLine
 10
-1444.160438264552
 20
1324.639774921395
 30
0.0
 11
-1444.023438180629
 21
1324.580723407723
 31
0.0
  0
LINE
  5
33F
330
A
100
AcDbEntity
  8
HEWI
100
AcDbLine
 10
-1442.496433938686
 20
1535.316731098153
 30
0.0
 11
-1442.13843413705
 21
1536.104733112313
 31
0.0
  0
LINE
  5
343
330
A
100
AcDbEntity
  8
HEWI
100
AcDbLine
 10
-1436.302438462917
 20
1537.629734638192
 30
0.0
 11
-1434.865437234584
 21
1536.970745685555
 31
0.0
  0
LINE
  5
344
330
A
100
AcDbEntity
  8
HEWI
100
AcDbLine
 10
-1417.756434167568
 20
1665.795742633797
 30
0.0
 11
-1414.768439019863
 21
1664.412762287118
 31
0.0
  0
LINE
  5
345
330
A
100
AcDbEntity
  8
HEWI
100
AcDbLine
 10
-1419.058438028041
 20
1660.971752765633
 30
0.0
 11
-1416.47943564767
 21
1659.777752521493
 31
0.0
  0
LINE
  5
347
330
A
100
AcDbEntity
  8
HEWI
100
AcDbLine
 10
-1445.43743678445
 20
1325.255772235848
 30
0.0
 11
-1445.309434617702
 21
1325.188786151864
 31
0.0
  0
LINE
  5
348
330
A
100
AcDbEntity
  8
HEWI
100
AcDbLine
 10
-1414.768439019863
 20
1664.412762287118
 30
0.0
 11
-1413.980437005703
 21
1663.977734210946
 31
0.0
  0
LINE
  5
34A
330
A
100
AcDbEntity
  8
HEWI
100
AcDbLine
 10
-1412.708435739223
 20
1659.316746356942
 30
0.0
 11
-1412.45244094247
 21
1659.750744464852
 31
0.0
  0
LINE
  5
34C
330
A
100
AcDbEntity
  8
HEWI
100
AcDbLine
 10
-1415.86799689645
 20
1658.606297138192
 30
0.0
 11
-1415.652437890712
 21
1658.476750019051
 31
0.0
  0
LINE
  5
34D
330
A
100
AcDbEntity
  8
HEWI
100
AcDbLine
 10
-1447.611437524501
 20
1477.493778827645
 30
0.0
 11
-1445.391436303798
 21
1476.152760150887
 31
0.0
  0
LINE
  5
34E
330
A
100
AcDbEntity
  8
HEWI
100
AcDbLine
 10
-1458.948436464015
 20
1659.757763507821
 30
0.0
 11
-1458.705235208217
 21
1660.151936176278
 31
0.0
  0
LINE
  5
350
330
A
100
AcDbEntity
  8
HEWI
100
AcDbLine
 10
-1463.584438050929
 20
1661.540753009774
 30
0.0
 11
-1462.530437196437
 21
1663.23173201368
 31
0.0
  0
LINE
  5
353
330
A
100
AcDbEntity
  8
HEWI
100
AcDbLine
 10
-1476.456435407344
 20
1359.616734149911
 30
0.0
 11
-1476.451435769741
 21
1359.624363544442
 31
0.0
  0
LINE
  5
354
330
A
100
AcDbEntity
  8
HEWI
100
AcDbLine
 10
-1456.611438478176
 20
1378.940769794442
 30
0.0
 11
-1453.272433961574
 21
1376.747776630379
 31
0.0
  0
LINE
  5
355
330
A
100
AcDbEntity
  8
HEWI
100
AcDbLine
 10
-1458.80443641061
 20
1484.831730487801
 30
0.0
 11
-1456.611438478176
 21
1488.170735004403
 31
0.0
  0
LINE
  5
356
330
A
100
AcDbEntity
  8
HEWI
100
AcDbLine
 10
-1422.720432962123
 20
1490.363728168465
 30
0.0
 11
-1419.381437982265
 21
1488.170735004403
 31
0.0
  0
LINE
  5
357
330
A
100
AcDbEntity
  8
HEWI
100
AcDbLine
 10
-1419.381437982265
 20
1378.940769794442
 30
0.0
 11
-1417.188435281459
 21
1382.279774311043
 31
0.0
  0
LINE
  5
358
330
A
100
AcDbEntity
  8
HEWI
100
AcDbLine
 10
-1477.456436837856
 20
1571.321751239755
 30
0.0
 11
-1474.951437200252
 21
1575.135761859872
 31
0.0
  0
LINE
  5
359
330
A
100
AcDbEntity
  8
HEWI
100
AcDbLine
 10
-1404.855433191005
 20
1577.64075911329
 30
0.0
 11
-1401.041432107631
 21
1575.135761859872
 31
0.0
  0
LINE
  5
35D
330
A
100
AcDbEntity
  8
HEWI
100
AcDbLine
 10
-1431.832438195888
 20
1324.639774921395
 30
0.0
 11
-1431.788435662929
 21
1324.706761005379
 31
0.0
  0
LINE
  5
35E
330
A
100
AcDbEntity
  8
HEWI
100
AcDbLine
 10
-1405.815439904873
 20
1575.97873366163
 30
0.0
 11
-1402.425432885829
 21
1573.75175154493
 31
0.0
  0
LINE
  5
361
330
A
100
AcDbEntity
  8
HEWI
100
AcDbLine
 10
-1475.794435228054
 20
1570.361744525887
 30
0.0
 11
-1473.567436422054
 21
1573.75175154493
 31
0.0
  0
LINE
  5
363
330
A
100
AcDbEntity
  8
HEWI
100
AcDbLine
 10
-1476.294437135402
 20
1570.861736896493
 30
0.0
 11
-1474.067435945217
 21
1574.251743915536
 31
0.0
  0
LINE
  5
369
330
A
100
AcDbEntity
  8
HEWI
100
AcDbLine
 10
-1405.315437997524
 20
1576.478764179207
 30
0.0
 11
-1401.925440515224
 21
1574.251743915536
 31
0.0
  0
LINE
  5
36A
330
A
100
AcDbEntity
  8
HEWI
100
AcDbLine
 10
-1475.575667108242
 20
1331.180760028817
 30
0.0
 11
-1475.332437242214
 21
1331.020771625497
 31
0.0
  0
LINE
  5
36B
330
A
100
AcDbEntity
  8
HEWI
100
AcDbLine
 10
-1412.925434793178
 20
1659.064747455575
 30
0.0
 11
-1412.872534478847
 21
1659.141461017586
 31
0.0
  0
LINE
  5
36D
330
A
100
AcDbEntity
  8
HEWI
100
AcDbLine
 10
-1462.530437196437
 20
1663.23173201368
 30
0.0
 11
-1462.012434686366
 21
1663.977734210946
 31
0.0
  0
LINE
  5
36E
330
A
100
AcDbEntity
  8
HEWI
100
AcDbLine
 10
-1430.507436479274
 20
1325.308720233895
 30
0.0
 11
-1427.096434320156
 21
1330.180775287606
 31
0.0
  0
LINE
  5
371
330
A
100
AcDbEntity
  8
HEWI
100
AcDbLine
 10
-1435.496435846035
 20
1534.46880018995
 30
0.0
 11
-1435.207434381191
 21
1534.877735736825
 31
0.0
  0
LINE
  5
372
330
A
100
AcDbEntity
  8
HEWI
100
AcDbLine
 10
-1444.22143527383
 20
1324.780766132332
 30
0.0
 11
-1444.120436395351
 21
1324.706761005379
 31
0.0
  0
LINE
  5
374
330
A
100
AcDbEntity
  8
HEWI
100
AcDbLine
 10
-1463.544436181727
 20
1661.634747150399
 30
0.0
 11
-1463.422036851589
 21
1661.801296833016
 31
0.0
  0
LINE
  5
375
330
A
100
AcDbEntity
  8
HEWI
100
AcDbLine
 10
-1416.459437097255
 20
1658.961750629403
 30
0.0
 11
-1416.083431924526
 21
1658.683735492684
 31
0.0
  0
LINE
  5
379
330
A
100
AcDbEntity
  8
HEWI
100
AcDbLine
 10
-1439.856434549037
 20
1530.298763874032
 30
0.0
 11
-1439.410434449855
 21
1529.959751728036
 31
0.0
  0
LINE
  5
37A
330
A
100
AcDbEntity
  8
HEWI
100
AcDbLine
 10
-1436.582437242214
 20
1531.373745563485
 30
0.0
 11
-1436.136437143032
 21
1531.034733417489
 31
0.0
  0
LINE
  5
37D
330
A
100
AcDbEntity
  8
HEWI
100
AcDbLine
 10
-1436.228438104335
 20
1531.55074751661
 30
0.0
 11
-1435.672436441127
 21
1531.126743915536
 31
0.0
  0
LINE
  5
37E
330
A
100
AcDbEntity
  8
HEWI
100
AcDbLine
 10
-1440.320435250942
 20
1530.206753375985
 30
0.0
 11
-1439.764438356105
 21
1529.782749774911
 31
0.0
  0
LINE
  5
381
330
A
100
AcDbEntity
  8
HEWI
100
AcDbLine
 10
-1434.865437234584
 20
1536.970745685555
 30
0.0
 11
-1433.886438096706
 21
1536.123768451668
 31
0.0
  0
LINE
  5
383
330
A
100
AcDbEntity
  8
HEWI
100
AcDbLine
 10
-1444.023438180629
 20
1324.580723407723
 30
0.0
 11
-1444.010434831325
 21
1324.594761493661
 31
0.0
  0
LINE
  5
386
330
A
100
AcDbEntity
  8
HEWI
100
AcDbLine
 10
-1413.075438226406
 20
1658.924748065926
 30
0.0
 11
-1412.708435739223
 21
1659.316746356942
 31
0.0
  0
LINE
  5
39E
330
A
100
AcDbEntity
  8
HEWI
100
AcDbLine
 10
-1219.705428764864
 20
1325.219799640633
 30
0.0
 11
-1214.855422661349
 21
1325.219799640633
 31
0.0
  0
LINE
  5
39F
330
A
100
AcDbEntity
  8
HEWI
100
AcDbLine
 10
-1226.694411919161
 20
1325.219799640633
 30
0.0
 11
-1224.491500542208
 21
1325.219799640633
 31
0.0
  0
LINE
  5
3A0
330
A
100
AcDbEntity
  8
HEWI
100
AcDbLine
 10
-1229.18937651877
 20
1325.219799640633
 30
0.0
 11
-1228.608474419161
 21
1325.219799640633
 31
0.0
  0
LINE
  5
3A1
330
A
100
AcDbEntity
  8
HEWI
100
AcDbLine
 10
-1229.586410210177
 20
1325.347820880868
 30
0.0
 11
-1214.609450981661
 21
1325.347820880868
 31
0.0
  0
LINE
  5
3A2
330
A
100
AcDbEntity
  8
HEWI
100
AcDbLine
 10
-1216.211471245333
 20
1325.227810504891
 30
0.0
 11
-1215.060500786349
 21
1325.227810504891
 31
0.0
  0
LINE
  5
3A3
330
A
100
AcDbEntity
  8
HEWI
100
AcDbLine
 10
-1229.41139189963
 20
1325.227810504891
 30
0.0
 11
-1226.860427544161
 21
1325.227810504891
 31
0.0
  0
LINE
  5
3A4
330
A
100
AcDbEntity
  8
HEWI
100
AcDbLine
 10
-1228.125381157442
 20
1324.619747760751
 30
0.0
 11
-1216.081466362521
 21
1324.619747760751
 31
0.0
  0
LINE
  5
3A5
330
A
100
AcDbEntity
  8
HEWI
100
AcDbLine
 10
-1215.890121147677
 20
1324.81979048536
 30
0.0
 11
-1215.873489067599
 21
1324.81979048536
 31
0.0
  0
LINE
  5
3A6
330
A
100
AcDbEntity
  8
HEWI
100
AcDbLine
 10
-1221.544418022677
 20
1324.81979048536
 30
0.0
 11
-1216.087417290255
 21
1324.81979048536
 31
0.0
  0
LINE
  5
3A7
330
A
100
AcDbEntity
  8
HEWI
100
AcDbLine
 10
-1228.323440239474
 20
1324.81979048536
 30
0.0
 11
-1223.80836455588
 21
1324.81979048536
 31
0.0
  0
LINE
  5
3A8
330
A
100
AcDbEntity
  8
HEWI
100
AcDbLine
 10
-1220.944442436739
 20
1324.633785846688
 30
0.0
 11
-1218.901443169161
 21
1324.633785846688
 31
0.0
  0
LINE
  5
3A9
330
A
100
AcDbEntity
  8
HEWI
100
AcDbLine
 10
-1247.24845855002
 20
1578.469769123055
 30
0.0
 11
-1084.248428032442
 21
1578.469769123055
 31
0.0
  0
LINE
  5
3AA
330
A
100
AcDbEntity
  8
HEWI
100
AcDbLine
 10
-1248.49845855002
 20
1567.219769123055
 30
0.0
 11
-1246.248397514864
 21
1567.219769123055
 31
0.0
  0
LINE
  5
3AB
330
A
100
AcDbEntity
  8
HEWI
100
AcDbLine
 10
-1248.49845855002
 20
1330.719753864266
 30
0.0
 11
-1177.24845855002
 21
1330.719753864266
 31
0.0
  0
LINE
  5
3AC
330
A
100
AcDbEntity
  8
HEWI
100
AcDbLine
 10
-1156.398391411348
 20
1534.21977675245
 30
0.0
 11
-1095.248412773653
 21
1534.21977675245
 31
0.0
  0
LINE
  5
3AD
330
A
100
AcDbEntity
  8
HEWI
100
AcDbLine
 10
-1248.49845855002
 20
1537.219769123055
 30
0.0
 11
-1248.47145049338
 21
1537.219769123055
 31
0.0
  0
LINE
  5
3AE
330
A
100
AcDbEntity
  8
HEWI
100
AcDbLine
 10
-1250.99845855002
 20
1530.969769123055
 30
0.0
 11
-1248.49845855002
 21
1530.969769123055
 31
0.0
  0
LINE
  5
3AF
330
A
100
AcDbEntity
  8
HEWI
100
AcDbLine
 10
-1250.99845855002
 20
1552.219769123055
 30
0.0
 11
-1250.464400932833
 21
1552.219769123055
 31
0.0
  0
LINE
  5
3B0
330
A
100
AcDbEntity
  8
HEWI
100
AcDbLine
 10
-1250.464400932833
 20
1543.678776386239
 30
0.0
 11
-1246.498489067598
 21
1543.678776386239
 31
0.0
  0
LINE
  5
3B1
330
A
100
AcDbEntity
  8
HEWI
100
AcDbLine
 10
-1250.798415825411
 20
1552.31979048536
 30
0.0
 11
-1248.49845855002
 21
1552.31979048536
 31
0.0
  0
LINE
  5
3B2
330
A
100
AcDbEntity
  8
HEWI
100
AcDbLine
 10
-1250.464400932833
 20
1562.219769123055
 30
0.0
 11
-1248.49845855002
 21
1562.219769123055
 31
0.0
  0
LINE
  5
3B3
330
A
100
AcDbEntity
  8
HEWI
100
AcDbLine
 10
-1250.798415825411
 20
1564.21977675245
 30
0.0
 11
-1250.464400932833
 21
1564.21977675245
 31
0.0
  0
LINE
  5
3B5
330
A
100
AcDbEntity
  8
HEWI
100
AcDbLine
 10
-1253.248366997286
 20
1362.919766071297
 30
0.0
 11
-1248.49845855002
 21
1362.919766071297
 31
0.0
  0
LINE
  5
3B6
330
A
100
AcDbEntity
  8
HEWI
100
AcDbLine
 10
-1251.248397514864
 20
1417.919766071297
 30
0.0
 11
-1249.248428032442
 21
1417.919766071297
 31
0.0
  0
LINE
  5
3B7
330
A
100
AcDbEntity
  8
HEWI
100
AcDbLine
 10
-1251.248397514864
 20
1373.419796588876
 30
0.0
 11
-1249.248428032442
 21
1373.419796588876
 31
0.0
  0
LINE
  5
3B8
330
A
100
AcDbEntity
  8
HEWI
100
AcDbLine
 10
-1254.298476860567
 20
1530.919796588875
 30
0.0
 11
-1248.49845855002
 21
1530.919796588875
 31
0.0
  0
LINE
  5
3B9
330
A
100
AcDbEntity
  8
HEWI
100
AcDbLine
 10
-1254.298476860567
 20
1390.919796588875
 30
0.0
 11
-1253.248366997286
 21
1390.919796588875
 31
0.0
  0
LINE
  5
3BA
330
A
100
AcDbEntity
  8
HEWI
100
AcDbLine
 10
-1254.248428032442
 20
1379.169766071297
 30
0.0
 11
-1253.248366997286
 21
1379.169766071297
 31
0.0
  0
LINE
  5
3BB
330
A
100
AcDbEntity
  8
HEWI
100
AcDbLine
 10
-1254.74845855002
 20
1455.744778278329
 30
0.0
 11
-1253.248366997286
 21
1455.744778278329
 31
0.0
  0
LINE
  5
3BC
330
A
100
AcDbEntity
  8
HEWI
100
AcDbLine
 10
-1254.74845855002
 20
1460.594784381844
 30
0.0
 11
-1253.248366997286
 21
1460.594784381844
 31
0.0
  0
LINE
  5
3BD
330
A
100
AcDbEntity
  8
HEWI
100
AcDbLine
 10
-1254.74845855002
 20
1366.744763019539
 30
0.0
 11
-1253.248366997286
 21
1366.744763019539
 31
0.0
  0
LINE
  5
3BE
330
A
100
AcDbEntity
  8
HEWI
100
AcDbLine
 10
-1254.74845855002
 20
1371.594769123055
 30
0.0
 11
-1253.248366997286
 21
1371.594769123055
 31
0.0
  0
LINE
  5
3BF
330
A
100
AcDbEntity
  8
HEWI
100
AcDbLine
 10
-1254.298476860567
 20
1519.919811847665
 30
0.0
 11
-1253.248366997286
 21
1519.919811847665
 31
0.0
  0
LINE
  5
3C0
330
A
100
AcDbEntity
  8
HEWI
100
AcDbLine
 10
-1253.248366997286
 20
1562.919766071297
 30
0.0
 11
-1250.798415825411
 21
1562.919766071297
 31
0.0
  0
LINE
  5
3C1
330
A
100
AcDbEntity
  8
HEWI
100
AcDbLine
 10
-1254.298476860567
 20
1402.919766071297
 30
0.0
 11
-1253.248366997286
 21
1402.919766071297
 31
0.0
  0
LINE
  5
3C2
330
A
100
AcDbEntity
  8
HEWI
100
AcDbLine
 10
-1254.248428032442
 20
1376.669766071297
 30
0.0
 11
-1253.248366997286
 21
1376.669766071297
 31
0.0
  0
LINE
  5
3C3
330
A
100
AcDbEntity
  8
HEWI
100
AcDbLine
 10
-1254.298476860567
 20
1550.044781330086
 30
0.0
 11
-1253.248366997286
 21
1550.044781330086
 31
0.0
  0
LINE
  5
3C4
330
A
100
AcDbEntity
  8
HEWI
100
AcDbLine
 10
-1254.298476860567
 20
1537.794796588875
 30
0.0
 11
-1253.248366997286
 21
1537.794796588875
 31
0.0
  0
LINE
  5
3C5
330
A
100
AcDbEntity
  8
HEWI
100
AcDbLine
 10
-1253.248366997286
 20
1332.919766071297
 30
0.0
 11
-1248.49845855002
 21
1332.919766071297
 31
0.0
  0
LINE
  5
3C6
330
A
100
AcDbEntity
  8
HEWI
100
AcDbLine
 10
-1249.498366997286
 20
1355.919796588876
 30
0.0
 11
-1248.49845855002
 21
1355.919796588876
 31
0.0
  0
LINE
  5
3C7
330
A
100
AcDbEntity
  8
HEWI
100
AcDbLine
 10
-1254.498366997286
 20
1371.869808795907
 30
0.0
 11
-1253.248366997286
 21
1371.869808795907
 31
0.0
  0
LINE
  5
3C8
330
A
100
AcDbEntity
  8
HEWI
100
AcDbLine
 10
-1254.498366997286
 20
1383.969799640633
 30
0.0
 11
-1253.248366997286
 21
1383.969799640633
 31
0.0
  0
LINE
  5
3DE
330
A
100
AcDbEntity
  8
HEWI
100
AcDbLine
 10
-1228.59840361838
 20
1325.219799640633
 30
0.0
 11
-1228.59840361838
 21
1325.227810504891
 31
0.0
  0
LINE
  5
3DF
330
A
100
AcDbEntity
  8
HEWI
100
AcDbLine
 10
-1232.998428032442
 20
1330.219799640633
 30
0.0
 11
-1232.998428032442
 21
1330.719753864266
 31
0.0
  0
LINE
  5
3E0
330
A
100
AcDbEntity
  8
HEWI
100
AcDbLine
 10
-1211.19850127463
 20
1330.219799640633
 30
0.0
 11
-1211.19850127463
 21
1330.719753864266
 31
0.0
  0
LINE
  5
3E1
330
A
100
AcDbEntity
  8
HEWI
100
AcDbLine
 10
-1084.248428032442
 20
1545.219799640633
 30
0.0
 11
-1084.248428032442
 21
1578.469769123055
 31
0.0
  0
LINE
  5
3E2
330
A
100
AcDbEntity
  8
HEWI
100
AcDbLine
 10
-1247.24845855002
 20
1567.219769123055
 30
0.0
 11
-1247.24845855002
 21
1578.469769123055
 31
0.0
  0
LINE
  5
3E3
330
A
100
AcDbEntity
  8
HEWI
100
AcDbLine
 10
-1166.248397514864
 20
1341.719814899422
 30
0.0
 11
-1166.248397514864
 21
1524.369808795907
 31
0.0
  0
LINE
  5
3E4
330
A
100
AcDbEntity
  8
HEWI
100
AcDbLine
 10
-1248.49845855002
 20
1566.075779560067
 30
0.0
 11
-1248.49845855002
 21
1575.969769123055
 31
0.0
  0
LINE
  5
3E5
330
A
100
AcDbEntity
  8
HEWI
100
AcDbLine
 10
-1248.49845855002
 20
1552.31979048536
 30
0.0
 11
-1248.49845855002
 21
1562.219769123055
 31
0.0
  0
LINE
  5
3E6
330
A
100
AcDbEntity
  8
HEWI
100
AcDbLine
 10
-1248.49845855002
 20
1330.719753864266
 30
0.0
 11
-1248.49845855002
 21
1537.219769123055
 31
0.0
  0
LINE
  5
3E7
330
A
100
AcDbEntity
  8
HEWI
100
AcDbLine
 10
-1248.47145049338
 20
1537.219769123055
 30
0.0
 11
-1248.47145049338
 21
1543.678776386239
 31
0.0
  0
LINE
  5
3E8
330
A
100
AcDbEntity
  8
HEWI
100
AcDbLine
 10
-1250.99845855002
 20
1530.969769123055
 30
0.0
 11
-1250.99845855002
 21
1552.219769123055
 31
0.0
  0
LINE
  5
3E9
330
A
100
AcDbEntity
  8
HEWI
100
AcDbLine
 10
-1248.69850127463
 20
1530.969769123055
 30
0.0
 11
-1248.69850127463
 21
1543.678776386239
 31
0.0
  0
LINE
  5
3EA
330
A
100
AcDbEntity
  8
HEWI
100
AcDbLine
 10
-1250.798415825411
 20
1552.31979048536
 30
0.0
 11
-1250.798415825411
 21
1564.21977675245
 31
0.0
  0
LINE
  5
3EB
330
A
100
AcDbEntity
  8
HEWI
100
AcDbLine
 10
-1250.464400932833
 20
1562.219769123055
 30
0.0
 11
-1250.464400932833
 21
1566.075779560067
 31
0.0
  0
LINE
  5
3EC
330
A
100
AcDbEntity
  8
HEWI
100
AcDbLine
 10
-1250.464400932833
 20
1543.678776386239
 30
0.0
 11
-1250.464400932833
 21
1552.31979048536
 31
0.0
  0
LINE
  5
3EE
330
A
100
AcDbEntity
  8
HEWI
100
AcDbLine
 10
-1253.248366997286
 20
1332.919766071297
 30
0.0
 11
-1253.248366997286
 21
1562.919766071297
 31
0.0
  0
LINE
  5
3EF
330
A
100
AcDbEntity
  8
HEWI
100
AcDbLine
 10
-1249.248428032442
 20
1417.919766071297
 30
0.0
 11
-1249.248428032442
 21
1530.919796588875
 31
0.0
  0
LINE
  5
3F0
330
A
100
AcDbEntity
  8
HEWI
100
AcDbLine
 10
-1249.248428032442
 20
1362.919766071297
 30
0.0
 11
-1249.248428032442
 21
1373.419796588876
 31
0.0
  0
LINE
  5
3F1
330
A
100
AcDbEntity
  8
HEWI
100
AcDbLine
 10
-1249.498366997286
 20
1355.919796588876
 30
0.0
 11
-1249.498366997286
 21
1362.919766071297
 31
0.0
  0
LINE
  5
3F2
330
A
100
AcDbEntity
  8
HEWI
100
AcDbLine
 10
-1251.248397514864
 20
1373.419796588876
 30
0.0
 11
-1251.248397514864
 21
1417.919766071297
 31
0.0
  0
LINE
  5
3F3
330
A
100
AcDbEntity
  8
HEWI
100
AcDbLine
 10
-1254.298476860567
 20
1537.794796588875
 30
0.0
 11
-1254.298476860567
 21
1550.044781330086
 31
0.0
  0
LINE
  5
3F4
330
A
100
AcDbEntity
  8
HEWI
100
AcDbLine
 10
-1254.298476860567
 20
1519.919811847665
 30
0.0
 11
-1254.298476860567
 21
1530.919796588875
 31
0.0
  0
LINE
  5
3F5
330
A
100
AcDbEntity
  8
HEWI
100
AcDbLine
 10
-1254.298476860567
 20
1390.919796588875
 30
0.0
 11
-1254.298476860567
 21
1402.919766071297
 31
0.0
  0
LINE
  5
3F6
330
A
100
AcDbEntity
  8
HEWI
100
AcDbLine
 10
-1254.248428032442
 20
1376.669766071297
 30
0.0
 11
-1254.248428032442
 21
1379.169766071297
 31
0.0
  0
LINE
  5
3F7
330
A
100
AcDbEntity
  8
HEWI
100
AcDbLine
 10
-1254.74845855002
 20
1455.744778278329
 30
0.0
 11
-1254.74845855002
 21
1460.594784381844
 31
0.0
  0
LINE
  5
3F8
330
A
100
AcDbEntity
  8
HEWI
100
AcDbLine
 10
-1254.74845855002
 20
1366.744763019539
 30
0.0
 11
-1254.74845855002
 21
1371.594769123055
 31
0.0
  0
LINE
  5
3F9
330
A
100
AcDbEntity
  8
HEWI
100
AcDbLine
 10
-1254.498366997286
 20
1371.869808795907
 30
0.0
 11
-1254.498366997286
 21
1383.969799640633
 31
0.0
  0
LINE
  5
3FA
330
A
100
AcDbEntity
  8
HEWI
100
AcDbLine
 10
-1250.748366997286
 20
1552.219769123055
 30
0.0
 11
-1250.748366997286
 21
1552.31979048536
 31
0.0
  0
LINE
  5
3FB
330
A
100
AcDbEntity
  8
HEWI
100
AcDbLine
 10
-1250.748366997286
 20
1530.919796588875
 30
0.0
 11
-1250.748366997286
 21
1530.969769123055
 31
0.0
  0
LINE
  5
3FC
330
A
100
AcDbEntity
  8
HEWI
100
AcDbLine
 10
-1246.899490044161
 20
1579.581791522957
 30
0.0
 11
-1246.899490044161
 21
1599.581791522958
 31
0.0
  0
LINE
  5
3FD
330
A
100
AcDbEntity
  8
HEWI
100
AcDbLine
 10
-1241.899490044161
 20
1579.581791522957
 30
0.0
 11
-1241.899490044161
 21
1599.581791522958
 31
0.0
  0
LINE
  5
3FE
330
A
100
AcDbEntity
  8
HEWI
100
AcDbLine
 10
-1216.002425835177
 20
1324.633785846688
 30
0.0
 11
-1215.890426323458
 21
1324.745785358407
 31
0.0
  0
LINE
  5
402
330
A
100
AcDbEntity
  8
HEWI
100
AcDbLine
 10
-1228.323440239474
 20
1324.81979048536
 30
0.0
 11
-1228.260421440645
 21
1324.745785358407
 31
0.0
  0
LINE
  5
404
330
A
100
AcDbEntity
  8
HEWI
100
AcDbLine
 10
-1052.083434746309
 20
1662.45277083204
 30
0.0
 11
-1051.698455498263
 21
1662.767788532235
 31
0.0
  0
LINE
  5
405
330
A
100
AcDbEntity
  8
HEWI
100
AcDbLine
 10
-1232.998428032442
 20
1330.219799640633
 30
0.0
 11
-1229.586410210177
 21
1325.347820880868
 31
0.0
  0
LINE
  5
407
330
A
100
AcDbEntity
  8
HEWI
100
AcDbLine
 10
-1241.688460991427
 20
1578.477779987313
 30
0.0
 11
-1241.683120415255
 21
1578.469769123055
 31
0.0
  0
LINE
  5
409
330
A
100
AcDbEntity
  8
HEWI
100
AcDbLine
 10
-1228.306502983614
 20
1324.745785358407
 30
0.0
 11
-1228.262405083224
 21
1324.678799274422
 31
0.0
  0
LINE
  5
40A
330
A
100
AcDbEntity
  8
HEWI
100
AcDbLine
 10
-1173.199386284395
 20
1331.491772296883
 30
0.0
 11
-1169.470443413302
 21
1333.941799762704
 31
0.0
  0
LINE
  5
40B
330
A
100
AcDbEntity
  8
HEWI
100
AcDbLine
 10
-1091.199416801973
 20
1534.991795185067
 30
0.0
 11
-1087.47047393088
 21
1537.441784503914
 31
0.0
  0
LINE
  5
40E
330
A
100
AcDbEntity
  8
HEWI
100
AcDbLine
 10
-1241.02043120627
 20
1601.703755023934
 30
0.0
 11
-1240.003432915255
 21
1602.37178480909
 31
0.0
  0
LINE
  5
40F
330
A
100
AcDbEntity
  8
HEWI
100
AcDbLine
 10
-1244.556502983614
 20
1605.238758686043
 30
0.0
 11
-1241.843490288302
 21
1607.020756366707
 31
0.0
  0
LINE
  5
410
330
A
100
AcDbEntity
  8
HEWI
100
AcDbLine
 10
-1163.363418266817
 20
1531.334797504403
 30
0.0
 11
-1160.024490044161
 21
1533.527790668465
 31
0.0
  0
LINE
  5
413
330
A
100
AcDbEntity
  8
HEWI
100
AcDbLine
 10
-1051.698455498263
 20
1666.303784015633
 30
0.0
 11
-1051.64772002463
 21
1666.226421955087
 31
0.0
  0
LINE
  5
414
330
A
100
AcDbEntity
  8
HEWI
100
AcDbLine
 10
-1051.366424248262
 20
1665.797344806649
 30
0.0
 11
-1051.142425224825
 21
1665.455776813485
 31
0.0
  0
LINE
  5
415
330
A
100
AcDbEntity
  8
HEWI
100
AcDbLine
 10
-1247.766494438692
 20
1577.737766864754
 30
0.0
 11
-1247.24845855002
 21
1578.077427509286
 31
0.0
  0
LINE
  5
41E
330
A
100
AcDbEntity
  8
HEWI
100
AcDbLine
 10
-1097.588424370333
 20
1529.455792072274
 30
0.0
 11
-1097.43644683127
 21
1529.543797138192
 31
0.0
  0
LINE
  5
41F
330
A
100
AcDbEntity
  8
HEWI
100
AcDbLine
 10
-1093.41041533713
 20
1531.867787006356
 30
0.0
 11
-1093.258437798067
 21
1531.955792072274
 31
0.0
  0
LINE
  5
423
330
A
100
AcDbEntity
  8
HEWI
100
AcDbLine
 10
-1097.155456230685
 20
1529.70576918409
 30
0.0
 11
-1097.115096733614
 21
1529.729115131356
 31
0.0
  0
LINE
  5
425
330
A
100
AcDbEntity
  8
HEWI
100
AcDbLine
 10
-1094.198455498263
 20
1531.412769916512
 30
0.0
 11
-1093.892440483614
 21
1531.589771869637
 31
0.0
  0
LINE
  5
426
330
A
100
AcDbEntity
  8
HEWI
100
AcDbLine
 10
-1096.954421684786
 20
1529.821774127938
 30
0.0
 11
-1096.22047393088
 21
1530.245777729012
 31
0.0
  0
LINE
  5
428
330
A
100
AcDbEntity
  8
HEWI
100
AcDbLine
 10
-1094.626464531466
 20
1531.165768268563
 30
0.0
 11
-1093.892440483614
 21
1531.589771869637
 31
0.0
  0
LINE
  5
42A
330
A
100
AcDbEntity
  8
HEWI
100
AcDbLine
 10
-1100.916366264864
 20
1534.21977675245
 30
0.0
 11
-1100.77140776877
 21
1533.968769672372
 31
0.0
  0
LINE
  5
42C
330
A
100
AcDbEntity
  8
HEWI
100
AcDbLine
 10
-1099.905471489474
 20
1533.468777301766
 30
0.0
 11
-1097.588424370333
 21
1529.455792072274
 31
0.0
  0
LINE
  5
42D
330
A
100
AcDbEntity
  8
HEWI
100
AcDbLine
 10
-1094.633330986544
 20
1534.337078693368
 30
0.0
 11
-1093.258437798067
 21
1531.955792072274
 31
0.0
  0
LINE
  5
42E
330
A
100
AcDbEntity
  8
HEWI
100
AcDbLine
 10
-1097.588424370333
 20
1529.455792072274
 30
0.0
 11
-1097.155456230685
 21
1529.70576918409
 31
0.0
  0
LINE
  5
433
330
A
100
AcDbEntity
  8
HEWI
100
AcDbLine
 10
-1095.4234310842
 20
1530.705792072274
 30
0.0
 11
-1094.626464531466
 21
1531.165768268563
 31
0.0
  0
LINE
  5
434
330
A
100
AcDbEntity
  8
HEWI
100
AcDbLine
 10
-1096.22047393088
 20
1530.245777729012
 30
0.0
 11
-1095.4234310842
 21
1530.705792072274
 31
0.0
  0
LINE
  5
435
330
A
100
AcDbEntity
  8
HEWI
100
AcDbLine
 10
-1093.892440483614
 20
1531.589771869637
 30
0.0
 11
-1093.41041533713
 21
1531.867787006356
 31
0.0
  0
LINE
  5
436
330
A
100
AcDbEntity
  8
HEWI
100
AcDbLine
 10
-1097.43644683127
 20
1529.543797138192
 30
0.0
 11
-1096.954421684786
 21
1529.821774127938
 31
0.0
  0
LINE
  5
437
330
A
100
AcDbEntity
  8
HEWI
100
AcDbLine
 10
-1094.40895049338
 20
1531.291424396493
 30
0.0
 11
-1094.198455498263
 21
1531.412769916512
 31
0.0
  0
LINE
  5
43D
330
A
100
AcDbEntity
  8
HEWI
100
AcDbLine
 10
-1051.8833920217
 20
1662.616421344735
 30
0.0
 11
-1051.829452202364
 21
1662.646786334969
 31
0.0
  0
LINE
  5
43E
330
A
100
AcDbEntity
  8
HEWI
100
AcDbLine
 10
-1051.366424248262
 20
1665.797344806649
 30
0.0
 11
-1051.125945732638
 21
1665.369640949227
 31
0.0
  0
LINE
  5
43F
330
A
100
AcDbEntity
  8
HEWI
100
AcDbLine
 10
-1051.577453300997
 20
1666.172787311532
 30
0.0
 11
-1051.366424248262
 21
1665.797344806649
 31
0.0
  0
LINE
  5
440
330
A
100
AcDbEntity
  8
HEWI
100
AcDbLine
 10
-1051.125945732638
 20
1665.369640949227
 30
0.0
 11
-1051.084441826388
 21
1665.295788410164
 31
0.0
  0
LINE
  5
441
330
A
100
AcDbEntity
  8
HEWI
100
AcDbLine
 10
-1052.70645110373
 20
1662.15377486036
 30
0.0
 11
-1052.681274101778
 21
1662.167889240243
 31
0.0
  0
LINE
  5
447
330
A
100
AcDbEntity
  8
HEWI
100
AcDbLine
 10
-1051.127166435763
 20
1665.37585890577
 30
0.0
 11
-1051.084441826388
 21
1665.295788410164
 31
0.0
  0
LINE
  5
448
330
A
100
AcDbEntity
  8
HEWI
100
AcDbLine
 10
-1051.508407280489
 20
1666.090771320321
 30
0.0
 11
-1051.288909599825
 21
1665.679241779305
 31
0.0
  0
LINE
  5
449
330
A
100
AcDbEntity
  8
HEWI
100
AcDbLine
 10
-1051.288909599825
 20
1665.679241779305
 30
0.0
 11
-1051.127166435763
 21
1665.37585890577
 31
0.0
  0
LINE
  5
44D
330
A
100
AcDbEntity
  8
HEWI
100
AcDbLine
 10
-1052.546462700411
 20
1662.211758258797
 30
0.0
 11
-1052.083434746309
 21
1662.45277083204
 31
0.0
  0
LINE
  5
450
330
A
100
AcDbEntity
  8
HEWI
100
AcDbLine
 10
-1228.260421440645
 20
1324.745785358407
 30
0.0
 11
-1228.087386772677
 21
1324.81979048536
 31
0.0
  0
LINE
  5
453
330
A
100
AcDbEntity
  8
HEWI
100
AcDbLine
 10
-1214.855422661349
 20
1325.219799640633
 30
0.0
 11
-1214.657363579317
 21
1325.294796588875
 31
0.0
  0
LINE
  5
455
330
A
100
AcDbEntity
  8
HEWI
100
AcDbLine
 10
-1241.843490288302
 20
1607.020756366707
 30
0.0
 11
-1241.331405327364
 21
1607.203785541512
 31
0.0
  0
LINE
  5
456
330
A
100
AcDbEntity
  8
HEWI
100
AcDbLine
 10
-1240.003432915255
 20
1602.37178480909
 30
0.0
 11
-1239.811477348849
 21
1602.439762714364
 31
0.0
  0
LINE
  5
45A
330
A
100
AcDbEntity
  8
HEWI
100
AcDbLine
 10
-1054.038695976778
 20
1666.940991046883
 30
0.0
 11
-1053.841476128146
 21
1667.007786396004
 31
0.0
  0
LINE
  5
45C
330
A
100
AcDbEntity
  8
HEWI
100
AcDbLine
 10
-1227.852401421114
 20
1324.745785358407
 30
0.0
 11
-1227.628402397677
 21
1324.81979048536
 31
0.0
  0
LINE
  5
45D
330
A
100
AcDbEntity
  8
HEWI
100
AcDbLine
 10
-1066.12541167502
 20
1663.086773517586
 30
0.0
 11
-1061.75140349631
 21
1664.51575911329
 31
0.0
  0
LINE
  5
45E
330
A
100
AcDbEntity
  8
HEWI
100
AcDbLine
 10
-1053.54240386252
 20
1661.887776020028
 30
0.0
 11
-1052.546462700411
 21
1662.211758258797
 31
0.0
  0
LINE
  5
460
330
A
100
AcDbEntity
  8
HEWI
100
AcDbLine
 10
-1066.047439262911
 20
1662.841755512215
 30
0.0
 11
-1065.8824154592
 21
1662.327763202645
 31
0.0
  0
LINE
  5
461
330
A
100
AcDbEntity
  8
HEWI
100
AcDbLine
 10
-1065.922012016817
 20
1662.449719074227
 30
0.0
 11
-1065.838622734591
 21
1662.18925154493
 31
0.0
  0
LINE
  5
462
330
A
100
AcDbEntity
  8
HEWI
100
AcDbLine
 10
-1065.64445464377
 20
1661.579777362801
 30
0.0
 11
-1065.37445037131
 21
1660.735775592782
 31
0.0
  0
LINE
  5
463
330
A
100
AcDbEntity
  8
HEWI
100
AcDbLine
 10
-1065.831451103731
 20
1662.166782978036
 30
0.0
 11
-1065.78231780295
 21
1662.013088825204
 31
0.0
  0
LINE
  5
465
330
A
100
AcDbEntity
  8
HEWI
100
AcDbLine
 10
-1065.674438164278
 20
1661.673771503426
 30
0.0
 11
-1065.656814262911
 21
1661.618610980965
 31
0.0
  0
LINE
  5
466
330
A
100
AcDbEntity
  8
HEWI
100
AcDbLine
 10
-1055.062408134981
 20
1666.650768878914
 30
0.0
 11
-1054.226455376192
 21
1666.917759540536
 31
0.0
  0
LINE
  5
467
330
A
100
AcDbEntity
  8
HEWI
100
AcDbLine
 10
-1056.194457695528
 20
1661.040760639168
 30
0.0
 11
-1053.54240386252
 21
1661.887776020028
 31
0.0
  0
LINE
  5
468
330
A
100
AcDbEntity
  8
HEWI
100
AcDbLine
 10
-1061.75140349631
 20
1664.51575911329
 30
0.0
 11
-1057.714461967989
 21
1665.804783466317
 31
0.0
  0
LINE
  5
469
330
A
100
AcDbEntity
  8
HEWI
100
AcDbLine
 10
-1064.614410088106
 20
1658.353764179208
 30
0.0
 11
-1060.231475517794
 21
1659.752766254403
 31
0.0
  0
LINE
  5
46A
330
A
100
AcDbEntity
  8
HEWI
100
AcDbLine
 10
-1066.134414360567
 20
1663.116757038094
 30
0.0
 11
-1061.75140349631
 21
1664.51575911329
 31
0.0
  0
LINE
  5
46B
330
A
100
AcDbEntity
  8
HEWI
100
AcDbLine
 10
-1065.838622734591
 20
1662.18925154493
 30
0.0
 11
-1065.831451103731
 21
1662.166782978036
 31
0.0
  0
LINE
  5
46C
330
A
100
AcDbEntity
  8
HEWI
100
AcDbLine
 10
-1239.811477348849
 20
1602.439762714364
 30
0.0
 11
-1064.614410088106
 21
1658.353764179208
 31
0.0
  0
LINE
  5
46D
330
A
100
AcDbEntity
  8
HEWI
100
AcDbLine
 10
-1241.331405327364
 20
1607.203785541512
 30
0.0
 11
-1066.134414360567
 21
1663.116757038094
 31
0.0
  0
LINE
  5
46E
330
A
100
AcDbEntity
  8
HEWI
100
AcDbLine
 10
-1065.928420708224
 20
1662.469784381844
 30
0.0
 11
-1065.674438164278
 21
1661.673771503426
 31
0.0
  0
LINE
  5
46F
330
A
100
AcDbEntity
  8
HEWI
100
AcDbLine
 10
-1060.231475517794
 20
1659.752766254403
 30
0.0
 11
-1056.194457695528
 21
1661.040760639168
 31
0.0
  0
LINE
  5
470
330
A
100
AcDbEntity
  8
HEWI
100
AcDbLine
 10
-1057.714461967989
 20
1665.804783466317
 30
0.0
 11
-1055.062408134981
 21
1666.650768878914
 31
0.0
  0
LINE
  5
471
330
A
100
AcDbEntity
  8
HEWI
100
AcDbLine
 10
-1065.992202446505
 20
1662.669788959481
 30
0.0
 11
-1065.928420708224
 21
1662.469784381844
 31
0.0
  0
LINE
  5
472
330
A
100
AcDbEntity
  8
HEWI
100
AcDbLine
 10
-1065.895461723848
 20
1662.367779376961
 30
0.0
 11
-1065.737914726778
 21
1661.872784259774
 31
0.0
  0
LINE
  5
473
330
A
100
AcDbEntity
  8
HEWI
100
AcDbLine
 10
-1053.54240386252
 20
1661.887776020028
 30
0.0
 11
-1052.70645110373
 21
1662.15377486036
 31
0.0
  0
LINE
  5
474
330
A
100
AcDbEntity
  8
HEWI
100
AcDbLine
 10
-1065.8824154592
 20
1662.327763202645
 30
0.0
 11
-1065.64445464377
 21
1661.579777362801
 31
0.0
  0
LINE
  5
475
330
A
100
AcDbEntity
  8
HEWI
100
AcDbLine
 10
-1066.134414360567
 20
1663.116757038094
 30
0.0
 11
-1066.124953911349
 21
1663.086926105477
 31
0.0
  0
LINE
  5
487
330
A
100
AcDbEntity
  8
HEWI
100
AcDbLine
 10
-1054.092712090059
 20
1666.934315326669
 30
0.0
 11
-1053.841476128146
 21
1667.007786396004
 31
0.0
  0
LINE
  5
489
330
A
100
AcDbEntity
  8
HEWI
100
AcDbLine
 10
-1229.224471733614
 20
1325.294796588875
 30
0.0
 11
-1229.037398979708
 21
1325.347820880868
 31
0.0
  0
LINE
  5
48C
330
A
100
AcDbEntity
  8
HEWI
100
AcDbLine
 10
-1226.292495415255
 20
1324.745785358407
 30
0.0
 11
-1225.995406792208
 21
1324.81979048536
 31
0.0
  0
LINE
  5
48D
330
A
100
AcDbEntity
  8
HEWI
100
AcDbLine
 10
-1214.937514946505
 20
1325.294796588875
 30
0.0
 11
-1214.723434135958
 21
1325.347820880868
 31
0.0
  0
LINE
  5
48E
330
A
100
AcDbEntity
  8
HEWI
100
AcDbLine
 10
-1228.323440239474
 20
1324.81979048536
 30
0.0
 11
-1228.306502983614
 21
1324.745785358407
 31
0.0
  0
LINE
  5
48F
330
A
100
AcDbEntity
  8
HEWI
100
AcDbLine
 10
-1216.896438286348
 20
1324.745785358407
 30
0.0
 11
-1216.529464409396
 21
1324.81979048536
 31
0.0
  0
LINE
  5
490
330
A
100
AcDbEntity
  8
HEWI
100
AcDbLine
 10
-1051.051025078341
 20
1664.977795246102
 30
0.0
 11
-1050.966415092989
 21
1664.535786273934
 31
0.0
  0
LINE
  5
491
330
A
100
AcDbEntity
  8
HEWI
100
AcDbLine
 10
-1051.142425224825
 20
1665.455776813485
 30
0.0
 11
-1051.125945732638
 21
1665.369640949227
 31
0.0
  0
LINE
  5
492
330
A
100
AcDbEntity
  8
HEWI
100
AcDbLine
 10
-1241.899490044161
 20
1579.581791522957
 30
0.0
 11
-1241.688460991427
 21
1578.477779987313
 31
0.0
  0
LINE
  5
493
330
A
100
AcDbEntity
  8
HEWI
100
AcDbLine
 10
-1246.899490044161
 20
1579.581791522957
 30
0.0
 11
-1246.687087700411
 21
1578.469769123055
 31
0.0
  0
LINE
  5
495
330
A
100
AcDbEntity
  8
HEWI
100
AcDbLine
 10
-1160.024490044161
 20
1533.527790668465
 30
0.0
 11
-1156.398391411348
 21
1534.21977675245
 31
0.0
  0
LINE
  5
496
330
A
100
AcDbEntity
  8
HEWI
100
AcDbLine
 10
-1095.248412773653
 20
1534.21977675245
 30
0.0
 11
-1091.199416801973
 21
1534.991795185067
 31
0.0
  0
LINE
  5
498
330
A
100
AcDbEntity
  8
HEWI
100
AcDbLine
 10
-1177.24845855002
 20
1330.719753864266
 30
0.0
 11
-1173.199386284395
 21
1331.491772296883
 31
0.0
  0
LINE
  5
49A
330
A
100
AcDbEntity
  8
HEWI
100
AcDbLine
 10
-1053.827438042208
 20
1666.967121723153
 30
0.0
 11
-1053.466415092989
 21
1667.035786273934
 31
0.0
  0
LINE
  5
4A0
330
A
100
AcDbEntity
  8
HEWI
100
AcDbLine
 10
-1216.081466362521
 20
1324.619747760751
 30
0.0
 11
-1216.002425835177
 21
1324.633785846688
 31
0.0
  0
LINE
  5
4A1
330
A
100
AcDbEntity
  8
HEWI
100
AcDbLine
 10
-1216.108474419161
 20
1325.294796588875
 30
0.0
 11
-1215.796432182833
 21
1325.347820880868
 31
0.0
  0
LINE
  5
4A3
330
A
100
AcDbEntity
  8
HEWI
100
AcDbLine
 10
-1217.158431694552
 20
1325.294796588875
 30
0.0
 11
-1216.758498833224
 21
1325.347820880868
 31
0.0
  0
LINE
  5
4A4
330
A
100
AcDbEntity
  8
HEWI
100
AcDbLine
 10
-1220.923385307833
 20
1324.745785358407
 30
0.0
 11
-1220.354385063692
 21
1324.81979048536
 31
0.0
  0
LINE
  5
4A6
330
A
100
AcDbEntity
  8
HEWI
100
AcDbLine
 10
-1224.400405571505
 20
1324.745785358407
 30
0.0
 11
-1223.80836455588
 21
1324.81979048536
 31
0.0
  0
LINE
  5
4A7
330
A
100
AcDbEntity
  8
HEWI
100
AcDbLine
 10
-1217.806472466036
 20
1324.745785358407
 30
0.0
 11
-1217.212447807833
 21
1324.81979048536
 31
0.0
  0
LINE
  5
4A8
330
A
100
AcDbEntity
  8
HEWI
100
AcDbLine
 10
-1052.735976860567
 20
1662.150112750985
 30
0.0
 11
-1052.70645110373
 21
1662.15377486036
 31
0.0
  0
LINE
  5
4A9
330
A
100
AcDbEntity
  8
HEWI
100
AcDbLine
 10
-1050.981063530489
 20
1664.459454181649
 30
0.0
 11
-1050.97145049338
 21
1664.381786945321
 31
0.0
  0
LINE
  5
4AA
330
A
100
AcDbEntity
  8
HEWI
100
AcDbLine
 10
-1053.389815971895
 20
1667.02121413038
 30
0.0
 11
-1053.312453911348
 21
1667.030789020516
 31
0.0
  0
LINE
  5
4AB
330
A
100
AcDbEntity
  8
HEWI
100
AcDbLine
 10
-1054.226455376192
 20
1666.917759540536
 30
0.0
 11
-1053.827438042208
 21
1666.967121723153
 31
0.0
  0
LINE
  5
4AC
330
A
100
AcDbEntity
  8
HEWI
100
AcDbLine
 10
-1051.084441826388
 20
1665.295788410164
 30
0.0
 11
-1051.034392998263
 21
1664.891010883309
 31
0.0
  0
LINE
  5
4AD
330
A
100
AcDbEntity
  8
HEWI
100
AcDbLine
 10
-1053.827438042208
 20
1666.967121723153
 30
0.0
 11
-1053.389815971895
 21
1667.02121413038
 31
0.0
  0
LINE
  5
4AE
330
A
100
AcDbEntity
  8
HEWI
100
AcDbLine
 10
-1051.034392998263
 20
1664.891010883309
 30
0.0
 11
-1050.981063530489
 21
1664.459454181649
 31
0.0
  0
LINE
  5
4B8
330
A
100
AcDbEntity
  8
HEWI
100
AcDbLine
 10
-1051.051025078341
 20
1664.977795246102
 30
0.0
 11
-1050.99098174338
 21
1664.407345417
 31
0.0
  0
LINE
  5
4B9
330
A
100
AcDbEntity
  8
HEWI
100
AcDbLine
 10
-1051.084441826388
 20
1665.295788410164
 30
0.0
 11
-1051.051025078341
 21
1664.977795246102
 31
0.0
  0
LINE
  5
4BA
330
A
100
AcDbEntity
  8
HEWI
100
AcDbLine
 10
-1050.99098174338
 20
1664.407345417
 30
0.0
 11
-1050.978469536349
 21
1664.287792804696
 31
0.0
  0
LINE
  5
4BE
330
A
100
AcDbEntity
  8
HEWI
100
AcDbLine
 10
-1218.541488335177
 20
1325.294796588875
 30
0.0
 11
-1217.948379204317
 21
1325.347820880868
 31
0.0
  0
LINE
  5
4C0
330
A
100
AcDbEntity
  8
HEWI
100
AcDbLine
 10
-1226.944503471895
 20
1325.294796588875
 30
0.0
 11
-1226.143417046114
 21
1325.347820880868
 31
0.0
  0
LINE
  5
4C1
330
A
100
AcDbEntity
  8
HEWI
100
AcDbLine
 10
-1222.685470268771
 20
1324.745785358407
 30
0.0
 11
-1221.544418022677
 21
1324.81979048536
 31
0.0
  0
LINE
  5
4C2
330
A
100
AcDbEntity
  8
HEWI
100
AcDbLine
 10
-1216.295394585177
 20
1324.619747760751
 30
0.0
 11
-1216.002425835177
 21
1324.633785846688
 31
0.0
  0
LINE
  5
4C3
330
A
100
AcDbEntity
  8
HEWI
100
AcDbLine
 10
-1222.035445854708
 20
1325.294796588875
 30
0.0
 11
-1220.674514458224
 21
1325.347820880868
 31
0.0
  0
LINE
  5
4C6
330
A
100
AcDbEntity
  8
HEWI
100
AcDbLine
 10
-1221.444472954317
 20
1324.619747760751
 30
0.0
 11
-1220.944442436739
 21
1324.633785846688
 31
0.0
  0
LINE
  5
4C7
330
A
100
AcDbEntity
  8
HEWI
100
AcDbLine
 10
-1215.588454887911
 20
1325.219799640633
 30
0.0
 11
-1215.060500786349
 21
1325.227810504891
 31
0.0
  0
LINE
  5
4C9
330
A
100
AcDbEntity
  8
HEWI
100
AcDbLine
 10
-1228.608627007052
 20
1325.219875934579
 30
0.0
 11
-1228.59840361838
 21
1325.220028522469
 31
0.0
  0
LINE
  5
4CA
330
A
100
AcDbEntity
  8
HEWI
100
AcDbLine
 10
-1220.28541533713
 20
1324.619747760751
 30
0.0
 11
-1218.901443169161
 21
1324.633785846688
 31
0.0
  0
LINE
  5
4CB
330
A
100
AcDbEntity
  8
HEWI
100
AcDbLine
 10
-1222.627486870333
 20
1324.619747760751
 30
0.0
 11
-1220.944442436739
 21
1324.633785846688
 31
0.0
  0
LINE
  5
4CC
330
A
100
AcDbEntity
  8
HEWI
100
AcDbLine
 10
-1228.31031768088
 20
1325.219799640633
 30
0.0
 11
-1228.307113335177
 21
1324.81979048536
 31
0.0
  0
LINE
  5
4CD
330
A
100
AcDbEntity
  8
HEWI
100
AcDbLine
 10
-1228.794479057833
 20
1325.221706989266
 30
0.0
 11
-1228.59840361838
 21
1325.223156574227
 31
0.0
  0
LINE
  5
4D0
330
A
100
AcDbEntity
  8
HEWI
100
AcDbLine
 10
-1228.608474419161
 20
1325.219799640633
 30
0.0
 11
-1226.860427544161
 21
1325.227810504891
 31
0.0
  0
LINE
  5
4D3
330
A
100
AcDbEntity
  8
HEWI
100
AcDbLine
 10
-1215.890426323458
 20
1324.745785358407
 30
0.0
 11
-1215.88844268088
 21
1325.219799640633
 31
0.0
  0
LINE
  5
4D6
330
A
100
AcDbEntity
  8
HEWI
100
AcDbLine
 10
-1229.41139189963
 20
1325.227810504891
 30
0.0
 11
-1228.601607964083
 21
1325.219799640633
 31
0.0
  0
LINE
  5
4D7
330
A
100
AcDbEntity
  8
HEWI
100
AcDbLine
 10
-1216.211471245333
 20
1325.227810504891
 30
0.0
 11
-1215.588454887911
 21
1325.219799640633
 31
0.0
  0
LINE
  5
4D8
330
A
100
AcDbEntity
  8
HEWI
100
AcDbLine
 10
-1053.628768608614
 20
1667.004887226083
 30
0.0
 11
-1053.532256767794
 21
1667.003590229012
 31
0.0
  0
LINE
  5
4D9
330
A
100
AcDbEntity
  8
HEWI
100
AcDbLine
 10
-1053.841476128146
 20
1667.007786396004
 30
0.0
 11
-1053.628768608614
 21
1667.004887226083
 31
0.0
  0
LINE
  5
4DA
330
A
100
AcDbEntity
  8
HEWI
100
AcDbLine
 10
-1053.189468071505
 20
1666.998974445321
 30
0.0
 11
-1053.027419731661
 21
1666.996761920907
 31
0.0
  0
LINE
  5
4DF
330
A
100
AcDbEntity
  8
HEWI
100
AcDbLine
 10
-1220.944442436739
 20
1324.633785846688
 30
0.0
 11
-1220.28541533713
 21
1324.619747760751
 31
0.0
  0
LINE
  5
4E1
330
A
100
AcDbEntity
  8
HEWI
100
AcDbLine
 10
-1229.41139189963
 20
1325.227810504891
 30
0.0
 11
-1229.187392876192
 21
1325.219799640633
 31
0.0
  0
LINE
  5
4E2
330
A
100
AcDbEntity
  8
HEWI
100
AcDbLine
 10
-1229.41139189963
 20
1325.227810504891
 30
0.0
 11
-1229.18937651877
 21
1325.219799640633
 31
0.0
  0
LINE
  5
4E3
330
A
100
AcDbEntity
  8
HEWI
100
AcDbLine
 10
-1223.399429009005
 20
1325.347820880868
 30
0.0
 11
-1222.035445854708
 21
1325.294796588875
 31
0.0
  0
LINE
  5
4E4
330
A
100
AcDbEntity
  8
HEWI
100
AcDbLine
 10
-1215.060500786349
 20
1325.227810504891
 30
0.0
 11
-1214.855422661349
 21
1325.219799640633
 31
0.0
  0
LINE
  5
4E6
330
A
100
AcDbEntity
  8
HEWI
100
AcDbLine
 10
-1223.80836455588
 20
1324.81979048536
 30
0.0
 11
-1222.685470268771
 21
1324.745785358407
 31
0.0
  0
LINE
  5
4E7
330
A
100
AcDbEntity
  8
HEWI
100
AcDbLine
 10
-1217.948379204317
 20
1325.347820880868
 30
0.0
 11
-1217.158431694552
 21
1325.294796588875
 31
0.0
  0
LINE
  5
4E9
330
A
100
AcDbEntity
  8
HEWI
100
AcDbLine
 10
-1219.283370659395
 20
1325.347820880868
 30
0.0
 11
-1218.541488335177
 21
1325.294796588875
 31
0.0
  0
LINE
  5
4EC
330
A
100
AcDbEntity
  8
HEWI
100
AcDbLine
 10
-1221.544418022677
 20
1324.81979048536
 30
0.0
 11
-1220.923385307833
 21
1324.745785358407
 31
0.0
  0
LINE
  5
4ED
330
A
100
AcDbEntity
  8
HEWI
100
AcDbLine
 10
-1224.935378716036
 20
1324.81979048536
 30
0.0
 11
-1224.400405571505
 21
1324.745785358407
 31
0.0
  0
LINE
  5
4EF
330
A
100
AcDbEntity
  8
HEWI
100
AcDbLine
 10
-1215.060500786349
 20
1325.227810504891
 30
0.0
 11
-1215.009383842989
 21
1325.219799640633
 31
0.0
  0
LINE
  5
4F2
330
A
100
AcDbEntity
  8
HEWI
100
AcDbLine
 10
-1053.466415092989
 20
1667.035786273934
 30
0.0
 11
-1053.389815971895
 21
1667.02121413038
 31
0.0
  0
LINE
  5
4F3
330
A
100
AcDbEntity
  8
HEWI
100
AcDbLine
 10
-1052.957458183809
 20
1666.938969257332
 30
0.0
 11
-1052.546462700411
 21
1666.860767963387
 31
0.0
  0
LINE
  5
4F5
330
A
100
AcDbEntity
  8
HEWI
100
AcDbLine
 10
-1051.142425224825
 20
1663.615757587411
 30
0.0
 11
-1051.131744072481
 21
1663.671871784188
 31
0.0
  0
LINE
  5
4F7
330
A
100
AcDbEntity
  8
HEWI
100
AcDbLine
 10
-1085.020446465059
 20
1541.170765521981
 30
0.0
 11
-1084.248428032442
 21
1545.219799640633
 31
0.0
  0
LINE
  5
4F9
330
A
100
AcDbEntity
  8
HEWI
100
AcDbLine
 10
-1167.020492241427
 20
1337.670818927743
 30
0.0
 11
-1166.248397514864
 21
1341.719814899422
 31
0.0
  0
LINE
  5
4FA
330
A
100
AcDbEntity
  8
HEWI
100
AcDbLine
 10
-1246.899490044161
 20
1599.581791522958
 30
0.0
 11
-1246.337508842989
 21
1602.526775958993
 31
0.0
  0
LINE
  5
4FC
330
A
100
AcDbEntity
  8
HEWI
100
AcDbLine
 10
-1166.248397514864
 20
1524.369808795907
 30
0.0
 11
-1165.55641143088
 21
1527.995754840829
 31
0.0
  0
LINE
  5
4FD
330
A
100
AcDbEntity
  8
HEWI
100
AcDbLine
 10
-1241.899490044161
 20
1599.581791522958
 30
0.0
 11
-1241.688460991427
 21
1600.686756732919
 31
0.0
  0
LINE
  5
4FE
330
A
100
AcDbEntity
  8
HEWI
100
AcDbLine
 10
-1050.99098174338
 20
1664.407345417
 30
0.0
 11
-1050.966415092989
 21
1664.535786273934
 31
0.0
  0
LINE
  5
500
330
A
100
AcDbEntity
  8
HEWI
100
AcDbLine
 10
-1248.49845855002
 20
1575.969769123055
 30
0.0
 11
-1248.322372124239
 21
1576.889759662606
 31
0.0
  0
LINE
  5
507
330
A
100
AcDbEntity
  8
HEWI
100
AcDbLine
 10
-1051.085433647677
 20
1663.775784137704
 30
0.0
 11
-1050.978469536349
 21
1664.287792804696
 31
0.0
  0
LINE
  5
50A
330
A
100
AcDbEntity
  8
HEWI
100
AcDbLine
 10
-1219.185409233614
 20
1324.81979048536
 30
0.0
 11
-1218.842391655489
 21
1324.745785358407
 31
0.0
  0
LINE
  5
50B
330
A
100
AcDbEntity
  8
HEWI
100
AcDbLine
 10
-1215.890426323458
 20
1324.745785358407
 30
0.0
 11
-1215.873489067599
 21
1324.81979048536
 31
0.0
  0
LINE
  5
50C
330
A
100
AcDbEntity
  8
HEWI
100
AcDbLine
 10
-1217.212447807833
 20
1324.81979048536
 30
0.0
 11
-1216.896438286348
 21
1324.745785358407
 31
0.0
  0
LINE
  5
50D
330
A
100
AcDbEntity
  8
HEWI
100
AcDbLine
 10
-1229.45045439963
 20
1325.347820880868
 30
0.0
 11
-1229.224471733614
 21
1325.294796588875
 31
0.0
  0
LINE
  5
50F
330
A
100
AcDbEntity
  8
HEWI
100
AcDbLine
 10
-1053.312453911348
 20
1667.030789020516
 30
0.0
 11
-1052.957458183809
 21
1666.938969257332
 31
0.0
  0
LINE
  5
510
330
A
100
AcDbEntity
  8
HEWI
100
AcDbLine
 10
-1052.957458183809
 20
1666.938969257332
 30
0.0
 11
-1052.475814507052
 21
1666.814381244637
 31
0.0
  0
LINE
  5
511
330
A
100
AcDbEntity
  8
HEWI
100
AcDbLine
 10
-1050.983428642794
 20
1664.335514667489
 30
0.0
 11
-1050.97145049338
 21
1664.381786945321
 31
0.0
  0
LINE
  5
512
330
A
100
AcDbEntity
  8
HEWI
100
AcDbLine
 10
-1052.475814507052
 20
1666.814381244637
 30
0.0
 11
-1052.388457939669
 21
1666.791760089852
 31
0.0
  0
LINE
  5
513
330
A
100
AcDbEntity
  8
HEWI
100
AcDbLine
 10
-1051.211471245333
 20
1663.457790973641
 30
0.0
 11
-1051.189574883028
 21
1663.541905048348
 31
0.0
  0
LINE
  5
519
330
A
100
AcDbEntity
  8
HEWI
100
AcDbLine
 10
-1215.138473198458
 20
1325.347820880868
 30
0.0
 11
-1214.937514946505
 21
1325.294796588875
 31
0.0
  0
LINE
  5
51A
330
A
100
AcDbEntity
  8
HEWI
100
AcDbLine
 10
-1228.087386772677
 20
1324.81979048536
 30
0.0
 11
-1227.852401421114
 21
1324.745785358407
 31
0.0
  0
LINE
  5
51C
330
A
100
AcDbEntity
  8
HEWI
100
AcDbLine
 10
-1052.310485527559
 20
1666.732250812508
 30
0.0
 11
-1052.203445122286
 21
1666.692768695809
 31
0.0
  0
LINE
  5
51D
330
A
100
AcDbEntity
  8
HEWI
100
AcDbLine
 10
-1053.027419731661
 20
1666.996761920907
 30
0.0
 11
-1052.778396294161
 21
1666.90490401075
 31
0.0
  0
LINE
  5
51E
330
A
100
AcDbEntity
  8
HEWI
100
AcDbLine
 10
-1052.778396294161
 20
1666.90490401075
 30
0.0
 11
-1052.667236015841
 21
1666.863896015145
 31
0.0
  0
LINE
  5
522
330
A
100
AcDbEntity
  8
HEWI
100
AcDbLine
 10
-1216.087417290255
 20
1324.81979048536
 30
0.0
 11
-1215.890426323458
 21
1324.745785358407
 31
0.0
  0
LINE
  5
524
330
A
100
AcDbEntity
  8
HEWI
100
AcDbLine
 10
-1229.479446098849
 20
1325.253750446298
 30
0.0
 11
-1229.41139189963
 21
1325.227810504891
 31
0.0
  0
LINE
  5
527
330
A
100
AcDbEntity
  8
HEWI
100
AcDbLine
 10
-1228.262405083224
 20
1324.678799274422
 30
0.0
 11
-1228.125381157442
 21
1324.619747760751
 31
0.0
  0
LINE
  5
528
330
A
100
AcDbEntity
  8
HEWI
100
AcDbLine
 10
-1051.309432671114
 20
1663.272778156258
 30
0.0
 11
-1051.186904594942
 21
1663.548008563973
 31
0.0
  0
LINE
  5
529
330
A
100
AcDbEntity
  8
HEWI
100
AcDbLine
 10
-1051.186904594942
 20
1663.548008563973
 30
0.0
 11
-1051.131744072481
 21
1663.671871784188
 31
0.0
  0
LINE
  5
52A
330
A
100
AcDbEntity
  8
HEWI
100
AcDbLine
 10
-1051.131744072481
 20
1663.671871784188
 30
0.0
 11
-1051.085433647677
 21
1663.775784137704
 31
0.0
  0
LINE
  5
532
330
A
100
AcDbEntity
  8
HEWI
100
AcDbLine
 10
-1100.77140776877
 20
1533.968769672372
 30
0.0
 11
-1099.905471489474
 21
1533.468777301766
 31
0.0
  0
LINE
  5
534
330
A
100
AcDbEntity
  8
HEWI
100
AcDbLine
 10
-1248.322372124239
 20
1576.889759662606
 30
0.0
 11
-1247.766494438692
 21
1577.737766864754
 31
0.0
  0
LINE
  5
536
330
A
100
AcDbEntity
  8
HEWI
100
AcDbLine
 10
-1051.186904594942
 20
1663.548008563973
 30
0.0
 11
-1051.142425224825
 21
1663.615757587411
 31
0.0
  0
LINE
  5
537
330
A
100
AcDbEntity
  8
HEWI
100
AcDbLine
 10
-1052.546462700411
 20
1666.860767963387
 30
0.0
 11
-1052.475814507052
 21
1666.814381244637
 31
0.0
  0
LINE
  5
538
330
A
100
AcDbEntity
  8
HEWI
100
AcDbLine
 10
-1246.337508842989
 20
1602.526775958993
 30
0.0
 11
-1244.556502983614
 21
1605.238758686043
 31
0.0
  0
LINE
  5
539
330
A
100
AcDbEntity
  8
HEWI
100
AcDbLine
 10
-1165.55641143088
 20
1527.995754840829
 30
0.0
 11
-1163.363418266817
 21
1531.334797504403
 31
0.0
  0
LINE
  5
53B
330
A
100
AcDbEntity
  8
HEWI
100
AcDbLine
 10
-1052.06161467795
 20
1666.542317035653
 30
0.0
 11
-1051.698455498263
 21
1666.303784015633
 31
0.0
  0
LINE
  5
53C
330
A
100
AcDbEntity
  8
HEWI
100
AcDbLine
 10
-1241.688460991427
 20
1600.686756732919
 30
0.0
 11
-1241.02043120627
 21
1601.703755023934
 31
0.0
  0
LINE
  5
53D
330
A
100
AcDbEntity
  8
HEWI
100
AcDbLine
 10
-1169.470443413302
 20
1333.941799762704
 30
0.0
 11
-1167.020492241427
 21
1337.670818927743
 31
0.0
  0
LINE
  5
540
330
A
100
AcDbEntity
  8
HEWI
100
AcDbLine
 10
-1087.47047393088
 20
1537.441784503914
 30
0.0
 11
-1085.020446465059
 21
1541.170765521981
 31
0.0
  0
LINE
  5
547
330
A
100
AcDbEntity
  8
HEWI
100
AcDbLine
 10
-1214.609450981661
 20
1325.347820880868
 30
0.0
 11
-1211.19850127463
 21
1330.219799640633
 31
0.0
  0
LINE
  5
54A
330
A
100
AcDbEntity
  8
HEWI
100
AcDbLine
 10
-1051.249007866427
 20
1663.408466937996
 30
0.0
 11
-1051.211471245333
 21
1663.457790973641
 31
0.0
  0
LINE
  5
54B
330
A
100
AcDbEntity
  8
HEWI
100
AcDbLine
 10
-1051.829452202364
 20
1662.646786334969
 30
0.0
 11
-1051.801452324435
 21
1662.683483722664
 31
0.0
  0
LINE
  5
54C
330
A
100
AcDbEntity
  8
HEWI
100
AcDbLine
 10
-1052.388457939669
 20
1666.791760089852
 30
0.0
 11
-1052.06161467795
 21
1666.542317035653
 31
0.0
  0
LINE
  5
54D
330
A
100
AcDbEntity
  8
HEWI
100
AcDbLine
 10
-1052.06161467795
 20
1666.542317035653
 30
0.0
 11
-1051.64772002463
 21
1666.226421955087
 31
0.0
  0
LINE
  5
54E
330
A
100
AcDbEntity
  8
HEWI
100
AcDbLine
 10
-1051.64772002463
 20
1666.226421955087
 30
0.0
 11
-1051.577453300997
 21
1666.172787311532
 31
0.0
  0
LINE
  5
554
330
A
100
AcDbEntity
  8
HEWI
100
AcDbLine
 10
-1051.698455498263
 20
1662.767788532235
 30
0.0
 11
-1051.309432671114
 21
1663.272778156258
 31
0.0
  0
LINE
  5
556
330
A
100
AcDbEntity
  8
HEWI
100
AcDbLine
 10
-1051.553115532442
 20
1666.129452350594
 30
0.0
 11
-1051.508407280489
 21
1666.090771320321
 31
0.0
  0
LINE
  5
557
330
A
100
AcDbEntity
  8
HEWI
100
AcDbLine
 10
-1052.203445122286
 20
1666.692768695809
 30
0.0
 11
-1051.92977874045
 21
1666.455723407723
 31
0.0
  0
LINE
  5
558
330
A
100
AcDbEntity
  8
HEWI
100
AcDbLine
 10
-1051.92977874045
 20
1666.455723407723
 30
0.0
 11
-1051.793441460177
 21
1666.337620380379
 31
0.0
  0
LINE
  5
55C
330
A
100
AcDbEntity
  8
HEWI
100
AcDbLine
 10
-1229.586410210177
 20
1325.347820880868
 30
0.0
 11
-1229.479446098849
 21
1325.253750446298
 31
0.0
  0
LINE
  5
55D
330
A
100
AcDbEntity
  8
HEWI
100
AcDbLine
 10
-1214.657363579317
 20
1325.294796588875
 30
0.0
 11
-1214.609450981661
 21
1325.347820880868
 31
0.0
  0
ENDSEC
  0
SECTION
  2
OBJECTS
  0
DICTIONARY
  5
19
330
0
100
AcDbDictionary
281
     1
  3
ACAD_CIP_PREVIOUS_PRODUCT_INFO
350
5B7
  3
ACAD_COLOR
350
596
  3
ACAD_DETAILVIEWSTYLE
350
5AF
  3
ACAD_GROUP
350
1A
  3
ACAD_LAYOUT
350
5B1
  3
ACAD_MATERIAL
350
564
  3
ACAD_MLEADERSTYLE
350
5AB
  3
ACAD_MLINESTYLE
350
1B
  3
ACAD_PLOTSETTINGS
350
5B2
  3
ACAD_PLOTSTYLENAME
350
562
  3
ACAD_SCALELIST
350
599
  3
ACAD_SECTIONVIEWSTYLE
350
5AD
  3
ACAD_TABLESTYLE
350
597
  3
ACAD_VISUALSTYLE
350
57D
  3
ACDB_RECOMPOSE_DATA
350
72E
  3
AcDbVariableDictionary
350
6E2
  0
DICTIONARY
  5
5BE
330
2
100
AcDbDictionary
280
     1
281
     1
  3
ACAD_LAYERSTATES
360
5BF
  0
DICTIONARY
  5
6DC
330
14
100
AcDbDictionary
280
     1
281
     1
  3
ADSK_XREC_LAYER_RECONCILED
360
6DD
  0
DICTIONARY
  5
6DE
330
1D
100
AcDbDictionary
280
     1
281
     1
  3
ADSK_XREC_LAYER_RECONCILED
360
6DF
  0
DICTIONARY
  5
6E0
330
5BA
100
AcDbDictionary
280
     1
281
     1
  3
ADSK_XREC_LAYER_RECONCILED
360
6E1
  0
XRECORD
  5
5B7
102
{ACAD_REACTORS
330
19
102
}
330
19
100
AcDbXrecord
280
     1
300
ACDLT
300
2016
300
ACDLT_F_S
  0
DICTIONARY
  5
596
102
{ACAD_REACTORS
330
19
102
}
330
19
100
AcDbDictionary
281
     1
  0
DICTIONARY
  5
5AF
102
{ACAD_REACTORS
330
19
102
}
330
19
100
AcDbDictionary
281
     1
  3
Imperial24
350
5B0
  3
Metric50
350
5C1
  0
DICTIONARY
  5
1A
102
{ACAD_REACTORS
330
19
102
}
330
19
100
AcDbDictionary
281
     1
  0
DICTIONARY
  5
5B1
102
{ACAD_REACTORS
330
19
102
}
330
19
100
AcDbDictionary
281
     1
  3
Layout1
350
5B4
  3
Model
350
5B3
  0
DICTIONARY
  5
564
102
{ACAD_REACTORS
330
19
102
}
330
19
100
AcDbDictionary
281
     1
  3
ByBlock
350
56D
  3
ByLayer
350
565
  3
Global
350
575
  0
DICTIONARY
  5
5AB
102
{ACAD_REACTORS
330
19
102
}
330
19
100
AcDbDictionary
281
     1
  3
Standard
350
5AC
  0
DICTIONARY
  5
1B
102
{ACAD_REACTORS
330
19
102
}
330
19
100
AcDbDictionary
281
     1
  3
STANDARD
350
1C
  0
DICTIONARY
  5
5B2
102
{ACAD_REACTORS
330
19
102
}
330
19
100
AcDbDictionary
281
     1
  0
ACDBDICTIONARYWDFLT
  5
562
102
{ACAD_REACTORS
330
19
102
}
330
19
100
AcDbDictionary
281
     1
  3
Normal
350
563
100
AcDbDictionaryWithDefault
340
563
  0
DICTIONARY
  5
599
102
{ACAD_REACTORS
330
19
102
}
330
19
100
AcDbDictionary
281
     1
  3
A0
350
59A
  3
A1
350
59B
  3
A2
350
59C
  3
A3
350
59D
  3
A4
350
59E
  3
A5
350
59F
  3
A6
350
5A0
  3
A7
350
5A1
  3
A8
350
5A2
  3
A9
350
5A3
  3
B0
350
5A4
  3
B1
350
5A5
  3
B2
350
5A6
  3
B3
350
5A7
  3
B4
350
5A8
  3
B5
350
5A9
  3
B6
350
5AA
  0
DICTIONARY
  5
5AD
102
{ACAD_REACTORS
330
19
102
}
330
19
100
AcDbDictionary
281
     1
  3
Imperial24
350
5AE
  3
Metric50
350
5C0
  0
DICTIONARY
  5
597
102
{ACAD_REACTORS
330
19
102
}
330
19
100
AcDbDictionary
281
     1
  3
Standard
350
598
  0
DICTIONARY
  5
57D
102
{ACAD_REACTORS
330
19
102
}
330
19
100
AcDbDictionary
281
     1
  3
2dWireframe
350
583
  3
Basic
350
582
  3
Brighten
350
589
  3
ColorChange
350
58D
  3
Conceptual
350
586
  3
Dim
350
588
  3
EdgeColorOff
350
595
  3
Facepattern
350
58C
  3
Flat
350
57E
  3
FlatWithEdges
350
57F
  3
Gouraud
350
580
  3
GouraudWithEdges
350
581
  3
Hidden
350
585
  3
JitterOff
350
593
  3
Linepattern
350
58B
  3
OverhangOff
350
594
  3
Realistic
350
587
  3
Shaded
350
592
  3
Shaded with edges
350
591
  3
Shades of Gray
350
58E
  3
Sketchy
350
58F
  3
Thicken
350
58A
  3
Wireframe
350
584
  3
X-Ray
350
590
  0
XRECORD
  5
72E
102
{ACAD_REACTORS
330
19
102
}
330
19
100
AcDbXrecord
280
     1
 90
        1
330
598
  0
DICTIONARY
  5
6E2
102
{ACAD_REACTORS
330
19
102
}
330
19
100
AcDbDictionary
281
     1
  3
CANNOSCALE
350
6E8
  3
CMLEADERSTYLE
350
6E4
  3
CTABLESTYLE
350
6E3
  3
CVIEWDETAILSTYLE
350
6E5
  3
CVIEWSECTIONSTYLE
350
6E6
  3
LAYEREVAL
350
6EA
  3
LAYERNOTIFY
350
6EB
  3
LIGHTINGUNITS
350
6E9
  3
MSLTSCALE
350
6E7
  0
DICTIONARY
  5
5BF
102
{ACAD_REACTORS
330
5BE
102
}
330
5BE
100
AcDbDictionary
281
     1
  0
XRECORD
  5
6DD
102
{ACAD_REACTORS
330
6DC
102
}
330
6DC
100
AcDbXrecord
280
     1
290
     1
  0
XRECORD
  5
6DF
102
{ACAD_REACTORS
330
6DE
102
}
330
6DE
100
AcDbXrecord
280
     1
290
     1
  0
XRECORD
  5
6E1
102
{ACAD_REACTORS
330
6E0
102
}
330
6E0
100
AcDbXrecord
280
     1
290
     1
  0
ACDBDETAILVIEWSTYLE
  5
5B0
102
{ACAD_XDICTIONARY
360
763
102
}
102
{ACAD_REACTORS
330
5AF
102
}
330
5AF
100
AcDbModelDocViewStyle
 70
     0
  3
Imperial24
290
     0
100
AcDbDetailViewStyle
 70
     0
 71
     0
 90
        3
 71
     1
340
17
 62
   256
 40
0.24
340
0
 62
   256
 40
0.24
300

 40
0.36
280
     3
 71
     2
340
13
 90
       25
 62
   256
 71
     3
340
17
 62
   256
 40
0.24
 90
        1
 40
0.75
 90
        1
300
%<\AcVar ViewType \f "%tc1">% %<\AcVar ViewDetailId>%\PVARIA %<\AcVar ViewScale \f "%sn">%
 71
     4
340
13
 90
       25
 62
   256
340
13
 90
       25
 62
   256
280
     0
  0
ACDBDETAILVIEWSTYLE
  5
5C1
102
{ACAD_XDICTIONARY
360
767
102
}
102
{ACAD_REACTORS
330
5AF
102
}
330
5AF
100
AcDbModelDocViewStyle
 70
     0
  3
Metric50
290
     0
100
AcDbDetailViewStyle
 70
     0
 71
     0
 90
        3
 71
     1
340
17
 62
   256
 40
5.0
340
0
 62
   256
 40
5.0
300

 40
0.0
280
     1
 71
     2
340
13
 90
       25
 62
   256
 71
     3
340
17
 62
   256
 40
5.0
 90
        0
 40
15.0
 90
        1
300
%<\AcVar ViewDetailId>% (%<\AcVar ViewScale \f "%sn">%)
 71
     4
340
13
 90
       25
 62
   256
340
13
 90
       25
 62
   256
280
     0
  0
LAYOUT
  5
5B4
102
{ACAD_REACTORS
330
5B1
102
}
330
5B1
100
AcDbPlotSettings
  1

  2
\\srvadruck01\MFSA15
  4

  6

 40
0.0
 41
0.0
 42
0.0
 43
0.0
 44
0.0
 45
0.0
 46
0.0
 47
0.0
 48
0.0
 49
0.0
140
0.0
141
0.0
142
1.0
143
1.0
 70
   688
 72
     0
 73
     0
 74
     5
  7

 75
    16
147
1.0
 76
     0
 77
     2
 78
   300
148
0.0
149
0.0
100
AcDbLayout
  1
Layout1
 70
     0
 71
     1
 10
0.0
 20
0.0
 11
12.0
 21
9.0
 12
0.0
 22
0.0
 32
0.0
 14
1.000000000000000E+20
 24
1.000000000000000E+20
 34
1.000000000000000E+20
 15
-1.000000000000000E+20
 25
-1.000000000000000E+20
 35
-1.000000000000000E+20
146
0.0
 13
0.0
 23
0.0
 33
0.0
 16
1.0
 26
0.0
 36
0.0
 17
0.0
 27
1.0
 37
0.0
 76
     0
330
B
  0
LAYOUT
  5
5B3
102
{ACAD_REACTORS
330
5B1
102
}
330
5B1
100
AcDbPlotSettings
  1

  2
\\srvadruck01\MFSA15
  4

  6

 40
0.0
 41
0.0
 42
0.0
 43
0.0
 44
0.0
 45
0.0
 46
0.0
 47
0.0
 48
0.0
 49
0.0
140
0.0
141
0.0
142
1.0
143
1.0
 70
  1712
 72
     0
 73
     0
 74
     0
  7

 75
     0
147
1.0
 76
     0
 77
     2
 78
   300
148
0.0
149
0.0
100
AcDbLayout
  1
Model
 70
     1
 71
     0
 10
0.0
 20
0.0
 11
12.0
 21
9.0
 12
0.0
 22
0.0
 32
0.0
 14
0.0
 24
0.0
 34
0.0
 15
0.0
 25
0.0
 35
0.0
146
0.0
 13
0.0
 23
0.0
 33
0.0
 16
1.0
 26
0.0
 36
0.0
 17
0.0
 27
1.0
 37
0.0
 76
     0
330
A
331
15
  0
MATERIAL
  5
56D
102
{ACAD_XDICTIONARY
360
56E
102
}
102
{ACAD_REACTORS
330
564
102
}
330
564
100
AcDbMaterial
  1
ByBlock
 72
     0
 43
0.0208333333333333
 43
0.0
 43
0.0
 43
0.0
 43
0.0
 43
0.0208333333333333
 43
0.0
 43
0.0
 43
0.0
 43
0.0
 43
1.0
 43
0.0
 43
0.0
 43
0.0
 43
0.0
 43
1.0
 77
     0
 47
0.0208333333333333
 47
0.0
 47
0.0
 47
0.0
 47
0.0
 47
0.0208333333333333
 47
0.0
 47
0.0
 47
0.0
 47
0.0
 47
1.0
 47
0.0
 47
0.0
 47
0.0
 47
0.0
 47
1.0
171
     0
 49
0.0208333333333333
 49
0.0
 49
0.0
 49
0.0
 49
0.0
 49
0.0208333333333333
 49
0.0
 49
0.0
 49
0.0
 49
0.0
 49
1.0
 49
0.0
 49
0.0
 49
0.0
 49
0.0
 49
1.0
175
     0
142
0.0208333333333333
142
0.0
142
0.0
142
0.0
142
0.0
142
0.0208333333333333
142
0.0
142
0.0
142
0.0
142
0.0
142
1.0
142
0.0
142
0.0
142
0.0
142
0.0
142
1.0
179
     0
144
0.0208333333333333
144
0.0
144
0.0
144
0.0
144
0.0
144
0.0208333333333333
144
0.0
144
0.0
144
0.0
144
0.0
144
1.0
144
0.0
144
0.0
144
0.0
144
0.0
144
1.0
147
0.0208333333333333
147
0.0
147
0.0
147
0.0
147
0.0
147
0.0208333333333333
147
0.0
147
0.0
147
0.0
147
0.0
147
1.0
147
0.0
147
0.0
147
0.0
147
0.0
147
1.0
  0
MATERIAL
  5
565
102
{ACAD_XDICTIONARY
360
566
102
}
102
{ACAD_REACTORS
330
564
102
}
330
564
100
AcDbMaterial
  1
ByLayer
 72
     0
 43
0.0208333333333333
 43
0.0
 43
0.0
 43
0.0
 43
0.0
 43
0.0208333333333333
 43
0.0
 43
0.0
 43
0.0
 43
0.0
 43
1.0
 43
0.0
 43
0.0
 43
0.0
 43
0.0
 43
1.0
 77
     0
 47
0.0208333333333333
 47
0.0
 47
0.0
 47
0.0
 47
0.0
 47
0.0208333333333333
 47
0.0
 47
0.0
 47
0.0
 47
0.0
 47
1.0
 47
0.0
 47
0.0
 47
0.0
 47
0.0
 47
1.0
171
     0
 49
0.0208333333333333
 49
0.0
 49
0.0
 49
0.0
 49
0.0
 49
0.0208333333333333
 49
0.0
 49
0.0
 49
0.0
 49
0.0
 49
1.0
 49
0.0
 49
0.0
 49
0.0
 49
0.0
 49
1.0
175
     0
142
0.0208333333333333
142
0.0
142
0.0
142
0.0
142
0.0
142
0.0208333333333333
142
0.0
142
0.0
142
0.0
142
0.0
142
1.0
142
0.0
142
0.0
142
0.0
142
0.0
142
1.0
179
     0
144
0.0208333333333333
144
0.0
144
0.0
144
0.0
144
0.0
144
0.0208333333333333
144
0.0
144
0.0
144
0.0
144
0.0
144
1.0
144
0.0
144
0.0
144
0.0
144
0.0
144
1.0
147
0.0208333333333333
147
0.0
147
0.0
147
0.0
147
0.0
147
0.0208333333333333
147
0.0
147
0.0
147
0.0
147
0.0
147
1.0
147
0.0
147
0.0
147
0.0
147
0.0
147
1.0
  0
MATERIAL
  5
575
102
{ACAD_XDICTIONARY
360
576
102
}
102
{ACAD_REACTORS
330
564
102
}
330
564
100
AcDbMaterial
  1
Global
 72
     0
 43
0.0208333333333333
 43
0.0
 43
0.0
 43
0.0
 43
0.0
 43
0.0208333333333333
 43
0.0
 43
0.0
 43
0.0
 43
0.0
 43
1.0
 43
0.0
 43
0.0
 43
0.0
 43
0.0
 43
1.0
 77
     0
 47
0.0208333333333333
 47
0.0
 47
0.0
 47
0.0
 47
0.0
 47
0.0208333333333333
 47
0.0
 47
0.0
 47
0.0
 47
0.0
 47
1.0
 47
0.0
 47
0.0
 47
0.0
 47
0.0
 47
1.0
171
     0
 49
0.0208333333333333
 49
0.0
 49
0.0
 49
0.0
 49
0.0
 49
0.0208333333333333
 49
0.0
 49
0.0
 49
0.0
 49
0.0
 49
1.0
 49
0.0
 49
0.0
 49
0.0
 49
0.0
 49
1.0
175
     0
142
0.0208333333333333
142
0.0
142
0.0
142
0.0
142
0.0
142
0.0208333333333333
142
0.0
142
0.0
142
0.0
142
0.0
142
1.0
142
0.0
142
0.0
142
0.0
142
0.0
142
1.0
179
     0
144
0.0208333333333333
144
0.0
144
0.0
144
0.0
144
0.0
144
0.0208333333333333
144
0.0
144
0.0
144
0.0
144
0.0
144
1.0
144
0.0
144
0.0
144
0.0
144
0.0
144
1.0
147
0.0208333333333333
147
0.0
147
0.0
147
0.0
147
0.0
147
0.0208333333333333
147
0.0
147
0.0
147
0.0
147
0.0
147
1.0
147
0.0
147
0.0
147
0.0
147
0.0
147
1.0
  0
MLEADERSTYLE
  5
5AC
102
{ACAD_XDICTIONARY
360
75F
102
}
102
{ACAD_REACTORS
330
5AB
102
}
330
5AB
100
AcDbMLeaderStyle
179
     2
170
     2
171
     1
172
     0
 90
        2
 40
0.0
 41
0.0
173
     1
 91
-1056964608
340
11
 92
       -2
290
     1
 42
0.09
291
     1
 43
0.36
  3
Standard
 44
0.18
300

342
17
174
     1
178
     6
175
     1
176
     0
 93
-1056964608
 45
0.18
292
     0
297
     0
 46
0.18
 94
-1056964608
 47
1.0
 49
1.0
140
1.0
293
     1
141
0.0
294
     1
177
     0
142
1.0
295
     0
296
     0
143
0.125
271
     0
272
     9
273
     9
  0
MLINESTYLE
  5
1C
102
{ACAD_REACTORS
330
1B
102
}
330
1B
100
AcDbMlineStyle
  2
STANDARD
 70
     0
  3

 62
     0
 51
90.0
 52
90.0
 71
     2
 49
0.5
 62
   256
  6
BYLAYER
 49
-0.5
 62
   256
  6
BYLAYER
  0
ACDBPLACEHOLDER
  5
563
102
{ACAD_REACTORS
330
562
102
}
330
562
  0
SCALE
  5
59A
102
{ACAD_REACTORS
330
599
102
}
330
599
100
AcDbScale
 70
     0
300
1:1
140
1.0
141
1.0
290
     1
  0
SCALE
  5
59B
102
{ACAD_REACTORS
330
599
102
}
330
599
100
AcDbScale
 70
     0
300
1/128" = 1'-0"
140
0.0078125
141
12.0
290
     0
  0
SCALE
  5
59C
102
{ACAD_REACTORS
330
599
102
}
330
599
100
AcDbScale
 70
     0
300
1/64" = 1'-0"
140
0.015625
141
12.0
290
     0
  0
SCALE
  5
59D
102
{ACAD_REACTORS
330
599
102
}
330
599
100
AcDbScale
 70
     0
300
1/32" = 1'-0"
140
0.03125
141
12.0
290
     0
  0
SCALE
  5
59E
102
{ACAD_REACTORS
330
599
102
}
330
599
100
AcDbScale
 70
     0
300
1/16" = 1'-0"
140
0.0625
141
12.0
290
     0
  0
SCALE
  5
59F
102
{ACAD_REACTORS
330
599
102
}
330
599
100
AcDbScale
 70
     0
300
3/32" = 1'-0"
140
0.09375
141
12.0
290
     0
  0
SCALE
  5
5A0
102
{ACAD_REACTORS
330
599
102
}
330
599
100
AcDbScale
 70
     0
300
1/8" = 1'-0"
140
0.125
141
12.0
290
     0
  0
SCALE
  5
5A1
102
{ACAD_REACTORS
330
599
102
}
330
599
100
AcDbScale
 70
     0
300
3/16" = 1'-0"
140
0.1875
141
12.0
290
     0
  0
SCALE
  5
5A2
102
{ACAD_REACTORS
330
599
102
}
330
599
100
AcDbScale
 70
     0
300
1/4" = 1'-0"
140
0.25
141
12.0
290
     0
  0
SCALE
  5
5A3
102
{ACAD_REACTORS
330
599
102
}
330
599
100
AcDbScale
 70
     0
300
3/8" = 1'-0"
140
0.375
141
12.0
290
     0
  0
SCALE
  5
5A4
102
{ACAD_REACTORS
330
599
102
}
330
599
100
AcDbScale
 70
     0
300
1/2" = 1'-0"
140
0.5
141
12.0
290
     0
  0
SCALE
  5
5A5
102
{ACAD_REACTORS
330
599
102
}
330
599
100
AcDbScale
 70
     0
300
3/4" = 1'-0"
140
0.75
141
12.0
290
     0
  0
SCALE
  5
5A6
102
{ACAD_REACTORS
330
599
102
}
330
599
100
AcDbScale
 70
     0
300
1" = 1'-0"
140
1.0
141
12.0
290
     0
  0
SCALE
  5
5A7
102
{ACAD_REACTORS
330
599
102
}
330
599
100
AcDbScale
 70
     0
300
1-1/2" = 1'-0"
140
1.5
141
12.0
290
     0
  0
SCALE
  5
5A8
102
{ACAD_REACTORS
330
599
102
}
330
599
100
AcDbScale
 70
     0
300
3" = 1'-0"
140
3.0
141
12.0
290
     0
  0
SCALE
  5
5A9
102
{ACAD_REACTORS
330
599
102
}
330
599
100
AcDbScale
 70
     0
300
6" = 1'-0"
140
6.0
141
12.0
290
     0
  0
SCALE
  5
5AA
102
{ACAD_REACTORS
330
599
102
}
330
599
100
AcDbScale
 70
     0
300
1'-0" = 1'-0"
140
12.0
141
12.0
290
     0
  0
ACDBSECTIONVIEWSTYLE
  5
5AE
102
{ACAD_XDICTIONARY
360
761
102
}
102
{ACAD_REACTORS
330
5AD
102
}
330
5AD
100
AcDbModelDocViewStyle
 70
     0
  3
Imperial24
290
     0
100
AcDbSectionViewStyle
 70
     0
 71
     0
 90
       78
 71
     1
340
17
 62
   256
 40
0.24
340
0
340
0
 62
   256
 40
0.24
300
I, O, Q, S, X, Z
 40
0.48
 90
        3
 40
0.18
 90
        1
 71
     2
340
13
 90
       25
 62
   256
340
13
 90
       50
 62
   256
 40
0.24
 40
0.0
 40
0.24
 71
     3
340
17
 62
   256
 40
0.24
 90
        1
 40
0.75
 90
        1
300
%<\AcVar ViewType \f "%tc1">% %<\AcVar ViewSectionStartId>%-%<\AcVar ViewSectionEndId>%\PVARIA %<\AcVar ViewScale \f "%sn">%
 71
     4
 62
   256
 62
   257
300
ANSI31
 40
1.0
 90
        0
290
     0
290
     0
 90
        6
 40
0.0
 40
1.570796326794896
 40
0.2617993877991494
 40
1.308996938995747
 40
-0.2617993877991494
 40
1.832595714594045
  0
ACDBSECTIONVIEWSTYLE
  5
5C0
102
{ACAD_XDICTIONARY
360
765
102
}
102
{ACAD_REACTORS
330
5AD
102
}
330
5AD
100
AcDbModelDocViewStyle
 70
     0
  3
Metric50
290
     0
100
AcDbSectionViewStyle
 70
     0
 71
     0
 90
      102
 71
     1
340
17
 62
   256
 40
5.0
340
0
340
0
 62
   256
 40
5.0
300
I, O, Q, S, X, Z
 40
10.0
 90
        0
 40
2.5
 90
        0
 71
     2
340
13
 90
       25
 62
   256
340
13
 90
       50
 62
   256
 40
5.0
 40
2.5
 40
5.0
 71
     3
340
17
 62
   256
 40
5.0
 90
        0
 40
15.0
 90
        1
300
%<\AcVar ViewSectionStartId>%-%<\AcVar ViewSectionEndId>% (%<\AcVar ViewScale \f "%sn">%)
 71
     4
 62
   256
 62
   257
300
ANSI31
 40
1.0
 90
        0
290
     0
290
     0
 90
        6
 40
0.0
 40
1.570796326794896
 40
0.2617993877991494
 40
1.308996938995747
 40
-0.2617993877991494
 40
1.832595714594045
  0
TABLESTYLE
  5
598
102
{ACAD_XDICTIONARY
360
6EC
102
}
102
{ACAD_REACTORS
330
597
102
}
330
597
100
AcDbTableStyle
280
     0
  3
Standard
 70
     0
 71
     0
 40
0.06
 41
0.06
280
     0
281
     0
  7
STANDARD
140
0.18
170
     2
 62
     0
 63
     7
283
     0
 90
      512
 91
        0
  1

274
    -2
284
     1
 64
     0
275
    -2
285
     1
 65
     0
276
    -2
286
     1
 66
     0
277
    -2
287
     1
 67
     0
278
    -2
288
     1
 68
     0
279
    -2
289
     1
 69
     0
  7
STANDARD
140
0.25
170
     5
 62
     0
 63
     7
283
     0
 90
      512
 91
        0
  1

274
    -2
284
     1
 64
     0
275
    -2
285
     1
 65
     0
276
    -2
286
     1
 66
     0
277
    -2
287
     1
 67
     0
278
    -2
288
     1
 68
     0
279
    -2
289
     1
 69
     0
  7
STANDARD
140
0.18
170
     5
 62
     0
 63
     7
283
     0
 90
      512
 91
        0
  1

274
    -2
284
     1
 64
     0
275
    -2
285
     1
 65
     0
276
    -2
286
     1
 66
     0
277
    -2
287
     1
 67
     0
278
    -2
288
     1
 68
     0
279
    -2
289
     1
 69
     0
  0
VISUALSTYLE
  5
583
102
{ACAD_XDICTIONARY
360
739
102
}
102
{ACAD_REACTORS
330
57D
102
}
330
57D
100
AcDbVisualStyle
  2
2dWireframe
 70
     4
177
     2
291
     0
 71
     0
176
     1
 72
     2
176
     1
 73
     0
176
     1
 90
        0
176
     1
 40
0.6
176
     1
 41
30.0
176
     1
 63
     7
421
 16777215
176
     1
 74
     1
176
     1
 91
        4
176
     1
 64
     7
176
     1
 65
   257
176
     1
 75
     1
176
     1
175
     1
176
     1
 42
1.0
176
     1
 92
        0
176
     1
 66
   257
176
     1
 43
1.0
176
     1
 76
     1
176
     1
 77
     6
176
     1
 78
     2
176
     1
 67
     7
176
     1
 79
     5
176
     1
170
     0
176
     1
171
     0
176
     1
290
     0
176
     1
 93
        1
176
     1
 44
0.0
176
     1
173
     0
176
     1
1001
ACAD
1000
AcDbSavedByObjectVersion
1070
     0
  0
VISUALSTYLE
  5
582
102
{ACAD_XDICTIONARY
360
737
102
}
102
{ACAD_REACTORS
330
57D
102
}
330
57D
100
AcDbVisualStyle
  2
Basic
 70
     7
177
     2
291
     1
 71
     1
176
     1
 72
     0
176
     1
 73
     1
176
     1
 90
        0
176
     1
 40
0.6
176
     1
 41
30.0
176
     1
 63
     7
421
 16777215
176
     1
 74
     0
176
     1
 91
        4
176
     1
 64
     7
176
     1
 65
   257
176
     1
 75
     1
176
     1
175
     1
176
     1
 42
1.0
176
     1
 92
        8
176
     1
 66
     7
176
     1
 43
1.0
176
     1
 76
     1
176
     1
 77
     6
176
     1
 78
     2
176
     1
 67
     7
176
     1
 79
     5
176
     1
170
     0
176
     1
171
     0
176
     1
290
     0
176
     1
 93
        1
176
     1
 44
0.0
176
     1
173
     0
176
     1
1001
ACAD
1000
AcDbSavedByObjectVersion
1070
     0
  0
VISUALSTYLE
  5
589
102
{ACAD_XDICTIONARY
360
745
102
}
102
{ACAD_REACTORS
330
57D
102
}
330
57D
100
AcDbVisualStyle
  2
Brighten
 70
    12
177
     2
291
     1
 71
     2
176
     1
 72
     2
176
     1
 73
     0
176
     1
 90
        0
176
     1
 40
0.6
176
     1
 41
30.0
176
     1
 63
     7
421
 16777215
176
     1
 74
     1
176
     1
 91
        4
176
     1
 64
     7
176
     1
 65
   257
176
     1
 75
     1
176
     1
175
     1
176
     1
 42
1.0
176
     1
 92
        8
176
     1
 66
     7
176
     1
 43
1.0
176
     1
 76
     1
176
     1
 77
     6
176
     1
 78
     2
176
     1
 67
     7
176
     1
 79
     5
176
     1
170
     0
176
     1
171
     0
176
     1
290
     0
176
     1
 93
        1
176
     1
 44
50.0
176
     1
173
     0
176
     1
1001
ACAD
1000
AcDbSavedByObjectVersion
1070
     0
  0
VISUALSTYLE
  5
58D
102
{ACAD_XDICTIONARY
360
74D
102
}
102
{ACAD_REACTORS
330
57D
102
}
330
57D
100
AcDbVisualStyle
  2
ColorChange
 70
    16
177
     2
291
     1
 71
     2
176
     1
 72
     2
176
     1
 73
     3
176
     1
 90
        0
176
     1
 40
0.6
176
     1
 41
30.0
176
     1
 63
     8
421
  8421504
176
     1
 74
     1
176
     1
 91
        4
176
     1
 64
     7
176
     1
 65
   257
176
     1
 75
     1
176
     1
175
     1
176
     1
 42
1.0
176
     1
 92
        8
176
     1
 66
     8
424
  8421504
176
     1
 43
1.0
176
     1
 76
     1
176
     1
 77
     6
176
     1
 78
     2
176
     1
 67
     7
176
     1
 79
     5
176
     1
170
     0
176
     1
171
     0
176
     1
290
     0
176
     1
 93
        1
176
     1
 44
0.0
176
     1
173
     0
176
     1
1001
ACAD
1000
AcDbSavedByObjectVersion
1070
     0
  0
VISUALSTYLE
  5
586
102
{ACAD_XDICTIONARY
360
73F
102
}
102
{ACAD_REACTORS
330
57D
102
}
330
57D
100
AcDbVisualStyle
  2
Conceptual
 70
     9
177
     2
291
     0
 71
     3
176
     1
 72
     2
176
     1
 73
     0
176
     1
 90
        0
176
     1
 40
0.6
176
     1
 41
30.0
176
     1
 63
     7
421
 16777215
176
     1
 74
     2
176
     1
 91
        2
176
     1
 64
     7
176
     1
 65
   257
176
     1
 75
     1
176
     1
175
     1
176
     1
 42
179.0
176
     1
 92
        8
176
     1
 66
     7
176
     1
 43
1.0
176
     1
 76
     1
176
     1
 77
     6
176
     1
 78
     2
176
     1
 67
     7
176
     1
 79
     3
176
     1
170
     0
176
     1
171
     0
176
     1
290
     0
176
     1
 93
        1
176
     1
 44
0.0
176
     1
173
     0
176
     1
1001
ACAD
1000
AcDbSavedByObjectVersion
1070
     0
  0
VISUALSTYLE
  5
588
102
{ACAD_XDICTIONARY
360
743
102
}
102
{ACAD_REACTORS
330
57D
102
}
330
57D
100
AcDbVisualStyle
  2
Dim
 70
    11
177
     2
291
     1
 71
     2
176
     1
 72
     2
176
     1
 73
     0
176
     1
 90
        0
176
     1
 40
0.6
176
     1
 41
30.0
176
     1
 63
     7
421
 16777215
176
     1
 74
     1
176
     1
 91
        4
176
     1
 64
     7
176
     1
 65
   257
176
     1
 75
     1
176
     1
175
     1
176
     1
 42
1.0
176
     1
 92
        8
176
     1
 66
     7
176
     1
 43
1.0
176
     1
 76
     1
176
     1
 77
     6
176
     1
 78
     2
176
     1
 67
     7
176
     1
 79
     5
176
     1
170
     0
176
     1
171
     0
176
     1
290
     0
176
     1
 93
        1
176
     1
 44
-50.0
176
     1
173
     0
176
     1
1001
ACAD
1000
AcDbSavedByObjectVersion
1070
     0
  0
VISUALSTYLE
  5
595
102
{ACAD_XDICTIONARY
360
75D
102
}
102
{ACAD_REACTORS
330
57D
102
}
330
57D
100
AcDbVisualStyle
  2
EdgeColorOff
 70
    22
177
     2
291
     1
 71
     2
176
     0
 72
     2
176
     0
 73
     0
176
     0
 90
        0
176
     0
 40
0.6
176
     0
 41
30.0
176
     0
 63
     7
421
 16777215
176
     0
 74
     1
176
     0
 91
        4
176
     0
 64
     7
176
     0
 65
   257
176
     0
 75
     1
176
     0
175
     1
176
     0
 42
1.0
176
     0
 92
        8
176
     2
 66
     7
176
     0
 43
1.0
176
     0
 76
     1
176
     0
 77
     6
176
     0
 78
     2
176
     0
 67
     7
176
     0
 79
     5
176
     0
170
     0
176
     0
171
     0
176
     0
290
     0
176
     0
 93
        1
176
     0
 44
0.0
176
     0
173
     0
176
     0
1001
ACAD
1000
AcDbSavedByObjectVersion
1070
     0
  0
VISUALSTYLE
  5
58C
102
{ACAD_XDICTIONARY
360
74B
102
}
102
{ACAD_REACTORS
330
57D
102
}
330
57D
100
AcDbVisualStyle
  2
Facepattern
 70
    15
177
     2
291
     1
 71
     2
176
     1
 72
     2
176
     1
 73
     0
176
     1
 90
        0
176
     1
 40
0.6
176
     1
 41
30.0
176
     1
 63
     7
421
 16777215
176
     1
 74
     1
176
     1
 91
        4
176
     1
 64
     7
176
     1
 65
   257
176
     1
 75
     1
176
     1
175
     1
176
     1
 42
1.0
176
     1
 92
        8
176
     1
 66
     7
176
     1
 43
1.0
176
     1
 76
     1
176
     1
 77
     6
176
     1
 78
     2
176
     1
 67
     7
176
     1
 79
     5
176
     1
170
     0
176
     1
171
     0
176
     1
290
     0
176
     1
 93
        1
176
     1
 44
0.0
176
     1
173
     0
176
     1
1001
ACAD
1000
AcDbSavedByObjectVersion
1070
     0
  0
VISUALSTYLE
  5
57E
102
{ACAD_XDICTIONARY
360
72F
102
}
102
{ACAD_REACTORS
330
57D
102
}
330
57D
100
AcDbVisualStyle
  2
Flat
 70
     0
177
     2
291
     1
 71
     2
176
     1
 72
     1
176
     1
 73
     1
176
     1
 90
        2
176
     1
 40
0.6
176
     1
 41
30.0
176
     1
 63
     7
421
 16777215
176
     1
 74
     0
176
     1
 91
        0
176
     1
 64
     7
176
     1
 65
   257
176
     1
 75
     1
176
     1
175
     1
176
     1
 42
1.0
176
     1
 92
        8
176
     1
 66
     7
176
     1
 43
1.0
176
     1
 76
     1
176
     1
 77
     6
176
     1
 78
     2
176
     1
 67
     7
176
     1
 79
     5
176
     1
170
     0
176
     1
171
     0
176
     1
290
     0
176
     1
 93
       13
176
     1
 44
0.0
176
     1
173
     0
176
     1
1001
ACAD
1000
AcDbSavedByObjectVersion
1070
     0
  0
VISUALSTYLE
  5
57F
102
{ACAD_XDICTIONARY
360
731
102
}
102
{ACAD_REACTORS
330
57D
102
}
330
57D
100
AcDbVisualStyle
  2
FlatWithEdges
 70
     1
177
     2
291
     1
 71
     2
176
     1
 72
     1
176
     1
 73
     1
176
     1
 90
        2
176
     1
 40
0.6
176
     1
 41
30.0
176
     1
 63
     7
421
 16777215
176
     1
 74
     1
176
     1
 91
        0
176
     1
 64
     7
176
     1
 65
   257
176
     1
 75
     1
176
     1
175
     1
176
     1
 42
1.0
176
     1
 92
        0
176
     1
 66
   257
176
     1
 43
1.0
176
     1
 76
     1
176
     1
 77
     6
176
     1
 78
     2
176
     1
 67
     7
176
     1
 79
     5
176
     1
170
     0
176
     1
171
     0
176
     1
290
     0
176
     1
 93
       13
176
     1
 44
0.0
176
     1
173
     0
176
     1
1001
ACAD
1000
AcDbSavedByObjectVersion
1070
     0
  0
VISUALSTYLE
  5
580
102
{ACAD_XDICTIONARY
360
733
102
}
102
{ACAD_REACTORS
330
57D
102
}
330
57D
100
AcDbVisualStyle
  2
Gouraud
 70
     2
177
     2
291
     1
 71
     2
176
     1
 72
     2
176
     1
 73
     1
176
     1
 90
        2
176
     1
 40
0.6
176
     1
 41
30.0
176
     1
 63
     7
421
 16777215
176
     1
 74
     0
176
     1
 91
        0
176
     1
 64
     7
176
     1
 65
   257
176
     1
 75
     1
176
     1
175
     1
176
     1
 42
1.0
176
     1
 92
        0
176
     1
 66
     7
176
     1
 43
1.0
176
     1
 76
     1
176
     1
 77
     6
176
     1
 78
     2
176
     1
 67
     7
176
     1
 79
     5
176
     1
170
     0
176
     1
171
     0
176
     1
290
     0
176
     1
 93
       13
176
     1
 44
0.0
176
     1
173
     0
176
     1
1001
ACAD
1000
AcDbSavedByObjectVersion
1070
     0
  0
VISUALSTYLE
  5
581
102
{ACAD_XDICTIONARY
360
735
102
}
102
{ACAD_REACTORS
330
57D
102
}
330
57D
100
AcDbVisualStyle
  2
GouraudWithEdges
 70
     3
177
     2
291
     1
 71
     2
176
     1
 72
     2
176
     1
 73
     1
176
     1
 90
        2
176
     1
 40
0.6
176
     1
 41
30.0
176
     1
 63
     7
421
 16777215
176
     1
 74
     1
176
     1
 91
        0
176
     1
 64
     7
176
     1
 65
   257
176
     1
 75
     1
176
     1
175
     1
176
     1
 42
1.0
176
     1
 92
        0
176
     1
 66
   257
176
     1
 43
1.0
176
     1
 76
     1
176
     1
 77
     6
176
     1
 78
     2
176
     1
 67
     7
176
     1
 79
     5
176
     1
170
     0
176
     1
171
     0
176
     1
290
     0
176
     1
 93
       13
176
     1
 44
0.0
176
     1
173
     0
176
     1
1001
ACAD
1000
AcDbSavedByObjectVersion
1070
     0
  0
VISUALSTYLE
  5
585
102
{ACAD_XDICTIONARY
360
73D
102
}
102
{ACAD_REACTORS
330
57D
102
}
330
57D
100
AcDbVisualStyle
  2
Hidden
 70
     6
177
     2
291
     0
 71
     1
176
     1
 72
     2
176
     1
 73
     2
176
     1
 90
        0
176
     1
 40
0.6
176
     1
 41
30.0
176
     1
 63
     7
421
 16777215
176
     1
 74
     2
176
     1
 91
        2
176
     1
 64
     7
176
     1
 65
   257
176
     1
 75
     2
176
     1
175
     1
176
     1
 42
40.0
176
     1
 92
        0
176
     1
 66
   257
176
     1
 43
1.0
176
     1
 76
     1
176
     1
 77
     6
176
     1
 78
     2
176
     1
 67
     7
176
     1
 79
     3
176
     1
170
     0
176
     1
171
     0
176
     1
290
     0
176
     1
 93
        1
176
     1
 44
0.0
176
     1
173
     0
176
     1
1001
ACAD
1000
AcDbSavedByObjectVersion
1070
     0
  0
VISUALSTYLE
  5
593
102
{ACAD_XDICTIONARY
360
759
102
}
102
{ACAD_REACTORS
330
57D
102
}
330
57D
100
AcDbVisualStyle
  2
JitterOff
 70
    20
177
     2
291
     1
 71
     2
176
     0
 72
     2
176
     0
 73
     0
176
     0
 90
        0
176
     0
 40
0.6
176
     0
 41
30.0
176
     0
 63
     7
421
 16777215
176
     0
 74
     1
176
     0
 91
        4
176
     0
 64
     7
176
     0
 65
   257
176
     0
 75
     1
176
     0
175
     1
176
     0
 42
1.0
176
     0
 92
       10
176
     2
 66
     7
176
     0
 43
1.0
176
     0
 76
     1
176
     0
 77
     6
176
     0
 78
     2
176
     0
 67
     7
176
     0
 79
     5
176
     0
170
     0
176
     0
171
     0
176
     0
290
     0
176
     0
 93
        1
176
     0
 44
0.0
176
     0
173
     0
176
     0
1001
ACAD
1000
AcDbSavedByObjectVersion
1070
     0
  0
VISUALSTYLE
  5
58B
102
{ACAD_XDICTIONARY
360
749
102
}
102
{ACAD_REACTORS
330
57D
102
}
330
57D
100
AcDbVisualStyle
  2
Linepattern
 70
    14
177
     2
291
     1
 71
     2
176
     1
 72
     2
176
     1
 73
     0
176
     1
 90
        0
176
     1
 40
0.6
176
     1
 41
30.0
176
     1
 63
     7
421
 16777215
176
     1
 74
     1
176
     1
 91
        4
176
     1
 64
     7
176
     1
 65
   257
176
     1
 75
     7
176
     1
175
     7
176
     1
 42
1.0
176
     1
 92
        8
176
     1
 66
     7
176
     1
 43
1.0
176
     1
 76
     1
176
     1
 77
     6
176
     1
 78
     2
176
     1
 67
     7
176
     1
 79
     5
176
     1
170
     0
176
     1
171
     0
176
     1
290
     0
176
     1
 93
        1
176
     1
 44
0.0
176
     1
173
     0
176
     1
1001
ACAD
1000
AcDbSavedByObjectVersion
1070
     0
  0
VISUALSTYLE
  5
594
102
{ACAD_XDICTIONARY
360
75B
102
}
102
{ACAD_REACTORS
330
57D
102
}
330
57D
100
AcDbVisualStyle
  2
OverhangOff
 70
    21
177
     2
291
     1
 71
     2
176
     0
 72
     2
176
     0
 73
     0
176
     0
 90
        0
176
     0
 40
0.6
176
     0
 41
30.0
176
     0
 63
     7
421
 16777215
176
     0
 74
     1
176
     0
 91
        4
176
     0
 64
     7
176
     0
 65
   257
176
     0
 75
     1
176
     0
175
     1
176
     0
 42
1.0
176
     0
 92
        9
176
     2
 66
     7
176
     0
 43
1.0
176
     0
 76
     1
176
     0
 77
     6
176
     0
 78
     2
176
     0
 67
     7
176
     0
 79
     5
176
     0
170
     0
176
     0
171
     0
176
     0
290
     0
176
     0
 93
        1
176
     0
 44
0.0
176
     0
173
     0
176
     0
1001
ACAD
1000
AcDbSavedByObjectVersion
1070
     0
  0
VISUALSTYLE
  5
587
102
{ACAD_XDICTIONARY
360
741
102
}
102
{ACAD_REACTORS
330
57D
102
}
330
57D
100
AcDbVisualStyle
  2
Realistic
 70
     8
177
     2
291
     0
 71
     2
176
     1
 72
     3
176
     1
 73
     0
176
     1
 90
        2
176
     1
 40
0.6
176
     1
 41
30.0
176
     1
 63
     7
421
 16777215
176
     1
 74
     0
176
     1
 91
        0
176
     1
 64
     7
176
     1
 65
   257
176
     1
 75
     1
176
     1
175
     1
176
     1
 42
1.0
176
     1
 92
        8
176
     1
 66
   257
176
     1
 43
1.0
176
     1
 76
     1
176
     1
 77
     6
176
     1
 78
     2
176
     1
 67
     7
176
     1
 79
     3
176
     1
170
     0
176
     1
171
     0
176
     1
290
     0
176
     1
 93
       13
176
     1
 44
0.0
176
     1
173
     0
176
     1
1001
ACAD
1000
AcDbSavedByObjectVersion
1070
     0
  0
VISUALSTYLE
  5
592
102
{ACAD_XDICTIONARY
360
757
102
}
102
{ACAD_REACTORS
330
57D
102
}
330
57D
100
AcDbVisualStyle
  2
Shaded
 70
    27
177
     2
291
     0
 71
     2
176
     1
 72
     2
176
     1
 73
     1
176
     1
 90
        2
176
     1
 40
0.6
176
     1
 41
30.0
176
     1
 63
     7
421
 16777215
176
     1
 74
     0
176
     1
 91
        4
176
     1
 64
     7
176
     1
 65
   257
176
     1
 75
     1
176
     1
175
     1
176
     1
 42
1.0
176
     1
 92
        8
176
     1
 66
   257
176
     1
 43
1.0
176
     1
 76
     1
176
     1
 77
     6
176
     1
 78
     2
176
     1
 67
     8
425
  7895160
176
     1
 79
     3
176
     1
170
     0
176
     1
171
     0
176
     1
290
     0
176
     1
 93
        5
176
     1
 44
0.0
176
     1
173
     0
176
     1
1001
ACAD
1000
AcDbSavedByObjectVersion
1070
     0
  0
VISUALSTYLE
  5
591
102
{ACAD_XDICTIONARY
360
755
102
}
102
{ACAD_REACTORS
330
57D
102
}
330
57D
100
AcDbVisualStyle
  2
Shaded with edges
 70
    26
177
     2
291
     0
 71
     2
176
     1
 72
     2
176
     1
 73
     1
176
     1
 90
        2
176
     1
 40
0.6
176
     1
 41
30.0
176
     1
 63
     7
421
 16777215
176
     1
 74
     1
176
     1
 91
       10
176
     1
 64
     7
176
     1
 65
   257
176
     1
 75
     2
176
     1
175
     1
176
     1
 42
1.0
176
     1
 92
        8
176
     1
 66
   257
176
     1
 43
1.0
176
     1
 76
     1
176
     1
 77
     6
176
     1
 78
     2
176
     1
 67
     7
176
     1
 79
     3
176
     1
170
     0
176
     1
171
     0
176
     1
290
     0
176
     1
 93
        5
176
     1
 44
0.0
176
     1
173
     0
176
     1
1001
ACAD
1000
AcDbSavedByObjectVersion
1070
     0
  0
VISUALSTYLE
  5
58E
102
{ACAD_XDICTIONARY
360
74F
102
}
102
{ACAD_REACTORS
330
57D
102
}
330
57D
100
AcDbVisualStyle
  2
Shades of Gray
 70
    23
177
     2
291
     0
 71
     2
176
     1
 72
     2
176
     1
 73
     3
176
     1
 90
        0
176
     1
 40
0.6
176
     1
 41
30.0
176
     1
 63
     7
421
 16777215
176
     1
 74
     2
176
     1
 91
        2
176
     1
 64
     7
176
     1
 65
     7
176
     1
 75
     1
176
     1
175
     1
176
     1
 42
40.0
176
     1
 92
        8
176
     1
 66
     7
176
     1
 43
1.0
176
     1
 76
     1
176
     1
 77
     6
176
     1
 78
     2
176
     1
 67
     7
176
     1
 79
     3
176
     1
170
     0
176
     1
171
     0
176
     1
290
     0
176
     1
 93
        1
176
     1
 44
0.0
176
     1
173
     0
176
     1
1001
ACAD
1000
AcDbSavedByObjectVersion
1070
     0
  0
VISUALSTYLE
  5
58F
102
{ACAD_XDICTIONARY
360
751
102
}
102
{ACAD_REACTORS
330
57D
102
}
330
57D
100
AcDbVisualStyle
  2
Sketchy
 70
    24
177
     2
291
     0
 71
     1
176
     1
 72
     2
176
     1
 73
     2
176
     1
 90
        0
176
     1
 40
0.6
176
     1
 41
30.0
176
     1
 63
     7
421
 16777215
176
     1
 74
     2
176
     1
 91
        2
176
     1
 64
     7
176
     1
 65
     7
176
     1
 75
     1
176
     1
175
     1
176
     1
 42
40.0
176
     1
 92
       11
176
     1
 66
     7
176
     1
 43
1.0
176
     1
 76
     1
176
     1
 77
     6
176
     1
 78
     2
176
     1
 67
     7
176
     1
 79
     6
176
     1
170
     0
176
     1
171
     0
176
     1
290
     0
176
     1
 93
        1
176
     1
 44
0.0
176
     1
173
     0
176
     1
1001
ACAD
1000
AcDbSavedByObjectVersion
1070
     0
  0
VISUALSTYLE
  5
58A
102
{ACAD_XDICTIONARY
360
747
102
}
102
{ACAD_REACTORS
330
57D
102
}
330
57D
100
AcDbVisualStyle
  2
Thicken
 70
    13
177
     2
291
     1
 71
     2
176
     1
 72
     2
176
     1
 73
     0
176
     1
 90
        0
176
     1
 40
0.6
176
     1
 41
30.0
176
     1
 63
     7
421
 16777215
176
     1
 74
     1
176
     1
 91
        4
176
     1
 64
     7
176
     1
 65
   257
176
     1
 75
     1
176
     1
175
     1
176
     1
 42
1.0
176
     1
 92
       12
176
     1
 66
     7
176
     1
 43
1.0
176
     1
 76
     1
176
     1
 77
     6
176
     1
 78
     2
176
     1
 67
     7
176
     1
 79
     5
176
     1
170
     0
176
     1
171
     0
176
     1
290
     0
176
     1
 93
        1
176
     1
 44
0.0
176
     1
173
     0
176
     1
1001
ACAD
1000
AcDbSavedByObjectVersion
1070
     0
  0
VISUALSTYLE
  5
584
102
{ACAD_XDICTIONARY
360
73B
102
}
102
{ACAD_REACTORS
330
57D
102
}
330
57D
100
AcDbVisualStyle
  2
Wireframe
 70
     5
177
     2
291
     0
 71
     0
176
     1
 72
     2
176
     1
 73
     0
176
     1
 90
        0
176
     1
 40
0.6
176
     1
 41
30.0
176
     1
 63
     7
421
 16777215
176
     1
 74
     1
176
     1
 91
        4
176
     1
 64
     7
176
     1
 65
   257
176
     1
 75
     1
176
     1
175
     1
176
     1
 42
1.0
176
     1
 92
        0
176
     1
 66
   257
176
     1
 43
1.0
176
     1
 76
     1
176
     1
 77
     6
176
     1
 78
     2
176
     1
 67
     7
176
     1
 79
     3
176
     1
170
     0
176
     1
171
     0
176
     1
290
     0
176
     1
 93
        1
176
     1
 44
0.0
176
     1
173
     0
176
     1
1001
ACAD
1000
AcDbSavedByObjectVersion
1070
     0
  0
VISUALSTYLE
  5
590
102
{ACAD_XDICTIONARY
360
753
102
}
102
{ACAD_REACTORS
330
57D
102
}
330
57D
100
AcDbVisualStyle
  2
X-Ray
 70
    25
177
     2
291
     0
 71
     2
176
     1
 72
     2
176
     1
 73
     1
176
     1
 90
        1
176
     1
 40
0.5
176
     1
 41
30.0
176
     1
 63
     7
421
 16777215
176
     1
 74
     1
176
     1
 91
        0
176
     1
 64
     7
176
     1
 65
   257
176
     1
 75
     1
176
     1
175
     1
176
     1
 42
1.0
176
     1
 92
        8
176
     1
 66
     7
176
     1
 43
1.0
176
     1
 76
     1
176
     1
 77
     6
176
     1
 78
     2
176
     1
 67
     7
176
     1
 79
     3
176
     1
170
     0
176
     1
171
     0
176
     1
290
     0
176
     1
 93
       13
176
     1
 44
0.0
176
     1
173
     0
176
     1
1001
ACAD
1000
AcDbSavedByObjectVersion
1070
     0
  0
DICTIONARYVAR
  5
6E8
102
{ACAD_REACTORS
330
6E2
102
}
330
6E2
100
DictionaryVariables
280
     0
  1
1:1
  0
DICTIONARYVAR
  5
6E4
102
{ACAD_REACTORS
330
6E2
102
}
330
6E2
100
DictionaryVariables
280
     0
  1
STANDARD
  0
DICTIONARYVAR
  5
6E3
102
{ACAD_REACTORS
330
6E2
102
}
330
6E2
100
DictionaryVariables
280
     0
  1
STANDARD
  0
DICTIONARYVAR
  5
6E5
102
{ACAD_REACTORS
330
6E2
102
}
330
6E2
100
DictionaryVariables
280
     0
  1
Imperial24
  0
DICTIONARYVAR
  5
6E6
102
{ACAD_REACTORS
330
6E2
102
}
330
6E2
100
DictionaryVariables
280
     0
  1
Imperial24
  0
DICTIONARYVAR
  5
6EA
102
{ACAD_REACTORS
330
6E2
102
}
330
6E2
100
DictionaryVariables
280
     0
  1
1
  0
DICTIONARYVAR
  5
6EB
102
{ACAD_REACTORS
330
6E2
102
}
330
6E2
100
DictionaryVariables
280
     0
  1
15
  0
DICTIONARYVAR
  5
6E9
102
{ACAD_REACTORS
330
6E2
102
}
330
6E2
100
DictionaryVariables
280
     0
  1
0
  0
DICTIONARYVAR
  5
6E7
102
{ACAD_REACTORS
330
6E2
102
}
330
6E2
100
DictionaryVariables
280
     0
  1
0
  0
DICTIONARY
  5
763
330
5B0
100
AcDbDictionary
280
     1
281
     1
  3
ACAD_XREC_ROUNDTRIP
360
764
  0
DICTIONARY
  5
767
330
5C1
100
AcDbDictionary
280
     1
281
     1
  3
ACAD_XREC_ROUNDTRIP
360
768
  0
DICTIONARY
  5
56E
330
56D
100
AcDbDictionary
280
     1
281
     1
  3
BUMPTILE
360
570
  3
DIFFUSETILE
360
56F
  3
OPACITYTILE
360
573
  3
REFLECTIONTILE
360
572
  3
REFRACTIONTILE
360
574
  3
SPECULARTILE
360
571
  0
DICTIONARY
  5
566
330
565
100
AcDbDictionary
280
     1
281
     1
  3
BUMPTILE
360
568
  3
DIFFUSETILE
360
567
  3
OPACITYTILE
360
56B
  3
REFLECTIONTILE
360
56A
  3
REFRACTIONTILE
360
56C
  3
SPECULARTILE
360
569
  0
DICTIONARY
  5
576
330
575
100
AcDbDictionary
280
     1
281
     1
  3
BUMPTILE
360
578
  3
DIFFUSETILE
360
577
  3
OPACITYTILE
360
57B
  3
REFLECTIONTILE
360
57A
  3
REFRACTIONTILE
360
57C
  3
SPECULARTILE
360
579
  0
DICTIONARY
  5
75F
330
5AC
100
AcDbDictionary
280
     1
281
     1
  3
ACAD_XREC_ROUNDTRIP
360
760
  0
DICTIONARY
  5
761
330
5AE
100
AcDbDictionary
280
     1
281
     1
  3
ACAD_XREC_ROUNDTRIP
360
762
  0
DICTIONARY
  5
765
330
5C0
100
AcDbDictionary
280
     1
281
     1
  3
ACAD_XREC_ROUNDTRIP
360
766
  0
DICTIONARY
  5
6EC
330
598
100
AcDbDictionary
280
     1
281
     1
  3
ACAD_ROUNDTRIP_2008_TABLESTYLE_CELLSTYLEMAP
360
72D
  0
DICTIONARY
  5
739
330
583
100
AcDbDictionary
280
     1
281
     1
  3
ACAD_XREC_ROUNDTRIP
360
73A
  0
DICTIONARY
  5
737
330
582
100
AcDbDictionary
280
     1
281
     1
  3
ACAD_XREC_ROUNDTRIP
360
738
  0
DICTIONARY
  5
745
330
589
100
AcDbDictionary
280
     1
281
     1
  3
ACAD_XREC_ROUNDTRIP
360
746
  0
DICTIONARY
  5
74D
330
58D
100
AcDbDictionary
280
     1
281
     1
  3
ACAD_XREC_ROUNDTRIP
360
74E
  0
DICTIONARY
  5
73F
330
586
100
AcDbDictionary
280
     1
281
     1
  3
ACAD_XREC_ROUNDTRIP
360
740
  0
DICTIONARY
  5
743
330
588
100
AcDbDictionary
280
     1
281
     1
  3
ACAD_XREC_ROUNDTRIP
360
744
  0
DICTIONARY
  5
75D
330
595
100
AcDbDictionary
280
     1
281
     1
  3
ACAD_XREC_ROUNDTRIP
360
75E
  0
DICTIONARY
  5
74B
330
58C
100
AcDbDictionary
280
     1
281
     1
  3
ACAD_XREC_ROUNDTRIP
360
74C
  0
DICTIONARY
  5
72F
330
57E
100
AcDbDictionary
280
     1
281
     1
  3
ACAD_XREC_ROUNDTRIP
360
730
  0
DICTIONARY
  5
731
330
57F
100
AcDbDictionary
280
     1
281
     1
  3
ACAD_XREC_ROUNDTRIP
360
732
  0
DICTIONARY
  5
733
330
580
100
AcDbDictionary
280
     1
281
     1
  3
ACAD_XREC_ROUNDTRIP
360
734
  0
DICTIONARY
  5
735
330
581
100
AcDbDictionary
280
     1
281
     1
  3
ACAD_XREC_ROUNDTRIP
360
736
  0
DICTIONARY
  5
73D
330
585
100
AcDbDictionary
280
     1
281
     1
  3
ACAD_XREC_ROUNDTRIP
360
73E
  0
DICTIONARY
  5
759
330
593
100
AcDbDictionary
280
     1
281
     1
  3
ACAD_XREC_ROUNDTRIP
360
75A
  0
DICTIONARY
  5
749
330
58B
100
AcDbDictionary
280
     1
281
     1
  3
ACAD_XREC_ROUNDTRIP
360
74A
  0
DICTIONARY
  5
75B
330
594
100
AcDbDictionary
280
     1
281
     1
  3
ACAD_XREC_ROUNDTRIP
360
75C
  0
DICTIONARY
  5
741
330
587
100
AcDbDictionary
280
     1
281
     1
  3
ACAD_XREC_ROUNDTRIP
360
742
  0
DICTIONARY
  5
757
330
592
100
AcDbDictionary
280
     1
281
     1
  3
ACAD_XREC_ROUNDTRIP
360
758
  0
DICTIONARY
  5
755
330
591
100
AcDbDictionary
280
     1
281
     1
  3
ACAD_XREC_ROUNDTRIP
360
756
  0
DICTIONARY
  5
74F
330
58E
100
AcDbDictionary
280
     1
281
     1
  3
ACAD_XREC_ROUNDTRIP
360
750
  0
DICTIONARY
  5
751
330
58F
100
AcDbDictionary
280
     1
281
     1
  3
ACAD_XREC_ROUNDTRIP
360
752
  0
DICTIONARY
  5
747
330
58A
100
AcDbDictionary
280
     1
281
     1
  3
ACAD_XREC_ROUNDTRIP
360
748
  0
DICTIONARY
  5
73B
330
584
100
AcDbDictionary
280
     1
281
     1
  3
ACAD_XREC_ROUNDTRIP
360
73C
  0
DICTIONARY
  5
753
330
590
100
AcDbDictionary
280
     1
281
     1
  3
ACAD_XREC_ROUNDTRIP
360
754
  0
XRECORD
  5
764
102
{ACAD_REACTORS
330
763
102
}
330
763
100
AcDbXrecord
280
     1
102
DISPLAYNAME
  1
Imperial24
102
FLAGS
 90
        0
  0
XRECORD
  5
768
102
{ACAD_REACTORS
330
767
102
}
330
767
100
AcDbXrecord
280
     1
102
DISPLAYNAME
  1
Metric50
102
FLAGS
 90
        0
  0
XRECORD
  5
570
102
{ACAD_REACTORS
330
56E
102
}
330
56E
100
AcDbXrecord
280
     1
270
     1
271
     1
  0
XRECORD
  5
56F
102
{ACAD_REACTORS
330
56E
102
}
330
56E
100
AcDbXrecord
280
     1
270
     1
271
     1
  0
XRECORD
  5
573
102
{ACAD_REACTORS
330
56E
102
}
330
56E
100
AcDbXrecord
280
     1
270
     1
271
     1
  0
XRECORD
  5
572
102
{ACAD_REACTORS
330
56E
102
}
330
56E
100
AcDbXrecord
280
     1
270
     1
271
     1
  0
XRECORD
  5
574
102
{ACAD_REACTORS
330
56E
102
}
330
56E
100
AcDbXrecord
280
     1
270
     1
271
     1
  0
XRECORD
  5
571
102
{ACAD_REACTORS
330
56E
102
}
330
56E
100
AcDbXrecord
280
     1
270
     1
271
     1
  0
XRECORD
  5
568
102
{ACAD_REACTORS
330
566
102
}
330
566
100
AcDbXrecord
280
     1
270
     1
271
     1
  0
XRECORD
  5
567
102
{ACAD_REACTORS
330
566
102
}
330
566
100
AcDbXrecord
280
     1
270
     1
271
     1
  0
XRECORD
  5
56B
102
{ACAD_REACTORS
330
566
102
}
330
566
100
AcDbXrecord
280
     1
270
     1
271
     1
  0
XRECORD
  5
56A
102
{ACAD_REACTORS
330
566
102
}
330
566
100
AcDbXrecord
280
     1
270
     1
271
     1
  0
XRECORD
  5
56C
102
{ACAD_REACTORS
330
566
102
}
330
566
100
AcDbXrecord
280
     1
270
     1
271
     1
  0
XRECORD
  5
569
102
{ACAD_REACTORS
330
566
102
}
330
566
100
AcDbXrecord
280
     1
270
     1
271
     1
  0
XRECORD
  5
578
102
{ACAD_REACTORS
330
576
102
}
330
576
100
AcDbXrecord
280
     1
270
     1
271
     1
  0
XRECORD
  5
577
102
{ACAD_REACTORS
330
576
102
}
330
576
100
AcDbXrecord
280
     1
270
     1
271
     1
  0
XRECORD
  5
57B
102
{ACAD_REACTORS
330
576
102
}
330
576
100
AcDbXrecord
280
     1
270
     1
271
     1
  0
XRECORD
  5
57A
102
{ACAD_REACTORS
330
576
102
}
330
576
100
AcDbXrecord
280
     1
270
     1
271
     1
  0
XRECORD
  5
57C
102
{ACAD_REACTORS
330
576
102
}
330
576
100
AcDbXrecord
280
     1
270
     1
271
     1
  0
XRECORD
  5
579
102
{ACAD_REACTORS
330
576
102
}
330
576
100
AcDbXrecord
280
     1
270
     1
271
     1
  0
XRECORD
  5
760
102
{ACAD_REACTORS
330
75F
102
}
330
75F
100
AcDbXrecord
280
     1
102
ACAD_ROUNDTRIP_2012_MLEADER_STYLE
298
     1
  0
XRECORD
  5
762
102
{ACAD_REACTORS
330
761
102
}
330
761
100
AcDbXrecord
280
     1
102
DISPLAYNAME
  1
Imperial24
102
FLAGS
 90
        0
  0
XRECORD
  5
766
102
{ACAD_REACTORS
330
765
102
}
330
765
100
AcDbXrecord
280
     1
102
DISPLAYNAME
  1
Metric50
102
FLAGS
 90
        0
  0
CELLSTYLEMAP
  5
72D
102
{ACAD_REACTORS
330
6EC
102
}
330
6EC
100
AcDbCellStyleMap
 90
        3
300
CELLSTYLE
  1
TABLEFORMAT_BEGIN
 90
        5
170
     1
 91
        0
 92
    32768
 62
   257
 93
        1
300
CONTENTFORMAT
  1
CONTENTFORMAT_BEGIN
 90
        0
 91
        0
 92
      512
 93
        0
300

 40
0.0
140
1.0
 94
        5
 62
     0
340
17
144
0.25
309
CONTENTFORMAT_END
171
     1
301
MARGIN
  1
CELLMARGIN_BEGIN
 40
0.06
 40
0.06
 40
0.06
 40
0.06
 40
0.18
 40
0.18
309
CELLMARGIN_END
 94
        6
 95
        1
302
GRIDFORMAT
  1
GRIDFORMAT_BEGIN
 90
        0
 91
        1
 62
     0
 92
       -2
340
0
 93
        0
 40
0.045
309
GRIDFORMAT_END
 95
        2
302
GRIDFORMAT
  1
GRIDFORMAT_BEGIN
 90
        0
 91
        1
 62
     0
 92
       -2
340
0
 93
        0
 40
0.045
309
GRIDFORMAT_END
 95
        4
302
GRIDFORMAT
  1
GRIDFORMAT_BEGIN
 90
        0
 91
        1
 62
     0
 92
       -2
340
0
 93
        0
 40
0.045
309
GRIDFORMAT_END
 95
        8
302
GRIDFORMAT
  1
GRIDFORMAT_BEGIN
 90
        0
 91
        1
 62
     0
 92
       -2
340
0
 93
        0
 40
0.045
309
GRIDFORMAT_END
 95
       16
302
GRIDFORMAT
  1
GRIDFORMAT_BEGIN
 90
        0
 91
        1
 62
     0
 92
       -2
340
0
 93
        0
 40
0.045
309
GRIDFORMAT_END
 95
       32
302
GRIDFORMAT
  1
GRIDFORMAT_BEGIN
 90
        0
 91
        1
 62
     0
 92
       -2
340
0
 93
        0
 40
0.045
309
GRIDFORMAT_END
309
TABLEFORMAT_END
  1
CELLSTYLE_BEGIN
 90
        1
 91
        1
300
_TITLE
309
CELLSTYLE_END
300
CELLSTYLE
  1
TABLEFORMAT_BEGIN
 90
        5
170
     1
 91
        0
 92
        0
 62
   257
 93
        1
300
CONTENTFORMAT
  1
CONTENTFORMAT_BEGIN
 90
        0
 91
        0
 92
      512
 93
        0
300

 40
0.0
140
1.0
 94
        5
 62
     0
340
17
144
0.18
309
CONTENTFORMAT_END
171
     1
301
MARGIN
  1
CELLMARGIN_BEGIN
 40
0.06
 40
0.06
 40
0.06
 40
0.06
 40
0.18
 40
0.18
309
CELLMARGIN_END
 94
        6
 95
        1
302
GRIDFORMAT
  1
GRIDFORMAT_BEGIN
 90
        0
 91
        1
 62
     0
 92
       -2
340
0
 93
        0
 40
0.045
309
GRIDFORMAT_END
 95
        2
302
GRIDFORMAT
  1
GRIDFORMAT_BEGIN
 90
        0
 91
        1
 62
     0
 92
       -2
340
0
 93
        0
 40
0.045
309
GRIDFORMAT_END
 95
        4
302
GRIDFORMAT
  1
GRIDFORMAT_BEGIN
 90
        0
 91
        1
 62
     0
 92
       -2
340
0
 93
        0
 40
0.045
309
GRIDFORMAT_END
 95
        8
302
GRIDFORMAT
  1
GRIDFORMAT_BEGIN
 90
        0
 91
        1
 62
     0
 92
       -2
340
0
 93
        0
 40
0.045
309
GRIDFORMAT_END
 95
       16
302
GRIDFORMAT
  1
GRIDFORMAT_BEGIN
 90
        0
 91
        1
 62
     0
 92
       -2
340
0
 93
        0
 40
0.045
309
GRIDFORMAT_END
 95
       32
302
GRIDFORMAT
  1
GRIDFORMAT_BEGIN
 90
        0
 91
        1
 62
     0
 92
       -2
340
0
 93
        0
 40
0.045
309
GRIDFORMAT_END
309
TABLEFORMAT_END
  1
CELLSTYLE_BEGIN
 90
        2
 91
        1
300
_HEADER
309
CELLSTYLE_END
300
CELLSTYLE
  1
TABLEFORMAT_BEGIN
 90
        5
170
     1
 91
        0
 92
        0
 62
   257
 93
        1
300
CONTENTFORMAT
  1
CONTENTFORMAT_BEGIN
 90
        0
 91
        0
 92
      512
 93
        0
300

 40
0.0
140
1.0
 94
        2
 62
     0
340
17
144
0.18
309
CONTENTFORMAT_END
171
     1
301
MARGIN
  1
CELLMARGIN_BEGIN
 40
0.06
 40
0.06
 40
0.06
 40
0.06
 40
0.18
 40
0.18
309
CELLMARGIN_END
 94
        6
 95
        1
302
GRIDFORMAT
  1
GRIDFORMAT_BEGIN
 90
        0
 91
        1
 62
     0
 92
       -2
340
0
 93
        0
 40
0.045
309
GRIDFORMAT_END
 95
        2
302
GRIDFORMAT
  1
GRIDFORMAT_BEGIN
 90
        0
 91
        1
 62
     0
 92
       -2
340
0
 93
        0
 40
0.045
309
GRIDFORMAT_END
 95
        4
302
GRIDFORMAT
  1
GRIDFORMAT_BEGIN
 90
        0
 91
        1
 62
     0
 92
       -2
340
0
 93
        0
 40
0.045
309
GRIDFORMAT_END
 95
        8
302
GRIDFORMAT
  1
GRIDFORMAT_BEGIN
 90
        0
 91
        1
 62
     0
 92
       -2
340
0
 93
        0
 40
0.045
309
GRIDFORMAT_END
 95
       16
302
GRIDFORMAT
  1
GRIDFORMAT_BEGIN
 90
        0
 91
        1
 62
     0
 92
       -2
340
0
 93
        0
 40
0.045
309
GRIDFORMAT_END
 95
       32
302
GRIDFORMAT
  1
GRIDFORMAT_BEGIN
 90
        0
 91
        1
 62
     0
 92
       -2
340
0
 93
        0
 40
0.045
309
GRIDFORMAT_END
309
TABLEFORMAT_END
  1
CELLSTYLE_BEGIN
 90
        3
 91
        2
300
_DATA
309
CELLSTYLE_END
  0
XRECORD
  5
73A
102
{ACAD_REACTORS
330
739
102
}
330
739
100
AcDbXrecord
280
     1
102
RTVSPost2010Prop28
280
     1
102
RTVSPost2010PropOp28
 70
     1
102
RTVSPost2010Prop29
280
     1
102
RTVSPost2010PropOp29
 70
     1
102
RTVSPost2010Prop30
280
     0
102
RTVSPost2010PropOp30
 70
     1
102
RTVSPost2010Prop31
280
     0
102
RTVSPost2010PropOp31
 70
     1
102
RTVSPost2010Prop32
280
     0
102
RTVSPost2010PropOp32
 70
     1
102
RTVSPost2010Prop33
280
     0
102
RTVSPost2010PropOp33
 70
     1
102
RTVSPost2010Prop34
280
     0
102
RTVSPost2010PropOp34
 70
     1
102
RTVSPost2010Prop35
280
     0
102
RTVSPost2010PropOp35
 70
     1
102
RTVSPost2010Prop36
280
     0
102
RTVSPost2010PropOp36
 70
     1
102
RTVSPost2010Prop37
 90
       50
102
RTVSPost2010PropOp37
 70
     1
102
RTVSPost2010Prop38
140
0.0
102
RTVSPost2010PropOp38
 70
     1
102
RTVSPost2010Prop39
140
1.0
102
RTVSPost2010PropOp39
 70
     1
102
RTVSPost2010Prop40
 90
        0
102
RTVSPost2010PropOp40
 70
     1
102
RTVSPost2010Prop41ColorIndex
 90
       18
102
RTVSPost2010Prop41ColorRGB
 90
        0
102
RTVSPost2010PropOp41
 70
     1
102
RTVSPost2010Prop42
 90
       50
102
RTVSPost2010PropOp42
 70
     1
102
RTVSPost2010Prop43
 90
        3
102
RTVSPost2010PropOp43
 70
     1
102
RTVSPost2010Prop44ColorIndex
 90
        5
102
RTVSPost2010Prop44ColorRGB
 90
      255
102
RTVSPost2010PropOp44
 70
     1
102
RTVSPost2010Prop45
280
     0
102
RTVSPost2010PropOp45
 70
     1
102
RTVSPost2010Prop46
 90
       50
102
RTVSPost2010PropOp46
 70
     1
102
RTVSPost2010Prop47
 90
       50
102
RTVSPost2010PropOp47
 70
     1
102
RTVSPost2010Prop48
 90
       50
102
RTVSPost2010PropOp48
 70
     1
102
RTVSPost2010Prop49
280
     0
102
RTVSPost2010PropOp49
 70
     1
102
RTVSPost2010Prop50
 90
       50
102
RTVSPost2010PropOp50
 70
     1
102
RTVSPost2010Prop51ColorIndex
 90
      256
102
RTVSPost2010Prop51ColorRGB
 90
-16777216
102
RTVSPost2010PropOp51
 70
     0
102
RTVSPost2010Prop52
140
1.0
102
RTVSPost2010PropOp52
 70
     0
102
RTVSPost2010Prop53
 90
        2
102
RTVSPost2010PropOp53
 70
     1
102
RTVSPost2010Prop54
  1
strokes_ogs.tif
102
RTVSPost2010PropOp54
 70
     1
102
RTVSPost2010Prop55
280
     0
102
RTVSPost2010PropOp55
 70
     1
102
RTVSPost2010Prop56
140
1.0
102
RTVSPost2010PropOp56
 70
     1
102
RTVSPost2010Prop57
140
1.0
102
RTVSPost2010PropOp57
 70
     1
  0
XRECORD
  5
738
102
{ACAD_REACTORS
330
737
102
}
330
737
100
AcDbXrecord
280
     1
102
RTVSPost2010Prop28
280
     0
102
RTVSPost2010PropOp28
 70
     1
102
RTVSPost2010Prop29
280
     1
102
RTVSPost2010PropOp29
 70
     1
102
RTVSPost2010Prop30
280
     1
102
RTVSPost2010PropOp30
 70
     1
102
RTVSPost2010Prop31
280
     0
102
RTVSPost2010PropOp31
 70
     1
102
RTVSPost2010Prop32
280
     0
102
RTVSPost2010PropOp32
 70
     1
102
RTVSPost2010Prop33
280
     0
102
RTVSPost2010PropOp33
 70
     1
102
RTVSPost2010Prop34
280
     0
102
RTVSPost2010PropOp34
 70
     1
102
RTVSPost2010Prop35
280
     0
102
RTVSPost2010PropOp35
 70
     1
102
RTVSPost2010Prop36
280
     0
102
RTVSPost2010PropOp36
 70
     1
102
RTVSPost2010Prop37
 90
       50
102
RTVSPost2010PropOp37
 70
     1
102
RTVSPost2010Prop38
140
0.0
102
RTVSPost2010PropOp38
 70
     1
102
RTVSPost2010Prop39
140
1.0
102
RTVSPost2010PropOp39
 70
     1
102
RTVSPost2010Prop40
 90
        0
102
RTVSPost2010PropOp40
 70
     1
102
RTVSPost2010Prop41ColorIndex
 90
       18
102
RTVSPost2010Prop41ColorRGB
 90
        0
102
RTVSPost2010PropOp41
 70
     1
102
RTVSPost2010Prop42
 90
       50
102
RTVSPost2010PropOp42
 70
     1
102
RTVSPost2010Prop43
 90
        3
102
RTVSPost2010PropOp43
 70
     1
102
RTVSPost2010Prop44ColorIndex
 90
        5
102
RTVSPost2010Prop44ColorRGB
 90
      255
102
RTVSPost2010PropOp44
 70
     1
102
RTVSPost2010Prop45
280
     0
102
RTVSPost2010PropOp45
 70
     1
102
RTVSPost2010Prop46
 90
       50
102
RTVSPost2010PropOp46
 70
     1
102
RTVSPost2010Prop47
 90
       50
102
RTVSPost2010PropOp47
 70
     1
102
RTVSPost2010Prop48
 90
       50
102
RTVSPost2010PropOp48
 70
     1
102
RTVSPost2010Prop49
280
     0
102
RTVSPost2010PropOp49
 70
     1
102
RTVSPost2010Prop50
 90
       50
102
RTVSPost2010PropOp50
 70
     1
102
RTVSPost2010Prop51ColorIndex
 90
      256
102
RTVSPost2010Prop51ColorRGB
 90
-16777216
102
RTVSPost2010PropOp51
 70
     0
102
RTVSPost2010Prop52
140
1.0
102
RTVSPost2010PropOp52
 70
     0
102
RTVSPost2010Prop53
 90
        2
102
RTVSPost2010PropOp53
 70
     1
102
RTVSPost2010Prop54
  1
strokes_ogs.tif
102
RTVSPost2010PropOp54
 70
     1
102
RTVSPost2010Prop55
280
     0
102
RTVSPost2010PropOp55
 70
     1
102
RTVSPost2010Prop56
140
1.0
102
RTVSPost2010PropOp56
 70
     1
102
RTVSPost2010Prop57
140
1.0
102
RTVSPost2010PropOp57
 70
     1
  0
XRECORD
  5
746
102
{ACAD_REACTORS
330
745
102
}
330
745
100
AcDbXrecord
280
     1
102
RTVSPost2010Prop28
280
     0
102
RTVSPost2010PropOp28
 70
     1
102
RTVSPost2010Prop29
280
     1
102
RTVSPost2010PropOp29
 70
     1
102
RTVSPost2010Prop30
280
     1
102
RTVSPost2010PropOp30
 70
     1
102
RTVSPost2010Prop31
280
     0
102
RTVSPost2010PropOp31
 70
     1
102
RTVSPost2010Prop32
280
     0
102
RTVSPost2010PropOp32
 70
     1
102
RTVSPost2010Prop33
280
     0
102
RTVSPost2010PropOp33
 70
     1
102
RTVSPost2010Prop34
280
     0
102
RTVSPost2010PropOp34
 70
     1
102
RTVSPost2010Prop35
280
     0
102
RTVSPost2010PropOp35
 70
     1
102
RTVSPost2010Prop36
280
     0
102
RTVSPost2010PropOp36
 70
     1
102
RTVSPost2010Prop37
 90
       50
102
RTVSPost2010PropOp37
 70
     1
102
RTVSPost2010Prop38
140
0.0
102
RTVSPost2010PropOp38
 70
     1
102
RTVSPost2010Prop39
140
1.0
102
RTVSPost2010PropOp39
 70
     1
102
RTVSPost2010Prop40
 90
        0
102
RTVSPost2010PropOp40
 70
     1
102
RTVSPost2010Prop41ColorIndex
 90
       18
102
RTVSPost2010Prop41ColorRGB
 90
        0
102
RTVSPost2010PropOp41
 70
     1
102
RTVSPost2010Prop42
 90
       50
102
RTVSPost2010PropOp42
 70
     1
102
RTVSPost2010Prop43
 90
        3
102
RTVSPost2010PropOp43
 70
     1
102
RTVSPost2010Prop44ColorIndex
 90
        5
102
RTVSPost2010Prop44ColorRGB
 90
      255
102
RTVSPost2010PropOp44
 70
     1
102
RTVSPost2010Prop45
280
     0
102
RTVSPost2010PropOp45
 70
     1
102
RTVSPost2010Prop46
 90
       50
102
RTVSPost2010PropOp46
 70
     1
102
RTVSPost2010Prop47
 90
       50
102
RTVSPost2010PropOp47
 70
     1
102
RTVSPost2010Prop48
 90
       50
102
RTVSPost2010PropOp48
 70
     1
102
RTVSPost2010Prop49
280
     0
102
RTVSPost2010PropOp49
 70
     1
102
RTVSPost2010Prop50
 90
       50
102
RTVSPost2010PropOp50
 70
     1
102
RTVSPost2010Prop51ColorIndex
 90
      256
102
RTVSPost2010Prop51ColorRGB
 90
-16777216
102
RTVSPost2010PropOp51
 70
     0
102
RTVSPost2010Prop52
140
1.0
102
RTVSPost2010PropOp52
 70
     0
102
RTVSPost2010Prop53
 90
        2
102
RTVSPost2010PropOp53
 70
     1
102
RTVSPost2010Prop54
  1
strokes_ogs.tif
102
RTVSPost2010PropOp54
 70
     1
102
RTVSPost2010Prop55
280
     0
102
RTVSPost2010PropOp55
 70
     1
102
RTVSPost2010Prop56
140
1.0
102
RTVSPost2010PropOp56
 70
     1
102
RTVSPost2010Prop57
140
1.0
102
RTVSPost2010PropOp57
 70
     1
  0
XRECORD
  5
74E
102
{ACAD_REACTORS
330
74D
102
}
330
74D
100
AcDbXrecord
280
     1
102
RTVSPost2010Prop28
280
     0
102
RTVSPost2010PropOp28
 70
     1
102
RTVSPost2010Prop29
280
     1
102
RTVSPost2010PropOp29
 70
     1
102
RTVSPost2010Prop30
280
     1
102
RTVSPost2010PropOp30
 70
     1
102
RTVSPost2010Prop31
280
     0
102
RTVSPost2010PropOp31
 70
     1
102
RTVSPost2010Prop32
280
     0
102
RTVSPost2010PropOp32
 70
     1
102
RTVSPost2010Prop33
280
     0
102
RTVSPost2010PropOp33
 70
     1
102
RTVSPost2010Prop34
280
     0
102
RTVSPost2010PropOp34
 70
     1
102
RTVSPost2010Prop35
280
     0
102
RTVSPost2010PropOp35
 70
     1
102
RTVSPost2010Prop36
280
     0
102
RTVSPost2010PropOp36
 70
     1
102
RTVSPost2010Prop37
 90
       50
102
RTVSPost2010PropOp37
 70
     1
102
RTVSPost2010Prop38
140
0.0
102
RTVSPost2010PropOp38
 70
     1
102
RTVSPost2010Prop39
140
1.0
102
RTVSPost2010PropOp39
 70
     1
102
RTVSPost2010Prop40
 90
        0
102
RTVSPost2010PropOp40
 70
     1
102
RTVSPost2010Prop41ColorIndex
 90
       18
102
RTVSPost2010Prop41ColorRGB
 90
        0
102
RTVSPost2010PropOp41
 70
     1
102
RTVSPost2010Prop42
 90
       50
102
RTVSPost2010PropOp42
 70
     1
102
RTVSPost2010Prop43
 90
        3
102
RTVSPost2010PropOp43
 70
     1
102
RTVSPost2010Prop44ColorIndex
 90
        5
102
RTVSPost2010Prop44ColorRGB
 90
      255
102
RTVSPost2010PropOp44
 70
     1
102
RTVSPost2010Prop45
280
     0
102
RTVSPost2010PropOp45
 70
     1
102
RTVSPost2010Prop46
 90
       50
102
RTVSPost2010PropOp46
 70
     1
102
RTVSPost2010Prop47
 90
       50
102
RTVSPost2010PropOp47
 70
     1
102
RTVSPost2010Prop48
 90
       50
102
RTVSPost2010PropOp48
 70
     1
102
RTVSPost2010Prop49
280
     0
102
RTVSPost2010PropOp49
 70
     1
102
RTVSPost2010Prop50
 90
       50
102
RTVSPost2010PropOp50
 70
     1
102
RTVSPost2010Prop51ColorIndex
 90
      256
102
RTVSPost2010Prop51ColorRGB
 90
-16777216
102
RTVSPost2010PropOp51
 70
     0
102
RTVSPost2010Prop52
140
1.0
102
RTVSPost2010PropOp52
 70
     0
102
RTVSPost2010Prop53
 90
        2
102
RTVSPost2010PropOp53
 70
     1
102
RTVSPost2010Prop54
  1
strokes_ogs.tif
102
RTVSPost2010PropOp54
 70
     1
102
RTVSPost2010Prop55
280
     0
102
RTVSPost2010PropOp55
 70
     1
102
RTVSPost2010Prop56
140
1.0
102
RTVSPost2010PropOp56
 70
     1
102
RTVSPost2010Prop57
140
1.0
102
RTVSPost2010PropOp57
 70
     1
  0
XRECORD
  5
740
102
{ACAD_REACTORS
330
73F
102
}
330
73F
100
AcDbXrecord
280
     1
102
RTVSPost2010Prop28
280
     0
102
RTVSPost2010PropOp28
 70
     1
102
RTVSPost2010Prop29
280
     1
102
RTVSPost2010PropOp29
 70
     1
102
RTVSPost2010Prop30
280
     1
102
RTVSPost2010PropOp30
 70
     1
102
RTVSPost2010Prop31
280
     0
102
RTVSPost2010PropOp31
 70
     1
102
RTVSPost2010Prop32
280
     0
102
RTVSPost2010PropOp32
 70
     1
102
RTVSPost2010Prop33
280
     0
102
RTVSPost2010PropOp33
 70
     1
102
RTVSPost2010Prop34
280
     0
102
RTVSPost2010PropOp34
 70
     1
102
RTVSPost2010Prop35
280
     0
102
RTVSPost2010PropOp35
 70
     1
102
RTVSPost2010Prop36
280
     0
102
RTVSPost2010PropOp36
 70
     1
102
RTVSPost2010Prop37
 90
       50
102
RTVSPost2010PropOp37
 70
     1
102
RTVSPost2010Prop38
140
0.0
102
RTVSPost2010PropOp38
 70
     1
102
RTVSPost2010Prop39
140
1.0
102
RTVSPost2010PropOp39
 70
     1
102
RTVSPost2010Prop40
 90
        0
102
RTVSPost2010PropOp40
 70
     1
102
RTVSPost2010Prop41ColorIndex
 90
       18
102
RTVSPost2010Prop41ColorRGB
 90
        0
102
RTVSPost2010PropOp41
 70
     1
102
RTVSPost2010Prop42
 90
       50
102
RTVSPost2010PropOp42
 70
     1
102
RTVSPost2010Prop43
 90
        3
102
RTVSPost2010PropOp43
 70
     1
102
RTVSPost2010Prop44ColorIndex
 90
        5
102
RTVSPost2010Prop44ColorRGB
 90
      255
102
RTVSPost2010PropOp44
 70
     1
102
RTVSPost2010Prop45
280
     0
102
RTVSPost2010PropOp45
 70
     1
102
RTVSPost2010Prop46
 90
       50
102
RTVSPost2010PropOp46
 70
     1
102
RTVSPost2010Prop47
 90
       50
102
RTVSPost2010PropOp47
 70
     1
102
RTVSPost2010Prop48
 90
       50
102
RTVSPost2010PropOp48
 70
     1
102
RTVSPost2010Prop49
280
     0
102
RTVSPost2010PropOp49
 70
     1
102
RTVSPost2010Prop50
 90
       50
102
RTVSPost2010PropOp50
 70
     1
102
RTVSPost2010Prop51ColorIndex
 90
      256
102
RTVSPost2010Prop51ColorRGB
 90
-16777216
102
RTVSPost2010PropOp51
 70
     0
102
RTVSPost2010Prop52
140
1.0
102
RTVSPost2010PropOp52
 70
     0
102
RTVSPost2010Prop53
 90
        2
102
RTVSPost2010PropOp53
 70
     1
102
RTVSPost2010Prop54
  1
strokes_ogs.tif
102
RTVSPost2010PropOp54
 70
     1
102
RTVSPost2010Prop55
280
     0
102
RTVSPost2010PropOp55
 70
     1
102
RTVSPost2010Prop56
140
1.0
102
RTVSPost2010PropOp56
 70
     1
102
RTVSPost2010Prop57
140
1.0
102
RTVSPost2010PropOp57
 70
     1
  0
XRECORD
  5
744
102
{ACAD_REACTORS
330
743
102
}
330
743
100
AcDbXrecord
280
     1
102
RTVSPost2010Prop28
280
     0
102
RTVSPost2010PropOp28
 70
     1
102
RTVSPost2010Prop29
280
     1
102
RTVSPost2010PropOp29
 70
     1
102
RTVSPost2010Prop30
280
     1
102
RTVSPost2010PropOp30
 70
     1
102
RTVSPost2010Prop31
280
     0
102
RTVSPost2010PropOp31
 70
     1
102
RTVSPost2010Prop32
280
     0
102
RTVSPost2010PropOp32
 70
     1
102
RTVSPost2010Prop33
280
     0
102
RTVSPost2010PropOp33
 70
     1
102
RTVSPost2010Prop34
280
     0
102
RTVSPost2010PropOp34
 70
     1
102
RTVSPost2010Prop35
280
     0
102
RTVSPost2010PropOp35
 70
     1
102
RTVSPost2010Prop36
280
     0
102
RTVSPost2010PropOp36
 70
     1
102
RTVSPost2010Prop37
 90
       50
102
RTVSPost2010PropOp37
 70
     1
102
RTVSPost2010Prop38
140
0.0
102
RTVSPost2010PropOp38
 70
     1
102
RTVSPost2010Prop39
140
1.0
102
RTVSPost2010PropOp39
 70
     1
102
RTVSPost2010Prop40
 90
        0
102
RTVSPost2010PropOp40
 70
     1
102
RTVSPost2010Prop41ColorIndex
 90
       18
102
RTVSPost2010Prop41ColorRGB
 90
        0
102
RTVSPost2010PropOp41
 70
     1
102
RTVSPost2010Prop42
 90
       50
102
RTVSPost2010PropOp42
 70
     1
102
RTVSPost2010Prop43
 90
        3
102
RTVSPost2010PropOp43
 70
     1
102
RTVSPost2010Prop44ColorIndex
 90
        5
102
RTVSPost2010Prop44ColorRGB
 90
      255
102
RTVSPost2010PropOp44
 70
     1
102
RTVSPost2010Prop45
280
     0
102
RTVSPost2010PropOp45
 70
     1
102
RTVSPost2010Prop46
 90
       50
102
RTVSPost2010PropOp46
 70
     1
102
RTVSPost2010Prop47
 90
       50
102
RTVSPost2010PropOp47
 70
     1
102
RTVSPost2010Prop48
 90
       50
102
RTVSPost2010PropOp48
 70
     1
102
RTVSPost2010Prop49
280
     0
102
RTVSPost2010PropOp49
 70
     1
102
RTVSPost2010Prop50
 90
       50
102
RTVSPost2010PropOp50
 70
     1
102
RTVSPost2010Prop51ColorIndex
 90
      256
102
RTVSPost2010Prop51ColorRGB
 90
-16777216
102
RTVSPost2010PropOp51
 70
     0
102
RTVSPost2010Prop52
140
1.0
102
RTVSPost2010PropOp52
 70
     0
102
RTVSPost2010Prop53
 90
        2
102
RTVSPost2010PropOp53
 70
     1
102
RTVSPost2010Prop54
  1
strokes_ogs.tif
102
RTVSPost2010PropOp54
 70
     1
102
RTVSPost2010Prop55
280
     0
102
RTVSPost2010PropOp55
 70
     1
102
RTVSPost2010Prop56
140
1.0
102
RTVSPost2010PropOp56
 70
     1
102
RTVSPost2010Prop57
140
1.0
102
RTVSPost2010PropOp57
 70
     1
  0
XRECORD
  5
75E
102
{ACAD_REACTORS
330
75D
102
}
330
75D
100
AcDbXrecord
280
     1
102
RTVSPost2010Prop28
280
     0
102
RTVSPost2010PropOp28
 70
     0
102
RTVSPost2010Prop29
280
     1
102
RTVSPost2010PropOp29
 70
     0
102
RTVSPost2010Prop30
280
     1
102
RTVSPost2010PropOp30
 70
     0
102
RTVSPost2010Prop31
280
     0
102
RTVSPost2010PropOp31
 70
     0
102
RTVSPost2010Prop32
280
     0
102
RTVSPost2010PropOp32
 70
     0
102
RTVSPost2010Prop33
280
     0
102
RTVSPost2010PropOp33
 70
     0
102
RTVSPost2010Prop34
280
     0
102
RTVSPost2010PropOp34
 70
     0
102
RTVSPost2010Prop35
280
     0
102
RTVSPost2010PropOp35
 70
     0
102
RTVSPost2010Prop36
280
     0
102
RTVSPost2010PropOp36
 70
     0
102
RTVSPost2010Prop37
 90
       50
102
RTVSPost2010PropOp37
 70
     0
102
RTVSPost2010Prop38
140
0.0
102
RTVSPost2010PropOp38
 70
     0
102
RTVSPost2010Prop39
140
1.0
102
RTVSPost2010PropOp39
 70
     0
102
RTVSPost2010Prop40
 90
        0
102
RTVSPost2010PropOp40
 70
     0
102
RTVSPost2010Prop41ColorIndex
 90
       18
102
RTVSPost2010Prop41ColorRGB
 90
        0
102
RTVSPost2010PropOp41
 70
     0
102
RTVSPost2010Prop42
 90
       50
102
RTVSPost2010PropOp42
 70
     0
102
RTVSPost2010Prop43
 90
        3
102
RTVSPost2010PropOp43
 70
     0
102
RTVSPost2010Prop44ColorIndex
 90
        5
102
RTVSPost2010Prop44ColorRGB
 90
      255
102
RTVSPost2010PropOp44
 70
     0
102
RTVSPost2010Prop45
280
     0
102
RTVSPost2010PropOp45
 70
     0
102
RTVSPost2010Prop46
 90
       50
102
RTVSPost2010PropOp46
 70
     0
102
RTVSPost2010Prop47
 90
       50
102
RTVSPost2010PropOp47
 70
     0
102
RTVSPost2010Prop48
 90
       50
102
RTVSPost2010PropOp48
 70
     0
102
RTVSPost2010Prop49
280
     0
102
RTVSPost2010PropOp49
 70
     0
102
RTVSPost2010Prop50
 90
       50
102
RTVSPost2010PropOp50
 70
     0
102
RTVSPost2010Prop51ColorIndex
 90
      256
102
RTVSPost2010Prop51ColorRGB
 90
-16777216
102
RTVSPost2010PropOp51
 70
     0
102
RTVSPost2010Prop52
140
1.0
102
RTVSPost2010PropOp52
 70
     0
102
RTVSPost2010Prop53
 90
        2
102
RTVSPost2010PropOp53
 70
     0
102
RTVSPost2010Prop54
  1
strokes_ogs.tif
102
RTVSPost2010PropOp54
 70
     0
102
RTVSPost2010Prop55
280
     0
102
RTVSPost2010PropOp55
 70
     0
102
RTVSPost2010Prop56
140
1.0
102
RTVSPost2010PropOp56
 70
     0
102
RTVSPost2010Prop57
140
1.0
102
RTVSPost2010PropOp57
 70
     0
  0
XRECORD
  5
74C
102
{ACAD_REACTORS
330
74B
102
}
330
74B
100
AcDbXrecord
280
     1
102
RTVSPost2010Prop28
280
     0
102
RTVSPost2010PropOp28
 70
     1
102
RTVSPost2010Prop29
280
     1
102
RTVSPost2010PropOp29
 70
     1
102
RTVSPost2010Prop30
280
     1
102
RTVSPost2010PropOp30
 70
     1
102
RTVSPost2010Prop31
280
     0
102
RTVSPost2010PropOp31
 70
     1
102
RTVSPost2010Prop32
280
     0
102
RTVSPost2010PropOp32
 70
     1
102
RTVSPost2010Prop33
280
     0
102
RTVSPost2010PropOp33
 70
     1
102
RTVSPost2010Prop34
280
     0
102
RTVSPost2010PropOp34
 70
     1
102
RTVSPost2010Prop35
280
     0
102
RTVSPost2010PropOp35
 70
     1
102
RTVSPost2010Prop36
280
     0
102
RTVSPost2010PropOp36
 70
     1
102
RTVSPost2010Prop37
 90
       50
102
RTVSPost2010PropOp37
 70
     1
102
RTVSPost2010Prop38
140
0.0
102
RTVSPost2010PropOp38
 70
     1
102
RTVSPost2010Prop39
140
1.0
102
RTVSPost2010PropOp39
 70
     1
102
RTVSPost2010Prop40
 90
        0
102
RTVSPost2010PropOp40
 70
     1
102
RTVSPost2010Prop41ColorIndex
 90
       18
102
RTVSPost2010Prop41ColorRGB
 90
        0
102
RTVSPost2010PropOp41
 70
     1
102
RTVSPost2010Prop42
 90
       50
102
RTVSPost2010PropOp42
 70
     1
102
RTVSPost2010Prop43
 90
        3
102
RTVSPost2010PropOp43
 70
     1
102
RTVSPost2010Prop44ColorIndex
 90
        5
102
RTVSPost2010Prop44ColorRGB
 90
      255
102
RTVSPost2010PropOp44
 70
     1
102
RTVSPost2010Prop45
280
     0
102
RTVSPost2010PropOp45
 70
     1
102
RTVSPost2010Prop46
 90
       50
102
RTVSPost2010PropOp46
 70
     1
102
RTVSPost2010Prop47
 90
       50
102
RTVSPost2010PropOp47
 70
     1
102
RTVSPost2010Prop48
 90
       50
102
RTVSPost2010PropOp48
 70
     1
102
RTVSPost2010Prop49
280
     0
102
RTVSPost2010PropOp49
 70
     1
102
RTVSPost2010Prop50
 90
       50
102
RTVSPost2010PropOp50
 70
     1
102
RTVSPost2010Prop51ColorIndex
 90
      256
102
RTVSPost2010Prop51ColorRGB
 90
-16777216
102
RTVSPost2010PropOp51
 70
     0
102
RTVSPost2010Prop52
140
1.0
102
RTVSPost2010PropOp52
 70
     0
102
RTVSPost2010Prop53
 90
        2
102
RTVSPost2010PropOp53
 70
     1
102
RTVSPost2010Prop54
  1
strokes_ogs.tif
102
RTVSPost2010PropOp54
 70
     1
102
RTVSPost2010Prop55
280
     0
102
RTVSPost2010PropOp55
 70
     1
102
RTVSPost2010Prop56
140
1.0
102
RTVSPost2010PropOp56
 70
     1
102
RTVSPost2010Prop57
140
1.0
102
RTVSPost2010PropOp57
 70
     1
  0
XRECORD
  5
730
102
{ACAD_REACTORS
330
72F
102
}
330
72F
100
AcDbXrecord
280
     1
102
RTVSPost2010Prop28
280
     0
102
RTVSPost2010PropOp28
 70
     1
102
RTVSPost2010Prop29
280
     1
102
RTVSPost2010PropOp29
 70
     1
102
RTVSPost2010Prop30
280
     1
102
RTVSPost2010PropOp30
 70
     1
102
RTVSPost2010Prop31
280
     0
102
RTVSPost2010PropOp31
 70
     1
102
RTVSPost2010Prop32
280
     0
102
RTVSPost2010PropOp32
 70
     1
102
RTVSPost2010Prop33
280
     0
102
RTVSPost2010PropOp33
 70
     1
102
RTVSPost2010Prop34
280
     0
102
RTVSPost2010PropOp34
 70
     1
102
RTVSPost2010Prop35
280
     0
102
RTVSPost2010PropOp35
 70
     1
102
RTVSPost2010Prop36
280
     0
102
RTVSPost2010PropOp36
 70
     1
102
RTVSPost2010Prop37
 90
       50
102
RTVSPost2010PropOp37
 70
     1
102
RTVSPost2010Prop38
140
0.0
102
RTVSPost2010PropOp38
 70
     1
102
RTVSPost2010Prop39
140
1.0
102
RTVSPost2010PropOp39
 70
     1
102
RTVSPost2010Prop40
 90
        0
102
RTVSPost2010PropOp40
 70
     1
102
RTVSPost2010Prop41ColorIndex
 90
       18
102
RTVSPost2010Prop41ColorRGB
 90
        0
102
RTVSPost2010PropOp41
 70
     1
102
RTVSPost2010Prop42
 90
       50
102
RTVSPost2010PropOp42
 70
     1
102
RTVSPost2010Prop43
 90
        3
102
RTVSPost2010PropOp43
 70
     1
102
RTVSPost2010Prop44ColorIndex
 90
        5
102
RTVSPost2010Prop44ColorRGB
 90
      255
102
RTVSPost2010PropOp44
 70
     1
102
RTVSPost2010Prop45
280
     0
102
RTVSPost2010PropOp45
 70
     1
102
RTVSPost2010Prop46
 90
       50
102
RTVSPost2010PropOp46
 70
     1
102
RTVSPost2010Prop47
 90
       50
102
RTVSPost2010PropOp47
 70
     1
102
RTVSPost2010Prop48
 90
       50
102
RTVSPost2010PropOp48
 70
     1
102
RTVSPost2010Prop49
280
     0
102
RTVSPost2010PropOp49
 70
     1
102
RTVSPost2010Prop50
 90
       50
102
RTVSPost2010PropOp50
 70
     1
102
RTVSPost2010Prop51ColorIndex
 90
      256
102
RTVSPost2010Prop51ColorRGB
 90
-16777216
102
RTVSPost2010PropOp51
 70
     0
102
RTVSPost2010Prop52
140
1.0
102
RTVSPost2010PropOp52
 70
     0
102
RTVSPost2010Prop53
 90
        2
102
RTVSPost2010PropOp53
 70
     1
102
RTVSPost2010Prop54
  1
strokes_ogs.tif
102
RTVSPost2010PropOp54
 70
     1
102
RTVSPost2010Prop55
280
     0
102
RTVSPost2010PropOp55
 70
     1
102
RTVSPost2010Prop56
140
1.0
102
RTVSPost2010PropOp56
 70
     1
102
RTVSPost2010Prop57
140
1.0
102
RTVSPost2010PropOp57
 70
     1
  0
XRECORD
  5
732
102
{ACAD_REACTORS
330
731
102
}
330
731
100
AcDbXrecord
280
     1
102
RTVSPost2010Prop28
280
     0
102
RTVSPost2010PropOp28
 70
     1
102
RTVSPost2010Prop29
280
     1
102
RTVSPost2010PropOp29
 70
     1
102
RTVSPost2010Prop30
280
     1
102
RTVSPost2010PropOp30
 70
     1
102
RTVSPost2010Prop31
280
     0
102
RTVSPost2010PropOp31
 70
     1
102
RTVSPost2010Prop32
280
     0
102
RTVSPost2010PropOp32
 70
     1
102
RTVSPost2010Prop33
280
     0
102
RTVSPost2010PropOp33
 70
     1
102
RTVSPost2010Prop34
280
     0
102
RTVSPost2010PropOp34
 70
     1
102
RTVSPost2010Prop35
280
     0
102
RTVSPost2010PropOp35
 70
     1
102
RTVSPost2010Prop36
280
     0
102
RTVSPost2010PropOp36
 70
     1
102
RTVSPost2010Prop37
 90
       50
102
RTVSPost2010PropOp37
 70
     1
102
RTVSPost2010Prop38
140
0.0
102
RTVSPost2010PropOp38
 70
     1
102
RTVSPost2010Prop39
140
1.0
102
RTVSPost2010PropOp39
 70
     1
102
RTVSPost2010Prop40
 90
        0
102
RTVSPost2010PropOp40
 70
     1
102
RTVSPost2010Prop41ColorIndex
 90
       18
102
RTVSPost2010Prop41ColorRGB
 90
        0
102
RTVSPost2010PropOp41
 70
     1
102
RTVSPost2010Prop42
 90
       50
102
RTVSPost2010PropOp42
 70
     1
102
RTVSPost2010Prop43
 90
        3
102
RTVSPost2010PropOp43
 70
     1
102
RTVSPost2010Prop44ColorIndex
 90
        5
102
RTVSPost2010Prop44ColorRGB
 90
      255
102
RTVSPost2010PropOp44
 70
     1
102
RTVSPost2010Prop45
280
     0
102
RTVSPost2010PropOp45
 70
     1
102
RTVSPost2010Prop46
 90
       50
102
RTVSPost2010PropOp46
 70
     1
102
RTVSPost2010Prop47
 90
       50
102
RTVSPost2010PropOp47
 70
     1
102
RTVSPost2010Prop48
 90
       50
102
RTVSPost2010PropOp48
 70
     1
102
RTVSPost2010Prop49
280
     0
102
RTVSPost2010PropOp49
 70
     1
102
RTVSPost2010Prop50
 90
       50
102
RTVSPost2010PropOp50
 70
     1
102
RTVSPost2010Prop51ColorIndex
 90
      256
102
RTVSPost2010Prop51ColorRGB
 90
-16777216
102
RTVSPost2010PropOp51
 70
     0
102
RTVSPost2010Prop52
140
1.0
102
RTVSPost2010PropOp52
 70
     0
102
RTVSPost2010Prop53
 90
        2
102
RTVSPost2010PropOp53
 70
     1
102
RTVSPost2010Prop54
  1
strokes_ogs.tif
102
RTVSPost2010PropOp54
 70
     1
102
RTVSPost2010Prop55
280
     0
102
RTVSPost2010PropOp55
 70
     1
102
RTVSPost2010Prop56
140
1.0
102
RTVSPost2010PropOp56
 70
     1
102
RTVSPost2010Prop57
140
1.0
102
RTVSPost2010PropOp57
 70
     1
  0
XRECORD
  5
734
102
{ACAD_REACTORS
330
733
102
}
330
733
100
AcDbXrecord
280
     1
102
RTVSPost2010Prop28
280
     0
102
RTVSPost2010PropOp28
 70
     1
102
RTVSPost2010Prop29
280
     1
102
RTVSPost2010PropOp29
 70
     1
102
RTVSPost2010Prop30
280
     1
102
RTVSPost2010PropOp30
 70
     1
102
RTVSPost2010Prop31
280
     0
102
RTVSPost2010PropOp31
 70
     1
102
RTVSPost2010Prop32
280
     0
102
RTVSPost2010PropOp32
 70
     1
102
RTVSPost2010Prop33
280
     0
102
RTVSPost2010PropOp33
 70
     1
102
RTVSPost2010Prop34
280
     0
102
RTVSPost2010PropOp34
 70
     1
102
RTVSPost2010Prop35
280
     0
102
RTVSPost2010PropOp35
 70
     1
102
RTVSPost2010Prop36
280
     0
102
RTVSPost2010PropOp36
 70
     1
102
RTVSPost2010Prop37
 90
       50
102
RTVSPost2010PropOp37
 70
     1
102
RTVSPost2010Prop38
140
0.0
102
RTVSPost2010PropOp38
 70
     1
102
RTVSPost2010Prop39
140
1.0
102
RTVSPost2010PropOp39
 70
     1
102
RTVSPost2010Prop40
 90
        0
102
RTVSPost2010PropOp40
 70
     1
102
RTVSPost2010Prop41ColorIndex
 90
       18
102
RTVSPost2010Prop41ColorRGB
 90
        0
102
RTVSPost2010PropOp41
 70
     1
102
RTVSPost2010Prop42
 90
       50
102
RTVSPost2010PropOp42
 70
     1
102
RTVSPost2010Prop43
 90
        3
102
RTVSPost2010PropOp43
 70
     1
102
RTVSPost2010Prop44ColorIndex
 90
        5
102
RTVSPost2010Prop44ColorRGB
 90
      255
102
RTVSPost2010PropOp44
 70
     1
102
RTVSPost2010Prop45
280
     0
102
RTVSPost2010PropOp45
 70
     1
102
RTVSPost2010Prop46
 90
       50
102
RTVSPost2010PropOp46
 70
     1
102
RTVSPost2010Prop47
 90
       50
102
RTVSPost2010PropOp47
 70
     1
102
RTVSPost2010Prop48
 90
       50
102
RTVSPost2010PropOp48
 70
     1
102
RTVSPost2010Prop49
280
     0
102
RTVSPost2010PropOp49
 70
     1
102
RTVSPost2010Prop50
 90
       50
102
RTVSPost2010PropOp50
 70
     1
102
RTVSPost2010Prop51ColorIndex
 90
      256
102
RTVSPost2010Prop51ColorRGB
 90
-16777216
102
RTVSPost2010PropOp51
 70
     0
102
RTVSPost2010Prop52
140
1.0
102
RTVSPost2010PropOp52
 70
     0
102
RTVSPost2010Prop53
 90
        2
102
RTVSPost2010PropOp53
 70
     1
102
RTVSPost2010Prop54
  1
strokes_ogs.tif
102
RTVSPost2010PropOp54
 70
     1
102
RTVSPost2010Prop55
280
     0
102
RTVSPost2010PropOp55
 70
     1
102
RTVSPost2010Prop56
140
1.0
102
RTVSPost2010PropOp56
 70
     1
102
RTVSPost2010Prop57
140
1.0
102
RTVSPost2010PropOp57
 70
     1
  0
XRECORD
  5
736
102
{ACAD_REACTORS
330
735
102
}
330
735
100
AcDbXrecord
280
     1
102
RTVSPost2010Prop28
280
     0
102
RTVSPost2010PropOp28
 70
     1
102
RTVSPost2010Prop29
280
     1
102
RTVSPost2010PropOp29
 70
     1
102
RTVSPost2010Prop30
280
     1
102
RTVSPost2010PropOp30
 70
     1
102
RTVSPost2010Prop31
280
     0
102
RTVSPost2010PropOp31
 70
     1
102
RTVSPost2010Prop32
280
     0
102
RTVSPost2010PropOp32
 70
     1
102
RTVSPost2010Prop33
280
     0
102
RTVSPost2010PropOp33
 70
     1
102
RTVSPost2010Prop34
280
     0
102
RTVSPost2010PropOp34
 70
     1
102
RTVSPost2010Prop35
280
     0
102
RTVSPost2010PropOp35
 70
     1
102
RTVSPost2010Prop36
280
     0
102
RTVSPost2010PropOp36
 70
     1
102
RTVSPost2010Prop37
 90
       50
102
RTVSPost2010PropOp37
 70
     1
102
RTVSPost2010Prop38
140
0.0
102
RTVSPost2010PropOp38
 70
     1
102
RTVSPost2010Prop39
140
1.0
102
RTVSPost2010PropOp39
 70
     1
102
RTVSPost2010Prop40
 90
        0
102
RTVSPost2010PropOp40
 70
     1
102
RTVSPost2010Prop41ColorIndex
 90
       18
102
RTVSPost2010Prop41ColorRGB
 90
        0
102
RTVSPost2010PropOp41
 70
     1
102
RTVSPost2010Prop42
 90
       50
102
RTVSPost2010PropOp42
 70
     1
102
RTVSPost2010Prop43
 90
        3
102
RTVSPost2010PropOp43
 70
     1
102
RTVSPost2010Prop44ColorIndex
 90
        5
102
RTVSPost2010Prop44ColorRGB
 90
      255
102
RTVSPost2010PropOp44
 70
     1
102
RTVSPost2010Prop45
280
     0
102
RTVSPost2010PropOp45
 70
     1
102
RTVSPost2010Prop46
 90
       50
102
RTVSPost2010PropOp46
 70
     1
102
RTVSPost2010Prop47
 90
       50
102
RTVSPost2010PropOp47
 70
     1
102
RTVSPost2010Prop48
 90
       50
102
RTVSPost2010PropOp48
 70
     1
102
RTVSPost2010Prop49
280
     0
102
RTVSPost2010PropOp49
 70
     1
102
RTVSPost2010Prop50
 90
       50
102
RTVSPost2010PropOp50
 70
     1
102
RTVSPost2010Prop51ColorIndex
 90
      256
102
RTVSPost2010Prop51ColorRGB
 90
-16777216
102
RTVSPost2010PropOp51
 70
     0
102
RTVSPost2010Prop52
140
1.0
102
RTVSPost2010PropOp52
 70
     0
102
RTVSPost2010Prop53
 90
        2
102
RTVSPost2010PropOp53
 70
     1
102
RTVSPost2010Prop54
  1
strokes_ogs.tif
102
RTVSPost2010PropOp54
 70
     1
102
RTVSPost2010Prop55
280
     0
102
RTVSPost2010PropOp55
 70
     1
102
RTVSPost2010Prop56
140
1.0
102
RTVSPost2010PropOp56
 70
     1
102
RTVSPost2010Prop57
140
1.0
102
RTVSPost2010PropOp57
 70
     1
  0
XRECORD
  5
73E
102
{ACAD_REACTORS
330
73D
102
}
330
73D
100
AcDbXrecord
280
     1
102
RTVSPost2010Prop28
280
     0
102
RTVSPost2010PropOp28
 70
     1
102
RTVSPost2010Prop29
280
     1
102
RTVSPost2010PropOp29
 70
     1
102
RTVSPost2010Prop30
280
     1
102
RTVSPost2010PropOp30
 70
     1
102
RTVSPost2010Prop31
280
     0
102
RTVSPost2010PropOp31
 70
     1
102
RTVSPost2010Prop32
280
     0
102
RTVSPost2010PropOp32
 70
     1
102
RTVSPost2010Prop33
280
     0
102
RTVSPost2010PropOp33
 70
     1
102
RTVSPost2010Prop34
280
     0
102
RTVSPost2010PropOp34
 70
     1
102
RTVSPost2010Prop35
280
     0
102
RTVSPost2010PropOp35
 70
     1
102
RTVSPost2010Prop36
280
     0
102
RTVSPost2010PropOp36
 70
     1
102
RTVSPost2010Prop37
 90
       50
102
RTVSPost2010PropOp37
 70
     1
102
RTVSPost2010Prop38
140
0.0
102
RTVSPost2010PropOp38
 70
     1
102
RTVSPost2010Prop39
140
1.0
102
RTVSPost2010PropOp39
 70
     1
102
RTVSPost2010Prop40
 90
        0
102
RTVSPost2010PropOp40
 70
     1
102
RTVSPost2010Prop41ColorIndex
 90
       18
102
RTVSPost2010Prop41ColorRGB
 90
        0
102
RTVSPost2010PropOp41
 70
     1
102
RTVSPost2010Prop42
 90
       50
102
RTVSPost2010PropOp42
 70
     1
102
RTVSPost2010Prop43
 90
        3
102
RTVSPost2010PropOp43
 70
     1
102
RTVSPost2010Prop44ColorIndex
 90
        5
102
RTVSPost2010Prop44ColorRGB
 90
      255
102
RTVSPost2010PropOp44
 70
     1
102
RTVSPost2010Prop45
280
     0
102
RTVSPost2010PropOp45
 70
     1
102
RTVSPost2010Prop46
 90
       50
102
RTVSPost2010PropOp46
 70
     1
102
RTVSPost2010Prop47
 90
       50
102
RTVSPost2010PropOp47
 70
     1
102
RTVSPost2010Prop48
 90
       50
102
RTVSPost2010PropOp48
 70
     1
102
RTVSPost2010Prop49
280
     0
102
RTVSPost2010PropOp49
 70
     1
102
RTVSPost2010Prop50
 90
       50
102
RTVSPost2010PropOp50
 70
     1
102
RTVSPost2010Prop51ColorIndex
 90
      256
102
RTVSPost2010Prop51ColorRGB
 90
-16777216
102
RTVSPost2010PropOp51
 70
     0
102
RTVSPost2010Prop52
140
1.0
102
RTVSPost2010PropOp52
 70
     0
102
RTVSPost2010Prop53
 90
        2
102
RTVSPost2010PropOp53
 70
     1
102
RTVSPost2010Prop54
  1
strokes_ogs.tif
102
RTVSPost2010PropOp54
 70
     1
102
RTVSPost2010Prop55
280
     0
102
RTVSPost2010PropOp55
 70
     1
102
RTVSPost2010Prop56
140
1.0
102
RTVSPost2010PropOp56
 70
     1
102
RTVSPost2010Prop57
140
1.0
102
RTVSPost2010PropOp57
 70
     1
  0
XRECORD
  5
75A
102
{ACAD_REACTORS
330
759
102
}
330
759
100
AcDbXrecord
280
     1
102
RTVSPost2010Prop28
280
     0
102
RTVSPost2010PropOp28
 70
     0
102
RTVSPost2010Prop29
280
     1
102
RTVSPost2010PropOp29
 70
     0
102
RTVSPost2010Prop30
280
     1
102
RTVSPost2010PropOp30
 70
     0
102
RTVSPost2010Prop31
280
     0
102
RTVSPost2010PropOp31
 70
     0
102
RTVSPost2010Prop32
280
     0
102
RTVSPost2010PropOp32
 70
     0
102
RTVSPost2010Prop33
280
     0
102
RTVSPost2010PropOp33
 70
     0
102
RTVSPost2010Prop34
280
     0
102
RTVSPost2010PropOp34
 70
     0
102
RTVSPost2010Prop35
280
     0
102
RTVSPost2010PropOp35
 70
     0
102
RTVSPost2010Prop36
280
     0
102
RTVSPost2010PropOp36
 70
     0
102
RTVSPost2010Prop37
 90
       50
102
RTVSPost2010PropOp37
 70
     0
102
RTVSPost2010Prop38
140
0.0
102
RTVSPost2010PropOp38
 70
     0
102
RTVSPost2010Prop39
140
1.0
102
RTVSPost2010PropOp39
 70
     0
102
RTVSPost2010Prop40
 90
        0
102
RTVSPost2010PropOp40
 70
     0
102
RTVSPost2010Prop41ColorIndex
 90
       18
102
RTVSPost2010Prop41ColorRGB
 90
        0
102
RTVSPost2010PropOp41
 70
     0
102
RTVSPost2010Prop42
 90
       50
102
RTVSPost2010PropOp42
 70
     0
102
RTVSPost2010Prop43
 90
        3
102
RTVSPost2010PropOp43
 70
     0
102
RTVSPost2010Prop44ColorIndex
 90
        5
102
RTVSPost2010Prop44ColorRGB
 90
      255
102
RTVSPost2010PropOp44
 70
     0
102
RTVSPost2010Prop45
280
     0
102
RTVSPost2010PropOp45
 70
     0
102
RTVSPost2010Prop46
 90
       50
102
RTVSPost2010PropOp46
 70
     0
102
RTVSPost2010Prop47
 90
       50
102
RTVSPost2010PropOp47
 70
     0
102
RTVSPost2010Prop48
 90
       50
102
RTVSPost2010PropOp48
 70
     0
102
RTVSPost2010Prop49
280
     0
102
RTVSPost2010PropOp49
 70
     0
102
RTVSPost2010Prop50
 90
       50
102
RTVSPost2010PropOp50
 70
     0
102
RTVSPost2010Prop51ColorIndex
 90
      256
102
RTVSPost2010Prop51ColorRGB
 90
-16777216
102
RTVSPost2010PropOp51
 70
     0
102
RTVSPost2010Prop52
140
1.0
102
RTVSPost2010PropOp52
 70
     0
102
RTVSPost2010Prop53
 90
        2
102
RTVSPost2010PropOp53
 70
     0
102
RTVSPost2010Prop54
  1
strokes_ogs.tif
102
RTVSPost2010PropOp54
 70
     0
102
RTVSPost2010Prop55
280
     0
102
RTVSPost2010PropOp55
 70
     0
102
RTVSPost2010Prop56
140
1.0
102
RTVSPost2010PropOp56
 70
     0
102
RTVSPost2010Prop57
140
1.0
102
RTVSPost2010PropOp57
 70
     0
  0
XRECORD
  5
74A
102
{ACAD_REACTORS
330
749
102
}
330
749
100
AcDbXrecord
280
     1
102
RTVSPost2010Prop28
280
     0
102
RTVSPost2010PropOp28
 70
     1
102
RTVSPost2010Prop29
280
     1
102
RTVSPost2010PropOp29
 70
     1
102
RTVSPost2010Prop30
280
     1
102
RTVSPost2010PropOp30
 70
     1
102
RTVSPost2010Prop31
280
     0
102
RTVSPost2010PropOp31
 70
     1
102
RTVSPost2010Prop32
280
     0
102
RTVSPost2010PropOp32
 70
     1
102
RTVSPost2010Prop33
280
     0
102
RTVSPost2010PropOp33
 70
     1
102
RTVSPost2010Prop34
280
     0
102
RTVSPost2010PropOp34
 70
     1
102
RTVSPost2010Prop35
280
     0
102
RTVSPost2010PropOp35
 70
     1
102
RTVSPost2010Prop36
280
     0
102
RTVSPost2010PropOp36
 70
     1
102
RTVSPost2010Prop37
 90
       50
102
RTVSPost2010PropOp37
 70
     1
102
RTVSPost2010Prop38
140
0.0
102
RTVSPost2010PropOp38
 70
     1
102
RTVSPost2010Prop39
140
1.0
102
RTVSPost2010PropOp39
 70
     1
102
RTVSPost2010Prop40
 90
        0
102
RTVSPost2010PropOp40
 70
     1
102
RTVSPost2010Prop41ColorIndex
 90
       18
102
RTVSPost2010Prop41ColorRGB
 90
        0
102
RTVSPost2010PropOp41
 70
     1
102
RTVSPost2010Prop42
 90
       50
102
RTVSPost2010PropOp42
 70
     1
102
RTVSPost2010Prop43
 90
        3
102
RTVSPost2010PropOp43
 70
     1
102
RTVSPost2010Prop44ColorIndex
 90
        5
102
RTVSPost2010Prop44ColorRGB
 90
      255
102
RTVSPost2010PropOp44
 70
     1
102
RTVSPost2010Prop45
280
     0
102
RTVSPost2010PropOp45
 70
     1
102
RTVSPost2010Prop46
 90
       50
102
RTVSPost2010PropOp46
 70
     1
102
RTVSPost2010Prop47
 90
       50
102
RTVSPost2010PropOp47
 70
     1
102
RTVSPost2010Prop48
 90
       50
102
RTVSPost2010PropOp48
 70
     1
102
RTVSPost2010Prop49
280
     0
102
RTVSPost2010PropOp49
 70
     1
102
RTVSPost2010Prop50
 90
       50
102
RTVSPost2010PropOp50
 70
     1
102
RTVSPost2010Prop51ColorIndex
 90
      256
102
RTVSPost2010Prop51ColorRGB
 90
-16777216
102
RTVSPost2010PropOp51
 70
     0
102
RTVSPost2010Prop52
140
1.0
102
RTVSPost2010PropOp52
 70
     0
102
RTVSPost2010Prop53
 90
        2
102
RTVSPost2010PropOp53
 70
     1
102
RTVSPost2010Prop54
  1
strokes_ogs.tif
102
RTVSPost2010PropOp54
 70
     1
102
RTVSPost2010Prop55
280
     0
102
RTVSPost2010PropOp55
 70
     1
102
RTVSPost2010Prop56
140
1.0
102
RTVSPost2010PropOp56
 70
     1
102
RTVSPost2010Prop57
140
1.0
102
RTVSPost2010PropOp57
 70
     1
  0
XRECORD
  5
75C
102
{ACAD_REACTORS
330
75B
102
}
330
75B
100
AcDbXrecord
280
     1
102
RTVSPost2010Prop28
280
     0
102
RTVSPost2010PropOp28
 70
     0
102
RTVSPost2010Prop29
280
     1
102
RTVSPost2010PropOp29
 70
     0
102
RTVSPost2010Prop30
280
     1
102
RTVSPost2010PropOp30
 70
     0
102
RTVSPost2010Prop31
280
     0
102
RTVSPost2010PropOp31
 70
     0
102
RTVSPost2010Prop32
280
     0
102
RTVSPost2010PropOp32
 70
     0
102
RTVSPost2010Prop33
280
     0
102
RTVSPost2010PropOp33
 70
     0
102
RTVSPost2010Prop34
280
     0
102
RTVSPost2010PropOp34
 70
     0
102
RTVSPost2010Prop35
280
     0
102
RTVSPost2010PropOp35
 70
     0
102
RTVSPost2010Prop36
280
     0
102
RTVSPost2010PropOp36
 70
     0
102
RTVSPost2010Prop37
 90
       50
102
RTVSPost2010PropOp37
 70
     0
102
RTVSPost2010Prop38
140
0.0
102
RTVSPost2010PropOp38
 70
     0
102
RTVSPost2010Prop39
140
1.0
102
RTVSPost2010PropOp39
 70
     0
102
RTVSPost2010Prop40
 90
        0
102
RTVSPost2010PropOp40
 70
     0
102
RTVSPost2010Prop41ColorIndex
 90
       18
102
RTVSPost2010Prop41ColorRGB
 90
        0
102
RTVSPost2010PropOp41
 70
     0
102
RTVSPost2010Prop42
 90
       50
102
RTVSPost2010PropOp42
 70
     0
102
RTVSPost2010Prop43
 90
        3
102
RTVSPost2010PropOp43
 70
     0
102
RTVSPost2010Prop44ColorIndex
 90
        5
102
RTVSPost2010Prop44ColorRGB
 90
      255
102
RTVSPost2010PropOp44
 70
     0
102
RTVSPost2010Prop45
280
     0
102
RTVSPost2010PropOp45
 70
     0
102
RTVSPost2010Prop46
 90
       50
102
RTVSPost2010PropOp46
 70
     0
102
RTVSPost2010Prop47
 90
       50
102
RTVSPost2010PropOp47
 70
     0
102
RTVSPost2010Prop48
 90
       50
102
RTVSPost2010PropOp48
 70
     0
102
RTVSPost2010Prop49
280
     0
102
RTVSPost2010PropOp49
 70
     0
102
RTVSPost2010Prop50
 90
       50
102
RTVSPost2010PropOp50
 70
     0
102
RTVSPost2010Prop51ColorIndex
 90
      256
102
RTVSPost2010Prop51ColorRGB
 90
-16777216
102
RTVSPost2010PropOp51
 70
     0
102
RTVSPost2010Prop52
140
1.0
102
RTVSPost2010PropOp52
 70
     0
102
RTVSPost2010Prop53
 90
        2
102
RTVSPost2010PropOp53
 70
     0
102
RTVSPost2010Prop54
  1
strokes_ogs.tif
102
RTVSPost2010PropOp54
 70
     0
102
RTVSPost2010Prop55
280
     0
102
RTVSPost2010PropOp55
 70
     0
102
RTVSPost2010Prop56
140
1.0
102
RTVSPost2010PropOp56
 70
     0
102
RTVSPost2010Prop57
140
1.0
102
RTVSPost2010PropOp57
 70
     0
  0
XRECORD
  5
742
102
{ACAD_REACTORS
330
741
102
}
330
741
100
AcDbXrecord
280
     1
102
RTVSPost2010Prop28
280
     0
102
RTVSPost2010PropOp28
 70
     1
102
RTVSPost2010Prop29
280
     1
102
RTVSPost2010PropOp29
 70
     1
102
RTVSPost2010Prop30
280
     1
102
RTVSPost2010PropOp30
 70
     1
102
RTVSPost2010Prop31
280
     0
102
RTVSPost2010PropOp31
 70
     1
102
RTVSPost2010Prop32
280
     0
102
RTVSPost2010PropOp32
 70
     1
102
RTVSPost2010Prop33
280
     0
102
RTVSPost2010PropOp33
 70
     1
102
RTVSPost2010Prop34
280
     0
102
RTVSPost2010PropOp34
 70
     1
102
RTVSPost2010Prop35
280
     0
102
RTVSPost2010PropOp35
 70
     1
102
RTVSPost2010Prop36
280
     0
102
RTVSPost2010PropOp36
 70
     1
102
RTVSPost2010Prop37
 90
       50
102
RTVSPost2010PropOp37
 70
     1
102
RTVSPost2010Prop38
140
0.0
102
RTVSPost2010PropOp38
 70
     1
102
RTVSPost2010Prop39
140
1.0
102
RTVSPost2010PropOp39
 70
     1
102
RTVSPost2010Prop40
 90
        0
102
RTVSPost2010PropOp40
 70
     1
102
RTVSPost2010Prop41ColorIndex
 90
       18
102
RTVSPost2010Prop41ColorRGB
 90
        0
102
RTVSPost2010PropOp41
 70
     1
102
RTVSPost2010Prop42
 90
       50
102
RTVSPost2010PropOp42
 70
     1
102
RTVSPost2010Prop43
 90
        3
102
RTVSPost2010PropOp43
 70
     1
102
RTVSPost2010Prop44ColorIndex
 90
        5
102
RTVSPost2010Prop44ColorRGB
 90
      255
102
RTVSPost2010PropOp44
 70
     1
102
RTVSPost2010Prop45
280
     0
102
RTVSPost2010PropOp45
 70
     1
102
RTVSPost2010Prop46
 90
       50
102
RTVSPost2010PropOp46
 70
     1
102
RTVSPost2010Prop47
 90
       50
102
RTVSPost2010PropOp47
 70
     1
102
RTVSPost2010Prop48
 90
       50
102
RTVSPost2010PropOp48
 70
     1
102
RTVSPost2010Prop49
280
     0
102
RTVSPost2010PropOp49
 70
     1
102
RTVSPost2010Prop50
 90
       50
102
RTVSPost2010PropOp50
 70
     1
102
RTVSPost2010Prop51ColorIndex
 90
      256
102
RTVSPost2010Prop51ColorRGB
 90
-16777216
102
RTVSPost2010PropOp51
 70
     0
102
RTVSPost2010Prop52
140
1.0
102
RTVSPost2010PropOp52
 70
     0
102
RTVSPost2010Prop53
 90
        2
102
RTVSPost2010PropOp53
 70
     1
102
RTVSPost2010Prop54
  1
strokes_ogs.tif
102
RTVSPost2010PropOp54
 70
     1
102
RTVSPost2010Prop55
280
     0
102
RTVSPost2010PropOp55
 70
     1
102
RTVSPost2010Prop56
140
1.0
102
RTVSPost2010PropOp56
 70
     1
102
RTVSPost2010Prop57
140
1.0
102
RTVSPost2010PropOp57
 70
     1
  0
XRECORD
  5
758
102
{ACAD_REACTORS
330
757
102
}
330
757
100
AcDbXrecord
280
     1
102
RTVSPost2010Prop28
280
     0
102
RTVSPost2010PropOp28
 70
     1
102
RTVSPost2010Prop29
280
     1
102
RTVSPost2010PropOp29
 70
     1
102
RTVSPost2010Prop30
280
     1
102
RTVSPost2010PropOp30
 70
     1
102
RTVSPost2010Prop31
280
     0
102
RTVSPost2010PropOp31
 70
     1
102
RTVSPost2010Prop32
280
     0
102
RTVSPost2010PropOp32
 70
     1
102
RTVSPost2010Prop33
280
     0
102
RTVSPost2010PropOp33
 70
     1
102
RTVSPost2010Prop34
280
     0
102
RTVSPost2010PropOp34
 70
     1
102
RTVSPost2010Prop35
280
     0
102
RTVSPost2010PropOp35
 70
     1
102
RTVSPost2010Prop36
280
     0
102
RTVSPost2010PropOp36
 70
     1
102
RTVSPost2010Prop37
 90
       50
102
RTVSPost2010PropOp37
 70
     1
102
RTVSPost2010Prop38
140
0.0
102
RTVSPost2010PropOp38
 70
     1
102
RTVSPost2010Prop39
140
1.0
102
RTVSPost2010PropOp39
 70
     1
102
RTVSPost2010Prop40
 90
        0
102
RTVSPost2010PropOp40
 70
     1
102
RTVSPost2010Prop41ColorIndex
 90
       18
102
RTVSPost2010Prop41ColorRGB
 90
        0
102
RTVSPost2010PropOp41
 70
     1
102
RTVSPost2010Prop42
 90
       50
102
RTVSPost2010PropOp42
 70
     1
102
RTVSPost2010Prop43
 90
        3
102
RTVSPost2010PropOp43
 70
     1
102
RTVSPost2010Prop44ColorIndex
 90
        5
102
RTVSPost2010Prop44ColorRGB
 90
      255
102
RTVSPost2010PropOp44
 70
     1
102
RTVSPost2010Prop45
280
     0
102
RTVSPost2010PropOp45
 70
     1
102
RTVSPost2010Prop46
 90
       50
102
RTVSPost2010PropOp46
 70
     1
102
RTVSPost2010Prop47
 90
       50
102
RTVSPost2010PropOp47
 70
     1
102
RTVSPost2010Prop48
 90
       50
102
RTVSPost2010PropOp48
 70
     1
102
RTVSPost2010Prop49
280
     0
102
RTVSPost2010PropOp49
 70
     1
102
RTVSPost2010Prop50
 90
       50
102
RTVSPost2010PropOp50
 70
     1
102
RTVSPost2010Prop51ColorIndex
 90
      256
102
RTVSPost2010Prop51ColorRGB
 90
-16777216
102
RTVSPost2010PropOp51
 70
     0
102
RTVSPost2010Prop52
140
1.0
102
RTVSPost2010PropOp52
 70
     0
102
RTVSPost2010Prop53
 90
        2
102
RTVSPost2010PropOp53
 70
     1
102
RTVSPost2010Prop54
  1
strokes_ogs.tif
102
RTVSPost2010PropOp54
 70
     1
102
RTVSPost2010Prop55
280
     0
102
RTVSPost2010PropOp55
 70
     1
102
RTVSPost2010Prop56
140
1.0
102
RTVSPost2010PropOp56
 70
     1
102
RTVSPost2010Prop57
140
1.0
102
RTVSPost2010PropOp57
 70
     1
  0
XRECORD
  5
756
102
{ACAD_REACTORS
330
755
102
}
330
755
100
AcDbXrecord
280
     1
102
RTVSPost2010Prop28
280
     0
102
RTVSPost2010PropOp28
 70
     1
102
RTVSPost2010Prop29
280
     1
102
RTVSPost2010PropOp29
 70
     1
102
RTVSPost2010Prop30
280
     1
102
RTVSPost2010PropOp30
 70
     1
102
RTVSPost2010Prop31
280
     0
102
RTVSPost2010PropOp31
 70
     1
102
RTVSPost2010Prop32
280
     0
102
RTVSPost2010PropOp32
 70
     1
102
RTVSPost2010Prop33
280
     0
102
RTVSPost2010PropOp33
 70
     1
102
RTVSPost2010Prop34
280
     0
102
RTVSPost2010PropOp34
 70
     1
102
RTVSPost2010Prop35
280
     0
102
RTVSPost2010PropOp35
 70
     1
102
RTVSPost2010Prop36
280
     0
102
RTVSPost2010PropOp36
 70
     1
102
RTVSPost2010Prop37
 90
       50
102
RTVSPost2010PropOp37
 70
     1
102
RTVSPost2010Prop38
140
0.0
102
RTVSPost2010PropOp38
 70
     1
102
RTVSPost2010Prop39
140
1.0
102
RTVSPost2010PropOp39
 70
     1
102
RTVSPost2010Prop40
 90
        0
102
RTVSPost2010PropOp40
 70
     1
102
RTVSPost2010Prop41ColorIndex
 90
       18
102
RTVSPost2010Prop41ColorRGB
 90
        0
102
RTVSPost2010PropOp41
 70
     1
102
RTVSPost2010Prop42
 90
       50
102
RTVSPost2010PropOp42
 70
     1
102
RTVSPost2010Prop43
 90
        3
102
RTVSPost2010PropOp43
 70
     1
102
RTVSPost2010Prop44ColorIndex
 90
        5
102
RTVSPost2010Prop44ColorRGB
 90
      255
102
RTVSPost2010PropOp44
 70
     1
102
RTVSPost2010Prop45
280
     0
102
RTVSPost2010PropOp45
 70
     1
102
RTVSPost2010Prop46
 90
       50
102
RTVSPost2010PropOp46
 70
     1
102
RTVSPost2010Prop47
 90
       50
102
RTVSPost2010PropOp47
 70
     1
102
RTVSPost2010Prop48
 90
       50
102
RTVSPost2010PropOp48
 70
     1
102
RTVSPost2010Prop49
280
     0
102
RTVSPost2010PropOp49
 70
     1
102
RTVSPost2010Prop50
 90
       50
102
RTVSPost2010PropOp50
 70
     1
102
RTVSPost2010Prop51ColorIndex
 90
      256
102
RTVSPost2010Prop51ColorRGB
 90
-16777216
102
RTVSPost2010PropOp51
 70
     0
102
RTVSPost2010Prop52
140
1.0
102
RTVSPost2010PropOp52
 70
     0
102
RTVSPost2010Prop53
 90
        2
102
RTVSPost2010PropOp53
 70
     1
102
RTVSPost2010Prop54
  1
strokes_ogs.tif
102
RTVSPost2010PropOp54
 70
     1
102
RTVSPost2010Prop55
280
     0
102
RTVSPost2010PropOp55
 70
     1
102
RTVSPost2010Prop56
140
1.0
102
RTVSPost2010PropOp56
 70
     1
102
RTVSPost2010Prop57
140
1.0
102
RTVSPost2010PropOp57
 70
     1
  0
XRECORD
  5
750
102
{ACAD_REACTORS
330
74F
102
}
330
74F
100
AcDbXrecord
280
     1
102
RTVSPost2010Prop28
280
     0
102
RTVSPost2010PropOp28
 70
     1
102
RTVSPost2010Prop29
280
     1
102
RTVSPost2010PropOp29
 70
     1
102
RTVSPost2010Prop30
280
     1
102
RTVSPost2010PropOp30
 70
     1
102
RTVSPost2010Prop31
280
     0
102
RTVSPost2010PropOp31
 70
     1
102
RTVSPost2010Prop32
280
     0
102
RTVSPost2010PropOp32
 70
     1
102
RTVSPost2010Prop33
280
     0
102
RTVSPost2010PropOp33
 70
     1
102
RTVSPost2010Prop34
280
     0
102
RTVSPost2010PropOp34
 70
     1
102
RTVSPost2010Prop35
280
     0
102
RTVSPost2010PropOp35
 70
     1
102
RTVSPost2010Prop36
280
     0
102
RTVSPost2010PropOp36
 70
     1
102
RTVSPost2010Prop37
 90
       50
102
RTVSPost2010PropOp37
 70
     1
102
RTVSPost2010Prop38
140
0.0
102
RTVSPost2010PropOp38
 70
     1
102
RTVSPost2010Prop39
140
1.0
102
RTVSPost2010PropOp39
 70
     1
102
RTVSPost2010Prop40
 90
        0
102
RTVSPost2010PropOp40
 70
     1
102
RTVSPost2010Prop41ColorIndex
 90
       18
102
RTVSPost2010Prop41ColorRGB
 90
        0
102
RTVSPost2010PropOp41
 70
     1
102
RTVSPost2010Prop42
 90
       50
102
RTVSPost2010PropOp42
 70
     1
102
RTVSPost2010Prop43
 90
        3
102
RTVSPost2010PropOp43
 70
     1
102
RTVSPost2010Prop44ColorIndex
 90
        5
102
RTVSPost2010Prop44ColorRGB
 90
      255
102
RTVSPost2010PropOp44
 70
     1
102
RTVSPost2010Prop45
280
     0
102
RTVSPost2010PropOp45
 70
     1
102
RTVSPost2010Prop46
 90
       50
102
RTVSPost2010PropOp46
 70
     1
102
RTVSPost2010Prop47
 90
       50
102
RTVSPost2010PropOp47
 70
     1
102
RTVSPost2010Prop48
 90
       50
102
RTVSPost2010PropOp48
 70
     1
102
RTVSPost2010Prop49
280
     0
102
RTVSPost2010PropOp49
 70
     1
102
RTVSPost2010Prop50
 90
       50
102
RTVSPost2010PropOp50
 70
     1
102
RTVSPost2010Prop51ColorIndex
 90
      256
102
RTVSPost2010Prop51ColorRGB
 90
-16777216
102
RTVSPost2010PropOp51
 70
     0
102
RTVSPost2010Prop52
140
1.0
102
RTVSPost2010PropOp52
 70
     0
102
RTVSPost2010Prop53
 90
        2
102
RTVSPost2010PropOp53
 70
     1
102
RTVSPost2010Prop54
  1
strokes_ogs.tif
102
RTVSPost2010PropOp54
 70
     1
102
RTVSPost2010Prop55
280
     0
102
RTVSPost2010PropOp55
 70
     1
102
RTVSPost2010Prop56
140
1.0
102
RTVSPost2010PropOp56
 70
     1
102
RTVSPost2010Prop57
140
1.0
102
RTVSPost2010PropOp57
 70
     1
  0
XRECORD
  5
752
102
{ACAD_REACTORS
330
751
102
}
330
751
100
AcDbXrecord
280
     1
102
RTVSPost2010Prop28
280
     0
102
RTVSPost2010PropOp28
 70
     1
102
RTVSPost2010Prop29
280
     1
102
RTVSPost2010PropOp29
 70
     1
102
RTVSPost2010Prop30
280
     1
102
RTVSPost2010PropOp30
 70
     1
102
RTVSPost2010Prop31
280
     0
102
RTVSPost2010PropOp31
 70
     1
102
RTVSPost2010Prop32
280
     0
102
RTVSPost2010PropOp32
 70
     1
102
RTVSPost2010Prop33
280
     0
102
RTVSPost2010PropOp33
 70
     1
102
RTVSPost2010Prop34
280
     0
102
RTVSPost2010PropOp34
 70
     1
102
RTVSPost2010Prop35
280
     0
102
RTVSPost2010PropOp35
 70
     1
102
RTVSPost2010Prop36
280
     0
102
RTVSPost2010PropOp36
 70
     1
102
RTVSPost2010Prop37
 90
       50
102
RTVSPost2010PropOp37
 70
     1
102
RTVSPost2010Prop38
140
0.0
102
RTVSPost2010PropOp38
 70
     1
102
RTVSPost2010Prop39
140
1.0
102
RTVSPost2010PropOp39
 70
     1
102
RTVSPost2010Prop40
 90
        0
102
RTVSPost2010PropOp40
 70
     1
102
RTVSPost2010Prop41ColorIndex
 90
       18
102
RTVSPost2010Prop41ColorRGB
 90
        0
102
RTVSPost2010PropOp41
 70
     1
102
RTVSPost2010Prop42
 90
       50
102
RTVSPost2010PropOp42
 70
     1
102
RTVSPost2010Prop43
 90
        3
102
RTVSPost2010PropOp43
 70
     1
102
RTVSPost2010Prop44ColorIndex
 90
        5
102
RTVSPost2010Prop44ColorRGB
 90
      255
102
RTVSPost2010PropOp44
 70
     1
102
RTVSPost2010Prop45
280
     0
102
RTVSPost2010PropOp45
 70
     1
102
RTVSPost2010Prop46
 90
       50
102
RTVSPost2010PropOp46
 70
     1
102
RTVSPost2010Prop47
 90
       50
102
RTVSPost2010PropOp47
 70
     1
102
RTVSPost2010Prop48
 90
       50
102
RTVSPost2010PropOp48
 70
     1
102
RTVSPost2010Prop49
280
     0
102
RTVSPost2010PropOp49
 70
     1
102
RTVSPost2010Prop50
 90
       50
102
RTVSPost2010PropOp50
 70
     1
102
RTVSPost2010Prop51ColorIndex
 90
      256
102
RTVSPost2010Prop51ColorRGB
 90
-16777216
102
RTVSPost2010PropOp51
 70
     0
102
RTVSPost2010Prop52
140
1.0
102
RTVSPost2010PropOp52
 70
     0
102
RTVSPost2010Prop53
 90
        2
102
RTVSPost2010PropOp53
 70
     1
102
RTVSPost2010Prop54
  1
strokes_ogs.tif
102
RTVSPost2010PropOp54
 70
     1
102
RTVSPost2010Prop55
280
     0
102
RTVSPost2010PropOp55
 70
     1
102
RTVSPost2010Prop56
140
1.0
102
RTVSPost2010PropOp56
 70
     1
102
RTVSPost2010Prop57
140
1.0
102
RTVSPost2010PropOp57
 70
     1
  0
XRECORD
  5
748
102
{ACAD_REACTORS
330
747
102
}
330
747
100
AcDbXrecord
280
     1
102
RTVSPost2010Prop28
280
     0
102
RTVSPost2010PropOp28
 70
     1
102
RTVSPost2010Prop29
280
     1
102
RTVSPost2010PropOp29
 70
     1
102
RTVSPost2010Prop30
280
     1
102
RTVSPost2010PropOp30
 70
     1
102
RTVSPost2010Prop31
280
     0
102
RTVSPost2010PropOp31
 70
     1
102
RTVSPost2010Prop32
280
     0
102
RTVSPost2010PropOp32
 70
     1
102
RTVSPost2010Prop33
280
     0
102
RTVSPost2010PropOp33
 70
     1
102
RTVSPost2010Prop34
280
     0
102
RTVSPost2010PropOp34
 70
     1
102
RTVSPost2010Prop35
280
     0
102
RTVSPost2010PropOp35
 70
     1
102
RTVSPost2010Prop36
280
     0
102
RTVSPost2010PropOp36
 70
     1
102
RTVSPost2010Prop37
 90
       50
102
RTVSPost2010PropOp37
 70
     1
102
RTVSPost2010Prop38
140
0.0
102
RTVSPost2010PropOp38
 70
     1
102
RTVSPost2010Prop39
140
1.0
102
RTVSPost2010PropOp39
 70
     1
102
RTVSPost2010Prop40
 90
        0
102
RTVSPost2010PropOp40
 70
     1
102
RTVSPost2010Prop41ColorIndex
 90
       18
102
RTVSPost2010Prop41ColorRGB
 90
        0
102
RTVSPost2010PropOp41
 70
     1
102
RTVSPost2010Prop42
 90
       50
102
RTVSPost2010PropOp42
 70
     1
102
RTVSPost2010Prop43
 90
        3
102
RTVSPost2010PropOp43
 70
     1
102
RTVSPost2010Prop44ColorIndex
 90
        5
102
RTVSPost2010Prop44ColorRGB
 90
      255
102
RTVSPost2010PropOp44
 70
     1
102
RTVSPost2010Prop45
280
     0
102
RTVSPost2010PropOp45
 70
     1
102
RTVSPost2010Prop46
 90
       50
102
RTVSPost2010PropOp46
 70
     1
102
RTVSPost2010Prop47
 90
       50
102
RTVSPost2010PropOp47
 70
     1
102
RTVSPost2010Prop48
 90
       50
102
RTVSPost2010PropOp48
 70
     1
102
RTVSPost2010Prop49
280
     0
102
RTVSPost2010PropOp49
 70
     1
102
RTVSPost2010Prop50
 90
       50
102
RTVSPost2010PropOp50
 70
     1
102
RTVSPost2010Prop51ColorIndex
 90
      256
102
RTVSPost2010Prop51ColorRGB
 90
-16777216
102
RTVSPost2010PropOp51
 70
     0
102
RTVSPost2010Prop52
140
1.0
102
RTVSPost2010PropOp52
 70
     0
102
RTVSPost2010Prop53
 90
        2
102
RTVSPost2010PropOp53
 70
     1
102
RTVSPost2010Prop54
  1
strokes_ogs.tif
102
RTVSPost2010PropOp54
 70
     1
102
RTVSPost2010Prop55
280
     0
102
RTVSPost2010PropOp55
 70
     1
102
RTVSPost2010Prop56
140
1.0
102
RTVSPost2010PropOp56
 70
     1
102
RTVSPost2010Prop57
140
1.0
102
RTVSPost2010PropOp57
 70
     1
  0
XRECORD
  5
73C
102
{ACAD_REACTORS
330
73B
102
}
330
73B
100
AcDbXrecord
280
     1
102
RTVSPost2010Prop28
280
     0
102
RTVSPost2010PropOp28
 70
     1
102
RTVSPost2010Prop29
280
     1
102
RTVSPost2010PropOp29
 70
     1
102
RTVSPost2010Prop30
280
     1
102
RTVSPost2010PropOp30
 70
     1
102
RTVSPost2010Prop31
280
     0
102
RTVSPost2010PropOp31
 70
     1
102
RTVSPost2010Prop32
280
     0
102
RTVSPost2010PropOp32
 70
     1
102
RTVSPost2010Prop33
280
     0
102
RTVSPost2010PropOp33
 70
     1
102
RTVSPost2010Prop34
280
     0
102
RTVSPost2010PropOp34
 70
     1
102
RTVSPost2010Prop35
280
     0
102
RTVSPost2010PropOp35
 70
     1
102
RTVSPost2010Prop36
280
     0
102
RTVSPost2010PropOp36
 70
     1
102
RTVSPost2010Prop37
 90
       50
102
RTVSPost2010PropOp37
 70
     1
102
RTVSPost2010Prop38
140
0.0
102
RTVSPost2010PropOp38
 70
     1
102
RTVSPost2010Prop39
140
1.0
102
RTVSPost2010PropOp39
 70
     1
102
RTVSPost2010Prop40
 90
        0
102
RTVSPost2010PropOp40
 70
     1
102
RTVSPost2010Prop41ColorIndex
 90
       18
102
RTVSPost2010Prop41ColorRGB
 90
        0
102
RTVSPost2010PropOp41
 70
     1
102
RTVSPost2010Prop42
 90
       50
102
RTVSPost2010PropOp42
 70
     1
102
RTVSPost2010Prop43
 90
        3
102
RTVSPost2010PropOp43
 70
     1
102
RTVSPost2010Prop44ColorIndex
 90
        5
102
RTVSPost2010Prop44ColorRGB
 90
      255
102
RTVSPost2010PropOp44
 70
     1
102
RTVSPost2010Prop45
280
     0
102
RTVSPost2010PropOp45
 70
     1
102
RTVSPost2010Prop46
 90
       50
102
RTVSPost2010PropOp46
 70
     1
102
RTVSPost2010Prop47
 90
       50
102
RTVSPost2010PropOp47
 70
     1
102
RTVSPost2010Prop48
 90
       50
102
RTVSPost2010PropOp48
 70
     1
102
RTVSPost2010Prop49
280
     0
102
RTVSPost2010PropOp49
 70
     1
102
RTVSPost2010Prop50
 90
       50
102
RTVSPost2010PropOp50
 70
     1
102
RTVSPost2010Prop51ColorIndex
 90
      256
102
RTVSPost2010Prop51ColorRGB
 90
-16777216
102
RTVSPost2010PropOp51
 70
     0
102
RTVSPost2010Prop52
140
1.0
102
RTVSPost2010PropOp52
 70
     0
102
RTVSPost2010Prop53
 90
        2
102
RTVSPost2010PropOp53
 70
     1
102
RTVSPost2010Prop54
  1
strokes_ogs.tif
102
RTVSPost2010PropOp54
 70
     1
102
RTVSPost2010Prop55
280
     0
102
RTVSPost2010PropOp55
 70
     1
102
RTVSPost2010Prop56
140
1.0
102
RTVSPost2010PropOp56
 70
     1
102
RTVSPost2010Prop57
140
1.0
102
RTVSPost2010PropOp57
 70
     1
  0
XRECORD
  5
754
102
{ACAD_REACTORS
330
753
102
}
330
753
100
AcDbXrecord
280
     1
102
RTVSPost2010Prop28
280
     0
102
RTVSPost2010PropOp28
 70
     1
102
RTVSPost2010Prop29
280
     1
102
RTVSPost2010PropOp29
 70
     1
102
RTVSPost2010Prop30
280
     1
102
RTVSPost2010PropOp30
 70
     1
102
RTVSPost2010Prop31
280
     0
102
RTVSPost2010PropOp31
 70
     1
102
RTVSPost2010Prop32
280
     0
102
RTVSPost2010PropOp32
 70
     1
102
RTVSPost2010Prop33
280
     0
102
RTVSPost2010PropOp33
 70
     1
102
RTVSPost2010Prop34
280
     0
102
RTVSPost2010PropOp34
 70
     1
102
RTVSPost2010Prop35
280
     0
102
RTVSPost2010PropOp35
 70
     1
102
RTVSPost2010Prop36
280
     0
102
RTVSPost2010PropOp36
 70
     1
102
RTVSPost2010Prop37
 90
       50
102
RTVSPost2010PropOp37
 70
     1
102
RTVSPost2010Prop38
140
0.0
102
RTVSPost2010PropOp38
 70
     1
102
RTVSPost2010Prop39
140
1.0
102
RTVSPost2010PropOp39
 70
     1
102
RTVSPost2010Prop40
 90
        0
102
RTVSPost2010PropOp40
 70
     1
102
RTVSPost2010Prop41ColorIndex
 90
       18
102
RTVSPost2010Prop41ColorRGB
 90
        0
102
RTVSPost2010PropOp41
 70
     1
102
RTVSPost2010Prop42
 90
       50
102
RTVSPost2010PropOp42
 70
     1
102
RTVSPost2010Prop43
 90
        3
102
RTVSPost2010PropOp43
 70
     1
102
RTVSPost2010Prop44ColorIndex
 90
        5
102
RTVSPost2010Prop44ColorRGB
 90
      255
102
RTVSPost2010PropOp44
 70
     1
102
RTVSPost2010Prop45
280
     0
102
RTVSPost2010PropOp45
 70
     1
102
RTVSPost2010Prop46
 90
       50
102
RTVSPost2010PropOp46
 70
     1
102
RTVSPost2010Prop47
 90
       50
102
RTVSPost2010PropOp47
 70
     1
102
RTVSPost2010Prop48
 90
       50
102
RTVSPost2010PropOp48
 70
     1
102
RTVSPost2010Prop49
280
     0
102
RTVSPost2010PropOp49
 70
     1
102
RTVSPost2010Prop50
 90
       50
102
RTVSPost2010PropOp50
 70
     1
102
RTVSPost2010Prop51ColorIndex
 90
      256
102
RTVSPost2010Prop51ColorRGB
 90
-16777216
102
RTVSPost2010PropOp51
 70
     0
102
RTVSPost2010Prop52
140
1.0
102
RTVSPost2010PropOp52
 70
     0
102
RTVSPost2010Prop53
 90
        2
102
RTVSPost2010PropOp53
 70
     1
102
RTVSPost2010Prop54
  1
strokes_ogs.tif
102
RTVSPost2010PropOp54
 70
     1
102
RTVSPost2010Prop55
280
     0
102
RTVSPost2010PropOp55
 70
     1
102
RTVSPost2010Prop56
140
1.0
102
RTVSPost2010PropOp56
 70
     1
102
RTVSPost2010Prop57
140
1.0
102
RTVSPost2010PropOp57
 70
     1
  0
ENDSEC
  0
EOF
