  0
SECTION
  2
HEADER
  9
$ACADVER
  1
AC1024
  9
$ACADMAINTVER
 70
   205
  9
$DWGCODEPAGE
  3
ANSI_1252
  9
$LASTSAVEDBY
  1
kaschu
  9
$INSBASE
 10
0.0
 20
0.0
 30
0.0
  9
$EXTMIN
 10
25.80340488593356
 20
-153.6646304992414
 30
-0.0000000000011797
  9
$EXTMAX
 10
1773.214642119929
 20
806.7044384994085
 30
0.0000000000023057
  9
$LIMMIN
 10
0.0
 20
0.0
  9
$LIMMAX
 10
12.0
 20
9.0
  9
$ORTHOMODE
 70
     1
  9
$REGENMODE
 70
     1
  9
$FILLMODE
 70
     1
  9
$QTEXTMODE
 70
     0
  9
$MIRRTEXT
 70
     1
  9
$LTSCALE
 40
1.0
  9
$ATTMODE
 70
     1
  9
$TEXTSIZE
 40
0.2
  9
$TRACEWID
 40
0.05
  9
$TEXTSTYLE
  7
STANDARD
  9
$CLAYER
  8
0
  9
$CELTYPE
  6
BYLAYER
  9
$CECOLOR
 62
   256
  9
$CELTSCALE
 40
1.0
  9
$DISPSILH
 70
     0
  9
$DIMSCALE
 40
1.0
  9
$DIMASZ
 40
0.18
  9
$DIMEXO
 40
0.0625
  9
$DIMDLI
 40
0.38
  9
$DIMRND
 40
0.0
  9
$DIMDLE
 40
0.0
  9
$DIMEXE
 40
0.18
  9
$DIMTP
 40
0.0
  9
$DIMTM
 40
0.0
  9
$DIMTXT
 40
0.18
  9
$DIMCEN
 40
0.09
  9
$DIMTSZ
 40
0.0
  9
$DIMTOL
 70
     0
  9
$DIMLIM
 70
     0
  9
$DIMTIH
 70
     1
  9
$DIMTOH
 70
     1
  9
$DIMSE1
 70
     0
  9
$DIMSE2
 70
     0
  9
$DIMTAD
 70
     0
  9
$DIMZIN
 70
     0
  9
$DIMBLK
  1

  9
$DIMASO
 70
     1
  9
$DIMSHO
 70
     1
  9
$DIMPOST
  1

  9
$DIMAPOST
  1

  9
$DIMALT
 70
     0
  9
$DIMALTD
 70
     2
  9
$DIMALTF
 40
25.4
  9
$DIMLFAC
 40
1.0
  9
$DIMTOFL
 70
     0
  9
$DIMTVP
 40
0.0
  9
$DIMTIX
 70
     0
  9
$DIMSOXD
 70
     0
  9
$DIMSAH
 70
     0
  9
$DIMBLK1
  1

  9
$DIMBLK2
  1

  9
$DIMSTYLE
  2
STANDARD
  9
$DIMCLRD
 70
     0
  9
$DIMCLRE
 70
     0
  9
$DIMCLRT
 70
     0
  9
$DIMTFAC
 40
1.0
  9
$DIMGAP
 40
0.09
  9
$DIMJUST
 70
     0
  9
$DIMSD1
 70
     0
  9
$DIMSD2
 70
     0
  9
$DIMTOLJ
 70
     1
  9
$DIMTZIN
 70
     0
  9
$DIMALTZ
 70
     0
  9
$DIMALTTZ
 70
     0
  9
$DIMUPT
 70
     0
  9
$DIMDEC
 70
     4
  9
$DIMTDEC
 70
     4
  9
$DIMALTU
 70
     2
  9
$DIMALTTD
 70
     2
  9
$DIMTXSTY
  7
STANDARD
  9
$DIMAUNIT
 70
     0
  9
$DIMADEC
 70
     0
  9
$DIMALTRND
 40
0.0
  9
$DIMAZIN
 70
     0
  9
$DIMDSEP
 70
    46
  9
$DIMATFIT
 70
     3
  9
$DIMFRAC
 70
     0
  9
$DIMLDRBLK
  1

  9
$DIMLUNIT
 70
     2
  9
$DIMLWD
 70
    -2
  9
$DIMLWE
 70
    -2
  9
$DIMTMOVE
 70
     0
  9
$DIMFXL
 40
1.0
  9
$DIMFXLON
 70
     0
  9
$DIMJOGANG
 40
1.570796326794896
  9
$DIMTFILL
 70
     0
  9
$DIMTFILLCLR
 70
     0
  9
$DIMARCSYM
 70
     0
  9
$DIMLTYPE
  6

  9
$DIMLTEX1
  6

  9
$DIMLTEX2
  6

  9
$DIMTXTDIRECTION
 70
     0
  9
$LUNITS
 70
     2
  9
$LUPREC
 70
     4
  9
$SKETCHINC
 40
0.1
  9
$FILLETRAD
 40
0.5
  9
$AUNITS
 70
     0
  9
$AUPREC
 70
     0
  9
$MENU
  1
.
  9
$ELEVATION
 40
0.0
  9
$PELEVATION
 40
0.0
  9
$THICKNESS
 40
0.0
  9
$LIMCHECK
 70
     0
  9
$CHAMFERA
 40
0.5
  9
$CHAMFERB
 40
0.5
  9
$CHAMFERC
 40
1.0
  9
$CHAMFERD
 40
0.0
  9
$SKPOLY
 70
     0
  9
$TDCREATE
 40
2451762.468371991
  9
$TDUCREATE
 40
2451762.426705324
  9
$TDUPDATE
 40
2458928.652952072
  9
$TDUUPDATE
 40
2458928.611285406
  9
$TDINDWG
 40
0.1012830440
  9
$TDUSRTIMER
 40
0.1012707176
  9
$USRTIMER
 70
     1
  9
$ANGBASE
 50
0.0
  9
$ANGDIR
 70
     0
  9
$PDMODE
 70
     0
  9
$PDSIZE
 40
0.0
  9
$PLINEWID
 40
0.0
  9
$SPLFRAME
 70
     0
  9
$SPLINETYPE
 70
     6
  9
$SPLINESEGS
 70
     8
  9
$HANDSEED
  5
2F4C
  9
$SURFTAB1
 70
     6
  9
$SURFTAB2
 70
     6
  9
$SURFTYPE
 70
     6
  9
$SURFU
 70
     6
  9
$SURFV
 70
     6
  9
$UCSBASE
  2

  9
$UCSNAME
  2

  9
$UCSORG
 10
0.0
 20
0.0
 30
0.0
  9
$UCSXDIR
 10
1.0
 20
0.0
 30
0.0
  9
$UCSYDIR
 10
0.0
 20
1.0
 30
0.0
  9
$UCSORTHOREF
  2

  9
$UCSORTHOVIEW
 70
     0
  9
$UCSORGTOP
 10
0.0
 20
0.0
 30
0.0
  9
$UCSORGBOTTOM
 10
0.0
 20
0.0
 30
0.0
  9
$UCSORGLEFT
 10
0.0
 20
0.0
 30
0.0
  9
$UCSORGRIGHT
 10
0.0
 20
0.0
 30
0.0
  9
$UCSORGFRONT
 10
0.0
 20
0.0
 30
0.0
  9
$UCSORGBACK
 10
0.0
 20
0.0
 30
0.0
  9
$PUCSBASE
  2

  9
$PUCSNAME
  2

  9
$PUCSORG
 10
0.0
 20
0.0
 30
0.0
  9
$PUCSXDIR
 10
1.0
 20
0.0
 30
0.0
  9
$PUCSYDIR
 10
0.0
 20
1.0
 30
0.0
  9
$PUCSORTHOREF
  2

  9
$PUCSORTHOVIEW
 70
     0
  9
$PUCSORGTOP
 10
0.0
 20
0.0
 30
0.0
  9
$PUCSORGBOTTOM
 10
0.0
 20
0.0
 30
0.0
  9
$PUCSORGLEFT
 10
0.0
 20
0.0
 30
0.0
  9
$PUCSORGRIGHT
 10
0.0
 20
0.0
 30
0.0
  9
$PUCSORGFRONT
 10
0.0
 20
0.0
 30
0.0
  9
$PUCSORGBACK
 10
0.0
 20
0.0
 30
0.0
  9
$USERI1
 70
     0
  9
$USERI2
 70
     0
  9
$USERI3
 70
     0
  9
$USERI4
 70
     0
  9
$USERI5
 70
     0
  9
$USERR1
 40
0.0
  9
$USERR2
 40
0.0
  9
$USERR3
 40
0.0
  9
$USERR4
 40
0.0
  9
$USERR5
 40
0.0
  9
$WORLDVIEW
 70
     1
  9
$SHADEDGE
 70
     3
  9
$SHADEDIF
 70
    70
  9
$TILEMODE
 70
     1
  9
$MAXACTVP
 70
    64
  9
$PINSBASE
 10
0.0
 20
0.0
 30
0.0
  9
$PLIMCHECK
 70
     0
  9
$PEXTMIN
 10
1.000000000000000E+20
 20
1.000000000000000E+20
 30
1.000000000000000E+20
  9
$PEXTMAX
 10
-1.000000000000000E+20
 20
-1.000000000000000E+20
 30
-1.000000000000000E+20
  9
$PLIMMIN
 10
0.0
 20
0.0
  9
$PLIMMAX
 10
12.0
 20
9.0
  9
$UNITMODE
 70
     0
  9
$VISRETAIN
 70
     1
  9
$PLINEGEN
 70
     0
  9
$PSLTSCALE
 70
     1
  9
$TREEDEPTH
 70
  3020
  9
$CMLSTYLE
  2
STANDARD
  9
$CMLJUST
 70
     0
  9
$CMLSCALE
 40
1.0
  9
$PROXYGRAPHICS
 70
     1
  9
$MEASUREMENT
 70
     0
  9
$CELWEIGHT
370
    -1
  9
$ENDCAPS
280
     0
  9
$JOINSTYLE
280
     0
  9
$LWDISPLAY
290
     0
  9
$INSUNITS
 70
     0
  9
$HYPERLINKBASE
  1

  9
$STYLESHEET
  1

  9
$XEDIT
290
     1
  9
$CEPSNTYPE
380
     0
  9
$PSTYLEMODE
290
     1
  9
$FINGERPRINTGUID
  2
{07D082D4-8E9D-48F0-9949-F8C76B91C45A}
  9
$VERSIONGUID
  2
{58AB87A9-6911-4AD8-914F-E7ED6887EEFB}
  9
$EXTNAMES
290
     1
  9
$PSVPSCALE
 40
0.0
  9
$OLESTARTUP
290
     0
  9
$SORTENTS
280
   127
  9
$INDEXCTL
280
     0
  9
$HIDETEXT
280
     0
  9
$XCLIPFRAME
280
     2
  9
$HALOGAP
280
     0
  9
$OBSCOLOR
 70
   257
  9
$OBSLTYPE
280
     0
  9
$INTERSECTIONDISPLAY
280
     0
  9
$INTERSECTIONCOLOR
 70
   257
  9
$DIMASSOC
280
     1
  9
$PROJECTNAME
  1

  9
$CAMERADISPLAY
290
     0
  9
$LENSLENGTH
 40
50.0
  9
$CAMERAHEIGHT
 40
0.0
  9
$STEPSPERSEC
 40
2.0
  9
$STEPSIZE
 40
6.0
  9
$3DDWFPREC
 40
2.0
  9
$PSOLWIDTH
 40
0.25
  9
$PSOLHEIGHT
 40
4.0
  9
$LOFTANG1
 40
1.570796326794896
  9
$LOFTANG2
 40
1.570796326794896
  9
$LOFTMAG1
 40
0.0
  9
$LOFTMAG2
 40
0.0
  9
$LOFTPARAM
 70
     7
  9
$LOFTNORMALS
280
     1
  9
$LATITUDE
 40
37.795
  9
$LONGITUDE
 40
-122.394
  9
$NORTHDIRECTION
 40
0.0
  9
$TIMEZONE
 70
 -8000
  9
$LIGHTGLYPHDISPLAY
280
     1
  9
$TILEMODELIGHTSYNCH
280
     1
  9
$CMATERIAL
347
1D7
  9
$SOLIDHIST
280
     0
  9
$SHOWHIST
280
     1
  9
$DWFFRAME
280
     2
  9
$DGNFRAME
280
     0
  9
$REALWORLDSCALE
290
     1
  9
$INTERFERECOLOR
 62
     1
  9
$INTERFEREOBJVS
345
1E4
  9
$INTERFEREVPVS
346
5CB
  9
$CSHADOW
280
     0
  9
$SHADOWPLANELOCATION
 40
0.0
  0
ENDSEC
  0
SECTION
  2
CLASSES
  0
CLASS
  1
ACDBDICTIONARYWDFLT
  2
AcDbDictionaryWithDefault
  3
ObjectDBX Classes
 90
        0
 91
        1
280
     0
281
     0
  0
CLASS
  1
MATERIAL
  2
AcDbMaterial
  3
ObjectDBX Classes
 90
     1153
 91
        3
280
     0
281
     0
  0
CLASS
  1
VISUALSTYLE
  2
AcDbVisualStyle
  3
ObjectDBX Classes
 90
     4095
 91
       26
280
     0
281
     0
  0
CLASS
  1
TABLESTYLE
  2
AcDbTableStyle
  3
ObjectDBX Classes
 90
     4095
 91
        1
280
     0
281
     0
  0
CLASS
  1
DICTIONARYVAR
  2
AcDbDictionaryVar
  3
ObjectDBX Classes
 90
        0
 91
       12
280
     0
281
     0
  0
CLASS
  1
SORTENTSTABLE
  2
AcDbSortentsTable
  3
ObjectDBX Classes
 90
        0
 91
        1
280
     0
281
     0
  0
CLASS
  1
SCALE
  2
AcDbScale
  3
ObjectDBX Classes
 90
     1153
 91
       17
280
     0
281
     0
  0
CLASS
  1
MLEADERSTYLE
  2
AcDbMLeaderStyle
  3
ACDB_MLEADERSTYLE_CLASS
 90
     4095
 91
        1
280
     0
281
     0
  0
CLASS
  1
ACDBSECTIONVIEWSTYLE
  2
AcDbSectionViewStyle
  3
ObjectDBX Classes
 90
     1025
 91
        2
280
     0
281
     0
  0
CLASS
  1
ACDBDETAILVIEWSTYLE
  2
AcDbDetailViewStyle
  3
ObjectDBX Classes
 90
     1025
 91
        2
280
     0
281
     0
  0
CLASS
  1
CELLSTYLEMAP
  2
AcDbCellStyleMap
  3
ObjectDBX Classes
 90
     1152
 91
        6
280
     0
281
     0
  0
ENDSEC
  0
SECTION
  2
TABLES
  0
TABLE
  2
VPORT
  5
8
330
0
100
AcDbSymbolTable
 70
     1
  0
VPORT
  5
1B1
330
8
100
AcDbSymbolTableRecord
100
AcDbViewportTableRecord
  2
*ACTIVE
 70
     0
 10
0.0
 20
0.0
 11
1.0
 21
1.0
 12
788.1541927108985
 22
443.9334077832393
 13
0.0
 23
0.0
 14
0.5
 24
0.5
 15
0.5
 25
0.5
 16
0.0
 26
0.0
 36
1.0
 17
0.0
 27
0.0
 37
0.0
 40
1157.987106400444
 41
2.271978021978021
 42
50.0
 43
0.0
 44
0.0
 50
0.0
 51
0.0
 71
     0
 72
   100
 73
     1
 74
     3
 75
     0
 76
     0
 77
     0
 78
     0
281
     0
 65
     1
110
0.0
120
0.0
130
0.0
111
1.0
121
0.0
131
0.0
112
0.0
122
1.0
132
0.0
 79
     0
146
0.0
348
1E0
 60
     3
 61
     5
292
     1
282
     1
141
0.0
142
0.0
 63
   250
421
  3355443
1001
ACAD_NAV_VCDISPLAY
1070
     3
  0
ENDTAB
  0
TABLE
  2
LTYPE
  5
5
330
0
100
AcDbSymbolTable
 70
     4
  0
LTYPE
  5
14
330
5
100
AcDbSymbolTableRecord
100
AcDbLinetypeTableRecord
  2
BYBLOCK
 70
     0
  3

 72
    65
 73
     0
 40
0.0
  0
LTYPE
  5
15
330
5
100
AcDbSymbolTableRecord
100
AcDbLinetypeTableRecord
  2
BYLAYER
 70
     0
  3

 72
    65
 73
     0
 40
0.0
  0
LTYPE
  5
16
330
5
100
AcDbSymbolTableRecord
100
AcDbLinetypeTableRecord
  2
CONTINUOUS
 70
     0
  3
Solid line
 72
    65
 73
     0
 40
0.0
  0
LTYPE
  5
3DA
330
5
100
AcDbSymbolTableRecord
100
AcDbLinetypeTableRecord
  2
IMPORT
 70
     0
  3

 72
    65
 73
     0
 40
0.0
  0
LTYPE
  5
4D5
330
5
100
AcDbSymbolTableRecord
100
AcDbLinetypeTableRecord
  2
VERDECKT
 70
     0
  3
__ __ __ __ __ __ __ __ __ __ __ __ __ __ __ __
 72
    65
 73
     2
 40
0.375
 49
0.25
 74
     0
 49
-0.125
 74
     0
  0
ENDTAB
  0
TABLE
  2
LAYER
  5
2
102
{ACAD_XDICTIONARY
360
3E4
102
}
330
0
100
AcDbSymbolTable
 70
     6
  0
LAYER
  5
10
102
{ACAD_XDICTIONARY
360
624
102
}
330
2
100
AcDbSymbolTableRecord
100
AcDbLayerTableRecord
  2
0
 70
     0
 62
     7
  6
CONTINUOUS
370
    -3
390
10E
347
1D9
  0
LAYER
  5
2DC
330
2
100
AcDbSymbolTableRecord
100
AcDbLayerTableRecord
  2
Defpoints
 70
     0
 62
     7
  6
CONTINUOUS
290
     0
370
    -3
390
10E
347
1D9
  0
LAYER
  5
3DD
102
{ACAD_XDICTIONARY
360
626
102
}
330
2
100
AcDbSymbolTableRecord
100
AcDbLayerTableRecord
  2
STANDARD
 70
     0
 62
     7
  6
CONTINUOUS
370
    -3
390
10E
347
1D9
  0
LAYER
  5
4D6
102
{ACAD_XDICTIONARY
360
628
102
}
330
2
100
AcDbSymbolTableRecord
100
AcDbLayerTableRecord
  2
VD
 70
     0
 62
     4
  6
VERDECKT
370
    -3
390
10E
347
1D9
  0
LAYER
  5
4D7
102
{ACAD_XDICTIONARY
360
62A
102
}
330
2
100
AcDbSymbolTableRecord
100
AcDbLayerTableRecord
  2
HEWI
 70
     0
 62
     7
  6
CONTINUOUS
370
    -3
390
10E
347
1D9
  0
LAYER
  5
675
330
2
100
AcDbSymbolTableRecord
100
AcDbLayerTableRecord
  2
1
 70
     0
 62
     7
420
 16777215
  6
CONTINUOUS
370
    -3
390
10E
347
1D9
  0
ENDTAB
  0
TABLE
  2
STYLE
  5
3
330
0
100
AcDbSymbolTable
 70
     2
  0
STYLE
  5
11
330
3
100
AcDbSymbolTableRecord
100
AcDbTextStyleTableRecord
  2
STANDARD
 70
     0
 40
0.0
 41
1.0
 50
0.0
 71
     0
 42
0.2
  3
txt
  4

  0
STYLE
  5
3DE
330
3
100
AcDbSymbolTableRecord
100
AcDbTextStyleTableRecord
  2
Entro
 70
     0
 40
0.0
 41
1.0
 50
0.0
 71
     0
 42
3.0
  3
isocpeur.ttf
  4

1001
ACAD
1000
ISOCPEUR
1071
       34
  0
ENDTAB
  0
TABLE
  2
VIEW
  5
6
330
0
100
AcDbSymbolTable
 70
     1
  0
ENDTAB
  0
TABLE
  2
UCS
  5
7
330
0
100
AcDbSymbolTable
 70
     0
  0
ENDTAB
  0
TABLE
  2
APPID
  5
9
330
0
100
AcDbSymbolTable
 70
     6
  0
APPID
  5
12
330
9
100
AcDbSymbolTableRecord
100
AcDbRegAppTableRecord
  2
ACAD
 70
     0
  0
APPID
  5
3E2
330
9
100
AcDbSymbolTableRecord
100
AcDbRegAppTableRecord
  2
ACAD_PSEXT
 70
     0
  0
APPID
  5
3E3
330
9
100
AcDbSymbolTableRecord
100
AcDbRegAppTableRecord
  2
ACAD_DSTYLE_DIMJOGGED_JOGANGLE_SYMBOL
 70
     0
  0
APPID
  5
5B6
330
9
100
AcDbSymbolTableRecord
100
AcDbRegAppTableRecord
  2
ACAD_EXEMPT_FROM_CAD_STANDARDS
 70
     0
  0
APPID
  5
616
330
9
100
AcDbSymbolTableRecord
100
AcDbRegAppTableRecord
  2
ACAD_NAV_VCDISPLAY
 70
     0
  0
APPID
  5
1626
330
9
100
AcDbSymbolTableRecord
100
AcDbRegAppTableRecord
  2
ACAD_DSTYLE_DIMRADIAL_EXTENSION
 70
     0
  0
ENDTAB
  0
TABLE
  2
DIMSTYLE
  5
A
330
0
100
AcDbSymbolTable
 70
     4
100
AcDbDimStyleTable
 71
     2
340
27
340
3DF
  0
DIMSTYLE
105
27
330
A
100
AcDbSymbolTableRecord
100
AcDbDimStyleTableRecord
  2
STANDARD
 70
     0
340
11
  0
DIMSTYLE
105
3DF
330
A
100
AcDbSymbolTableRecord
100
AcDbDimStyleTableRecord
  2
AM_DIN
 70
     0
  4
"
 41
2.5
 42
1.0
 43
10.0
 44
1.0
 47
0.1
 48
0.1
 50
89.99999999999998
 73
     0
 74
     0
 77
     1
 78
     8
 79
     2
140
3.5
141
0.0
143
0.0393701
146
0.71
147
1.5
172
     1
176
   256
177
   256
178
     2
271
     2
272
     3
274
     4
283
     0
284
     8
340
11
371
    -1
372
    -1
1001
ACAD_DSTYLE_DIMJOGGED_JOGANGLE_SYMBOL
1070
   384
1040
1.570796326794896
  0
DIMSTYLE
105
3E1
330
A
100
AcDbSymbolTableRecord
100
AcDbDimStyleTableRecord
  2
AM_DIN$0
 70
     0
  4
"
 41
25.0
 42
1.0
 43
10.0
 44
10.0
 47
0.1
 48
0.1
 50
89.99999999999998
 73
     0
 74
     0
 77
     1
 78
     8
 79
     2
140
25.0
141
0.0
143
0.0393701
146
0.71
147
10.0
172
     1
176
   256
177
   256
178
   256
271
     2
272
     2
283
     0
284
     8
340
3DE
371
    -1
372
    -1
1001
ACAD_DSTYLE_DIMJOGGED_JOGANGLE_SYMBOL
1070
   384
1040
1.570796326794896
  0
ENDTAB
  0
TABLE
  2
BLOCK_RECORD
  5
1
330
0
100
AcDbSymbolTable
 70
    42
  0
BLOCK_RECORD
  5
1F
102
{ACAD_XDICTIONARY
360
107
102
}
330
1
100
AcDbSymbolTableRecord
100
AcDbBlockTableRecord
  2
*MODEL_SPACE
340
1EF
 70
     0
280
     1
281
     0
  0
BLOCK_RECORD
  5
1B
102
{ACAD_XDICTIONARY
360
105
102
}
330
1
100
AcDbSymbolTableRecord
100
AcDbBlockTableRecord
  2
*PAPER_SPACE
340
1F0
 70
     0
280
     1
281
     0
  0
BLOCK_RECORD
  5
4C0
330
1
100
AcDbSymbolTableRecord
100
AcDbBlockTableRecord
  2
*D0
340
0
 70
     0
280
     1
281
     0
  0
BLOCK_RECORD
  5
4E6
330
1
100
AcDbSymbolTableRecord
100
AcDbBlockTableRecord
  2
*D1
340
0
 70
     0
280
     1
281
     0
  0
BLOCK_RECORD
  5
5A7
330
1
100
AcDbSymbolTableRecord
100
AcDbBlockTableRecord
  2
*D2
340
0
 70
     0
280
     1
281
     0
  0
BLOCK_RECORD
  5
D57
330
1
100
AcDbSymbolTableRecord
100
AcDbBlockTableRecord
  2
*D3
340
0
 70
     0
280
     1
281
     0
  0
BLOCK_RECORD
  5
D66
330
1
100
AcDbSymbolTableRecord
100
AcDbBlockTableRecord
  2
*D4
340
0
 70
     0
280
     1
281
     0
  0
BLOCK_RECORD
  5
D7C
330
1
100
AcDbSymbolTableRecord
100
AcDbBlockTableRecord
  2
*D5
340
0
 70
     0
280
     1
281
     0
  0
BLOCK_RECORD
  5
D8A
330
1
100
AcDbSymbolTableRecord
100
AcDbBlockTableRecord
  2
*D6
340
0
 70
     0
280
     1
281
     0
  0
BLOCK_RECORD
  5
D99
330
1
100
AcDbSymbolTableRecord
100
AcDbBlockTableRecord
  2
*D7
340
0
 70
     0
280
     1
281
     0
  0
BLOCK_RECORD
  5
1531
330
1
100
AcDbSymbolTableRecord
100
AcDbBlockTableRecord
  2
*D8
340
0
 70
     0
280
     1
281
     0
  0
BLOCK_RECORD
  5
153F
330
1
100
AcDbSymbolTableRecord
100
AcDbBlockTableRecord
  2
*D9
340
0
 70
     0
280
     1
281
     0
  0
BLOCK_RECORD
  5
15E1
330
1
100
AcDbSymbolTableRecord
100
AcDbBlockTableRecord
  2
*D10
340
0
 70
     0
280
     1
281
     0
  0
BLOCK_RECORD
  5
15EF
330
1
100
AcDbSymbolTableRecord
100
AcDbBlockTableRecord
  2
*D11
340
0
 70
     0
280
     1
281
     0
  0
BLOCK_RECORD
  5
1628
330
1
100
AcDbSymbolTableRecord
100
AcDbBlockTableRecord
  2
*D12
340
0
 70
     0
280
     1
281
     0
  0
BLOCK_RECORD
  5
1635
330
1
100
AcDbSymbolTableRecord
100
AcDbBlockTableRecord
  2
*D13
340
0
 70
     0
280
     1
281
     0
  0
BLOCK_RECORD
  5
1A4B
330
1
100
AcDbSymbolTableRecord
100
AcDbBlockTableRecord
  2
*D14
340
0
 70
     0
280
     1
281
     0
  0
BLOCK_RECORD
  5
1A59
330
1
100
AcDbSymbolTableRecord
100
AcDbBlockTableRecord
  2
*D15
340
0
 70
     0
280
     1
281
     0
  0
BLOCK_RECORD
  5
1A68
330
1
100
AcDbSymbolTableRecord
100
AcDbBlockTableRecord
  2
*D16
340
0
 70
     0
280
     1
281
     0
  0
BLOCK_RECORD
  5
208D
330
1
100
AcDbSymbolTableRecord
100
AcDbBlockTableRecord
  2
*D18
340
0
 70
     0
280
     1
281
     0
  0
BLOCK_RECORD
  5
209B
330
1
100
AcDbSymbolTableRecord
100
AcDbBlockTableRecord
  2
*D19
340
0
 70
     0
280
     1
281
     0
  0
BLOCK_RECORD
  5
20BC
330
1
100
AcDbSymbolTableRecord
100
AcDbBlockTableRecord
  2
*D21
340
0
 70
     0
280
     1
281
     0
  0
BLOCK_RECORD
  5
20F3
330
1
100
AcDbSymbolTableRecord
100
AcDbBlockTableRecord
  2
*D22
340
0
 70
     0
280
     1
281
     0
  0
BLOCK_RECORD
  5
212B
330
1
100
AcDbSymbolTableRecord
100
AcDbBlockTableRecord
  2
*D23
340
0
 70
     0
280
     1
281
     0
  0
BLOCK_RECORD
  5
2139
330
1
100
AcDbSymbolTableRecord
100
AcDbBlockTableRecord
  2
*D24
340
0
 70
     0
280
     1
281
     0
  0
BLOCK_RECORD
  5
2148
330
1
100
AcDbSymbolTableRecord
100
AcDbBlockTableRecord
  2
*D25
340
0
 70
     0
280
     1
281
     0
  0
BLOCK_RECORD
  5
27E8
330
1
100
AcDbSymbolTableRecord
100
AcDbBlockTableRecord
  2
*D27
340
0
 70
     0
280
     1
281
     0
  0
BLOCK_RECORD
  5
27F7
330
1
100
AcDbSymbolTableRecord
100
AcDbBlockTableRecord
  2
*D28
340
0
 70
     0
280
     1
281
     0
  0
BLOCK_RECORD
  5
2806
330
1
100
AcDbSymbolTableRecord
100
AcDbBlockTableRecord
  2
*D29
340
0
 70
     0
280
     1
281
     0
  0
BLOCK_RECORD
  5
2817
330
1
100
AcDbSymbolTableRecord
100
AcDbBlockTableRecord
  2
*D30
340
0
 70
     0
280
     1
281
     0
  0
BLOCK_RECORD
  5
2825
330
1
100
AcDbSymbolTableRecord
100
AcDbBlockTableRecord
  2
*D31
340
0
 70
     0
280
     1
281
     0
  0
BLOCK_RECORD
  5
2875
330
1
100
AcDbSymbolTableRecord
100
AcDbBlockTableRecord
  2
*D32
340
0
 70
     0
280
     1
281
     0
  0
BLOCK_RECORD
  5
28BF
330
1
100
AcDbSymbolTableRecord
100
AcDbBlockTableRecord
  2
*D33
340
0
 70
     0
280
     1
281
     0
  0
BLOCK_RECORD
  5
28CD
330
1
100
AcDbSymbolTableRecord
100
AcDbBlockTableRecord
  2
*D34
340
0
 70
     0
280
     1
281
     0
  0
BLOCK_RECORD
  5
28F1
330
1
100
AcDbSymbolTableRecord
100
AcDbBlockTableRecord
  2
*D35
340
0
 70
     0
280
     1
281
     0
  0
BLOCK_RECORD
  5
28FF
330
1
100
AcDbSymbolTableRecord
100
AcDbBlockTableRecord
  2
*D36
340
0
 70
     0
280
     1
281
     0
  0
BLOCK_RECORD
  5
2E8B
330
1
100
AcDbSymbolTableRecord
100
AcDbBlockTableRecord
  2
*D38
340
0
 70
     0
280
     1
281
     0
  0
BLOCK_RECORD
  5
2E99
330
1
100
AcDbSymbolTableRecord
100
AcDbBlockTableRecord
  2
*D39
340
0
 70
     0
280
     1
281
     0
  0
BLOCK_RECORD
  5
2EE7
330
1
100
AcDbSymbolTableRecord
100
AcDbBlockTableRecord
  2
*D40
340
0
 70
     0
280
     1
281
     0
  0
BLOCK_RECORD
  5
2EF5
330
1
100
AcDbSymbolTableRecord
100
AcDbBlockTableRecord
  2
*D41
340
0
 70
     0
280
     1
281
     0
  0
ENDTAB
  0
ENDSEC
  0
SECTION
  2
BLOCKS
  0
BLOCK
  5
20
330
1F
100
AcDbEntity
  8
0
100
AcDbBlockBegin
  2
*MODEL_SPACE
 70
     0
 10
0.0
 20
0.0
 30
0.0
  3
*MODEL_SPACE
  1

  0
ENDBLK
  5
21
330
1F
100
AcDbEntity
  8
0
100
AcDbBlockEnd
  0
BLOCK
  5
1C
330
1B
100
AcDbEntity
 67
     1
  8
0
100
AcDbBlockBegin
  2
*PAPER_SPACE
 70
     0
 10
0.0
 20
0.0
 30
0.0
  3
*PAPER_SPACE
  1

  0
ENDBLK
  5
1D
330
1B
100
AcDbEntity
 67
     1
  8
0
100
AcDbBlockEnd
  0
BLOCK
  5
4CA
330
4C0
100
AcDbEntity
  8
0
100
AcDbBlockBegin
  2
*D0
 70
     1
 10
0.0
 20
0.0
 30
0.0
  3
*D0
  1

  0
LINE
  5
600
330
4C0
100
AcDbEntity
  8
0
440
 16777216
100
AcDbLine
 10
638.7173827835728
 20
1048.40919819918
 30
0.0
 11
527.8929333861474
 21
1048.40919819918
 31
0.0
  0
LINE
  5
601
330
4C0
100
AcDbEntity
  8
0
440
 16777216
100
AcDbLine
 10
612.600559225214
 20
1184.909198199115
 30
0.0
 11
527.8929333861474
 21
1184.909198199115
 31
0.0
  0
LINE
  5
602
330
4C0
100
AcDbEntity
  8
0
440
 16777216
100
AcDbLine
 10
537.8929333861474
 20
1073.40919819918
 30
0.0
 11
537.8929333861474
 21
1159.909198199115
 31
0.0
  0
SOLID
  5
603
330
4C0
100
AcDbEntity
  8
0
440
 16777216
100
AcDbTrace
 10
533.7262667194806
 20
1073.40919819918
 30
0.0
 11
542.059600052814
 21
1073.40919819918
 31
0.0
 12
537.8929333861474
 22
1048.40919819918
 32
0.0
 13
537.8929333861474
 23
1048.40919819918
 33
0.0
  0
SOLID
  5
604
330
4C0
100
AcDbEntity
  8
0
440
 16777216
100
AcDbTrace
 10
533.7262667194806
 20
1159.909198199115
 30
0.0
 11
542.059600052814
 21
1159.909198199115
 31
0.0
 12
537.8929333861474
 22
1184.909198199115
 32
0.0
 13
537.8929333861474
 23
1184.909198199115
 33
0.0
  0
MTEXT
  5
605
330
4C0
100
AcDbEntity
  8
0
440
 16777216
100
AcDbMText
 10
505.3929333861471
 20
1116.659198199148
 30
0.0
 40
45.0
 41
0.0
 46
0.0
 71
     5
 72
     1
  1
150
  7
Entro
 11
0.0000000000000001
 21
1.0
 31
0.0
 73
     1
 44
1.0
  0
POINT
  5
606
330
4C0
100
AcDbEntity
  8
Defpoints
 62
     0
440
 16777216
100
AcDbPoint
 10
639.7173827835728
 20
1048.40919819918
 30
0.0
  0
POINT
  5
607
330
4C0
100
AcDbEntity
  8
Defpoints
 62
     0
440
 16777216
100
AcDbPoint
 10
613.600559225214
 20
1184.909198199115
 30
0.0
  0
POINT
  5
608
330
4C0
100
AcDbEntity
  8
Defpoints
 62
     0
440
 16777216
100
AcDbPoint
 10
537.8929333861474
 20
1184.909198199115
 30
0.0
  0
ENDBLK
  5
4CB
330
4C0
100
AcDbEntity
  8
0
100
AcDbBlockEnd
  0
BLOCK
  5
4F1
330
4E6
100
AcDbEntity
  8
0
100
AcDbBlockBegin
  2
*D1
 70
     1
 10
0.0
 20
0.0
 30
0.0
  3
*D1
  1

  0
LINE
  5
609
330
4E6
100
AcDbEntity
  8
0
440
 16777216
100
AcDbLine
 10
1403.258789852631
 20
1208.551258404823
 30
0.0
 11
1403.258789852631
 21
1333.120661769634
 31
0.0
  0
LINE
  5
60A
330
4E6
100
AcDbEntity
  8
0
440
 16777216
100
AcDbLine
 10
732.2587898526303
 20
1208.551258404758
 30
0.0
 11
732.2587898526303
 21
1333.120661769634
 31
0.0
  0
LINE
  5
60B
330
4E6
100
AcDbEntity
  8
0
440
 16777216
100
AcDbLine
 10
1378.258789852631
 20
1323.120661769634
 30
0.0
 11
757.2587898526303
 21
1323.120661769634
 31
0.0
  0
SOLID
  5
60C
330
4E6
100
AcDbEntity
  8
0
440
 16777216
100
AcDbTrace
 10
1378.258789852631
 20
1327.2873284363
 30
0.0
 11
1378.258789852631
 21
1318.953995102967
 31
0.0
 12
1403.258789852631
 22
1323.120661769634
 32
0.0
 13
1403.258789852631
 23
1323.120661769634
 33
0.0
  0
SOLID
  5
60D
330
4E6
100
AcDbEntity
  8
0
440
 16777216
100
AcDbTrace
 10
757.2587898526303
 20
1327.2873284363
 30
0.0
 11
757.2587898526303
 21
1318.953995102967
 31
0.0
 12
732.2587898526303
 22
1323.120661769634
 32
0.0
 13
732.2587898526303
 23
1323.120661769634
 33
0.0
  0
MTEXT
  5
60E
330
4E6
100
AcDbEntity
  8
0
440
 16777216
100
AcDbMText
 10
1067.758789852631
 20
1355.637707224179
 30
0.0
 40
45.0
 41
0.0
 46
0.0
 71
     5
 72
     1
  1
670 - 730 
  7
Entro
 73
     1
 44
1.0
  0
POINT
  5
60F
330
4E6
100
AcDbEntity
  8
Defpoints
 62
     0
440
 16777216
100
AcDbPoint
 10
1403.258789852631
 20
1207.551258404823
 30
0.0
  0
POINT
  5
610
330
4E6
100
AcDbEntity
  8
Defpoints
 62
     0
440
 16777216
100
AcDbPoint
 10
732.2587898526303
 20
1207.551258404758
 30
0.0
  0
POINT
  5
611
330
4E6
100
AcDbEntity
  8
Defpoints
 62
     0
440
 16777216
100
AcDbPoint
 10
732.2587898526303
 20
1323.120661769634
 30
0.0
  0
ENDBLK
  5
4F2
330
4E6
100
AcDbEntity
  8
0
100
AcDbBlockEnd
  0
BLOCK
  5
5B2
330
5A7
100
AcDbEntity
  8
0
100
AcDbBlockBegin
  2
*D2
 70
     1
 10
0.0
 20
0.0
 30
0.0
  3
*D2
  1

  0
LINE
  5
5A8
330
5A7
100
AcDbEntity
  8
0
 62
     0
370
    -2
100
AcDbLine
 10
1366.25878985262
 20
1721.063376911456
 30
0.0
 11
1366.25878985262
 21
1749.707032685414
 31
0.0
  0
LINE
  5
5A9
330
5A7
100
AcDbEntity
  8
0
 62
     0
370
    -2
100
AcDbLine
 10
1440.25878985262
 20
1721.063376911458
 30
0.0
 11
1440.25878985262
 21
1749.707032685414
 31
0.0
  0
LINE
  5
5AA
330
5A7
100
AcDbEntity
  8
0
 62
     0
370
    -2
100
AcDbLine
 10
1366.43878985262
 20
1749.527032685414
 30
0.0
 11
1402.68878985262
 21
1749.527032685414
 31
0.0
  0
LINE
  5
5AB
330
5A7
100
AcDbEntity
  8
0
 62
     0
370
    -2
100
AcDbLine
 10
1440.07878985262
 20
1749.527032685414
 30
0.0
 11
1403.82878985262
 21
1749.527032685414
 31
0.0
  0
SOLID
  5
5AC
330
5A7
100
AcDbEntity
  8
0
 62
     0
100
AcDbTrace
 10
1366.43878985262
 20
1749.557032685414
 30
0.0
 11
1366.43878985262
 21
1749.497032685414
 31
0.0
 12
1366.25878985262
 22
1749.527032685414
 32
0.0
 13
1366.25878985262
 23
1749.527032685414
 33
0.0
  0
SOLID
  5
5AD
330
5A7
100
AcDbEntity
  8
0
 62
     0
100
AcDbTrace
 10
1440.07878985262
 20
1749.557032685414
 30
0.0
 11
1440.07878985262
 21
1749.497032685414
 31
0.0
 12
1440.25878985262
 22
1749.527032685414
 32
0.0
 13
1440.25878985262
 23
1749.527032685414
 33
0.0
  0
MTEXT
  5
5AE
330
5A7
100
AcDbEntity
  8
0
 62
     0
100
AcDbMText
 10
1403.25878985262
 20
1749.527032685414
 30
0.0
 40
0.18
 41
0.0
 46
0.0
 71
     5
 72
     1
  1
\A1;74.0000
 73
     1
 44
1.0
1001
ACAD
1000
MTEXTBEGIN
1070
    73
1070
     1
1070
    44
1040
1.0
1070
    74
1070
     0
1000
MTEXTEND
  0
POINT
  5
5AF
330
5A7
100
AcDbEntity
  8
Defpoints
 62
     0
100
AcDbPoint
 10
1366.25878985262
 20
1721.000876911456
 30
0.0
  0
POINT
  5
5B0
330
5A7
100
AcDbEntity
  8
Defpoints
 62
     0
100
AcDbPoint
 10
1440.25878985262
 20
1721.000876911458
 30
0.0
  0
POINT
  5
5B1
330
5A7
100
AcDbEntity
  8
Defpoints
 62
     0
100
AcDbPoint
 10
1440.25878985262
 20
1749.527032685414
 30
0.0
  0
ENDBLK
  5
5B3
330
5A7
100
AcDbEntity
  8
0
100
AcDbBlockEnd
  0
BLOCK
  5
D58
330
D57
100
AcDbEntity
  8
0
100
AcDbBlockBegin
  2
*D3
 70
     1
 10
0.0
 20
0.0
 30
0.0
  3
*D3
  1

  0
LINE
  5
DAC
330
D57
100
AcDbEntity
  8
0
 62
     0
440
 16777216
370
    -2
100
AcDbLine
 10
-231.9684398513505
 20
695.7124804650937
 30
0.0
 11
-231.9684398513505
 21
668.3540667198414
 31
0.0
  0
LINE
  5
DAD
330
D57
100
AcDbEntity
  8
0
 62
     0
440
 16777216
370
    -2
100
AcDbLine
 10
-71.96843985135045
 20
695.7124804650937
 30
0.0
 11
-71.96843985135045
 21
668.3540667198414
 31
0.0
  0
LINE
  5
DAE
330
D57
100
AcDbEntity
  8
0
 62
     0
440
 16777216
370
    -2
100
AcDbLine
 10
-231.7884398513505
 20
668.5340667198412
 30
0.0
 11
-152.5834398513504
 21
668.5340667198412
 31
0.0
  0
LINE
  5
DAF
330
D57
100
AcDbEntity
  8
0
 62
     0
440
 16777216
370
    -2
100
AcDbLine
 10
-72.14843985135047
 20
668.5340667198412
 30
0.0
 11
-151.3534398513504
 21
668.5340667198412
 31
0.0
  0
SOLID
  5
DB0
330
D57
100
AcDbEntity
  8
0
 62
     0
440
 16777216
100
AcDbTrace
 10
-231.7884398513505
 20
668.5640667198412
 30
0.0
 11
-231.7884398513505
 21
668.5040667198412
 31
0.0
 12
-231.9684398513505
 22
668.5340667198412
 32
0.0
 13
-231.9684398513505
 23
668.5340667198412
 33
0.0
  0
SOLID
  5
DB1
330
D57
100
AcDbEntity
  8
0
 62
     0
440
 16777216
100
AcDbTrace
 10
-72.14843985135047
 20
668.5640667198412
 30
0.0
 11
-72.14843985135047
 21
668.5040667198412
 31
0.0
 12
-71.96843985135045
 22
668.5340667198412
 32
0.0
 13
-71.96843985135045
 23
668.5340667198412
 33
0.0
  0
MTEXT
  5
DB2
330
D57
100
AcDbEntity
  8
0
 62
     0
440
 16777216
100
AcDbMText
 10
-151.9684398513504
 20
668.5340667198412
 30
0.0
 40
0.18
 41
0.0
 46
0.0
 71
     5
 72
     1
  1
\A1;160.0000
 73
     1
 44
1.0
  0
POINT
  5
DB3
330
D57
100
AcDbEntity
  8
Defpoints
 62
     0
440
 16777216
100
AcDbPoint
 10
-231.9684398513505
 20
695.7749804650936
 30
0.0
  0
POINT
  5
DB4
330
D57
100
AcDbEntity
  8
Defpoints
 62
     0
440
 16777216
100
AcDbPoint
 10
-71.96843985135045
 20
695.7749804650936
 30
0.0
  0
POINT
  5
DB5
330
D57
100
AcDbEntity
  8
Defpoints
 62
     0
440
 16777216
100
AcDbPoint
 10
-71.96843985135045
 20
668.5340667198412
 30
0.0
  0
ENDBLK
  5
D59
330
D57
100
AcDbEntity
  8
0
100
AcDbBlockEnd
  0
BLOCK
  5
D67
330
D66
100
AcDbEntity
  8
0
100
AcDbBlockBegin
  2
*D4
 70
     1
 10
0.0
 20
0.0
 30
0.0
  3
*D4
  1

  0
LINE
  5
D69
330
D66
100
AcDbEntity
  8
0
 62
     0
440
 16777216
370
    -2
100
AcDbLine
 10
2116.161813919972
 20
1609.088916389609
 30
0.0
 11
2116.161813919972
 21
1595.527801713193
 31
0.0
  0
LINE
  5
D6A
330
D66
100
AcDbEntity
  8
0
 62
     0
440
 16777216
370
    -2
100
AcDbLine
 10
2253.161813919972
 20
1609.088916389609
 30
0.0
 11
2253.161813919972
 21
1595.527801713193
 31
0.0
  0
LINE
  5
D6B
330
D66
100
AcDbEntity
  8
0
 62
     0
440
 16777216
370
    -2
100
AcDbLine
 10
2116.341813919972
 20
1595.707801713193
 30
0.0
 11
2184.031813919972
 21
1595.707801713193
 31
0.0
  0
LINE
  5
D6C
330
D66
100
AcDbEntity
  8
0
 62
     0
440
 16777216
370
    -2
100
AcDbLine
 10
2252.981813919972
 20
1595.707801713193
 30
0.0
 11
2185.291813919972
 21
1595.707801713193
 31
0.0
  0
SOLID
  5
D6D
330
D66
100
AcDbEntity
  8
0
 62
     0
440
 16777216
100
AcDbTrace
 10
2116.341813919972
 20
1595.737801713193
 30
0.0
 11
2116.341813919972
 21
1595.677801713193
 31
0.0
 12
2116.161813919972
 22
1595.707801713193
 32
0.0
 13
2116.161813919972
 23
1595.707801713193
 33
0.0
  0
SOLID
  5
D6E
330
D66
100
AcDbEntity
  8
0
 62
     0
440
 16777216
100
AcDbTrace
 10
2252.981813919972
 20
1595.737801713193
 30
0.0
 11
2252.981813919972
 21
1595.677801713193
 31
0.0
 12
2253.161813919972
 22
1595.707801713193
 32
0.0
 13
2253.161813919972
 23
1595.707801713193
 33
0.0
  0
MTEXT
  5
D6F
330
D66
100
AcDbEntity
  8
0
 62
     0
440
 16777216
100
AcDbMText
 10
2184.661813919972
 20
1595.707801713193
 30
0.0
 40
0.18
 41
0.0
 46
0.0
 71
     5
 72
     1
  1
\A1;137.0000
 73
     1
 44
1.0
  0
POINT
  5
D70
330
D66
100
AcDbEntity
  8
Defpoints
 62
     0
440
 16777216
100
AcDbPoint
 10
2116.161813919972
 20
1609.151416389609
 30
0.0
  0
POINT
  5
D71
330
D66
100
AcDbEntity
  8
Defpoints
 62
     0
440
 16777216
100
AcDbPoint
 10
2253.161813919972
 20
1609.151416389609
 30
0.0
  0
POINT
  5
D72
330
D66
100
AcDbEntity
  8
Defpoints
 62
     0
440
 16777216
100
AcDbPoint
 10
2253.161813919972
 20
1595.707801713193
 30
0.0
  0
ENDBLK
  5
D68
330
D66
100
AcDbEntity
  8
0
100
AcDbBlockEnd
  0
BLOCK
  5
D7D
330
D7C
100
AcDbEntity
  8
0
100
AcDbBlockBegin
  2
*D5
 70
     1
 10
0.0
 20
0.0
 30
0.0
  3
*D5
  1

  0
LINE
  5
DB6
330
D7C
100
AcDbEntity
  8
0
 62
     0
440
 16777216
370
    -2
100
AcDbLine
 10
-166.9684398513507
 20
722.3017196924812
 30
0.0
 11
-166.9684398513507
 21
731.5707179990471
 31
0.0
  0
LINE
  5
DB7
330
D7C
100
AcDbEntity
  8
0
 62
     0
440
 16777216
370
    -2
100
AcDbLine
 10
-136.9684398513507
 20
722.3017196924812
 30
0.0
 11
-136.9684398513507
 21
731.5707179990471
 31
0.0
  0
LINE
  5
DB8
330
D7C
100
AcDbEntity
  8
0
 62
     0
440
 16777216
370
    -2
100
AcDbLine
 10
-166.7884398513507
 20
731.390717999047
 30
0.0
 11
-152.5234398513507
 21
731.390717999047
 31
0.0
  0
LINE
  5
DB9
330
D7C
100
AcDbEntity
  8
0
 62
     0
440
 16777216
370
    -2
100
AcDbLine
 10
-137.1484398513507
 20
731.390717999047
 30
0.0
 11
-151.4134398513507
 21
731.390717999047
 31
0.0
  0
SOLID
  5
DBA
330
D7C
100
AcDbEntity
  8
0
 62
     0
440
 16777216
100
AcDbTrace
 10
-166.7884398513507
 20
731.420717999047
 30
0.0
 11
-166.7884398513507
 21
731.3607179990472
 31
0.0
 12
-166.9684398513507
 22
731.390717999047
 32
0.0
 13
-166.9684398513507
 23
731.390717999047
 33
0.0
  0
SOLID
  5
DBB
330
D7C
100
AcDbEntity
  8
0
 62
     0
440
 16777216
100
AcDbTrace
 10
-137.1484398513507
 20
731.420717999047
 30
0.0
 11
-137.1484398513507
 21
731.3607179990472
 31
0.0
 12
-136.9684398513507
 22
731.390717999047
 32
0.0
 13
-136.9684398513507
 23
731.390717999047
 33
0.0
  0
MTEXT
  5
DBC
330
D7C
100
AcDbEntity
  8
0
 62
     0
440
 16777216
100
AcDbMText
 10
-151.9684398513507
 20
731.390717999047
 30
0.0
 40
0.18
 41
0.0
 46
0.0
 71
     5
 72
     1
  1
\A1;30.0000
 73
     1
 44
1.0
  0
POINT
  5
DBD
330
D7C
100
AcDbEntity
  8
Defpoints
 62
     0
440
 16777216
100
AcDbPoint
 10
-166.9684398513507
 20
722.2392196924812
 30
0.0
  0
POINT
  5
DBE
330
D7C
100
AcDbEntity
  8
Defpoints
 62
     0
440
 16777216
100
AcDbPoint
 10
-136.9684398513507
 20
722.2392196924812
 30
0.0
  0
POINT
  5
DBF
330
D7C
100
AcDbEntity
  8
Defpoints
 62
     0
440
 16777216
100
AcDbPoint
 10
-136.9684398513507
 20
731.390717999047
 30
0.0
  0
ENDBLK
  5
D7E
330
D7C
100
AcDbEntity
  8
0
100
AcDbBlockEnd
  0
BLOCK
  5
D8B
330
D8A
100
AcDbEntity
  8
0
100
AcDbBlockBegin
  2
*D6
 70
     1
 10
0.0
 20
0.0
 30
0.0
  3
*D6
  1

  0
LINE
  5
D8D
330
D8A
100
AcDbEntity
  8
0
 62
     0
440
 16777216
370
    -2
100
AcDbLine
 10
2263.161813919969
 20
1616.06501719027
 30
0.0
 11
2263.161813919969
 21
1634.583061451241
 31
0.0
  0
LINE
  5
D8E
330
D8A
100
AcDbEntity
  8
0
 62
     0
440
 16777216
370
    -2
100
AcDbLine
 10
2203.161813919969
 20
1616.06501719027
 30
0.0
 11
2203.161813919969
 21
1634.583061451241
 31
0.0
  0
LINE
  5
D8F
330
D8A
100
AcDbEntity
  8
0
 62
     0
440
 16777216
370
    -2
100
AcDbLine
 10
2262.981813919969
 20
1634.403061451241
 30
0.0
 11
2233.716813919969
 21
1634.403061451241
 31
0.0
  0
LINE
  5
D90
330
D8A
100
AcDbEntity
  8
0
 62
     0
440
 16777216
370
    -2
100
AcDbLine
 10
2203.341813919969
 20
1634.403061451241
 30
0.0
 11
2232.606813919969
 21
1634.403061451241
 31
0.0
  0
SOLID
  5
D91
330
D8A
100
AcDbEntity
  8
0
 62
     0
440
 16777216
100
AcDbTrace
 10
2262.981813919969
 20
1634.433061451241
 30
0.0
 11
2262.981813919969
 21
1634.373061451241
 31
0.0
 12
2263.161813919969
 22
1634.403061451241
 32
0.0
 13
2263.161813919969
 23
1634.403061451241
 33
0.0
  0
SOLID
  5
D92
330
D8A
100
AcDbEntity
  8
0
 62
     0
440
 16777216
100
AcDbTrace
 10
2203.341813919969
 20
1634.433061451241
 30
0.0
 11
2203.341813919969
 21
1634.373061451241
 31
0.0
 12
2203.161813919969
 22
1634.403061451241
 32
0.0
 13
2203.161813919969
 23
1634.403061451241
 33
0.0
  0
MTEXT
  5
D93
330
D8A
100
AcDbEntity
  8
0
 62
     0
440
 16777216
100
AcDbMText
 10
2233.161813919969
 20
1634.403061451241
 30
0.0
 40
0.18
 41
0.0
 46
0.0
 71
     5
 72
     1
  1
\A1;60.0000
 73
     1
 44
1.0
  0
POINT
  5
D94
330
D8A
100
AcDbEntity
  8
Defpoints
 62
     0
440
 16777216
100
AcDbPoint
 10
2263.161813919969
 20
1616.00251719027
 30
0.0
  0
POINT
  5
D95
330
D8A
100
AcDbEntity
  8
Defpoints
 62
     0
440
 16777216
100
AcDbPoint
 10
2203.161813919969
 20
1616.00251719027
 30
0.0
  0
POINT
  5
D96
330
D8A
100
AcDbEntity
  8
Defpoints
 62
     0
440
 16777216
100
AcDbPoint
 10
2203.161813919969
 20
1634.403061451241
 30
0.0
  0
ENDBLK
  5
D8C
330
D8A
100
AcDbEntity
  8
0
100
AcDbBlockEnd
  0
BLOCK
  5
D9A
330
D99
100
AcDbEntity
  8
0
100
AcDbBlockBegin
  2
*D7
 70
     1
 10
0.0
 20
0.0
 30
0.0
  3
*D7
  1

  0
LINE
  5
D9C
330
D99
100
AcDbEntity
  8
0
 62
     0
440
 16777216
370
    -2
100
AcDbLine
 10
2263.161813919969
 20
1615.06501719027
 30
0.0
 11
2263.161813919969
 21
1626.524019053845
 31
0.0
  0
LINE
  5
D9D
330
D99
100
AcDbEntity
  8
0
 62
     0
440
 16777216
370
    -2
100
AcDbLine
 10
2253.161813919972
 20
1610.726648786398
 30
0.0
 11
2253.161813919972
 21
1626.524019053845
 31
0.0
  0
LINE
  5
D9E
330
D99
100
AcDbEntity
  8
0
 62
     0
440
 16777216
370
    -2
100
AcDbLine
 10
2262.981813919969
 20
1626.344019053845
 30
0.0
 11
2258.68681391997
 21
1626.344019053845
 31
0.0
  0
LINE
  5
D9F
330
D99
100
AcDbEntity
  8
0
 62
     0
440
 16777216
370
    -2
100
AcDbLine
 10
2253.341813919972
 20
1626.344019053845
 30
0.0
 11
2257.63681391997
 21
1626.344019053845
 31
0.0
  0
SOLID
  5
DA0
330
D99
100
AcDbEntity
  8
0
 62
     0
440
 16777216
100
AcDbTrace
 10
2262.981813919969
 20
1626.374019053845
 30
0.0
 11
2262.981813919969
 21
1626.314019053845
 31
0.0
 12
2263.161813919969
 22
1626.344019053845
 32
0.0
 13
2263.161813919969
 23
1626.344019053845
 33
0.0
  0
SOLID
  5
DA1
330
D99
100
AcDbEntity
  8
0
 62
     0
440
 16777216
100
AcDbTrace
 10
2253.341813919972
 20
1626.374019053845
 30
0.0
 11
2253.341813919972
 21
1626.314019053845
 31
0.0
 12
2253.161813919972
 22
1626.344019053845
 32
0.0
 13
2253.161813919972
 23
1626.344019053845
 33
0.0
  0
MTEXT
  5
DA2
330
D99
100
AcDbEntity
  8
0
 62
     0
440
 16777216
100
AcDbMText
 10
2258.16181391997
 20
1626.344019053845
 30
0.0
 40
0.18
 41
0.0
 46
0.0
 71
     5
 72
     1
  1
\A1;10.0000
 73
     1
 44
1.0
  0
POINT
  5
DA3
330
D99
100
AcDbEntity
  8
Defpoints
 62
     0
440
 16777216
100
AcDbPoint
 10
2263.161813919969
 20
1615.002517190269
 30
0.0
  0
POINT
  5
DA4
330
D99
100
AcDbEntity
  8
Defpoints
 62
     0
440
 16777216
100
AcDbPoint
 10
2253.161813919972
 20
1610.664148786398
 30
0.0
  0
POINT
  5
DA5
330
D99
100
AcDbEntity
  8
Defpoints
 62
     0
440
 16777216
100
AcDbPoint
 10
2253.161813919972
 20
1626.344019053845
 30
0.0
  0
ENDBLK
  5
D9B
330
D99
100
AcDbEntity
  8
0
100
AcDbBlockEnd
  0
BLOCK
  5
1532
330
1531
100
AcDbEntity
  8
0
100
AcDbBlockBegin
  2
*D8
 70
     1
 10
0.0
 20
0.0
 30
0.0
  3
*D8
  1

  0
LINE
  5
156A
330
1531
100
AcDbEntity
  8
0
 62
     0
440
 16777216
370
    -2
100
AcDbLine
 10
439.5368040077123
 20
452.2913517095966
 30
0.0
 11
439.5368040077123
 21
418.7670753109125
 31
0.0
  0
LINE
  5
156B
330
1531
100
AcDbEntity
  8
0
 62
     0
440
 16777216
370
    -2
100
AcDbLine
 10
541.5368040077123
 20
452.2913517095966
 30
0.0
 11
541.5368040077123
 21
418.7670753109125
 31
0.0
  0
LINE
  5
156C
330
1531
100
AcDbEntity
  8
0
 62
     0
440
 16777216
370
    -2
100
AcDbLine
 10
439.7168040077123
 20
418.9470753109126
 30
0.0
 11
474.1968040077123
 21
418.9470753109126
 31
0.0
  0
LINE
  5
156D
330
1531
100
AcDbEntity
  8
0
 62
     0
440
 16777216
370
    -2
100
AcDbLine
 10
541.3568040077124
 20
418.9470753109126
 30
0.0
 11
506.8768040077123
 21
418.9470753109126
 31
0.0
  0
SOLID
  5
156E
330
1531
100
AcDbEntity
  8
0
 62
     0
440
 16777216
100
AcDbTrace
 10
439.7168040077123
 20
418.9770753109126
 30
0.0
 11
439.7168040077123
 21
418.9170753109126
 31
0.0
 12
439.5368040077123
 22
418.9470753109126
 32
0.0
 13
439.5368040077123
 23
418.9470753109126
 33
0.0
  0
SOLID
  5
156F
330
1531
100
AcDbEntity
  8
0
 62
     0
440
 16777216
100
AcDbTrace
 10
541.3568040077124
 20
418.9770753109126
 30
0.0
 11
541.3568040077124
 21
418.9170753109126
 31
0.0
 12
541.5368040077123
 22
418.9470753109126
 32
0.0
 13
541.5368040077123
 23
418.9470753109126
 33
0.0
  0
MTEXT
  5
1570
330
1531
100
AcDbEntity
  8
0
 62
     0
440
 16777216
100
AcDbMText
 10
490.5368040077124
 20
418.9470753109126
 30
0.0
 40
15.0
 41
0.0
 46
0.0
 71
     5
 72
     1
  1
\A1;102
 73
     1
 44
1.0
  0
POINT
  5
1571
330
1531
100
AcDbEntity
  8
Defpoints
 62
     0
440
 16777216
100
AcDbPoint
 10
439.5368040077123
 20
452.3538517095967
 30
0.0
  0
POINT
  5
1572
330
1531
100
AcDbEntity
  8
Defpoints
 62
     0
440
 16777216
100
AcDbPoint
 10
541.5368040077123
 20
452.3538517095967
 30
0.0
  0
POINT
  5
1573
330
1531
100
AcDbEntity
  8
Defpoints
 62
     0
440
 16777216
100
AcDbPoint
 10
541.5368040077123
 20
418.9470753109126
 30
0.0
  0
ENDBLK
  5
1533
330
1531
100
AcDbEntity
  8
0
100
AcDbBlockEnd
  0
BLOCK
  5
1540
330
153F
100
AcDbEntity
  8
0
100
AcDbBlockBegin
  2
*D9
 70
     1
 10
0.0
 20
0.0
 30
0.0
  3
*D9
  1

  0
LINE
  5
1560
330
153F
100
AcDbEntity
  8
0
 62
     0
440
 16777216
370
    -2
100
AcDbLine
 10
641.7185151653583
 20
506.2846866388643
 30
0.0
 11
641.7185151653583
 21
562.7761961085531
 31
0.0
  0
LINE
  5
1561
330
153F
100
AcDbEntity
  8
0
 62
     0
440
 16777216
370
    -2
100
AcDbLine
 10
736.7185151653587
 20
506.2846866388643
 30
0.0
 11
736.7185151653587
 21
562.7761961085531
 31
0.0
  0
LINE
  5
1562
330
153F
100
AcDbEntity
  8
0
 62
     0
440
 16777216
370
    -2
100
AcDbLine
 10
641.8985151653584
 20
562.5961961085531
 30
0.0
 11
676.6285151653586
 21
562.5961961085531
 31
0.0
  0
LINE
  5
1563
330
153F
100
AcDbEntity
  8
0
 62
     0
440
 16777216
370
    -2
100
AcDbLine
 10
736.5385151653587
 20
562.5961961085531
 30
0.0
 11
701.8085151653585
 21
562.5961961085531
 31
0.0
  0
SOLID
  5
1564
330
153F
100
AcDbEntity
  8
0
 62
     0
440
 16777216
100
AcDbTrace
 10
641.8985151653584
 20
562.6261961085531
 30
0.0
 11
641.8985151653584
 21
562.5661961085532
 31
0.0
 12
641.7185151653583
 22
562.5961961085531
 32
0.0
 13
641.7185151653583
 23
562.5961961085531
 33
0.0
  0
SOLID
  5
1565
330
153F
100
AcDbEntity
  8
0
 62
     0
440
 16777216
100
AcDbTrace
 10
736.5385151653587
 20
562.6261961085531
 30
0.0
 11
736.5385151653587
 21
562.5661961085532
 31
0.0
 12
736.7185151653587
 22
562.5961961085531
 32
0.0
 13
736.7185151653587
 23
562.5961961085531
 33
0.0
  0
MTEXT
  5
1566
330
153F
100
AcDbEntity
  8
0
 62
     0
440
 16777216
100
AcDbMText
 10
689.2185151653587
 20
562.5961961085531
 30
0.0
 40
15.0
 41
0.0
 46
0.0
 71
     5
 72
     1
  1
\A1;95
 73
     1
 44
1.0
  0
POINT
  5
1567
330
153F
100
AcDbEntity
  8
Defpoints
 62
     0
440
 16777216
100
AcDbPoint
 10
641.7185151653583
 20
506.2221866388643
 30
0.0
  0
POINT
  5
1568
330
153F
100
AcDbEntity
  8
Defpoints
 62
     0
440
 16777216
100
AcDbPoint
 10
736.7185151653587
 20
506.2221866388643
 30
0.0
  0
POINT
  5
1569
330
153F
100
AcDbEntity
  8
Defpoints
 62
     0
440
 16777216
100
AcDbPoint
 10
736.7185151653587
 20
562.5961961085531
 30
0.0
  0
ENDBLK
  5
1541
330
153F
100
AcDbEntity
  8
0
100
AcDbBlockEnd
  0
BLOCK
  5
15E2
330
15E1
100
AcDbEntity
  8
0
100
AcDbBlockBegin
  2
*D10
 70
     1
 10
0.0
 20
0.0
 30
0.0
  3
*D10
  1

  0
LINE
  5
1610
330
15E1
100
AcDbEntity
  8
0
 62
     0
440
 16777216
370
    -2
100
AcDbLine
 10
480.5368040077121
 20
523.2846866388645
 30
0.0
 11
480.5368040077121
 21
568.4679920757932
 31
0.0
  0
LINE
  5
1611
330
15E1
100
AcDbEntity
  8
0
 62
     0
440
 16777216
370
    -2
100
AcDbLine
 10
500.5368040077121
 20
523.2846866388645
 30
0.0
 11
500.5368040077121
 21
568.4679920757932
 31
0.0
  0
LINE
  5
1612
330
15E1
100
AcDbEntity
  8
0
 62
     0
440
 16777216
370
    -2
100
AcDbLine
 10
480.7168040077121
 20
568.2879920757932
 30
0.0
 11
500.3568040077123
 21
568.2879920757932
 31
0.0
  0
LINE
  5
1613
330
15E1
100
AcDbEntity
  8
0
 62
     0
440
 16777216
370
    -2
100
AcDbLine
 10
500.5368040077121
 20
568.2879920757932
 30
0.0
 11
500.7168040077123
 21
568.2879920757932
 31
0.0
  0
SOLID
  5
1614
330
15E1
100
AcDbEntity
  8
0
 62
     0
440
 16777216
100
AcDbTrace
 10
480.7168040077121
 20
568.3179920757932
 30
0.0
 11
480.7168040077121
 21
568.2579920757932
 31
0.0
 12
480.5368040077121
 22
568.2879920757932
 32
0.0
 13
480.5368040077121
 23
568.2879920757932
 33
0.0
  0
SOLID
  5
1615
330
15E1
100
AcDbEntity
  8
0
 62
     0
440
 16777216
100
AcDbTrace
 10
500.3568040077123
 20
568.3179920757932
 30
0.0
 11
500.3568040077123
 21
568.2579920757932
 31
0.0
 12
500.5368040077121
 22
568.2879920757932
 32
0.0
 13
500.5368040077121
 23
568.2879920757932
 33
0.0
  0
MTEXT
  5
1616
330
15E1
100
AcDbEntity
  8
0
 62
     0
440
 16777216
100
AcDbMText
 10
512.0568040077123
 20
568.2879920757932
 30
0.0
 40
15.0
 41
0.0
 46
0.0
 71
     5
 72
     1
  1
\A1;20
 73
     1
 44
1.0
  0
POINT
  5
1617
330
15E1
100
AcDbEntity
  8
Defpoints
 62
     0
440
 16777216
100
AcDbPoint
 10
480.5368040077121
 20
523.2221866388645
 30
0.0
  0
POINT
  5
1618
330
15E1
100
AcDbEntity
  8
Defpoints
 62
     0
440
 16777216
100
AcDbPoint
 10
500.5368040077121
 20
523.2221866388645
 30
0.0
  0
POINT
  5
1619
330
15E1
100
AcDbEntity
  8
Defpoints
 62
     0
440
 16777216
100
AcDbPoint
 10
500.5368040077121
 20
568.2879920757932
 30
0.0
  0
ENDBLK
  5
15E3
330
15E1
100
AcDbEntity
  8
0
100
AcDbBlockEnd
  0
BLOCK
  5
15F0
330
15EF
100
AcDbEntity
  8
0
100
AcDbBlockBegin
  2
*D11
 70
     1
 10
0.0
 20
0.0
 30
0.0
  3
*D11
  1

  0
LINE
  5
161A
330
15EF
100
AcDbEntity
  8
0
 62
     0
440
 16777216
370
    -2
100
AcDbLine
 10
483.7868040073905
 20
527.0846866384101
 30
0.0
 11
483.7868040073905
 21
588.3894390220462
 31
0.0
  0
LINE
  5
161B
330
15EF
100
AcDbEntity
  8
0
 62
     0
440
 16777216
370
    -2
100
AcDbLine
 10
497.0368040079015
 20
527.0846866384101
 30
0.0
 11
497.0368040079015
 21
588.3894390220462
 31
0.0
  0
LINE
  5
161C
330
15EF
100
AcDbEntity
  8
0
 62
     0
440
 16777216
370
    -2
100
AcDbLine
 10
483.9668040073905
 20
588.2094390220462
 30
0.0
 11
496.8568040079015
 21
588.2094390220462
 31
0.0
  0
LINE
  5
161D
330
15EF
100
AcDbEntity
  8
0
 62
     0
440
 16777216
370
    -2
100
AcDbLine
 10
497.0368040079015
 20
588.2094390220462
 30
0.0
 11
497.2168040079013
 21
588.2094390220462
 31
0.0
  0
SOLID
  5
161E
330
15EF
100
AcDbEntity
  8
0
 62
     0
440
 16777216
100
AcDbTrace
 10
483.9668040073905
 20
588.2394390220463
 30
0.0
 11
483.9668040073905
 21
588.1794390220464
 31
0.0
 12
483.7868040073905
 22
588.2094390220462
 32
0.0
 13
483.7868040073905
 23
588.2094390220462
 33
0.0
  0
SOLID
  5
161F
330
15EF
100
AcDbEntity
  8
0
 62
     0
440
 16777216
100
AcDbTrace
 10
496.8568040079015
 20
588.2394390220463
 30
0.0
 11
496.8568040079015
 21
588.1794390220464
 31
0.0
 12
497.0368040079015
 22
588.2094390220462
 32
0.0
 13
497.0368040079015
 23
588.2094390220462
 33
0.0
  0
MTEXT
  5
1620
330
15EF
100
AcDbEntity
  8
0
 62
     0
440
 16777216
100
AcDbMText
 10
507.3068040079014
 20
588.2094390220462
 30
0.0
 40
15.0
 41
0.0
 46
0.0
 71
     5
 72
     1
  1
\A1;13
 73
     1
 44
1.0
  0
POINT
  5
1621
330
15EF
100
AcDbEntity
  8
Defpoints
 62
     0
440
 16777216
100
AcDbPoint
 10
483.7868040073905
 20
527.02218663841
 30
0.0
  0
POINT
  5
1622
330
15EF
100
AcDbEntity
  8
Defpoints
 62
     0
440
 16777216
100
AcDbPoint
 10
497.0368040079015
 20
527.02218663841
 30
0.0
  0
POINT
  5
1623
330
15EF
100
AcDbEntity
  8
Defpoints
 62
     0
440
 16777216
100
AcDbPoint
 10
497.0368040079015
 20
588.2094390220462
 30
0.0
  0
ENDBLK
  5
15F1
330
15EF
100
AcDbEntity
  8
0
100
AcDbBlockEnd
  0
BLOCK
  5
1629
330
1628
100
AcDbEntity
  8
0
100
AcDbBlockBegin
  2
*D12
 70
     1
 10
0.0
 20
0.0
 30
0.0
  3
*D12
  1

  0
LINE
  5
162B
330
1628
100
AcDbEntity
  8
0
 62
     0
440
 16777216
370
    -2
100
AcDbLine
 10
512.8711892413957
 20
148.3920281191922
 30
0.0
 11
505.972076304611
 21
147.1302148079224
 31
0.0
  0
MTEXT
  5
162C
330
1628
100
AcDbEntity
  8
0
 62
     0
440
 16777216
100
AcDbMText
 10
513.5311892413958
 20
148.3920281191922
 30
0.0
 40
0.18
 41
0.0
 46
0.0
 71
     5
 72
     1
  1
\A1;∅26.0000
 73
     1
 44
1.0
  0
SOLID
  5
162D
330
1628
100
AcDbEntity
  8
0
 62
     0
440
 16777216
100
AcDbTrace
 10
505.9666789836168
 20
147.1597252963306
 30
0.0
 11
505.9774736256051
 21
147.1007043195143
 31
0.0
 12
505.7950133741623
 22
147.097830881957
 32
0.0
 13
505.7950133741623
 23
147.097830881957
 33
0.0
  0
LINE
  5
162E
330
1628
100
AcDbEntity
  8
0
 62
     0
440
 16777216
370
    -2
100
AcDbLine
 10
492.9171350639828
 20
144.758991784448
 30
0.0
 11
493.0971350639826
 21
144.758991784448
 31
0.0
  0
LINE
  5
162F
330
1628
100
AcDbEntity
  8
0
 62
     0
440
 16777216
370
    -2
100
AcDbLine
 10
493.0071350639828
 20
144.668991784448
 30
0.0
 11
493.0071350639828
 21
144.8489917844479
 31
0.0
  0
POINT
  5
1630
330
1628
100
AcDbEntity
  8
Defpoints
 62
     0
440
 16777216
100
AcDbPoint
 10
505.7950133741623
 20
147.097830881957
 30
0.0
  0
POINT
  5
1631
330
1628
100
AcDbEntity
  8
Defpoints
 62
     0
440
 16777216
100
AcDbPoint
 10
480.2192567538031
 20
142.420152686939
 30
0.0
  0
ENDBLK
  5
162A
330
1628
100
AcDbEntity
  8
0
100
AcDbBlockEnd
  0
BLOCK
  5
1636
330
1635
100
AcDbEntity
  8
0
100
AcDbBlockBegin
  2
*D13
 70
     1
 10
0.0
 20
0.0
 30
0.0
  3
*D13
  1

  0
LINE
  5
1638
330
1635
100
AcDbEntity
  8
0
 62
     0
440
 16777216
370
    -2
100
AcDbLine
 10
509.973947520682
 20
150.6042856344456
 30
0.0
 11
509.7939475206819
 21
150.6042856344456
 31
0.0
  0
LINE
  5
1639
330
1635
100
AcDbEntity
  8
0
 62
     0
440
 16777216
370
    -2
100
AcDbLine
 10
509.7939475206819
 20
150.6042856344456
 30
0.0
 11
499.3156267246948
 21
146.955655838582
 31
0.0
  0
MTEXT
  5
163A
330
1635
100
AcDbEntity
  8
0
 62
     0
440
 16777216
100
AcDbMText
 10
510.6039475206819
 20
150.6042856344456
 30
0.0
 40
0.18
 41
0.0
 46
0.0
 71
     5
 72
     1
  1
\A1;∅13.0000
 73
     1
 44
1.0
  0
SOLID
  5
163B
330
1635
100
AcDbEntity
  8
0
 62
     0
440
 16777216
100
AcDbTrace
 10
499.3057614669665
 20
146.9839873879565
 30
0.0
 11
499.325491982423
 21
146.9273242892076
 31
0.0
 12
499.1456374284481
 22
146.8964642922132
 32
0.0
 13
499.1456374284481
 23
146.8964642922132
 33
0.0
  0
LINE
  5
163C
330
1635
100
AcDbEntity
  8
0
 62
     0
440
 16777216
370
    -2
100
AcDbLine
 10
492.9171350639826
 20
144.7589917844479
 30
0.0
 11
493.0971350639826
 21
144.758991784448
 31
0.0
  0
LINE
  5
163D
330
1635
100
AcDbEntity
  8
0
 62
     0
440
 16777216
370
    -2
100
AcDbLine
 10
493.0071350639827
 20
144.6689917844479
 30
0.0
 11
493.0071350639827
 21
144.8489917844479
 31
0.0
  0
POINT
  5
163E
330
1635
100
AcDbEntity
  8
Defpoints
 62
     0
440
 16777216
100
AcDbPoint
 10
499.1456374284481
 20
146.8964642922132
 30
0.0
  0
POINT
  5
163F
330
1635
100
AcDbEntity
  8
Defpoints
 62
     0
440
 16777216
100
AcDbPoint
 10
486.8686326995172
 20
142.6215192766826
 30
0.0
  0
ENDBLK
  5
1637
330
1635
100
AcDbEntity
  8
0
100
AcDbBlockEnd
  0
BLOCK
  5
1A4C
330
1A4B
100
AcDbEntity
  8
0
100
AcDbBlockBegin
  2
*D14
 70
     1
 10
0.0
 20
0.0
 30
0.0
  3
*D14
  1

  0
LINE
  5
1A4E
330
1A4B
100
AcDbEntity
  8
0
 62
     0
440
 16777216
370
    -2
100
AcDbLine
 10
382.6564697564935
 20
23.47782153231765
 30
0.0
 11
382.6564697564935
 21
41.49405281237949
 31
0.0
  0
LINE
  5
1A4F
330
1A4B
100
AcDbEntity
  8
0
 62
     0
440
 16777216
370
    -2
100
AcDbLine
 10
406.6564697564935
 20
23.47782153231765
 30
0.0
 11
406.6564697564935
 21
41.49405281237949
 31
0.0
  0
LINE
  5
1A50
330
1A4B
100
AcDbEntity
  8
0
 62
     0
440
 16777216
370
    -2
100
AcDbLine
 10
382.8364697564936
 20
41.31405281237947
 30
0.0
 11
394.0864697564935
 21
41.31405281237947
 31
0.0
  0
LINE
  5
1A51
330
1A4B
100
AcDbEntity
  8
0
 62
     0
440
 16777216
370
    -2
100
AcDbLine
 10
406.4764697564934
 20
41.31405281237947
 30
0.0
 11
395.2264697564936
 21
41.31405281237947
 31
0.0
  0
SOLID
  5
1A52
330
1A4B
100
AcDbEntity
  8
0
 62
     0
440
 16777216
100
AcDbTrace
 10
382.8364697564936
 20
41.34405281237947
 30
0.0
 11
382.8364697564936
 21
41.28405281237947
 31
0.0
 12
382.6564697564935
 22
41.31405281237947
 32
0.0
 13
382.6564697564935
 23
41.31405281237947
 33
0.0
  0
SOLID
  5
1A53
330
1A4B
100
AcDbEntity
  8
0
 62
     0
440
 16777216
100
AcDbTrace
 10
406.4764697564934
 20
41.34405281237947
 30
0.0
 11
406.4764697564934
 21
41.28405281237947
 31
0.0
 12
406.6564697564935
 22
41.31405281237947
 32
0.0
 13
406.6564697564935
 23
41.31405281237947
 33
0.0
  0
MTEXT
  5
1A54
330
1A4B
100
AcDbEntity
  8
0
 62
     0
440
 16777216
100
AcDbMText
 10
394.6564697564935
 20
41.31405281237947
 30
0.0
 40
0.18
 41
0.0
 46
0.0
 71
     5
 72
     1
  1
\A1;24.0000
 73
     1
 44
1.0
  0
POINT
  5
1A55
330
1A4B
100
AcDbEntity
  8
Defpoints
 62
     0
440
 16777216
100
AcDbPoint
 10
382.6564697564935
 20
23.41532153231765
 30
0.0
  0
POINT
  5
1A56
330
1A4B
100
AcDbEntity
  8
Defpoints
 62
     0
440
 16777216
100
AcDbPoint
 10
406.6564697564935
 20
23.41532153231765
 30
0.0
  0
POINT
  5
1A57
330
1A4B
100
AcDbEntity
  8
Defpoints
 62
     0
440
 16777216
100
AcDbPoint
 10
406.6564697564935
 20
41.31405281237947
 30
0.0
  0
ENDBLK
  5
1A4D
330
1A4B
100
AcDbEntity
  8
0
100
AcDbBlockEnd
  0
BLOCK
  5
1A5A
330
1A59
100
AcDbEntity
  8
0
100
AcDbBlockBegin
  2
*D15
 70
     1
 10
0.0
 20
0.0
 30
0.0
  3
*D15
  1

  0
LINE
  5
1A5C
330
1A59
100
AcDbEntity
  8
0
 62
     0
440
 16777216
370
    -2
100
AcDbLine
 10
233.6423861599599
 20
422.8050019013716
 30
0.0
 11
233.6423861599599
 21
382.4443877504858
 31
0.0
  0
LINE
  5
1A5D
330
1A59
100
AcDbEntity
  8
0
 62
     0
440
 16777216
370
    -2
100
AcDbLine
 10
236.6465492159941
 20
422.8050019013716
 30
0.0
 11
236.6465492159941
 21
382.4443877504858
 31
0.0
  0
LINE
  5
1A5E
330
1A59
100
AcDbEntity
  8
0
 62
     0
440
 16777216
370
    -2
100
AcDbLine
 10
233.8223861599599
 20
382.6243877504858
 30
0.0
 11
234.634467687977
 21
382.6243877504858
 31
0.0
  0
LINE
  5
1A5F
330
1A59
100
AcDbEntity
  8
0
 62
     0
440
 16777216
370
    -2
100
AcDbLine
 10
236.4665492159941
 20
382.6243877504858
 30
0.0
 11
235.654467687977
 21
382.6243877504858
 31
0.0
  0
SOLID
  5
1A60
330
1A59
100
AcDbEntity
  8
0
 62
     0
440
 16777216
100
AcDbTrace
 10
233.8223861599599
 20
382.6543877504857
 30
0.0
 11
233.8223861599599
 21
382.5943877504859
 31
0.0
 12
233.6423861599599
 22
382.6243877504858
 32
0.0
 13
233.6423861599599
 23
382.6243877504858
 33
0.0
  0
SOLID
  5
1A61
330
1A59
100
AcDbEntity
  8
0
 62
     0
440
 16777216
100
AcDbTrace
 10
236.4665492159941
 20
382.6543877504857
 30
0.0
 11
236.4665492159941
 21
382.5943877504859
 31
0.0
 12
236.6465492159941
 22
382.6243877504858
 32
0.0
 13
236.6465492159941
 23
382.6243877504858
 33
0.0
  0
MTEXT
  5
1A62
330
1A59
100
AcDbEntity
  8
0
 62
     0
440
 16777216
100
AcDbMText
 10
235.144467687977
 20
382.6243877504858
 30
0.0
 40
0.18
 41
0.0
 46
0.0
 71
     5
 72
     1
  1
\A1;3.0042
 73
     1
 44
1.0
  0
POINT
  5
1A63
330
1A59
100
AcDbEntity
  8
Defpoints
 62
     0
440
 16777216
100
AcDbPoint
 10
233.6423861599599
 20
422.8675019013716
 30
-0.0000000000000002
  0
POINT
  5
1A64
330
1A59
100
AcDbEntity
  8
Defpoints
 62
     0
440
 16777216
100
AcDbPoint
 10
236.6465492159941
 20
422.8675019013716
 30
0.0
  0
POINT
  5
1A65
330
1A59
100
AcDbEntity
  8
Defpoints
 62
     0
440
 16777216
100
AcDbPoint
 10
236.6465492159941
 20
382.6243877504858
 30
0.0
  0
ENDBLK
  5
1A5B
330
1A59
100
AcDbEntity
  8
0
100
AcDbBlockEnd
  0
BLOCK
  5
1A69
330
1A68
100
AcDbEntity
  8
0
100
AcDbBlockBegin
  2
*D16
 70
     1
 10
0.0
 20
0.0
 30
0.0
  3
*D16
  1

  0
LINE
  5
1A6B
330
1A68
100
AcDbEntity
  8
0
 62
     0
440
 16777216
370
    -2
100
AcDbLine
 10
394.6564697564935
 20
29.91972298257031
 30
0.0
 11
394.6564697564935
 21
130.7283420898999
 31
0.0
  0
LINE
  5
1A6C
330
1A68
100
AcDbEntity
  8
0
 62
     0
440
 16777216
370
    -2
100
AcDbLine
 10
373.6564697564929
 20
29.91972298257031
 30
0.0
 11
373.6564697564929
 21
130.7283420898999
 31
0.0
  0
LINE
  5
1A6D
330
1A68
100
AcDbEntity
  8
0
 62
     0
440
 16777216
370
    -2
100
AcDbLine
 10
394.4764697564935
 20
130.5483420898999
 30
0.0
 11
384.6964697564932
 21
130.5483420898999
 31
0.0
  0
LINE
  5
1A6E
330
1A68
100
AcDbEntity
  8
0
 62
     0
440
 16777216
370
    -2
100
AcDbLine
 10
373.8364697564928
 20
130.5483420898999
 30
0.0
 11
383.6164697564931
 21
130.5483420898999
 31
0.0
  0
SOLID
  5
1A6F
330
1A68
100
AcDbEntity
  8
0
 62
     0
440
 16777216
100
AcDbTrace
 10
394.4764697564935
 20
130.5783420898999
 30
0.0
 11
394.4764697564935
 21
130.5183420898999
 31
0.0
 12
394.6564697564935
 22
130.5483420898999
 32
0.0
 13
394.6564697564935
 23
130.5483420898999
 33
0.0
  0
SOLID
  5
1A70
330
1A68
100
AcDbEntity
  8
0
 62
     0
440
 16777216
100
AcDbTrace
 10
373.8364697564928
 20
130.5783420898999
 30
0.0
 11
373.8364697564928
 21
130.5183420898999
 31
0.0
 12
373.6564697564929
 22
130.5483420898999
 32
0.0
 13
373.6564697564929
 23
130.5483420898999
 33
0.0
  0
MTEXT
  5
1A71
330
1A68
100
AcDbEntity
  8
0
 62
     0
440
 16777216
100
AcDbMText
 10
384.1564697564932
 20
130.5483420898999
 30
0.0
 40
0.18
 41
0.0
 46
0.0
 71
     5
 72
     1
  1
\A1;21.0000
 73
     1
 44
1.0
  0
POINT
  5
1A72
330
1A68
100
AcDbEntity
  8
Defpoints
 62
     0
440
 16777216
100
AcDbPoint
 10
394.6564697564935
 20
29.8572229825703
 30
0.0
  0
POINT
  5
1A73
330
1A68
100
AcDbEntity
  8
Defpoints
 62
     0
440
 16777216
100
AcDbPoint
 10
373.6564697564929
 20
29.8572229825703
 30
0.0
  0
POINT
  5
1A74
330
1A68
100
AcDbEntity
  8
Defpoints
 62
     0
440
 16777216
100
AcDbPoint
 10
373.6564697564929
 20
130.5483420898999
 30
0.0
  0
ENDBLK
  5
1A6A
330
1A68
100
AcDbEntity
  8
0
100
AcDbBlockEnd
  0
BLOCK
  5
208E
330
208D
100
AcDbEntity
  8
0
100
AcDbBlockBegin
  2
*D18
 70
     1
 10
0.0
 20
0.0
 30
0.0
  3
*D18
  1

  0
LINE
  5
2090
330
208D
100
AcDbEntity
  8
0
 62
     0
440
 16777216
370
    -2
100
AcDbLine
 10
427.276178409193
 20
492.2367021139271
 30
0.0
 11
427.276178409193
 21
540.862707244271
 31
0.0
  0
LINE
  5
2091
330
208D
100
AcDbEntity
  8
0
 62
     0
440
 16777216
370
    -2
100
AcDbLine
 10
757.276178409193
 20
492.2367021139271
 30
0.0
 11
757.276178409193
 21
540.862707244271
 31
0.0
  0
LINE
  5
2092
330
208D
100
AcDbEntity
  8
0
 62
     0
440
 16777216
370
    -2
100
AcDbLine
 10
427.4561784091931
 20
540.6827072442711
 30
0.0
 11
591.6311784091931
 21
540.6827072442711
 31
0.0
  0
LINE
  5
2093
330
208D
100
AcDbEntity
  8
0
 62
     0
440
 16777216
370
    -2
100
AcDbLine
 10
757.0961784091931
 20
540.6827072442711
 30
0.0
 11
592.9211784091931
 21
540.6827072442711
 31
0.0
  0
SOLID
  5
2094
330
208D
100
AcDbEntity
  8
0
 62
     0
440
 16777216
100
AcDbTrace
 10
427.4561784091931
 20
540.7127072442711
 30
0.0
 11
427.4561784091931
 21
540.6527072442711
 31
0.0
 12
427.276178409193
 22
540.6827072442711
 32
0.0
 13
427.276178409193
 23
540.6827072442711
 33
0.0
  0
SOLID
  5
2095
330
208D
100
AcDbEntity
  8
0
 62
     0
440
 16777216
100
AcDbTrace
 10
757.0961784091931
 20
540.7127072442711
 30
0.0
 11
757.0961784091931
 21
540.6527072442711
 31
0.0
 12
757.276178409193
 22
540.6827072442711
 32
0.0
 13
757.276178409193
 23
540.6827072442711
 33
0.0
  0
MTEXT
  5
2096
330
208D
100
AcDbEntity
  8
0
 62
     0
440
 16777216
100
AcDbMText
 10
592.2761784091931
 20
540.6827072442711
 30
0.0
 40
0.18
 41
0.0
 46
0.0
 71
     5
 72
     1
  1
\A1;330.0000
 73
     1
 44
1.0
  0
POINT
  5
2097
330
208D
100
AcDbEntity
  8
Defpoints
 62
     0
440
 16777216
100
AcDbPoint
 10
427.276178409193
 20
492.174202113927
 30
0.0
  0
POINT
  5
2098
330
208D
100
AcDbEntity
  8
Defpoints
 62
     0
440
 16777216
100
AcDbPoint
 10
757.276178409193
 20
492.174202113927
 30
0.0
  0
POINT
  5
2099
330
208D
100
AcDbEntity
  8
Defpoints
 62
     0
440
 16777216
100
AcDbPoint
 10
757.276178409193
 20
540.6827072442711
 30
0.0
  0
ENDBLK
  5
208F
330
208D
100
AcDbEntity
  8
0
100
AcDbBlockEnd
  0
BLOCK
  5
209C
330
209B
100
AcDbEntity
  8
0
100
AcDbBlockBegin
  2
*D19
 70
     1
 10
0.0
 20
0.0
 30
0.0
  3
*D19
  1

  0
LINE
  5
209E
330
209B
100
AcDbEntity
  8
0
 62
     0
440
 16777216
370
    -2
100
AcDbLine
 10
869.3924830497373
 20
481.7296578438872
 30
0.0
 11
869.3924830497373
 21
552.2167948218464
 31
0.0
  0
LINE
  5
209F
330
209B
100
AcDbEntity
  8
0
 62
     0
440
 16777216
370
    -2
100
AcDbLine
 10
1011.392483049738
 20
486.2991122589773
 30
0.0
 11
1011.392483049738
 21
552.2167948218464
 31
0.0
  0
LINE
  5
20A0
330
209B
100
AcDbEntity
  8
0
 62
     0
440
 16777216
370
    -2
100
AcDbLine
 10
869.5724830497372
 20
552.0367948218463
 30
0.0
 11
939.7624830497377
 21
552.0367948218463
 31
0.0
  0
LINE
  5
20A1
330
209B
100
AcDbEntity
  8
0
 62
     0
440
 16777216
370
    -2
100
AcDbLine
 10
1011.212483049738
 20
552.0367948218463
 30
0.0
 11
941.0224830497377
 21
552.0367948218463
 31
0.0
  0
SOLID
  5
20A2
330
209B
100
AcDbEntity
  8
0
 62
     0
440
 16777216
100
AcDbTrace
 10
869.5724830497372
 20
552.0667948218463
 30
0.0
 11
869.5724830497372
 21
552.0067948218463
 31
0.0
 12
869.3924830497373
 22
552.0367948218463
 32
0.0
 13
869.3924830497373
 23
552.0367948218463
 33
0.0
  0
SOLID
  5
20A3
330
209B
100
AcDbEntity
  8
0
 62
     0
440
 16777216
100
AcDbTrace
 10
1011.212483049738
 20
552.0667948218463
 30
0.0
 11
1011.212483049738
 21
552.0067948218463
 31
0.0
 12
1011.392483049738
 22
552.0367948218463
 32
0.0
 13
1011.392483049738
 23
552.0367948218463
 33
0.0
  0
MTEXT
  5
20A4
330
209B
100
AcDbEntity
  8
0
 62
     0
440
 16777216
100
AcDbMText
 10
940.3924830497377
 20
552.0367948218463
 30
0.0
 40
0.18
 41
0.0
 46
0.0
 71
     5
 72
     1
  1
\A1;142.0000
 73
     1
 44
1.0
  0
POINT
  5
20A5
330
209B
100
AcDbEntity
  8
Defpoints
 62
     0
440
 16777216
100
AcDbPoint
 10
869.3924830497373
 20
481.6671578438872
 30
0.0
  0
POINT
  5
20A6
330
209B
100
AcDbEntity
  8
Defpoints
 62
     0
440
 16777216
100
AcDbPoint
 10
1011.392483049738
 20
486.2366122589774
 30
0.0
  0
POINT
  5
20A7
330
209B
100
AcDbEntity
  8
Defpoints
 62
     0
440
 16777216
100
AcDbPoint
 10
1011.392483049738
 20
552.0367948218463
 30
0.0
  0
ENDBLK
  5
209D
330
209B
100
AcDbEntity
  8
0
100
AcDbBlockEnd
  0
BLOCK
  5
20BD
330
20BC
100
AcDbEntity
  8
0
100
AcDbBlockBegin
  2
*D21
 70
     1
 10
0.0
 20
0.0
 30
0.0
  3
*D21
  1

  0
LINE
  5
20BF
330
20BC
100
AcDbEntity
  8
0
 62
     0
440
 16777216
370
    -2
100
AcDbLine
 10
427.276178409193
 20
195.250101934047
 30
0.0
 11
427.276178409193
 21
120.8408842177353
 31
0.0
  0
LINE
  5
20C0
330
20BC
100
AcDbEntity
  8
0
 62
     0
440
 16777216
370
    -2
100
AcDbLine
 10
428.876178409193
 20
195.250101934047
 30
0.0
 11
428.876178409193
 21
120.8408842177353
 31
0.0
  0
LINE
  5
20C1
330
20BC
100
AcDbEntity
  8
0
 62
     0
440
 16777216
370
    -2
100
AcDbLine
 10
427.456178409193
 20
121.0208842177353
 30
0.0
 11
427.6111784091931
 21
121.0208842177353
 31
0.0
  0
LINE
  5
20C2
330
20BC
100
AcDbEntity
  8
0
 62
     0
440
 16777216
370
    -2
100
AcDbLine
 10
428.6961784091931
 20
121.0208842177353
 30
0.0
 11
428.541178409193
 21
121.0208842177353
 31
0.0
  0
SOLID
  5
20C3
330
20BC
100
AcDbEntity
  8
0
 62
     0
440
 16777216
100
AcDbTrace
 10
427.456178409193
 20
121.0508842177353
 30
0.0
 11
427.456178409193
 21
120.9908842177353
 31
0.0
 12
427.276178409193
 22
121.0208842177353
 32
0.0
 13
427.276178409193
 23
121.0208842177353
 33
0.0
  0
SOLID
  5
20C4
330
20BC
100
AcDbEntity
  8
0
 62
     0
440
 16777216
100
AcDbTrace
 10
428.6961784091931
 20
121.0508842177353
 30
0.0
 11
428.6961784091931
 21
120.9908842177353
 31
0.0
 12
428.876178409193
 22
121.0208842177353
 32
0.0
 13
428.876178409193
 23
121.0208842177353
 33
0.0
  0
MTEXT
  5
20C5
330
20BC
100
AcDbEntity
  8
0
 62
     0
440
 16777216
100
AcDbMText
 10
428.076178409193
 20
121.0208842177353
 30
0.0
 40
0.18
 41
0.0
 46
0.0
 71
     5
 72
     1
  1
\A1;1.6000
 73
     1
 44
1.0
  0
POINT
  5
20C6
330
20BC
100
AcDbEntity
  8
Defpoints
 62
     0
440
 16777216
100
AcDbPoint
 10
427.276178409193
 20
195.312601934047
 30
0.0
  0
POINT
  5
20C7
330
20BC
100
AcDbEntity
  8
Defpoints
 62
     0
440
 16777216
100
AcDbPoint
 10
428.876178409193
 20
195.312601934047
 30
0.0
  0
POINT
  5
20C8
330
20BC
100
AcDbEntity
  8
Defpoints
 62
     0
440
 16777216
100
AcDbPoint
 10
428.876178409193
 20
121.0208842177353
 30
0.0
  0
ENDBLK
  5
20BE
330
20BC
100
AcDbEntity
  8
0
100
AcDbBlockEnd
  0
BLOCK
  5
20F4
330
20F3
100
AcDbEntity
  8
0
100
AcDbBlockBegin
  2
*D22
 70
     1
 10
0.0
 20
0.0
 30
0.0
  3
*D22
  1

  0
LINE
  5
20F6
330
20F3
100
AcDbEntity
  8
0
 62
     0
440
 16777216
370
    -2
100
AcDbLine
 10
882.3065856138398
 20
166.0954862175196
 30
0.0
 11
882.3065856138398
 21
109.2660838629647
 31
0.0
  0
LINE
  5
20F7
330
20F3
100
AcDbEntity
  8
0
 62
     0
440
 16777216
370
    -2
100
AcDbLine
 10
869.3924830497374
 20
166.0954862175196
 30
0.0
 11
869.3924830497374
 21
109.2660838629647
 31
0.0
  0
LINE
  5
20F8
330
20F3
100
AcDbEntity
  8
0
 62
     0
440
 16777216
370
    -2
100
AcDbLine
 10
882.1265856138399
 20
109.4460838629647
 30
0.0
 11
876.3895343317885
 21
109.4460838629647
 31
0.0
  0
LINE
  5
20F9
330
20F3
100
AcDbEntity
  8
0
 62
     0
440
 16777216
370
    -2
100
AcDbLine
 10
869.5724830497374
 20
109.4460838629647
 30
0.0
 11
875.3095343317886
 21
109.4460838629647
 31
0.0
  0
SOLID
  5
20FA
330
20F3
100
AcDbEntity
  8
0
 62
     0
440
 16777216
100
AcDbTrace
 10
882.1265856138399
 20
109.4760838629647
 30
0.0
 11
882.1265856138399
 21
109.4160838629647
 31
0.0
 12
882.3065856138398
 22
109.4460838629647
 32
0.0
 13
882.3065856138398
 23
109.4460838629647
 33
0.0
  0
SOLID
  5
20FB
330
20F3
100
AcDbEntity
  8
0
 62
     0
440
 16777216
100
AcDbTrace
 10
869.5724830497374
 20
109.4760838629647
 30
0.0
 11
869.5724830497374
 21
109.4160838629647
 31
0.0
 12
869.3924830497374
 22
109.4460838629647
 32
0.0
 13
869.3924830497374
 23
109.4460838629647
 33
0.0
  0
MTEXT
  5
20FC
330
20F3
100
AcDbEntity
  8
0
 62
     0
440
 16777216
100
AcDbMText
 10
875.8495343317886
 20
109.4460838629647
 30
0.0
 40
0.18
 41
0.0
 46
0.0
 71
     5
 72
     1
  1
\A1;12.9141
 73
     1
 44
1.0
  0
POINT
  5
20FD
330
20F3
100
AcDbEntity
  8
Defpoints
 62
     0
440
 16777216
100
AcDbPoint
 10
882.3065856138398
 20
166.1579862175196
 30
0.0
  0
POINT
  5
20FE
330
20F3
100
AcDbEntity
  8
Defpoints
 62
     0
440
 16777216
100
AcDbPoint
 10
869.3924830497374
 20
166.1579862175196
 30
0.0
  0
POINT
  5
20FF
330
20F3
100
AcDbEntity
  8
Defpoints
 62
     0
440
 16777216
100
AcDbPoint
 10
869.3924830497374
 20
109.4460838629647
 30
0.0
  0
ENDBLK
  5
20F5
330
20F3
100
AcDbEntity
  8
0
100
AcDbBlockEnd
  0
BLOCK
  5
212C
330
212B
100
AcDbEntity
  8
0
100
AcDbBlockBegin
  2
*D23
 70
     1
 10
0.0
 20
0.0
 30
0.0
  3
*D23
  1

  0
LINE
  5
212E
330
212B
100
AcDbEntity
  8
0
 62
     0
440
 16777216
370
    -2
100
AcDbLine
 10
1167.697856717411
 20
469.8615118585451
 30
0.0
 11
1167.697856717411
 21
487.4150737431452
 31
0.0
  0
LINE
  5
212F
330
212B
100
AcDbEntity
  8
0
 62
     0
440
 16777216
370
    -2
100
AcDbLine
 10
1194.697856717411
 20
469.8615118585451
 30
0.0
 11
1194.697856717411
 21
487.4150737431452
 31
0.0
  0
LINE
  5
2130
330
212B
100
AcDbEntity
  8
0
 62
     0
440
 16777216
370
    -2
100
AcDbLine
 10
1167.877856717411
 20
487.2350737431452
 30
0.0
 11
1180.627856717411
 21
487.2350737431452
 31
0.0
  0
LINE
  5
2131
330
212B
100
AcDbEntity
  8
0
 62
     0
440
 16777216
370
    -2
100
AcDbLine
 10
1194.517856717411
 20
487.2350737431452
 30
0.0
 11
1181.767856717411
 21
487.2350737431452
 31
0.0
  0
SOLID
  5
2132
330
212B
100
AcDbEntity
  8
0
 62
     0
440
 16777216
100
AcDbTrace
 10
1167.877856717411
 20
487.2650737431452
 30
0.0
 11
1167.877856717411
 21
487.2050737431452
 31
0.0
 12
1167.697856717411
 22
487.2350737431452
 32
0.0
 13
1167.697856717411
 23
487.2350737431452
 33
0.0
  0
SOLID
  5
2133
330
212B
100
AcDbEntity
  8
0
 62
     0
440
 16777216
100
AcDbTrace
 10
1194.517856717411
 20
487.2650737431452
 30
0.0
 11
1194.517856717411
 21
487.2050737431452
 31
0.0
 12
1194.697856717411
 22
487.2350737431452
 32
0.0
 13
1194.697856717411
 23
487.2350737431452
 33
0.0
  0
MTEXT
  5
2134
330
212B
100
AcDbEntity
  8
0
 62
     0
440
 16777216
100
AcDbMText
 10
1181.197856717411
 20
487.2350737431452
 30
0.0
 40
0.18
 41
0.0
 46
0.0
 71
     5
 72
     1
  1
\A1;27.0000
 73
     1
 44
1.0
  0
POINT
  5
2135
330
212B
100
AcDbEntity
  8
Defpoints
 62
     0
440
 16777216
100
AcDbPoint
 10
1167.697856717411
 20
469.7990118585452
 30
0.0
  0
POINT
  5
2136
330
212B
100
AcDbEntity
  8
Defpoints
 62
     0
440
 16777216
100
AcDbPoint
 10
1194.697856717411
 20
469.7990118585452
 30
0.0
  0
POINT
  5
2137
330
212B
100
AcDbEntity
  8
Defpoints
 62
     0
440
 16777216
100
AcDbPoint
 10
1194.697856717411
 20
487.2350737431452
 30
0.0
  0
ENDBLK
  5
212D
330
212B
100
AcDbEntity
  8
0
100
AcDbBlockEnd
  0
BLOCK
  5
213A
330
2139
100
AcDbEntity
  8
0
100
AcDbBlockBegin
  2
*D24
 70
     1
 10
0.0
 20
0.0
 30
0.0
  3
*D24
  1

  0
LINE
  5
213C
330
2139
100
AcDbEntity
  8
0
 62
     0
440
 16777216
370
    -2
100
AcDbLine
 10
866.388319993703
 20
447.7292030520032
 30
0.0
 11
866.388319993703
 21
415.0700194225321
 31
0.0
  0
LINE
  5
213D
330
2139
100
AcDbEntity
  8
0
 62
     0
440
 16777216
370
    -2
100
AcDbLine
 10
869.3924830497374
 20
447.7292030520032
 30
0.0
 11
869.3924830497374
 21
415.0700194225321
 31
0.0
  0
LINE
  5
213E
330
2139
100
AcDbEntity
  8
0
 62
     0
440
 16777216
370
    -2
100
AcDbLine
 10
866.568319993703
 20
415.2500194225321
 30
0.0
 11
867.3804015217202
 21
415.2500194225321
 31
0.0
  0
LINE
  5
213F
330
2139
100
AcDbEntity
  8
0
 62
     0
440
 16777216
370
    -2
100
AcDbLine
 10
869.2124830497375
 20
415.2500194225321
 30
0.0
 11
868.4004015217201
 21
415.2500194225321
 31
0.0
  0
SOLID
  5
2140
330
2139
100
AcDbEntity
  8
0
 62
     0
440
 16777216
100
AcDbTrace
 10
866.568319993703
 20
415.2800194225322
 30
0.0
 11
866.568319993703
 21
415.2200194225322
 31
0.0
 12
866.388319993703
 22
415.2500194225321
 32
0.0
 13
866.388319993703
 23
415.2500194225321
 33
0.0
  0
SOLID
  5
2141
330
2139
100
AcDbEntity
  8
0
 62
     0
440
 16777216
100
AcDbTrace
 10
869.2124830497375
 20
415.2800194225322
 30
0.0
 11
869.2124830497375
 21
415.2200194225322
 31
0.0
 12
869.3924830497374
 22
415.2500194225321
 32
0.0
 13
869.3924830497374
 23
415.2500194225321
 33
0.0
  0
MTEXT
  5
2142
330
2139
100
AcDbEntity
  8
0
 62
     0
440
 16777216
100
AcDbMText
 10
867.8904015217201
 20
415.2500194225321
 30
0.0
 40
0.18
 41
0.0
 46
0.0
 71
     5
 72
     1
  1
\A1;3.0042
 73
     1
 44
1.0
  0
POINT
  5
2143
330
2139
100
AcDbEntity
  8
Defpoints
 62
     0
440
 16777216
100
AcDbPoint
 10
866.388319993703
 20
447.7917030520033
 30
0.0
  0
POINT
  5
2144
330
2139
100
AcDbEntity
  8
Defpoints
 62
     0
440
 16777216
100
AcDbPoint
 10
869.3924830497374
 20
447.7917030520033
 30
0.0
  0
POINT
  5
2145
330
2139
100
AcDbEntity
  8
Defpoints
 62
     0
440
 16777216
100
AcDbPoint
 10
869.3924830497374
 20
415.2500194225321
 30
0.0
  0
ENDBLK
  5
213B
330
2139
100
AcDbEntity
  8
0
100
AcDbBlockEnd
  0
BLOCK
  5
2149
330
2148
100
AcDbEntity
  8
0
100
AcDbBlockBegin
  2
*D25
 70
     1
 10
0.0
 20
0.0
 30
0.0
  3
*D25
  1

  0
LINE
  5
214B
330
2148
100
AcDbEntity
  8
0
 62
     0
440
 16777216
370
    -2
100
AcDbLine
 10
1296.197856717411
 20
502.8615118585453
 30
0.0
 11
1296.197856717411
 21
544.8195848787332
 31
0.0
  0
LINE
  5
214C
330
2148
100
AcDbEntity
  8
0
 62
     0
440
 16777216
370
    -2
100
AcDbLine
 10
1181.197856717411
 20
467.4372477898332
 30
0.0
 11
1181.197856717411
 21
544.8195848787333
 31
0.0
  0
LINE
  5
214D
330
2148
100
AcDbEntity
  8
0
 62
     0
440
 16777216
370
    -2
100
AcDbLine
 10
1296.017856717411
 20
544.6395848787333
 30
0.0
 11
1239.297856717411
 21
544.6395848787333
 31
0.0
  0
LINE
  5
214E
330
2148
100
AcDbEntity
  8
0
 62
     0
440
 16777216
370
    -2
100
AcDbLine
 10
1181.377856717411
 20
544.6395848787333
 30
0.0
 11
1238.097856717411
 21
544.6395848787333
 31
0.0
  0
SOLID
  5
214F
330
2148
100
AcDbEntity
  8
0
 62
     0
440
 16777216
100
AcDbTrace
 10
1296.017856717411
 20
544.6695848787332
 30
0.0
 11
1296.017856717411
 21
544.6095848787333
 31
0.0
 12
1296.197856717411
 22
544.6395848787333
 32
0.0
 13
1296.197856717411
 23
544.6395848787333
 33
0.0
  0
SOLID
  5
2150
330
2148
100
AcDbEntity
  8
0
 62
     0
440
 16777216
100
AcDbTrace
 10
1181.377856717411
 20
544.6695848787332
 30
0.0
 11
1181.377856717411
 21
544.6095848787333
 31
0.0
 12
1181.197856717411
 22
544.6395848787333
 32
0.0
 13
1181.197856717411
 23
544.6395848787333
 33
0.0
  0
MTEXT
  5
2151
330
2148
100
AcDbEntity
  8
0
 62
     0
440
 16777216
100
AcDbMText
 10
1238.697856717411
 20
544.6395848787333
 30
0.0
 40
0.18
 41
0.0
 46
0.0
 71
     5
 72
     1
  1
\A1;115.0000
 73
     1
 44
1.0
  0
POINT
  5
2152
330
2148
100
AcDbEntity
  8
Defpoints
 62
     0
440
 16777216
100
AcDbPoint
 10
1296.197856717411
 20
502.7990118585453
 30
0.0
  0
POINT
  5
2153
330
2148
100
AcDbEntity
  8
Defpoints
 62
     0
440
 16777216
100
AcDbPoint
 10
1181.197856717411
 20
467.3747477898332
 30
0.0
  0
POINT
  5
2154
330
2148
100
AcDbEntity
  8
Defpoints
 62
     0
440
 16777216
100
AcDbPoint
 10
1181.197856717411
 20
544.6395848787333
 30
0.0
  0
ENDBLK
  5
214A
330
2148
100
AcDbEntity
  8
0
100
AcDbBlockEnd
  0
BLOCK
  5
27E9
330
27E8
100
AcDbEntity
  8
0
100
AcDbBlockBegin
  2
*D27
 70
     1
 10
0.0
 20
0.0
 30
0.0
  3
*D27
  1

  0
LINE
  5
27EB
330
27E8
100
AcDbEntity
  8
0
 62
     0
440
 16777216
370
    -2
100
AcDbLine
 10
1148.312193357678
 20
423.4947680885687
 30
0.0
 11
1148.312193357678
 21
394.0395660055713
 31
0.0
  0
LINE
  5
27EC
330
27E8
100
AcDbEntity
  8
0
 62
     0
440
 16777216
370
    -2
100
AcDbLine
 10
1355.312193357679
 20
421.9947680885688
 30
0.0
 11
1355.312193357679
 21
394.0395660055713
 31
0.0
  0
LINE
  5
27ED
330
27E8
100
AcDbEntity
  8
0
 62
     0
440
 16777216
370
    -2
100
AcDbLine
 10
1148.492193357678
 20
394.2195660055713
 30
0.0
 11
1251.167193357678
 21
394.2195660055713
 31
0.0
  0
LINE
  5
27EE
330
27E8
100
AcDbEntity
  8
0
 62
     0
440
 16777216
370
    -2
100
AcDbLine
 10
1355.132193357679
 20
394.2195660055713
 30
0.0
 11
1252.457193357678
 21
394.2195660055713
 31
0.0
  0
SOLID
  5
27EF
330
27E8
100
AcDbEntity
  8
0
 62
     0
440
 16777216
100
AcDbTrace
 10
1148.492193357678
 20
394.2495660055713
 30
0.0
 11
1148.492193357678
 21
394.1895660055714
 31
0.0
 12
1148.312193357678
 22
394.2195660055713
 32
0.0
 13
1148.312193357678
 23
394.2195660055713
 33
0.0
  0
SOLID
  5
27F0
330
27E8
100
AcDbEntity
  8
0
 62
     0
440
 16777216
100
AcDbTrace
 10
1355.132193357679
 20
394.2495660055713
 30
0.0
 11
1355.132193357679
 21
394.1895660055714
 31
0.0
 12
1355.312193357679
 22
394.2195660055713
 32
0.0
 13
1355.312193357679
 23
394.2195660055713
 33
0.0
  0
MTEXT
  5
27F1
330
27E8
100
AcDbEntity
  8
0
 62
     0
440
 16777216
100
AcDbMText
 10
1251.812193357678
 20
394.2195660055713
 30
0.0
 40
0.18
 41
0.0
 46
0.0
 71
     5
 72
     1
  1
\A1;207.0000
 73
     1
 44
1.0
  0
POINT
  5
27F2
330
27E8
100
AcDbEntity
  8
Defpoints
 62
     0
440
 16777216
100
AcDbPoint
 10
1148.312193357678
 20
423.5572680885686
 30
0.0
  0
POINT
  5
27F3
330
27E8
100
AcDbEntity
  8
Defpoints
 62
     0
440
 16777216
100
AcDbPoint
 10
1355.312193357679
 20
422.0572680885688
 30
0.0
  0
POINT
  5
27F4
330
27E8
100
AcDbEntity
  8
Defpoints
 62
     0
440
 16777216
100
AcDbPoint
 10
1355.312193357679
 20
394.2195660055713
 30
0.0
  0
ENDBLK
  5
27EA
330
27E8
100
AcDbEntity
  8
0
100
AcDbBlockEnd
  0
BLOCK
  5
27F8
330
27F7
100
AcDbEntity
  8
0
100
AcDbBlockBegin
  2
*D28
 70
     1
 10
0.0
 20
0.0
 30
0.0
  3
*D28
  1

  0
LINE
  5
27FA
330
27F7
100
AcDbEntity
  8
0
 62
     0
440
 16777216
370
    -2
100
AcDbLine
 10
1052.388932243386
 20
269.0379355713985
 30
0.0
 11
1052.388932243386
 21
196.2205942543472
 31
0.0
  0
LINE
  5
27FB
330
27F7
100
AcDbEntity
  8
0
 62
     0
440
 16777216
370
    -2
100
AcDbLine
 10
1053.988932243386
 20
269.0379355713985
 30
0.0
 11
1053.988932243386
 21
196.2205942543472
 31
0.0
  0
LINE
  5
27FC
330
27F7
100
AcDbEntity
  8
0
 62
     0
440
 16777216
370
    -2
100
AcDbLine
 10
1052.568932243386
 20
196.4005942543472
 30
0.0
 11
1052.723932243386
 21
196.4005942543472
 31
0.0
  0
LINE
  5
27FD
330
27F7
100
AcDbEntity
  8
0
 62
     0
440
 16777216
370
    -2
100
AcDbLine
 10
1053.808932243386
 20
196.4005942543472
 30
0.0
 11
1053.653932243386
 21
196.4005942543472
 31
0.0
  0
SOLID
  5
27FE
330
27F7
100
AcDbEntity
  8
0
 62
     0
440
 16777216
100
AcDbTrace
 10
1052.568932243386
 20
196.4305942543472
 30
0.0
 11
1052.568932243386
 21
196.3705942543472
 31
0.0
 12
1052.388932243386
 22
196.4005942543472
 32
0.0
 13
1052.388932243386
 23
196.4005942543472
 33
0.0
  0
SOLID
  5
27FF
330
27F7
100
AcDbEntity
  8
0
 62
     0
440
 16777216
100
AcDbTrace
 10
1053.808932243386
 20
196.4305942543472
 30
0.0
 11
1053.808932243386
 21
196.3705942543472
 31
0.0
 12
1053.988932243386
 22
196.4005942543472
 32
0.0
 13
1053.988932243386
 23
196.4005942543472
 33
0.0
  0
MTEXT
  5
2800
330
27F7
100
AcDbEntity
  8
0
 62
     0
440
 16777216
100
AcDbMText
 10
1053.188932243386
 20
196.4005942543472
 30
0.0
 40
0.18
 41
0.0
 46
0.0
 71
     5
 72
     1
  1
\A1;1.6000
 73
     1
 44
1.0
  0
POINT
  5
2801
330
27F7
100
AcDbEntity
  8
Defpoints
 62
     0
440
 16777216
100
AcDbPoint
 10
1052.388932243386
 20
269.1004355713985
 30
0.0
  0
POINT
  5
2802
330
27F7
100
AcDbEntity
  8
Defpoints
 62
     0
440
 16777216
100
AcDbPoint
 10
1053.988932243386
 20
269.1004355713985
 30
0.0
  0
POINT
  5
2803
330
27F7
100
AcDbEntity
  8
Defpoints
 62
     0
440
 16777216
100
AcDbPoint
 10
1053.988932243386
 20
196.4005942543472
 30
0.0
  0
ENDBLK
  5
27F9
330
27F7
100
AcDbEntity
  8
0
100
AcDbBlockEnd
  0
BLOCK
  5
2807
330
2806
100
AcDbEntity
  8
0
100
AcDbBlockBegin
  2
*D29
 70
     1
 10
0.0
 20
0.0
 30
0.0
  3
*D29
  1

  0
LINE
  5
2809
330
2806
100
AcDbEntity
  8
0
 62
     0
440
 16777216
370
    -2
100
AcDbLine
 10
1528.414642119927
 20
538.4947680885687
 30
0.0
 11
1528.414642119927
 21
480.6588638800606
 31
0.0
  0
LINE
  5
280A
330
2806
100
AcDbEntity
  8
0
 62
     0
440
 16777216
370
    -2
100
AcDbLine
 10
1486.614642119926
 20
538.4947680885687
 30
0.0
 11
1486.614642119926
 21
480.6588638800606
 31
0.0
  0
LINE
  5
280B
330
2806
100
AcDbEntity
  8
0
 62
     0
440
 16777216
370
    -2
100
AcDbLine
 10
1528.234642119927
 20
480.8388638800606
 30
0.0
 11
1508.069642119927
 21
480.8388638800606
 31
0.0
  0
LINE
  5
280C
330
2806
100
AcDbEntity
  8
0
 62
     0
440
 16777216
370
    -2
100
AcDbLine
 10
1486.794642119926
 20
480.8388638800606
 30
0.0
 11
1506.959642119926
 21
480.8388638800606
 31
0.0
  0
SOLID
  5
280D
330
2806
100
AcDbEntity
  8
0
 62
     0
440
 16777216
100
AcDbTrace
 10
1528.234642119927
 20
480.8688638800606
 30
0.0
 11
1528.234642119927
 21
480.8088638800606
 31
0.0
 12
1528.414642119927
 22
480.8388638800606
 32
0.0
 13
1528.414642119927
 23
480.8388638800606
 33
0.0
  0
SOLID
  5
280E
330
2806
100
AcDbEntity
  8
0
 62
     0
440
 16777216
100
AcDbTrace
 10
1486.794642119926
 20
480.8688638800606
 30
0.0
 11
1486.794642119926
 21
480.8088638800606
 31
0.0
 12
1486.614642119926
 22
480.8388638800606
 32
0.0
 13
1486.614642119926
 23
480.8388638800606
 33
0.0
  0
MTEXT
  5
280F
330
2806
100
AcDbEntity
  8
0
 62
     0
440
 16777216
100
AcDbMText
 10
1507.514642119927
 20
480.8388638800606
 30
0.0
 40
0.18
 41
0.0
 46
0.0
 71
     5
 72
     1
  1
\A1;41.8000
 73
     1
 44
1.0
  0
POINT
  5
2810
330
2806
100
AcDbEntity
  8
Defpoints
 62
     0
440
 16777216
100
AcDbPoint
 10
1528.414642119927
 20
538.5572680885688
 30
0.0
  0
POINT
  5
2811
330
2806
100
AcDbEntity
  8
Defpoints
 62
     0
440
 16777216
100
AcDbPoint
 10
1486.614642119926
 20
538.5572680885688
 30
0.0
  0
POINT
  5
2812
330
2806
100
AcDbEntity
  8
Defpoints
 62
     0
440
 16777216
100
AcDbPoint
 10
1486.614642119926
 20
480.8388638800606
 30
0.0
  0
ENDBLK
  5
2808
330
2806
100
AcDbEntity
  8
0
100
AcDbBlockEnd
  0
BLOCK
  5
2818
330
2817
100
AcDbEntity
  8
0
100
AcDbBlockBegin
  2
*D30
 70
     1
 10
0.0
 20
0.0
 30
0.0
  3
*D30
  1

  0
LINE
  5
281A
330
2817
100
AcDbEntity
  8
0
 62
     0
440
 16777216
370
    -2
100
AcDbLine
 10
770.3889322433861
 20
393.1342113351129
 30
0.0
 11
770.3889322433861
 21
349.7458961147152
 31
0.0
  0
LINE
  5
281B
330
2817
100
AcDbEntity
  8
0
 62
     0
440
 16777216
370
    -2
100
AcDbLine
 10
1053.988932243386
 20
393.1342113351129
 30
0.0
 11
1053.988932243386
 21
349.7458961147152
 31
0.0
  0
LINE
  5
281C
330
2817
100
AcDbEntity
  8
0
 62
     0
440
 16777216
370
    -2
100
AcDbLine
 10
770.568932243386
 20
349.9258961147152
 30
0.0
 11
911.513932243386
 21
349.9258961147152
 31
0.0
  0
LINE
  5
281D
330
2817
100
AcDbEntity
  8
0
 62
     0
440
 16777216
370
    -2
100
AcDbLine
 10
1053.808932243386
 20
349.9258961147152
 30
0.0
 11
912.863932243386
 21
349.9258961147152
 31
0.0
  0
SOLID
  5
281E
330
2817
100
AcDbEntity
  8
0
 62
     0
440
 16777216
100
AcDbTrace
 10
770.568932243386
 20
349.9558961147152
 30
0.0
 11
770.568932243386
 21
349.8958961147152
 31
0.0
 12
770.3889322433861
 22
349.9258961147152
 32
0.0
 13
770.3889322433861
 23
349.9258961147152
 33
0.0
  0
SOLID
  5
281F
330
2817
100
AcDbEntity
  8
0
 62
     0
440
 16777216
100
AcDbTrace
 10
1053.808932243386
 20
349.9558961147152
 30
0.0
 11
1053.808932243386
 21
349.8958961147152
 31
0.0
 12
1053.988932243386
 22
349.9258961147152
 32
0.0
 13
1053.988932243386
 23
349.9258961147152
 33
0.0
  0
MTEXT
  5
2820
330
2817
100
AcDbEntity
  8
0
 62
     0
440
 16777216
100
AcDbMText
 10
912.188932243386
 20
349.9258961147152
 30
0.0
 40
0.18
 41
0.0
 46
0.0
 71
     5
 72
     1
  1
\A1;283.6000
 73
     1
 44
1.0
  0
POINT
  5
2821
330
2817
100
AcDbEntity
  8
Defpoints
 62
     0
440
 16777216
100
AcDbPoint
 10
770.3889322433861
 20
393.1967113351129
 30
0.0
  0
POINT
  5
2822
330
2817
100
AcDbEntity
  8
Defpoints
 62
     0
440
 16777216
100
AcDbPoint
 10
1053.988932243386
 20
393.1967113351129
 30
0.0
  0
POINT
  5
2823
330
2817
100
AcDbEntity
  8
Defpoints
 62
     0
440
 16777216
100
AcDbPoint
 10
1053.988932243386
 20
349.9258961147152
 30
0.0
  0
ENDBLK
  5
2819
330
2817
100
AcDbEntity
  8
0
100
AcDbBlockEnd
  0
BLOCK
  5
2826
330
2825
100
AcDbEntity
  8
0
100
AcDbBlockBegin
  2
*D31
 70
     1
 10
0.0
 20
0.0
 30
0.0
  3
*D31
  1

  0
LINE
  5
2828
330
2825
100
AcDbEntity
  8
0
 62
     0
440
 16777216
370
    -2
100
AcDbLine
 10
1148.312193357678
 20
607.3493132507119
 30
0.0
 11
1148.312193357678
 21
654.6500534787806
 31
0.0
  0
LINE
  5
2829
330
2825
100
AcDbEntity
  8
0
 62
     0
440
 16777216
370
    -2
100
AcDbLine
 10
1355.312193357679
 20
607.3493132507119
 30
0.0
 11
1355.312193357679
 21
654.6500534787806
 31
0.0
  0
LINE
  5
282A
330
2825
100
AcDbEntity
  8
0
 62
     0
440
 16777216
370
    -2
100
AcDbLine
 10
1148.492193357678
 20
654.4700534787807
 30
0.0
 11
1251.167193357678
 21
654.4700534787807
 31
0.0
  0
LINE
  5
282B
330
2825
100
AcDbEntity
  8
0
 62
     0
440
 16777216
370
    -2
100
AcDbLine
 10
1355.132193357679
 20
654.4700534787807
 30
0.0
 11
1252.457193357678
 21
654.4700534787807
 31
0.0
  0
SOLID
  5
282C
330
2825
100
AcDbEntity
  8
0
 62
     0
440
 16777216
100
AcDbTrace
 10
1148.492193357678
 20
654.5000534787807
 30
0.0
 11
1148.492193357678
 21
654.4400534787808
 31
0.0
 12
1148.312193357678
 22
654.4700534787807
 32
0.0
 13
1148.312193357678
 23
654.4700534787807
 33
0.0
  0
SOLID
  5
282D
330
2825
100
AcDbEntity
  8
0
 62
     0
440
 16777216
100
AcDbTrace
 10
1355.132193357679
 20
654.5000534787807
 30
0.0
 11
1355.132193357679
 21
654.4400534787808
 31
0.0
 12
1355.312193357679
 22
654.4700534787807
 32
0.0
 13
1355.312193357679
 23
654.4700534787807
 33
0.0
  0
MTEXT
  5
282E
330
2825
100
AcDbEntity
  8
0
 62
     0
440
 16777216
100
AcDbMText
 10
1251.812193357678
 20
654.4700534787807
 30
0.0
 40
0.18
 41
0.0
 46
0.0
 71
     5
 72
     1
  1
\A1;207.0000
 73
     1
 44
1.0
  0
POINT
  5
282F
330
2825
100
AcDbEntity
  8
Defpoints
 62
     0
440
 16777216
100
AcDbPoint
 10
1148.312193357678
 20
607.2868132507119
 30
0.0
  0
POINT
  5
2830
330
2825
100
AcDbEntity
  8
Defpoints
 62
     0
440
 16777216
100
AcDbPoint
 10
1355.312193357679
 20
607.2868132507119
 30
0.0
  0
POINT
  5
2831
330
2825
100
AcDbEntity
  8
Defpoints
 62
     0
440
 16777216
100
AcDbPoint
 10
1355.312193357679
 20
654.4700534787807
 30
0.0
  0
ENDBLK
  5
2827
330
2825
100
AcDbEntity
  8
0
100
AcDbBlockEnd
  0
BLOCK
  5
2876
330
2875
100
AcDbEntity
  8
0
100
AcDbBlockBegin
  2
*D32
 70
     1
 10
0.0
 20
0.0
 30
0.0
  3
*D32
  1

  0
LINE
  5
28B4
330
2875
100
AcDbEntity
  8
0
 62
     0
440
 16777216
370
    -2
100
AcDbLine
 10
1528.414642119927
 20
578.0705040198568
 30
0.0
 11
1528.414642119927
 21
62.53914717430814
 31
0.0
  0
LINE
  5
28B5
330
2875
100
AcDbEntity
  8
0
 62
     0
440
 16777216
370
    -2
100
AcDbLine
 10
1486.614642119926
 20
578.0705040198568
 30
0.0
 11
1486.614642119926
 21
62.53914717430814
 31
0.0
  0
LINE
  5
28B6
330
2875
100
AcDbEntity
  8
0
 62
     0
440
 16777216
370
    -2
100
AcDbLine
 10
1520.414642119927
 20
62.71914717430809
 30
0.0
 11
1494.614642119926
 21
62.71914717430809
 31
0.0
  0
LINE
  5
28B7
330
2875
100
AcDbEntity
  8
0
 62
     0
440
 16777216
370
    -2
100
AcDbLine
 10
1486.614642119926
 20
62.71914717430809
 30
0.0
 11
1478.614642119926
 21
62.71914717430809
 31
0.0
  0
SOLID
  5
28B8
330
2875
100
AcDbEntity
  8
0
 62
     0
440
 16777216
100
AcDbTrace
 10
1520.414642119927
 20
64.05248050764142
 30
0.0
 11
1520.414642119927
 21
61.38581384097475
 31
0.0
 12
1528.414642119927
 22
62.71914717430809
 32
0.0
 13
1528.414642119927
 23
62.71914717430809
 33
0.0
  0
SOLID
  5
28B9
330
2875
100
AcDbEntity
  8
0
 62
     0
440
 16777216
100
AcDbTrace
 10
1494.614642119926
 20
64.05248050764142
 30
0.0
 11
1494.614642119926
 21
61.38581384097475
 31
0.0
 12
1486.614642119926
 22
62.71914717430809
 32
0.0
 13
1486.614642119926
 23
62.71914717430809
 33
0.0
  0
MTEXT
  5
28BA
330
2875
100
AcDbEntity
  8
0
 62
     0
440
 16777216
100
AcDbMText
 10
1466.947975453259
 20
62.71914717430809
 30
0.0
 40
8.0
 41
0.0
 46
0.0
 71
     5
 72
     1
  1
\A1;42
 73
     1
 44
1.0
  0
POINT
  5
28BB
330
2875
100
AcDbEntity
  8
Defpoints
 62
     0
440
 16777216
100
AcDbPoint
 10
1528.414642119927
 20
578.1330040198567
 30
0.0
  0
POINT
  5
28BC
330
2875
100
AcDbEntity
  8
Defpoints
 62
     0
440
 16777216
100
AcDbPoint
 10
1486.614642119926
 20
578.1330040198567
 30
0.0
  0
POINT
  5
28BD
330
2875
100
AcDbEntity
  8
Defpoints
 62
     0
440
 16777216
100
AcDbPoint
 10
1486.614642119926
 20
62.71914717430809
 30
0.0
  0
ENDBLK
  5
2877
330
2875
100
AcDbEntity
  8
0
100
AcDbBlockEnd
  0
BLOCK
  5
28C0
330
28BF
100
AcDbEntity
  8
0
100
AcDbBlockBegin
  2
*D33
 70
     1
 10
0.0
 20
0.0
 30
0.0
  3
*D33
  1

  0
LINE
  5
28E4
330
28BF
100
AcDbEntity
  8
0
 62
     0
440
 16777216
370
    -2
100
AcDbLine
 10
1575.414642119927
 20
283.4947680885688
 30
0.0
 11
1575.414642119927
 21
113.7403273336852
 31
0.0
  0
LINE
  5
28E5
330
28BF
100
AcDbEntity
  8
0
 62
     0
440
 16777216
370
    -2
100
AcDbLine
 10
1528.414642119927
 20
283.4947680885688
 30
0.0
 11
1528.414642119927
 21
113.7403273336852
 31
0.0
  0
LINE
  5
28E6
330
28BF
100
AcDbEntity
  8
0
 62
     0
440
 16777216
370
    -2
100
AcDbLine
 10
1567.414642119927
 20
113.9203273336852
 30
0.0
 11
1536.414642119927
 21
113.9203273336852
 31
0.0
  0
LINE
  5
28E7
330
28BF
100
AcDbEntity
  8
0
 62
     0
440
 16777216
370
    -2
100
AcDbLine
 10
1528.414642119927
 20
113.9203273336852
 30
0.0
 11
1520.414642119927
 21
113.9203273336852
 31
0.0
  0
SOLID
  5
28E8
330
28BF
100
AcDbEntity
  8
0
 62
     0
440
 16777216
100
AcDbTrace
 10
1567.414642119927
 20
115.2536606670185
 30
0.0
 11
1567.414642119927
 21
112.5869940003519
 31
0.0
 12
1575.414642119927
 22
113.9203273336852
 32
0.0
 13
1575.414642119927
 23
113.9203273336852
 33
0.0
  0
SOLID
  5
28E9
330
28BF
100
AcDbEntity
  8
0
 62
     0
440
 16777216
100
AcDbTrace
 10
1536.414642119927
 20
115.2536606670185
 30
0.0
 11
1536.414642119927
 21
112.5869940003519
 31
0.0
 12
1528.414642119927
 22
113.9203273336852
 32
0.0
 13
1528.414642119927
 23
113.9203273336852
 33
0.0
  0
MTEXT
  5
28EA
330
28BF
100
AcDbEntity
  8
0
 62
     0
440
 16777216
100
AcDbMText
 10
1508.74797545326
 20
113.9203273336852
 30
0.0
 40
8.0
 41
0.0
 46
0.0
 71
     5
 72
     1
  1
\A1;47
 73
     1
 44
1.0
  0
POINT
  5
28EB
330
28BF
100
AcDbEntity
  8
Defpoints
 62
     0
440
 16777216
100
AcDbPoint
 10
1575.414642119927
 20
283.5572680885688
 30
0.0
  0
POINT
  5
28EC
330
28BF
100
AcDbEntity
  8
Defpoints
 62
     0
440
 16777216
100
AcDbPoint
 10
1528.414642119927
 20
283.5572680885688
 30
0.0
  0
POINT
  5
28ED
330
28BF
100
AcDbEntity
  8
Defpoints
 62
     0
440
 16777216
100
AcDbPoint
 10
1528.414642119927
 20
113.9203273336852
 30
0.0
  0
ENDBLK
  5
28C1
330
28BF
100
AcDbEntity
  8
0
100
AcDbBlockEnd
  0
BLOCK
  5
28CE
330
28CD
100
AcDbEntity
  8
0
100
AcDbBlockBegin
  2
*D34
 70
     1
 10
0.0
 20
0.0
 30
0.0
  3
*D34
  1

  0
LINE
  5
28DA
330
28CD
100
AcDbEntity
  8
0
 62
     0
440
 16777216
370
    -2
100
AcDbLine
 10
1575.414642119927
 20
283.4322680885687
 30
0.0
 11
1575.414642119927
 21
130.1621004963138
 31
0.0
  0
LINE
  5
28DB
330
28CD
100
AcDbEntity
  8
0
 62
     0
440
 16777216
370
    -2
100
AcDbLine
 10
1707.414642119927
 20
283.4947680885688
 30
0.0
 11
1707.414642119927
 21
130.1621004963138
 31
0.0
  0
LINE
  5
28DC
330
28CD
100
AcDbEntity
  8
0
 62
     0
440
 16777216
370
    -2
100
AcDbLine
 10
1583.414642119927
 20
130.3421004963138
 30
0.0
 11
1627.081308786594
 21
130.3421004963138
 31
0.0
  0
LINE
  5
28DD
330
28CD
100
AcDbEntity
  8
0
 62
     0
440
 16777216
370
    -2
100
AcDbLine
 10
1699.414642119927
 20
130.3421004963138
 30
0.0
 11
1655.74797545326
 21
130.3421004963138
 31
0.0
  0
SOLID
  5
28DE
330
28CD
100
AcDbEntity
  8
0
 62
     0
440
 16777216
100
AcDbTrace
 10
1583.414642119927
 20
131.6754338296471
 30
0.0
 11
1583.414642119927
 21
129.0087671629805
 31
0.0
 12
1575.414642119927
 22
130.3421004963138
 32
0.0
 13
1575.414642119927
 23
130.3421004963138
 33
0.0
  0
SOLID
  5
28DF
330
28CD
100
AcDbEntity
  8
0
 62
     0
440
 16777216
100
AcDbTrace
 10
1699.414642119927
 20
131.6754338296471
 30
0.0
 11
1699.414642119927
 21
129.0087671629805
 31
0.0
 12
1707.414642119927
 22
130.3421004963138
 32
0.0
 13
1707.414642119927
 23
130.3421004963138
 33
0.0
  0
MTEXT
  5
28E0
330
28CD
100
AcDbEntity
  8
0
 62
     0
440
 16777216
100
AcDbMText
 10
1641.414642119927
 20
130.3421004963138
 30
0.0
 40
8.0
 41
0.0
 46
0.0
 71
     5
 72
     1
  1
\A1;132
 73
     1
 44
1.0
  0
POINT
  5
28E1
330
28CD
100
AcDbEntity
  8
Defpoints
 62
     0
440
 16777216
100
AcDbPoint
 10
1575.414642119927
 20
283.4947680885688
 30
0.0
  0
POINT
  5
28E2
330
28CD
100
AcDbEntity
  8
Defpoints
 62
     0
440
 16777216
100
AcDbPoint
 10
1707.414642119927
 20
283.5572680885688
 30
0.0
  0
POINT
  5
28E3
330
28CD
100
AcDbEntity
  8
Defpoints
 62
     0
440
 16777216
100
AcDbPoint
 10
1707.414642119927
 20
130.3421004963138
 30
0.0
  0
ENDBLK
  5
28CF
330
28CD
100
AcDbEntity
  8
0
100
AcDbBlockEnd
  0
BLOCK
  5
28F2
330
28F1
100
AcDbEntity
  8
0
100
AcDbBlockBegin
  2
*D35
 70
     1
 10
0.0
 20
0.0
 30
0.0
  3
*D35
  1

  0
LINE
  5
28F4
330
28F1
100
AcDbEntity
  8
0
 62
     0
440
 16777216
370
    -2
100
AcDbLine
 10
811.9889322433861
 20
152.4307962161865
 30
0.0
 11
811.9889322433861
 21
183.6904023219137
 31
0.0
  0
LINE
  5
28F5
330
28F1
100
AcDbEntity
  8
0
 62
     0
440
 16777216
370
    -2
100
AcDbLine
 10
858.9889322433862
 20
152.4307962161865
 30
0.0
 11
858.9889322433862
 21
183.6904023219137
 31
0.0
  0
LINE
  5
28F6
330
28F1
100
AcDbEntity
  8
0
 62
     0
440
 16777216
370
    -2
100
AcDbLine
 10
812.1689322433862
 20
183.5104023219137
 30
0.0
 11
834.9189322433861
 21
183.5104023219137
 31
0.0
  0
LINE
  5
28F7
330
28F1
100
AcDbEntity
  8
0
 62
     0
440
 16777216
370
    -2
100
AcDbLine
 10
858.8089322433862
 20
183.5104023219137
 30
0.0
 11
836.0589322433863
 21
183.5104023219137
 31
0.0
  0
SOLID
  5
28F8
330
28F1
100
AcDbEntity
  8
0
 62
     0
440
 16777216
100
AcDbTrace
 10
812.1689322433862
 20
183.5404023219137
 30
0.0
 11
812.1689322433862
 21
183.4804023219137
 31
0.0
 12
811.9889322433861
 22
183.5104023219137
 32
0.0
 13
811.9889322433861
 23
183.5104023219137
 33
0.0
  0
SOLID
  5
28F9
330
28F1
100
AcDbEntity
  8
0
 62
     0
440
 16777216
100
AcDbTrace
 10
858.8089322433862
 20
183.5404023219137
 30
0.0
 11
858.8089322433862
 21
183.4804023219137
 31
0.0
 12
858.9889322433862
 22
183.5104023219137
 32
0.0
 13
858.9889322433862
 23
183.5104023219137
 33
0.0
  0
MTEXT
  5
28FA
330
28F1
100
AcDbEntity
  8
0
 62
     0
440
 16777216
100
AcDbMText
 10
835.4889322433862
 20
183.5104023219137
 30
0.0
 40
0.18
 41
0.0
 46
0.0
 71
     5
 72
     1
  1
\A1;47.0000
 73
     1
 44
1.0
  0
POINT
  5
28FB
330
28F1
100
AcDbEntity
  8
Defpoints
 62
     0
440
 16777216
100
AcDbPoint
 10
811.9889322433861
 20
152.3682962161865
 30
0.0
  0
POINT
  5
28FC
330
28F1
100
AcDbEntity
  8
Defpoints
 62
     0
440
 16777216
100
AcDbPoint
 10
858.9889322433862
 20
152.3682962161865
 30
0.0
  0
POINT
  5
28FD
330
28F1
100
AcDbEntity
  8
Defpoints
 62
     0
440
 16777216
100
AcDbPoint
 10
858.9889322433862
 20
183.5104023219137
 30
0.0
  0
ENDBLK
  5
28F3
330
28F1
100
AcDbEntity
  8
0
100
AcDbBlockEnd
  0
BLOCK
  5
2900
330
28FF
100
AcDbEntity
  8
0
100
AcDbBlockBegin
  2
*D36
 70
     1
 10
0.0
 20
0.0
 30
0.0
  3
*D36
  1

  0
LINE
  5
2902
330
28FF
100
AcDbEntity
  8
0
 62
     0
440
 16777216
370
    -2
100
AcDbLine
 10
1728.414642119927
 20
538.4947680885687
 30
0.0
 11
1728.414642119927
 21
104.6668236125554
 31
0.0
  0
LINE
  5
2903
330
28FF
100
AcDbEntity
  8
0
 62
     0
440
 16777216
370
    -2
100
AcDbLine
 10
1707.414642119927
 20
323.0705040198568
 30
0.0
 11
1707.414642119927
 21
104.6668236125554
 31
0.0
  0
LINE
  5
2904
330
28FF
100
AcDbEntity
  8
0
 62
     0
440
 16777216
370
    -2
100
AcDbLine
 10
1728.234642119927
 20
104.8468236125554
 30
0.0
 11
1718.454642119927
 21
104.8468236125554
 31
0.0
  0
LINE
  5
2905
330
28FF
100
AcDbEntity
  8
0
 62
     0
440
 16777216
370
    -2
100
AcDbLine
 10
1707.594642119927
 20
104.8468236125554
 30
0.0
 11
1717.374642119927
 21
104.8468236125554
 31
0.0
  0
SOLID
  5
2906
330
28FF
100
AcDbEntity
  8
0
 62
     0
440
 16777216
100
AcDbTrace
 10
1728.234642119927
 20
104.8768236125554
 30
0.0
 11
1728.234642119927
 21
104.8168236125554
 31
0.0
 12
1728.414642119927
 22
104.8468236125554
 32
0.0
 13
1728.414642119927
 23
104.8468236125554
 33
0.0
  0
SOLID
  5
2907
330
28FF
100
AcDbEntity
  8
0
 62
     0
440
 16777216
100
AcDbTrace
 10
1707.594642119927
 20
104.8768236125554
 30
0.0
 11
1707.594642119927
 21
104.8168236125554
 31
0.0
 12
1707.414642119927
 22
104.8468236125554
 32
0.0
 13
1707.414642119927
 23
104.8468236125554
 33
0.0
  0
MTEXT
  5
2908
330
28FF
100
AcDbEntity
  8
0
 62
     0
440
 16777216
100
AcDbMText
 10
1717.914642119927
 20
104.8468236125554
 30
0.0
 40
0.18
 41
0.0
 46
0.0
 71
     5
 72
     1
  1
\A1;21.0000
 73
     1
 44
1.0
  0
POINT
  5
2909
330
28FF
100
AcDbEntity
  8
Defpoints
 62
     0
440
 16777216
100
AcDbPoint
 10
1728.414642119927
 20
538.5572680885688
 30
0.0
  0
POINT
  5
290A
330
28FF
100
AcDbEntity
  8
Defpoints
 62
     0
440
 16777216
100
AcDbPoint
 10
1707.414642119927
 20
323.1330040198569
 30
0.0
  0
POINT
  5
290B
330
28FF
100
AcDbEntity
  8
Defpoints
 62
     0
440
 16777216
100
AcDbPoint
 10
1707.414642119927
 20
104.8468236125554
 30
0.0
  0
ENDBLK
  5
2901
330
28FF
100
AcDbEntity
  8
0
100
AcDbBlockEnd
  0
BLOCK
  5
2E8C
330
2E8B
100
AcDbEntity
  8
0
100
AcDbBlockBegin
  2
*D38
 70
     1
 10
0.0
 20
0.0
 30
0.0
  3
*D38
  1

  0
LINE
  5
2E8E
330
2E8B
100
AcDbEntity
  8
0
 62
     0
440
 16777216
370
    -2
100
AcDbLine
 10
784.351665222138
 20
623.1532601791315
 30
0.0
 11
784.351665222138
 21
806.7044384994085
 31
0.0
  0
LINE
  5
2E8F
330
2E8B
100
AcDbEntity
  8
0
 62
     0
440
 16777216
370
    -2
100
AcDbLine
 10
1044.351665222138
 20
623.1532601791315
 30
0.0
 11
1044.351665222138
 21
806.7044384994085
 31
0.0
  0
LINE
  5
2E90
330
2E8B
100
AcDbEntity
  8
0
 62
     0
440
 16777216
370
    -2
100
AcDbLine
 10
784.5316652221379
 20
806.5244384994084
 30
0.0
 11
913.7066652221378
 21
806.5244384994084
 31
0.0
  0
LINE
  5
2E91
330
2E8B
100
AcDbEntity
  8
0
 62
     0
440
 16777216
370
    -2
100
AcDbLine
 10
1044.171665222138
 20
806.5244384994084
 30
0.0
 11
914.9966652221378
 21
806.5244384994084
 31
0.0
  0
SOLID
  5
2E92
330
2E8B
100
AcDbEntity
  8
0
 62
     0
440
 16777216
100
AcDbTrace
 10
784.5316652221379
 20
806.5544384994083
 30
0.0
 11
784.5316652221379
 21
806.4944384994085
 31
0.0
 12
784.351665222138
 22
806.5244384994084
 32
0.0
 13
784.351665222138
 23
806.5244384994084
 33
0.0
  0
SOLID
  5
2E93
330
2E8B
100
AcDbEntity
  8
0
 62
     0
440
 16777216
100
AcDbTrace
 10
1044.171665222138
 20
806.5544384994083
 30
0.0
 11
1044.171665222138
 21
806.4944384994085
 31
0.0
 12
1044.351665222138
 22
806.5244384994084
 32
0.0
 13
1044.351665222138
 23
806.5244384994084
 33
0.0
  0
MTEXT
  5
2E94
330
2E8B
100
AcDbEntity
  8
0
 62
     0
440
 16777216
100
AcDbMText
 10
914.3516652221379
 20
806.5244384994084
 30
0.0
 40
0.18
 41
0.0
 46
0.0
 71
     5
 72
     1
  1
\A1;260.0000
 73
     1
 44
1.0
  0
POINT
  5
2E95
330
2E8B
100
AcDbEntity
  8
Defpoints
 62
     0
440
 16777216
100
AcDbPoint
 10
784.351665222138
 20
623.0907601791315
 30
0.0
  0
POINT
  5
2E96
330
2E8B
100
AcDbEntity
  8
Defpoints
 62
     0
440
 16777216
100
AcDbPoint
 10
1044.351665222138
 20
623.0907601791315
 30
0.0
  0
POINT
  5
2E97
330
2E8B
100
AcDbEntity
  8
Defpoints
 62
     0
440
 16777216
100
AcDbPoint
 10
1044.351665222138
 20
806.5244384994084
 30
0.0
  0
ENDBLK
  5
2E8D
330
2E8B
100
AcDbEntity
  8
0
100
AcDbBlockEnd
  0
BLOCK
  5
2E9A
330
2E99
100
AcDbEntity
  8
0
100
AcDbBlockBegin
  2
*D39
 70
     1
 10
0.0
 20
0.0
 30
0.0
  3
*D39
  1

  0
LINE
  5
2E9C
330
2E99
100
AcDbEntity
  8
0
 62
     0
440
 16777216
370
    -2
100
AcDbLine
 10
1191.186419847298
 20
707.8920790770257
 30
0.0
 11
1191.186419847298
 21
757.087129095919
 31
0.0
  0
LINE
  5
2E9D
330
2E99
100
AcDbEntity
  8
0
 62
     0
440
 16777216
370
    -2
100
AcDbLine
 10
1328.186419847299
 20
707.8920790770257
 30
0.0
 11
1328.186419847299
 21
757.087129095919
 31
0.0
  0
LINE
  5
2E9E
330
2E99
100
AcDbEntity
  8
0
 62
     0
440
 16777216
370
    -2
100
AcDbLine
 10
1191.366419847298
 20
756.9071290959191
 30
0.0
 11
1259.056419847298
 21
756.9071290959191
 31
0.0
  0
LINE
  5
2E9F
330
2E99
100
AcDbEntity
  8
0
 62
     0
440
 16777216
370
    -2
100
AcDbLine
 10
1328.006419847299
 20
756.9071290959191
 30
0.0
 11
1260.316419847298
 21
756.9071290959191
 31
0.0
  0
SOLID
  5
2EA0
330
2E99
100
AcDbEntity
  8
0
 62
     0
440
 16777216
100
AcDbTrace
 10
1191.366419847298
 20
756.9371290959191
 30
0.0
 11
1191.366419847298
 21
756.8771290959191
 31
0.0
 12
1191.186419847298
 22
756.9071290959191
 32
0.0
 13
1191.186419847298
 23
756.9071290959191
 33
0.0
  0
SOLID
  5
2EA1
330
2E99
100
AcDbEntity
  8
0
 62
     0
440
 16777216
100
AcDbTrace
 10
1328.006419847299
 20
756.9371290959191
 30
0.0
 11
1328.006419847299
 21
756.8771290959191
 31
0.0
 12
1328.186419847299
 22
756.9071290959191
 32
0.0
 13
1328.186419847299
 23
756.9071290959191
 33
0.0
  0
MTEXT
  5
2EA2
330
2E99
100
AcDbEntity
  8
0
 62
     0
440
 16777216
100
AcDbMText
 10
1259.686419847298
 20
756.9071290959191
 30
0.0
 40
0.18
 41
0.0
 46
0.0
 71
     5
 72
     1
  1
\A1;137.0000
 73
     1
 44
1.0
  0
POINT
  5
2EA3
330
2E99
100
AcDbEntity
  8
Defpoints
 62
     0
440
 16777216
100
AcDbPoint
 10
1191.186419847298
 20
707.8295790770257
 30
0.0
  0
POINT
  5
2EA4
330
2E99
100
AcDbEntity
  8
Defpoints
 62
     0
440
 16777216
100
AcDbPoint
 10
1328.186419847299
 20
707.8295790770257
 30
0.0
  0
POINT
  5
2EA5
330
2E99
100
AcDbEntity
  8
Defpoints
 62
     0
440
 16777216
100
AcDbPoint
 10
1328.186419847299
 20
756.9071290959191
 30
0.0
  0
ENDBLK
  5
2E9B
330
2E99
100
AcDbEntity
  8
0
100
AcDbBlockEnd
  0
BLOCK
  5
2EE8
330
2EE7
100
AcDbEntity
  8
0
100
AcDbBlockBegin
  2
*D40
 70
     1
 10
0.0
 20
0.0
 30
0.0
  3
*D40
  1

  0
LINE
  5
2EEA
330
2EE7
100
AcDbEntity
  8
0
 62
     0
440
 16777216
370
    -2
100
AcDbLine
 10
1542.559152786396
 20
504.1010583095433
 30
0.0
 11
1542.559152786396
 21
571.3056621270113
 31
0.0
  0
LINE
  5
2EEB
330
2EE7
100
AcDbEntity
  8
0
 62
     0
440
 16777216
370
    -2
100
AcDbLine
 10
1502.559152786395
 20
504.1010583095433
 30
0.0
 11
1502.559152786395
 21
571.3056621270113
 31
0.0
  0
LINE
  5
2EEC
330
2EE7
100
AcDbEntity
  8
0
 62
     0
440
 16777216
370
    -2
100
AcDbLine
 10
1542.379152786396
 20
571.1256621270113
 30
0.0
 11
1523.114152786396
 21
571.1256621270113
 31
0.0
  0
LINE
  5
2EED
330
2EE7
100
AcDbEntity
  8
0
 62
     0
440
 16777216
370
    -2
100
AcDbLine
 10
1502.739152786396
 20
571.1256621270113
 30
0.0
 11
1522.004152786396
 21
571.1256621270113
 31
0.0
  0
SOLID
  5
2EEE
330
2EE7
100
AcDbEntity
  8
0
 62
     0
440
 16777216
100
AcDbTrace
 10
1542.379152786396
 20
571.1556621270112
 30
0.0
 11
1542.379152786396
 21
571.0956621270113
 31
0.0
 12
1542.559152786396
 22
571.1256621270113
 32
0.0
 13
1542.559152786396
 23
571.1256621270113
 33
0.0
  0
SOLID
  5
2EEF
330
2EE7
100
AcDbEntity
  8
0
 62
     0
440
 16777216
100
AcDbTrace
 10
1502.739152786396
 20
571.1556621270112
 30
0.0
 11
1502.739152786396
 21
571.0956621270113
 31
0.0
 12
1502.559152786395
 22
571.1256621270113
 32
0.0
 13
1502.559152786395
 23
571.1256621270113
 33
0.0
  0
MTEXT
  5
2EF0
330
2EE7
100
AcDbEntity
  8
0
 62
     0
440
 16777216
100
AcDbMText
 10
1522.559152786396
 20
571.1256621270113
 30
0.0
 40
0.18
 41
0.0
 46
0.0
 71
     5
 72
     1
  1
\A1;40.0000
 73
     1
 44
1.0
  0
POINT
  5
2EF1
330
2EE7
100
AcDbEntity
  8
Defpoints
 62
     0
440
 16777216
100
AcDbPoint
 10
1542.559152786396
 20
504.0385583095432
 30
0.0
  0
POINT
  5
2EF2
330
2EE7
100
AcDbEntity
  8
Defpoints
 62
     0
440
 16777216
100
AcDbPoint
 10
1502.559152786395
 20
504.0385583095432
 30
0.0
  0
POINT
  5
2EF3
330
2EE7
100
AcDbEntity
  8
Defpoints
 62
     0
440
 16777216
100
AcDbPoint
 10
1502.559152786395
 20
571.1256621270113
 30
0.0
  0
ENDBLK
  5
2EE9
330
2EE7
100
AcDbEntity
  8
0
100
AcDbBlockEnd
  0
BLOCK
  5
2EF6
330
2EF5
100
AcDbEntity
  8
0
100
AcDbBlockBegin
  2
*D41
 70
     1
 10
0.0
 20
0.0
 30
0.0
  3
*D41
  1

  0
LINE
  5
2EF8
330
2EF5
100
AcDbEntity
  8
0
 62
     0
440
 16777216
370
    -2
100
AcDbLine
 10
1529.059152786396
 20
505.9760583095433
 30
0.0
 11
1529.059152786396
 21
447.0726694688012
 31
0.0
  0
LINE
  5
2EF9
330
2EF5
100
AcDbEntity
  8
0
 62
     0
440
 16777216
370
    -2
100
AcDbLine
 10
1556.059152786396
 20
505.9760583095433
 30
0.0
 11
1556.059152786396
 21
447.0726694688012
 31
0.0
  0
LINE
  5
2EFA
330
2EF5
100
AcDbEntity
  8
0
 62
     0
440
 16777216
370
    -2
100
AcDbLine
 10
1529.239152786396
 20
447.2526694688013
 30
0.0
 11
1541.989152786396
 21
447.2526694688013
 31
0.0
  0
LINE
  5
2EFB
330
2EF5
100
AcDbEntity
  8
0
 62
     0
440
 16777216
370
    -2
100
AcDbLine
 10
1555.879152786396
 20
447.2526694688013
 30
0.0
 11
1543.129152786396
 21
447.2526694688013
 31
0.0
  0
SOLID
  5
2EFC
330
2EF5
100
AcDbEntity
  8
0
 62
     0
440
 16777216
100
AcDbTrace
 10
1529.239152786396
 20
447.2826694688012
 30
0.0
 11
1529.239152786396
 21
447.2226694688012
 31
0.0
 12
1529.059152786396
 22
447.2526694688013
 32
0.0
 13
1529.059152786396
 23
447.2526694688013
 33
0.0
  0
SOLID
  5
2EFD
330
2EF5
100
AcDbEntity
  8
0
 62
     0
440
 16777216
100
AcDbTrace
 10
1555.879152786396
 20
447.2826694688012
 30
0.0
 11
1555.879152786396
 21
447.2226694688012
 31
0.0
 12
1556.059152786396
 22
447.2526694688013
 32
0.0
 13
1556.059152786396
 23
447.2526694688013
 33
0.0
  0
MTEXT
  5
2EFE
330
2EF5
100
AcDbEntity
  8
0
 62
     0
440
 16777216
100
AcDbMText
 10
1542.559152786396
 20
447.2526694688013
 30
0.0
 40
0.18
 41
0.0
 46
0.0
 71
     5
 72
     1
  1
\A1;27.0000
 73
     1
 44
1.0
  0
POINT
  5
2EFF
330
2EF5
100
AcDbEntity
  8
Defpoints
 62
     0
440
 16777216
100
AcDbPoint
 10
1529.059152786396
 20
506.0385583095433
 30
0.0
  0
POINT
  5
2F00
330
2EF5
100
AcDbEntity
  8
Defpoints
 62
     0
440
 16777216
100
AcDbPoint
 10
1556.059152786396
 20
506.0385583095433
 30
0.0
  0
POINT
  5
2F01
330
2EF5
100
AcDbEntity
  8
Defpoints
 62
     0
440
 16777216
100
AcDbPoint
 10
1556.059152786396
 20
447.2526694688013
 30
0.0
  0
ENDBLK
  5
2EF7
330
2EF5
100
AcDbEntity
  8
0
100
AcDbBlockEnd
  0
ENDSEC
  0
SECTION
  2
ENTITIES
  0
LINE
  5
2BCD
330
1F
100
AcDbEntity
  8
HEWI
  6
Continuous
370
    18
100
AcDbLine
 10
165.6121370433003
 20
683.4295790770258
 30
0.0
 11
165.6121370433003
 21
684.4295790770257
 31
0.0
  0
LINE
  5
2BCE
330
1F
100
AcDbEntity
  8
HEWI
  6
Continuous
370
    18
100
AcDbLine
 10
165.6121370433003
 20
665.4295790770257
 30
0.0
 11
165.6121370433003
 21
664.4295790770257
 31
0.0
  0
LINE
  5
2BCF
330
1F
100
AcDbEntity
  8
HEWI
  6
Continuous
370
    18
100
AcDbLine
 10
295.9121370433011
 20
371.4295790770259
 30
0.0
 11
295.9121370433011
 21
363.9295790770259
 31
0.0
  0
LINE
  5
2BD0
330
1F
100
AcDbEntity
  8
HEWI
  6
Continuous
370
    18
100
AcDbLine
 10
298.6121370433011
 20
371.4295790770259
 30
0.0
 11
298.6121370433011
 21
364.2295790770258
 31
0.0
  0
LINE
  5
2BD1
330
1F
100
AcDbEntity
  8
HEWI
  6
Continuous
370
    18
100
AcDbLine
 10
298.3121370433009
 20
371.4295790770259
 30
0.0
 11
298.3121370433009
 21
363.9295790770259
 31
0.0
  0
LINE
  5
2BD2
330
1F
100
AcDbEntity
  8
HEWI
  6
Continuous
370
    18
100
AcDbLine
 10
295.6121370433011
 20
371.4295790770259
 30
0.0
 11
295.9121370433011
 21
371.4295790770259
 31
0.0
  0
LINE
  5
2BD3
330
1F
100
AcDbEntity
  8
HEWI
  6
Continuous
370
    18
100
AcDbLine
 10
295.9121370433011
 20
378.9295790770259
 30
0.0
 11
295.9121370433011
 21
371.4295790770259
 31
0.0
  0
LINE
  5
2BD4
330
1F
100
AcDbEntity
  8
HEWI
  6
Continuous
370
    18
100
AcDbLine
 10
295.9121370433011
 20
371.4295790770259
 30
0.0
 11
298.3121370433009
 21
371.4295790770259
 31
0.0
  0
LINE
  5
2BD5
330
1F
100
AcDbEntity
  8
HEWI
  6
Continuous
370
    18
100
AcDbLine
 10
298.6121370433011
 20
378.6295790770259
 30
0.0
 11
298.6121370433011
 21
371.4295790770259
 31
0.0
  0
LINE
  5
2BD6
330
1F
100
AcDbEntity
  8
HEWI
  6
Continuous
370
    18
100
AcDbLine
 10
298.3121370433009
 20
371.4295790770259
 30
0.0
 11
298.3121370433009
 21
378.9295790770259
 31
0.0
  0
LINE
  5
2BD7
330
1F
100
AcDbEntity
  8
HEWI
  6
Continuous
370
    18
100
AcDbLine
 10
298.3121370433009
 20
371.4295790770259
 30
0.0
 11
298.6121370433011
 21
371.4295790770259
 31
0.0
  0
LINE
  5
2BD8
330
1F
100
AcDbEntity
  8
HEWI
  6
Continuous
370
    18
100
AcDbLine
 10
166.0505620428459
 20
674.9295790770258
 30
0.0
 11
164.6621370428461
 21
674.9295790770258
 31
0.0
  0
LINE
  5
2BD9
330
1F
100
AcDbEntity
  8
HEWI
  6
Continuous
370
    18
100
AcDbLine
 10
166.073480792846
 20
674.0810509396025
 30
0.0
 11
165.015952667846
 21
674.0810509396025
 31
0.0
  0
LINE
  5
2BDA
330
1F
100
AcDbEntity
  8
HEWI
  6
Continuous
370
    18
100
AcDbLine
 10
172.6121370437546
 20
674.4295790770258
 30
0.0
 11
172.1121370434895
 21
674.4295790770258
 31
0.0
  0
LINE
  5
2BDB
330
1F
100
AcDbEntity
  8
HEWI
  6
Continuous
370
    18
100
AcDbLine
 10
158.612137042846
 20
674.4295790770258
 30
0.0
 11
159.1121370431111
 21
674.4295790770258
 31
0.0
  0
LINE
  5
2BDC
330
1F
100
AcDbEntity
  8
HEWI
  6
Continuous
370
    18
100
AcDbLine
 10
165.862137042846
 20
671.8445551753095
 30
0.0
 11
165.862137042846
 21
670.3795790770258
 31
0.0
  0
LINE
  5
2BDD
330
1F
100
AcDbEntity
  8
HEWI
  6
Continuous
370
    18
100
AcDbLine
 10
164.662137042846
 20
675.8024111569993
 30
0.0
 11
164.662137042846
 21
676.1295790770258
 31
0.0
  0
LINE
  5
2BDE
330
1F
100
AcDbEntity
  8
HEWI
  6
Continuous
370
    18
100
AcDbLine
 10
164.662137042846
 20
676.1295790770258
 30
0.0
 11
166.5621370428459
 21
676.1295790770258
 31
0.0
  0
LINE
  5
2BDF
330
1F
100
AcDbEntity
  8
HEWI
  6
Continuous
370
    18
100
AcDbLine
 10
166.5621370428459
 20
676.1295790770258
 30
0.0
 11
166.5621370428459
 21
675.8024111569993
 31
0.0
  0
LINE
  5
2BE0
330
1F
100
AcDbEntity
  8
HEWI
  6
Continuous
370
    18
100
AcDbLine
 10
165.862137042846
 20
670.3795790770258
 30
0.0
 11
164.662137042846
 21
670.3795790770258
 31
0.0
  0
LINE
  5
2BE1
330
1F
100
AcDbEntity
  8
HEWI
  6
Continuous
370
    18
100
AcDbLine
 10
164.662137042846
 20
670.3795790770258
 30
0.0
 11
164.662137042846
 21
672.0567469970522
 31
0.0
  0
LINE
  5
2BE2
330
1F
100
AcDbEntity
  8
HEWI
  6
Continuous
370
    18
100
AcDbLine
 10
36.61213704330033
 20
361.4295790770259
 30
0.0
 11
36.61213704330033
 21
359.4295790770259
 31
0.0
  0
LINE
  5
2BE3
330
1F
100
AcDbEntity
  8
HEWI
  6
Continuous
370
    18
100
AcDbLine
 10
35.61213704330032
 20
359.4295790770259
 30
0.0
 11
35.61213704330032
 21
361.4295790770259
 31
0.0
  0
LINE
  5
2BE4
330
1F
100
AcDbEntity
  8
HEWI
  6
Continuous
370
    18
100
AcDbLine
 10
36.61213704330033
 20
359.4295790770259
 30
0.0
 11
35.61213704330032
 21
359.4295790770259
 31
0.0
  0
LINE
  5
2BE5
330
1F
100
AcDbEntity
  8
HEWI
  6
Continuous
370
    18
100
AcDbLine
 10
294.6121370433002
 20
359.4295790770259
 30
0.0
 11
294.6121370433002
 21
361.4295790770259
 31
0.0
  0
LINE
  5
2BE6
330
1F
100
AcDbEntity
  8
HEWI
  6
Continuous
370
    18
100
AcDbLine
 10
295.6121370433002
 20
359.4295790770259
 30
0.0
 11
294.6121370433002
 21
359.4295790770259
 31
0.0
  0
LINE
  5
2BE7
330
1F
100
AcDbEntity
  8
HEWI
  6
Continuous
370
    18
100
AcDbLine
 10
295.6121370433002
 20
361.4295790770259
 30
0.0
 11
295.6121370433002
 21
359.4295790770259
 31
0.0
  0
LINE
  5
2BE8
330
1F
100
AcDbEntity
  8
HEWI
  6
Continuous
370
    18
100
AcDbLine
 10
37.21213704330035
 20
361.4295790770259
 30
0.0
 11
37.21213704330035
 21
361.0295790770259
 31
0.0
  0
LINE
  5
2BE9
330
1F
100
AcDbEntity
  8
HEWI
  6
Continuous
370
    18
100
AcDbLine
 10
294.0121370433003
 20
361.0295790770259
 30
0.0
 11
294.0121370433003
 21
361.4295790770259
 31
0.0
  0
LINE
  5
2BEA
330
1F
100
AcDbEntity
  8
HEWI
  6
Continuous
370
    18
100
AcDbLine
 10
294.0121370433003
 20
709.4295790770258
 30
0.0
 11
37.21213704330035
 21
709.4295790770258
 31
0.0
  0
LINE
  5
2BEB
330
1F
100
AcDbEntity
  8
HEWI
  6
Continuous
370
    18
100
AcDbLine
 10
294.0121370433003
 20
361.4295790770259
 30
0.0
 11
294.0121370433003
 21
709.4295790770258
 31
0.0
  0
LINE
  5
2BEC
330
1F
100
AcDbEntity
  8
HEWI
  6
Continuous
370
    18
100
AcDbLine
 10
294.0121370433003
 20
361.4295790770259
 30
0.0
 11
295.6121370433002
 21
361.4295790770259
 31
0.0
  0
LINE
  5
2BED
330
1F
100
AcDbEntity
  8
HEWI
  6
Continuous
370
    18
100
AcDbLine
 10
295.6121370433002
 20
709.4295790770258
 30
0.0
 11
295.6121370433002
 21
361.4295790770259
 31
0.0
  0
LINE
  5
2BEE
330
1F
100
AcDbEntity
  8
HEWI
  6
Continuous
370
    18
100
AcDbLine
 10
294.0121370433003
 20
709.4295790770258
 30
0.0
 11
295.6121370433002
 21
709.4295790770258
 31
0.0
  0
LINE
  5
2BEF
330
1F
100
AcDbEntity
  8
HEWI
  6
Continuous
370
    18
100
AcDbLine
 10
294.0121370433003
 20
361.0295790770259
 30
0.0
 11
294.0121370433003
 21
359.4295790770259
 31
0.0
  0
LINE
  5
2BF0
330
1F
100
AcDbEntity
  8
HEWI
  6
Continuous
370
    18
100
AcDbLine
 10
37.21213704330035
 20
359.4295790770259
 30
0.0
 11
37.21213704330035
 21
361.0295790770259
 31
0.0
  0
LINE
  5
2BF1
330
1F
100
AcDbEntity
  8
HEWI
  6
Continuous
370
    18
100
AcDbLine
 10
37.21213704330035
 20
361.0295790770259
 30
0.0
 11
294.0121370433003
 21
361.0295790770259
 31
0.0
  0
LINE
  5
2BF2
330
1F
100
AcDbEntity
  8
HEWI
  6
Continuous
370
    18
100
AcDbLine
 10
294.0121370433003
 20
359.4295790770259
 30
0.0
 11
37.21213704330035
 21
359.4295790770259
 31
0.0
  0
LINE
  5
2BF3
330
1F
100
AcDbEntity
  8
HEWI
  6
Continuous
370
    18
100
AcDbLine
 10
37.21213704330035
 20
361.4295790770259
 30
0.0
 11
35.61213704330044
 21
361.4295790770259
 31
0.0
  0
LINE
  5
2BF4
330
1F
100
AcDbEntity
  8
HEWI
  6
Continuous
370
    18
100
AcDbLine
 10
37.21213704330035
 20
709.4295790770258
 30
0.0
 11
37.21213704330035
 21
361.4295790770259
 31
0.0
  0
LINE
  5
2BF5
330
1F
100
AcDbEntity
  8
HEWI
  6
Continuous
370
    18
100
AcDbLine
 10
35.61213704330044
 20
709.4295790770258
 30
0.0
 11
37.21213704330035
 21
709.4295790770258
 31
0.0
  0
LINE
  5
2BF6
330
1F
100
AcDbEntity
  8
HEWI
  6
Continuous
370
    18
100
AcDbLine
 10
35.61213704330032
 20
361.4295790770259
 30
0.0
 11
35.61213704330032
 21
709.4295790770258
 31
0.0
  0
LINE
  5
2BF7
330
1F
100
AcDbEntity
  8
HEWI
  6
Continuous
370
    18
100
AcDbLine
 10
35.31213704330014
 20
378.9295790770259
 30
0.0
 11
35.31213704330014
 21
371.4295790770259
 31
0.0
  0
LINE
  5
2BF8
330
1F
100
AcDbEntity
  8
HEWI
  6
Continuous
370
    18
100
AcDbLine
 10
35.61213704330021
 20
371.4295790770259
 30
0.0
 11
35.31213704330014
 21
371.4295790770259
 31
0.0
  0
LINE
  5
2BF9
330
1F
100
AcDbEntity
  8
HEWI
  6
Continuous
370
    18
100
AcDbLine
 10
32.61213704330021
 20
371.4295790770259
 30
0.0
 11
32.61213704330021
 21
364.2295790770258
 31
0.0
  0
LINE
  5
2BFA
330
1F
100
AcDbEntity
  8
HEWI
  6
Continuous
370
    18
100
AcDbLine
 10
35.31213704330014
 20
371.4295790770259
 30
0.0
 11
32.91213704330016
 21
371.4295790770259
 31
0.0
  0
LINE
  5
2BFB
330
1F
100
AcDbEntity
  8
HEWI
  6
Continuous
370
    18
100
AcDbLine
 10
32.91213704330016
 20
371.4295790770259
 30
0.0
 11
32.91213704330016
 21
363.9295790770259
 31
0.0
  0
LINE
  5
2BFC
330
1F
100
AcDbEntity
  8
HEWI
  6
Continuous
370
    18
100
AcDbLine
 10
35.31213704330014
 20
371.4295790770259
 30
0.0
 11
35.31213704330014
 21
363.9295790770259
 31
0.0
  0
LINE
  5
2BFD
330
1F
100
AcDbEntity
  8
HEWI
  6
Continuous
370
    18
100
AcDbLine
 10
32.61213704330021
 20
378.6295790770259
 30
0.0
 11
32.61213704330021
 21
371.4295790770259
 31
0.0
  0
LINE
  5
2BFE
330
1F
100
AcDbEntity
  8
HEWI
  6
Continuous
370
    18
100
AcDbLine
 10
32.91213704330016
 20
371.4295790770259
 30
0.0
 11
32.61213704330021
 21
371.4295790770259
 31
0.0
  0
LINE
  5
2BFF
330
1F
100
AcDbEntity
  8
HEWI
  6
Continuous
370
    18
100
AcDbLine
 10
32.91213704330016
 20
371.4295790770259
 30
0.0
 11
32.91213704330016
 21
378.9295790770259
 31
0.0
  0
LINE
  5
2C00
330
1F
100
AcDbEntity
  8
HEWI
  6
Continuous
370
    18
100
AcDbLine
 10
295.6121370433011
 20
364.2295790770258
 30
0.0
 11
295.9121370433011
 21
363.9295790770259
 31
0.0
  0
LINE
  5
2C01
330
1F
100
AcDbEntity
  8
HEWI
  6
Continuous
370
    18
100
AcDbLine
 10
295.9121370433011
 20
363.9295790770259
 30
0.0
 11
298.3121370433009
 21
363.9295790770259
 31
0.0
  0
LINE
  5
2C02
330
1F
100
AcDbEntity
  8
HEWI
  6
Continuous
370
    18
100
AcDbLine
 10
298.3121370433009
 20
363.9295790770259
 30
0.0
 11
298.6121370433011
 21
364.2295790770258
 31
0.0
  0
LINE
  5
2C03
330
1F
100
AcDbEntity
  8
HEWI
  6
Continuous
370
    18
100
AcDbLine
 10
295.9121370433011
 20
378.9295790770259
 30
0.0
 11
295.6121370433011
 21
378.6295790770258
 31
0.0
  0
LINE
  5
2C04
330
1F
100
AcDbEntity
  8
HEWI
  6
Continuous
370
    18
100
AcDbLine
 10
298.3121370433009
 20
378.9295790770259
 30
0.0
 11
295.9121370433011
 21
378.9295790770259
 31
0.0
  0
LINE
  5
2C05
330
1F
100
AcDbEntity
  8
HEWI
  6
Continuous
370
    18
100
AcDbLine
 10
298.6121370433011
 20
378.6295790770259
 30
0.0
 11
298.3121370433009
 21
378.9295790770259
 31
0.0
  0
LINE
  5
2C06
330
1F
100
AcDbEntity
  8
HEWI
  6
Continuous
370
    18
100
AcDbLine
 10
35.31213704330026
 20
378.9295790770259
 30
0.0
 11
32.91213704330016
 21
378.9295790770259
 31
0.0
  0
LINE
  5
2C07
330
1F
100
AcDbEntity
  8
HEWI
  6
Continuous
370
    18
100
AcDbLine
 10
35.61213704330021
 20
378.6295790770258
 30
0.0
 11
35.31213704330026
 21
378.9295790770259
 31
0.0
  0
LINE
  5
2C08
330
1F
100
AcDbEntity
  8
HEWI
  6
Continuous
370
    18
100
AcDbLine
 10
35.31213704330026
 20
363.9295790770259
 30
0.0
 11
35.61213704330021
 21
364.2295790770258
 31
0.0
  0
LINE
  5
2C09
330
1F
100
AcDbEntity
  8
HEWI
  6
Continuous
370
    18
100
AcDbLine
 10
32.61213704330021
 20
364.2295790770258
 30
0.0
 11
32.91213704330016
 21
363.9295790770259
 31
0.0
  0
LINE
  5
2C0A
330
1F
100
AcDbEntity
  8
HEWI
  6
Continuous
370
    18
100
AcDbLine
 10
32.91213704330016
 20
363.9295790770259
 30
0.0
 11
35.31213704330026
 21
363.9295790770259
 31
0.0
  0
LINE
  5
2C0B
330
1F
100
AcDbEntity
  8
HEWI
  6
Continuous
370
    18
100
AcDbLine
 10
32.91213704330016
 20
378.9295790770259
 30
0.0
 11
32.61213704330021
 21
378.6295790770259
 31
0.0
  0
LINE
  5
2C0C
330
1F
100
AcDbEntity
  8
HEWI
  6
Continuous
370
    18
100
AcDbLine
 10
442.4468655119437
 20
631.0923469333395
 30
0.0
 11
440.6184645437142
 21
632.9207479015689
 31
0.0
  0
LINE
  5
2C0D
330
1F
100
AcDbEntity
  8
HEWI
  6
Continuous
370
    18
100
AcDbLine
 10
442.2711557371726
 20
629.8538431457378
 30
0.0
 11
439.9113577625278
 21
632.2136411203823
 31
0.0
  0
LINE
  5
2C0E
330
1F
100
AcDbEntity
  8
HEWI
  6
Continuous
370
    18
100
AcDbLine
 10
439.4427286124264
 20
649.4368878835675
 30
0.0
 11
440.4427286124264
 21
649.4368878835675
 31
0.0
  0
LINE
  5
2C0F
330
1F
100
AcDbEntity
  8
HEWI
  6
Continuous
370
    18
100
AcDbLine
 10
439.4427286124264
 20
665.5141461837707
 30
0.0
 11
439.4427286124264
 21
649.4368878835675
 31
0.0
  0
LINE
  5
2C10
330
1F
100
AcDbEntity
  8
HEWI
  6
Continuous
370
    18
100
AcDbLine
 10
440.4427286124264
 20
665.5141461837707
 30
0.0
 11
440.4427286124264
 21
649.4368878835675
 31
0.0
  0
LINE
  5
2C11
330
1F
100
AcDbEntity
  8
HEWI
  6
Continuous
370
    18
100
AcDbLine
 10
440.6184645437142
 20
632.9207479015689
 30
0.0
 11
439.9113577625278
 21
632.2136411203823
 31
0.0
  0
LINE
  5
2C12
330
1F
100
AcDbEntity
  8
HEWI
  6
Continuous
370
    18
100
AcDbLine
 10
439.9113577625278
 20
416.6455170336691
 30
0.0
 11
442.2711557371726
 21
419.0053150083137
 31
0.0
  0
LINE
  5
2C13
330
1F
100
AcDbEntity
  8
HEWI
  6
Continuous
370
    18
100
AcDbLine
 10
440.6184645437145
 20
415.9384102524826
 30
0.0
 11
442.4468655119437
 21
417.7668112207119
 31
0.0
  0
LINE
  5
2C14
330
1F
100
AcDbEntity
  8
HEWI
  6
Continuous
370
    18
100
AcDbLine
 10
442.2711557371726
 20
419.0053150083137
 30
0.0
 11
442.4468938693844
 21
418.829576876102
 31
0.0
  0
LINE
  5
2C15
330
1F
100
AcDbEntity
  8
HEWI
  6
Continuous
370
    18
100
AcDbLine
 10
440.4427286124264
 20
665.5141461837707
 30
0.0
 11
439.4427286124264
 21
665.5141461837707
 31
0.0
  0
LINE
  5
2C16
330
1F
100
AcDbEntity
  8
HEWI
  6
Continuous
370
    18
100
AcDbLine
 10
442.2711557371726
 20
629.8538431457378
 30
0.0
 11
442.4468938693844
 21
630.0295812779495
 31
0.0
  0
LINE
  5
2C17
330
1F
100
AcDbEntity
  8
HEWI
  6
Continuous
370
    18
100
AcDbLine
 10
440.4427286124264
 20
649.4222702704838
 30
0.0
 11
440.4427286124264
 21
633.3450119702807
 31
0.0
  0
LINE
  5
2C18
330
1F
100
AcDbEntity
  8
HEWI
  6
Continuous
370
    18
100
AcDbLine
 10
439.4427286124264
 20
649.4222702704838
 30
0.0
 11
440.4427286124264
 21
649.4222702704838
 31
0.0
  0
LINE
  5
2C19
330
1F
100
AcDbEntity
  8
HEWI
  6
Continuous
370
    18
100
AcDbLine
 10
439.4427286124264
 20
649.4222702704838
 30
0.0
 11
439.4427286124264
 21
633.3450119702807
 31
0.0
  0
LINE
  5
2C1A
330
1F
100
AcDbEntity
  8
HEWI
  6
Continuous
370
    18
100
AcDbLine
 10
440.4427286124264
 20
633.3450119702807
 30
0.0
 11
439.4427286124264
 21
633.3450119702807
 31
0.0
  0
LINE
  5
2C1B
330
1F
100
AcDbEntity
  8
HEWI
  6
Continuous
370
    18
100
AcDbLine
 10
439.4427286124264
 20
399.4368878835676
 30
0.0
 11
440.4427286124264
 21
399.4368878835676
 31
0.0
  0
LINE
  5
2C1C
330
1F
100
AcDbEntity
  8
HEWI
  6
Continuous
370
    18
100
AcDbLine
 10
440.4427286124264
 20
415.5141461837706
 30
0.0
 11
440.4427286124264
 21
399.4368878835676
 31
0.0
  0
LINE
  5
2C1D
330
1F
100
AcDbEntity
  8
HEWI
  6
Continuous
370
    18
100
AcDbLine
 10
439.4427286124264
 20
415.5141461837706
 30
0.0
 11
439.4427286124264
 21
399.4368878835676
 31
0.0
  0
LINE
  5
2C1E
330
1F
100
AcDbEntity
  8
HEWI
  6
Continuous
370
    18
100
AcDbLine
 10
440.4427286124264
 20
415.5141461837706
 30
0.0
 11
439.4427286124264
 21
415.5141461837706
 31
0.0
  0
LINE
  5
2C1F
330
1F
100
AcDbEntity
  8
HEWI
  6
Continuous
370
    18
100
AcDbLine
 10
440.6184645437145
 20
415.9384102524826
 30
0.0
 11
439.9113577625278
 21
416.6455170336691
 31
0.0
  0
LINE
  5
2C20
330
1F
100
AcDbEntity
  8
HEWI
  6
Continuous
370
    18
100
AcDbLine
 10
440.6184645437142
 20
665.9384102524825
 30
0.0
 11
442.4468655119437
 21
667.7668112207119
 31
0.0
  0
LINE
  5
2C21
330
1F
100
AcDbEntity
  8
HEWI
  6
Continuous
370
    18
100
AcDbLine
 10
442.2711557371724
 20
669.0053150083136
 30
0.0
 11
442.4468938693841
 21
668.8295768761019
 31
0.0
  0
LINE
  5
2C22
330
1F
100
AcDbEntity
  8
HEWI
  6
Continuous
370
    18
100
AcDbLine
 10
439.911357762528
 20
666.645517033669
 30
0.0
 11
442.2711557371726
 21
669.0053150083136
 31
0.0
  0
LINE
  5
2C23
330
1F
100
AcDbEntity
  8
HEWI
  6
Continuous
370
    18
100
AcDbLine
 10
440.6184645437142
 20
665.9384102524825
 30
0.0
 11
439.911357762528
 21
666.645517033669
 31
0.0
  0
LINE
  5
2C24
330
1F
100
AcDbEntity
  8
HEWI
  6
Continuous
370
    18
100
AcDbLine
 10
442.2711557371726
 20
379.8538431457377
 30
0.0
 11
439.9113577625278
 21
382.2136411203824
 31
0.0
  0
LINE
  5
2C25
330
1F
100
AcDbEntity
  8
HEWI
  6
Continuous
370
    18
100
AcDbLine
 10
442.4468655119439
 20
381.0923469333395
 30
0.0
 11
440.6184645437145
 21
382.9207479015689
 31
0.0
  0
LINE
  5
2C26
330
1F
100
AcDbEntity
  8
HEWI
  6
Continuous
370
    18
100
AcDbLine
 10
442.2711557371726
 20
379.8538431457377
 30
0.0
 11
442.4468938693844
 21
380.0295812779495
 31
0.0
  0
LINE
  5
2C27
330
1F
100
AcDbEntity
  8
HEWI
  6
Continuous
370
    18
100
AcDbLine
 10
440.4427286124264
 20
399.422270270484
 30
0.0
 11
440.4427286124264
 21
383.3450119702808
 31
0.0
  0
LINE
  5
2C28
330
1F
100
AcDbEntity
  8
HEWI
  6
Continuous
370
    18
100
AcDbLine
 10
439.4427286124264
 20
399.422270270484
 30
0.0
 11
439.4427286124264
 21
383.3450119702808
 31
0.0
  0
LINE
  5
2C29
330
1F
100
AcDbEntity
  8
HEWI
  6
Continuous
370
    18
100
AcDbLine
 10
439.4427286124264
 20
399.422270270484
 30
0.0
 11
440.4427286124264
 21
399.422270270484
 31
0.0
  0
LINE
  5
2C2A
330
1F
100
AcDbEntity
  8
HEWI
  6
Continuous
370
    18
100
AcDbLine
 10
440.4427286124264
 20
383.3450119702808
 30
0.0
 11
439.4427286124264
 21
383.3450119702808
 31
0.0
  0
LINE
  5
2C2B
330
1F
100
AcDbEntity
  8
HEWI
  6
Continuous
370
    18
100
AcDbLine
 10
440.6184645437142
 20
382.9207479015689
 30
0.0
 11
439.9113577625278
 21
382.2136411203824
 31
0.0
  0
LINE
  5
2C2C
330
1F
100
AcDbEntity
  8
HEWI
  6
Continuous
370
    18
100
AcDbLine
 10
442.4468916684604
 20
359.4295790770258
 30
0.0
 11
442.4468916684604
 21
361.4295790770258
 31
0.0
  0
LINE
  5
2C2D
330
1F
100
AcDbEntity
  8
HEWI
  6
Continuous
370
    18
100
AcDbLine
 10
443.4468916684604
 20
361.4295790770258
 30
0.0
 11
443.4468916684604
 21
359.4295790770258
 31
0.0
  0
LINE
  5
2C2E
330
1F
100
AcDbEntity
  8
HEWI
  6
Continuous
370
    18
100
AcDbLine
 10
443.4468916684604
 20
359.4295790770258
 30
0.0
 11
442.4468916684604
 21
359.4295790770258
 31
0.0
  0
LINE
  5
2C2F
330
1F
100
AcDbEntity
  8
HEWI
  6
Continuous
370
    18
100
AcDbLine
 10
442.4468916684604
 20
707.8295790770257
 30
0.0
 11
444.0468916684606
 21
707.8295790770257
 31
0.0
  0
LINE
  5
2C30
330
1F
100
AcDbEntity
  8
HEWI
  6
Continuous
370
    18
100
AcDbLine
 10
442.4468916684604
 20
361.4295790770258
 30
0.0
 11
444.0468916684606
 21
361.4295790770258
 31
0.0
  0
LINE
  5
2C31
330
1F
100
AcDbEntity
  8
HEWI
  6
Continuous
370
    18
100
AcDbLine
 10
442.4468916684604
 20
361.4295790770258
 30
0.0
 11
442.4468916684604
 21
707.8295790770257
 31
0.0
  0
LINE
  5
2C32
330
1F
100
AcDbEntity
  8
HEWI
  6
Continuous
370
    18
100
AcDbLine
 10
444.0468916684606
 20
359.4295790770258
 30
0.0
 11
444.0468916684606
 21
361.0295790770257
 31
0.0
  0
LINE
  5
2C33
330
1F
100
AcDbEntity
  8
HEWI
  6
Continuous
370
    18
100
AcDbLine
 10
444.0468916684606
 20
359.4295790770258
 30
0.0
 11
454.0476104184606
 21
359.4295790770258
 31
0.0
  0
LINE
  5
2C34
330
1F
100
AcDbEntity
  8
HEWI
  6
Continuous
370
    18
100
AcDbLine
 10
444.0468916684606
 20
369.4346665770257
 30
0.0
 11
444.0468916684606
 21
361.4295790770258
 31
0.0
  0
LINE
  5
2C35
330
1F
100
AcDbEntity
  8
HEWI
  6
Continuous
370
    18
100
AcDbLine
 10
444.0468916684606
 20
361.4295790770258
 30
0.0
 11
444.0468916684606
 21
361.0295790770257
 31
0.0
  0
LINE
  5
2C36
330
1F
100
AcDbEntity
  8
HEWI
  6
Continuous
370
    18
100
AcDbLine
 10
444.0468916684606
 20
361.0295790770257
 30
0.0
 11
448.6223416684606
 21
361.0295790770257
 31
0.0
  0
LINE
  5
2C37
330
1F
100
AcDbEntity
  8
HEWI
  6
Continuous
370
    18
100
AcDbLine
 10
452.8469307309605
 20
399.4295790770258
 30
0.0
 11
454.4468916684604
 21
399.4295790770258
 31
0.0
  0
LINE
  5
2C38
330
1F
100
AcDbEntity
  8
HEWI
  6
Continuous
370
    18
100
AcDbLine
 10
444.0468916684606
 20
707.8295790770258
 30
0.0
 11
444.0468916684606
 21
709.4295790770258
 31
0.0
  0
LINE
  5
2C39
330
1F
100
AcDbEntity
  8
HEWI
  6
Continuous
370
    18
100
AcDbLine
 10
444.0468916684606
 20
709.429579077026
 30
0.0
 11
446.0479291684605
 21
709.429579077026
 31
0.0
  0
LINE
  5
2C3A
330
1F
100
AcDbEntity
  8
HEWI
  6
Continuous
370
    18
100
AcDbLine
 10
444.0882354184605
 20
707.8295790770257
 30
0.0
 11
444.0468916684606
 21
707.8295790770257
 31
0.0
  0
LINE
  5
2C3B
330
1F
100
AcDbEntity
  8
HEWI
  6
Continuous
370
    18
100
AcDbLine
 10
582.7468916684615
 20
683.4295790770256
 30
0.0
 11
582.7468916684615
 21
665.4295790770256
 31
0.0
  0
LINE
  5
2C3C
330
1F
100
AcDbEntity
  8
HEWI
  6
Continuous
370
    18
100
AcDbLine
 10
582.7468916684615
 20
683.4295790770256
 30
0.0
 11
581.7468916684616
 21
684.4295790770257
 31
0.0
  0
LINE
  5
2C3D
330
1F
100
AcDbEntity
  8
HEWI
  6
Continuous
370
    18
100
AcDbLine
 10
582.7468916684615
 20
665.4295790770256
 30
0.0
 11
581.7468916684616
 21
664.4295790770256
 31
0.0
  0
LINE
  5
2C3E
330
1F
100
AcDbEntity
  8
HEWI
  6
Continuous
370
    18
100
AcDbLine
 10
581.7468916684616
 20
664.4295790770256
 30
0.0
 11
581.7468916684616
 21
684.4295790770257
 31
0.0
  0
LINE
  5
2C3F
330
1F
100
AcDbEntity
  8
HEWI
  6
Continuous
370
    18
100
AcDbLine
 10
581.7468916684616
 20
684.4295790770257
 30
0.0
 11
579.4468916684616
 21
684.4295790770257
 31
0.0
  0
LINE
  5
2C40
330
1F
100
AcDbEntity
  8
HEWI
  6
Continuous
370
    18
100
AcDbLine
 10
581.7468916684616
 20
664.4295790770256
 30
0.0
 11
579.4468916684616
 21
664.4295790770256
 31
0.0
  0
LINE
  5
2C41
330
1F
100
AcDbEntity
  8
HEWI
  6
Continuous
370
    18
100
AcDbLine
 10
583.2468916680072
 20
674.4295790770256
 30
0.0
 11
583.2468916680072
 21
667.9295790768365
 31
0.0
  0
LINE
  5
2C42
330
1F
100
AcDbEntity
  8
HEWI
  6
Continuous
370
    18
100
AcDbLine
 10
583.2468916680072
 20
680.9295790772148
 30
0.0
 11
583.2468916680072
 21
674.4295790770256
 31
0.0
  0
LINE
  5
2C43
330
1F
100
AcDbEntity
  8
HEWI
  6
Continuous
370
    18
100
AcDbLine
 10
582.7468916677421
 20
674.4295790770256
 30
0.0
 11
583.2468916680072
 21
674.4295790770256
 31
0.0
  0
LINE
  5
2C44
330
1F
100
AcDbEntity
  8
HEWI
  6
Continuous
370
    18
100
AcDbLine
 10
577.5788916684616
 20
360.4295790770258
 30
0.0
 11
577.8468916684617
 21
360.4295790770258
 31
0.0
  0
LINE
  5
2C45
330
1F
100
AcDbEntity
  8
HEWI
  6
Continuous
370
    18
100
AcDbLine
 10
575.8465229184617
 20
359.4295790770258
 30
0.0
 11
577.8468916684617
 21
359.4295790770258
 31
0.0
  0
LINE
  5
2C46
330
1F
100
AcDbEntity
  8
HEWI
  6
Continuous
370
    18
100
AcDbLine
 10
578.4468916684615
 20
361.4295790770258
 30
0.0
 11
578.4468916684615
 21
361.0295790770258
 31
0.0
  0
LINE
  5
2C47
330
1F
100
AcDbEntity
  8
HEWI
  6
Continuous
370
    18
100
AcDbLine
 10
579.4468916684616
 20
361.4295790770258
 30
0.0
 11
579.4468916684616
 21
361.0295790770257
 31
0.0
  0
LINE
  5
2C48
330
1F
100
AcDbEntity
  8
HEWI
  6
Continuous
370
    18
100
AcDbLine
 10
577.8468916684617
 20
360.4295790770258
 30
0.0
 11
577.8468916684617
 21
359.4295790770258
 31
0.0
  0
LINE
  5
2C49
330
1F
100
AcDbEntity
  8
HEWI
  6
Continuous
370
    18
100
AcDbLine
 10
578.4468916684615
 20
361.0295790770257
 30
0.0
 11
579.4468916684616
 21
361.0295790770257
 31
0.0
  0
LINE
  5
2C4A
330
1F
100
AcDbEntity
  8
HEWI
  6
Continuous
370
    18
100
AcDbLine
 10
579.4468916684616
 20
361.4295790770258
 30
0.0
 11
577.8468916684614
 21
361.4295790770258
 31
0.0
  0
LINE
  5
2C4B
330
1F
100
AcDbEntity
  8
HEWI
  6
Continuous
370
    18
100
AcDbLine
 10
579.4468916684616
 20
709.4295790770257
 30
0.0
 11
579.4468916684616
 21
361.4295790770258
 31
0.0
  0
LINE
  5
2C4C
330
1F
100
AcDbEntity
  8
HEWI
  6
Continuous
370
    18
100
AcDbLine
 10
579.4468916684616
 20
709.4295790770257
 30
0.0
 11
577.8468916684614
 21
709.4295790770257
 31
0.0
  0
LINE
  5
2C4D
330
1F
100
AcDbEntity
  8
HEWI
  6
Continuous
370
    18
100
AcDbLine
 10
453.0468916684617
 20
399.9295790770258
 30
0.0
 11
453.0468916684617
 21
401.5295790770257
 31
0.0
  0
LINE
  5
2C4E
330
1F
100
AcDbEntity
  8
HEWI
  6
Continuous
370
    18
100
AcDbLine
 10
459.0468916684617
 20
399.9295790770258
 30
0.0
 11
453.0468916684617
 21
399.9295790770258
 31
0.0
  0
LINE
  5
2C4F
330
1F
100
AcDbEntity
  8
HEWI
  6
Continuous
370
    18
100
AcDbLine
 10
459.0468916684617
 20
401.5295790770257
 30
0.0
 11
459.0468916684617
 21
399.9295790770258
 31
0.0
  0
LINE
  5
2C50
330
1F
100
AcDbEntity
  8
HEWI
  6
Continuous
370
    18
100
AcDbLine
 10
577.8468916684617
 20
361.4295790770258
 30
0.0
 11
577.8468916684617
 21
709.4295790770257
 31
0.0
  0
LINE
  5
2C51
330
1F
100
AcDbEntity
  8
HEWI
  6
Continuous
370
    18
100
AcDbLine
 10
506.9468916684615
 20
635.9295790770256
 30
0.0
 11
506.9468916684615
 21
432.9295790770256
 31
0.0
  0
LINE
  5
2C52
330
1F
100
AcDbEntity
  8
HEWI
  6
Continuous
370
    18
100
AcDbLine
 10
513.9468916684616
 20
636.9295790770256
 30
0.0
 11
507.9468916684616
 21
636.9295790770256
 31
0.0
  0
LINE
  5
2C53
330
1F
100
AcDbEntity
  8
HEWI
  6
Continuous
370
    18
100
AcDbLine
 10
514.9468916684618
 20
432.9295790770256
 30
0.0
 11
514.9468916684615
 21
635.9295790770256
 31
0.0
  0
LINE
  5
2C54
330
1F
100
AcDbEntity
  8
HEWI
  6
Continuous
370
    18
100
AcDbLine
 10
507.9468916684616
 20
431.9295790770257
 30
0.0
 11
513.9468916684616
 21
431.9295790770257
 31
0.0
  0
LINE
  5
2C55
330
1F
100
AcDbEntity
  8
HEWI
  6
Continuous
370
    18
100
AcDbLine
 10
453.0468916684617
 20
401.5295790770257
 30
0.0
 11
453.0468916684617
 21
401.9295790770257
 31
0.0
  0
LINE
  5
2C56
330
1F
100
AcDbEntity
  8
HEWI
  6
Continuous
370
    18
100
AcDbLine
 10
453.0468916684617
 20
401.5295790770257
 30
0.0
 11
459.0468916684617
 21
401.5295790770257
 31
0.0
  0
LINE
  5
2C57
330
1F
100
AcDbEntity
  8
HEWI
  6
Continuous
370
    18
100
AcDbLine
 10
459.0468916684617
 20
401.9295790770257
 30
0.0
 11
459.0468916684617
 21
401.5295790770257
 31
0.0
  0
LINE
  5
2C58
330
1F
100
AcDbEntity
  8
HEWI
  6
Continuous
370
    18
100
AcDbLine
 10
459.2468916684615
 20
401.9295790770257
 30
0.0
 11
459.0468916684617
 21
401.9295790770257
 31
0.0
  0
LINE
  5
2C59
330
1F
100
AcDbEntity
  8
HEWI
  6
Continuous
370
    18
100
AcDbLine
 10
459.2468916684615
 20
397.4295790770258
 30
0.0
 11
459.2468916684615
 21
401.9295790770257
 31
0.0
  0
LINE
  5
2C5A
330
1F
100
AcDbEntity
  8
HEWI
  6
Continuous
370
    18
100
AcDbLine
 10
454.0468916684617
 20
396.2295790770257
 30
0.0
 11
458.0468916684617
 21
396.2295790770257
 31
0.0
  0
LINE
  5
2C5B
330
1F
100
AcDbEntity
  8
HEWI
  6
Continuous
370
    18
100
AcDbLine
 10
452.8468916684617
 20
401.9295790770257
 30
0.0
 11
452.8468916684617
 21
397.4295790770258
 31
0.0
  0
LINE
  5
2C5C
330
1F
100
AcDbEntity
  8
HEWI
  6
Continuous
370
    18
100
AcDbLine
 10
453.0468916684617
 20
401.9295790770257
 30
0.0
 11
452.8468916684617
 21
401.9295790770257
 31
0.0
  0
LINE
  5
2C5D
330
1F
100
AcDbEntity
  8
HEWI
  6
Continuous
370
    18
100
AcDbLine
 10
455.1935262838451
 20
373.4295790770258
 30
0.0
 11
455.9763788479476
 21
370.4960854872821
 31
0.0
  0
LINE
  5
2C5E
330
1F
100
AcDbEntity
  8
HEWI
  6
Continuous
370
    18
100
AcDbLine
 10
455.9763788479476
 20
370.4960854872821
 30
0.0
 11
457.1406416684606
 21
373.4295790770258
 31
0.0
  0
LINE
  5
2C5F
330
1F
100
AcDbEntity
  8
HEWI
  6
Continuous
370
    18
100
AcDbLine
 10
457.1406416684606
 20
373.4295790770258
 30
0.0
 11
457.1927250017938
 21
373.4295790770258
 31
0.0
  0
LINE
  5
2C60
330
1F
100
AcDbEntity
  8
HEWI
  6
Continuous
370
    18
100
AcDbLine
 10
457.1927250017938
 20
373.4295790770258
 30
0.0
 11
458.3353532069223
 21
370.5161175385642
 31
0.0
  0
LINE
  5
2C61
330
1F
100
AcDbEntity
  8
HEWI
  6
Continuous
370
    18
100
AcDbLine
 10
458.3353532069223
 20
370.5161175385642
 30
0.0
 11
459.1222121812811
 21
373.4295790770258
 31
0.0
  0
LINE
  5
2C62
330
1F
100
AcDbEntity
  8
HEWI
  6
Continuous
370
    18
100
AcDbLine
 10
448.3097121812811
 20
369.4295790770258
 30
0.0
 11
448.3097121812811
 21
373.4295790770258
 31
0.0
  0
LINE
  5
2C63
330
1F
100
AcDbEntity
  8
HEWI
  6
Continuous
370
    18
100
AcDbLine
 10
448.3097121812811
 20
373.4295790770258
 30
0.0
 11
448.6686865402552
 21
373.4295790770258
 31
0.0
  0
LINE
  5
2C64
330
1F
100
AcDbEntity
  8
HEWI
  6
Continuous
370
    18
100
AcDbLine
 10
448.6686865402552
 20
373.4295790770258
 30
0.0
 11
448.6686865402552
 21
371.7885534360001
 31
0.0
  0
LINE
  5
2C65
330
1F
100
AcDbEntity
  8
HEWI
  6
Continuous
370
    18
100
AcDbLine
 10
448.6686865402552
 20
371.7885534360001
 30
0.0
 11
450.7199685915375
 21
371.7885534360001
 31
0.0
  0
LINE
  5
2C66
330
1F
100
AcDbEntity
  8
HEWI
  6
Continuous
370
    18
100
AcDbLine
 10
450.7199685915375
 20
371.7885534360001
 30
0.0
 11
450.7199685915375
 21
373.4295790770258
 31
0.0
  0
LINE
  5
2C67
330
1F
100
AcDbEntity
  8
HEWI
  6
Continuous
370
    18
100
AcDbLine
 10
450.7199685915375
 20
373.4295790770258
 30
0.0
 11
451.0789429505118
 21
373.4295790770258
 31
0.0
  0
LINE
  5
2C68
330
1F
100
AcDbEntity
  8
HEWI
  6
Continuous
370
    18
100
AcDbLine
 10
451.0789429505118
 20
373.4295790770258
 30
0.0
 11
451.0789429505118
 21
369.4295790770258
 31
0.0
  0
LINE
  5
2C69
330
1F
100
AcDbEntity
  8
HEWI
  6
Continuous
370
    18
100
AcDbLine
 10
451.0789429505118
 20
369.4295790770258
 30
0.0
 11
450.7199685915375
 21
369.4295790770258
 31
0.0
  0
LINE
  5
2C6A
330
1F
100
AcDbEntity
  8
HEWI
  6
Continuous
370
    18
100
AcDbLine
 10
450.7199685915375
 20
369.4295790770258
 30
0.0
 11
450.7199685915375
 21
371.3782970257437
 31
0.0
  0
LINE
  5
2C6B
330
1F
100
AcDbEntity
  8
HEWI
  6
Continuous
370
    18
100
AcDbLine
 10
450.7199685915375
 20
371.3782970257437
 30
0.0
 11
448.6686865402552
 21
371.3782970257437
 31
0.0
  0
LINE
  5
2C6C
330
1F
100
AcDbEntity
  8
HEWI
  6
Continuous
370
    18
100
AcDbLine
 10
448.6686865402552
 20
371.3782970257437
 30
0.0
 11
448.6686865402552
 21
369.4295790770258
 31
0.0
  0
LINE
  5
2C6D
330
1F
100
AcDbEntity
  8
HEWI
  6
Continuous
370
    18
100
AcDbLine
 10
448.6686865402552
 20
369.4295790770258
 30
0.0
 11
448.3097121812811
 21
369.4295790770258
 31
0.0
  0
LINE
  5
2C6E
330
1F
100
AcDbEntity
  8
HEWI
  6
Continuous
370
    18
100
AcDbLine
 10
454.3609942325631
 20
371.3782970257437
 30
0.0
 11
452.4635583351273
 21
371.3782970257437
 31
0.0
  0
LINE
  5
2C6F
330
1F
100
AcDbEntity
  8
HEWI
  6
Continuous
370
    18
100
AcDbLine
 10
452.1045839761527
 20
369.4295790770258
 30
0.0
 11
452.1045839761527
 21
373.4295790770258
 31
0.0
  0
LINE
  5
2C70
330
1F
100
AcDbEntity
  8
HEWI
  6
Continuous
370
    18
100
AcDbLine
 10
452.1045839761527
 20
373.4295790770258
 30
0.0
 11
454.3609942325631
 21
373.4295790770258
 31
0.0
  0
LINE
  5
2C71
330
1F
100
AcDbEntity
  8
HEWI
  6
Continuous
370
    18
100
AcDbLine
 10
454.3609942325631
 20
373.4295790770258
 30
0.0
 11
454.3609942325631
 21
373.0193226667693
 31
0.0
  0
LINE
  5
2C72
330
1F
100
AcDbEntity
  8
HEWI
  6
Continuous
370
    18
100
AcDbLine
 10
454.3609942325631
 20
373.0193226667693
 30
0.0
 11
452.4635583351273
 21
373.0193226667693
 31
0.0
  0
LINE
  5
2C73
330
1F
100
AcDbEntity
  8
HEWI
  6
Continuous
370
    18
100
AcDbLine
 10
452.4635583351273
 20
373.0193226667693
 30
0.0
 11
452.4635583351273
 21
371.7885534360001
 31
0.0
  0
LINE
  5
2C74
330
1F
100
AcDbEntity
  8
HEWI
  6
Continuous
370
    18
100
AcDbLine
 10
452.4635583351273
 20
371.7885534360001
 30
0.0
 11
454.3609942325631
 21
371.7885534360001
 31
0.0
  0
LINE
  5
2C75
330
1F
100
AcDbEntity
  8
HEWI
  6
Continuous
370
    18
100
AcDbLine
 10
454.3609942325631
 20
371.7885534360001
 30
0.0
 11
454.3609942325631
 21
371.3782970257437
 31
0.0
  0
LINE
  5
2C76
330
1F
100
AcDbEntity
  8
HEWI
  6
Continuous
370
    18
100
AcDbLine
 10
458.3593916684606
 20
369.4295790770258
 30
0.0
 11
457.1558660274349
 21
372.4888739488206
 31
0.0
  0
LINE
  5
2C77
330
1F
100
AcDbEntity
  8
HEWI
  6
Continuous
370
    18
100
AcDbLine
 10
452.4635583351273
 20
371.3782970257437
 30
0.0
 11
452.4635583351273
 21
369.8398354872821
 31
0.0
  0
LINE
  5
2C78
330
1F
100
AcDbEntity
  8
HEWI
  6
Continuous
370
    18
100
AcDbLine
 10
452.4635583351273
 20
369.8398354872821
 30
0.0
 11
454.3609942325631
 21
369.8398354872821
 31
0.0
  0
LINE
  5
2C79
330
1F
100
AcDbEntity
  8
HEWI
  6
Continuous
370
    18
100
AcDbLine
 10
454.3609942325631
 20
369.8398354872821
 30
0.0
 11
454.3609942325631
 21
369.4295790770258
 31
0.0
  0
LINE
  5
2C7A
330
1F
100
AcDbEntity
  8
HEWI
  6
Continuous
370
    18
100
AcDbLine
 10
454.3609942325631
 20
369.4295790770258
 30
0.0
 11
452.1045839761527
 21
369.4295790770258
 31
0.0
  0
LINE
  5
2C7B
330
1F
100
AcDbEntity
  8
HEWI
  6
Continuous
370
    18
100
AcDbLine
 10
460.2071480787169
 20
373.4295790770258
 30
0.0
 11
460.5661224376913
 21
373.4295790770258
 31
0.0
  0
LINE
  5
2C7C
330
1F
100
AcDbEntity
  8
HEWI
  6
Continuous
370
    18
100
AcDbLine
 10
455.886635258204
 20
369.4295790770258
 30
0.0
 11
454.8225326941015
 21
373.4295790770258
 31
0.0
  0
LINE
  5
2C7D
330
1F
100
AcDbEntity
  8
HEWI
  6
Continuous
370
    18
100
AcDbLine
 10
454.8225326941015
 20
373.4295790770258
 30
0.0
 11
455.1935262838451
 21
373.4295790770258
 31
0.0
  0
LINE
  5
2C7E
330
1F
100
AcDbEntity
  8
HEWI
  6
Continuous
370
    18
100
AcDbLine
 10
460.2071480787169
 20
369.4295790770258
 30
0.0
 11
460.2071480787169
 21
373.4295790770258
 31
0.0
  0
LINE
  5
2C7F
330
1F
100
AcDbEntity
  8
HEWI
  6
Continuous
370
    18
100
AcDbLine
 10
457.1558660274349
 20
372.4888739488206
 30
0.0
 11
455.9379173094862
 21
369.4295790770258
 31
0.0
  0
LINE
  5
2C80
330
1F
100
AcDbEntity
  8
HEWI
  6
Continuous
370
    18
100
AcDbLine
 10
455.9379173094862
 20
369.4295790770258
 30
0.0
 11
455.886635258204
 21
369.4295790770258
 31
0.0
  0
LINE
  5
2C81
330
1F
100
AcDbEntity
  8
HEWI
  6
Continuous
370
    18
100
AcDbLine
 10
459.4891993607681
 20
373.4295790770258
 30
0.0
 11
458.4106737197426
 21
369.4295790770258
 31
0.0
  0
LINE
  5
2C82
330
1F
100
AcDbEntity
  8
HEWI
  6
Continuous
370
    18
100
AcDbLine
 10
459.1222121812811
 20
373.4295790770258
 30
0.0
 11
459.4891993607681
 21
373.4295790770258
 31
0.0
  0
LINE
  5
2C83
330
1F
100
AcDbEntity
  8
HEWI
  6
Continuous
370
    18
100
AcDbLine
 10
460.5661224376913
 20
373.4295790770258
 30
0.0
 11
460.5661224376913
 21
369.4295790770258
 31
0.0
  0
LINE
  5
2C84
330
1F
100
AcDbEntity
  8
HEWI
  6
Continuous
370
    18
100
AcDbLine
 10
458.4106737197426
 20
369.4295790770258
 30
0.0
 11
458.3593916684606
 21
369.4295790770258
 31
0.0
  0
LINE
  5
2C85
330
1F
100
AcDbEntity
  8
HEWI
  6
Continuous
370
    18
100
AcDbLine
 10
460.5661224376913
 20
369.4295790770258
 30
0.0
 11
460.2071480787169
 21
369.4295790770258
 31
0.0
  0
LINE
  5
2C86
330
1F
100
AcDbEntity
  8
HEWI
  6
Continuous
370
    18
100
AcDbLine
 10
461.9468916684605
 20
371.4295790770258
 30
0.0
 11
461.6468916684607
 21
371.4295790770258
 31
0.0
  0
LINE
  5
2C87
330
1F
100
AcDbEntity
  8
HEWI
  6
Continuous
370
    18
100
AcDbLine
 10
446.9468916684604
 20
371.4295790770258
 30
0.0
 11
447.2468916684606
 21
371.4295790770258
 31
0.0
  0
LINE
  5
2C88
330
1F
100
AcDbEntity
  8
HEWI
  6
Continuous
370
    18
100
AcDbLine
 10
582.7468916677421
 20
667.4295790765714
 30
0.0
 11
583.2468916680072
 21
667.9295790768365
 31
0.0
  0
LINE
  5
2C89
330
1F
100
AcDbEntity
  8
HEWI
  6
Continuous
370
    18
100
AcDbLine
 10
583.2468916680072
 20
680.9295790772148
 30
0.0
 11
582.7468916677421
 21
681.4295790774799
 31
0.0
  0
LINE
  5
2DCA
330
1F
100
AcDbEntity
  8
HEWI
  6
Continuous
370
    18
100
AcDbLine
 10
446.0479291684605
 20
709.429579077026
 30
0.0
 11
577.8468916684617
 21
709.4295790770257
 31
0.0
  0
LINE
  5
2DCB
330
1F
100
AcDbEntity
  8
HEWI
  6
Continuous
370
    18
100
AcDbLine
 10
454.0476104184606
 20
359.4295790770258
 30
0.0
 11
575.8465229184617
 21
359.4295790770258
 31
0.0
  0
LINE
  5
2DD3
330
1F
100
AcDbEntity
  8
HEWI
  6
Continuous
370
    18
100
AcDbLine
 10
444.0468916684606
 20
369.4346665770257
 30
0.0
 11
444.0468916684617
 21
707.4295790770257
 31
0.0
  0
ARC
  5
2DD6
330
1F
100
AcDbEntity
  8
HEWI
  6
Continuous
370
    18
100
AcDbCircle
 10
165.6121370433003
 20
674.4295790770258
 30
0.0
 40
8.999999999999998
100
AcDbArc
 50
270.0
 51
90.0
  0
ARC
  5
2DD7
330
1F
100
AcDbEntity
  8
HEWI
  6
Continuous
370
    18
100
AcDbCircle
 10
165.6121370433003
 20
674.4295790770258
 30
0.0
 40
10.0
100
AcDbArc
 50
270.0
 51
90.0
  0
ARC
  5
2DD8
330
1F
100
AcDbEntity
  8
HEWI
  6
Continuous
370
    18
100
AcDbCircle
 10
165.6121370433003
 20
674.4295790770258
 30
0.0
 40
8.999999999999998
100
AcDbArc
 50
90.0
 51
270.0
  0
ARC
  5
2DD9
330
1F
100
AcDbEntity
  8
HEWI
  6
Continuous
370
    18
100
AcDbCircle
 10
165.6121370433003
 20
674.4295790770258
 30
0.0
 40
10.0
100
AcDbArc
 50
90.0
 51
270.0
  0
ARC
  5
2DDA
330
1F
100
AcDbEntity
  8
HEWI
  6
Continuous
370
    18
100
AcDbCircle
 10
165.6121370433003
 20
674.4295790770258
 30
0.0
 40
7.000000000454305
100
AcDbArc
 50
0.0
 51
180.0
  0
ARC
  5
2DDB
330
1F
100
AcDbEntity
  8
HEWI
  6
Continuous
370
    18
100
AcDbCircle
 10
165.6121370433003
 20
674.4295790770258
 30
0.0
 40
7.000000000454305
100
AcDbArc
 50
180.0
 51
0.0
  0
ARC
  5
2DDC
330
1F
100
AcDbEntity
  8
HEWI
  6
Continuous
370
    18
100
AcDbCircle
 10
165.6121370433003
 20
674.4295790770258
 30
0.0
 40
6.500000000189199
100
AcDbArc
 50
180.0
 51
0.0
  0
ARC
  5
2DDD
330
1F
100
AcDbEntity
  8
HEWI
  6
Continuous
370
    18
100
AcDbCircle
 10
165.6121370433003
 20
674.4295790770258
 30
0.0
 40
6.500000000189199
100
AcDbArc
 50
0.0
 51
180.0
  0
ARC
  5
2DDE
330
1F
100
AcDbEntity
  8
HEWI
  6
Continuous
370
    18
100
AcDbCircle
 10
165.612137042846
 20
673.9295790770257
 30
0.0
 40
2.1
100
AcDbArc
 50
116.8965463040553
 51
243.1034536959447
  0
ARC
  5
2DDF
330
1F
100
AcDbEntity
  8
HEWI
  6
Continuous
370
    18
100
AcDbCircle
 10
165.612137042846
 20
673.9295790770257
 30
0.0
 40
2.1
100
AcDbArc
 50
276.8372777338542
 51
63.10345369594466
  0
ARC
  5
2DE0
330
1F
100
AcDbEntity
  8
HEWI
  6
Continuous
370
    18
100
AcDbCircle
 10
441.0427286124263
 20
633.3450119702806
 30
0.0
 40
1.599999999999949
100
AcDbArc
 50
180.0
 51
224.9999999999987
  0
ARC
  5
2DE1
330
1F
100
AcDbEntity
  8
HEWI
  6
Continuous
370
    18
100
AcDbCircle
 10
441.0427286124263
 20
633.3450119702807
 30
0.0
 40
0.5999999999999491
100
AcDbArc
 50
180.0
 51
224.9999999999999
  0
ARC
  5
2DE2
330
1F
100
AcDbEntity
  8
HEWI
  6
Continuous
370
    18
100
AcDbCircle
 10
441.8468916684605
 20
419.4295790770257
 30
0.0
 40
0.5999999999999918
100
AcDbArc
 50
315.0000000000001
 51
0.0
  0
ARC
  5
2DE3
330
1F
100
AcDbEntity
  8
HEWI
  6
Continuous
370
    18
100
AcDbCircle
 10
441.8468916684605
 20
669.4295790770256
 30
0.0
 40
0.6000000000000807
100
AcDbArc
 50
315.0000000000001
 51
0.0
  0
ARC
  5
2DE4
330
1F
100
AcDbEntity
  8
HEWI
  6
Continuous
370
    18
100
AcDbCircle
 10
441.8468916684605
 20
379.4295790770258
 30
0.0
 40
0.6000000000000315
100
AcDbArc
 50
0.0
 51
44.99999999999988
  0
ARC
  5
2DE5
330
1F
100
AcDbEntity
  8
HEWI
  6
Continuous
370
    18
100
AcDbCircle
 10
441.0427286124582
 20
665.5141461837708
 30
0.0
 40
1.599999999999955
100
AcDbArc
 50
134.9999999999921
 51
180.0
  0
ARC
  5
2DE6
330
1F
100
AcDbEntity
  8
HEWI
  6
Continuous
370
    18
100
AcDbCircle
 10
441.0427286123981
 20
665.5141461837705
 30
0.0
 40
0.5999999999999552
100
AcDbArc
 50
135.0000000000093
 51
180.0
  0
ARC
  5
2DE7
330
1F
100
AcDbEntity
  8
HEWI
  6
Continuous
370
    18
100
AcDbCircle
 10
441.8468916684605
 20
629.4295790770258
 30
0.0
 40
0.6000000000000851
100
AcDbArc
 50
0.0
 51
44.99999999999988
  0
ARC
  5
2DE8
330
1F
100
AcDbEntity
  8
HEWI
  6
Continuous
370
    18
100
AcDbCircle
 10
441.0427286124263
 20
415.5141461837706
 30
0.0
 40
0.5999999999999968
100
AcDbArc
 50
135.0000000000001
 51
180.0
  0
ARC
  5
2DE9
330
1F
100
AcDbEntity
  8
HEWI
  6
Continuous
370
    18
100
AcDbCircle
 10
441.0427286124263
 20
415.5141461837706
 30
0.0
 40
1.599999999999996
100
AcDbArc
 50
135.0000000000001
 51
180.0
  0
ARC
  5
2DEA
330
1F
100
AcDbEntity
  8
HEWI
  6
Continuous
370
    18
100
AcDbCircle
 10
441.0427286124263
 20
383.3450119702808
 30
0.0
 40
0.5999999999999925
100
AcDbArc
 50
180.0
 51
224.9999999999999
  0
ARC
  5
2DEB
330
1F
100
AcDbEntity
  8
HEWI
  6
Continuous
370
    18
100
AcDbCircle
 10
441.0427286124263
 20
383.3450119702808
 30
0.0
 40
1.599999999999992
100
AcDbArc
 50
180.0
 51
224.9999999999999
  0
ARC
  5
2DEC
330
1F
100
AcDbEntity
  8
HEWI
  6
Continuous
370
    18
100
AcDbCircle
 10
444.0468916684606
 20
707.8295790770257
 30
0.0
 40
1.599999999999989
100
AcDbArc
 50
90.0
 51
180.0
  0
ARC
  5
2DED
330
1F
100
AcDbEntity
  8
HEWI
  6
Continuous
370
    18
100
AcDbCircle
 10
444.0468916684606
 20
707.8295790770257
 30
0.0
 40
0.5999999999999895
100
AcDbArc
 50
90.0
 51
180.0
  0
ARC
  5
2DEE
330
1F
100
AcDbEntity
  8
HEWI
  6
Continuous
370
    18
100
AcDbCircle
 10
454.4468916684604
 20
371.4295790770258
 30
0.0
 40
28.00000000000001
100
AcDbArc
 50
80.12898079159269
 51
90.0
  0
ARC
  5
2DEF
330
1F
100
AcDbEntity
  8
HEWI
  6
Continuous
370
    18
100
AcDbCircle
 10
577.8468916684617
 20
361.0295790770257
 30
0.0
 40
0.5999999999999999
100
AcDbArc
 50
270.0
 51
0.0
  0
ARC
  5
2DF0
330
1F
100
AcDbEntity
  8
HEWI
  6
Continuous
370
    18
100
AcDbCircle
 10
577.8468916684614
 20
361.0295790770257
 30
0.0
 40
1.599999999999999
100
AcDbArc
 50
270.0
 51
0.0
  0
ARC
  5
2DF1
330
1F
100
AcDbEntity
  8
HEWI
  6
Continuous
370
    18
100
AcDbCircle
 10
454.0468916684615
 20
369.4295790770257
 30
0.0
 40
9.999999999999994
100
AcDbArc
 50
180.0
 51
270.0
  0
ARC
  5
2DF2
330
1F
100
AcDbEntity
  8
HEWI
  6
Continuous
370
    18
100
AcDbCircle
 10
446.0468916684617
 20
707.4295790770257
 30
0.0
 40
2.000000000000001
100
AcDbArc
 50
90.0
 51
180.0
  0
ARC
  5
2DF3
330
1F
100
AcDbEntity
  8
HEWI
  6
Continuous
370
    18
100
AcDbCircle
 10
575.8468916684616
 20
361.4295790770258
 30
0.0
 40
2.0
100
AcDbArc
 50
270.0
 51
0.0
  0
ARC
  5
2DF4
330
1F
100
AcDbEntity
  8
HEWI
  6
Continuous
370
    18
100
AcDbCircle
 10
507.9468916684616
 20
635.9295790770256
 30
0.0
 40
1.0
100
AcDbArc
 50
90.0
 51
180.0
  0
ARC
  5
2DF5
330
1F
100
AcDbEntity
  8
HEWI
  6
Continuous
370
    18
100
AcDbCircle
 10
513.9468916684616
 20
635.9295790770256
 30
0.0
 40
1.0
100
AcDbArc
 50
0.0
 51
90.0
  0
ARC
  5
2DF6
330
1F
100
AcDbEntity
  8
HEWI
  6
Continuous
370
    18
100
AcDbCircle
 10
513.9468916684618
 20
432.9295790770257
 30
0.0
 40
1.0
100
AcDbArc
 50
270.0
 51
0.0
  0
ARC
  5
2DF7
330
1F
100
AcDbEntity
  8
HEWI
  6
Continuous
370
    18
100
AcDbCircle
 10
507.9468916684616
 20
432.9295790770257
 30
0.0
 40
1.0
100
AcDbArc
 50
180.0
 51
270.0
  0
ARC
  5
2DF8
330
1F
100
AcDbEntity
  8
HEWI
  6
Continuous
370
    18
100
AcDbCircle
 10
458.0468916684617
 20
397.4295790770258
 30
0.0
 40
1.200000000000006
100
AcDbArc
 50
270.0
 51
0.0
  0
ARC
  5
2DF9
330
1F
100
AcDbEntity
  8
HEWI
  6
Continuous
370
    18
100
AcDbCircle
 10
454.0468916684617
 20
397.4295790770258
 30
0.0
 40
1.200000000000006
100
AcDbArc
 50
180.0
 51
270.0
  0
ARC
  5
2DFA
330
1F
100
AcDbEntity
  8
HEWI
  6
Continuous
370
    18
100
AcDbCircle
 10
454.4468916684604
 20
371.4295790770258
 30
0.0
 40
7.200000000000004
100
AcDbArc
 50
0.0
 51
180.0
  0
ARC
  5
2DFB
330
1F
100
AcDbEntity
  8
HEWI
  6
Continuous
370
    18
100
AcDbCircle
 10
454.4468916684604
 20
371.4295790770258
 30
0.0
 40
7.5
100
AcDbArc
 50
0.0
 51
180.0
  0
ARC
  5
2DFC
330
1F
100
AcDbEntity
  8
HEWI
  6
Continuous
370
    18
100
AcDbCircle
 10
454.4468916684604
 20
371.4295790770258
 30
0.0
 40
7.200000000000004
100
AcDbArc
 50
180.0
 51
0.0
  0
ARC
  5
2DFD
330
1F
100
AcDbEntity
  8
HEWI
  6
Continuous
370
    18
100
AcDbCircle
 10
454.4468916684604
 20
371.4295790770258
 30
0.0
 40
7.5
100
AcDbArc
 50
180.0
 51
0.0
  0
SPLINE
  5
2E3D
330
1F
100
AcDbEntity
  8
HEWI
  6
Continuous
370
    18
100
AcDbSpline
210
0.0
220
0.0
230
1.0
 70
    24
 71
     3
 72
    24
 73
    20
 74
     0
 42
0.000000001
 43
0.0000000001
 40
0.0
 40
0.0
 40
0.0
 40
0.0
 40
0.0625
 40
0.0625
 40
0.1249999999999999
 40
0.1249999999999999
 40
0.2499999999999997
 40
0.2499999999999997
 40
0.3124999999999996
 40
0.3124999999999996
 40
0.3749999999999996
 40
0.3749999999999996
 40
0.4999999999999997
 40
0.4999999999999997
 40
0.6249999999999997
 40
0.6249999999999997
 40
0.7499999999999997
 40
0.7499999999999997
 40
1.0
 40
1.0
 40
1.0
 40
1.0
 10
164.662137042846
 20
674.2205790770258
 30
0.0
 10
164.662137042846
 20
674.2599363771759
 30
0.0
 10
164.662137042846
 20
674.2983538005294
 30
0.0
 10
164.662137042846
 20
674.3737232914538
 30
0.0
 10
164.662137042846
 20
674.4106746854452
 30
0.0
 10
164.662137042846
 20
674.5198062021199
 30
0.0
 10
164.662137042846
 20
674.5902904651128
 30
0.0
 10
164.662137042846
 20
674.6938878426285
 30
0.0
 10
164.662137042846
 20
674.728057958986
 30
0.0
 10
164.662137042846
 20
674.795814813931
 30
0.0
 10
164.662137042846
 20
674.8293948699624
 30
0.0
 10
164.662137042846
 20
674.9290491703414
 30
0.0
 10
164.662137042846
 20
674.9941993492362
 30
0.0
 10
164.662137042846
 20
675.1227945947396
 30
0.0
 10
164.662137042846
 20
675.1862326179494
 30
0.0
 10
164.662137042846
 20
675.311913522696
 30
0.0
 10
164.662137042846
 20
675.374152896111
 30
0.0
 10
164.662137042846
 20
675.5595688594596
 30
0.0
 10
164.662137042846
 20
675.6814713083687
 30
0.0
 10
164.662137042846
 20
675.8024111570586
 30
0.0
  0
SPLINE
  5
2E3E
330
1F
100
AcDbEntity
  8
HEWI
  6
Continuous
370
    18
100
AcDbSpline
210
0.0
220
0.0
230
1.0
 70
    24
 71
     3
 72
     8
 73
     4
 74
     0
 42
0.000000001
 43
0.0000000001
 40
0.0
 40
0.0
 40
0.0
 40
0.0
 40
1.0
 40
1.0
 40
1.0
 40
1.0
 10
164.662137042846
 20
672.056746996993
 30
0.0
 10
164.662137042846
 20
672.1826433731567
 30
0.0
 10
164.662137042846
 20
672.3096214578017
 30
0.0
 10
164.662137042846
 20
672.4385790770257
 30
0.0
  0
SPLINE
  5
2E3F
330
1F
100
AcDbEntity
  8
HEWI
  6
Continuous
370
    18
100
AcDbSpline
210
0.0
220
0.0
230
1.0
 70
     8
 71
     3
 72
    73
 73
    69
 74
     0
 42
0.000000001
 43
0.0000000001
 40
0.0
 40
0.0
 40
0.0
 40
0.0
 40
0.0625000000000001
 40
0.0625000000000001
 40
0.1250000000000001
 40
0.1250000000000001
 40
0.1406250000000002
 40
0.1406250000000002
 40
0.1562500000000002
 40
0.1875000000000002
 40
0.1875000000000002
 40
0.2500000000000003
 40
0.2500000000000003
 40
0.2812500000000004
 40
0.2812500000000004
 40
0.3125000000000004
 40
0.3125000000000004
 40
0.3750000000000005
 40
0.3750000000000005
 40
0.4062500000000006
 40
0.4062500000000006
 40
0.4375000000000005
 40
0.4375000000000005
 40
0.5000000000000001
 40
0.5000000000000001
 40
0.53125
 40
0.53125
 40
0.5625
 40
0.5625
 40
0.59375
 40
0.59375
 40
0.609375
 40
0.609375
 40
0.6249999999999999
 40
0.6249999999999999
 40
0.6406249999999999
 40
0.6406249999999999
 40
0.6562499999999997
 40
0.6562499999999997
 40
0.6640624999999997
 40
0.6640624999999997
 40
0.6718749999999997
 40
0.6718749999999997
 40
0.6874999999999996
 40
0.6874999999999996
 40
0.6953124999999995
 40
0.6953124999999995
 40
0.7031249999999993
 40
0.7031249999999993
 40
0.7187499999999995
 40
0.7187499999999995
 40
0.7343749999999995
 40
0.7343749999999995
 40
0.7499999999999995
 40
0.7499999999999995
 40
0.7812499999999995
 40
0.7812499999999995
 40
0.8124999999999996
 40
0.8124999999999996
 40
0.8281249999999996
 40
0.8281249999999996
 40
0.8437499999999996
 40
0.8437499999999996
 40
0.8749999999999996
 40
0.8749999999999996
 40
0.9374999999999998
 40
0.9374999999999998
 40
1.0
 40
1.0
 40
1.0
 40
1.0
 10
164.662137042846
 20
672.4385790770257
 30
0.0
 10
164.7207114450743
 20
672.4469254773025
 30
0.0
 10
164.7763151477741
 20
672.4606827257473
 30
0.0
 10
164.8820482230201
 20
672.4972277645611
 30
0.0
 10
164.932171223566
 20
672.5200336441202
 30
0.0
 10
164.9913973281497
 20
672.5536615396842
 30
0.0
 10
165.0030895209875
 20
672.5606571056276
 30
0.0
 10
165.0260294116493
 20
672.5750944789597
 30
0.0
 10
165.0597227924226
 20
672.597385009459
 30
0.0
 10
165.0913193885491
 20
672.6214871921631
 30
0.0
 10
165.1518091073889
 20
672.6719160877477
 30
0.0
 10
165.1885429126821
 20
672.7084897167371
 30
0.0
 10
165.2383711508375
 20
672.767282792777
 30
0.0
 10
165.254139835068
 20
672.7876023076894
 30
0.0
 10
165.2836075381335
 20
672.829081252796
 30
0.0
 10
165.2973299629957
 20
672.8502568446339
 30
0.0
 10
165.3355618603452
 20
672.9149775170746
 30
0.0
 10
165.3571487381766
 20
672.9597067822676
 30
0.0
 10
165.3838236254173
 20
673.0288983143257
 30
0.0
 10
165.3917611414372
 20
673.0523141078298
 30
0.0
 10
165.4057116675103
 20
673.0998365451382
 30
0.0
 10
165.411737897615
 20
673.1240198007121
 30
0.0
 10
165.4267184793119
 20
673.1968714207867
 30
0.0
 10
165.432652964715
 20
673.245883926721
 30
0.0
 10
165.4354721203855
 20
673.3203645678531
 30
0.0
 10
165.4353927823765
 20
673.345356366581
 30
0.0
 10
165.4330896582844
 20
673.3958379517097
 30
0.0
 10
165.4308694492441
 20
673.4213227630891
 30
0.0
 10
165.424037135252
 20
673.4731392924896
 30
0.0
 10
165.419436106928
 20
673.4994562734905
 30
0.0
 10
165.4103041556175
 20
673.5401611489931
 30
0.0
 10
165.4068708814754
 20
673.5539862566307
 30
0.0
 10
165.3991978032643
 20
673.5819218314333
 30
0.0
 10
165.3949579997608
 20
673.5960458419492
 30
0.0
 10
165.3855157850223
 20
673.6247940258623
 30
0.0
 10
165.3803145738065
 20
673.639419072515
 30
0.0
 10
165.3686893371131
 20
673.6694548467603
 30
0.0
 10
165.3623638960108
 20
673.684607672538
 30
0.0
 10
165.3519526424837
 20
673.7076633364527
 30
0.0
 10
165.3483277338114
 20
673.7154032447258
 30
0.0
 10
165.3407347045454
 20
673.731015495092
 30
0.0
 10
165.3367387223247
 20
673.7389391158163
 30
0.0
 10
165.3244757747736
 20
673.762381106497
 30
0.0
 10
165.3158989490176
 20
673.7776593549541
 30
0.0
 10
165.3024526092583
 20
673.8000715307189
 30
0.0
 10
165.2978734882169
 20
673.8074581345959
 30
0.0
 10
165.2885228774644
 20
673.8220669718769
 30
0.0
 10
165.2837717952609
 20
673.8292547861111
 30
0.0
 10
165.2695568010207
 20
673.8501257711893
 30
0.0
 10
165.2600261914406
 20
673.8632868087356
 30
0.0
 10
165.2407875706992
 20
673.8884744501419
 30
0.0
 10
165.2310337826206
 20
673.9005517817204
 30
0.0
 10
165.2115192680505
 20
673.92353837744
 30
0.0
 10
165.2017862549663
 20
673.9344222298562
 30
0.0
 10
165.1725000364886
 20
673.9656877612972
 30
0.0
 10
165.1528509213051
 20
673.9847077441886
 30
0.0
 10
165.1128569448079
 20
674.0202313567125
 30
0.0
 10
165.0925194408179
 20
674.0367134416615
 30
0.0
 10
165.0613414886288
 20
674.0598652421209
 30
0.0
 10
165.050820392137
 20
674.0673289964391
 30
0.0
 10
165.0296435579773
 20
674.0816867149986
 30
0.0
 10
165.0189884799786
 20
674.0885816641671
 30
0.0
 10
164.9868038527762
 20
674.108468550261
 30
0.0
 10
164.9650536641154
 20
674.1206660639502
 30
0.0
 10
164.8988361636646
 20
674.1543237993665
 30
0.0
 10
164.8533971738209
 20
674.1728730996531
 30
0.0
 10
164.7597994299666
 20
674.2024787048962
 30
0.0
 10
164.7116474678945
 20
674.2135242235478
 30
0.0
 10
164.6621370428435
 20
674.2205790770267
 30
0.0
  0
SPLINE
  5
2E40
330
1F
100
AcDbEntity
  8
HEWI
  6
Continuous
370
    18
100
AcDbSpline
210
0.0
220
0.0
230
1.0
 70
    24
 71
     3
 72
    10
 73
     6
 74
     0
 42
0.000000001
 43
0.0000000001
 40
0.0
 40
0.0
 40
0.0
 40
0.0
 40
0.5
 40
0.5
 40
1.0
 40
1.0
 40
1.0
 40
1.0
 10
166.5621370428459
 20
675.8024111570586
 30
0.0
 10
166.5621370428459
 20
675.7216436392249
 30
0.0
 10
166.5621370428459
 20
675.6404192017562
 30
0.0
 10
166.5621370428459
 20
675.4766503670214
 30
0.0
 10
166.5621370428459
 20
675.3941117828031
 30
0.0
 10
166.5621370428459
 20
675.3105790770262
 30
0.0
  0
SPLINE
  5
2E41
330
1F
100
AcDbEntity
  8
HEWI
  6
Continuous
370
    18
100
AcDbSpline
210
0.0
220
0.0
230
1.0
 70
     8
 71
     3
 72
    64
 73
    60
 74
     0
 42
0.000000001
 43
0.0000000001
 40
0.0
 40
0.0
 40
0.0
 40
0.0
 40
0.0624999999999999
 40
0.0624999999999999
 40
0.1249999999999998
 40
0.1249999999999998
 40
0.1562499999999998
 40
0.1562499999999998
 40
0.1874999999999997
 40
0.1874999999999997
 40
0.2499999999999996
 40
0.2499999999999996
 40
0.2812499999999996
 40
0.2812499999999996
 40
0.3124999999999996
 40
0.3124999999999996
 40
0.3749999999999997
 40
0.3749999999999997
 40
0.4374999999999999
 40
0.4374999999999999
 40
0.46875
 40
0.46875
 40
0.5000000000000001
 40
0.5000000000000001
 40
0.5312500000000004
 40
0.5312500000000004
 40
0.5625000000000005
 40
0.5625000000000005
 40
0.5937500000000007
 40
0.5937500000000007
 40
0.6250000000000008
 40
0.6250000000000008
 40
0.6406250000000008
 40
0.6406250000000008
 40
0.6484375000000008
 40
0.6484375000000008
 40
0.6562500000000008
 40
0.6562500000000008
 40
0.6875000000000008
 40
0.6875000000000008
 40
0.7187500000000007
 40
0.7187500000000007
 40
0.7265625000000007
 40
0.7265625000000007
 40
0.7343750000000007
 40
0.7500000000000006
 40
0.7656250000000005
 40
0.7656250000000005
 40
0.7812500000000004
 40
0.7812500000000004
 40
0.8125000000000001
 40
0.8125000000000001
 40
0.8437500000000001
 40
0.8437500000000001
 40
0.8750000000000001
 40
0.8750000000000001
 40
0.9375000000000001
 40
0.9375000000000001
 40
1.0
 40
1.0
 40
1.0
 40
1.0
 10
166.5621370428459
 20
675.3105790770257
 30
0.0
 10
166.5160698296613
 20
675.3003559527051
 30
0.0
 10
166.4723690921253
 20
675.2864154826073
 30
0.0
 10
166.3893461282009
 20
675.2522299217196
 30
0.0
 10
166.350027736731
 20
675.2319756867962
 30
0.0
 10
166.2942929739786
 20
675.1973028876734
 30
0.0
 10
166.2762033830836
 20
675.1849848920856
 30
0.0
 10
166.2414347972301
 20
675.1591923648727
 30
0.0
 10
166.2247567417071
 20
675.145727818824
 30
0.0
 10
166.1767678917958
 20
675.1037529782059
 30
0.0
 10
166.1474945219822
 20
675.0736698471837
 30
0.0
 10
166.1075337409145
 20
675.0257124078419
 30
0.0
 10
166.0948737586631
 20
675.0092522687993
 30
0.0
 10
166.0708764770629
 20
674.9754109963985
 30
0.0
 10
166.0595131109492
 20
674.9579820330869
 30
0.0
 10
166.0277230113434
 20
674.9048393023988
 30
0.0
 10
166.0095146031469
 20
674.8682106662372
 30
0.0
 10
165.9788649659383
 20
674.7926994934923
 30
0.0
 10
165.9664208583729
 20
674.7538225234023
 30
0.0
 10
165.9521930405235
 20
674.6936697563942
 30
0.0
 10
165.9481930409835
 20
674.673309601288
 30
0.0
 10
165.9417467103835
 20
674.6318874880365
 30
0.0
 10
165.9393036194933
 20
674.6108119051122
 30
0.0
 10
165.9361054241406
 20
674.5682578919456
 30
0.0
 10
165.9353396977242
 20
674.5467309938666
 30
0.0
 10
165.9355974265666
 20
674.5029981207178
 30
0.0
 10
165.9366182088822
 20
674.4807953630404
 30
0.0
 10
165.9406917472001
 20
674.4353907608348
 30
0.0
 10
165.9437291890144
 20
674.4123791645448
 30
0.0
 10
165.9520847221085
 20
674.3655773042499
 30
0.0
 10
165.95739722807
 20
674.3417619890918
 30
0.0
 10
165.9675386894027
 20
674.3049300024234
 30
0.0
 10
165.9712844059806
 20
674.2924650817514
 30
0.0
 10
165.9775558451929
 20
674.2733873894898
 30
0.0
 10
165.9797555539874
 20
674.2669644383323
 30
0.0
 10
165.9843973911064
 20
674.2539696319365
 30
0.0
 10
165.9868368054651
 20
674.2474080523406
 30
0.0
 10
165.9994930464927
 20
674.2147019506401
 30
0.0
 10
166.0112297229974
 20
674.188439233485
 30
0.0
 10
166.0384530875936
 20
674.1357936521386
 30
0.0
 10
166.053204927568
 20
674.1108313684913
 30
0.0
 10
166.0729364692129
 20
674.0811144403397
 30
0.0
 10
166.0769628437875
 20
674.0752246282373
 30
0.0
 10
166.0850516701318
 20
674.0637192396386
 30
0.0
 10
166.097243704647
 20
674.0468613845169
 30
0.0
 10
166.1178671944458
 20
674.0205603202704
 30
0.0
 10
166.1347190582244
 20
674.0011120393735
 30
0.0
 10
166.1517637922151
 20
673.9823445346742
 30
0.0
 10
166.1604061722889
 20
673.9732796883846
 30
0.0
 10
166.1863352113562
 20
673.9472845128942
 30
0.0
 10
166.2037112595891
 20
673.9314358416041
 30
0.0
 10
166.2388651607199
 20
673.9019444349824
 30
0.0
 10
166.2566408037144
 20
673.8883113889096
 30
0.0
 10
166.2927196480536
 20
673.8628912439765
 30
0.0
 10
166.3110218306503
 20
673.8511080236651
 30
0.0
 10
166.366843979041
 20
673.8182486468596
 30
0.0
 10
166.4047178249248
 20
673.7999612451024
 30
0.0
 10
166.4821426652024
 20
673.769604031627
 30
0.0
 10
166.5216882465206
 20
673.7575553758914
 30
0.0
 10
166.5621370428459
 20
673.7485790770258
 30
0.0
  0
SPLINE
  5
2E42
330
1F
100
AcDbEntity
  8
HEWI
  6
Continuous
370
    18
100
AcDbSpline
210
0.0
220
0.0
230
1.0
 70
    24
 71
     3
 72
    22
 73
    18
 74
     0
 42
0.000000001
 43
0.0000000001
 40
0.0
 40
0.0
 40
0.0
 40
0.0
 40
0.125
 40
0.125
 40
0.2500000000000001
 40
0.2500000000000001
 40
0.3125000000000001
 40
0.3125000000000001
 40
0.3750000000000002
 40
0.3750000000000002
 40
0.5000000000000002
 40
0.5000000000000002
 40
0.6250000000000002
 40
0.6250000000000002
 40
0.7500000000000004
 40
0.7500000000000004
 40
1.0
 40
1.0
 40
1.0
 40
1.0
 10
166.5621370428459
 20
673.7485790770258
 30
0.0
 10
166.5621370428459
 20
673.6946284692631
 30
0.0
 10
166.5621370428459
 20
673.6421747568378
 30
0.0
 10
166.5621370428459
 20
673.5395354607626
 30
0.0
 10
166.5621370428459
 20
673.4893491440593
 30
0.0
 10
166.5621370428459
 20
673.4153371763722
 30
0.0
 10
166.5621370428459
 20
673.3908790053376
 30
0.0
 10
166.5621370428459
 20
673.3423295548999
 30
0.0
 10
166.5621370428459
 20
673.3182419412403
 30
0.0
 10
166.5621370428459
 20
673.2468647879226
 30
0.0
 10
166.5621370428459
 20
673.2002965013539
 30
0.0
 10
166.5621370428459
 20
673.1086271330266
 30
0.0
 10
166.5621370428459
 20
673.0635289294466
 30
0.0
 10
166.5621370428459
 20
672.9744245256856
 30
0.0
 10
166.5621370428459
 20
672.9304200421002
 30
0.0
 10
166.5621370428459
 20
672.7996540019874
 30
0.0
 10
166.5621370428459
 20
672.7141178411845
 30
0.0
 10
166.5621370428459
 20
672.6295790770258
 30
0.0
  0
SPLINE
  5
2E43
330
1F
100
AcDbEntity
  8
HEWI
  6
Continuous
370
    18
100
AcDbSpline
210
0.0
220
0.0
230
1.0
 70
     8
 71
     3
 72
    40
 73
    36
 74
     0
 42
0.000000001
 43
0.0000000001
 40
0.0
 40
0.0
 40
0.0
 40
0.0
 40
0.0624999999999987
 40
0.0624999999999987
 40
0.1249999999999973
 40
0.1249999999999973
 40
0.1874999999999959
 40
0.1874999999999959
 40
0.2187499999999952
 40
0.2187499999999952
 40
0.2499999999999946
 40
0.2499999999999946
 40
0.3124999999999936
 40
0.3124999999999936
 40
0.3437499999999934
 40
0.3437499999999934
 40
0.3749999999999932
 40
0.3749999999999932
 40
0.437499999999993
 40
0.437499999999993
 40
0.499999999999993
 40
0.499999999999993
 40
0.5312499999999934
 40
0.5312499999999934
 40
0.5624999999999936
 40
0.5624999999999936
 40
0.624999999999994
 40
0.624999999999994
 40
0.7499999999999958
 40
0.7499999999999958
 40
0.8124999999999966
 40
0.8124999999999966
 40
0.8749999999999975
 40
0.8749999999999975
 40
1.0
 40
1.0
 40
1.0
 40
1.0
 10
166.5621370428459
 20
672.6295790770258
 30
0.0
 10
166.5368589789307
 20
672.6263958819114
 30
0.0
 10
166.5113743351705
 20
672.6219658663917
 30
0.0
 10
166.4598796833422
 20
672.6103204457542
 30
0.0
 10
166.433819294957
 20
672.6030907170504
 30
0.0
 10
166.3812364754476
 20
672.5854414060843
 30
0.0
 10
166.3554171285289
 20
672.5752583072216
 30
0.0
 10
166.3174016754578
 20
672.5579171833453
 30
0.0
 10
166.3048490759484
 20
672.5517917045501
 30
0.0
 10
166.2799868566719
 20
672.538837112419
 30
0.0
 10
166.2676464263491
 20
672.5319897303402
 30
0.0
 10
166.2311990876685
 20
672.510480595004
 30
0.0
 10
166.2082051010179
 20
672.4951860079943
 30
0.0
 10
166.1754439983621
 20
672.4709545661553
 30
0.0
 10
166.1648129724892
 20
672.4626615842472
 30
0.0
 10
166.1441025803999
 20
672.4456584464324
 30
0.0
 10
166.1339963537525
 20
672.4369211531145
 30
0.0
 10
166.1049040617174
 20
672.4105048064298
 30
0.0
 10
166.0869932837374
 20
672.3925154647276
 30
0.0
 10
166.0536299779785
 20
672.3558396968314
 30
0.0
 10
166.0381806708199
 20
672.3371525468948
 30
0.0
 10
166.0166168228272
 20
672.308613296462
 30
0.0
 10
166.009682622543
 20
672.2989917958834
 30
0.0
 10
165.9964093031125
 20
672.2797024806584
 30
0.0
 10
165.9900762796287
 20
672.270046440085
 30
0.0
 10
165.9719119135002
 20
672.24103380217
 30
0.0
 10
165.9609114570206
 20
672.2216323317161
 30
0.0
 10
165.9308075121439
 20
672.1631823533816
 30
0.0
 10
165.9145716878104
 20
672.1238857036126
 30
0.0
 10
165.8951045476847
 20
672.0642582820582
 30
0.0
 10
165.8894300746337
 20
672.044223951683
 30
0.0
 10
165.8797427238407
 20
672.0042424007093
 30
0.0
 10
165.8757184245279
 20
671.9842720314143
 30
0.0
 10
165.8659750258193
 20
671.9243816606708
 30
0.0
 10
165.8625707647619
 20
671.8844793819033
 30
0.0
 10
165.8621366531056
 20
671.8445432965006
 30
0.0
  0
LWPOLYLINE
  5
2EA6
330
1F
100
AcDbEntity
  8
0
100
AcDbPolyline
 90
        4
 70
     1
 43
0.0
 10
35.61213704330021
 20
113.9657221862316
 10
295.6121370433002
 20
113.9657221862316
 10
295.6121370433002
 20
250.9657221862317
 10
35.61213704330021
 20
250.9657221862317
  0
LINE
  5
2EA7
330
1F
100
AcDbEntity
  8
HEWI
100
AcDbLine
 10
172.1121370434893
 20
110.1657221866862
 30
0.0
 11
165.6121370433002
 21
110.1657221866862
 31
0.0
  0
LINE
  5
2EA8
330
1F
100
AcDbEntity
  8
HEWI
100
AcDbLine
 10
165.6121370433002
 20
110.1657221866862
 30
0.0
 11
159.112137043111
 21
110.1657221866862
 31
0.0
  0
LINE
  5
2EA9
330
1F
100
AcDbEntity
  8
HEWI
100
AcDbLine
 10
165.6121370433002
 20
110.6657221869513
 30
0.0
 11
165.6121370433002
 21
110.1657221866862
 31
0.0
  0
LINE
  5
2EAA
330
1F
100
AcDbEntity
  8
HEWI
100
AcDbLine
 10
174.6121370433002
 20
110.6657221862317
 30
0.0
 11
156.6121370433002
 21
110.6657221862317
 31
0.0
  0
LINE
  5
2EAB
330
1F
100
AcDbEntity
  8
HEWI
100
AcDbLine
 10
174.6121370433002
 20
110.6657221862317
 30
0.0
 11
175.6121370433002
 21
111.6657221862317
 31
0.0
  0
LINE
  5
2EAC
330
1F
100
AcDbEntity
  8
HEWI
100
AcDbLine
 10
156.6121370433002
 20
110.6657221862317
 30
0.0
 11
155.6121370433002
 21
111.6657221862317
 31
0.0
  0
LINE
  5
2EAD
330
1F
100
AcDbEntity
  8
HEWI
100
AcDbLine
 10
155.6121370433002
 20
111.6657221862317
 30
0.0
 11
175.6121370433002
 21
111.6657221862317
 31
0.0
  0
LINE
  5
2EAE
330
1F
100
AcDbEntity
  8
HEWI
100
AcDbLine
 10
175.6121370433002
 20
111.6657221862317
 30
0.0
 11
175.6121370433002
 21
113.9657221862316
 31
0.0
  0
LINE
  5
2EAF
330
1F
100
AcDbEntity
  8
HEWI
100
AcDbLine
 10
155.6121370433002
 20
111.6657221862317
 30
0.0
 11
155.6121370433002
 21
113.9657221862316
 31
0.0
  0
LINE
  5
2EB0
330
1F
100
AcDbEntity
  8
HEWI
100
AcDbLine
 10
172.1121370434893
 20
110.1657221866862
 30
0.0
 11
172.6121370437545
 21
110.6657221869513
 31
0.0
  0
LINE
  5
2EB1
330
1F
100
AcDbEntity
  8
HEWI
100
AcDbLine
 10
158.6121370428459
 20
110.6657221869513
 30
0.0
 11
159.112137043111
 21
110.1657221866862
 31
0.0
  0
LWPOLYLINE
  5
2EB2
330
1F
100
AcDbEntity
  8
0
100
AcDbPolyline
 90
        4
 70
     1
 43
0.0
 10
37.21213704330023
 20
115.5657221862316
 10
294.0121370433003
 20
115.5657221862316
 10
294.0121370433003
 20
249.3657221862316
 10
37.21213704330023
 20
249.3657221862317
  0
LINE
  5
2EB4
330
1F
100
AcDbEntity
  8
HEWI
100
AcDbLine
 10
295.9121370433004
 20
245.4657221862317
 30
0.0
 11
295.9121370433004
 21
237.9657221862316
 31
0.0
  0
LINE
  5
2EB5
330
1F
100
AcDbEntity
  8
HEWI
100
AcDbLine
 10
295.6121370433004
 20
237.9657221862316
 30
0.0
 11
295.9121370433004
 21
237.9657221862316
 31
0.0
  0
LINE
  5
2EB6
330
1F
100
AcDbEntity
  8
HEWI
100
AcDbLine
 10
295.9121370433004
 20
237.9657221862316
 30
0.0
 11
298.3121370433005
 21
237.9657221862316
 31
0.0
  0
LINE
  5
2EB7
330
1F
100
AcDbEntity
  8
HEWI
100
AcDbLine
 10
298.6121370433004
 20
245.1657221862317
 30
0.0
 11
298.6121370433004
 21
237.9657221862316
 31
0.0
  0
LINE
  5
2EB8
330
1F
100
AcDbEntity
  8
HEWI
100
AcDbLine
 10
298.3121370433005
 20
237.9657221862316
 30
0.0
 11
298.3121370433005
 21
245.4657221862317
 31
0.0
  0
LINE
  5
2EB9
330
1F
100
AcDbEntity
  8
HEWI
100
AcDbLine
 10
298.6121370433004
 20
237.9657221862316
 30
0.0
 11
298.6121370433004
 21
230.7657221862316
 31
0.0
  0
LINE
  5
2EBA
330
1F
100
AcDbEntity
  8
HEWI
100
AcDbLine
 10
298.3121370433005
 20
237.9657221862316
 30
0.0
 11
298.6121370433004
 21
237.9657221862316
 31
0.0
  0
LINE
  5
2EBB
330
1F
100
AcDbEntity
  8
HEWI
100
AcDbLine
 10
298.3121370433005
 20
245.4657221862317
 30
0.0
 11
295.9121370433004
 21
245.4657221862317
 31
0.0
  0
LINE
  5
2EBC
330
1F
100
AcDbEntity
  8
HEWI
100
AcDbLine
 10
295.9121370433004
 20
245.4657221862317
 30
0.0
 11
295.6121370433004
 21
245.1657221862316
 31
0.0
  0
LINE
  5
2EBD
330
1F
100
AcDbEntity
  8
HEWI
100
AcDbLine
 10
298.6121370433004
 20
245.1657221862317
 30
0.0
 11
298.3121370433005
 21
245.4657221862317
 31
0.0
  0
LINE
  5
2EBE
330
1F
100
AcDbEntity
  8
HEWI
100
AcDbLine
 10
295.9121370433004
 20
245.4657221862317
 30
0.0
 11
295.9121370433004
 21
237.9657221862316
 31
0.0
  0
LINE
  5
2EBF
330
1F
100
AcDbEntity
  8
HEWI
100
AcDbLine
 10
295.6121370433002
 20
237.9657221862316
 30
0.0
 11
295.9121370433004
 21
237.9657221862316
 31
0.0
  0
LINE
  5
2EC0
330
1F
100
AcDbEntity
  8
HEWI
100
AcDbLine
 10
295.9121370433004
 20
237.9657221862316
 30
0.0
 11
298.3121370433005
 21
237.9657221862316
 31
0.0
  0
LINE
  5
2EC1
330
1F
100
AcDbEntity
  8
HEWI
100
AcDbLine
 10
295.9121370433004
 20
237.9657221862316
 30
0.0
 11
295.9121370433004
 21
230.4657221862317
 31
0.0
  0
LINE
  5
2EC2
330
1F
100
AcDbEntity
  8
HEWI
100
AcDbLine
 10
298.6121370433002
 20
245.1657221862317
 30
0.0
 11
298.6121370433002
 21
237.9657221862316
 31
0.0
  0
LINE
  5
2EC3
330
1F
100
AcDbEntity
  8
HEWI
100
AcDbLine
 10
298.3121370433005
 20
237.9657221862316
 30
0.0
 11
298.3121370433005
 21
245.4657221862317
 31
0.0
  0
LINE
  5
2EC4
330
1F
100
AcDbEntity
  8
HEWI
100
AcDbLine
 10
298.6121370433002
 20
237.9657221862316
 30
0.0
 11
298.6121370433002
 21
230.7657221862316
 31
0.0
  0
LINE
  5
2EC5
330
1F
100
AcDbEntity
  8
HEWI
100
AcDbLine
 10
298.3121370433005
 20
237.9657221862316
 30
0.0
 11
298.6121370433002
 21
237.9657221862316
 31
0.0
  0
LINE
  5
2EC6
330
1F
100
AcDbEntity
  8
HEWI
100
AcDbLine
 10
298.3121370433005
 20
237.9657221862316
 30
0.0
 11
298.3121370433005
 21
230.4657221862317
 31
0.0
  0
LINE
  5
2EC7
330
1F
100
AcDbEntity
  8
HEWI
100
AcDbLine
 10
298.3121370433005
 20
245.4657221862317
 30
0.0
 11
295.9121370433004
 21
245.4657221862317
 31
0.0
  0
LINE
  5
2EC8
330
1F
100
AcDbEntity
  8
HEWI
100
AcDbLine
 10
295.9121370433004
 20
245.4657221862317
 30
0.0
 11
295.6121370433002
 21
245.1657221862316
 31
0.0
  0
LINE
  5
2EC9
330
1F
100
AcDbEntity
  8
HEWI
100
AcDbLine
 10
295.6121370433002
 20
230.7657221862317
 30
0.0
 11
295.9121370433004
 21
230.4657221862317
 31
0.0
  0
LINE
  5
2ECA
330
1F
100
AcDbEntity
  8
HEWI
100
AcDbLine
 10
295.9121370433004
 20
230.4657221862317
 30
0.0
 11
298.3121370433005
 21
230.4657221862317
 31
0.0
  0
LINE
  5
2ECB
330
1F
100
AcDbEntity
  8
HEWI
100
AcDbLine
 10
298.6121370433002
 20
245.1657221862317
 30
0.0
 11
298.3121370433005
 21
245.4657221862317
 31
0.0
  0
LINE
  5
2ECC
330
1F
100
AcDbEntity
  8
HEWI
100
AcDbLine
 10
298.3121370433005
 20
230.4657221862317
 30
0.0
 11
298.6121370433002
 21
230.7657221862316
 31
0.0
  0
LINE
  5
2ECD
330
1F
100
AcDbEntity
  8
HEWI
100
AcDbLine
 10
35.3121370432998
 20
245.4657221862317
 30
0.0
 11
35.3121370432998
 21
237.9657221862316
 31
0.0
  0
LINE
  5
2ECE
330
1F
100
AcDbEntity
  8
HEWI
100
AcDbLine
 10
35.61213704329976
 20
237.9657221862316
 30
0.0
 11
35.3121370432998
 21
237.9657221862316
 31
0.0
  0
LINE
  5
2ECF
330
1F
100
AcDbEntity
  8
HEWI
100
AcDbLine
 10
35.3121370432998
 20
237.9657221862316
 30
0.0
 11
32.91213704329994
 21
237.9657221862316
 31
0.0
  0
LINE
  5
2ED0
330
1F
100
AcDbEntity
  8
HEWI
100
AcDbLine
 10
32.61213704329975
 20
245.1657221862317
 30
0.0
 11
32.61213704329975
 21
237.9657221862316
 31
0.0
  0
LINE
  5
2ED1
330
1F
100
AcDbEntity
  8
HEWI
100
AcDbLine
 10
32.91213704329994
 20
237.9657221862316
 30
0.0
 11
32.91213704329994
 21
245.4657221862317
 31
0.0
  0
LINE
  5
2ED2
330
1F
100
AcDbEntity
  8
HEWI
100
AcDbLine
 10
32.61213704329975
 20
237.9657221862316
 30
0.0
 11
32.61213704329975
 21
230.7657221862316
 31
0.0
  0
LINE
  5
2ED3
330
1F
100
AcDbEntity
  8
HEWI
100
AcDbLine
 10
32.91213704329994
 20
237.9657221862316
 30
0.0
 11
32.61213704329975
 21
237.9657221862316
 31
0.0
  0
LINE
  5
2ED4
330
1F
100
AcDbEntity
  8
HEWI
100
AcDbLine
 10
32.91213704329994
 20
245.4657221862317
 30
0.0
 11
35.3121370432998
 21
245.4657221862317
 31
0.0
  0
LINE
  5
2ED5
330
1F
100
AcDbEntity
  8
HEWI
100
AcDbLine
 10
35.3121370432998
 20
245.4657221862317
 30
0.0
 11
35.61213704329976
 21
245.1657221862316
 31
0.0
  0
LINE
  5
2ED6
330
1F
100
AcDbEntity
  8
HEWI
100
AcDbLine
 10
32.61213704329975
 20
245.1657221862317
 30
0.0
 11
32.91213704329994
 21
245.4657221862317
 31
0.0
  0
LINE
  5
2ED7
330
1F
100
AcDbEntity
  8
HEWI
100
AcDbLine
 10
35.31213704330003
 20
245.4657221862317
 30
0.0
 11
35.31213704330003
 21
237.9657221862316
 31
0.0
  0
LINE
  5
2ED8
330
1F
100
AcDbEntity
  8
HEWI
100
AcDbLine
 10
35.61213704329998
 20
237.9657221862316
 30
0.0
 11
35.31213704330003
 21
237.9657221862316
 31
0.0
  0
LINE
  5
2ED9
330
1F
100
AcDbEntity
  8
HEWI
100
AcDbLine
 10
35.31213704330003
 20
237.9657221862316
 30
0.0
 11
32.91213704329994
 21
237.9657221862316
 31
0.0
  0
LINE
  5
2EDA
330
1F
100
AcDbEntity
  8
HEWI
100
AcDbLine
 10
35.31213704330003
 20
237.9657221862316
 30
0.0
 11
35.31213704330003
 21
230.4657221862317
 31
0.0
  0
LINE
  5
2EDB
330
1F
100
AcDbEntity
  8
HEWI
100
AcDbLine
 10
32.61213704329998
 20
245.1657221862317
 30
0.0
 11
32.61213704329998
 21
237.9657221862316
 31
0.0
  0
LINE
  5
2EDC
330
1F
100
AcDbEntity
  8
HEWI
100
AcDbLine
 10
32.91213704329994
 20
237.9657221862316
 30
0.0
 11
32.91213704329994
 21
245.4657221862317
 31
0.0
  0
LINE
  5
2EDD
330
1F
100
AcDbEntity
  8
HEWI
100
AcDbLine
 10
32.61213704329998
 20
237.9657221862316
 30
0.0
 11
32.61213704329998
 21
230.7657221862316
 31
0.0
  0
LINE
  5
2EDE
330
1F
100
AcDbEntity
  8
HEWI
100
AcDbLine
 10
32.91213704329994
 20
237.9657221862316
 30
0.0
 11
32.61213704329998
 21
237.9657221862316
 31
0.0
  0
LINE
  5
2EDF
330
1F
100
AcDbEntity
  8
HEWI
100
AcDbLine
 10
32.91213704329994
 20
237.9657221862316
 30
0.0
 11
32.91213704329994
 21
230.4657221862317
 31
0.0
  0
LINE
  5
2EE0
330
1F
100
AcDbEntity
  8
HEWI
100
AcDbLine
 10
32.91213704329994
 20
245.4657221862317
 30
0.0
 11
35.31213704330003
 21
245.4657221862317
 31
0.0
  0
LINE
  5
2EE1
330
1F
100
AcDbEntity
  8
HEWI
100
AcDbLine
 10
35.31213704330003
 20
245.4657221862317
 30
0.0
 11
35.61213704329998
 21
245.1657221862316
 31
0.0
  0
LINE
  5
2EE2
330
1F
100
AcDbEntity
  8
HEWI
100
AcDbLine
 10
35.61213704329998
 20
230.7657221862317
 30
0.0
 11
35.31213704330003
 21
230.4657221862317
 31
0.0
  0
LINE
  5
2EE3
330
1F
100
AcDbEntity
  8
HEWI
100
AcDbLine
 10
35.31213704330003
 20
230.4657221862317
 30
0.0
 11
32.91213704329994
 21
230.4657221862317
 31
0.0
  0
LINE
  5
2EE4
330
1F
100
AcDbEntity
  8
HEWI
100
AcDbLine
 10
32.61213704329998
 20
245.1657221862317
 30
0.0
 11
32.91213704329994
 21
245.4657221862317
 31
0.0
  0
LINE
  5
2EE5
330
1F
100
AcDbEntity
  8
HEWI
100
AcDbLine
 10
32.91213704329994
 20
230.4657221862317
 30
0.0
 11
32.61213704329998
 21
230.7657221862316
 31
0.0
  0
LWPOLYLINE
  5
2F02
330
1F
100
AcDbEntity
  8
HEWI
100
AcDbPolyline
 90
        4
 70
     1
 43
0.0
 10
62.1121370433002
 20
250.9657221862317
 10
89.11213704330021
 20
250.9657221862317
 10
89.11213704330021
 20
253.9657221862317
 10
62.1121370433002
 20
253.9657221862317
  0
LWPOLYLINE
  5
2F05
330
1F
100
AcDbEntity
  8
HEWI
100
AcDbPolyline
 90
        4
 70
     1
 43
0.0
 10
269.1121370433002
 20
250.9657221862317
 10
242.1121370433002
 20
250.9657221862317
 10
242.1121370433002
 20
253.9657221862317
 10
269.1121370433002
 20
253.9657221862317
  0
ENDSEC
  0
SECTION
  2
OBJECTS
  0
DICTIONARY
  5
C
330
0
100
AcDbDictionary
281
     1
  3
ACAD_CIP_PREVIOUS_PRODUCT_INFO
350
615
  3
ACAD_COLOR
350
1EB
  3
ACAD_DETAILVIEWSTYLE
350
5EB
  3
ACAD_GROUP
350
D
  3
ACAD_LAYOUT
350
1EE
  3
ACAD_MATERIAL
350
1D6
  3
ACAD_MLEADERSTYLE
350
5E7
  3
ACAD_MLINESTYLE
350
17
  3
ACAD_PLOTSETTINGS
350
19
  3
ACAD_PLOTSTYLENAME
350
10D
  3
ACAD_SCALELIST
350
5D5
  3
ACAD_SECTIONVIEWSTYLE
350
5E9
  3
ACAD_TABLESTYLE
350
1EC
  3
ACAD_VISUALSTYLE
350
1DA
  3
ACDB_RECOMPOSE_DATA
350
2F07
  3
AcDbVariableDictionary
350
1F3
  3
AcDsDecomposeData
350
2F0D
  0
DICTIONARY
  5
3E4
330
2
100
AcDbDictionary
280
     1
281
     1
  3
ACAD_LAYERSTATES
360
3E5
  0
DICTIONARY
  5
624
330
10
100
AcDbDictionary
280
     1
281
     1
  3
ADSK_XREC_LAYER_RECONCILED
360
625
  0
DICTIONARY
  5
626
330
3DD
100
AcDbDictionary
280
     1
281
     1
  3
ADSK_XREC_LAYER_RECONCILED
360
627
  0
DICTIONARY
  5
628
330
4D6
100
AcDbDictionary
280
     1
281
     1
  3
ADSK_XREC_LAYER_RECONCILED
360
629
  0
DICTIONARY
  5
62A
330
4D7
100
AcDbDictionary
280
     1
281
     1
  3
ADSK_XREC_LAYER_RECONCILED
360
62B
  0
DICTIONARY
  5
107
330
1F
100
AcDbDictionary
280
     1
281
     1
  3
ACAD_LAYOUTSELFREF
360
1D3
  3
ACAD_SORTENTS
360
3BB
  0
DICTIONARY
  5
105
330
1B
100
AcDbDictionary
280
     1
281
     1
  3
ACAD_LAYOUTSELFREF
360
1D2
  0
XRECORD
  5
615
102
{ACAD_REACTORS
330
C
102
}
330
C
100
AcDbXrecord
280
     1
300
ACDLT
300
2016
300
ACDLT_F_S
  0
DICTIONARY
  5
1EB
102
{ACAD_REACTORS
330
C
102
}
330
C
100
AcDbDictionary
281
     1
  0
DICTIONARY
  5
5EB
102
{ACAD_REACTORS
330
C
102
}
330
C
100
AcDbDictionary
281
     1
  3
Imperial24
350
5EC
  3
Metric50
350
677
  0
DICTIONARY
  5
D
102
{ACAD_REACTORS
330
C
102
}
330
C
100
AcDbDictionary
281
     1
  0
DICTIONARY
  5
1EE
102
{ACAD_REACTORS
330
C
102
}
330
C
100
AcDbDictionary
281
     1
  3
Layout1
350
1F0
  3
Model
350
1EF
  0
DICTIONARY
  5
1D6
102
{ACAD_REACTORS
330
C
102
}
330
C
100
AcDbDictionary
281
     1
  3
ByBlock
350
1D8
  3
ByLayer
350
1D7
  3
Global
350
1D9
  0
DICTIONARY
  5
5E7
102
{ACAD_REACTORS
330
C
102
}
330
C
100
AcDbDictionary
281
     1
  3
Standard
350
5E8
  0
DICTIONARY
  5
17
102
{ACAD_REACTORS
330
C
102
}
330
C
100
AcDbDictionary
281
     1
  3
STANDARD
350
18
  0
DICTIONARY
  5
19
102
{ACAD_REACTORS
330
C
102
}
330
C
100
AcDbDictionary
281
     1
  0
ACDBDICTIONARYWDFLT
  5
10D
102
{ACAD_REACTORS
330
C
102
}
330
C
100
AcDbDictionary
281
     1
  3
Normal
350
10E
100
AcDbDictionaryWithDefault
340
10E
  0
DICTIONARY
  5
5D5
102
{ACAD_REACTORS
330
C
102
}
330
C
100
AcDbDictionary
281
     1
  3
A0
350
5D6
  3
A1
350
5D7
  3
A2
350
5D8
  3
A3
350
5D9
  3
A4
350
5DA
  3
A5
350
5DB
  3
A6
350
5DC
  3
A7
350
5DD
  3
A8
350
5DE
  3
A9
350
5DF
  3
B0
350
5E0
  3
B1
350
5E1
  3
B2
350
5E2
  3
B3
350
5E3
  3
B4
350
5E4
  3
B5
350
5E5
  3
B6
350
5E6
  0
DICTIONARY
  5
5E9
102
{ACAD_REACTORS
330
C
102
}
330
C
100
AcDbDictionary
281
     1
  3
Imperial24
350
5EA
  3
Metric50
350
676
  0
DICTIONARY
  5
1EC
102
{ACAD_REACTORS
330
C
102
}
330
C
100
AcDbDictionary
281
     1
  3
Standard
350
1ED
  0
DICTIONARY
  5
1DA
102
{ACAD_REACTORS
330
C
102
}
330
C
100
AcDbDictionary
281
     1
  3
2dWireframe
350
1E0
  3
3D Hidden
350
1E2
  3
3dWireframe
350
1E1
  3
Basic
350
1DF
  3
Brighten
350
1E6
  3
ColorChange
350
1EA
  3
Conceptual
350
1E3
  3
Dim
350
1E5
  3
EdgeColorOff
350
5D4
  3
Facepattern
350
1E9
  3
Flat
350
1DB
  3
FlatWithEdges
350
1DC
  3
Gouraud
350
1DD
  3
GouraudWithEdges
350
1DE
  3
Hidden
350
5CC
  3
JitterOff
350
5D2
  3
Linepattern
350
1E8
  3
OverhangOff
350
5D3
  3
Realistic
350
1E4
  3
Shaded
350
5D1
  3
Shaded with edges
350
5D0
  3
Shades of Gray
350
5CD
  3
Sketchy
350
5CE
  3
Thicken
350
1E7
  3
Wireframe
350
5CB
  3
X-Ray
350
5CF
  0
XRECORD
  5
2F07
102
{ACAD_REACTORS
330
C
102
}
330
C
100
AcDbXrecord
280
     1
 90
        1
330
1ED
  0
DICTIONARY
  5
1F3
102
{ACAD_REACTORS
330
C
102
}
330
C
100
AcDbDictionary
281
     1
  3
CANNOSCALE
350
630
  3
CMLEADERSTYLE
350
62C
  3
CTABLESTYLE
350
1F4
  3
CVIEWDETAILSTYLE
350
62D
  3
CVIEWSECTIONSTYLE
350
62E
  3
DIMASSOC
350
586
  3
INDEXCTL
350
585
  3
LAYEREVAL
350
632
  3
LAYERNOTIFY
350
633
  3
LIGHTINGUNITS
350
631
  3
MSLTSCALE
350
62F
  3
SORTENTS
350
584
  0
DICTIONARY
  5
2F0D
102
{ACAD_REACTORS
330
C
102
}
330
C
100
AcDbDictionary
281
     1
  3
AcDsRecords
350
2F0F
  3
AcDsSchemas
350
2F0E
1001
ACAD
1070
     2
  0
DICTIONARY
  5
3E5
102
{ACAD_REACTORS
330
3E4
102
}
330
3E4
100
AcDbDictionary
281
     1
  0
XRECORD
  5
625
102
{ACAD_REACTORS
330
624
102
}
330
624
100
AcDbXrecord
280
     1
290
     1
  0
XRECORD
  5
627
102
{ACAD_REACTORS
330
626
102
}
330
626
100
AcDbXrecord
280
     1
290
     1
  0
XRECORD
  5
629
102
{ACAD_REACTORS
330
628
102
}
330
628
100
AcDbXrecord
280
     1
290
     1
  0
XRECORD
  5
62B
102
{ACAD_REACTORS
330
62A
102
}
330
62A
100
AcDbXrecord
280
     1
290
     1
  0
XRECORD
  5
1D3
102
{ACAD_REACTORS
330
107
102
}
330
107
100
AcDbXrecord
280
     1
340
1F
  0
SORTENTSTABLE
  5
3BB
102
{ACAD_REACTORS
330
107
102
}
330
107
100
AcDbSortentsTable
330
1F
331
2EB8
  5
2EB8
331
2C7A
  5
2C7A
331
2C00
  5
2C00
331
2BEE
  5
2BEE
331
2C57
  5
2C57
331
2DD8
  5
2DD8
331
2C18
  5
2C18
331
2ECE
  5
2ECE
331
2BEA
  5
2BEA
331
2C53
  5
2C53
331
2C14
  5
2C14
331
2ECA
  5
2ECA
331
2C2C
  5
2C2C
331
2DEC
  5
2DEC
331
2C10
  5
2C10
331
2EC6
  5
2EC6
331
2C67
  5
2C67
331
2C28
  5
2C28
331
2DE8
  5
2DE8
331
2EDE
  5
2EDE
331
2BD7
  5
2BD7
331
2E3F
  5
2E3F
331
2EC2
  5
2EC2
331
2C63
  5
2C63
331
2C24
  5
2C24
331
2DE4
  5
2DE4
331
2EDA
  5
2EDA
331
2BD3
  5
2BD3
331
2DFC
  5
2DFC
331
2C3C
  5
2C3C
331
2EB5
  5
2EB5
331
2C77
  5
2C77
331
2BFD
  5
2BFD
331
2C20
  5
2C20
331
2DE0
  5
2DE0
331
2ED6
  5
2ED6
331
2BCF
  5
2BCF
331
2DF8
  5
2DF8
331
2C38
  5
2C38
331
2EB1
  5
2EB2
331
2C73
  5
2C73
331
2BF9
  5
2BF9
331
2BE7
  5
2BE7
331
2ED2
  5
2ED2
331
2C34
  5
2C34
331
2DF4
  5
2DF4
331
2EAD
  5
2EAE
331
2C6F
  5
2C6F
331
2BF5
  5
2BF5
331
2BE3
  5
2BE3
331
2C4C
  5
2C4C
331
2C87
  5
2C87
331
2C0D
  5
2C0D
331
2C30
  5
2C30
331
2DF0
  5
2DF0
331
2EA9
  5
2EAA
331
2C6B
  5
2C6B
331
2BF1
  5
2BF1
331
2BDF
  5
2BDF
331
2C48
  5
2C48
331
2C83
  5
2C83
331
2C09
  5
2C09
331
2EE2
  5
2EE2
331
2BDB
  5
2BDB
331
2E43
  5
2E43
331
2C44
  5
2C44
331
2EBD
  5
2EBD
331
2C7F
  5
2C7F
331
2C05
  5
2C05
331
2C5C
  5
2C5C
331
2C1D
  5
2C1D
331
2DDD
  5
2DDD
331
2C40
  5
2C40
331
2EB9
  5
2EB9
331
2C7B
  5
2C7B
331
2C01
  5
2C01
331
2BEF
  5
2BEF
331
2C58
  5
2C58
331
2C19
  5
2C19
331
2DD9
  5
2DD9
331
2ECF
  5
2ECF
331
2BEB
  5
2BEB
331
2C54
  5
2C54
331
2C15
  5
2C15
331
2ECB
  5
2ECB
331
2C2D
  5
2C2D
331
2EA6
  5
2EA6
331
2DED
  5
2DED
331
2C50
  5
2C50
331
2C11
  5
2C11
331
2EC7
  5
2EC7
331
2C29
  5
2C29
331
2DE9
  5
2DE9
331
2EDF
  5
2EDF
331
2F02
  5
2F02
331
2EC3
  5
2EC3
331
2C64
  5
2C64
331
2C25
  5
2C25
331
2DE5
  5
2DE5
331
2EDB
  5
2EDB
331
2BD4
  5
2BD4
331
2DFD
  5
2DFD
331
2C3D
  5
2C3D
331
2EB6
  5
2EB6
331
2BFE
  5
2BFE
331
2C60
  5
2C60
331
2C21
  5
2C21
331
2DE1
  5
2DE1
331
2DCA
  5
2DCA
331
2ED7
  5
2ED7
331
2BD0
  5
2BD0
331
2DF9
  5
2DF9
331
2C39
  5
2C39
331
2EB2
  5
2EA7
331
2C74
  5
2C74
331
2BFA
  5
2BFA
331
2ED3
  5
2ED3
331
2C35
  5
2C35
331
2DF5
  5
2DF5
331
2EAE
  5
2EAF
331
2C70
  5
2C70
331
2BF6
  5
2BF6
331
2BE4
  5
2BE4
331
2C4D
  5
2C4D
331
2C0E
  5
2C0E
331
2C31
  5
2C31
331
2DF1
  5
2DF1
331
2EAA
  5
2EAB
331
2C6C
  5
2C6C
331
2BF2
  5
2BF2
331
2BE0
  5
2BE0
331
2C49
  5
2C49
331
2C84
  5
2C84
331
2C0A
  5
2C0A
331
2C68
  5
2C68
331
2EE3
  5
2EE3
331
2BDC
  5
2BDC
331
2C45
  5
2C45
331
2EBE
  5
2EBE
331
2C80
  5
2C80
331
2C06
  5
2C06
331
2C5D
  5
2C5D
331
2C1E
  5
2C1E
331
2DDE
  5
2DDE
331
2BD8
  5
2BD8
331
2E40
  5
2E40
331
2C41
  5
2C41
331
2EBA
  5
2EBA
331
2C7C
  5
2C7C
331
2C02
  5
2C02
331
2C59
  5
2C59
331
2C1A
  5
2C1A
331
2DDA
  5
2DDA
331
2C78
  5
2C78
331
2BEC
  5
2BEC
331
2C55
  5
2C55
331
2C16
  5
2C16
331
2DD6
  5
2DD6
331
2ECC
  5
2ECC
331
2C2E
  5
2C2E
331
2EA7
  5
2EA8
331
2DEE
  5
2DEE
331
2BE8
  5
2BE8
331
2C51
  5
2C51
331
2C12
  5
2C12
331
2EC8
  5
2EC8
331
2C2A
  5
2C2A
331
2DEA
  5
2DEA
331
2C88
  5
2C88
331
2EC4
  5
2EC4
331
2C65
  5
2C65
331
2C26
  5
2C26
331
2DE6
  5
2DE6
331
2EDC
  5
2EDC
331
2BD5
  5
2BD5
331
2E3D
  5
2E3D
331
2C3E
  5
2C3E
331
2EB7
  5
2EB7
331
2BFF
  5
2BFF
331
2EC0
  5
2EC0
331
2C61
  5
2C61
331
2C22
  5
2C22
331
2DE2
  5
2DE2
331
2DCB
  5
2DCB
331
2ED8
  5
2ED8
331
2BD1
  5
2BD1
331
2DFA
  5
2DFA
331
2C3A
  5
2C3A
331
2C75
  5
2C75
331
2BFB
  5
2BFB
331
2ED4
  5
2ED4
331
2BCD
  5
2BCD
331
2C36
  5
2C36
331
2DF6
  5
2DF6
331
2EAF
  5
2EB0
331
2C71
  5
2C71
331
2BF7
  5
2BF7
331
2BE5
  5
2BE5
331
2C4E
  5
2C4E
331
2C0F
  5
2C0F
331
2ED0
  5
2ED0
331
2C32
  5
2C32
331
2DF2
  5
2DF2
331
2EAB
  5
2EAC
331
2C6D
  5
2C6D
331
2BF3
  5
2BF3
331
2BE1
  5
2BE1
331
2C4A
  5
2C4A
331
2C85
  5
2C85
331
2C0B
  5
2C0B
331
2C69
  5
2C69
331
2EE4
  5
2EE4
331
2BDD
  5
2BDD
331
2C46
  5
2C46
331
2EBF
  5
2EBF
331
2C81
  5
2C81
331
2C07
  5
2C07
331
2C5E
  5
2C5E
331
2C1F
  5
2C1F
331
2DDF
  5
2DDF
331
2EE0
  5
2EE0
331
2BD9
  5
2BD9
331
2E41
  5
2E41
331
2C42
  5
2C42
331
2EBB
  5
2EBB
331
2C7D
  5
2C7D
331
2C03
  5
2C03
331
2C5A
  5
2C5A
331
2C1B
  5
2C1B
331
2DDB
  5
2DDB
331
2C79
  5
2C79
331
2BED
  5
2BED
331
2C56
  5
2C56
331
2DD7
  5
2DD7
331
2C17
  5
2C17
331
2ECD
  5
2ECD
331
2C2F
  5
2C2F
331
2DEF
  5
2DEF
331
2BE9
  5
2BE9
331
2C52
  5
2C52
331
2C13
  5
2C13
331
2DD3
  5
2DD3
331
2EC9
  5
2EC9
331
2C2B
  5
2C2B
331
2DEB
  5
2DEB
331
2C89
  5
2C89
331
2EC5
  5
2EC5
331
2C66
  5
2C66
331
2C27
  5
2C27
331
2DE7
  5
2DE7
331
2EDD
  5
2EDD
331
2BD6
  5
2BD6
331
2E3E
  5
2E3E
331
2C3F
  5
2C3F
331
2EC1
  5
2EC1
331
2C62
  5
2C62
331
2C23
  5
2C23
331
2DE3
  5
2DE3
331
2ED9
  5
2ED9
331
2BD2
  5
2BD2
331
2DFB
  5
2DFB
331
2C3B
  5
2C3B
331
2EB4
  5
2EB4
331
2C76
  5
2C76
331
2BFC
  5
2BFC
331
2ED5
  5
2ED5
331
2BCE
  5
2BCE
331
2C37
  5
2C37
331
2DF7
  5
2DF7
331
2EB0
  5
2EB1
331
2C72
  5
2C72
331
2BF8
  5
2BF8
331
2BE6
  5
2BE6
331
2C4F
  5
2C4F
331
2ED1
  5
2ED1
331
2C33
  5
2C33
331
2DF3
  5
2DF3
331
2EAC
  5
2EAD
331
2C6E
  5
2C6E
331
2BF4
  5
2BF4
331
2BE2
  5
2BE2
331
2C4B
  5
2C4B
331
2C86
  5
2C86
331
2C0C
  5
2C0C
331
2EA8
  5
2EA9
331
2C6A
  5
2C6A
331
2BF0
  5
2BF0
331
2EE5
  5
2EE5
331
2BDE
  5
2BDE
331
2C47
  5
2C47
331
2C82
  5
2C82
331
2C08
  5
2C08
331
2C5F
  5
2C5F
331
2EE1
  5
2EE1
331
2BDA
  5
2BDA
331
2E42
  5
2E42
331
2C43
  5
2C43
331
2EBC
  5
2EBC
331
2C7E
  5
2C7E
331
2C04
  5
2C04
331
2C5B
  5
2C5B
331
2C1C
  5
2C1C
331
2DDC
  5
2DDC
  0
XRECORD
  5
1D2
102
{ACAD_REACTORS
330
105
102
}
330
105
100
AcDbXrecord
280
     1
340
1B
  0
ACDBDETAILVIEWSTYLE
  5
5EC
102
{ACAD_XDICTIONARY
360
2F46
102
}
102
{ACAD_REACTORS
330
5EB
102
}
330
5EB
100
AcDbModelDocViewStyle
 70
     0
  3
Imperial24
290
     0
100
AcDbDetailViewStyle
 70
     0
 71
     0
 90
        3
 71
     1
340
11
 62
   256
 40
0.24
340
0
 62
   256
 40
0.24
300

 40
0.36
280
     3
 71
     2
340
16
 90
       25
 62
   256
 71
     3
340
11
 62
   256
 40
0.24
 90
        1
 40
0.75
 90
        1
300
%<\AcVar ViewType \f "%tc1">% %<\AcVar ViewDetailId>%\PVARIA %<\AcVar ViewScale \f "%sn">%
 71
     4
340
16
 90
       25
 62
   256
340
16
 90
       25
 62
   256
280
     0
  0
ACDBDETAILVIEWSTYLE
  5
677
102
{ACAD_XDICTIONARY
360
2F4A
102
}
102
{ACAD_REACTORS
330
5EB
102
}
330
5EB
100
AcDbModelDocViewStyle
 70
     0
  3
Metric50
290
     0
100
AcDbDetailViewStyle
 70
     0
 71
     0
 90
        3
 71
     1
340
11
 62
   256
 40
5.0
340
0
 62
   256
 40
5.0
300

 40
0.0
280
     1
 71
     2
340
16
 90
       25
 62
   256
 71
     3
340
11
 62
   256
 40
5.0
 90
        0
 40
15.0
 90
        1
300
%<\AcVar ViewDetailId>% (%<\AcVar ViewScale \f "%sn">%)
 71
     4
340
16
 90
       25
 62
   256
340
16
 90
       25
 62
   256
280
     0
  0
LAYOUT
  5
1F0
102
{ACAD_REACTORS
330
1EE
102
}
330
1EE
100
AcDbPlotSettings
  1

  2
\\druckserv1\AROBBE04
  4

  6

 40
0.0
 41
0.0
 42
0.0
 43
0.0
 44
0.0
 45
0.0
 46
0.0
 47
0.0
 48
0.0
 49
0.0
140
0.0
141
0.0
142
1.0
143
1.0
 70
   688
 72
     0
 73
     0
 74
     5
  7

 75
    16
147
1.0
 76
     0
 77
     2
 78
   300
148
0.0
149
0.0
100
AcDbLayout
  1
Layout1
 70
     1
 71
     1
 10
0.0
 20
0.0
 11
12.0
 21
9.0
 12
0.0
 22
0.0
 32
0.0
 14
1.000000000000000E+20
 24
1.000000000000000E+20
 34
1.000000000000000E+20
 15
-1.000000000000000E+20
 25
-1.000000000000000E+20
 35
-1.000000000000000E+20
146
0.0
 13
0.0
 23
0.0
 33
0.0
 16
1.0
 26
0.0
 36
0.0
 17
0.0
 27
1.0
 37
0.0
 76
     0
330
1B
  0
LAYOUT
  5
1EF
102
{ACAD_REACTORS
330
1EE
102
}
330
1EE
100
AcDbPlotSettings
  1

  2
\\druckserv1\AROBBE04
  4

  6

 40
0.0
 41
0.0
 42
0.0
 43
0.0
 44
0.0
 45
0.0
 46
0.0
 47
0.0
 48
0.0
 49
0.0
140
0.0
141
0.0
142
1.0
143
1.0
 70
  1712
 72
     0
 73
     0
 74
     0
  7

 75
     0
147
1.0
 76
     0
 77
     2
 78
   300
148
0.0
149
0.0
100
AcDbLayout
  1
Model
 70
     1
 71
     0
 10
0.0
 20
0.0
 11
12.0
 21
9.0
 12
0.0
 22
0.0
 32
0.0
 14
0.0
 24
0.0
 34
0.0
 15
0.0
 25
0.0
 35
0.0
146
0.0
 13
0.0
 23
0.0
 33
0.0
 16
1.0
 26
0.0
 36
0.0
 17
0.0
 27
1.0
 37
0.0
 76
     0
330
1F
331
1B1
  0
MATERIAL
  5
1D8
102
{ACAD_XDICTIONARY
360
5BF
102
}
102
{ACAD_REACTORS
330
1D6
102
}
330
1D6
100
AcDbMaterial
  1
ByBlock
  0
MATERIAL
  5
1D7
102
{ACAD_XDICTIONARY
360
5BD
102
}
102
{ACAD_REACTORS
330
1D6
102
}
330
1D6
100
AcDbMaterial
  1
ByLayer
  0
MATERIAL
  5
1D9
102
{ACAD_XDICTIONARY
360
5C1
102
}
102
{ACAD_REACTORS
330
1D6
102
}
330
1D6
100
AcDbMaterial
  1
Global
  0
MLEADERSTYLE
  5
5E8
102
{ACAD_REACTORS
330
5E7
102
}
330
5E7
100
AcDbMLeaderStyle
179
     2
170
     2
171
     1
172
     0
 90
        2
 40
0.0
 41
0.0
173
     1
 91
-1056964608
340
14
 92
       -2
290
     1
 42
0.09
291
     1
 43
0.36
  3
Standard
 44
0.18
300

342
11
174
     1
178
     6
175
     1
176
     0
 93
-1056964608
 45
0.18
292
     0
297
     0
 46
0.18
 94
-1056964608
 47
1.0
 49
1.0
140
1.0
293
     1
141
0.0
294
     1
177
     0
142
1.0
295
     0
296
     0
143
0.125
271
     0
272
     9
273
     9
  0
MLINESTYLE
  5
18
102
{ACAD_REACTORS
330
17
102
}
330
17
100
AcDbMlineStyle
  2
STANDARD
 70
     0
  3

 62
   256
 51
90.0
 52
90.0
 71
     2
 49
0.5
 62
   256
  6
BYLAYER
 49
-0.5
 62
   256
  6
BYLAYER
  0
ACDBPLACEHOLDER
  5
10E
102
{ACAD_REACTORS
330
10D
102
}
330
10D
  0
SCALE
  5
5D6
102
{ACAD_REACTORS
330
5D5
102
}
330
5D5
100
AcDbScale
 70
     0
300
1:1
140
1.0
141
1.0
290
     1
  0
SCALE
  5
5D7
102
{ACAD_REACTORS
330
5D5
102
}
330
5D5
100
AcDbScale
 70
     0
300
1/128" = 1'-0"
140
0.0078125
141
12.0
290
     0
  0
SCALE
  5
5D8
102
{ACAD_REACTORS
330
5D5
102
}
330
5D5
100
AcDbScale
 70
     0
300
1/64" = 1'-0"
140
0.015625
141
12.0
290
     0
  0
SCALE
  5
5D9
102
{ACAD_REACTORS
330
5D5
102
}
330
5D5
100
AcDbScale
 70
     0
300
1/32" = 1'-0"
140
0.03125
141
12.0
290
     0
  0
SCALE
  5
5DA
102
{ACAD_REACTORS
330
5D5
102
}
330
5D5
100
AcDbScale
 70
     0
300
1/16" = 1'-0"
140
0.0625
141
12.0
290
     0
  0
SCALE
  5
5DB
102
{ACAD_REACTORS
330
5D5
102
}
330
5D5
100
AcDbScale
 70
     0
300
3/32" = 1'-0"
140
0.09375
141
12.0
290
     0
  0
SCALE
  5
5DC
102
{ACAD_REACTORS
330
5D5
102
}
330
5D5
100
AcDbScale
 70
     0
300
1/8" = 1'-0"
140
0.125
141
12.0
290
     0
  0
SCALE
  5
5DD
102
{ACAD_REACTORS
330
5D5
102
}
330
5D5
100
AcDbScale
 70
     0
300
3/16" = 1'-0"
140
0.1875
141
12.0
290
     0
  0
SCALE
  5
5DE
102
{ACAD_REACTORS
330
5D5
102
}
330
5D5
100
AcDbScale
 70
     0
300
1/4" = 1'-0"
140
0.25
141
12.0
290
     0
  0
SCALE
  5
5DF
102
{ACAD_REACTORS
330
5D5
102
}
330
5D5
100
AcDbScale
 70
     0
300
3/8" = 1'-0"
140
0.375
141
12.0
290
     0
  0
SCALE
  5
5E0
102
{ACAD_REACTORS
330
5D5
102
}
330
5D5
100
AcDbScale
 70
     0
300
1/2" = 1'-0"
140
0.5
141
12.0
290
     0
  0
SCALE
  5
5E1
102
{ACAD_REACTORS
330
5D5
102
}
330
5D5
100
AcDbScale
 70
     0
300
3/4" = 1'-0"
140
0.75
141
12.0
290
     0
  0
SCALE
  5
5E2
102
{ACAD_REACTORS
330
5D5
102
}
330
5D5
100
AcDbScale
 70
     0
300
1" = 1'-0"
140
1.0
141
12.0
290
     0
  0
SCALE
  5
5E3
102
{ACAD_REACTORS
330
5D5
102
}
330
5D5
100
AcDbScale
 70
     0
300
1-1/2" = 1'-0"
140
1.5
141
12.0
290
     0
  0
SCALE
  5
5E4
102
{ACAD_REACTORS
330
5D5
102
}
330
5D5
100
AcDbScale
 70
     0
300
3" = 1'-0"
140
3.0
141
12.0
290
     0
  0
SCALE
  5
5E5
102
{ACAD_REACTORS
330
5D5
102
}
330
5D5
100
AcDbScale
 70
     0
300
6" = 1'-0"
140
6.0
141
12.0
290
     0
  0
SCALE
  5
5E6
102
{ACAD_REACTORS
330
5D5
102
}
330
5D5
100
AcDbScale
 70
     0
300
1'-0" = 1'-0"
140
12.0
141
12.0
290
     0
  0
ACDBSECTIONVIEWSTYLE
  5
5EA
102
{ACAD_XDICTIONARY
360
2F44
102
}
102
{ACAD_REACTORS
330
5E9
102
}
330
5E9
100
AcDbModelDocViewStyle
 70
     0
  3
Imperial24
290
     0
100
AcDbSectionViewStyle
 70
     0
 71
     0
 90
       78
 71
     1
340
11
 62
   256
 40
0.24
340
0
340
0
 62
   256
 40
0.24
300
I, O, Q, S, X, Z
 40
0.48
 90
        3
 40
0.18
 90
        1
 71
     2
340
16
 90
       25
 62
   256
340
16
 90
       50
 62
   256
 40
0.24
 40
0.0
 40
0.24
 71
     3
340
11
 62
   256
 40
0.24
 90
        1
 40
0.75
 90
        1
300
%<\AcVar ViewType \f "%tc1">% %<\AcVar ViewSectionStartId>%-%<\AcVar ViewSectionEndId>%\PVARIA %<\AcVar ViewScale \f "%sn">%
 71
     4
 62
   256
 62
   257
300
ANSI31
 40
1.0
 90
        0
290
     0
290
     0
 90
        6
 40
0.0
 40
1.570796326794896
 40
0.2617993877991494
 40
1.308996938995747
 40
-0.2617993877991494
 40
1.832595714594044
  0
ACDBSECTIONVIEWSTYLE
  5
676
102
{ACAD_XDICTIONARY
360
2F48
102
}
102
{ACAD_REACTORS
330
5E9
102
}
330
5E9
100
AcDbModelDocViewStyle
 70
     0
  3
Metric50
290
     0
100
AcDbSectionViewStyle
 70
     0
 71
     0
 90
      102
 71
     1
340
11
 62
   256
 40
5.0
340
0
340
0
 62
   256
 40
5.0
300
I, O, Q, S, X, Z
 40
10.0
 90
        0
 40
2.5
 90
        0
 71
     2
340
16
 90
       25
 62
   256
340
16
 90
       50
 62
   256
 40
5.0
 40
2.5
 40
5.0
 71
     3
340
11
 62
   256
 40
5.0
 90
        0
 40
15.0
 90
        1
300
%<\AcVar ViewSectionStartId>%-%<\AcVar ViewSectionEndId>% (%<\AcVar ViewScale \f "%sn">%)
 71
     4
 62
   256
 62
   257
300
ANSI31
 40
1.0
 90
        0
290
     0
290
     0
 90
        6
 40
0.0
 40
1.570796326794896
 40
0.2617993877991494
 40
1.308996938995747
 40
-0.2617993877991494
 40
1.832595714594045
  0
TABLESTYLE
  5
1ED
102
{ACAD_XDICTIONARY
360
634
102
}
102
{ACAD_REACTORS
330
1EC
102
}
330
1EC
100
AcDbTableStyle
280
     0
  3
Standard
 70
     0
 71
     0
 40
0.06
 41
0.06
280
     0
281
     0
  7
STANDARD
140
0.18
170
     2
 62
     0
 63
     7
283
     0
 90
      512
 91
        0
  1

274
    -2
284
     1
 64
     0
275
    -2
285
     1
 65
     0
276
    -2
286
     1
 66
     0
277
    -2
287
     1
 67
     0
278
    -2
288
     1
 68
     0
279
    -2
289
     1
 69
     0
  7
STANDARD
140
0.25
170
     5
 62
     0
 63
     7
283
     0
 90
      512
 91
        0
  1

274
    -2
284
     1
 64
     0
275
    -2
285
     1
 65
     0
276
    -2
286
     1
 66
     0
277
    -2
287
     1
 67
     0
278
    -2
288
     1
 68
     0
279
    -2
289
     1
 69
     0
  7
STANDARD
140
0.18
170
     5
 62
     0
 63
     7
283
     0
 90
      512
 91
        0
  1

274
    -2
284
     1
 64
     0
275
    -2
285
     1
 65
     0
276
    -2
286
     1
 66
     0
277
    -2
287
     1
 67
     0
278
    -2
288
     1
 68
     0
279
    -2
289
     1
 69
     0
  0
VISUALSTYLE
  5
1E0
102
{ACAD_XDICTIONARY
360
2F1A
102
}
102
{ACAD_REACTORS
330
1DA
102
}
330
1DA
100
AcDbVisualStyle
  2

 70
     4
177
     2
291
     0
 71
     0
176
     1
 72
     2
176
     1
 73
     0
176
     1
 90
        0
176
     1
 40
0.6
176
     1
 41
30.0
176
     1
 63
     7
176
     1
 74
     1
176
     1
 91
        4
176
     1
 64
     7
176
     1
 65
   257
176
     1
 75
     1
176
     1
175
     1
176
     1
 42
1.0
176
     1
 92
        0
176
     1
 66
   257
176
     1
 43
1.0
176
     1
 76
     1
176
     1
 77
     6
176
     1
 78
     2
176
     1
 67
     7
176
     1
 79
     5
176
     1
170
     0
176
     1
171
     0
176
     1
290
     0
176
     1
 93
        1
176
     1
 44
0.0
176
     1
173
     0
176
     1
1001
ACAD
1000
AcDbSavedByObjectVersion
1070
     0
  0
VISUALSTYLE
  5
1E2
102
{ACAD_XDICTIONARY
360
2F1E
102
}
102
{ACAD_REACTORS
330
1DA
102
}
330
1DA
100
AcDbVisualStyle
  2

 70
     6
177
     2
291
     0
 71
     1
176
     1
 72
     2
176
     1
 73
     2
176
     1
 90
        0
176
     1
 40
0.6
176
     1
 41
30.0
176
     1
 63
     7
176
     1
 74
     2
176
     1
 91
        2
176
     1
 64
     7
176
     1
 65
   257
176
     1
 75
     2
176
     1
175
     1
176
     1
 42
40.0
176
     1
 92
        0
176
     1
 66
   257
176
     1
 43
1.0
176
     1
 76
     1
176
     1
 77
     6
176
     1
 78
     2
176
     1
 67
     7
176
     1
 79
     3
176
     1
170
     0
176
     1
171
     0
176
     1
290
     0
176
     1
 93
        1
176
     1
 44
0.0
176
     1
173
     0
176
     1
1001
ACAD
1000
AcDbSavedByObjectVersion
1070
     0
  0
VISUALSTYLE
  5
1E1
102
{ACAD_XDICTIONARY
360
2F1C
102
}
102
{ACAD_REACTORS
330
1DA
102
}
330
1DA
100
AcDbVisualStyle
  2

 70
     5
177
     2
291
     0
 71
     0
176
     1
 72
     2
176
     1
 73
     0
176
     1
 90
        0
176
     1
 40
0.6
176
     1
 41
30.0
176
     1
 63
     7
176
     1
 74
     1
176
     1
 91
        4
176
     1
 64
     7
176
     1
 65
   257
176
     1
 75
     1
176
     1
175
     1
176
     1
 42
1.0
176
     1
 92
        0
176
     1
 66
   257
176
     1
 43
1.0
176
     1
 76
     1
176
     1
 77
     6
176
     1
 78
     2
176
     1
 67
     7
176
     1
 79
     5
176
     1
170
     0
176
     1
171
     0
176
     1
290
     0
176
     1
 93
        1
176
     1
 44
0.0
176
     1
173
     0
176
     1
1001
ACAD
1000
AcDbSavedByObjectVersion
1070
     0
  0
VISUALSTYLE
  5
1DF
102
{ACAD_XDICTIONARY
360
2F18
102
}
102
{ACAD_REACTORS
330
1DA
102
}
330
1DA
100
AcDbVisualStyle
  2

 70
     7
177
     2
291
     1
 71
     1
176
     1
 72
     0
176
     1
 73
     1
176
     1
 90
        0
176
     1
 40
0.6
176
     1
 41
30.0
176
     1
 63
     7
176
     1
 74
     0
176
     1
 91
        4
176
     1
 64
     7
176
     1
 65
   257
176
     1
 75
     1
176
     1
175
     1
176
     1
 42
1.0
176
     1
 92
        8
176
     1
 66
     7
176
     1
 43
1.0
176
     1
 76
     1
176
     1
 77
     6
176
     1
 78
     2
176
     1
 67
     7
176
     1
 79
     5
176
     1
170
     0
176
     1
171
     0
176
     1
290
     0
176
     1
 93
        1
176
     1
 44
0.0
176
     1
173
     0
176
     1
1001
ACAD
1000
AcDbSavedByObjectVersion
1070
     0
  0
VISUALSTYLE
  5
1E6
102
{ACAD_XDICTIONARY
360
2F26
102
}
102
{ACAD_REACTORS
330
1DA
102
}
330
1DA
100
AcDbVisualStyle
  2

 70
    12
177
     2
291
     1
 71
     2
176
     1
 72
     2
176
     1
 73
     0
176
     1
 90
        0
176
     1
 40
0.6
176
     1
 41
30.0
176
     1
 63
     7
176
     1
 74
     1
176
     1
 91
        4
176
     1
 64
     7
176
     1
 65
   257
176
     1
 75
     1
176
     1
175
     1
176
     1
 42
1.0
176
     1
 92
        8
176
     1
 66
     7
176
     1
 43
1.0
176
     1
 76
     1
176
     1
 77
     6
176
     1
 78
     2
176
     1
 67
     7
176
     1
 79
     5
176
     1
170
     0
176
     1
171
     0
176
     1
290
     0
176
     1
 93
        1
176
     1
 44
50.0
176
     1
173
     0
176
     1
1001
ACAD
1000
AcDbSavedByObjectVersion
1070
     0
  0
VISUALSTYLE
  5
1EA
102
{ACAD_XDICTIONARY
360
2F2E
102
}
102
{ACAD_REACTORS
330
1DA
102
}
330
1DA
100
AcDbVisualStyle
  2

 70
    16
177
     2
291
     1
 71
     2
176
     1
 72
     2
176
     1
 73
     3
176
     1
 90
        0
176
     1
 40
0.6
176
     1
 41
30.0
176
     1
 63
     8
176
     1
 74
     1
176
     1
 91
        4
176
     1
 64
     7
176
     1
 65
   257
176
     1
 75
     1
176
     1
175
     1
176
     1
 42
1.0
176
     1
 92
        8
176
     1
 66
     8
176
     1
 43
1.0
176
     1
 76
     1
176
     1
 77
     6
176
     1
 78
     2
176
     1
 67
     7
176
     1
 79
     5
176
     1
170
     0
176
     1
171
     0
176
     1
290
     0
176
     1
 93
        1
176
     1
 44
0.0
176
     1
173
     0
176
     1
1001
ACAD
1000
AcDbSavedByObjectVersion
1070
     0
  0
VISUALSTYLE
  5
1E3
102
{ACAD_XDICTIONARY
360
2F20
102
}
102
{ACAD_REACTORS
330
1DA
102
}
330
1DA
100
AcDbVisualStyle
  2

 70
     9
177
     2
291
     0
 71
     3
176
     1
 72
     2
176
     1
 73
     0
176
     1
 90
        0
176
     1
 40
0.6
176
     1
 41
30.0
176
     1
 63
     7
176
     1
 74
     2
176
     1
 91
        2
176
     1
 64
     7
176
     1
 65
   257
176
     1
 75
     1
176
     1
175
     1
176
     1
 42
40.0
176
     1
 92
        8
176
     1
 66
     7
176
     1
 43
1.0
176
     1
 76
     1
176
     1
 77
     6
176
     1
 78
     2
176
     1
 67
     7
176
     1
 79
     3
176
     1
170
     0
176
     1
171
     0
176
     1
290
     0
176
     1
 93
        1
176
     1
 44
0.0
176
     1
173
     0
176
     1
1001
ACAD
1000
AcDbSavedByObjectVersion
1070
     0
  0
VISUALSTYLE
  5
1E5
102
{ACAD_XDICTIONARY
360
2F24
102
}
102
{ACAD_REACTORS
330
1DA
102
}
330
1DA
100
AcDbVisualStyle
  2

 70
    11
177
     2
291
     1
 71
     2
176
     1
 72
     2
176
     1
 73
     0
176
     1
 90
        0
176
     1
 40
0.6
176
     1
 41
30.0
176
     1
 63
     7
176
     1
 74
     1
176
     1
 91
        4
176
     1
 64
     7
176
     1
 65
   257
176
     1
 75
     1
176
     1
175
     1
176
     1
 42
1.0
176
     1
 92
        8
176
     1
 66
     7
176
     1
 43
1.0
176
     1
 76
     1
176
     1
 77
     6
176
     1
 78
     2
176
     1
 67
     7
176
     1
 79
     5
176
     1
170
     0
176
     1
171
     0
176
     1
290
     0
176
     1
 93
        1
176
     1
 44
-50.0
176
     1
173
     0
176
     1
1001
ACAD
1000
AcDbSavedByObjectVersion
1070
     0
  0
VISUALSTYLE
  5
5D4
102
{ACAD_XDICTIONARY
360
2F42
102
}
102
{ACAD_REACTORS
330
1DA
102
}
330
1DA
100
AcDbVisualStyle
  2
EdgeColorOff
 70
    22
177
     2
291
     1
 71
     2
176
     0
 72
     2
176
     0
 73
     0
176
     0
 90
        0
176
     0
 40
0.6
176
     0
 41
30.0
176
     0
 63
     7
421
 16777215
176
     0
 74
     1
176
     0
 91
        4
176
     0
 64
     7
176
     0
 65
   257
176
     0
 75
     1
176
     0
175
     1
176
     0
 42
1.0
176
     0
 92
        8
176
     2
 66
     7
176
     0
 43
1.0
176
     0
 76
     1
176
     0
 77
     6
176
     0
 78
     2
176
     0
 67
     7
176
     0
 79
     5
176
     0
170
     0
176
     0
171
     0
176
     0
290
     0
176
     0
 93
        1
176
     0
 44
0.0
176
     0
173
     0
176
     0
1001
ACAD
1000
AcDbSavedByObjectVersion
1070
     0
  0
VISUALSTYLE
  5
1E9
102
{ACAD_XDICTIONARY
360
2F2C
102
}
102
{ACAD_REACTORS
330
1DA
102
}
330
1DA
100
AcDbVisualStyle
  2

 70
    15
177
     2
291
     1
 71
     2
176
     1
 72
     2
176
     1
 73
     0
176
     1
 90
        0
176
     1
 40
0.6
176
     1
 41
30.0
176
     1
 63
     7
176
     1
 74
     1
176
     1
 91
        4
176
     1
 64
     7
176
     1
 65
   257
176
     1
 75
     1
176
     1
175
     1
176
     1
 42
1.0
176
     1
 92
        8
176
     1
 66
     7
176
     1
 43
1.0
176
     1
 76
     1
176
     1
 77
     6
176
     1
 78
     2
176
     1
 67
     7
176
     1
 79
     5
176
     1
170
     0
176
     1
171
     0
176
     1
290
     0
176
     1
 93
        1
176
     1
 44
0.0
176
     1
173
     0
176
     1
1001
ACAD
1000
AcDbSavedByObjectVersion
1070
     0
  0
VISUALSTYLE
  5
1DB
102
{ACAD_XDICTIONARY
360
2F10
102
}
102
{ACAD_REACTORS
330
1DA
102
}
330
1DA
100
AcDbVisualStyle
  2

 70
     0
177
     2
291
     1
 71
     2
176
     1
 72
     1
176
     1
 73
     1
176
     1
 90
        2
176
     1
 40
0.6
176
     1
 41
30.0
176
     1
 63
     7
176
     1
 74
     0
176
     1
 91
        4
176
     1
 64
     7
176
     1
 65
   257
176
     1
 75
     1
176
     1
175
     1
176
     1
 42
1.0
176
     1
 92
        8
176
     1
 66
     7
176
     1
 43
1.0
176
     1
 76
     1
176
     1
 77
     6
176
     1
 78
     2
176
     1
 67
     7
176
     1
 79
     5
176
     1
170
     0
176
     1
171
     0
176
     1
290
     0
176
     1
 93
       13
176
     1
 44
0.0
176
     1
173
     0
176
     1
1001
ACAD
1000
AcDbSavedByObjectVersion
1070
     0
  0
VISUALSTYLE
  5
1DC
102
{ACAD_XDICTIONARY
360
2F12
102
}
102
{ACAD_REACTORS
330
1DA
102
}
330
1DA
100
AcDbVisualStyle
  2

 70
     1
177
     2
291
     1
 71
     2
176
     1
 72
     1
176
     1
 73
     1
176
     1
 90
        2
176
     1
 40
0.6
176
     1
 41
30.0
176
     1
 63
     7
176
     1
 74
     1
176
     1
 91
        4
176
     1
 64
     7
176
     1
 65
   257
176
     1
 75
     1
176
     1
175
     1
176
     1
 42
1.0
176
     1
 92
        0
176
     1
 66
   257
176
     1
 43
1.0
176
     1
 76
     1
176
     1
 77
     6
176
     1
 78
     2
176
     1
 67
     7
176
     1
 79
     5
176
     1
170
     0
176
     1
171
     0
176
     1
290
     0
176
     1
 93
       13
176
     1
 44
0.0
176
     1
173
     0
176
     1
1001
ACAD
1000
AcDbSavedByObjectVersion
1070
     0
  0
VISUALSTYLE
  5
1DD
102
{ACAD_XDICTIONARY
360
2F14
102
}
102
{ACAD_REACTORS
330
1DA
102
}
330
1DA
100
AcDbVisualStyle
  2

 70
     2
177
     2
291
     1
 71
     2
176
     1
 72
     2
176
     1
 73
     1
176
     1
 90
        2
176
     1
 40
0.6
176
     1
 41
30.0
176
     1
 63
     7
176
     1
 74
     0
176
     1
 91
        4
176
     1
 64
     7
176
     1
 65
   257
176
     1
 75
     1
176
     1
175
     1
176
     1
 42
1.0
176
     1
 92
        0
176
     1
 66
     7
176
     1
 43
1.0
176
     1
 76
     1
176
     1
 77
     6
176
     1
 78
     2
176
     1
 67
     7
176
     1
 79
     5
176
     1
170
     0
176
     1
171
     0
176
     1
290
     0
176
     1
 93
       13
176
     1
 44
0.0
176
     1
173
     0
176
     1
1001
ACAD
1000
AcDbSavedByObjectVersion
1070
     0
  0
VISUALSTYLE
  5
1DE
102
{ACAD_XDICTIONARY
360
2F16
102
}
102
{ACAD_REACTORS
330
1DA
102
}
330
1DA
100
AcDbVisualStyle
  2

 70
     3
177
     2
291
     1
 71
     2
176
     1
 72
     2
176
     1
 73
     1
176
     1
 90
        2
176
     1
 40
0.6
176
     1
 41
30.0
176
     1
 63
     7
176
     1
 74
     1
176
     1
 91
        4
176
     1
 64
     7
176
     1
 65
   257
176
     1
 75
     1
176
     1
175
     1
176
     1
 42
1.0
176
     1
 92
        0
176
     1
 66
   257
176
     1
 43
1.0
176
     1
 76
     1
176
     1
 77
     6
176
     1
 78
     2
176
     1
 67
     7
176
     1
 79
     5
176
     1
170
     0
176
     1
171
     0
176
     1
290
     0
176
     1
 93
       13
176
     1
 44
0.0
176
     1
173
     0
176
     1
1001
ACAD
1000
AcDbSavedByObjectVersion
1070
     0
  0
VISUALSTYLE
  5
5CC
102
{ACAD_XDICTIONARY
360
2F32
102
}
102
{ACAD_REACTORS
330
1DA
102
}
330
1DA
100
AcDbVisualStyle
  2
Hidden
 70
     6
177
     2
291
     0
 71
     1
176
     1
 72
     2
176
     1
 73
     2
176
     1
 90
        0
176
     1
 40
0.6
176
     1
 41
30.0
176
     1
 63
     7
421
 16777215
176
     1
 74
     2
176
     1
 91
        2
176
     1
 64
     7
176
     1
 65
   257
176
     1
 75
     2
176
     1
175
     1
176
     1
 42
40.0
176
     1
 92
        0
176
     1
 66
   257
176
     1
 43
1.0
176
     1
 76
     1
176
     1
 77
     6
176
     1
 78
     2
176
     1
 67
     7
176
     1
 79
     3
176
     1
170
     0
176
     1
171
     0
176
     1
290
     0
176
     1
 93
        1
176
     1
 44
0.0
176
     1
173
     0
176
     1
1001
ACAD
1000
AcDbSavedByObjectVersion
1070
     0
  0
VISUALSTYLE
  5
5D2
102
{ACAD_XDICTIONARY
360
2F3E
102
}
102
{ACAD_REACTORS
330
1DA
102
}
330
1DA
100
AcDbVisualStyle
  2
JitterOff
 70
    20
177
     2
291
     1
 71
     2
176
     0
 72
     2
176
     0
 73
     0
176
     0
 90
        0
176
     0
 40
0.6
176
     0
 41
30.0
176
     0
 63
     7
421
 16777215
176
     0
 74
     1
176
     0
 91
        4
176
     0
 64
     7
176
     0
 65
   257
176
     0
 75
     1
176
     0
175
     1
176
     0
 42
1.0
176
     0
 92
       10
176
     2
 66
     7
176
     0
 43
1.0
176
     0
 76
     1
176
     0
 77
     6
176
     0
 78
     2
176
     0
 67
     7
176
     0
 79
     5
176
     0
170
     0
176
     0
171
     0
176
     0
290
     0
176
     0
 93
        1
176
     0
 44
0.0
176
     0
173
     0
176
     0
1001
ACAD
1000
AcDbSavedByObjectVersion
1070
     0
  0
VISUALSTYLE
  5
1E8
102
{ACAD_XDICTIONARY
360
2F2A
102
}
102
{ACAD_REACTORS
330
1DA
102
}
330
1DA
100
AcDbVisualStyle
  2

 70
    14
177
     2
291
     1
 71
     2
176
     1
 72
     2
176
     1
 73
     0
176
     1
 90
        0
176
     1
 40
0.6
176
     1
 41
30.0
176
     1
 63
     7
176
     1
 74
     1
176
     1
 91
        4
176
     1
 64
     7
176
     1
 65
   257
176
     1
 75
     7
176
     1
175
     7
176
     1
 42
1.0
176
     1
 92
        8
176
     1
 66
     7
176
     1
 43
1.0
176
     1
 76
     1
176
     1
 77
     6
176
     1
 78
     2
176
     1
 67
     7
176
     1
 79
     5
176
     1
170
     0
176
     1
171
     0
176
     1
290
     0
176
     1
 93
        1
176
     1
 44
0.0
176
     1
173
     0
176
     1
1001
ACAD
1000
AcDbSavedByObjectVersion
1070
     0
  0
VISUALSTYLE
  5
5D3
102
{ACAD_XDICTIONARY
360
2F40
102
}
102
{ACAD_REACTORS
330
1DA
102
}
330
1DA
100
AcDbVisualStyle
  2
OverhangOff
 70
    21
177
     2
291
     1
 71
     2
176
     0
 72
     2
176
     0
 73
     0
176
     0
 90
        0
176
     0
 40
0.6
176
     0
 41
30.0
176
     0
 63
     7
421
 16777215
176
     0
 74
     1
176
     0
 91
        4
176
     0
 64
     7
176
     0
 65
   257
176
     0
 75
     1
176
     0
175
     1
176
     0
 42
1.0
176
     0
 92
        9
176
     2
 66
     7
176
     0
 43
1.0
176
     0
 76
     1
176
     0
 77
     6
176
     0
 78
     2
176
     0
 67
     7
176
     0
 79
     5
176
     0
170
     0
176
     0
171
     0
176
     0
290
     0
176
     0
 93
        1
176
     0
 44
0.0
176
     0
173
     0
176
     0
1001
ACAD
1000
AcDbSavedByObjectVersion
1070
     0
  0
VISUALSTYLE
  5
1E4
102
{ACAD_XDICTIONARY
360
2F22
102
}
102
{ACAD_REACTORS
330
1DA
102
}
330
1DA
100
AcDbVisualStyle
  2

 70
     8
177
     2
291
     0
 71
     2
176
     1
 72
     2
176
     1
 73
     0
176
     1
 90
        0
176
     1
 40
0.6
176
     1
 41
30.0
176
     1
 63
     7
176
     1
 74
     1
176
     1
 91
        0
176
     1
 64
     7
176
     1
 65
   257
176
     1
 75
     1
176
     1
175
     1
176
     1
 42
1.0
176
     1
 92
        8
176
     1
 66
     8
176
     1
 43
1.0
176
     1
 76
     1
176
     1
 77
     6
176
     1
 78
     2
176
     1
 67
     7
176
     1
 79
     5
176
     1
170
     0
176
     1
171
     0
176
     1
290
     0
176
     1
 93
       13
176
     1
 44
0.0
176
     1
173
     0
176
     1
1001
ACAD
1000
AcDbSavedByObjectVersion
1070
     0
  0
VISUALSTYLE
  5
5D1
102
{ACAD_XDICTIONARY
360
2F3C
102
}
102
{ACAD_REACTORS
330
1DA
102
}
330
1DA
100
AcDbVisualStyle
  2
Shaded
 70
    27
177
     2
291
     0
 71
     2
176
     1
 72
     2
176
     1
 73
     1
176
     1
 90
        2
176
     1
 40
0.6
176
     1
 41
30.0
176
     1
 63
     7
421
 16777215
176
     1
 74
     0
176
     1
 91
        4
176
     1
 64
     7
176
     1
 65
   257
176
     1
 75
     1
176
     1
175
     1
176
     1
 42
1.0
176
     1
 92
        8
176
     1
 66
   257
176
     1
 43
1.0
176
     1
 76
     1
176
     1
 77
     6
176
     1
 78
     2
176
     1
 67
     8
425
  7895160
176
     1
 79
     3
176
     1
170
     0
176
     1
171
     0
176
     1
290
     0
176
     1
 93
        5
176
     1
 44
0.0
176
     1
173
     0
176
     1
1001
ACAD
1000
AcDbSavedByObjectVersion
1070
     0
  0
VISUALSTYLE
  5
5D0
102
{ACAD_XDICTIONARY
360
2F3A
102
}
102
{ACAD_REACTORS
330
1DA
102
}
330
1DA
100
AcDbVisualStyle
  2
Shaded with edges
 70
    26
177
     2
291
     0
 71
     2
176
     1
 72
     2
176
     1
 73
     1
176
     1
 90
        2
176
     1
 40
0.6
176
     1
 41
30.0
176
     1
 63
     7
421
 16777215
176
     1
 74
     1
176
     1
 91
        2
176
     1
 64
     7
176
     1
 65
   257
176
     1
 75
     2
176
     1
175
     1
176
     1
 42
1.0
176
     1
 92
        8
176
     1
 66
   257
176
     1
 43
1.0
176
     1
 76
     1
176
     1
 77
     6
176
     1
 78
     2
176
     1
 67
     7
176
     1
 79
     3
176
     1
170
     0
176
     1
171
     0
176
     1
290
     0
176
     1
 93
        5
176
     1
 44
0.0
176
     1
173
     0
176
     1
1001
ACAD
1000
AcDbSavedByObjectVersion
1070
     0
  0
VISUALSTYLE
  5
5CD
102
{ACAD_XDICTIONARY
360
2F34
102
}
102
{ACAD_REACTORS
330
1DA
102
}
330
1DA
100
AcDbVisualStyle
  2
Shades of Gray
 70
    23
177
     2
291
     0
 71
     2
176
     1
 72
     2
176
     1
 73
     3
176
     1
 90
        0
176
     1
 40
0.6
176
     1
 41
30.0
176
     1
 63
     7
421
 16777215
176
     1
 74
     2
176
     1
 91
        2
176
     1
 64
     7
176
     1
 65
     7
176
     1
 75
     1
176
     1
175
     1
176
     1
 42
40.0
176
     1
 92
        8
176
     1
 66
     7
176
     1
 43
1.0
176
     1
 76
     1
176
     1
 77
     6
176
     1
 78
     2
176
     1
 67
     7
176
     1
 79
     3
176
     1
170
     0
176
     1
171
     0
176
     1
290
     0
176
     1
 93
        1
176
     1
 44
0.0
176
     1
173
     0
176
     1
1001
ACAD
1000
AcDbSavedByObjectVersion
1070
     0
  0
VISUALSTYLE
  5
5CE
102
{ACAD_XDICTIONARY
360
2F36
102
}
102
{ACAD_REACTORS
330
1DA
102
}
330
1DA
100
AcDbVisualStyle
  2
Sketchy
 70
    24
177
     2
291
     0
 71
     1
176
     1
 72
     2
176
     1
 73
     2
176
     1
 90
        0
176
     1
 40
0.6
176
     1
 41
30.0
176
     1
 63
     7
421
 16777215
176
     1
 74
     2
176
     1
 91
        2
176
     1
 64
     7
176
     1
 65
     7
176
     1
 75
     1
176
     1
175
     1
176
     1
 42
40.0
176
     1
 92
       11
176
     1
 66
     7
176
     1
 43
1.0
176
     1
 76
     1
176
     1
 77
     6
176
     1
 78
     2
176
     1
 67
     7
176
     1
 79
     6
176
     1
170
     0
176
     1
171
     0
176
     1
290
     0
176
     1
 93
        1
176
     1
 44
0.0
176
     1
173
     0
176
     1
1001
ACAD
1000
AcDbSavedByObjectVersion
1070
     0
  0
VISUALSTYLE
  5
1E7
102
{ACAD_XDICTIONARY
360
2F28
102
}
102
{ACAD_REACTORS
330
1DA
102
}
330
1DA
100
AcDbVisualStyle
  2

 70
    13
177
     2
291
     1
 71
     2
176
     1
 72
     2
176
     1
 73
     0
176
     1
 90
        0
176
     1
 40
0.6
176
     1
 41
30.0
176
     1
 63
     7
176
     1
 74
     1
176
     1
 91
        4
176
     1
 64
     7
176
     1
 65
   257
176
     1
 75
     1
176
     1
175
     1
176
     1
 42
1.0
176
     1
 92
       12
176
     1
 66
     7
176
     1
 43
1.0
176
     1
 76
     1
176
     1
 77
     6
176
     1
 78
     2
176
     1
 67
     7
176
     1
 79
     5
176
     1
170
     0
176
     1
171
     0
176
     1
290
     0
176
     1
 93
        1
176
     1
 44
0.0
176
     1
173
     0
176
     1
1001
ACAD
1000
AcDbSavedByObjectVersion
1070
     0
  0
VISUALSTYLE
  5
5CB
102
{ACAD_XDICTIONARY
360
2F30
102
}
102
{ACAD_REACTORS
330
1DA
102
}
330
1DA
100
AcDbVisualStyle
  2
Wireframe
 70
     5
177
     2
291
     0
 71
     0
176
     1
 72
     2
176
     1
 73
     0
176
     1
 90
        0
176
     1
 40
0.6
176
     1
 41
30.0
176
     1
 63
     7
421
 16777215
176
     1
 74
     1
176
     1
 91
        4
176
     1
 64
     7
176
     1
 65
   257
176
     1
 75
     1
176
     1
175
     1
176
     1
 42
1.0
176
     1
 92
        0
176
     1
 66
   257
176
     1
 43
1.0
176
     1
 76
     1
176
     1
 77
     6
176
     1
 78
     2
176
     1
 67
     7
176
     1
 79
     3
176
     1
170
     0
176
     1
171
     0
176
     1
290
     0
176
     1
 93
        1
176
     1
 44
0.0
176
     1
173
     0
176
     1
1001
ACAD
1000
AcDbSavedByObjectVersion
1070
     0
  0
VISUALSTYLE
  5
5CF
102
{ACAD_XDICTIONARY
360
2F38
102
}
102
{ACAD_REACTORS
330
1DA
102
}
330
1DA
100
AcDbVisualStyle
  2
X-Ray
 70
    25
177
     2
291
     0
 71
     2
176
     1
 72
     2
176
     1
 73
     1
176
     1
 90
        1
176
     1
 40
0.5
176
     1
 41
30.0
176
     1
 63
     7
421
 16777215
176
     1
 74
     1
176
     1
 91
        0
176
     1
 64
     7
176
     1
 65
   257
176
     1
 75
     1
176
     1
175
     1
176
     1
 42
1.0
176
     1
 92
        8
176
     1
 66
     7
176
     1
 43
1.0
176
     1
 76
     1
176
     1
 77
     6
176
     1
 78
     2
176
     1
 67
     7
176
     1
 79
     3
176
     1
170
     0
176
     1
171
     0
176
     1
290
     0
176
     1
 93
       13
176
     1
 44
0.0
176
     1
173
     0
176
     1
1001
ACAD
1000
AcDbSavedByObjectVersion
1070
     0
  0
DICTIONARYVAR
  5
630
102
{ACAD_REACTORS
330
1F3
102
}
330
1F3
100
DictionaryVariables
280
     0
  1
1:1
  0
DICTIONARYVAR
  5
62C
102
{ACAD_REACTORS
330
1F3
102
}
330
1F3
100
DictionaryVariables
280
     0
  1
STANDARD
  0
DICTIONARYVAR
  5
1F4
102
{ACAD_REACTORS
330
1F3
102
}
330
1F3
100
DictionaryVariables
280
     0
  1
STANDARD
  0
DICTIONARYVAR
  5
62D
102
{ACAD_REACTORS
330
1F3
102
}
330
1F3
100
DictionaryVariables
280
     0
  1
Imperial24
  0
DICTIONARYVAR
  5
62E
102
{ACAD_REACTORS
330
1F3
102
}
330
1F3
100
DictionaryVariables
280
     0
  1
Imperial24
  0
DICTIONARYVAR
  5
586
102
{ACAD_REACTORS
330
1F3
102
}
330
1F3
100
DictionaryVariables
280
     0
  1
1
  0
DICTIONARYVAR
  5
585
102
{ACAD_REACTORS
330
1F3
102
}
330
1F3
100
DictionaryVariables
280
     0
  1
0
  0
DICTIONARYVAR
  5
632
102
{ACAD_REACTORS
330
1F3
102
}
330
1F3
100
DictionaryVariables
280
     0
  1
1
  0
DICTIONARYVAR
  5
633
102
{ACAD_REACTORS
330
1F3
102
}
330
1F3
100
DictionaryVariables
280
     0
  1
15
  0
DICTIONARYVAR
  5
631
102
{ACAD_REACTORS
330
1F3
102
}
330
1F3
100
DictionaryVariables
280
     0
  1
0
  0
DICTIONARYVAR
  5
62F
102
{ACAD_REACTORS
330
1F3
102
}
330
1F3
100
DictionaryVariables
280
     0
  1
0
  0
DICTIONARYVAR
  5
584
102
{ACAD_REACTORS
330
1F3
102
}
330
1F3
100
DictionaryVariables
280
     0
  1
127
  0
DICTIONARY
  5
2F0F
102
{ACAD_REACTORS
330
2F0D
102
}
330
2F0D
100
AcDbDictionary
281
     1
  0
DICTIONARY
  5
2F0E
102
{ACAD_REACTORS
330
2F0D
102
}
330
2F0D
100
AcDbDictionary
281
     1
  3
8796087051392
350
2F08
  3
8796087051408
350
2F09
  3
8796087051424
350
2F0A
  3
8796087051440
350
2F0B
  3
8796087051456
350
2F0C
  0
DICTIONARY
  5
2F46
330
5EC
100
AcDbDictionary
280
     1
281
     1
  3
ACAD_XREC_ROUNDTRIP
360
2F47
  0
DICTIONARY
  5
2F4A
330
677
100
AcDbDictionary
280
     1
281
     1
  3
ACAD_XREC_ROUNDTRIP
360
2F4B
  0
DICTIONARY
  5
5BF
330
1D8
100
AcDbDictionary
280
     1
281
     1
  3
ACAD_XREC_ROUNDTRIP
360
5C0
  0
DICTIONARY
  5
5BD
330
1D7
100
AcDbDictionary
280
     1
281
     1
  3
ACAD_XREC_ROUNDTRIP
360
5BE
  0
DICTIONARY
  5
5C1
330
1D9
100
AcDbDictionary
280
     1
281
     1
  3
ACAD_XREC_ROUNDTRIP
360
5C2
  0
DICTIONARY
  5
2F44
330
5EA
100
AcDbDictionary
280
     1
281
     1
  3
ACAD_XREC_ROUNDTRIP
360
2F45
  0
DICTIONARY
  5
2F48
330
676
100
AcDbDictionary
280
     1
281
     1
  3
ACAD_XREC_ROUNDTRIP
360
2F49
  0
DICTIONARY
  5
634
330
1ED
100
AcDbDictionary
280
     1
281
     1
  3
ACAD_ROUNDTRIP_2008_TABLESTYLE_CELLSTYLEMAP
360
2F06
  0
DICTIONARY
  5
2F1A
330
1E0
100
AcDbDictionary
280
     1
281
     1
  3
ACAD_XREC_ROUNDTRIP
360
2F1B
  0
DICTIONARY
  5
2F1E
330
1E2
100
AcDbDictionary
280
     1
281
     1
  3
ACAD_XREC_ROUNDTRIP
360
2F1F
  0
DICTIONARY
  5
2F1C
330
1E1
100
AcDbDictionary
280
     1
281
     1
  3
ACAD_XREC_ROUNDTRIP
360
2F1D
  0
DICTIONARY
  5
2F18
330
1DF
100
AcDbDictionary
280
     1
281
     1
  3
ACAD_XREC_ROUNDTRIP
360
2F19
  0
DICTIONARY
  5
2F26
330
1E6
100
AcDbDictionary
280
     1
281
     1
  3
ACAD_XREC_ROUNDTRIP
360
2F27
  0
DICTIONARY
  5
2F2E
330
1EA
100
AcDbDictionary
280
     1
281
     1
  3
ACAD_XREC_ROUNDTRIP
360
2F2F
  0
DICTIONARY
  5
2F20
330
1E3
100
AcDbDictionary
280
     1
281
     1
  3
ACAD_XREC_ROUNDTRIP
360
2F21
  0
DICTIONARY
  5
2F24
330
1E5
100
AcDbDictionary
280
     1
281
     1
  3
ACAD_XREC_ROUNDTRIP
360
2F25
  0
DICTIONARY
  5
2F42
330
5D4
100
AcDbDictionary
280
     1
281
     1
  3
ACAD_XREC_ROUNDTRIP
360
2F43
  0
DICTIONARY
  5
2F2C
330
1E9
100
AcDbDictionary
280
     1
281
     1
  3
ACAD_XREC_ROUNDTRIP
360
2F2D
  0
DICTIONARY
  5
2F10
330
1DB
100
AcDbDictionary
280
     1
281
     1
  3
ACAD_XREC_ROUNDTRIP
360
2F11
  0
DICTIONARY
  5
2F12
330
1DC
100
AcDbDictionary
280
     1
281
     1
  3
ACAD_XREC_ROUNDTRIP
360
2F13
  0
DICTIONARY
  5
2F14
330
1DD
100
AcDbDictionary
280
     1
281
     1
  3
ACAD_XREC_ROUNDTRIP
360
2F15
  0
DICTIONARY
  5
2F16
330
1DE
100
AcDbDictionary
280
     1
281
     1
  3
ACAD_XREC_ROUNDTRIP
360
2F17
  0
DICTIONARY
  5
2F32
330
5CC
100
AcDbDictionary
280
     1
281
     1
  3
ACAD_XREC_ROUNDTRIP
360
2F33
  0
DICTIONARY
  5
2F3E
330
5D2
100
AcDbDictionary
280
     1
281
     1
  3
ACAD_XREC_ROUNDTRIP
360
2F3F
  0
DICTIONARY
  5
2F2A
330
1E8
100
AcDbDictionary
280
     1
281
     1
  3
ACAD_XREC_ROUNDTRIP
360
2F2B
  0
DICTIONARY
  5
2F40
330
5D3
100
AcDbDictionary
280
     1
281
     1
  3
ACAD_XREC_ROUNDTRIP
360
2F41
  0
DICTIONARY
  5
2F22
330
1E4
100
AcDbDictionary
280
     1
281
     1
  3
ACAD_XREC_ROUNDTRIP
360
2F23
  0
DICTIONARY
  5
2F3C
330
5D1
100
AcDbDictionary
280
     1
281
     1
  3
ACAD_XREC_ROUNDTRIP
360
2F3D
  0
DICTIONARY
  5
2F3A
330
5D0
100
AcDbDictionary
280
     1
281
     1
  3
ACAD_XREC_ROUNDTRIP
360
2F3B
  0
DICTIONARY
  5
2F34
330
5CD
100
AcDbDictionary
280
     1
281
     1
  3
ACAD_XREC_ROUNDTRIP
360
2F35
  0
DICTIONARY
  5
2F36
330
5CE
100
AcDbDictionary
280
     1
281
     1
  3
ACAD_XREC_ROUNDTRIP
360
2F37
  0
DICTIONARY
  5
2F28
330
1E7
100
AcDbDictionary
280
     1
281
     1
  3
ACAD_XREC_ROUNDTRIP
360
2F29
  0
DICTIONARY
  5
2F30
330
5CB
100
AcDbDictionary
280
     1
281
     1
  3
ACAD_XREC_ROUNDTRIP
360
2F31
  0
DICTIONARY
  5
2F38
330
5CF
100
AcDbDictionary
280
     1
281
     1
  3
ACAD_XREC_ROUNDTRIP
360
2F39
  0
XRECORD
  5
2F08
102
{ACAD_REACTORS
330
2F0E
102
}
330
2F0E
100
AcDbXrecord
280
     1
  1
AcDb_Thumbnail_Schema
102
{ATTRRECORD
341
2F09
  2
AcDbDs::TreatedAsObjectData
280
     1
291
     1
102
ATTRRECORD}
102
{ATTRRECORD
341
2F0A
  2
AcDbDs::Legacy
280
     1
291
     1
102
ATTRRECORD}
  2
AcDbDs::ID
280
    10
 91
        8
102
{ATTRRECORD
341
2F0B
  2
AcDs:Indexable
280
     1
291
     1
102
ATTRRECORD}
102
{ATTRRECORD
341
2F0C
  2
AcDbDs::HandleAttribute
280
     7
282
     1
102
ATTRRECORD}
  2
Thumbnail_Data
280
    15
 91
        0
  0
XRECORD
  5
2F09
102
{ACAD_REACTORS
330
2F0E
102
}
330
2F0E
100
AcDbXrecord
280
     1
  1
AcDbDs::TreatedAsObjectDataSchema
  2
AcDbDs::TreatedAsObjectData
280
     1
 91
        0
  0
XRECORD
  5
2F0A
102
{ACAD_REACTORS
330
2F0E
102
}
330
2F0E
100
AcDbXrecord
280
     1
  1
AcDbDs::LegacySchema
  2
AcDbDs::Legacy
280
     1
 91
        0
  0
XRECORD
  5
2F0B
102
{ACAD_REACTORS
330
2F0E
102
}
330
2F0E
100
AcDbXrecord
280
     1
  1
AcDbDs::IndexedPropertySchema
  2
AcDs:Indexable
280
     1
 91
        0
  0
XRECORD
  5
2F0C
102
{ACAD_REACTORS
330
2F0E
102
}
330
2F0E
100
AcDbXrecord
280
     1
  1
AcDbDs::HandleAttributeSchema
  2
AcDbDs::HandleAttribute
280
     7
 91
        1
284
     1
  0
XRECORD
  5
2F47
102
{ACAD_REACTORS
330
2F46
102
}
330
2F46
100
AcDbXrecord
280
     1
102
DISPLAYNAME
  1
Imperial24
102
FLAGS
 90
        0
  0
XRECORD
  5
2F4B
102
{ACAD_REACTORS
330
2F4A
102
}
330
2F4A
100
AcDbXrecord
280
     1
102
DISPLAYNAME
  1
Metric50
102
FLAGS
 90
        0
  0
XRECORD
  5
5C0
102
{ACAD_REACTORS
330
5BF
102
}
330
5BF
100
AcDbXrecord
280
     1
102
MATERIAL
148
0.0
149
0.0
149
0.0
 93
        0
 94
       63
282
     0
 72
     1
 77
     1
171
     1
175
     1
179
     1
273
     0
  0
XRECORD
  5
5BE
102
{ACAD_REACTORS
330
5BD
102
}
330
5BD
100
AcDbXrecord
280
     1
102
MATERIAL
148
0.0
149
0.0
149
0.0
 93
        0
 94
       63
282
     0
 72
     1
 77
     1
171
     1
175
     1
179
     1
273
     0
  0
XRECORD
  5
5C2
102
{ACAD_REACTORS
330
5C1
102
}
330
5C1
100
AcDbXrecord
280
     1
102
MATERIAL
148
0.0
149
0.0
149
0.0
 93
        0
 94
       63
282
     0
 72
     1
 77
     1
171
     1
175
     1
179
     1
273
     0
  0
XRECORD
  5
2F45
102
{ACAD_REACTORS
330
2F44
102
}
330
2F44
100
AcDbXrecord
280
     1
102
DISPLAYNAME
  1
Imperial24
102
FLAGS
 90
        0
  0
XRECORD
  5
2F49
102
{ACAD_REACTORS
330
2F48
102
}
330
2F48
100
AcDbXrecord
280
     1
102
DISPLAYNAME
  1
Metric50
102
FLAGS
 90
        0
  0
CELLSTYLEMAP
  5
2F06
102
{ACAD_REACTORS
330
634
102
}
330
634
100
AcDbCellStyleMap
 90
        3
300
CELLSTYLE
  1
TABLEFORMAT_BEGIN
 90
        5
170
     1
 91
        0
 92
    32768
 62
   257
 93
        1
300
CONTENTFORMAT
  1
CONTENTFORMAT_BEGIN
 90
        0
 91
        0
 92
      512
 93
        0
300

 40
0.0
140
1.0
 94
        5
 62
     0
340
11
144
0.25
309
CONTENTFORMAT_END
171
     1
301
MARGIN
  1
CELLMARGIN_BEGIN
 40
0.06
 40
0.06
 40
0.06
 40
0.06
 40
0.18
 40
0.18
309
CELLMARGIN_END
 94
        6
 95
        1
302
GRIDFORMAT
  1
GRIDFORMAT_BEGIN
 90
        0
 91
        1
 62
     0
 92
       -2
340
0
 93
        0
 40
0.045
309
GRIDFORMAT_END
 95
        2
302
GRIDFORMAT
  1
GRIDFORMAT_BEGIN
 90
        0
 91
        1
 62
     0
 92
       -2
340
0
 93
        0
 40
0.045
309
GRIDFORMAT_END
 95
        4
302
GRIDFORMAT
  1
GRIDFORMAT_BEGIN
 90
        0
 91
        1
 62
     0
 92
       -2
340
0
 93
        0
 40
0.045
309
GRIDFORMAT_END
 95
        8
302
GRIDFORMAT
  1
GRIDFORMAT_BEGIN
 90
        0
 91
        1
 62
     0
 92
       -2
340
0
 93
        0
 40
0.045
309
GRIDFORMAT_END
 95
       16
302
GRIDFORMAT
  1
GRIDFORMAT_BEGIN
 90
        0
 91
        1
 62
     0
 92
       -2
340
0
 93
        0
 40
0.045
309
GRIDFORMAT_END
 95
       32
302
GRIDFORMAT
  1
GRIDFORMAT_BEGIN
 90
        0
 91
        1
 62
     0
 92
       -2
340
0
 93
        0
 40
0.045
309
GRIDFORMAT_END
309
TABLEFORMAT_END
  1
CELLSTYLE_BEGIN
 90
        1
 91
        1
300
_TITLE
309
CELLSTYLE_END
300
CELLSTYLE
  1
TABLEFORMAT_BEGIN
 90
        5
170
     1
 91
        0
 92
        0
 62
   257
 93
        1
300
CONTENTFORMAT
  1
CONTENTFORMAT_BEGIN
 90
        0
 91
        0
 92
      512
 93
        0
300

 40
0.0
140
1.0
 94
        5
 62
     0
340
11
144
0.18
309
CONTENTFORMAT_END
171
     1
301
MARGIN
  1
CELLMARGIN_BEGIN
 40
0.06
 40
0.06
 40
0.06
 40
0.06
 40
0.18
 40
0.18
309
CELLMARGIN_END
 94
        6
 95
        1
302
GRIDFORMAT
  1
GRIDFORMAT_BEGIN
 90
        0
 91
        1
 62
     0
 92
       -2
340
0
 93
        0
 40
0.045
309
GRIDFORMAT_END
 95
        2
302
GRIDFORMAT
  1
GRIDFORMAT_BEGIN
 90
        0
 91
        1
 62
     0
 92
       -2
340
0
 93
        0
 40
0.045
309
GRIDFORMAT_END
 95
        4
302
GRIDFORMAT
  1
GRIDFORMAT_BEGIN
 90
        0
 91
        1
 62
     0
 92
       -2
340
0
 93
        0
 40
0.045
309
GRIDFORMAT_END
 95
        8
302
GRIDFORMAT
  1
GRIDFORMAT_BEGIN
 90
        0
 91
        1
 62
     0
 92
       -2
340
0
 93
        0
 40
0.045
309
GRIDFORMAT_END
 95
       16
302
GRIDFORMAT
  1
GRIDFORMAT_BEGIN
 90
        0
 91
        1
 62
     0
 92
       -2
340
0
 93
        0
 40
0.045
309
GRIDFORMAT_END
 95
       32
302
GRIDFORMAT
  1
GRIDFORMAT_BEGIN
 90
        0
 91
        1
 62
     0
 92
       -2
340
0
 93
        0
 40
0.045
309
GRIDFORMAT_END
309
TABLEFORMAT_END
  1
CELLSTYLE_BEGIN
 90
        2
 91
        1
300
_HEADER
309
CELLSTYLE_END
300
CELLSTYLE
  1
TABLEFORMAT_BEGIN
 90
        5
170
     1
 91
        0
 92
        0
 62
   257
 93
        1
300
CONTENTFORMAT
  1
CONTENTFORMAT_BEGIN
 90
        0
 91
        0
 92
      512
 93
        0
300

 40
0.0
140
1.0
 94
        2
 62
     0
340
11
144
0.18
309
CONTENTFORMAT_END
171
     1
301
MARGIN
  1
CELLMARGIN_BEGIN
 40
0.06
 40
0.06
 40
0.06
 40
0.06
 40
0.18
 40
0.18
309
CELLMARGIN_END
 94
        6
 95
        1
302
GRIDFORMAT
  1
GRIDFORMAT_BEGIN
 90
        0
 91
        1
 62
     0
 92
       -2
340
0
 93
        0
 40
0.045
309
GRIDFORMAT_END
 95
        2
302
GRIDFORMAT
  1
GRIDFORMAT_BEGIN
 90
        0
 91
        1
 62
     0
 92
       -2
340
0
 93
        0
 40
0.045
309
GRIDFORMAT_END
 95
        4
302
GRIDFORMAT
  1
GRIDFORMAT_BEGIN
 90
        0
 91
        1
 62
     0
 92
       -2
340
0
 93
        0
 40
0.045
309
GRIDFORMAT_END
 95
        8
302
GRIDFORMAT
  1
GRIDFORMAT_BEGIN
 90
        0
 91
        1
 62
     0
 92
       -2
340
0
 93
        0
 40
0.045
309
GRIDFORMAT_END
 95
       16
302
GRIDFORMAT
  1
GRIDFORMAT_BEGIN
 90
        0
 91
        1
 62
     0
 92
       -2
340
0
 93
        0
 40
0.045
309
GRIDFORMAT_END
 95
       32
302
GRIDFORMAT
  1
GRIDFORMAT_BEGIN
 90
        0
 91
        1
 62
     0
 92
       -2
340
0
 93
        0
 40
0.045
309
GRIDFORMAT_END
309
TABLEFORMAT_END
  1
CELLSTYLE_BEGIN
 90
        3
 91
        2
300
_DATA
309
CELLSTYLE_END
  0
XRECORD
  5
2F1B
102
{ACAD_REACTORS
330
2F1A
102
}
330
2F1A
100
AcDbXrecord
280
     1
102
RTVSPost2010Prop28
280
     1
102
RTVSPost2010PropOp28
 70
     1
102
RTVSPost2010Prop29
280
     1
102
RTVSPost2010PropOp29
 70
     1
102
RTVSPost2010Prop30
280
     0
102
RTVSPost2010PropOp30
 70
     1
102
RTVSPost2010Prop31
280
     0
102
RTVSPost2010PropOp31
 70
     1
102
RTVSPost2010Prop32
280
     0
102
RTVSPost2010PropOp32
 70
     1
102
RTVSPost2010Prop33
280
     0
102
RTVSPost2010PropOp33
 70
     1
102
RTVSPost2010Prop34
280
     0
102
RTVSPost2010PropOp34
 70
     1
102
RTVSPost2010Prop35
280
     0
102
RTVSPost2010PropOp35
 70
     1
102
RTVSPost2010Prop36
280
     0
102
RTVSPost2010PropOp36
 70
     1
102
RTVSPost2010Prop37
 90
       50
102
RTVSPost2010PropOp37
 70
     1
102
RTVSPost2010Prop38
140
0.0
102
RTVSPost2010PropOp38
 70
     1
102
RTVSPost2010Prop39
140
1.0
102
RTVSPost2010PropOp39
 70
     1
102
RTVSPost2010Prop40
 90
        0
102
RTVSPost2010PropOp40
 70
     1
102
RTVSPost2010Prop41ColorIndex
 90
       18
102
RTVSPost2010Prop41ColorRGB
 90
        0
102
RTVSPost2010PropOp41
 70
     1
102
RTVSPost2010Prop42
 90
       50
102
RTVSPost2010PropOp42
 70
     1
102
RTVSPost2010Prop43
 90
        3
102
RTVSPost2010PropOp43
 70
     1
102
RTVSPost2010Prop44ColorIndex
 90
        5
102
RTVSPost2010Prop44ColorRGB
 90
      255
102
RTVSPost2010PropOp44
 70
     1
102
RTVSPost2010Prop45
280
     0
102
RTVSPost2010PropOp45
 70
     1
102
RTVSPost2010Prop46
 90
       50
102
RTVSPost2010PropOp46
 70
     1
102
RTVSPost2010Prop47
 90
       50
102
RTVSPost2010PropOp47
 70
     1
102
RTVSPost2010Prop48
 90
       50
102
RTVSPost2010PropOp48
 70
     1
102
RTVSPost2010Prop49
280
     0
102
RTVSPost2010PropOp49
 70
     1
102
RTVSPost2010Prop50
 90
       50
102
RTVSPost2010PropOp50
 70
     1
102
RTVSPost2010Prop51ColorIndex
 90
      256
102
RTVSPost2010Prop51ColorRGB
 90
-16777216
102
RTVSPost2010PropOp51
 70
     0
102
RTVSPost2010Prop52
140
1.0
102
RTVSPost2010PropOp52
 70
     0
102
RTVSPost2010Prop53
 90
        2
102
RTVSPost2010PropOp53
 70
     1
102
RTVSPost2010Prop54
  1
strokes_ogs.tif
102
RTVSPost2010PropOp54
 70
     1
102
RTVSPost2010Prop55
280
     0
102
RTVSPost2010PropOp55
 70
     1
102
RTVSPost2010Prop56
140
1.0
102
RTVSPost2010PropOp56
 70
     1
102
RTVSPost2010Prop57
140
1.0
102
RTVSPost2010PropOp57
 70
     1
  0
XRECORD
  5
2F1F
102
{ACAD_REACTORS
330
2F1E
102
}
330
2F1E
100
AcDbXrecord
280
     1
102
RTVSPost2010Prop28
280
     0
102
RTVSPost2010PropOp28
 70
     1
102
RTVSPost2010Prop29
280
     1
102
RTVSPost2010PropOp29
 70
     1
102
RTVSPost2010Prop30
280
     1
102
RTVSPost2010PropOp30
 70
     1
102
RTVSPost2010Prop31
280
     0
102
RTVSPost2010PropOp31
 70
     1
102
RTVSPost2010Prop32
280
     0
102
RTVSPost2010PropOp32
 70
     1
102
RTVSPost2010Prop33
280
     0
102
RTVSPost2010PropOp33
 70
     1
102
RTVSPost2010Prop34
280
     0
102
RTVSPost2010PropOp34
 70
     1
102
RTVSPost2010Prop35
280
     0
102
RTVSPost2010PropOp35
 70
     1
102
RTVSPost2010Prop36
280
     0
102
RTVSPost2010PropOp36
 70
     1
102
RTVSPost2010Prop37
 90
       50
102
RTVSPost2010PropOp37
 70
     1
102
RTVSPost2010Prop38
140
0.0
102
RTVSPost2010PropOp38
 70
     1
102
RTVSPost2010Prop39
140
1.0
102
RTVSPost2010PropOp39
 70
     1
102
RTVSPost2010Prop40
 90
        0
102
RTVSPost2010PropOp40
 70
     1
102
RTVSPost2010Prop41ColorIndex
 90
       18
102
RTVSPost2010Prop41ColorRGB
 90
        0
102
RTVSPost2010PropOp41
 70
     1
102
RTVSPost2010Prop42
 90
       50
102
RTVSPost2010PropOp42
 70
     1
102
RTVSPost2010Prop43
 90
        3
102
RTVSPost2010PropOp43
 70
     1
102
RTVSPost2010Prop44ColorIndex
 90
        5
102
RTVSPost2010Prop44ColorRGB
 90
      255
102
RTVSPost2010PropOp44
 70
     1
102
RTVSPost2010Prop45
280
     0
102
RTVSPost2010PropOp45
 70
     1
102
RTVSPost2010Prop46
 90
       50
102
RTVSPost2010PropOp46
 70
     1
102
RTVSPost2010Prop47
 90
       50
102
RTVSPost2010PropOp47
 70
     1
102
RTVSPost2010Prop48
 90
       50
102
RTVSPost2010PropOp48
 70
     1
102
RTVSPost2010Prop49
280
     0
102
RTVSPost2010PropOp49
 70
     1
102
RTVSPost2010Prop50
 90
       50
102
RTVSPost2010PropOp50
 70
     1
102
RTVSPost2010Prop51ColorIndex
 90
      256
102
RTVSPost2010Prop51ColorRGB
 90
-16777216
102
RTVSPost2010PropOp51
 70
     0
102
RTVSPost2010Prop52
140
1.0
102
RTVSPost2010PropOp52
 70
     0
102
RTVSPost2010Prop53
 90
        2
102
RTVSPost2010PropOp53
 70
     1
102
RTVSPost2010Prop54
  1
strokes_ogs.tif
102
RTVSPost2010PropOp54
 70
     1
102
RTVSPost2010Prop55
280
     0
102
RTVSPost2010PropOp55
 70
     1
102
RTVSPost2010Prop56
140
1.0
102
RTVSPost2010PropOp56
 70
     1
102
RTVSPost2010Prop57
140
1.0
102
RTVSPost2010PropOp57
 70
     1
  0
XRECORD
  5
2F1D
102
{ACAD_REACTORS
330
2F1C
102
}
330
2F1C
100
AcDbXrecord
280
     1
102
RTVSPost2010Prop28
280
     0
102
RTVSPost2010PropOp28
 70
     1
102
RTVSPost2010Prop29
280
     1
102
RTVSPost2010PropOp29
 70
     1
102
RTVSPost2010Prop30
280
     1
102
RTVSPost2010PropOp30
 70
     1
102
RTVSPost2010Prop31
280
     0
102
RTVSPost2010PropOp31
 70
     1
102
RTVSPost2010Prop32
280
     0
102
RTVSPost2010PropOp32
 70
     1
102
RTVSPost2010Prop33
280
     0
102
RTVSPost2010PropOp33
 70
     1
102
RTVSPost2010Prop34
280
     0
102
RTVSPost2010PropOp34
 70
     1
102
RTVSPost2010Prop35
280
     0
102
RTVSPost2010PropOp35
 70
     1
102
RTVSPost2010Prop36
280
     0
102
RTVSPost2010PropOp36
 70
     1
102
RTVSPost2010Prop37
 90
       50
102
RTVSPost2010PropOp37
 70
     1
102
RTVSPost2010Prop38
140
0.0
102
RTVSPost2010PropOp38
 70
     1
102
RTVSPost2010Prop39
140
1.0
102
RTVSPost2010PropOp39
 70
     1
102
RTVSPost2010Prop40
 90
        0
102
RTVSPost2010PropOp40
 70
     1
102
RTVSPost2010Prop41ColorIndex
 90
       18
102
RTVSPost2010Prop41ColorRGB
 90
        0
102
RTVSPost2010PropOp41
 70
     1
102
RTVSPost2010Prop42
 90
       50
102
RTVSPost2010PropOp42
 70
     1
102
RTVSPost2010Prop43
 90
        3
102
RTVSPost2010PropOp43
 70
     1
102
RTVSPost2010Prop44ColorIndex
 90
        5
102
RTVSPost2010Prop44ColorRGB
 90
      255
102
RTVSPost2010PropOp44
 70
     1
102
RTVSPost2010Prop45
280
     0
102
RTVSPost2010PropOp45
 70
     1
102
RTVSPost2010Prop46
 90
       50
102
RTVSPost2010PropOp46
 70
     1
102
RTVSPost2010Prop47
 90
       50
102
RTVSPost2010PropOp47
 70
     1
102
RTVSPost2010Prop48
 90
       50
102
RTVSPost2010PropOp48
 70
     1
102
RTVSPost2010Prop49
280
     0
102
RTVSPost2010PropOp49
 70
     1
102
RTVSPost2010Prop50
 90
       50
102
RTVSPost2010PropOp50
 70
     1
102
RTVSPost2010Prop51ColorIndex
 90
      256
102
RTVSPost2010Prop51ColorRGB
 90
-16777216
102
RTVSPost2010PropOp51
 70
     0
102
RTVSPost2010Prop52
140
1.0
102
RTVSPost2010PropOp52
 70
     0
102
RTVSPost2010Prop53
 90
        2
102
RTVSPost2010PropOp53
 70
     1
102
RTVSPost2010Prop54
  1
strokes_ogs.tif
102
RTVSPost2010PropOp54
 70
     1
102
RTVSPost2010Prop55
280
     0
102
RTVSPost2010PropOp55
 70
     1
102
RTVSPost2010Prop56
140
1.0
102
RTVSPost2010PropOp56
 70
     1
102
RTVSPost2010Prop57
140
1.0
102
RTVSPost2010PropOp57
 70
     1
  0
XRECORD
  5
2F19
102
{ACAD_REACTORS
330
2F18
102
}
330
2F18
100
AcDbXrecord
280
     1
102
RTVSPost2010Prop28
280
     0
102
RTVSPost2010PropOp28
 70
     1
102
RTVSPost2010Prop29
280
     1
102
RTVSPost2010PropOp29
 70
     1
102
RTVSPost2010Prop30
280
     1
102
RTVSPost2010PropOp30
 70
     1
102
RTVSPost2010Prop31
280
     0
102
RTVSPost2010PropOp31
 70
     1
102
RTVSPost2010Prop32
280
     0
102
RTVSPost2010PropOp32
 70
     1
102
RTVSPost2010Prop33
280
     0
102
RTVSPost2010PropOp33
 70
     1
102
RTVSPost2010Prop34
280
     0
102
RTVSPost2010PropOp34
 70
     1
102
RTVSPost2010Prop35
280
     0
102
RTVSPost2010PropOp35
 70
     1
102
RTVSPost2010Prop36
280
     0
102
RTVSPost2010PropOp36
 70
     1
102
RTVSPost2010Prop37
 90
       50
102
RTVSPost2010PropOp37
 70
     1
102
RTVSPost2010Prop38
140
0.0
102
RTVSPost2010PropOp38
 70
     1
102
RTVSPost2010Prop39
140
1.0
102
RTVSPost2010PropOp39
 70
     1
102
RTVSPost2010Prop40
 90
        0
102
RTVSPost2010PropOp40
 70
     1
102
RTVSPost2010Prop41ColorIndex
 90
       18
102
RTVSPost2010Prop41ColorRGB
 90
        0
102
RTVSPost2010PropOp41
 70
     1
102
RTVSPost2010Prop42
 90
       50
102
RTVSPost2010PropOp42
 70
     1
102
RTVSPost2010Prop43
 90
        3
102
RTVSPost2010PropOp43
 70
     1
102
RTVSPost2010Prop44ColorIndex
 90
        5
102
RTVSPost2010Prop44ColorRGB
 90
      255
102
RTVSPost2010PropOp44
 70
     1
102
RTVSPost2010Prop45
280
     0
102
RTVSPost2010PropOp45
 70
     1
102
RTVSPost2010Prop46
 90
       50
102
RTVSPost2010PropOp46
 70
     1
102
RTVSPost2010Prop47
 90
       50
102
RTVSPost2010PropOp47
 70
     1
102
RTVSPost2010Prop48
 90
       50
102
RTVSPost2010PropOp48
 70
     1
102
RTVSPost2010Prop49
280
     0
102
RTVSPost2010PropOp49
 70
     1
102
RTVSPost2010Prop50
 90
       50
102
RTVSPost2010PropOp50
 70
     1
102
RTVSPost2010Prop51ColorIndex
 90
      256
102
RTVSPost2010Prop51ColorRGB
 90
-16777216
102
RTVSPost2010PropOp51
 70
     0
102
RTVSPost2010Prop52
140
1.0
102
RTVSPost2010PropOp52
 70
     0
102
RTVSPost2010Prop53
 90
        2
102
RTVSPost2010PropOp53
 70
     1
102
RTVSPost2010Prop54
  1
strokes_ogs.tif
102
RTVSPost2010PropOp54
 70
     1
102
RTVSPost2010Prop55
280
     0
102
RTVSPost2010PropOp55
 70
     1
102
RTVSPost2010Prop56
140
1.0
102
RTVSPost2010PropOp56
 70
     1
102
RTVSPost2010Prop57
140
1.0
102
RTVSPost2010PropOp57
 70
     1
  0
XRECORD
  5
2F27
102
{ACAD_REACTORS
330
2F26
102
}
330
2F26
100
AcDbXrecord
280
     1
102
RTVSPost2010Prop28
280
     0
102
RTVSPost2010PropOp28
 70
     1
102
RTVSPost2010Prop29
280
     1
102
RTVSPost2010PropOp29
 70
     1
102
RTVSPost2010Prop30
280
     1
102
RTVSPost2010PropOp30
 70
     1
102
RTVSPost2010Prop31
280
     0
102
RTVSPost2010PropOp31
 70
     1
102
RTVSPost2010Prop32
280
     0
102
RTVSPost2010PropOp32
 70
     1
102
RTVSPost2010Prop33
280
     0
102
RTVSPost2010PropOp33
 70
     1
102
RTVSPost2010Prop34
280
     0
102
RTVSPost2010PropOp34
 70
     1
102
RTVSPost2010Prop35
280
     0
102
RTVSPost2010PropOp35
 70
     1
102
RTVSPost2010Prop36
280
     0
102
RTVSPost2010PropOp36
 70
     1
102
RTVSPost2010Prop37
 90
       50
102
RTVSPost2010PropOp37
 70
     1
102
RTVSPost2010Prop38
140
0.0
102
RTVSPost2010PropOp38
 70
     1
102
RTVSPost2010Prop39
140
1.0
102
RTVSPost2010PropOp39
 70
     1
102
RTVSPost2010Prop40
 90
        0
102
RTVSPost2010PropOp40
 70
     1
102
RTVSPost2010Prop41ColorIndex
 90
       18
102
RTVSPost2010Prop41ColorRGB
 90
        0
102
RTVSPost2010PropOp41
 70
     1
102
RTVSPost2010Prop42
 90
       50
102
RTVSPost2010PropOp42
 70
     1
102
RTVSPost2010Prop43
 90
        3
102
RTVSPost2010PropOp43
 70
     1
102
RTVSPost2010Prop44ColorIndex
 90
        5
102
RTVSPost2010Prop44ColorRGB
 90
      255
102
RTVSPost2010PropOp44
 70
     1
102
RTVSPost2010Prop45
280
     0
102
RTVSPost2010PropOp45
 70
     1
102
RTVSPost2010Prop46
 90
       50
102
RTVSPost2010PropOp46
 70
     1
102
RTVSPost2010Prop47
 90
       50
102
RTVSPost2010PropOp47
 70
     1
102
RTVSPost2010Prop48
 90
       50
102
RTVSPost2010PropOp48
 70
     1
102
RTVSPost2010Prop49
280
     0
102
RTVSPost2010PropOp49
 70
     1
102
RTVSPost2010Prop50
 90
       50
102
RTVSPost2010PropOp50
 70
     1
102
RTVSPost2010Prop51ColorIndex
 90
      256
102
RTVSPost2010Prop51ColorRGB
 90
-16777216
102
RTVSPost2010PropOp51
 70
     0
102
RTVSPost2010Prop52
140
1.0
102
RTVSPost2010PropOp52
 70
     0
102
RTVSPost2010Prop53
 90
        2
102
RTVSPost2010PropOp53
 70
     1
102
RTVSPost2010Prop54
  1
strokes_ogs.tif
102
RTVSPost2010PropOp54
 70
     1
102
RTVSPost2010Prop55
280
     0
102
RTVSPost2010PropOp55
 70
     1
102
RTVSPost2010Prop56
140
1.0
102
RTVSPost2010PropOp56
 70
     1
102
RTVSPost2010Prop57
140
1.0
102
RTVSPost2010PropOp57
 70
     1
  0
XRECORD
  5
2F2F
102
{ACAD_REACTORS
330
2F2E
102
}
330
2F2E
100
AcDbXrecord
280
     1
102
RTVSPost2010Prop28
280
     0
102
RTVSPost2010PropOp28
 70
     1
102
RTVSPost2010Prop29
280
     1
102
RTVSPost2010PropOp29
 70
     1
102
RTVSPost2010Prop30
280
     1
102
RTVSPost2010PropOp30
 70
     1
102
RTVSPost2010Prop31
280
     0
102
RTVSPost2010PropOp31
 70
     1
102
RTVSPost2010Prop32
280
     0
102
RTVSPost2010PropOp32
 70
     1
102
RTVSPost2010Prop33
280
     0
102
RTVSPost2010PropOp33
 70
     1
102
RTVSPost2010Prop34
280
     0
102
RTVSPost2010PropOp34
 70
     1
102
RTVSPost2010Prop35
280
     0
102
RTVSPost2010PropOp35
 70
     1
102
RTVSPost2010Prop36
280
     0
102
RTVSPost2010PropOp36
 70
     1
102
RTVSPost2010Prop37
 90
       50
102
RTVSPost2010PropOp37
 70
     1
102
RTVSPost2010Prop38
140
0.0
102
RTVSPost2010PropOp38
 70
     1
102
RTVSPost2010Prop39
140
1.0
102
RTVSPost2010PropOp39
 70
     1
102
RTVSPost2010Prop40
 90
        0
102
RTVSPost2010PropOp40
 70
     1
102
RTVSPost2010Prop41ColorIndex
 90
       18
102
RTVSPost2010Prop41ColorRGB
 90
        0
102
RTVSPost2010PropOp41
 70
     1
102
RTVSPost2010Prop42
 90
       50
102
RTVSPost2010PropOp42
 70
     1
102
RTVSPost2010Prop43
 90
        3
102
RTVSPost2010PropOp43
 70
     1
102
RTVSPost2010Prop44ColorIndex
 90
        5
102
RTVSPost2010Prop44ColorRGB
 90
      255
102
RTVSPost2010PropOp44
 70
     1
102
RTVSPost2010Prop45
280
     0
102
RTVSPost2010PropOp45
 70
     1
102
RTVSPost2010Prop46
 90
       50
102
RTVSPost2010PropOp46
 70
     1
102
RTVSPost2010Prop47
 90
       50
102
RTVSPost2010PropOp47
 70
     1
102
RTVSPost2010Prop48
 90
       50
102
RTVSPost2010PropOp48
 70
     1
102
RTVSPost2010Prop49
280
     0
102
RTVSPost2010PropOp49
 70
     1
102
RTVSPost2010Prop50
 90
       50
102
RTVSPost2010PropOp50
 70
     1
102
RTVSPost2010Prop51ColorIndex
 90
      256
102
RTVSPost2010Prop51ColorRGB
 90
-16777216
102
RTVSPost2010PropOp51
 70
     0
102
RTVSPost2010Prop52
140
1.0
102
RTVSPost2010PropOp52
 70
     0
102
RTVSPost2010Prop53
 90
        2
102
RTVSPost2010PropOp53
 70
     1
102
RTVSPost2010Prop54
  1
strokes_ogs.tif
102
RTVSPost2010PropOp54
 70
     1
102
RTVSPost2010Prop55
280
     0
102
RTVSPost2010PropOp55
 70
     1
102
RTVSPost2010Prop56
140
1.0
102
RTVSPost2010PropOp56
 70
     1
102
RTVSPost2010Prop57
140
1.0
102
RTVSPost2010PropOp57
 70
     1
  0
XRECORD
  5
2F21
102
{ACAD_REACTORS
330
2F20
102
}
330
2F20
100
AcDbXrecord
280
     1
102
RTVSPost2010Prop28
280
     0
102
RTVSPost2010PropOp28
 70
     1
102
RTVSPost2010Prop29
280
     1
102
RTVSPost2010PropOp29
 70
     1
102
RTVSPost2010Prop30
280
     1
102
RTVSPost2010PropOp30
 70
     1
102
RTVSPost2010Prop31
280
     0
102
RTVSPost2010PropOp31
 70
     1
102
RTVSPost2010Prop32
280
     0
102
RTVSPost2010PropOp32
 70
     1
102
RTVSPost2010Prop33
280
     0
102
RTVSPost2010PropOp33
 70
     1
102
RTVSPost2010Prop34
280
     0
102
RTVSPost2010PropOp34
 70
     1
102
RTVSPost2010Prop35
280
     0
102
RTVSPost2010PropOp35
 70
     1
102
RTVSPost2010Prop36
280
     0
102
RTVSPost2010PropOp36
 70
     1
102
RTVSPost2010Prop37
 90
       50
102
RTVSPost2010PropOp37
 70
     1
102
RTVSPost2010Prop38
140
0.0
102
RTVSPost2010PropOp38
 70
     1
102
RTVSPost2010Prop39
140
1.0
102
RTVSPost2010PropOp39
 70
     1
102
RTVSPost2010Prop40
 90
        0
102
RTVSPost2010PropOp40
 70
     1
102
RTVSPost2010Prop41ColorIndex
 90
       18
102
RTVSPost2010Prop41ColorRGB
 90
        0
102
RTVSPost2010PropOp41
 70
     1
102
RTVSPost2010Prop42
 90
       50
102
RTVSPost2010PropOp42
 70
     1
102
RTVSPost2010Prop43
 90
        3
102
RTVSPost2010PropOp43
 70
     1
102
RTVSPost2010Prop44ColorIndex
 90
        5
102
RTVSPost2010Prop44ColorRGB
 90
      255
102
RTVSPost2010PropOp44
 70
     1
102
RTVSPost2010Prop45
280
     0
102
RTVSPost2010PropOp45
 70
     1
102
RTVSPost2010Prop46
 90
       50
102
RTVSPost2010PropOp46
 70
     1
102
RTVSPost2010Prop47
 90
       50
102
RTVSPost2010PropOp47
 70
     1
102
RTVSPost2010Prop48
 90
       50
102
RTVSPost2010PropOp48
 70
     1
102
RTVSPost2010Prop49
280
     0
102
RTVSPost2010PropOp49
 70
     1
102
RTVSPost2010Prop50
 90
       50
102
RTVSPost2010PropOp50
 70
     1
102
RTVSPost2010Prop51ColorIndex
 90
      256
102
RTVSPost2010Prop51ColorRGB
 90
-16777216
102
RTVSPost2010PropOp51
 70
     0
102
RTVSPost2010Prop52
140
1.0
102
RTVSPost2010PropOp52
 70
     0
102
RTVSPost2010Prop53
 90
        2
102
RTVSPost2010PropOp53
 70
     1
102
RTVSPost2010Prop54
  1
strokes_ogs.tif
102
RTVSPost2010PropOp54
 70
     1
102
RTVSPost2010Prop55
280
     0
102
RTVSPost2010PropOp55
 70
     1
102
RTVSPost2010Prop56
140
1.0
102
RTVSPost2010PropOp56
 70
     1
102
RTVSPost2010Prop57
140
1.0
102
RTVSPost2010PropOp57
 70
     1
  0
XRECORD
  5
2F25
102
{ACAD_REACTORS
330
2F24
102
}
330
2F24
100
AcDbXrecord
280
     1
102
RTVSPost2010Prop28
280
     0
102
RTVSPost2010PropOp28
 70
     1
102
RTVSPost2010Prop29
280
     1
102
RTVSPost2010PropOp29
 70
     1
102
RTVSPost2010Prop30
280
     1
102
RTVSPost2010PropOp30
 70
     1
102
RTVSPost2010Prop31
280
     0
102
RTVSPost2010PropOp31
 70
     1
102
RTVSPost2010Prop32
280
     0
102
RTVSPost2010PropOp32
 70
     1
102
RTVSPost2010Prop33
280
     0
102
RTVSPost2010PropOp33
 70
     1
102
RTVSPost2010Prop34
280
     0
102
RTVSPost2010PropOp34
 70
     1
102
RTVSPost2010Prop35
280
     0
102
RTVSPost2010PropOp35
 70
     1
102
RTVSPost2010Prop36
280
     0
102
RTVSPost2010PropOp36
 70
     1
102
RTVSPost2010Prop37
 90
       50
102
RTVSPost2010PropOp37
 70
     1
102
RTVSPost2010Prop38
140
0.0
102
RTVSPost2010PropOp38
 70
     1
102
RTVSPost2010Prop39
140
1.0
102
RTVSPost2010PropOp39
 70
     1
102
RTVSPost2010Prop40
 90
        0
102
RTVSPost2010PropOp40
 70
     1
102
RTVSPost2010Prop41ColorIndex
 90
       18
102
RTVSPost2010Prop41ColorRGB
 90
        0
102
RTVSPost2010PropOp41
 70
     1
102
RTVSPost2010Prop42
 90
       50
102
RTVSPost2010PropOp42
 70
     1
102
RTVSPost2010Prop43
 90
        3
102
RTVSPost2010PropOp43
 70
     1
102
RTVSPost2010Prop44ColorIndex
 90
        5
102
RTVSPost2010Prop44ColorRGB
 90
      255
102
RTVSPost2010PropOp44
 70
     1
102
RTVSPost2010Prop45
280
     0
102
RTVSPost2010PropOp45
 70
     1
102
RTVSPost2010Prop46
 90
       50
102
RTVSPost2010PropOp46
 70
     1
102
RTVSPost2010Prop47
 90
       50
102
RTVSPost2010PropOp47
 70
     1
102
RTVSPost2010Prop48
 90
       50
102
RTVSPost2010PropOp48
 70
     1
102
RTVSPost2010Prop49
280
     0
102
RTVSPost2010PropOp49
 70
     1
102
RTVSPost2010Prop50
 90
       50
102
RTVSPost2010PropOp50
 70
     1
102
RTVSPost2010Prop51ColorIndex
 90
      256
102
RTVSPost2010Prop51ColorRGB
 90
-16777216
102
RTVSPost2010PropOp51
 70
     0
102
RTVSPost2010Prop52
140
1.0
102
RTVSPost2010PropOp52
 70
     0
102
RTVSPost2010Prop53
 90
        2
102
RTVSPost2010PropOp53
 70
     1
102
RTVSPost2010Prop54
  1
strokes_ogs.tif
102
RTVSPost2010PropOp54
 70
     1
102
RTVSPost2010Prop55
280
     0
102
RTVSPost2010PropOp55
 70
     1
102
RTVSPost2010Prop56
140
1.0
102
RTVSPost2010PropOp56
 70
     1
102
RTVSPost2010Prop57
140
1.0
102
RTVSPost2010PropOp57
 70
     1
  0
XRECORD
  5
2F43
102
{ACAD_REACTORS
330
2F42
102
}
330
2F42
100
AcDbXrecord
280
     1
102
RTVSPost2010Prop28
280
     0
102
RTVSPost2010PropOp28
 70
     1
102
RTVSPost2010Prop29
280
     1
102
RTVSPost2010PropOp29
 70
     1
102
RTVSPost2010Prop30
280
     1
102
RTVSPost2010PropOp30
 70
     1
102
RTVSPost2010Prop31
280
     0
102
RTVSPost2010PropOp31
 70
     1
102
RTVSPost2010Prop32
280
     0
102
RTVSPost2010PropOp32
 70
     1
102
RTVSPost2010Prop33
280
     0
102
RTVSPost2010PropOp33
 70
     1
102
RTVSPost2010Prop34
280
     0
102
RTVSPost2010PropOp34
 70
     1
102
RTVSPost2010Prop35
280
     0
102
RTVSPost2010PropOp35
 70
     1
102
RTVSPost2010Prop36
280
     0
102
RTVSPost2010PropOp36
 70
     1
102
RTVSPost2010Prop37
 90
       50
102
RTVSPost2010PropOp37
 70
     0
102
RTVSPost2010Prop38
140
0.0
102
RTVSPost2010PropOp38
 70
     0
102
RTVSPost2010Prop39
140
1.0
102
RTVSPost2010PropOp39
 70
     0
102
RTVSPost2010Prop40
 90
        0
102
RTVSPost2010PropOp40
 70
     0
102
RTVSPost2010Prop41ColorIndex
 90
       18
102
RTVSPost2010Prop41ColorRGB
 90
        0
102
RTVSPost2010PropOp41
 70
     0
102
RTVSPost2010Prop42
 90
       50
102
RTVSPost2010PropOp42
 70
     0
102
RTVSPost2010Prop43
 90
        3
102
RTVSPost2010PropOp43
 70
     0
102
RTVSPost2010Prop44ColorIndex
 90
        5
102
RTVSPost2010Prop44ColorRGB
 90
      255
102
RTVSPost2010PropOp44
 70
     0
102
RTVSPost2010Prop45
280
     0
102
RTVSPost2010PropOp45
 70
     1
102
RTVSPost2010Prop46
 90
       50
102
RTVSPost2010PropOp46
 70
     0
102
RTVSPost2010Prop47
 90
       50
102
RTVSPost2010PropOp47
 70
     0
102
RTVSPost2010Prop48
 90
       50
102
RTVSPost2010PropOp48
 70
     0
102
RTVSPost2010Prop49
280
     0
102
RTVSPost2010PropOp49
 70
     1
102
RTVSPost2010Prop50
 90
       50
102
RTVSPost2010PropOp50
 70
     0
102
RTVSPost2010Prop51ColorIndex
 90
      256
102
RTVSPost2010Prop51ColorRGB
 90
-16777216
102
RTVSPost2010PropOp51
 70
     0
102
RTVSPost2010Prop52
140
1.0
102
RTVSPost2010PropOp52
 70
     0
102
RTVSPost2010Prop53
 90
        2
102
RTVSPost2010PropOp53
 70
     0
102
RTVSPost2010Prop54
  1
strokes_ogs.tif
102
RTVSPost2010PropOp54
 70
     0
102
RTVSPost2010Prop55
280
     0
102
RTVSPost2010PropOp55
 70
     1
102
RTVSPost2010Prop56
140
1.0
102
RTVSPost2010PropOp56
 70
     0
102
RTVSPost2010Prop57
140
1.0
102
RTVSPost2010PropOp57
 70
     0
  0
XRECORD
  5
2F2D
102
{ACAD_REACTORS
330
2F2C
102
}
330
2F2C
100
AcDbXrecord
280
     1
102
RTVSPost2010Prop28
280
     0
102
RTVSPost2010PropOp28
 70
     1
102
RTVSPost2010Prop29
280
     1
102
RTVSPost2010PropOp29
 70
     1
102
RTVSPost2010Prop30
280
     1
102
RTVSPost2010PropOp30
 70
     1
102
RTVSPost2010Prop31
280
     0
102
RTVSPost2010PropOp31
 70
     1
102
RTVSPost2010Prop32
280
     0
102
RTVSPost2010PropOp32
 70
     1
102
RTVSPost2010Prop33
280
     0
102
RTVSPost2010PropOp33
 70
     1
102
RTVSPost2010Prop34
280
     0
102
RTVSPost2010PropOp34
 70
     1
102
RTVSPost2010Prop35
280
     0
102
RTVSPost2010PropOp35
 70
     1
102
RTVSPost2010Prop36
280
     0
102
RTVSPost2010PropOp36
 70
     1
102
RTVSPost2010Prop37
 90
       50
102
RTVSPost2010PropOp37
 70
     1
102
RTVSPost2010Prop38
140
0.0
102
RTVSPost2010PropOp38
 70
     1
102
RTVSPost2010Prop39
140
1.0
102
RTVSPost2010PropOp39
 70
     1
102
RTVSPost2010Prop40
 90
        0
102
RTVSPost2010PropOp40
 70
     1
102
RTVSPost2010Prop41ColorIndex
 90
       18
102
RTVSPost2010Prop41ColorRGB
 90
        0
102
RTVSPost2010PropOp41
 70
     1
102
RTVSPost2010Prop42
 90
       50
102
RTVSPost2010PropOp42
 70
     1
102
RTVSPost2010Prop43
 90
        3
102
RTVSPost2010PropOp43
 70
     1
102
RTVSPost2010Prop44ColorIndex
 90
        5
102
RTVSPost2010Prop44ColorRGB
 90
      255
102
RTVSPost2010PropOp44
 70
     1
102
RTVSPost2010Prop45
280
     0
102
RTVSPost2010PropOp45
 70
     1
102
RTVSPost2010Prop46
 90
       50
102
RTVSPost2010PropOp46
 70
     1
102
RTVSPost2010Prop47
 90
       50
102
RTVSPost2010PropOp47
 70
     1
102
RTVSPost2010Prop48
 90
       50
102
RTVSPost2010PropOp48
 70
     1
102
RTVSPost2010Prop49
280
     0
102
RTVSPost2010PropOp49
 70
     1
102
RTVSPost2010Prop50
 90
       50
102
RTVSPost2010PropOp50
 70
     1
102
RTVSPost2010Prop51ColorIndex
 90
      256
102
RTVSPost2010Prop51ColorRGB
 90
-16777216
102
RTVSPost2010PropOp51
 70
     0
102
RTVSPost2010Prop52
140
1.0
102
RTVSPost2010PropOp52
 70
     0
102
RTVSPost2010Prop53
 90
        2
102
RTVSPost2010PropOp53
 70
     1
102
RTVSPost2010Prop54
  1
strokes_ogs.tif
102
RTVSPost2010PropOp54
 70
     1
102
RTVSPost2010Prop55
280
     0
102
RTVSPost2010PropOp55
 70
     1
102
RTVSPost2010Prop56
140
1.0
102
RTVSPost2010PropOp56
 70
     1
102
RTVSPost2010Prop57
140
1.0
102
RTVSPost2010PropOp57
 70
     1
  0
XRECORD
  5
2F11
102
{ACAD_REACTORS
330
2F10
102
}
330
2F10
100
AcDbXrecord
280
     1
102
RTVSPost2010Prop28
280
     0
102
RTVSPost2010PropOp28
 70
     1
102
RTVSPost2010Prop29
280
     1
102
RTVSPost2010PropOp29
 70
     1
102
RTVSPost2010Prop30
280
     1
102
RTVSPost2010PropOp30
 70
     1
102
RTVSPost2010Prop31
280
     0
102
RTVSPost2010PropOp31
 70
     1
102
RTVSPost2010Prop32
280
     0
102
RTVSPost2010PropOp32
 70
     1
102
RTVSPost2010Prop33
280
     0
102
RTVSPost2010PropOp33
 70
     1
102
RTVSPost2010Prop34
280
     0
102
RTVSPost2010PropOp34
 70
     1
102
RTVSPost2010Prop35
280
     0
102
RTVSPost2010PropOp35
 70
     1
102
RTVSPost2010Prop36
280
     0
102
RTVSPost2010PropOp36
 70
     1
102
RTVSPost2010Prop37
 90
       50
102
RTVSPost2010PropOp37
 70
     1
102
RTVSPost2010Prop38
140
0.0
102
RTVSPost2010PropOp38
 70
     1
102
RTVSPost2010Prop39
140
1.0
102
RTVSPost2010PropOp39
 70
     1
102
RTVSPost2010Prop40
 90
        0
102
RTVSPost2010PropOp40
 70
     1
102
RTVSPost2010Prop41ColorIndex
 90
       18
102
RTVSPost2010Prop41ColorRGB
 90
        0
102
RTVSPost2010PropOp41
 70
     1
102
RTVSPost2010Prop42
 90
       50
102
RTVSPost2010PropOp42
 70
     1
102
RTVSPost2010Prop43
 90
        3
102
RTVSPost2010PropOp43
 70
     1
102
RTVSPost2010Prop44ColorIndex
 90
        5
102
RTVSPost2010Prop44ColorRGB
 90
      255
102
RTVSPost2010PropOp44
 70
     1
102
RTVSPost2010Prop45
280
     0
102
RTVSPost2010PropOp45
 70
     1
102
RTVSPost2010Prop46
 90
       50
102
RTVSPost2010PropOp46
 70
     1
102
RTVSPost2010Prop47
 90
       50
102
RTVSPost2010PropOp47
 70
     1
102
RTVSPost2010Prop48
 90
       50
102
RTVSPost2010PropOp48
 70
     1
102
RTVSPost2010Prop49
280
     0
102
RTVSPost2010PropOp49
 70
     1
102
RTVSPost2010Prop50
 90
       50
102
RTVSPost2010PropOp50
 70
     1
102
RTVSPost2010Prop51ColorIndex
 90
      256
102
RTVSPost2010Prop51ColorRGB
 90
-16777216
102
RTVSPost2010PropOp51
 70
     0
102
RTVSPost2010Prop52
140
1.0
102
RTVSPost2010PropOp52
 70
     0
102
RTVSPost2010Prop53
 90
        2
102
RTVSPost2010PropOp53
 70
     1
102
RTVSPost2010Prop54
  1
strokes_ogs.tif
102
RTVSPost2010PropOp54
 70
     1
102
RTVSPost2010Prop55
280
     0
102
RTVSPost2010PropOp55
 70
     1
102
RTVSPost2010Prop56
140
1.0
102
RTVSPost2010PropOp56
 70
     1
102
RTVSPost2010Prop57
140
1.0
102
RTVSPost2010PropOp57
 70
     1
  0
XRECORD
  5
2F13
102
{ACAD_REACTORS
330
2F12
102
}
330
2F12
100
AcDbXrecord
280
     1
102
RTVSPost2010Prop28
280
     0
102
RTVSPost2010PropOp28
 70
     1
102
RTVSPost2010Prop29
280
     1
102
RTVSPost2010PropOp29
 70
     1
102
RTVSPost2010Prop30
280
     1
102
RTVSPost2010PropOp30
 70
     1
102
RTVSPost2010Prop31
280
     0
102
RTVSPost2010PropOp31
 70
     1
102
RTVSPost2010Prop32
280
     0
102
RTVSPost2010PropOp32
 70
     1
102
RTVSPost2010Prop33
280
     0
102
RTVSPost2010PropOp33
 70
     1
102
RTVSPost2010Prop34
280
     0
102
RTVSPost2010PropOp34
 70
     1
102
RTVSPost2010Prop35
280
     0
102
RTVSPost2010PropOp35
 70
     1
102
RTVSPost2010Prop36
280
     0
102
RTVSPost2010PropOp36
 70
     1
102
RTVSPost2010Prop37
 90
       50
102
RTVSPost2010PropOp37
 70
     1
102
RTVSPost2010Prop38
140
0.0
102
RTVSPost2010PropOp38
 70
     1
102
RTVSPost2010Prop39
140
1.0
102
RTVSPost2010PropOp39
 70
     1
102
RTVSPost2010Prop40
 90
        0
102
RTVSPost2010PropOp40
 70
     1
102
RTVSPost2010Prop41ColorIndex
 90
       18
102
RTVSPost2010Prop41ColorRGB
 90
        0
102
RTVSPost2010PropOp41
 70
     1
102
RTVSPost2010Prop42
 90
       50
102
RTVSPost2010PropOp42
 70
     1
102
RTVSPost2010Prop43
 90
        3
102
RTVSPost2010PropOp43
 70
     1
102
RTVSPost2010Prop44ColorIndex
 90
        5
102
RTVSPost2010Prop44ColorRGB
 90
      255
102
RTVSPost2010PropOp44
 70
     1
102
RTVSPost2010Prop45
280
     0
102
RTVSPost2010PropOp45
 70
     1
102
RTVSPost2010Prop46
 90
       50
102
RTVSPost2010PropOp46
 70
     1
102
RTVSPost2010Prop47
 90
       50
102
RTVSPost2010PropOp47
 70
     1
102
RTVSPost2010Prop48
 90
       50
102
RTVSPost2010PropOp48
 70
     1
102
RTVSPost2010Prop49
280
     0
102
RTVSPost2010PropOp49
 70
     1
102
RTVSPost2010Prop50
 90
       50
102
RTVSPost2010PropOp50
 70
     1
102
RTVSPost2010Prop51ColorIndex
 90
      256
102
RTVSPost2010Prop51ColorRGB
 90
-16777216
102
RTVSPost2010PropOp51
 70
     0
102
RTVSPost2010Prop52
140
1.0
102
RTVSPost2010PropOp52
 70
     0
102
RTVSPost2010Prop53
 90
        2
102
RTVSPost2010PropOp53
 70
     1
102
RTVSPost2010Prop54
  1
strokes_ogs.tif
102
RTVSPost2010PropOp54
 70
     1
102
RTVSPost2010Prop55
280
     0
102
RTVSPost2010PropOp55
 70
     1
102
RTVSPost2010Prop56
140
1.0
102
RTVSPost2010PropOp56
 70
     1
102
RTVSPost2010Prop57
140
1.0
102
RTVSPost2010PropOp57
 70
     1
  0
XRECORD
  5
2F15
102
{ACAD_REACTORS
330
2F14
102
}
330
2F14
100
AcDbXrecord
280
     1
102
RTVSPost2010Prop28
280
     0
102
RTVSPost2010PropOp28
 70
     1
102
RTVSPost2010Prop29
280
     1
102
RTVSPost2010PropOp29
 70
     1
102
RTVSPost2010Prop30
280
     1
102
RTVSPost2010PropOp30
 70
     1
102
RTVSPost2010Prop31
280
     0
102
RTVSPost2010PropOp31
 70
     1
102
RTVSPost2010Prop32
280
     0
102
RTVSPost2010PropOp32
 70
     1
102
RTVSPost2010Prop33
280
     0
102
RTVSPost2010PropOp33
 70
     1
102
RTVSPost2010Prop34
280
     0
102
RTVSPost2010PropOp34
 70
     1
102
RTVSPost2010Prop35
280
     0
102
RTVSPost2010PropOp35
 70
     1
102
RTVSPost2010Prop36
280
     0
102
RTVSPost2010PropOp36
 70
     1
102
RTVSPost2010Prop37
 90
       50
102
RTVSPost2010PropOp37
 70
     1
102
RTVSPost2010Prop38
140
0.0
102
RTVSPost2010PropOp38
 70
     1
102
RTVSPost2010Prop39
140
1.0
102
RTVSPost2010PropOp39
 70
     1
102
RTVSPost2010Prop40
 90
        0
102
RTVSPost2010PropOp40
 70
     1
102
RTVSPost2010Prop41ColorIndex
 90
       18
102
RTVSPost2010Prop41ColorRGB
 90
        0
102
RTVSPost2010PropOp41
 70
     1
102
RTVSPost2010Prop42
 90
       50
102
RTVSPost2010PropOp42
 70
     1
102
RTVSPost2010Prop43
 90
        3
102
RTVSPost2010PropOp43
 70
     1
102
RTVSPost2010Prop44ColorIndex
 90
        5
102
RTVSPost2010Prop44ColorRGB
 90
      255
102
RTVSPost2010PropOp44
 70
     1
102
RTVSPost2010Prop45
280
     0
102
RTVSPost2010PropOp45
 70
     1
102
RTVSPost2010Prop46
 90
       50
102
RTVSPost2010PropOp46
 70
     1
102
RTVSPost2010Prop47
 90
       50
102
RTVSPost2010PropOp47
 70
     1
102
RTVSPost2010Prop48
 90
       50
102
RTVSPost2010PropOp48
 70
     1
102
RTVSPost2010Prop49
280
     0
102
RTVSPost2010PropOp49
 70
     1
102
RTVSPost2010Prop50
 90
       50
102
RTVSPost2010PropOp50
 70
     1
102
RTVSPost2010Prop51ColorIndex
 90
      256
102
RTVSPost2010Prop51ColorRGB
 90
-16777216
102
RTVSPost2010PropOp51
 70
     0
102
RTVSPost2010Prop52
140
1.0
102
RTVSPost2010PropOp52
 70
     0
102
RTVSPost2010Prop53
 90
        2
102
RTVSPost2010PropOp53
 70
     1
102
RTVSPost2010Prop54
  1
strokes_ogs.tif
102
RTVSPost2010PropOp54
 70
     1
102
RTVSPost2010Prop55
280
     0
102
RTVSPost2010PropOp55
 70
     1
102
RTVSPost2010Prop56
140
1.0
102
RTVSPost2010PropOp56
 70
     1
102
RTVSPost2010Prop57
140
1.0
102
RTVSPost2010PropOp57
 70
     1
  0
XRECORD
  5
2F17
102
{ACAD_REACTORS
330
2F16
102
}
330
2F16
100
AcDbXrecord
280
     1
102
RTVSPost2010Prop28
280
     0
102
RTVSPost2010PropOp28
 70
     1
102
RTVSPost2010Prop29
280
     1
102
RTVSPost2010PropOp29
 70
     1
102
RTVSPost2010Prop30
280
     1
102
RTVSPost2010PropOp30
 70
     1
102
RTVSPost2010Prop31
280
     0
102
RTVSPost2010PropOp31
 70
     1
102
RTVSPost2010Prop32
280
     0
102
RTVSPost2010PropOp32
 70
     1
102
RTVSPost2010Prop33
280
     0
102
RTVSPost2010PropOp33
 70
     1
102
RTVSPost2010Prop34
280
     0
102
RTVSPost2010PropOp34
 70
     1
102
RTVSPost2010Prop35
280
     0
102
RTVSPost2010PropOp35
 70
     1
102
RTVSPost2010Prop36
280
     0
102
RTVSPost2010PropOp36
 70
     1
102
RTVSPost2010Prop37
 90
       50
102
RTVSPost2010PropOp37
 70
     1
102
RTVSPost2010Prop38
140
0.0
102
RTVSPost2010PropOp38
 70
     1
102
RTVSPost2010Prop39
140
1.0
102
RTVSPost2010PropOp39
 70
     1
102
RTVSPost2010Prop40
 90
        0
102
RTVSPost2010PropOp40
 70
     1
102
RTVSPost2010Prop41ColorIndex
 90
       18
102
RTVSPost2010Prop41ColorRGB
 90
        0
102
RTVSPost2010PropOp41
 70
     1
102
RTVSPost2010Prop42
 90
       50
102
RTVSPost2010PropOp42
 70
     1
102
RTVSPost2010Prop43
 90
        3
102
RTVSPost2010PropOp43
 70
     1
102
RTVSPost2010Prop44ColorIndex
 90
        5
102
RTVSPost2010Prop44ColorRGB
 90
      255
102
RTVSPost2010PropOp44
 70
     1
102
RTVSPost2010Prop45
280
     0
102
RTVSPost2010PropOp45
 70
     1
102
RTVSPost2010Prop46
 90
       50
102
RTVSPost2010PropOp46
 70
     1
102
RTVSPost2010Prop47
 90
       50
102
RTVSPost2010PropOp47
 70
     1
102
RTVSPost2010Prop48
 90
       50
102
RTVSPost2010PropOp48
 70
     1
102
RTVSPost2010Prop49
280
     0
102
RTVSPost2010PropOp49
 70
     1
102
RTVSPost2010Prop50
 90
       50
102
RTVSPost2010PropOp50
 70
     1
102
RTVSPost2010Prop51ColorIndex
 90
      256
102
RTVSPost2010Prop51ColorRGB
 90
-16777216
102
RTVSPost2010PropOp51
 70
     0
102
RTVSPost2010Prop52
140
1.0
102
RTVSPost2010PropOp52
 70
     0
102
RTVSPost2010Prop53
 90
        2
102
RTVSPost2010PropOp53
 70
     1
102
RTVSPost2010Prop54
  1
strokes_ogs.tif
102
RTVSPost2010PropOp54
 70
     1
102
RTVSPost2010Prop55
280
     0
102
RTVSPost2010PropOp55
 70
     1
102
RTVSPost2010Prop56
140
1.0
102
RTVSPost2010PropOp56
 70
     1
102
RTVSPost2010Prop57
140
1.0
102
RTVSPost2010PropOp57
 70
     1
  0
XRECORD
  5
2F33
102
{ACAD_REACTORS
330
2F32
102
}
330
2F32
100
AcDbXrecord
280
     1
102
RTVSPost2010Prop28
280
     0
102
RTVSPost2010PropOp28
 70
     1
102
RTVSPost2010Prop29
280
     1
102
RTVSPost2010PropOp29
 70
     1
102
RTVSPost2010Prop30
280
     1
102
RTVSPost2010PropOp30
 70
     1
102
RTVSPost2010Prop31
280
     0
102
RTVSPost2010PropOp31
 70
     1
102
RTVSPost2010Prop32
280
     0
102
RTVSPost2010PropOp32
 70
     1
102
RTVSPost2010Prop33
280
     0
102
RTVSPost2010PropOp33
 70
     1
102
RTVSPost2010Prop34
280
     0
102
RTVSPost2010PropOp34
 70
     1
102
RTVSPost2010Prop35
280
     0
102
RTVSPost2010PropOp35
 70
     1
102
RTVSPost2010Prop36
280
     0
102
RTVSPost2010PropOp36
 70
     1
102
RTVSPost2010Prop37
 90
       50
102
RTVSPost2010PropOp37
 70
     1
102
RTVSPost2010Prop38
140
0.0
102
RTVSPost2010PropOp38
 70
     1
102
RTVSPost2010Prop39
140
1.0
102
RTVSPost2010PropOp39
 70
     1
102
RTVSPost2010Prop40
 90
        0
102
RTVSPost2010PropOp40
 70
     1
102
RTVSPost2010Prop41ColorIndex
 90
       18
102
RTVSPost2010Prop41ColorRGB
 90
        0
102
RTVSPost2010PropOp41
 70
     1
102
RTVSPost2010Prop42
 90
       50
102
RTVSPost2010PropOp42
 70
     1
102
RTVSPost2010Prop43
 90
        3
102
RTVSPost2010PropOp43
 70
     1
102
RTVSPost2010Prop44ColorIndex
 90
        5
102
RTVSPost2010Prop44ColorRGB
 90
      255
102
RTVSPost2010PropOp44
 70
     1
102
RTVSPost2010Prop45
280
     0
102
RTVSPost2010PropOp45
 70
     1
102
RTVSPost2010Prop46
 90
       50
102
RTVSPost2010PropOp46
 70
     1
102
RTVSPost2010Prop47
 90
       50
102
RTVSPost2010PropOp47
 70
     1
102
RTVSPost2010Prop48
 90
       50
102
RTVSPost2010PropOp48
 70
     1
102
RTVSPost2010Prop49
280
     0
102
RTVSPost2010PropOp49
 70
     1
102
RTVSPost2010Prop50
 90
       50
102
RTVSPost2010PropOp50
 70
     1
102
RTVSPost2010Prop51ColorIndex
 90
      256
102
RTVSPost2010Prop51ColorRGB
 90
-16777216
102
RTVSPost2010PropOp51
 70
     0
102
RTVSPost2010Prop52
140
1.0
102
RTVSPost2010PropOp52
 70
     0
102
RTVSPost2010Prop53
 90
        2
102
RTVSPost2010PropOp53
 70
     1
102
RTVSPost2010Prop54
  1
strokes_ogs.tif
102
RTVSPost2010PropOp54
 70
     1
102
RTVSPost2010Prop55
280
     0
102
RTVSPost2010PropOp55
 70
     1
102
RTVSPost2010Prop56
140
1.0
102
RTVSPost2010PropOp56
 70
     1
102
RTVSPost2010Prop57
140
1.0
102
RTVSPost2010PropOp57
 70
     1
  0
XRECORD
  5
2F3F
102
{ACAD_REACTORS
330
2F3E
102
}
330
2F3E
100
AcDbXrecord
280
     1
102
RTVSPost2010Prop28
280
     0
102
RTVSPost2010PropOp28
 70
     1
102
RTVSPost2010Prop29
280
     1
102
RTVSPost2010PropOp29
 70
     1
102
RTVSPost2010Prop30
280
     1
102
RTVSPost2010PropOp30
 70
     1
102
RTVSPost2010Prop31
280
     0
102
RTVSPost2010PropOp31
 70
     1
102
RTVSPost2010Prop32
280
     0
102
RTVSPost2010PropOp32
 70
     1
102
RTVSPost2010Prop33
280
     0
102
RTVSPost2010PropOp33
 70
     1
102
RTVSPost2010Prop34
280
     0
102
RTVSPost2010PropOp34
 70
     1
102
RTVSPost2010Prop35
280
     0
102
RTVSPost2010PropOp35
 70
     1
102
RTVSPost2010Prop36
280
     0
102
RTVSPost2010PropOp36
 70
     1
102
RTVSPost2010Prop37
 90
       50
102
RTVSPost2010PropOp37
 70
     0
102
RTVSPost2010Prop38
140
0.0
102
RTVSPost2010PropOp38
 70
     0
102
RTVSPost2010Prop39
140
1.0
102
RTVSPost2010PropOp39
 70
     0
102
RTVSPost2010Prop40
 90
        0
102
RTVSPost2010PropOp40
 70
     0
102
RTVSPost2010Prop41ColorIndex
 90
       18
102
RTVSPost2010Prop41ColorRGB
 90
        0
102
RTVSPost2010PropOp41
 70
     0
102
RTVSPost2010Prop42
 90
       50
102
RTVSPost2010PropOp42
 70
     0
102
RTVSPost2010Prop43
 90
        3
102
RTVSPost2010PropOp43
 70
     0
102
RTVSPost2010Prop44ColorIndex
 90
        5
102
RTVSPost2010Prop44ColorRGB
 90
      255
102
RTVSPost2010PropOp44
 70
     0
102
RTVSPost2010Prop45
280
     0
102
RTVSPost2010PropOp45
 70
     1
102
RTVSPost2010Prop46
 90
       50
102
RTVSPost2010PropOp46
 70
     0
102
RTVSPost2010Prop47
 90
       50
102
RTVSPost2010PropOp47
 70
     0
102
RTVSPost2010Prop48
 90
       50
102
RTVSPost2010PropOp48
 70
     0
102
RTVSPost2010Prop49
280
     0
102
RTVSPost2010PropOp49
 70
     1
102
RTVSPost2010Prop50
 90
       50
102
RTVSPost2010PropOp50
 70
     0
102
RTVSPost2010Prop51ColorIndex
 90
      256
102
RTVSPost2010Prop51ColorRGB
 90
-16777216
102
RTVSPost2010PropOp51
 70
     0
102
RTVSPost2010Prop52
140
1.0
102
RTVSPost2010PropOp52
 70
     0
102
RTVSPost2010Prop53
 90
        2
102
RTVSPost2010PropOp53
 70
     0
102
RTVSPost2010Prop54
  1
strokes_ogs.tif
102
RTVSPost2010PropOp54
 70
     0
102
RTVSPost2010Prop55
280
     0
102
RTVSPost2010PropOp55
 70
     1
102
RTVSPost2010Prop56
140
1.0
102
RTVSPost2010PropOp56
 70
     0
102
RTVSPost2010Prop57
140
1.0
102
RTVSPost2010PropOp57
 70
     0
  0
XRECORD
  5
2F2B
102
{ACAD_REACTORS
330
2F2A
102
}
330
2F2A
100
AcDbXrecord
280
     1
102
RTVSPost2010Prop28
280
     0
102
RTVSPost2010PropOp28
 70
     1
102
RTVSPost2010Prop29
280
     1
102
RTVSPost2010PropOp29
 70
     1
102
RTVSPost2010Prop30
280
     1
102
RTVSPost2010PropOp30
 70
     1
102
RTVSPost2010Prop31
280
     0
102
RTVSPost2010PropOp31
 70
     1
102
RTVSPost2010Prop32
280
     0
102
RTVSPost2010PropOp32
 70
     1
102
RTVSPost2010Prop33
280
     0
102
RTVSPost2010PropOp33
 70
     1
102
RTVSPost2010Prop34
280
     0
102
RTVSPost2010PropOp34
 70
     1
102
RTVSPost2010Prop35
280
     0
102
RTVSPost2010PropOp35
 70
     1
102
RTVSPost2010Prop36
280
     0
102
RTVSPost2010PropOp36
 70
     1
102
RTVSPost2010Prop37
 90
       50
102
RTVSPost2010PropOp37
 70
     1
102
RTVSPost2010Prop38
140
0.0
102
RTVSPost2010PropOp38
 70
     1
102
RTVSPost2010Prop39
140
1.0
102
RTVSPost2010PropOp39
 70
     1
102
RTVSPost2010Prop40
 90
        0
102
RTVSPost2010PropOp40
 70
     1
102
RTVSPost2010Prop41ColorIndex
 90
       18
102
RTVSPost2010Prop41ColorRGB
 90
        0
102
RTVSPost2010PropOp41
 70
     1
102
RTVSPost2010Prop42
 90
       50
102
RTVSPost2010PropOp42
 70
     1
102
RTVSPost2010Prop43
 90
        3
102
RTVSPost2010PropOp43
 70
     1
102
RTVSPost2010Prop44ColorIndex
 90
        5
102
RTVSPost2010Prop44ColorRGB
 90
      255
102
RTVSPost2010PropOp44
 70
     1
102
RTVSPost2010Prop45
280
     0
102
RTVSPost2010PropOp45
 70
     1
102
RTVSPost2010Prop46
 90
       50
102
RTVSPost2010PropOp46
 70
     1
102
RTVSPost2010Prop47
 90
       50
102
RTVSPost2010PropOp47
 70
     1
102
RTVSPost2010Prop48
 90
       50
102
RTVSPost2010PropOp48
 70
     1
102
RTVSPost2010Prop49
280
     0
102
RTVSPost2010PropOp49
 70
     1
102
RTVSPost2010Prop50
 90
       50
102
RTVSPost2010PropOp50
 70
     1
102
RTVSPost2010Prop51ColorIndex
 90
      256
102
RTVSPost2010Prop51ColorRGB
 90
-16777216
102
RTVSPost2010PropOp51
 70
     0
102
RTVSPost2010Prop52
140
1.0
102
RTVSPost2010PropOp52
 70
     0
102
RTVSPost2010Prop53
 90
        2
102
RTVSPost2010PropOp53
 70
     1
102
RTVSPost2010Prop54
  1
strokes_ogs.tif
102
RTVSPost2010PropOp54
 70
     1
102
RTVSPost2010Prop55
280
     0
102
RTVSPost2010PropOp55
 70
     1
102
RTVSPost2010Prop56
140
1.0
102
RTVSPost2010PropOp56
 70
     1
102
RTVSPost2010Prop57
140
1.0
102
RTVSPost2010PropOp57
 70
     1
  0
XRECORD
  5
2F41
102
{ACAD_REACTORS
330
2F40
102
}
330
2F40
100
AcDbXrecord
280
     1
102
RTVSPost2010Prop28
280
     0
102
RTVSPost2010PropOp28
 70
     1
102
RTVSPost2010Prop29
280
     1
102
RTVSPost2010PropOp29
 70
     1
102
RTVSPost2010Prop30
280
     1
102
RTVSPost2010PropOp30
 70
     1
102
RTVSPost2010Prop31
280
     0
102
RTVSPost2010PropOp31
 70
     1
102
RTVSPost2010Prop32
280
     0
102
RTVSPost2010PropOp32
 70
     1
102
RTVSPost2010Prop33
280
     0
102
RTVSPost2010PropOp33
 70
     1
102
RTVSPost2010Prop34
280
     0
102
RTVSPost2010PropOp34
 70
     1
102
RTVSPost2010Prop35
280
     0
102
RTVSPost2010PropOp35
 70
     1
102
RTVSPost2010Prop36
280
     0
102
RTVSPost2010PropOp36
 70
     1
102
RTVSPost2010Prop37
 90
       50
102
RTVSPost2010PropOp37
 70
     0
102
RTVSPost2010Prop38
140
0.0
102
RTVSPost2010PropOp38
 70
     0
102
RTVSPost2010Prop39
140
1.0
102
RTVSPost2010PropOp39
 70
     0
102
RTVSPost2010Prop40
 90
        0
102
RTVSPost2010PropOp40
 70
     0
102
RTVSPost2010Prop41ColorIndex
 90
       18
102
RTVSPost2010Prop41ColorRGB
 90
        0
102
RTVSPost2010PropOp41
 70
     0
102
RTVSPost2010Prop42
 90
       50
102
RTVSPost2010PropOp42
 70
     0
102
RTVSPost2010Prop43
 90
        3
102
RTVSPost2010PropOp43
 70
     0
102
RTVSPost2010Prop44ColorIndex
 90
        5
102
RTVSPost2010Prop44ColorRGB
 90
      255
102
RTVSPost2010PropOp44
 70
     0
102
RTVSPost2010Prop45
280
     0
102
RTVSPost2010PropOp45
 70
     1
102
RTVSPost2010Prop46
 90
       50
102
RTVSPost2010PropOp46
 70
     0
102
RTVSPost2010Prop47
 90
       50
102
RTVSPost2010PropOp47
 70
     0
102
RTVSPost2010Prop48
 90
       50
102
RTVSPost2010PropOp48
 70
     0
102
RTVSPost2010Prop49
280
     0
102
RTVSPost2010PropOp49
 70
     1
102
RTVSPost2010Prop50
 90
       50
102
RTVSPost2010PropOp50
 70
     0
102
RTVSPost2010Prop51ColorIndex
 90
      256
102
RTVSPost2010Prop51ColorRGB
 90
-16777216
102
RTVSPost2010PropOp51
 70
     0
102
RTVSPost2010Prop52
140
1.0
102
RTVSPost2010PropOp52
 70
     0
102
RTVSPost2010Prop53
 90
        2
102
RTVSPost2010PropOp53
 70
     0
102
RTVSPost2010Prop54
  1
strokes_ogs.tif
102
RTVSPost2010PropOp54
 70
     0
102
RTVSPost2010Prop55
280
     0
102
RTVSPost2010PropOp55
 70
     1
102
RTVSPost2010Prop56
140
1.0
102
RTVSPost2010PropOp56
 70
     0
102
RTVSPost2010Prop57
140
1.0
102
RTVSPost2010PropOp57
 70
     0
  0
XRECORD
  5
2F23
102
{ACAD_REACTORS
330
2F22
102
}
330
2F22
100
AcDbXrecord
280
     1
102
RTVSPost2010Prop28
280
     0
102
RTVSPost2010PropOp28
 70
     1
102
RTVSPost2010Prop29
280
     1
102
RTVSPost2010PropOp29
 70
     1
102
RTVSPost2010Prop30
280
     1
102
RTVSPost2010PropOp30
 70
     1
102
RTVSPost2010Prop31
280
     0
102
RTVSPost2010PropOp31
 70
     1
102
RTVSPost2010Prop32
280
     0
102
RTVSPost2010PropOp32
 70
     1
102
RTVSPost2010Prop33
280
     0
102
RTVSPost2010PropOp33
 70
     1
102
RTVSPost2010Prop34
280
     0
102
RTVSPost2010PropOp34
 70
     1
102
RTVSPost2010Prop35
280
     0
102
RTVSPost2010PropOp35
 70
     1
102
RTVSPost2010Prop36
280
     0
102
RTVSPost2010PropOp36
 70
     1
102
RTVSPost2010Prop37
 90
       50
102
RTVSPost2010PropOp37
 70
     1
102
RTVSPost2010Prop38
140
0.0
102
RTVSPost2010PropOp38
 70
     1
102
RTVSPost2010Prop39
140
1.0
102
RTVSPost2010PropOp39
 70
     1
102
RTVSPost2010Prop40
 90
        0
102
RTVSPost2010PropOp40
 70
     1
102
RTVSPost2010Prop41ColorIndex
 90
       18
102
RTVSPost2010Prop41ColorRGB
 90
        0
102
RTVSPost2010PropOp41
 70
     1
102
RTVSPost2010Prop42
 90
       50
102
RTVSPost2010PropOp42
 70
     1
102
RTVSPost2010Prop43
 90
        3
102
RTVSPost2010PropOp43
 70
     1
102
RTVSPost2010Prop44ColorIndex
 90
        5
102
RTVSPost2010Prop44ColorRGB
 90
      255
102
RTVSPost2010PropOp44
 70
     1
102
RTVSPost2010Prop45
280
     0
102
RTVSPost2010PropOp45
 70
     1
102
RTVSPost2010Prop46
 90
       50
102
RTVSPost2010PropOp46
 70
     1
102
RTVSPost2010Prop47
 90
       50
102
RTVSPost2010PropOp47
 70
     1
102
RTVSPost2010Prop48
 90
       50
102
RTVSPost2010PropOp48
 70
     1
102
RTVSPost2010Prop49
280
     0
102
RTVSPost2010PropOp49
 70
     1
102
RTVSPost2010Prop50
 90
       50
102
RTVSPost2010PropOp50
 70
     1
102
RTVSPost2010Prop51ColorIndex
 90
      256
102
RTVSPost2010Prop51ColorRGB
 90
-16777216
102
RTVSPost2010PropOp51
 70
     0
102
RTVSPost2010Prop52
140
1.0
102
RTVSPost2010PropOp52
 70
     0
102
RTVSPost2010Prop53
 90
        2
102
RTVSPost2010PropOp53
 70
     1
102
RTVSPost2010Prop54
  1
strokes_ogs.tif
102
RTVSPost2010PropOp54
 70
     1
102
RTVSPost2010Prop55
280
     0
102
RTVSPost2010PropOp55
 70
     1
102
RTVSPost2010Prop56
140
1.0
102
RTVSPost2010PropOp56
 70
     1
102
RTVSPost2010Prop57
140
1.0
102
RTVSPost2010PropOp57
 70
     1
  0
XRECORD
  5
2F3D
102
{ACAD_REACTORS
330
2F3C
102
}
330
2F3C
100
AcDbXrecord
280
     1
102
RTVSPost2010Prop28
280
     0
102
RTVSPost2010PropOp28
 70
     1
102
RTVSPost2010Prop29
280
     1
102
RTVSPost2010PropOp29
 70
     1
102
RTVSPost2010Prop30
280
     1
102
RTVSPost2010PropOp30
 70
     1
102
RTVSPost2010Prop31
280
     0
102
RTVSPost2010PropOp31
 70
     1
102
RTVSPost2010Prop32
280
     0
102
RTVSPost2010PropOp32
 70
     1
102
RTVSPost2010Prop33
280
     0
102
RTVSPost2010PropOp33
 70
     1
102
RTVSPost2010Prop34
280
     0
102
RTVSPost2010PropOp34
 70
     1
102
RTVSPost2010Prop35
280
     0
102
RTVSPost2010PropOp35
 70
     1
102
RTVSPost2010Prop36
280
     0
102
RTVSPost2010PropOp36
 70
     1
102
RTVSPost2010Prop37
 90
       50
102
RTVSPost2010PropOp37
 70
     1
102
RTVSPost2010Prop38
140
0.0
102
RTVSPost2010PropOp38
 70
     1
102
RTVSPost2010Prop39
140
1.0
102
RTVSPost2010PropOp39
 70
     1
102
RTVSPost2010Prop40
 90
        0
102
RTVSPost2010PropOp40
 70
     1
102
RTVSPost2010Prop41ColorIndex
 90
       18
102
RTVSPost2010Prop41ColorRGB
 90
        0
102
RTVSPost2010PropOp41
 70
     1
102
RTVSPost2010Prop42
 90
       50
102
RTVSPost2010PropOp42
 70
     1
102
RTVSPost2010Prop43
 90
        3
102
RTVSPost2010PropOp43
 70
     1
102
RTVSPost2010Prop44ColorIndex
 90
        5
102
RTVSPost2010Prop44ColorRGB
 90
      255
102
RTVSPost2010PropOp44
 70
     1
102
RTVSPost2010Prop45
280
     0
102
RTVSPost2010PropOp45
 70
     1
102
RTVSPost2010Prop46
 90
       50
102
RTVSPost2010PropOp46
 70
     1
102
RTVSPost2010Prop47
 90
       50
102
RTVSPost2010PropOp47
 70
     1
102
RTVSPost2010Prop48
 90
       50
102
RTVSPost2010PropOp48
 70
     1
102
RTVSPost2010Prop49
280
     0
102
RTVSPost2010PropOp49
 70
     1
102
RTVSPost2010Prop50
 90
       50
102
RTVSPost2010PropOp50
 70
     1
102
RTVSPost2010Prop51ColorIndex
 90
      256
102
RTVSPost2010Prop51ColorRGB
 90
-16777216
102
RTVSPost2010PropOp51
 70
     0
102
RTVSPost2010Prop52
140
1.0
102
RTVSPost2010PropOp52
 70
     0
102
RTVSPost2010Prop53
 90
        2
102
RTVSPost2010PropOp53
 70
     1
102
RTVSPost2010Prop54
  1
strokes_ogs.tif
102
RTVSPost2010PropOp54
 70
     1
102
RTVSPost2010Prop55
280
     0
102
RTVSPost2010PropOp55
 70
     1
102
RTVSPost2010Prop56
140
1.0
102
RTVSPost2010PropOp56
 70
     1
102
RTVSPost2010Prop57
140
1.0
102
RTVSPost2010PropOp57
 70
     1
  0
XRECORD
  5
2F3B
102
{ACAD_REACTORS
330
2F3A
102
}
330
2F3A
100
AcDbXrecord
280
     1
102
RTVSPost2010Prop28
280
     0
102
RTVSPost2010PropOp28
 70
     1
102
RTVSPost2010Prop29
280
     1
102
RTVSPost2010PropOp29
 70
     1
102
RTVSPost2010Prop30
280
     1
102
RTVSPost2010PropOp30
 70
     1
102
RTVSPost2010Prop31
280
     0
102
RTVSPost2010PropOp31
 70
     1
102
RTVSPost2010Prop32
280
     0
102
RTVSPost2010PropOp32
 70
     1
102
RTVSPost2010Prop33
280
     0
102
RTVSPost2010PropOp33
 70
     1
102
RTVSPost2010Prop34
280
     0
102
RTVSPost2010PropOp34
 70
     1
102
RTVSPost2010Prop35
280
     0
102
RTVSPost2010PropOp35
 70
     1
102
RTVSPost2010Prop36
280
     0
102
RTVSPost2010PropOp36
 70
     1
102
RTVSPost2010Prop37
 90
       50
102
RTVSPost2010PropOp37
 70
     1
102
RTVSPost2010Prop38
140
0.0
102
RTVSPost2010PropOp38
 70
     1
102
RTVSPost2010Prop39
140
1.0
102
RTVSPost2010PropOp39
 70
     1
102
RTVSPost2010Prop40
 90
        0
102
RTVSPost2010PropOp40
 70
     1
102
RTVSPost2010Prop41ColorIndex
 90
       18
102
RTVSPost2010Prop41ColorRGB
 90
        0
102
RTVSPost2010PropOp41
 70
     1
102
RTVSPost2010Prop42
 90
       50
102
RTVSPost2010PropOp42
 70
     1
102
RTVSPost2010Prop43
 90
        3
102
RTVSPost2010PropOp43
 70
     1
102
RTVSPost2010Prop44ColorIndex
 90
        5
102
RTVSPost2010Prop44ColorRGB
 90
      255
102
RTVSPost2010PropOp44
 70
     1
102
RTVSPost2010Prop45
280
     0
102
RTVSPost2010PropOp45
 70
     1
102
RTVSPost2010Prop46
 90
       50
102
RTVSPost2010PropOp46
 70
     1
102
RTVSPost2010Prop47
 90
       50
102
RTVSPost2010PropOp47
 70
     1
102
RTVSPost2010Prop48
 90
       50
102
RTVSPost2010PropOp48
 70
     1
102
RTVSPost2010Prop49
280
     0
102
RTVSPost2010PropOp49
 70
     1
102
RTVSPost2010Prop50
 90
       50
102
RTVSPost2010PropOp50
 70
     1
102
RTVSPost2010Prop51ColorIndex
 90
      256
102
RTVSPost2010Prop51ColorRGB
 90
-16777216
102
RTVSPost2010PropOp51
 70
     0
102
RTVSPost2010Prop52
140
1.0
102
RTVSPost2010PropOp52
 70
     0
102
RTVSPost2010Prop53
 90
        2
102
RTVSPost2010PropOp53
 70
     1
102
RTVSPost2010Prop54
  1
strokes_ogs.tif
102
RTVSPost2010PropOp54
 70
     1
102
RTVSPost2010Prop55
280
     0
102
RTVSPost2010PropOp55
 70
     1
102
RTVSPost2010Prop56
140
1.0
102
RTVSPost2010PropOp56
 70
     1
102
RTVSPost2010Prop57
140
1.0
102
RTVSPost2010PropOp57
 70
     1
  0
XRECORD
  5
2F35
102
{ACAD_REACTORS
330
2F34
102
}
330
2F34
100
AcDbXrecord
280
     1
102
RTVSPost2010Prop28
280
     0
102
RTVSPost2010PropOp28
 70
     1
102
RTVSPost2010Prop29
280
     1
102
RTVSPost2010PropOp29
 70
     1
102
RTVSPost2010Prop30
280
     1
102
RTVSPost2010PropOp30
 70
     1
102
RTVSPost2010Prop31
280
     0
102
RTVSPost2010PropOp31
 70
     1
102
RTVSPost2010Prop32
280
     0
102
RTVSPost2010PropOp32
 70
     1
102
RTVSPost2010Prop33
280
     0
102
RTVSPost2010PropOp33
 70
     1
102
RTVSPost2010Prop34
280
     0
102
RTVSPost2010PropOp34
 70
     1
102
RTVSPost2010Prop35
280
     0
102
RTVSPost2010PropOp35
 70
     1
102
RTVSPost2010Prop36
280
     0
102
RTVSPost2010PropOp36
 70
     1
102
RTVSPost2010Prop37
 90
       50
102
RTVSPost2010PropOp37
 70
     1
102
RTVSPost2010Prop38
140
0.0
102
RTVSPost2010PropOp38
 70
     1
102
RTVSPost2010Prop39
140
1.0
102
RTVSPost2010PropOp39
 70
     1
102
RTVSPost2010Prop40
 90
        0
102
RTVSPost2010PropOp40
 70
     1
102
RTVSPost2010Prop41ColorIndex
 90
       18
102
RTVSPost2010Prop41ColorRGB
 90
        0
102
RTVSPost2010PropOp41
 70
     1
102
RTVSPost2010Prop42
 90
       50
102
RTVSPost2010PropOp42
 70
     1
102
RTVSPost2010Prop43
 90
        3
102
RTVSPost2010PropOp43
 70
     1
102
RTVSPost2010Prop44ColorIndex
 90
        5
102
RTVSPost2010Prop44ColorRGB
 90
      255
102
RTVSPost2010PropOp44
 70
     1
102
RTVSPost2010Prop45
280
     0
102
RTVSPost2010PropOp45
 70
     1
102
RTVSPost2010Prop46
 90
       50
102
RTVSPost2010PropOp46
 70
     1
102
RTVSPost2010Prop47
 90
       50
102
RTVSPost2010PropOp47
 70
     1
102
RTVSPost2010Prop48
 90
       50
102
RTVSPost2010PropOp48
 70
     1
102
RTVSPost2010Prop49
280
     0
102
RTVSPost2010PropOp49
 70
     1
102
RTVSPost2010Prop50
 90
       50
102
RTVSPost2010PropOp50
 70
     1
102
RTVSPost2010Prop51ColorIndex
 90
      256
102
RTVSPost2010Prop51ColorRGB
 90
-16777216
102
RTVSPost2010PropOp51
 70
     0
102
RTVSPost2010Prop52
140
1.0
102
RTVSPost2010PropOp52
 70
     0
102
RTVSPost2010Prop53
 90
        2
102
RTVSPost2010PropOp53
 70
     1
102
RTVSPost2010Prop54
  1
strokes_ogs.tif
102
RTVSPost2010PropOp54
 70
     1
102
RTVSPost2010Prop55
280
     0
102
RTVSPost2010PropOp55
 70
     1
102
RTVSPost2010Prop56
140
1.0
102
RTVSPost2010PropOp56
 70
     1
102
RTVSPost2010Prop57
140
1.0
102
RTVSPost2010PropOp57
 70
     1
  0
XRECORD
  5
2F37
102
{ACAD_REACTORS
330
2F36
102
}
330
2F36
100
AcDbXrecord
280
     1
102
RTVSPost2010Prop28
280
     0
102
RTVSPost2010PropOp28
 70
     1
102
RTVSPost2010Prop29
280
     1
102
RTVSPost2010PropOp29
 70
     1
102
RTVSPost2010Prop30
280
     1
102
RTVSPost2010PropOp30
 70
     1
102
RTVSPost2010Prop31
280
     0
102
RTVSPost2010PropOp31
 70
     1
102
RTVSPost2010Prop32
280
     0
102
RTVSPost2010PropOp32
 70
     1
102
RTVSPost2010Prop33
280
     0
102
RTVSPost2010PropOp33
 70
     1
102
RTVSPost2010Prop34
280
     0
102
RTVSPost2010PropOp34
 70
     1
102
RTVSPost2010Prop35
280
     0
102
RTVSPost2010PropOp35
 70
     1
102
RTVSPost2010Prop36
280
     0
102
RTVSPost2010PropOp36
 70
     1
102
RTVSPost2010Prop37
 90
       50
102
RTVSPost2010PropOp37
 70
     1
102
RTVSPost2010Prop38
140
0.0
102
RTVSPost2010PropOp38
 70
     1
102
RTVSPost2010Prop39
140
1.0
102
RTVSPost2010PropOp39
 70
     1
102
RTVSPost2010Prop40
 90
        0
102
RTVSPost2010PropOp40
 70
     1
102
RTVSPost2010Prop41ColorIndex
 90
       18
102
RTVSPost2010Prop41ColorRGB
 90
        0
102
RTVSPost2010PropOp41
 70
     1
102
RTVSPost2010Prop42
 90
       50
102
RTVSPost2010PropOp42
 70
     1
102
RTVSPost2010Prop43
 90
        3
102
RTVSPost2010PropOp43
 70
     1
102
RTVSPost2010Prop44ColorIndex
 90
        5
102
RTVSPost2010Prop44ColorRGB
 90
      255
102
RTVSPost2010PropOp44
 70
     1
102
RTVSPost2010Prop45
280
     0
102
RTVSPost2010PropOp45
 70
     1
102
RTVSPost2010Prop46
 90
       50
102
RTVSPost2010PropOp46
 70
     1
102
RTVSPost2010Prop47
 90
       50
102
RTVSPost2010PropOp47
 70
     1
102
RTVSPost2010Prop48
 90
       50
102
RTVSPost2010PropOp48
 70
     1
102
RTVSPost2010Prop49
280
     0
102
RTVSPost2010PropOp49
 70
     1
102
RTVSPost2010Prop50
 90
       50
102
RTVSPost2010PropOp50
 70
     1
102
RTVSPost2010Prop51ColorIndex
 90
      256
102
RTVSPost2010Prop51ColorRGB
 90
-16777216
102
RTVSPost2010PropOp51
 70
     0
102
RTVSPost2010Prop52
140
1.0
102
RTVSPost2010PropOp52
 70
     0
102
RTVSPost2010Prop53
 90
        2
102
RTVSPost2010PropOp53
 70
     1
102
RTVSPost2010Prop54
  1
strokes_ogs.tif
102
RTVSPost2010PropOp54
 70
     1
102
RTVSPost2010Prop55
280
     0
102
RTVSPost2010PropOp55
 70
     1
102
RTVSPost2010Prop56
140
1.0
102
RTVSPost2010PropOp56
 70
     1
102
RTVSPost2010Prop57
140
1.0
102
RTVSPost2010PropOp57
 70
     1
  0
XRECORD
  5
2F29
102
{ACAD_REACTORS
330
2F28
102
}
330
2F28
100
AcDbXrecord
280
     1
102
RTVSPost2010Prop28
280
     0
102
RTVSPost2010PropOp28
 70
     1
102
RTVSPost2010Prop29
280
     1
102
RTVSPost2010PropOp29
 70
     1
102
RTVSPost2010Prop30
280
     1
102
RTVSPost2010PropOp30
 70
     1
102
RTVSPost2010Prop31
280
     0
102
RTVSPost2010PropOp31
 70
     1
102
RTVSPost2010Prop32
280
     0
102
RTVSPost2010PropOp32
 70
     1
102
RTVSPost2010Prop33
280
     0
102
RTVSPost2010PropOp33
 70
     1
102
RTVSPost2010Prop34
280
     0
102
RTVSPost2010PropOp34
 70
     1
102
RTVSPost2010Prop35
280
     0
102
RTVSPost2010PropOp35
 70
     1
102
RTVSPost2010Prop36
280
     0
102
RTVSPost2010PropOp36
 70
     1
102
RTVSPost2010Prop37
 90
       50
102
RTVSPost2010PropOp37
 70
     1
102
RTVSPost2010Prop38
140
0.0
102
RTVSPost2010PropOp38
 70
     1
102
RTVSPost2010Prop39
140
1.0
102
RTVSPost2010PropOp39
 70
     1
102
RTVSPost2010Prop40
 90
        0
102
RTVSPost2010PropOp40
 70
     1
102
RTVSPost2010Prop41ColorIndex
 90
       18
102
RTVSPost2010Prop41ColorRGB
 90
        0
102
RTVSPost2010PropOp41
 70
     1
102
RTVSPost2010Prop42
 90
       50
102
RTVSPost2010PropOp42
 70
     1
102
RTVSPost2010Prop43
 90
        3
102
RTVSPost2010PropOp43
 70
     1
102
RTVSPost2010Prop44ColorIndex
 90
        5
102
RTVSPost2010Prop44ColorRGB
 90
      255
102
RTVSPost2010PropOp44
 70
     1
102
RTVSPost2010Prop45
280
     0
102
RTVSPost2010PropOp45
 70
     1
102
RTVSPost2010Prop46
 90
       50
102
RTVSPost2010PropOp46
 70
     1
102
RTVSPost2010Prop47
 90
       50
102
RTVSPost2010PropOp47
 70
     1
102
RTVSPost2010Prop48
 90
       50
102
RTVSPost2010PropOp48
 70
     1
102
RTVSPost2010Prop49
280
     0
102
RTVSPost2010PropOp49
 70
     1
102
RTVSPost2010Prop50
 90
       50
102
RTVSPost2010PropOp50
 70
     1
102
RTVSPost2010Prop51ColorIndex
 90
      256
102
RTVSPost2010Prop51ColorRGB
 90
-16777216
102
RTVSPost2010PropOp51
 70
     0
102
RTVSPost2010Prop52
140
1.0
102
RTVSPost2010PropOp52
 70
     0
102
RTVSPost2010Prop53
 90
        2
102
RTVSPost2010PropOp53
 70
     1
102
RTVSPost2010Prop54
  1
strokes_ogs.tif
102
RTVSPost2010PropOp54
 70
     1
102
RTVSPost2010Prop55
280
     0
102
RTVSPost2010PropOp55
 70
     1
102
RTVSPost2010Prop56
140
1.0
102
RTVSPost2010PropOp56
 70
     1
102
RTVSPost2010Prop57
140
1.0
102
RTVSPost2010PropOp57
 70
     1
  0
XRECORD
  5
2F31
102
{ACAD_REACTORS
330
2F30
102
}
330
2F30
100
AcDbXrecord
280
     1
102
RTVSPost2010Prop28
280
     0
102
RTVSPost2010PropOp28
 70
     1
102
RTVSPost2010Prop29
280
     1
102
RTVSPost2010PropOp29
 70
     1
102
RTVSPost2010Prop30
280
     1
102
RTVSPost2010PropOp30
 70
     1
102
RTVSPost2010Prop31
280
     0
102
RTVSPost2010PropOp31
 70
     1
102
RTVSPost2010Prop32
280
     0
102
RTVSPost2010PropOp32
 70
     1
102
RTVSPost2010Prop33
280
     0
102
RTVSPost2010PropOp33
 70
     1
102
RTVSPost2010Prop34
280
     0
102
RTVSPost2010PropOp34
 70
     1
102
RTVSPost2010Prop35
280
     0
102
RTVSPost2010PropOp35
 70
     1
102
RTVSPost2010Prop36
280
     0
102
RTVSPost2010PropOp36
 70
     1
102
RTVSPost2010Prop37
 90
       50
102
RTVSPost2010PropOp37
 70
     1
102
RTVSPost2010Prop38
140
0.0
102
RTVSPost2010PropOp38
 70
     1
102
RTVSPost2010Prop39
140
1.0
102
RTVSPost2010PropOp39
 70
     1
102
RTVSPost2010Prop40
 90
        0
102
RTVSPost2010PropOp40
 70
     1
102
RTVSPost2010Prop41ColorIndex
 90
       18
102
RTVSPost2010Prop41ColorRGB
 90
        0
102
RTVSPost2010PropOp41
 70
     1
102
RTVSPost2010Prop42
 90
       50
102
RTVSPost2010PropOp42
 70
     1
102
RTVSPost2010Prop43
 90
        3
102
RTVSPost2010PropOp43
 70
     1
102
RTVSPost2010Prop44ColorIndex
 90
        5
102
RTVSPost2010Prop44ColorRGB
 90
      255
102
RTVSPost2010PropOp44
 70
     1
102
RTVSPost2010Prop45
280
     0
102
RTVSPost2010PropOp45
 70
     1
102
RTVSPost2010Prop46
 90
       50
102
RTVSPost2010PropOp46
 70
     1
102
RTVSPost2010Prop47
 90
       50
102
RTVSPost2010PropOp47
 70
     1
102
RTVSPost2010Prop48
 90
       50
102
RTVSPost2010PropOp48
 70
     1
102
RTVSPost2010Prop49
280
     0
102
RTVSPost2010PropOp49
 70
     1
102
RTVSPost2010Prop50
 90
       50
102
RTVSPost2010PropOp50
 70
     1
102
RTVSPost2010Prop51ColorIndex
 90
      256
102
RTVSPost2010Prop51ColorRGB
 90
-16777216
102
RTVSPost2010PropOp51
 70
     0
102
RTVSPost2010Prop52
140
1.0
102
RTVSPost2010PropOp52
 70
     0
102
RTVSPost2010Prop53
 90
        2
102
RTVSPost2010PropOp53
 70
     1
102
RTVSPost2010Prop54
  1
strokes_ogs.tif
102
RTVSPost2010PropOp54
 70
     1
102
RTVSPost2010Prop55
280
     0
102
RTVSPost2010PropOp55
 70
     1
102
RTVSPost2010Prop56
140
1.0
102
RTVSPost2010PropOp56
 70
     1
102
RTVSPost2010Prop57
140
1.0
102
RTVSPost2010PropOp57
 70
     1
  0
XRECORD
  5
2F39
102
{ACAD_REACTORS
330
2F38
102
}
330
2F38
100
AcDbXrecord
280
     1
102
RTVSPost2010Prop28
280
     0
102
RTVSPost2010PropOp28
 70
     1
102
RTVSPost2010Prop29
280
     1
102
RTVSPost2010PropOp29
 70
     1
102
RTVSPost2010Prop30
280
     1
102
RTVSPost2010PropOp30
 70
     1
102
RTVSPost2010Prop31
280
     0
102
RTVSPost2010PropOp31
 70
     1
102
RTVSPost2010Prop32
280
     0
102
RTVSPost2010PropOp32
 70
     1
102
RTVSPost2010Prop33
280
     0
102
RTVSPost2010PropOp33
 70
     1
102
RTVSPost2010Prop34
280
     0
102
RTVSPost2010PropOp34
 70
     1
102
RTVSPost2010Prop35
280
     0
102
RTVSPost2010PropOp35
 70
     1
102
RTVSPost2010Prop36
280
     0
102
RTVSPost2010PropOp36
 70
     1
102
RTVSPost2010Prop37
 90
       50
102
RTVSPost2010PropOp37
 70
     1
102
RTVSPost2010Prop38
140
0.0
102
RTVSPost2010PropOp38
 70
     1
102
RTVSPost2010Prop39
140
1.0
102
RTVSPost2010PropOp39
 70
     1
102
RTVSPost2010Prop40
 90
        0
102
RTVSPost2010PropOp40
 70
     1
102
RTVSPost2010Prop41ColorIndex
 90
       18
102
RTVSPost2010Prop41ColorRGB
 90
        0
102
RTVSPost2010PropOp41
 70
     1
102
RTVSPost2010Prop42
 90
       50
102
RTVSPost2010PropOp42
 70
     1
102
RTVSPost2010Prop43
 90
        3
102
RTVSPost2010PropOp43
 70
     1
102
RTVSPost2010Prop44ColorIndex
 90
        5
102
RTVSPost2010Prop44ColorRGB
 90
      255
102
RTVSPost2010PropOp44
 70
     1
102
RTVSPost2010Prop45
280
     0
102
RTVSPost2010PropOp45
 70
     1
102
RTVSPost2010Prop46
 90
       50
102
RTVSPost2010PropOp46
 70
     1
102
RTVSPost2010Prop47
 90
       50
102
RTVSPost2010PropOp47
 70
     1
102
RTVSPost2010Prop48
 90
       50
102
RTVSPost2010PropOp48
 70
     1
102
RTVSPost2010Prop49
280
     0
102
RTVSPost2010PropOp49
 70
     1
102
RTVSPost2010Prop50
 90
       50
102
RTVSPost2010PropOp50
 70
     1
102
RTVSPost2010Prop51ColorIndex
 90
      256
102
RTVSPost2010Prop51ColorRGB
 90
-16777216
102
RTVSPost2010PropOp51
 70
     0
102
RTVSPost2010Prop52
140
1.0
102
RTVSPost2010PropOp52
 70
     0
102
RTVSPost2010Prop53
 90
        2
102
RTVSPost2010PropOp53
 70
     1
102
RTVSPost2010Prop54
  1
strokes_ogs.tif
102
RTVSPost2010PropOp54
 70
     1
102
RTVSPost2010Prop55
280
     0
102
RTVSPost2010PropOp55
 70
     1
102
RTVSPost2010Prop56
140
1.0
102
RTVSPost2010PropOp56
 70
     1
102
RTVSPost2010Prop57
140
1.0
102
RTVSPost2010PropOp57
 70
     1
  0
ENDSEC
  0
EOF
