  0
SECTION
  2
HEADER
  9
$ACADVER
  1
AC1027
  9
$ACADMAINTVER
 70
   125
  9
$DWGCODEPAGE
  3
ANSI_1252
  9
$LASTSAVEDBY
  1
kaschu
  9
$REQUIREDVERSIONS
160
                 0
  9
$INSBASE
 10
0.0
 20
0.0
 30
0.0
  9
$EXTMIN
 10
76.20441696860109
 20
46.35153510275213
 30
0.0
  9
$EXTMAX
 10
2082.325384921444
 20
2276.86101521271
 30
0.0
  9
$LIMMIN
 10
0.0
 20
0.0
  9
$LIMMAX
 10
420.0
 20
297.0
  9
$ORTHOMODE
 70
     1
  9
$REGENMODE
 70
     1
  9
$FILLMODE
 70
     1
  9
$QTEXTMODE
 70
     0
  9
$MIRRTEXT
 70
     1
  9
$LTSCALE
 40
1.0
  9
$ATTMODE
 70
     1
  9
$TEXTSIZE
 40
2.5
  9
$TRACEWID
 40
1.0
  9
$TEXTSTYLE
  7
Standard
  9
$CLAYER
  8
0
  9
$CELTYPE
  6
ByLayer
  9
$CECOLOR
 62
   256
  9
$CELTSCALE
 40
1.0
  9
$DISPSILH
 70
     0
  9
$DIMSCALE
 40
1.0
  9
$DIMASZ
 40
2.5
  9
$DIMEXO
 40
0.625
  9
$DIMDLI
 40
3.75
  9
$DIMRND
 40
0.0
  9
$DIMDLE
 40
0.0
  9
$DIMEXE
 40
1.25
  9
$DIMTP
 40
0.0
  9
$DIMTM
 40
0.0
  9
$DIMTXT
 40
2.5
  9
$DIMCEN
 40
2.5
  9
$DIMTSZ
 40
0.0
  9
$DIMTOL
 70
     0
  9
$DIMLIM
 70
     0
  9
$DIMTIH
 70
     0
  9
$DIMTOH
 70
     0
  9
$DIMSE1
 70
     0
  9
$DIMSE2
 70
     0
  9
$DIMTAD
 70
     1
  9
$DIMZIN
 70
     8
  9
$DIMBLK
  1

  9
$DIMASO
 70
     1
  9
$DIMSHO
 70
     1
  9
$DIMPOST
  1

  9
$DIMAPOST
  1

  9
$DIMALT
 70
     0
  9
$DIMALTD
 70
     3
  9
$DIMALTF
 40
0.03937007874016
  9
$DIMLFAC
 40
1.0
  9
$DIMTOFL
 70
     1
  9
$DIMTVP
 40
0.0
  9
$DIMTIX
 70
     0
  9
$DIMSOXD
 70
     0
  9
$DIMSAH
 70
     0
  9
$DIMBLK1
  1

  9
$DIMBLK2
  1

  9
$DIMSTYLE
  2
ISO-25
  9
$DIMCLRD
 70
     0
  9
$DIMCLRE
 70
     0
  9
$DIMCLRT
 70
     0
  9
$DIMTFAC
 40
1.0
  9
$DIMGAP
 40
0.625
  9
$DIMJUST
 70
     0
  9
$DIMSD1
 70
     0
  9
$DIMSD2
 70
     0
  9
$DIMTOLJ
 70
     0
  9
$DIMTZIN
 70
     8
  9
$DIMALTZ
 70
     0
  9
$DIMALTTZ
 70
     0
  9
$DIMUPT
 70
     0
  9
$DIMDEC
 70
     2
  9
$DIMTDEC
 70
     2
  9
$DIMALTU
 70
     2
  9
$DIMALTTD
 70
     3
  9
$DIMTXSTY
  7
Standard
  9
$DIMAUNIT
 70
     0
  9
$DIMADEC
 70
     0
  9
$DIMALTRND
 40
0.0
  9
$DIMAZIN
 70
     0
  9
$DIMDSEP
 70
    44
  9
$DIMATFIT
 70
     3
  9
$DIMFRAC
 70
     0
  9
$DIMLDRBLK
  1

  9
$DIMLUNIT
 70
     2
  9
$DIMLWD
 70
    -2
  9
$DIMLWE
 70
    -2
  9
$DIMTMOVE
 70
     0
  9
$DIMFXL
 40
1.0
  9
$DIMFXLON
 70
     0
  9
$DIMJOGANG
 40
0.7853981633974483
  9
$DIMTFILL
 70
     0
  9
$DIMTFILLCLR
 70
     0
  9
$DIMARCSYM
 70
     0
  9
$DIMLTYPE
  6

  9
$DIMLTEX1
  6

  9
$DIMLTEX2
  6

  9
$DIMTXTDIRECTION
 70
     0
  9
$LUNITS
 70
     2
  9
$LUPREC
 70
     4
  9
$SKETCHINC
 40
1.0
  9
$FILLETRAD
 40
10.0
  9
$AUNITS
 70
     0
  9
$AUPREC
 70
     0
  9
$MENU
  1
.
  9
$ELEVATION
 40
0.0
  9
$PELEVATION
 40
0.0
  9
$THICKNESS
 40
0.0
  9
$LIMCHECK
 70
     0
  9
$CHAMFERA
 40
0.0
  9
$CHAMFERB
 40
0.0
  9
$CHAMFERC
 40
0.0
  9
$CHAMFERD
 40
0.0
  9
$SKPOLY
 70
     0
  9
$TDCREATE
 40
2459082.501111111
  9
$TDUCREATE
 40
2459082.417789201
  9
$TDUPDATE
 40
2459241.528564815
  9
$TDUUPDATE
 40
2459241.486898148
  9
$TDINDWG
 40
0.0043171412
  9
$TDUSRTIMER
 40
0.0043171412
  9
$USRTIMER
 70
     1
  9
$ANGBASE
 50
0.0
  9
$ANGDIR
 70
     0
  9
$PDMODE
 70
     0
  9
$PDSIZE
 40
0.0
  9
$PLINEWID
 40
0.0
  9
$SPLFRAME
 70
     0
  9
$SPLINETYPE
 70
     6
  9
$SPLINESEGS
 70
     8
  9
$HANDSEED
  5
4B7
  9
$SURFTAB1
 70
     6
  9
$SURFTAB2
 70
     6
  9
$SURFTYPE
 70
     6
  9
$SURFU
 70
     6
  9
$SURFV
 70
     6
  9
$UCSBASE
  2

  9
$UCSNAME
  2

  9
$UCSORG
 10
0.0
 20
0.0
 30
0.0
  9
$UCSXDIR
 10
1.0
 20
0.0
 30
0.0
  9
$UCSYDIR
 10
0.0
 20
1.0
 30
0.0
  9
$UCSORTHOREF
  2

  9
$UCSORTHOVIEW
 70
     0
  9
$UCSORGTOP
 10
0.0
 20
0.0
 30
0.0
  9
$UCSORGBOTTOM
 10
0.0
 20
0.0
 30
0.0
  9
$UCSORGLEFT
 10
0.0
 20
0.0
 30
0.0
  9
$UCSORGRIGHT
 10
0.0
 20
0.0
 30
0.0
  9
$UCSORGFRONT
 10
0.0
 20
0.0
 30
0.0
  9
$UCSORGBACK
 10
0.0
 20
0.0
 30
0.0
  9
$PUCSBASE
  2

  9
$PUCSNAME
  2

  9
$PUCSORG
 10
0.0
 20
0.0
 30
0.0
  9
$PUCSXDIR
 10
1.0
 20
0.0
 30
0.0
  9
$PUCSYDIR
 10
0.0
 20
1.0
 30
0.0
  9
$PUCSORTHOREF
  2

  9
$PUCSORTHOVIEW
 70
     0
  9
$PUCSORGTOP
 10
0.0
 20
0.0
 30
0.0
  9
$PUCSORGBOTTOM
 10
0.0
 20
0.0
 30
0.0
  9
$PUCSORGLEFT
 10
0.0
 20
0.0
 30
0.0
  9
$PUCSORGRIGHT
 10
0.0
 20
0.0
 30
0.0
  9
$PUCSORGFRONT
 10
0.0
 20
0.0
 30
0.0
  9
$PUCSORGBACK
 10
0.0
 20
0.0
 30
0.0
  9
$USERI1
 70
     0
  9
$USERI2
 70
     0
  9
$USERI3
 70
     0
  9
$USERI4
 70
     0
  9
$USERI5
 70
     0
  9
$USERR1
 40
0.0
  9
$USERR2
 40
0.0
  9
$USERR3
 40
0.0
  9
$USERR4
 40
0.0
  9
$USERR5
 40
0.0
  9
$WORLDVIEW
 70
     1
  9
$SHADEDGE
 70
     3
  9
$SHADEDIF
 70
    70
  9
$TILEMODE
 70
     1
  9
$MAXACTVP
 70
    64
  9
$PINSBASE
 10
0.0
 20
0.0
 30
0.0
  9
$PLIMCHECK
 70
     0
  9
$PEXTMIN
 10
1.000000000000000E+20
 20
1.000000000000000E+20
 30
1.000000000000000E+20
  9
$PEXTMAX
 10
-1.000000000000000E+20
 20
-1.000000000000000E+20
 30
-1.000000000000000E+20
  9
$PLIMMIN
 10
0.0
 20
0.0
  9
$PLIMMAX
 10
420.0
 20
297.0
  9
$UNITMODE
 70
     0
  9
$VISRETAIN
 70
     1
  9
$PLINEGEN
 70
     0
  9
$PSLTSCALE
 70
     1
  9
$TREEDEPTH
 70
  3020
  9
$CMLSTYLE
  2
Standard
  9
$CMLJUST
 70
     0
  9
$CMLSCALE
 40
20.0
  9
$PROXYGRAPHICS
 70
     1
  9
$MEASUREMENT
 70
     1
  9
$CELWEIGHT
370
    -1
  9
$ENDCAPS
280
     0
  9
$JOINSTYLE
280
     0
  9
$LWDISPLAY
290
     0
  9
$INSUNITS
 70
     5
  9
$HYPERLINKBASE
  1

  9
$STYLESHEET
  1

  9
$XEDIT
290
     1
  9
$CEPSNTYPE
380
     0
  9
$PSTYLEMODE
290
     1
  9
$FINGERPRINTGUID
  2
{921A62D8-B26A-40CB-89FE-00D0C55F98C6}
  9
$VERSIONGUID
  2
{B1EFCEE3-2D39-B74A-8925-7A17EA9E7DF5}
  9
$EXTNAMES
290
     1
  9
$PSVPSCALE
 40
0.0
  9
$OLESTARTUP
290
     0
  9
$SORTENTS
280
   127
  9
$INDEXCTL
280
     0
  9
$HIDETEXT
280
     1
  9
$XCLIPFRAME
280
     2
  9
$HALOGAP
280
     0
  9
$OBSCOLOR
 70
   257
  9
$OBSLTYPE
280
     0
  9
$INTERSECTIONDISPLAY
280
     0
  9
$INTERSECTIONCOLOR
 70
   257
  9
$DIMASSOC
280
     2
  9
$PROJECTNAME
  1

  9
$CAMERADISPLAY
290
     0
  9
$LENSLENGTH
 40
50.0
  9
$CAMERAHEIGHT
 40
0.0
  9
$STEPSPERSEC
 40
2.0
  9
$STEPSIZE
 40
6.0
  9
$3DDWFPREC
 40
2.0
  9
$PSOLWIDTH
 40
5.0
  9
$PSOLHEIGHT
 40
80.0
  9
$LOFTANG1
 40
1.570796326794897
  9
$LOFTANG2
 40
1.570796326794897
  9
$LOFTMAG1
 40
0.0
  9
$LOFTMAG2
 40
0.0
  9
$LOFTPARAM
 70
     7
  9
$LOFTNORMALS
280
     1
  9
$LATITUDE
 40
37.795
  9
$LONGITUDE
 40
-122.394
  9
$NORTHDIRECTION
 40
0.0
  9
$TIMEZONE
 70
 -8000
  9
$LIGHTGLYPHDISPLAY
280
     1
  9
$TILEMODELIGHTSYNCH
280
     1
  9
$CMATERIAL
347
44
  9
$SOLIDHIST
280
     0
  9
$SHOWHIST
280
     1
  9
$DWFFRAME
280
     2
  9
$DGNFRAME
280
     2
  9
$REALWORLDSCALE
290
     1
  9
$INTERFERECOLOR
 62
   256
  9
$INTERFEREOBJVS
345
33
  9
$INTERFEREVPVS
346
30
  9
$CSHADOW
280
     0
  9
$SHADOWPLANELOCATION
 40
0.0
  0
ENDSEC
  0
SECTION
  2
CLASSES
  0
CLASS
  1
ACDBDICTIONARYWDFLT
  2
AcDbDictionaryWithDefault
  3
ObjectDBX Classes
 90
        0
 91
        1
280
     0
281
     0
  0
CLASS
  1
VISUALSTYLE
  2
AcDbVisualStyle
  3
ObjectDBX Classes
 90
     4095
 91
       24
280
     0
281
     0
  0
CLASS
  1
MATERIAL
  2
AcDbMaterial
  3
ObjectDBX Classes
 90
     1153
 91
        3
280
     0
281
     0
  0
CLASS
  1
SCALE
  2
AcDbScale
  3
ObjectDBX Classes
 90
     1153
 91
       33
280
     0
281
     0
  0
CLASS
  1
TABLESTYLE
  2
AcDbTableStyle
  3
ObjectDBX Classes
 90
     4095
 91
        1
280
     0
281
     0
  0
CLASS
  1
MLEADERSTYLE
  2
AcDbMLeaderStyle
  3
ACDB_MLEADERSTYLE_CLASS
 90
     4095
 91
        1
280
     0
281
     0
  0
CLASS
  1
SUN
  2
AcDbSun
  3
SCENEOE
 90
     1153
 91
        1
280
     0
281
     0
  0
CLASS
  1
DICTIONARYVAR
  2
AcDbDictionaryVar
  3
ObjectDBX Classes
 90
        0
 91
        7
280
     0
281
     0
  0
CLASS
  1
CELLSTYLEMAP
  2
AcDbCellStyleMap
  3
ObjectDBX Classes
 90
     1152
 91
        2
280
     0
281
     0
  0
CLASS
  1
ACDBSECTIONVIEWSTYLE
  2
AcDbSectionViewStyle
  3
ObjectDBX Classes
 90
     1025
 91
        1
280
     0
281
     0
  0
CLASS
  1
ACDBDETAILVIEWSTYLE
  2
AcDbDetailViewStyle
  3
ObjectDBX Classes
 90
     1025
 91
        1
280
     0
281
     0
  0
CLASS
  1
DIMASSOC
  2
AcDbDimAssoc
  3
"AcDbDimAssoc|Product Desc:     AcDim ARX App For Dimension|Company:          Autodesk, Inc.|WEB Address:      www.autodesk.com"
 90
        0
 91
        0
280
     0
281
     0
  0
CLASS
  1
SORTENTSTABLE
  2
AcDbSortentsTable
  3
ObjectDBX Classes
 90
        0
 91
        1
280
     0
281
     0
  0
ENDSEC
  0
SECTION
  2
TABLES
  0
TABLE
  2
VPORT
  5
8
330
0
100
AcDbSymbolTable
 70
     1
1001
ACAD
1000
DbSaveVer
1071
      224
  0
VPORT
  5
29
330
8
100
AcDbSymbolTableRecord
100
AcDbViewportTableRecord
  2
*Active
 70
     0
 10
0.0
 20
0.0
 11
1.0
 21
1.0
 12
769.1881174326677
 22
991.5703115334686
 13
0.0
 23
0.0
 14
10.0
 24
10.0
 15
10.0
 25
10.0
 16
0.0
 26
0.0
 36
1.0
 17
0.0
 27
0.0
 37
0.0
 40
3100.893080148923
 41
2.050213675213675
 42
50.0
 43
0.0
 44
0.0
 50
0.0
 51
0.0
 71
     0
 72
   100
 73
     1
 74
     3
 75
     0
 76
     0
 77
     0
 78
     0
281
     0
 65
     1
110
0.0
120
0.0
130
0.0
111
1.0
121
0.0
131
0.0
112
0.0
122
1.0
132
0.0
 79
     0
146
0.0
348
2F
 60
     3
 61
     5
292
     1
282
     1
141
0.0
142
0.0
 63
   250
421
  3355443
361
6D
1001
ACAD_NAV_VCDISPLAY
1070
     3
  0
ENDTAB
  0
TABLE
  2
LTYPE
  5
5
330
0
100
AcDbSymbolTable
 70
    11
  0
LTYPE
  5
14
330
5
100
AcDbSymbolTableRecord
100
AcDbLinetypeTableRecord
  2
ByBlock
 70
     0
  3

 72
    65
 73
     0
 40
0.0
  0
LTYPE
  5
15
330
5
100
AcDbSymbolTableRecord
100
AcDbLinetypeTableRecord
  2
ByLayer
 70
     0
  3

 72
    65
 73
     0
 40
0.0
  0
LTYPE
  5
16
330
5
100
AcDbSymbolTableRecord
100
AcDbLinetypeTableRecord
  2
Continuous
 70
     0
  3
Solid line
 72
    65
 73
     0
 40
0.0
  0
LTYPE
  5
6F
330
5
100
AcDbSymbolTableRecord
100
AcDbLinetypeTableRecord
  2
CUSTOM
 70
     0
  3

 72
    65
 73
     0
 40
0.0
  0
LTYPE
  5
70
330
5
100
AcDbSymbolTableRecord
100
AcDbLinetypeTableRecord
  2
SOLID
 70
     0
  3

 72
    65
 73
     0
 40
0.0
  0
LTYPE
  5
71
330
5
100
AcDbSymbolTableRecord
100
AcDbLinetypeTableRecord
  2
DASHED
 70
     0
  3

 72
    65
 73
     2
 40
2.271097252922963
 49
1.135548626461481
 74
     0
 49
-1.135548626461481
 74
     0
  0
LTYPE
  5
72
330
5
100
AcDbSymbolTableRecord
100
AcDbLinetypeTableRecord
  2
LONG_DASH
 70
     0
  3

 72
    65
 73
     2
 40
2.271097252922963
 49
1.703322939692224
 74
     0
 49
-0.5677743132307414
 74
     0
  0
LTYPE
  5
73
330
5
100
AcDbSymbolTableRecord
100
AcDbLinetypeTableRecord
  2
SHORT_DASH
 70
     0
  3

 72
    65
 73
     4
 40
2.271097252922963
 49
0.4542194505845931
 74
     0
 49
-0.6813291758768897
 74
     0
 49
0.4542194505845931
 74
     0
 49
-0.6813291758768897
 74
     0
  0
LTYPE
  5
74
330
5
100
AcDbSymbolTableRecord
100
AcDbLinetypeTableRecord
  2
DOTTED
 70
     0
  3

 72
    65
 73
     8
 40
2.271097252922963
 49
0.1135548626461483
 74
     0
 49
-0.4542194505845931
 74
     0
 49
0.1135548626461483
 74
     0
 49
-0.4542194505845931
 74
     0
 49
0.1135548626461483
 74
     0
 49
-0.4542194505845931
 74
     0
 49
0.1135548626461483
 74
     0
 49
-0.4542194505845931
 74
     0
  0
LTYPE
  5
75
330
5
100
AcDbSymbolTableRecord
100
AcDbLinetypeTableRecord
  2
DOTDASH
 70
     0
  3

 72
    65
 73
     4
 40
2.271097252922963
 49
0.1135548626461483
 74
     0
 49
-0.5677743132307414
 74
     0
 49
1.021993763815334
 74
     0
 49
-0.5677743132307414
 74
     0
  0
LTYPE
  5
76
330
5
100
AcDbSymbolTableRecord
100
AcDbLinetypeTableRecord
  2
DOTDOTDASH
 70
     0
  3

 72
    65
 73
     6
 40
2.271097252922963
 49
0.1135548626461483
 74
     0
 49
-0.3406645879384448
 74
     0
 49
0.1135548626461483
 74
     0
 49
-0.3406645879384448
 74
     0
 49
1.021993763815334
 74
     0
 49
-0.3406645879384448
 74
     0
  0
LTYPE
  5
77
330
5
100
AcDbSymbolTableRecord
100
AcDbLinetypeTableRecord
  2
DASHDASHDOT
 70
     0
  3

 72
    65
 73
     6
 40
2.271097252922963
 49
0.1135548626461483
 74
     0
 49
-0.3406645879384448
 74
     0
 49
0.1135548626461483
 74
     0
 49
-0.3406645879384448
 74
     0
 49
1.021993763815334
 74
     0
 49
-0.3406645879384448
 74
     0
  0
ENDTAB
  0
TABLE
  2
LAYER
  5
2
102
{ACAD_XDICTIONARY
360
490
102
}
330
0
100
AcDbSymbolTable
 70
     3
  0
LAYER
  5
10
330
2
100
AcDbSymbolTableRecord
100
AcDbLayerTableRecord
  2
0
 70
     0
 62
     7
  6
Continuous
370
    -3
390
F
347
46
348
0
  0
LAYER
  5
46D
330
2
100
AcDbSymbolTableRecord
100
AcDbLayerTableRecord
  2
Defpoints
 70
     0
 62
     7
  6
Continuous
290
     0
370
    -3
390
F
347
46
348
0
  0
LAYER
  5
48D
102
{ACAD_XDICTIONARY
360
48E
102
}
330
2
100
AcDbSymbolTableRecord
100
AcDbLayerTableRecord
  2
Hewi
 70
     0
 62
     7
  6
Continuous
370
    -3
390
F
347
46
348
0
1001
AcAecLayerStandard
1000

1000

  0
ENDTAB
  0
TABLE
  2
STYLE
  5
3
330
0
100
AcDbSymbolTable
 70
     1
  0
STYLE
  5
11
330
3
100
AcDbSymbolTableRecord
100
AcDbTextStyleTableRecord
  2
Standard
 70
     0
 40
0.0
 41
1.0
 50
0.0
 71
     0
 42
2.5
  3
txt
  4

  0
ENDTAB
  0
TABLE
  2
VIEW
  5
6
330
0
100
AcDbSymbolTable
 70
     0
  0
ENDTAB
  0
TABLE
  2
UCS
  5
7
330
0
100
AcDbSymbolTable
 70
     0
  0
ENDTAB
  0
TABLE
  2
APPID
  5
9
330
0
100
AcDbSymbolTable
 70
     4
  0
APPID
  5
12
330
9
100
AcDbSymbolTableRecord
100
AcDbRegAppTableRecord
  2
ACAD
 70
     0
  0
APPID
  5
11A
330
9
100
AcDbSymbolTableRecord
100
AcDbRegAppTableRecord
  2
ACAD_NAV_VCDISPLAY
 70
     0
  0
APPID
  5
463
330
9
100
AcDbSymbolTableRecord
100
AcDbRegAppTableRecord
  2
ACAD_EXEMPT_FROM_CAD_STANDARDS
 70
     0
  0
APPID
  5
48F
330
9
100
AcDbSymbolTableRecord
100
AcDbRegAppTableRecord
  2
AcAecLayerStandard
 70
     0
  0
ENDTAB
  0
TABLE
  2
DIMSTYLE
  5
A
330
0
100
AcDbSymbolTable
 70
     2
100
AcDbDimStyleTable
 71
     1
340
27
  0
DIMSTYLE
105
27
330
A
100
AcDbSymbolTableRecord
100
AcDbDimStyleTableRecord
  2
ISO-25
 70
     0
 41
2.5
 42
0.625
 43
3.75
 44
1.25
 73
     0
 74
     0
 77
     1
 78
     8
140
2.5
141
2.5
143
0.03937007874016
147
0.625
171
     3
172
     1
271
     2
272
     2
274
     3
278
    44
283
     0
284
     8
340
11
  0
ENDTAB
  0
TABLE
  2
BLOCK_RECORD
  5
1
330
0
100
AcDbSymbolTable
 70
     3
  0
BLOCK_RECORD
  5
1F
102
{ACAD_XDICTIONARY
360
4AA
102
}
330
1
100
AcDbSymbolTableRecord
100
AcDbBlockTableRecord
  2
*Model_Space
340
22
 70
     0
280
     1
281
     0
  0
BLOCK_RECORD
  5
1B
330
1
100
AcDbSymbolTableRecord
100
AcDbBlockTableRecord
  2
*Paper_Space
340
1E
 70
     0
280
     1
281
     0
  0
BLOCK_RECORD
  5
23
330
1
100
AcDbSymbolTableRecord
100
AcDbBlockTableRecord
  2
*Paper_Space0
340
26
 70
     0
280
     1
281
     0
  0
BLOCK_RECORD
  5
46E
330
1
100
AcDbSymbolTableRecord
100
AcDbBlockTableRecord
  2
*D1
340
0
 70
     0
280
     1
281
     0
  0
ENDTAB
  0
ENDSEC
  0
SECTION
  2
BLOCKS
  0
BLOCK
  5
20
330
1F
100
AcDbEntity
  8
0
100
AcDbBlockBegin
  2
*Model_Space
 70
     0
 10
0.0
 20
0.0
 30
0.0
  3
*Model_Space
  1

  0
ENDBLK
  5
21
330
1F
100
AcDbEntity
  8
0
100
AcDbBlockEnd
  0
BLOCK
  5
1C
330
1B
100
AcDbEntity
 67
     1
  8
0
100
AcDbBlockBegin
  2
*Paper_Space
 70
     0
 10
0.0
 20
0.0
 30
0.0
  3
*Paper_Space
  1

  0
ENDBLK
  5
1D
330
1B
100
AcDbEntity
 67
     1
  8
0
100
AcDbBlockEnd
  0
BLOCK
  5
24
330
23
100
AcDbEntity
 67
     1
  8
0
100
AcDbBlockBegin
  2
*Paper_Space0
 70
     0
 10
0.0
 20
0.0
 30
0.0
  3
*Paper_Space0
  1

  0
ENDBLK
  5
25
330
23
100
AcDbEntity
 67
     1
  8
0
100
AcDbBlockEnd
  0
BLOCK
  5
46F
330
46E
100
AcDbEntity
  8
0
100
AcDbBlockBegin
  2
*D1
 70
     1
 10
0.0
 20
0.0
 30
0.0
  3
*D1
  1

  0
LINE
  5
47B
330
46E
100
AcDbEntity
  8
0
 62
     0
440
 16777216
370
    -2
100
AcDbLine
 10
169.1949724005773
 20
163.8184210226795
 30
0.0
 11
169.1949724005773
 21
189.5873868086067
 31
0.0
  0
LINE
  5
47C
330
46E
100
AcDbEntity
  8
0
 62
     0
440
 16777216
370
    -2
100
AcDbLine
 10
209.1949715756394
 20
163.8184210226795
 30
0.0
 11
209.1949715756394
 21
189.5873868086067
 31
0.0
  0
LINE
  5
47D
330
46E
100
AcDbEntity
  8
0
 62
     0
440
 16777216
370
    -2
100
AcDbLine
 10
171.6949724005774
 20
188.3373868086066
 30
0.0
 11
206.6949715756394
 21
188.3373868086066
 31
0.0
  0
SOLID
  5
47E
330
46E
100
AcDbEntity
  8
0
 62
     0
440
 16777216
100
AcDbTrace
 10
171.6949724005774
 20
188.7540534752734
 30
0.0
 11
171.6949724005774
 21
187.9207201419401
 31
0.0
 12
169.1949724005773
 22
188.3373868086066
 32
0.0
 13
169.1949724005773
 23
188.3373868086066
 33
0.0
  0
SOLID
  5
47F
330
46E
100
AcDbEntity
  8
0
 62
     0
440
 16777216
100
AcDbTrace
 10
206.6949715756394
 20
188.7540534752734
 30
0.0
 11
206.6949715756394
 21
187.9207201419401
 31
0.0
 12
209.1949715756394
 22
188.3373868086066
 32
0.0
 13
209.1949715756394
 23
188.3373868086066
 33
0.0
  0
MTEXT
  5
480
330
46E
100
AcDbEntity
  8
0
 62
     0
440
 16777216
100
AcDbMText
 10
189.1949719881084
 20
190.2123868086068
 30
0.0
 40
2.5
 41
0.0
 46
0.0
 71
     5
 72
     1
  1
40
 73
     1
 44
1.0
  0
POINT
  5
481
330
46E
100
AcDbEntity
  8
Defpoints
 62
     0
440
 16777216
100
AcDbPoint
 10
169.1949724005773
 20
163.1934210226795
 30
0.0
  0
POINT
  5
482
330
46E
100
AcDbEntity
  8
Defpoints
 62
     0
440
 16777216
100
AcDbPoint
 10
209.1949715756394
 20
163.1934210226795
 30
0.0
  0
POINT
  5
483
330
46E
100
AcDbEntity
  8
Defpoints
 62
     0
440
 16777216
100
AcDbPoint
 10
209.1949715756394
 20
188.3373868086066
 30
0.0
  0
ENDBLK
  5
470
330
46E
100
AcDbEntity
  8
0
100
AcDbBlockEnd
  0
ENDSEC
  0
SECTION
  2
ENTITIES
  0
LWPOLYLINE
  5
78
330
1F
100
AcDbEntity
  8
Hewi
370
    13
100
AcDbPolyline
 90
       24
 70
     0
 43
0.0
 10
250.7052650009576
 20
77.97097873538345
 10
241.2044135657335
 20
77.97097873538345
 10
238.7010531103523
 20
77.97097873538345
 10
236.3232216013285
 20
77.97097873538345
 10
234.1901534394814
 20
77.97097873538345
 10
232.4088095693635
 20
77.97097873538345
 10
231.0685140108684
 20
77.97097873538345
 10
230.2364747798846
 20
77.97097873538345
 10
229.9544137977473
 20
77.97097873538345
 10
229.9544137977473
 20
243.470981457933
 10
229.9544137977473
 20
244.4709814743831
 10
230.2364747798854
 20
244.4709814743831
 10
231.0685140108684
 20
244.4709814743831
 10
232.4088095693646
 20
244.4709814743831
 10
234.1901534394814
 20
244.4709814743831
 10
236.3232216013285
 20
244.4709814743831
 10
238.7010531103523
 20
244.4709814743831
 10
241.2044135657335
 20
244.4709814743831
 10
249.7044133904343
 20
244.4709814743831
 10
249.7044133904343
 20
231.4709812605272
 10
249.8061170273455
 20
230.6333764217422
 10
250.1053172923794
 20
229.8444501316166
 10
250.5846257536826
 20
229.1500519185038
 10
250.7120710091895
 20
229.0371452702677
  0
LWPOLYLINE
  5
79
330
1F
100
AcDbEntity
  8
Hewi
370
    13
100
AcDbPolyline
 90
       24
 70
     0
 43
0.0
 10
301.7035617299497
 20
77.97097873538345
 10
311.2044121220926
 20
77.97097873538345
 10
313.7077725774726
 20
77.97097873538345
 10
316.0856040864983
 20
77.97097873538345
 10
318.2186722483455
 20
77.97097873538345
 10
320.0000161184614
 20
77.97097873538345
 10
321.3403116769577
 20
77.97097873538345
 10
322.1723509079414
 20
77.97097873538345
 10
322.4544118900782
 20
77.97097873538345
 10
322.4544118900782
 20
243.470981457933
 10
322.4544118900782
 20
244.4709814743831
 10
322.1723509079414
 20
244.4709814743831
 10
321.3403116769577
 20
244.4709814743831
 10
320.0000161184614
 20
244.4709814743831
 10
318.2186722483455
 20
244.4709814743831
 10
316.0856040864975
 20
244.4709814743831
 10
313.7077725774726
 20
244.4709814743831
 10
311.2044121220926
 20
244.4709814743831
 10
302.7044122973915
 20
244.4709814743831
 10
302.7044122973915
 20
231.4709812605272
 10
302.6027086604803
 20
230.6333764217422
 10
302.3035083954467
 20
229.8444501316166
 10
301.8241999341434
 20
229.1500519185038
 10
301.6967546598142
 20
229.0371452535927
  0
LWPOLYLINE
  5
7A
330
1F
100
AcDbEntity
  8
Hewi
370
    13
100
AcDbPolyline
 90
       26
 70
     0
 43
0.0
 10
255.7032625566826
 20
229.042909906874
 10
255.8242008828218
 20
229.1500519185038
 10
256.3035093441245
 20
229.8444501316166
 10
256.6027096091586
 20
230.6333764217422
 10
256.7044132460704
 20
231.4709812605272
 10
256.7044132460704
 20
243.470981457933
 10
256.7044132460704
 20
243.9716535675708
 10
256.7044132460704
 20
244.447219887007
 10
256.7044132460704
 20
244.8738335351928
 10
256.7044132460704
 20
245.2301023224242
 10
256.7044132460704
 20
245.4981614440615
 10
256.7044132460704
 20
245.6645692964278
 10
256.7044132460704
 20
245.7209814949462
 10
295.7044124417554
 20
245.7209814949462
 10
295.7044124417554
 20
245.6645692964278
 10
295.7044124417554
 20
245.4981614440615
 10
295.7044124417554
 20
245.2301023224242
 10
295.7044124417554
 20
244.8738335351928
 10
295.7044124417554
 20
244.447219887007
 10
295.7044124417554
 20
243.9716535675708
 10
295.7044124417554
 20
243.470981457933
 10
295.7044124417554
 20
231.4709812605272
 10
295.8061160786674
 20
230.6333764217422
 10
296.1053163437016
 20
229.8444501316166
 10
296.5846248050043
 20
229.1500519185038
 10
296.7055631499654
 20
229.0429098901992
  0
LWPOLYLINE
  5
7B
330
1F
100
AcDbEntity
  8
Hewi
370
    13
100
AcDbPolyline
 90
       20
 70
     0
 43
0.0
 10
327.2358309083377
 20
351.6024023536149
 10
325.6044118251124
 20
351.6024023536149
 10
325.6044118251124
 20
351.5984239279442
 10
325.6044118251124
 20
351.553051676216
 10
325.6044118251124
 20
351.4314514923987
 10
325.6044118251124
 20
351.2395867227669
 10
325.6044118251124
 20
350.9868665312168
 10
325.6044118251124
 20
350.6856844681979
 10
325.6044118251124
 20
350.3508106835343
 10
325.6044118251124
 20
349.9986675893774
 10
325.6044118251124
 20
349.9709832099068
 10
325.6320962035566
 20
349.9709832099068
 10
326.0015344491545
 20
349.9717378902366
 10
326.3510065865155
 20
349.9739611448993
 10
326.6616255658984
 20
349.977532819191
 10
326.9166041373718
 20
349.9822598837303
 10
327.1021621094773
 20
349.9878868666402
 10
327.1964028598246
 20
349.9930451505093
 10
327.2318524828144
 20
349.9984239016232
 10
327.3789624377976
 20
350.1455338620601
  0
LWPOLYLINE
  5
7C
330
1F
100
AcDbEntity
  8
Hewi
370
    13
100
AcDbPolyline
 90
        4
 70
     0
 43
0.0
 10
255.8722612077146
 20
58.23332727233858
 10
256.5916927590497
 20
56.38178234568184
 10
257.7520076391376
 20
54.7139512461845
 10
259.1872265132592
 20
53.41029831955123
  0
LWPOLYLINE
  5
7D
330
1F
100
AcDbEntity
  8
Hewi
370
    13
100
AcDbPolyline
 90
       11
 70
     0
 43
0.0
 10
325.6044118251124
 20
349.9884390030758
 10
325.6218676176344
 20
349.9884390030758
 10
325.7366309724754
 20
349.9886564727717
 10
325.8468843595496
 20
349.9892535382602
 10
325.9675097516135
 20
349.9904390201336
 10
326.0693597644844
 20
349.9920754892215
 10
326.1470128378455
 20
349.9940758349222
 10
326.1963354344546
 20
349.9963335771823
 10
326.2147020717505
 20
349.9987285345162
 10
326.3615073938526
 20
350.1455338620601
 10
327.3789624377976
 20
350.1455338620601
  0
LWPOLYLINE
  5
7E
330
1F
100
AcDbEntity
  8
Hewi
370
    13
100
AcDbPolyline
 90
        3
 70
     0
 43
0.0
 10
327.2358309083377
 20
350.5849472719498
 10
327.3789624377976
 20
350.7280788067152
 10
327.3789624377976
 20
351.7455338883812
  0
LWPOLYLINE
  5
7F
330
1F
100
AcDbEntity
  8
Hewi
370
    13
100
AcDbPolyline
 90
       77
 70
     0
 43
0.0
 10
296.4364440830532
 20
57.90949103170217
 10
296.6274319672315
 20
58.80456084519178
 10
296.7044484704435
 20
59.89867377919577
 10
296.7056157514055
 20
237.0248125345614
 10
296.7056157514055
 20
237.8910515905189
 10
296.7056157514055
 20
238.6371081634123
 10
296.7056157514055
 20
239.372311159166
 10
296.7056157514055
 20
239.830870337997
 10
296.7226402355113
 20
240.2110071169929
 10
296.7226402355113
 20
240.2226000130551
 10
296.8668718110684
 20
240.8077704035866
 10
297.1469527472716
 20
241.341419937504
 10
297.5466057581614
 20
241.7925348436332
 10
298.0426044634244
 20
242.1348979633652
 10
298.6061232211945
 20
242.3486123966202
 10
299.2044123695747
 20
242.4212578373587
 10
299.8027015179535
 20
242.3486123966202
 10
300.3662202757225
 20
242.1348979633652
 10
300.8622189809853
 20
241.7925348436332
 10
301.2618719918755
 20
241.341419937504
 10
301.5419529280784
 20
240.8077704035866
 10
301.6861845036364
 20
240.2226000130551
 10
301.6861845036364
 20
240.2110071169929
 10
301.6964006304734
 20
239.5611072607479
 10
301.6964006304734
 20
239.1253663235389
 10
301.6964006304734
 20
238.4267475689753
 10
301.6964006304734
 20
237.717815319244
 10
301.6964006304734
 20
236.894680955099
 10
301.7043762687034
 20
59.88608412602926
 10
301.5888522079824
 20
58.24492458549369
 10
301.2440594712784
 20
56.62904422815327
 10
301.1705300205135
 20
56.36518314151627
 10
300.0184946073283
 20
53.65013250446192
 10
298.2223094135601
 20
51.22322120469502
 10
295.8688758343031
 20
49.20186585295877
 10
295.7357835183343
 20
49.08928312246867
 10
292.9795804817892
 20
47.59332453651293
 10
289.9197779929771
 20
46.66578337962758
 10
286.7044126273661
 20
46.35153510275213
 10
265.7044130604593
 20
46.35153510275213
 10
263.8826021871249
 20
46.45158335446662
 10
262.0888531138062
 20
46.75018704183425
 10
259.0596227963813
 20
47.75296495576381
 10
256.3518746657881
 20
49.31643672148336
 10
256.2140494108892
 20
49.4323669391866
 10
253.9255522196582
 20
51.51107849652189
 10
252.2069291389714
 20
53.98141915272927
 10
251.1413290244526
 20
56.72387113752275
 10
251.0673067044673
 20
56.98955539001953
 10
250.7044494191215
 20
59.88608412602926
 10
250.7124250573524
 20
236.894680955099
 10
250.7124250573524
 20
237.9229706175979
 10
250.7124250573524
 20
238.7554103020844
 10
250.7124250573524
 20
239.3455954570794
 10
250.7124250573524
 20
239.6175291801592
 10
250.7226411841897
 20
240.2110071169929
 10
250.7226411841897
 20
240.2226000130551
 10
250.8668727597465
 20
240.8077704035866
 10
251.1469536959494
 20
241.341419937504
 10
251.5466067068395
 20
241.7925348436332
 10
252.0426054121033
 20
242.1348979633652
 10
252.6061241698723
 20
242.3486123966202
 10
253.2044133182525
 20
242.4212578373587
 10
253.8027024666324
 20
242.3486123966202
 10
254.3662212244017
 20
242.1348979633652
 10
254.8622199296646
 20
241.7925348436332
 10
255.2618729405544
 20
241.341419937504
 10
255.5419538767582
 20
240.8077704035866
 10
255.6861854523147
 20
240.2226000130551
 10
255.6861854523147
 20
240.2110071169929
 10
255.7032099364205
 20
239.8902468776427
 10
255.7032099364205
 20
239.6040729286201
 10
255.7032099364205
 20
238.9829818239687
 10
255.7032099364205
 20
238.1069501603173
 10
255.7032099364205
 20
237.0248125345614
 10
255.7043772173814
 20
59.89867377919577
 10
255.9323845258946
 20
58.07859258528846
  0
LWPOLYLINE
  5
80
330
1F
100
AcDbEntity
  8
Hewi
370
    13
100
AcDbPolyline
 90
        4
 70
     0
 43
0.0
 10
293.0193494072794
 20
53.26451800160381
 10
294.4806302160373
 20
54.51960665556353
 10
295.6933105478354
 20
56.15811676602131
 10
296.4710982124655
 20
57.99116188787931
  0
LWPOLYLINE
  5
81
330
1F
100
AcDbEntity
  8
Hewi
370
    13
100
AcDbPolyline
 90
       20
 70
     0
 43
0.0
 10
225.1729947794832
 20
249.5395624408937
 10
226.8044138627097
 20
249.5395624408937
 10
226.8044138627097
 20
249.5435408665648
 10
226.8044138627097
 20
249.5889131182929
 10
226.8044138627097
 20
249.7105133021102
 10
226.8044138627097
 20
249.9023780717422
 10
226.8044138627097
 20
250.155098263292
 10
226.8044138627097
 20
250.4562803263112
 10
226.8044138627097
 20
250.7911541109749
 10
226.8044138627097
 20
251.1432972051321
 10
226.8044138627097
 20
251.1709815846021
 10
226.7767294842654
 20
251.1709815846021
 10
226.4072912386664
 20
251.170226904272
 10
226.0578191013066
 20
251.1680036496093
 10
225.7472001219234
 20
251.1644319753182
 10
225.4922215504503
 20
251.1597049107786
 10
225.3066635783456
 20
251.1540779278684
 10
225.2124228279966
 20
251.1489196439993
 10
225.1769732050077
 20
251.1435408928858
 10
225.0298632500245
 20
250.9964309324487
  0
LWPOLYLINE
  5
82
330
1F
100
AcDbEntity
  8
Hewi
370
    13
100
AcDbPolyline
 90
       20
 70
     0
 43
0.0
 10
225.0298632500245
 20
350.1455338620601
 10
225.1769732050077
 20
349.9984239016232
 10
225.2266498119776
 20
349.9919894859568
 10
225.3600997122744
 20
349.9859291570944
 10
225.5701106716834
 20
349.9805704425296
 10
225.8453327512224
 20
349.9762029513536
 10
226.1708917089954
 20
349.9730627224803
 10
226.4680093020185
 20
349.971508019008
 10
226.7767294842654
 20
349.9709832099068
 10
226.8044138627097
 20
349.9709832099068
 10
226.8044138627097
 20
349.9986675893774
 10
226.8044138627097
 20
350.3508106835343
 10
226.8044138627097
 20
350.6856844681979
 10
226.8044138627097
 20
350.9868665312168
 10
226.8044138627097
 20
351.2395867227669
 10
226.8044138627097
 20
351.4314514923987
 10
226.8044138627097
 20
351.553051676216
 10
226.8044138627097
 20
351.5984239279442
 10
226.8044138627097
 20
351.6024023536149
 10
225.1729947794832
 20
351.6024023536149
  0
LINE
  5
83
330
1F
100
AcDbEntity
  8
Hewi
370
    13
100
AcDbLine
 10
327.2358309083377
 20
249.5395624408937
 30
0.0
 11
327.3789624377976
 21
249.396430906128
 31
0.0
  0
LINE
  5
84
330
1F
100
AcDbEntity
  8
Hewi
370
    13
100
AcDbLine
 10
226.8044138627097
 20
250.5570175225594
 30
0.0
 11
225.1729947794832
 21
250.5570175225594
 31
0.0
  0
LWPOLYLINE
  5
85
330
1F
100
AcDbEntity
  8
Hewi
370
    13
100
AcDbPolyline
 90
        3
 70
     0
 43
0.0
 10
225.1729947794832
 20
250.5570175225594
 10
225.0298632500245
 20
250.4138859877935
 10
225.0298632500245
 20
249.396430906128
  0
LINE
  5
86
330
1F
100
AcDbEntity
  8
Hewi
370
    13
100
AcDbLine
 10
327.3789624377976
 20
250.9964309324487
 30
0.0
 11
327.3789624377976
 21
350.1455338620601
 31
0.0
  0
LWPOLYLINE
  5
87
330
1F
100
AcDbEntity
  8
Hewi
370
    13
100
AcDbPolyline
 90
        3
 70
     0
 43
0.0
 10
225.0298632500245
 20
351.7455338883812
 10
225.0298632500245
 20
350.7280788067152
 10
225.1729947794832
 20
350.5849472719498
  0
LINE
  5
88
330
1F
100
AcDbEntity
  8
Hewi
370
    13
100
AcDbLine
 10
225.0298632500245
 20
249.396430906128
 30
0.0
 11
327.3789624377976
 21
249.396430906128
 31
0.0
  0
LWPOLYLINE
  5
89
330
1F
100
AcDbEntity
  8
Hewi
370
    13
100
AcDbPolyline
 90
       20
 70
     0
 43
0.0
 10
327.3789624377976
 20
250.9964309324487
 10
327.2318524828144
 20
251.1435408928858
 10
327.1821758758433
 20
251.1499753085522
 10
327.0487259755477
 20
251.1560356374141
 10
326.8387150161375
 20
251.1613943519793
 10
326.5634929365997
 20
251.1657618431547
 10
326.2379339788255
 20
251.1689020720288
 10
325.9408163858025
 20
251.1704567755012
 10
325.6320962035566
 20
251.1709815846021
 10
325.6044118251124
 20
251.1709815846021
 10
325.6044118251124
 20
251.1432972051321
 10
325.6044118251124
 20
250.7911541109749
 10
325.6044118251124
 20
250.4562803263112
 10
325.6044118251124
 20
250.155098263292
 10
325.6044118251124
 20
249.9023780717422
 10
325.6044118251124
 20
249.7105133021102
 10
325.6044118251124
 20
249.5889131182929
 10
325.6044118251124
 20
249.5435408665648
 10
325.6044118251124
 20
249.5395624408937
 10
327.2358309083377
 20
249.5395624408937
  0
LWPOLYLINE
  5
8A
330
1F
100
AcDbEntity
  8
Hewi
370
    13
100
AcDbPolyline
 90
       11
 70
     0
 43
0.0
 10
225.0298632500245
 20
250.9964309324487
 10
226.0473182939695
 20
250.9964309324487
 10
226.1941236160716
 20
251.1432362599927
 10
226.2124902533666
 20
251.1456312173268
 10
226.2618128499765
 20
251.1478889595869
 10
226.3394659233366
 20
251.1498893052876
 10
226.4413159362085
 20
251.151525774375
 10
226.5619413282725
 20
251.152711256249
 10
226.6721947153452
 20
251.1533083217372
 10
226.7869580701865
 20
251.1535257914326
 10
226.8044138627097
 20
251.1535257914326
  0
LINE
  5
8B
330
1F
100
AcDbEntity
  8
Hewi
370
    13
100
AcDbLine
 10
225.0298632500245
 20
351.7455338883812
 30
0.0
 11
327.3789624377976
 21
351.7455338883812
 31
0.0
  0
LINE
  5
8C
330
1F
100
AcDbEntity
  8
Hewi
370
    13
100
AcDbLine
 10
325.6044118251124
 20
350.5849472719498
 30
0.0
 11
327.2358309083377
 21
350.5849472719498
 31
0.0
  0
LINE
  5
8D
330
1F
100
AcDbEntity
  8
Hewi
370
    13
100
AcDbLine
 10
225.0298632500245
 20
350.1455338620601
 30
0.0
 11
225.0298632500245
 21
250.9964309324487
 31
0.0
  0
LWPOLYLINE
  5
8E
330
1F
100
AcDbEntity
  8
Hewi
370
    13
100
AcDbPolyline
 90
        3
 70
     0
 43
0.0
 10
327.3789624377976
 20
249.396430906128
 10
327.3789624377976
 20
250.4138859877935
 10
327.2358309083377
 20
250.5570175225594
  0
LINE
  5
8F
330
1F
100
AcDbEntity
  8
Hewi
370
    13
100
AcDbLine
 10
225.0298632500245
 20
249.396430906128
 30
0.0
 11
225.1729947794832
 21
249.5395624408937
 31
0.0
  0
LWPOLYLINE
  5
90
330
1F
100
AcDbEntity
  8
Hewi
370
    13
100
AcDbPolyline
 90
       11
 70
     0
 43
0.0
 10
226.8044138627097
 20
349.9884390030758
 10
226.7869580701865
 20
349.9884390030758
 10
226.6496492559783
 20
349.9887460267792
 10
226.5200260662557
 20
349.9895941571307
 10
226.4049884504824
 20
349.9909382474529
 10
226.3106599559746
 20
349.9927067507071
 10
226.2420617664163
 20
349.9948055280035
 10
226.2072321211526
 20
349.9967265962238
 10
226.1941236160716
 20
349.9987285345162
 10
226.0473182939695
 20
350.1455338620601
 10
225.0298632500245
 20
350.1455338620601
  0
LWPOLYLINE
  5
91
330
1F
100
AcDbEntity
  8
Hewi
370
    13
100
AcDbPolyline
 90
       11
 70
     0
 43
0.0
 10
325.6044118251124
 20
251.1535257914326
 10
325.6218676176344
 20
251.1535257914326
 10
325.7591764318432
 20
251.1532187677298
 10
325.8887996215675
 20
251.1523706373779
 10
326.0038372373405
 20
251.1510265470562
 10
326.0981657318466
 20
251.1492580438019
 10
326.1667639214052
 20
251.1471592665055
 10
326.2015935666694
 20
251.1452381982852
 10
326.2147020717505
 20
251.1432362599927
 10
326.3615073938526
 20
250.9964309324487
 10
327.3789624377976
 20
250.9964309324487
  0
LINE
  5
92
330
1F
100
AcDbEntity
  8
Hewi
370
    13
100
AcDbLine
 10
327.3789624377976
 20
351.7455338883812
 30
0.0
 11
327.2358309083377
 21
351.6024023536149
 31
0.0
  0
LINE
  5
93
330
1F
100
AcDbEntity
  8
Hewi
370
    13
100
AcDbLine
 10
225.1729947794832
 20
351.6024023536149
 30
0.0
 11
225.0298632500245
 21
351.7455338883812
 31
0.0
  0
LWPOLYLINE
  5
94
330
1F
100
AcDbEntity
  8
Hewi
370
    13
100
AcDbPolyline
 90
        9
 70
     0
 43
0.0
 10
264.1013993686881
 20
249.3209815541675
 10
264.0861798277803
 20
249.3209815541675
 10
263.5938480704835
 20
249.3209815541675
 10
262.6542067424104
 20
249.3209815541675
 10
261.3241357768318
 20
249.3209815541675
 10
259.6841492438615
 20
249.3209815541675
 10
257.8335215387126
 20
249.3209815541675
 10
255.8842779387283
 20
249.3209815541675
 10
253.9544133027844
 20
249.3209815541675
  0
LINE
  5
95
330
1F
100
AcDbEntity
  8
Hewi
370
    13
100
AcDbLine
 10
327.2358309083377
 20
250.5570175225594
 30
0.0
 11
327.2358309083377
 21
249.5395624408937
 31
0.0
  0
LWPOLYLINE
  5
96
330
1F
100
AcDbEntity
  8
Hewi
370
    13
100
AcDbPolyline
 90
        9
 70
     0
 43
0.0
 10
298.4544123850416
 20
249.3209815541675
 10
296.5245477490965
 20
249.3209815541675
 10
294.5753041491123
 20
249.3209815541675
 10
292.7246764439646
 20
249.3209815541675
 10
291.0846899109945
 20
249.3209815541675
 10
289.7546189454153
 20
249.3209815541675
 10
288.8149776173425
 20
249.3209815541675
 10
288.3226458600454
 20
249.3209815541675
 10
288.3074263191373
 20
249.3209815541675
  0
LINE
  5
97
330
1F
100
AcDbEntity
  8
Hewi
370
    13
100
AcDbLine
 10
327.2358309083377
 20
351.6024023536149
 30
0.0
 11
327.2358309083377
 21
350.5849472719498
 31
0.0
  0
LINE
  5
98
330
1F
100
AcDbEntity
  8
Hewi
370
    13
100
AcDbLine
 10
225.1729947794832
 20
350.5849472719498
 30
0.0
 11
225.1729947794832
 21
351.6024023536149
 31
0.0
  0
LWPOLYLINE
  5
99
330
1F
100
AcDbEntity
  8
Hewi
370
    13
100
AcDbPolyline
 90
       10
 70
     0
 43
0.0
 10
231.7044137616564
 20
249.3209815541675
 10
231.2839049712535
 20
249.3209815541675
 10
230.9674701243984
 20
249.3209815541675
 10
230.7710147912986
 20
249.3209815541675
 10
230.7044137822795
 20
249.3209815541675
 10
230.7044137822795
 20
245.7209814949459
 10
230.7710147912986
 20
245.7209814949459
 10
230.9674701243984
 20
245.7209814949459
 10
231.2839049712535
 20
245.7209814949459
 10
231.7044137616564
 20
245.7209814949459
  0
LINE
  5
9A
330
1F
100
AcDbEntity
  8
Hewi
370
    13
100
AcDbLine
 10
225.1729947794832
 20
249.5395624408937
 30
0.0
 11
225.1729947794832
 21
250.5570175225594
 31
0.0
  0
LWPOLYLINE
  5
9B
330
1F
100
AcDbEntity
  8
Hewi
370
    13
100
AcDbPolyline
 90
        3
 70
     0
 43
0.0
 10
298.4544123850416
 20
249.3964309215312
 10
298.4544123850416
 20
245.8209814965911
 10
296.2044124314435
 20
245.8209814965911
  0
LWPOLYLINE
  5
9C
330
1F
100
AcDbEntity
  8
Hewi
370
    13
100
AcDbPolyline
 90
        3
 70
     0
 43
0.0
 10
256.2044132563814
 20
245.8209814965911
 10
253.9544133027844
 20
245.8209814965911
 10
253.9544133027844
 20
249.3964309923117
  0
LWPOLYLINE
  5
9D
330
1F
100
AcDbEntity
  8
Hewi
370
    13
100
AcDbPolyline
 90
        9
 70
     0
 43
0.0
 10
320.7044119261697
 20
249.3209815541675
 10
320.6291956642666
 20
249.3209815541675
 10
320.4073185360035
 20
249.3209815541675
 10
320.0499063870716
 20
249.3209815541675
 10
319.5748813550405
 20
249.3209815541675
 10
319.0060631785475
 20
249.3209815541675
 10
318.3719747761417
 20
249.3209815541675
 10
317.7044119880396
 20
249.3209815541675
 10
314.9544120447544
 20
249.3209815541675
  0
LINE
  5
9E
330
1F
100
AcDbEntity
  8
Hewi
370
    13
100
AcDbLine
 10
239.7544135956373
 20
249.3209815541675
 30
0.0
 11
237.4544136430715
 21
249.3209815541675
 31
0.0
  0
LINE
  5
9F
330
1F
100
AcDbEntity
  8
Hewi
370
    13
100
AcDbLine
 10
225.1729947794832
 20
350.5849472719498
 30
0.0
 11
226.8044138627097
 21
350.5849472719498
 31
0.0
  0
LINE
  5
A0
330
1F
100
AcDbEntity
  8
Hewi
370
    13
100
AcDbLine
 10
327.2358309083377
 20
250.5570175225594
 30
0.0
 11
325.6044118251124
 21
250.5570175225594
 31
0.0
  0
LWPOLYLINE
  5
A1
330
1F
100
AcDbEntity
  8
Hewi
370
    13
100
AcDbPolyline
 90
        9
 70
     0
 43
0.0
 10
231.7044137616564
 20
249.3209815541675
 10
231.7796300235595
 20
249.3209815541675
 10
232.0015071518226
 20
249.3209815541675
 10
232.3589193007545
 20
249.3209815541675
 10
232.8339443327855
 20
249.3209815541675
 10
233.4027625092785
 20
249.3209815541675
 10
234.0368509116844
 20
249.3209815541675
 10
234.7044136997853
 20
249.3209815541675
 10
237.4544136430715
 20
249.3209815541675
  0
LINE
  5
A2
330
1F
100
AcDbEntity
  8
Hewi
370
    13
100
AcDbLine
 10
243.7044135141742
 20
249.3209815541675
 30
0.0
 11
239.7544135956373
 21
249.3209815541675
 31
0.0
  0
LWPOLYLINE
  5
A3
330
1F
100
AcDbEntity
  8
Hewi
370
    13
100
AcDbPolyline
 90
       10
 70
     0
 43
0.0
 10
320.7044119261697
 20
245.7209814949459
 10
321.1249207165725
 20
245.7209814949459
 10
321.4413555634276
 20
245.7209814949459
 10
321.6378108965263
 20
245.7209814949459
 10
321.7044119055465
 20
245.7209814949459
 10
321.7044119055465
 20
249.3209815541675
 10
321.6378108965263
 20
249.3209815541675
 10
321.4413555634276
 20
249.3209815541675
 10
321.1249207165725
 20
249.3209815541675
 10
320.7044119261697
 20
249.3209815541675
  0
LINE
  5
A4
330
1F
100
AcDbEntity
  8
Hewi
370
    13
100
AcDbLine
 10
231.7044137616564
 20
249.3209815541675
 30
0.0
 11
231.7044137616564
 21
245.7209814949459
 31
0.0
  0
LINE
  5
A5
330
1F
100
AcDbEntity
  8
Hewi
370
    13
100
AcDbLine
 10
314.9544120447544
 20
245.7209814949459
 30
0.0
 11
314.9544120447544
 21
249.3209815541675
 31
0.0
  0
LINE
  5
A6
330
1F
100
AcDbEntity
  8
Hewi
370
    13
100
AcDbLine
 10
296.2044124314435
 20
245.8209814965911
 30
0.0
 11
256.2044132563814
 21
245.8209814965911
 31
0.0
  0
LINE
  5
A7
330
1F
100
AcDbEntity
  8
Hewi
370
    13
100
AcDbLine
 10
314.9544120447544
 20
249.3209815541675
 30
0.0
 11
312.6544120921885
 21
249.3209815541675
 31
0.0
  0
LWPOLYLINE
  5
A8
330
1F
100
AcDbEntity
  8
Hewi
370
    13
100
AcDbPolyline
 90
        4
 70
     0
 43
0.0
 10
249.9646057797743
 20
245.7209814949459
 10
250.2868505765535
 20
245.7209814949459
 10
250.9544133646547
 20
245.7209814949459
 10
256.2044132563814
 20
245.7209814949459
  0
LWPOLYLINE
  5
A9
330
1F
100
AcDbEntity
  8
Hewi
370
    13
100
AcDbPolyline
 90
       16
 70
     0
 43
0.0
 10
287.2544126160234
 20
249.3209815541675
 10
287.2293405287225
 20
249.3209815541675
 10
287.1553814859682
 20
249.3209815541675
 10
287.0362441029915
 20
249.3209815541675
 10
286.8779024256475
 20
249.3209815541675
 10
286.6882963668165
 20
249.3209815541675
 10
286.4769335660146
 20
249.3209815541675
 10
286.2544126366474
 20
249.3209815541675
 10
285.9544126428345
 20
249.3209815541675
 10
285.7318917134675
 20
249.3209815541675
 10
285.5205289126645
 20
249.3209815541675
 10
285.3309228538343
 20
249.3209815541675
 10
285.1725811764903
 20
249.3209815541675
 10
285.0534437935126
 20
249.3209815541675
 10
284.9794847507594
 20
249.3209815541675
 10
284.9544126634573
 20
249.3209815541675
  0
LWPOLYLINE
  5
AA
330
1F
100
AcDbEntity
  8
Hewi
370
    13
100
AcDbPolyline
 90
       19
 70
     0
 43
0.0
 10
281.6680895051963
 20
245.8209814965911
 10
281.6680895051963
 20
245.9209814982361
 10
281.5963868568066
 20
245.9209814982361
 10
281.4648741140455
 20
245.9209814982361
 10
281.3007391761546
 20
245.9209814982361
 10
281.1373619624534
 20
245.9209814982361
 10
280.9234685414935
 20
245.9209814982361
 10
280.7156894259823
 20
245.9209814982361
 10
280.4979172536873
 20
245.9209814982361
 10
280.2931524301765
 20
245.9209814982361
 10
280.0962159351165
 20
245.9209814982361
 10
279.9150034103253
 20
245.9209814982361
 10
279.7558876597084
 20
245.9209814982361
 10
279.6233422744076
 20
245.9209814982361
 10
279.5171250987603
 20
245.9209814982361
 10
279.4114252755027
 20
245.9209814982361
 10
279.3145702821316
 20
245.9209814982361
 10
279.2898844260374
 20
245.9209814982361
 10
279.2898844260374
 20
245.8209814965911
  0
LWPOLYLINE
  5
AB
330
1F
100
AcDbEntity
  8
Hewi
370
    13
100
AcDbPolyline
 90
        4
 70
     0
 43
0.0
 10
296.2044124314435
 20
245.7209814949459
 10
301.4544123231702
 20
245.7209814949459
 10
302.1219751112723
 20
245.7209814949459
 10
302.4442199269482
 20
245.7209814949459
  0
LWPOLYLINE
  5
AC
330
1F
100
AcDbEntity
  8
Hewi
370
    13
100
AcDbPolyline
 90
        4
 70
     0
 43
0.0
 10
320.2044119314503
 20
245.7209814949459
 10
320.4073185360035
 20
245.7209814949459
 10
320.6291956642666
 20
245.7209814949459
 10
320.7044119261697
 20
245.7209814949459
  0
LWPOLYLINE
  5
AD
330
1F
100
AcDbEntity
  8
Hewi
370
    13
100
AcDbPolyline
 90
        4
 70
     0
 43
0.0
 10
256.7044132511013
 20
243.8209814636897
 10
256.5015066465476
 20
243.8209814636897
 10
256.2796295182853
 20
243.8209814636897
 10
256.2044132563814
 20
243.8209814636897
  0
LWPOLYLINE
  5
AE
330
1F
100
AcDbEntity
  8
Hewi
370
    13
100
AcDbPolyline
 90
       16
 70
     0
 43
0.0
 10
267.4544130243684
 20
249.3209815541675
 10
267.4293409370666
 20
249.3209815541675
 10
267.3553818943135
 20
249.3209815541675
 10
267.2362445113356
 20
249.3209815541675
 10
267.0779028339917
 20
249.3209815541675
 10
266.8882967751604
 20
249.3209815541675
 10
266.6769339743582
 20
249.3209815541675
 10
266.4544130449913
 20
249.3209815541675
 10
266.1544130511784
 20
249.3209815541675
 10
265.9318921218114
 20
249.3209815541675
 10
265.7205293210084
 20
249.3209815541675
 10
265.5309232621785
 20
249.3209815541675
 10
265.3725815848345
 20
249.3209815541675
 10
265.2534442018577
 20
249.3209815541675
 10
265.1794851591033
 20
249.3209815541675
 10
265.1544130718015
 20
249.3209815541675
  0
LWPOLYLINE
  5
AF
330
1F
100
AcDbEntity
  8
Hewi
370
    13
100
AcDbPolyline
 90
        4
 70
     0
 43
0.0
 10
296.2044124314435
 20
243.8209814636897
 10
296.1291961695404
 20
243.8209814636897
 10
295.9073190412785
 20
243.8209814636897
 10
295.7044124473766
 20
243.8209814636897
  0
LINE
  5
B0
330
1F
100
AcDbEntity
  8
Hewi
370
    13
100
AcDbLine
 10
256.2044132563814
 20
245.8209814965911
 30
0.0
 11
256.2044132563814
 21
245.7209814949459
 31
0.0
  0
LINE
  5
B1
330
1F
100
AcDbEntity
  8
Hewi
370
    13
100
AcDbLine
 10
320.7044119261697
 20
245.7209814949459
 30
0.0
 11
320.7044119261697
 21
249.3209815541675
 31
0.0
  0
LWPOLYLINE
  5
B2
330
1F
100
AcDbEntity
  8
Hewi
370
    13
100
AcDbPolyline
 90
        4
 70
     0
 43
0.0
 10
231.7044137616564
 20
245.7209814949459
 10
231.7796300235595
 20
245.7209814949459
 10
232.0015071518226
 20
245.7209814949459
 10
232.2044137457244
 20
245.7209814949459
  0
LINE
  5
B3
330
1F
100
AcDbEntity
  8
Hewi
370
    13
100
AcDbLine
 10
296.2044124314435
 20
245.7209814949459
 30
0.0
 11
296.2044124314435
 21
245.8209814965911
 31
0.0
  0
LINE
  5
B4
330
1F
100
AcDbEntity
  8
Hewi
370
    13
100
AcDbLine
 10
296.2044124314435
 20
245.7209814949459
 30
0.0
 11
296.2044124314435
 21
243.8209814636897
 31
0.0
  0
LINE
  5
B5
330
1F
100
AcDbEntity
  8
Hewi
370
    13
100
AcDbLine
 10
287.2544126160234
 20
245.8209814965911
 30
0.0
 11
287.2544126160234
 21
249.3209815541675
 31
0.0
  0
LINE
  5
B6
330
1F
100
AcDbEntity
  8
Hewi
370
    13
100
AcDbLine
 10
267.4544130243684
 20
245.8209814965911
 30
0.0
 11
267.4544130243684
 21
249.3209815541675
 31
0.0
  0
LINE
  5
B7
330
1F
100
AcDbEntity
  8
Hewi
370
    13
100
AcDbLine
 10
256.2044132563814
 20
243.8209814636897
 30
0.0
 11
256.2044132563814
 21
245.7209814949459
 31
0.0
  0
LWPOLYLINE
  5
B8
330
1F
100
AcDbEntity
  8
Hewi
370
    13
100
AcDbPolyline
 90
       19
 70
     0
 43
0.0
 10
276.2834742316305
 20
245.8209814965911
 10
276.2834742316305
 20
245.9209814982361
 10
276.2117715832404
 20
245.9209814982361
 10
276.0802588404796
 20
245.9209814982361
 10
275.9161239025884
 20
245.9209814982361
 10
275.7527466888875
 20
245.9209814982361
 10
275.5388532679264
 20
245.9209814982361
 10
275.3310741524167
 20
245.9209814982361
 10
275.1133019801216
 20
245.9209814982361
 10
274.9085371566106
 20
245.9209814982361
 10
274.7116006615495
 20
245.9209814982361
 10
274.5303881367596
 20
245.9209814982361
 10
274.3712723861416
 20
245.9209814982361
 10
274.2387270008414
 20
245.9209814982361
 10
274.1325098251947
 20
245.9209814982361
 10
274.0268100019365
 20
245.9209814982361
 10
273.9299550085654
 20
245.9209814982361
 10
273.9052691524715
 20
245.9209814982361
 10
273.9052691524715
 20
245.8209814965911
  0
LINE
  5
B9
330
1F
100
AcDbEntity
  8
Hewi
370
    13
100
AcDbLine
 10
271.3924486914733
 20
245.8209814965911
 30
0.0
 11
271.3924486914733
 21
245.9209814982361
 31
0.0
  0
LWPOLYLINE
  5
BA
330
1F
100
AcDbEntity
  8
Hewi
370
    13
100
AcDbPolyline
 90
       19
 70
     0
 43
0.0
 10
270.8988589580634
 20
245.8209814965911
 10
270.8988589580634
 20
245.9209814982361
 10
270.8271563096742
 20
245.9209814982361
 10
270.6956435669134
 20
245.9209814982361
 10
270.5315086290225
 20
245.9209814982361
 10
270.3681314153215
 20
245.9209814982361
 10
270.1542379943605
 20
245.9209814982361
 10
269.9464588788494
 20
245.9209814982361
 10
269.7286867065555
 20
245.9209814982361
 10
269.5239218830444
 20
245.9209814982361
 10
269.3269853879833
 20
245.9209814982361
 10
269.1457728631935
 20
245.9209814982361
 10
268.9866571125766
 20
245.9209814982361
 10
268.8541117272753
 20
245.9209814982361
 10
268.7478945516285
 20
245.9209814982361
 10
268.6421947283703
 20
245.9209814982361
 10
268.5453397349995
 20
245.9209814982361
 10
268.5206538789056
 20
245.9209814982361
 10
268.5206538789056
 20
245.8209814965911
  0
LWPOLYLINE
  5
BB
330
1F
100
AcDbEntity
  8
Hewi
370
    13
100
AcDbPolyline
 90
       14
 70
     0
 43
0.0
 10
276.7770639650395
 20
245.9209814982361
 10
276.7935099386257
 20
245.9209814982361
 10
276.8427482663402
 20
245.9209814982361
 10
276.9428473684446
 20
245.9209814982361
 10
277.0974310126327
 20
245.9209814982361
 10
277.3100845986745
 20
245.9209814982361
 10
277.5483136442375
 20
245.9209814982361
 10
277.7992995208815
 20
245.9209814982361
 10
278.0047792749083
 20
245.9209814982361
 10
278.2028349604285
 20
245.9209814982361
 10
278.4159943055824
 20
245.9209814982361
 10
278.5936342656025
 20
245.9209814982361
 10
278.7353725152617
 20
245.9209814982361
 10
278.8411664865732
 20
245.9209814982361
  0
LWPOLYLINE
  5
BC
330
1F
100
AcDbEntity
  8
Hewi
370
    13
100
AcDbPolyline
 90
        5
 70
     0
 43
0.0
 10
271.2578333096344
 20
245.8209814965911
 10
271.2578333096344
 20
245.9209814982361
 10
271.2717461946296
 20
245.9209814982361
 10
271.3163078147717
 20
245.9209814982361
 10
271.3924486930365
 20
245.9209814982361
  0
LINE
  5
BD
330
1F
100
AcDbEntity
  8
Hewi
370
    13
100
AcDbLine
 10
271.3924486914733
 20
245.9209814982361
 30
0.0
 11
272.8283460977575
 21
245.9209814982361
 31
0.0
  0
LINE
  5
BE
330
1F
100
AcDbEntity
  8
Hewi
370
    13
100
AcDbLine
 10
272.8283460977575
 20
245.9209814982361
 30
0.0
 11
273.1873204493284
 21
245.9209814982361
 31
0.0
  0
LWPOLYLINE
  5
BF
330
1F
100
AcDbEntity
  8
Hewi
370
    13
100
AcDbPolyline
 90
        3
 70
     0
 43
0.0
 10
273.2321922432756
 20
245.9209814982361
 10
273.5462948009002
 20
245.9209814982361
 10
273.5462948009002
 20
245.8209814965911
  0
LWPOLYLINE
  5
C0
330
1F
100
AcDbEntity
  8
Hewi
370
    13
100
AcDbPolyline
 90
        5
 70
     0
 43
0.0
 10
276.5975767892546
 20
245.8209814965911
 10
276.5975767892546
 20
245.9209814982361
 10
276.6207115046664
 20
245.9209814982361
 10
276.6914067681675
 20
245.9209814982361
 10
276.7770639655113
 20
245.9209814982361
  0
LWPOLYLINE
  5
C1
330
1F
100
AcDbEntity
  8
Hewi
370
    13
100
AcDbPolyline
 90
        3
 70
     0
 43
0.0
 10
298.7938860635223
 20
243.7209814620453
 10
298.7044123798853
 20
243.7209814620453
 10
298.4615552341604
 20
243.4781243073163
  0
LINE
  5
C2
330
1F
100
AcDbEntity
  8
Hewi
370
    13
100
AcDbLine
 10
278.8411664865732
 20
245.9209814982361
 30
0.0
 11
278.8411664865732
 21
245.8209814965911
 31
0.0
  0
LINE
  5
C3
330
1F
100
AcDbEntity
  8
Hewi
370
    13
100
AcDbLine
 10
272.8283460977575
 20
245.9209814982361
 30
0.0
 11
272.8283460977575
 21
245.8209814965911
 31
0.0
  0
LINE
  5
C4
330
1F
100
AcDbEntity
  8
Hewi
370
    13
100
AcDbLine
 10
273.2321922432756
 20
245.9209814982361
 30
0.0
 11
273.2321922432756
 21
245.8209814965911
 31
0.0
  0
LINE
  5
C5
330
1F
100
AcDbEntity
  8
Hewi
370
    13
100
AcDbLine
 10
262.3044131305785
 20
249.3209815541675
 30
0.0
 11
262.3044131305785
 21
249.3964309075613
 31
0.0
  0
LINE
  5
C6
330
1F
100
AcDbEntity
  8
Hewi
370
    13
100
AcDbLine
 10
312.6544120921885
 20
249.3209815541675
 30
0.0
 11
312.6544120921885
 21
248.7709815510803
 31
0.0
  0
LINE
  5
C7
330
1F
100
AcDbEntity
  8
Hewi
370
    13
100
AcDbLine
 10
284.9544130061845
 20
249.3209815541675
 30
0.0
 11
267.4544137694265
 21
249.3209815541675
 31
0.0
  0
LINE
  5
C8
330
1F
100
AcDbEntity
  8
Hewi
370
    13
100
AcDbLine
 10
265.1544125830447
 20
249.3209815541675
 30
0.0
 11
264.1013999654764
 21
249.3209815541675
 31
0.0
  0
LWPOLYLINE
  5
C9
330
1F
100
AcDbEntity
  8
Hewi
370
    13
100
AcDbPolyline
 90
       34
 70
     0
 43
0.0
 10
229.9544067643974
 20
100.5709791071652
 10
79.20441690673055
 20
100.5709791071652
 10
78.53685411862938
 20
100.6461953718564
 10
77.90276571622269
 20
100.8680725083442
 10
77.33394753972942
 20
101.2254846705272
 10
76.85892250769893
 20
101.7005097201692
 10
76.50151035876672
 20
102.2693279177511
 10
76.27963323050448
 20
102.9034163436651
 10
76.20441696860109
 20
103.5709791565164
 10
76.20441696860109
 20
497.5709856379935
 10
76.27963323050448
 20
498.2385484508446
 10
76.50151035876672
 20
498.8726368767593
 10
76.85892250769893
 20
499.4414550743405
 10
77.33394753972942
 20
499.9164801239825
 10
77.90276571622269
 20
500.2738922861654
 10
78.53685411862938
 20
500.4957694226532
 10
79.20441690673055
 20
500.5709856873449
 10
473.2044087810916
 20
500.5709856873449
 10
473.8719715691934
 20
500.4957694226532
 10
474.5060599716005
 20
500.2738922861651
 10
475.0748781480923
 20
499.9164801239823
 10
475.5499031801244
 20
499.4414550743401
 10
475.9073153290553
 20
498.8726368767593
 10
476.1291924573184
 20
498.2385484508446
 10
476.2044087192214
 20
497.5709856379935
 10
476.2044087192214
 20
103.5709791565164
 10
476.1291924573184
 20
102.9034163436651
 10
475.9073153290553
 20
102.2693279177511
 10
475.5499031801244
 20
101.7005097201692
 10
475.0748781480923
 20
101.2254846705272
 10
474.5060599716005
 20
100.8680725083442
 10
473.8719715691934
 20
100.6461953718564
 10
473.2044087810916
 20
100.5709791071652
 10
322.4544071813095
 20
100.5709791071652
  0
LINE
  5
CA
330
1F
100
AcDbEntity
  8
Hewi
370
    13
100
AcDbLine
 10
256.2044132563814
 20
243.8209814636897
 30
0.0
 11
256.2044132563814
 21
241.8286737441102
 31
0.0
  0
LWPOLYLINE
  5
CB
330
1F
100
AcDbEntity
  8
Hewi
370
    13
100
AcDbPolyline
 90
        3
 70
     0
 43
0.0
 10
253.9472704909185
 20
243.4781242700637
 10
253.7044133079406
 20
243.7209814620453
 10
253.6149397046294
 20
243.7209814620453
  0
LWPOLYLINE
  5
CC
330
1F
100
AcDbEntity
  8
Hewi
370
    13
100
AcDbPolyline
 90
        3
 70
     0
 43
0.0
 10
278.8411664945972
 20
245.9209814982361
 10
278.9757818684127
 20
245.9209814982361
 10
278.9757818684127
 20
245.8209814965911
  0
LINE
  5
CD
330
1F
100
AcDbEntity
  8
Hewi
370
    13
100
AcDbLine
 10
237.4544136430715
 20
249.3209815541675
 30
0.0
 11
237.4544136430715
 21
245.7209814949459
 31
0.0
  0
LINE
  5
CE
330
1F
100
AcDbEntity
  8
Hewi
370
    13
100
AcDbLine
 10
290.1044125572464
 20
249.3209815541675
 30
0.0
 11
290.1044125572464
 21
249.3964309075613
 31
0.0
  0
LINE
  5
CF
330
1F
100
AcDbEntity
  8
Hewi
370
    13
100
AcDbLine
 10
304.4544122613003
 20
248.4247276466445
 30
0.0
 11
304.4544122613003
 21
248.5709815418298
 31
0.0
  0
LINE
  5
D0
330
1F
100
AcDbEntity
  8
Hewi
370
    13
100
AcDbLine
 10
264.1013993686881
 20
249.3209815541675
 30
0.0
 11
264.1013993686881
 21
245.8209814965911
 31
0.0
  0
LINE
  5
D1
330
1F
100
AcDbEntity
  8
Hewi
370
    13
100
AcDbLine
 10
241.9044135512975
 20
249.396430902905
 30
0.0
 11
241.9044135512975
 21
249.3209815541675
 31
0.0
  0
LINE
  5
D2
330
1F
100
AcDbEntity
  8
Hewi
370
    13
100
AcDbLine
 10
296.2044124314435
 20
241.8286737441102
 30
0.0
 11
296.2044124314435
 21
243.8209814636897
 31
0.0
  0
LINE
  5
D3
330
1F
100
AcDbEntity
  8
Hewi
370
    13
100
AcDbLine
 10
239.7544135956373
 20
248.770981497436
 30
0.0
 11
239.7544135956373
 21
249.3209815541675
 31
0.0
  0
LINE
  5
D4
330
1F
100
AcDbEntity
  8
Hewi
370
    13
100
AcDbLine
 10
273.1873204493284
 20
245.9209814982361
 30
0.0
 11
273.1873204493284
 21
245.8209814965911
 31
0.0
  0
LINE
  5
D5
330
1F
100
AcDbEntity
  8
Hewi
370
    13
100
AcDbLine
 10
273.1873204493665
 20
245.9209814982361
 30
0.0
 11
273.2321922432756
 21
245.9209814982361
 31
0.0
  0
LINE
  5
D6
330
1F
100
AcDbEntity
  8
Hewi
370
    13
100
AcDbLine
 10
247.9544134265246
 20
248.5709815418298
 30
0.0
 11
247.9544134265246
 21
248.4247276891128
 31
0.0
  0
LINE
  5
D7
330
1F
100
AcDbEntity
  8
Hewi
370
    13
100
AcDbLine
 10
276.7770639650395
 20
245.9209814982361
 30
0.0
 11
276.7770639650395
 21
245.8209814965911
 31
0.0
  0
LINE
  5
D8
330
1F
100
AcDbEntity
  8
Hewi
370
    13
100
AcDbLine
 10
270.2137953031451
 20
249.3209815541675
 30
0.0
 11
270.2137953031451
 21
249.3964309075613
 31
0.0
  0
LINE
  5
D9
330
1F
100
AcDbEntity
  8
Hewi
370
    13
100
AcDbLine
 10
288.3074262662417
 20
249.3209815541675
 30
0.0
 11
287.2544125608895
 21
249.3209815541675
 31
0.0
  0
LINE
  5
DA
330
1F
100
AcDbEntity
  8
Hewi
370
    13
100
AcDbLine
 10
282.1950303846815
 20
249.396430902905
 30
0.0
 11
282.1950303846815
 21
249.3209815541675
 31
0.0
  0
LINE
  5
DB
330
1F
100
AcDbEntity
  8
Hewi
370
    13
100
AcDbLine
 10
243.7044135141742
 20
249.396430902905
 30
0.0
 11
243.7044135141742
 21
248.7709815928036
 31
0.0
  0
LINE
  5
DC
330
1F
100
AcDbEntity
  8
Hewi
370
    13
100
AcDbLine
 10
308.7044121736507
 20
248.7709815481
 30
0.0
 11
308.7044121736507
 21
249.396430902905
 31
0.0
  0
LINE
  5
DD
330
1F
100
AcDbEntity
  8
Hewi
370
    13
100
AcDbLine
 10
284.9544126634573
 20
249.3209815541675
 30
0.0
 11
284.9544126634573
 21
245.8209814965911
 31
0.0
  0
LINE
  5
DE
330
1F
100
AcDbEntity
  8
Hewi
370
    13
100
AcDbLine
 10
310.5044121365294
 20
249.3209815541675
 30
0.0
 11
310.5044121365294
 21
249.3964309075613
 31
0.0
  0
LINE
  5
DF
330
1F
100
AcDbEntity
  8
Hewi
370
    13
100
AcDbLine
 10
312.6544120921885
 20
249.3209815541675
 30
0.0
 11
308.7044122687247
 21
249.3209815541675
 31
0.0
  0
LINE
  5
E0
330
1F
100
AcDbEntity
  8
Hewi
370
    13
100
AcDbLine
 10
265.1544130718015
 20
249.3209815541675
 30
0.0
 11
265.1544130718015
 21
245.8209814965911
 31
0.0
  0
LINE
  5
E1
330
1F
100
AcDbEntity
  8
Hewi
370
    13
100
AcDbLine
 10
250.9544133646547
 20
248.5709815418298
 30
0.0
 11
247.8456761090594
 21
248.5709815418298
 31
0.0
  0
LINE
  5
E2
330
1F
100
AcDbEntity
  8
Hewi
370
    13
100
AcDbLine
 10
288.3074263191373
 20
249.3209815541675
 30
0.0
 11
288.3074263191373
 21
245.8209814965911
 31
0.0
  0
LINE
  5
E3
330
1F
100
AcDbEntity
  8
Hewi
370
    13
100
AcDbLine
 10
304.5631497054252
 20
248.5709815418298
 30
0.0
 11
301.4544123231702
 21
248.5709815418298
 31
0.0
  0
LINE
  5
E4
330
1F
100
AcDbEntity
  8
Hewi
370
    13
100
AcDbLine
 10
231.7089001820626
 20
245.6657403173554
 30
0.0
 11
232.2044137513445
 21
245.7209814949476
 31
0.0
  0
LINE
  5
E5
330
1F
100
AcDbEntity
  8
Hewi
370
    13
100
AcDbLine
 10
230.8140036380815
 20
245.239952837054
 30
0.0
 11
231.2377179484515
 21
245.5027293069381
 31
0.0
  0
LWPOLYLINE
  5
E6
330
1F
100
AcDbEntity
  8
Hewi
370
    13
100
AcDbPolyline
 90
        3
 70
     0
 43
0.0
 10
231.7089001820626
 20
245.6657403173554
 10
231.7037416602694
 20
245.6645692964278
 10
231.2377179484515
 20
245.5027293069381
  0
LWPOLYLINE
  5
E7
330
1F
100
AcDbEntity
  8
Hewi
370
    13
100
AcDbPolyline
 90
        3
 70
     0
 43
0.0
 10
231.2377179484515
 20
245.5027293069381
 10
231.2281753584646
 20
245.4981614440615
 10
230.8140036380815
 20
245.239952837054
  0
LINE
  5
E8
330
1F
100
AcDbEntity
  8
Hewi
370
    13
100
AcDbLine
 10
321.5948220497485
 20
245.2399528370509
 30
0.0
 11
321.9502626794703
 21
244.8903140911681
 31
0.0
  0
LWPOLYLINE
  5
E9
330
1F
100
AcDbEntity
  8
Hewi
370
    13
100
AcDbPolyline
 90
        3
 70
     0
 43
0.0
 10
230.8140036380815
 20
245.239952837054
 10
230.8015617260953
 20
245.2301023224242
 10
230.4585630083575
 20
244.890314091169
  0
LWPOLYLINE
  5
EA
330
1F
100
AcDbEntity
  8
Hewi
370
    13
100
AcDbPolyline
 90
        3
 70
     0
 43
0.0
 10
320.6999255057714
 20
245.6657403173537
 10
320.7050840275595
 20
245.6645692964278
 10
321.1711077393802
 20
245.5027293069363
  0
LWPOLYLINE
  5
EB
330
1F
100
AcDbEntity
  8
Hewi
370
    13
100
AcDbPolyline
 90
        3
 70
     0
 43
0.0
 10
321.1711077393802
 20
245.5027293069363
 10
321.1806503293646
 20
245.4981614440615
 10
321.5948220497485
 20
245.2399528370509
  0
LINE
  5
EC
330
1F
100
AcDbEntity
  8
Hewi
370
    13
100
AcDbLine
 10
320.6999255057714
 20
245.6657403173537
 30
0.0
 11
321.1711077393802
 21
245.5027293069363
 31
0.0
  0
LWPOLYLINE
  5
ED
330
1F
100
AcDbEntity
  8
Hewi
370
    13
100
AcDbPolyline
 90
        3
 70
     1
 43
0.0
 10
230.4585630083575
 20
244.890314091169
 10
230.4452929520725
 20
244.8738335351928
 10
230.1888493558375
 20
244.4709814743831
  0
LINE
  5
EE
330
1F
100
AcDbEntity
  8
Hewi
370
    13
100
AcDbLine
 10
231.2377179484515
 20
245.5027293069381
 30
0.0
 11
231.7089001820626
 21
245.6657403173554
 31
0.0
  0
LINE
  5
EF
330
1F
100
AcDbEntity
  8
Hewi
370
    13
100
AcDbLine
 10
321.1711077393802
 20
245.5027293069363
 30
0.0
 11
321.5948220497485
 21
245.2399528370509
 31
0.0
  0
LWPOLYLINE
  5
F0
330
1F
100
AcDbEntity
  8
Hewi
370
    13
100
AcDbPolyline
 90
        3
 70
     0
 43
0.0
 10
242.1044135471724
 20
244.4709814743845
 10
242.1044135471724
 20
245.7209814949476
 10
232.2044137513445
 20
245.7209814949476
  0
LWPOLYLINE
  5
F1
330
1F
100
AcDbEntity
  8
Hewi
370
    13
100
AcDbPolyline
 90
        3
 70
     0
 43
0.0
 10
321.5948220497485
 20
245.2399528370509
 10
321.6072639617336
 20
245.2301023224242
 10
321.9502626794703
 20
244.8903140911681
  0
LWPOLYLINE
  5
F2
330
1F
100
AcDbEntity
  8
Hewi
370
    13
100
AcDbPolyline
 90
        3
 70
     1
 43
0.0
 10
321.9502626794703
 20
244.8903140911681
 10
321.9635327357567
 20
244.8738335351928
 10
322.2199763319885
 20
244.4709814743831
  0
LWPOLYLINE
  5
F3
330
1F
100
AcDbEntity
  8
Hewi
370
    13
100
AcDbPolyline
 90
        3
 70
     0
 43
0.0
 10
310.3044121406516
 20
244.4709814743831
 10
310.3044121406516
 20
245.7209814949462
 10
320.2044119364795
 20
245.7209814949462
  0
LINE
  5
F4
330
1F
100
AcDbEntity
  8
Hewi
370
    13
100
AcDbLine
 10
230.4585630083575
 20
244.890314091169
 30
0.0
 11
230.8140036380815
 21
245.239952837054
 31
0.0
  0
LINE
  5
F5
330
1F
100
AcDbEntity
  8
Hewi
370
    13
100
AcDbLine
 10
320.2044119364795
 20
245.7209814949462
 30
0.0
 11
320.6999255057714
 21
245.6657403173537
 31
0.0
  0
LWPOLYLINE
  5
F6
330
1F
100
AcDbEntity
  8
Hewi
370
    13
100
AcDbPolyline
 90
        3
 70
     0
 43
0.0
 10
253.3623080518355
 20
243.7209814620456
 10
253.2044133182516
 20
244.0209814669808
 10
251.2285287620766
 20
244.0209814669808
  0
LINE
  5
F7
330
1F
100
AcDbEntity
  8
Hewi
370
    13
100
AcDbLine
 10
251.4515740378955
 20
243.7209814620453
 30
0.0
 11
253.6149396255744
 21
243.7209814620453
 31
0.0
  0
LWPOLYLINE
  5
F8
330
1F
100
AcDbEntity
  8
Hewi
370
    13
100
AcDbPolyline
 90
       11
 70
     0
 43
0.0
 10
314.2044120602203
 20
246.4709815072834
 10
314.2044120602203
 20
248.7709815451196
 10
314.1542678856183
 20
248.7709815451196
 10
314.0063498001105
 20
248.7709815451196
 10
313.7680750341555
 20
248.7709815451196
 10
313.4513916794686
 20
248.7709815451196
 10
313.0721795618065
 20
248.7709815451196
 10
312.6494539602016
 20
248.7709815451196
 10
312.2044121014683
 20
248.7709815451196
 10
304.7118465044404
 20
248.7709815451196
 10
299.9073965978557
 20
242.3089068312049
  0
LWPOLYLINE
  5
F9
330
1F
100
AcDbEntity
  8
Hewi
370
    13
100
AcDbPolyline
 90
       10
 70
     0
 43
0.0
 10
314.2044120602203
 20
246.4709815072834
 10
314.1542678856183
 20
246.4709815072834
 10
314.0063498001105
 20
246.4709815072834
 10
313.7680750341555
 20
246.4709815072834
 10
313.4513916794686
 20
246.4709815072834
 10
313.0721795618065
 20
246.4709815072834
 10
312.6494539602016
 20
246.4709815072834
 10
312.2044121014683
 20
246.4709815072834
 10
310.2044121427145
 20
246.4709815072834
 10
310.2044121427145
 20
244.4709814594816
  0
LWPOLYLINE
  5
FA
330
1F
100
AcDbEntity
  8
Hewi
370
    13
100
AcDbPolyline
 90
       10
 70
     0
 43
0.0
 10
238.2044136276034
 20
246.4709815072834
 10
238.2545578022045
 20
246.4709815072834
 10
238.4024758877133
 20
246.4709815072834
 10
238.6407506536683
 20
246.4709815072834
 10
238.9574340083557
 20
246.4709815072834
 10
239.3366461260176
 20
246.4709815072834
 10
239.7593717276215
 20
246.4709815072834
 10
240.2044135863555
 20
246.4709815072834
 10
242.2044135451095
 20
246.4709815072834
 10
242.2044135451095
 20
244.4709816293547
  0
LWPOLYLINE
  5
FB
330
1F
100
AcDbEntity
  8
Hewi
370
    13
100
AcDbPolyline
 90
        3
 70
     0
 43
0.0
 10
299.0465176359895
 20
243.7209814620453
 10
299.2044123695736
 20
244.0209814669808
 10
301.1802968946126
 20
244.0209814669808
  0
LWPOLYLINE
  5
FC
330
1F
100
AcDbEntity
  8
Hewi
370
    13
100
AcDbPolyline
 90
       11
 70
     0
 43
0.0
 10
252.5014290899686
 20
242.3089068312049
 10
247.6969791833834
 20
248.7709815451196
 10
240.2044135863555
 20
248.7709815451196
 10
239.7593717276215
 20
248.7709815451196
 10
239.3366461260176
 20
248.7709815451196
 10
238.9574340083557
 20
248.7709815451196
 10
238.6407506536683
 20
248.7709815451196
 10
238.4024758877133
 20
248.7709815451196
 10
238.2545578022045
 20
248.7709815451196
 10
238.2044136276034
 20
248.7709815451196
 10
238.2044136276034
 20
246.4709815072834
  0
LINE
  5
FD
330
1F
100
AcDbEntity
  8
Hewi
370
    13
100
AcDbLine
 10
298.7938860622497
 20
243.7209814620453
 30
0.0
 11
300.9572516499283
 21
243.7209814620453
 31
0.0
  0
LINE
  5
FE
330
1F
100
AcDbEntity
  8
Hewi
370
    13
100
AcDbLine
 10
296.7045676614266
 20
77.97097873538345
 30
0.0
 11
255.7042569833184
 21
77.97097873538345
 31
0.0
  0
LINE
  5
FF
330
1F
100
AcDbEntity
  8
Hewi
370
    13
100
AcDbLine
 10
295.7149387981094
 20
241.4709814548336
 30
0.0
 11
298.7938860622497
 21
243.7209814620453
 31
0.0
  0
LWPOLYLINE
  5
100
330
1F
100
AcDbEntity
  8
Hewi
370
    13
100
AcDbPolyline
 90
        3
 70
     0
 43
0.0
 10
256.7044132156805
 20
234.0509825759386
 10
256.0755024464084
 20
234.0509825759389
 10
255.7032320060095
 20
233.6767955940246
  0
LINE
  5
101
330
1F
100
AcDbEntity
  8
Hewi
370
    13
100
AcDbLine
 10
253.6149396255744
 20
243.7209814620453
 30
0.0
 11
256.6938868897155
 21
241.4709814548345
 31
0.0
  0
LINE
  5
102
330
1F
100
AcDbEntity
  8
Hewi
370
    13
100
AcDbLine
 10
238.2044136276034
 20
245.7209814949456
 30
0.0
 11
238.2044136276034
 21
246.4709815072834
 31
0.0
  0
LWPOLYLINE
  5
103
330
1F
100
AcDbEntity
  8
Hewi
370
    13
100
AcDbPolyline
 90
        9
 70
     0
 43
0.0
 10
259.1592435217783
 20
53.4264558989295
 10
261.0542012850364
 20
52.33229372726694
 10
263.1741427253202
 20
51.63052217940813
 10
264.4294589890419
 20
51.42155107619057
 10
265.7044130604593
 20
51.35153402241623
 10
286.7044126273661
 20
51.35153402241623
 10
288.9546154181003
 20
51.57145422597007
 10
291.0959522192714
 20
52.22057286805605
 10
293.0248201963181
 20
53.26748733260753
  0
LINE
  5
104
330
1F
100
AcDbEntity
  8
Hewi
370
    13
100
AcDbLine
 10
295.7044130759483
 20
241.4709814250312
 30
0.0
 11
297.2617351501924
 21
241.4709814250312
 31
0.0
  0
LINE
  5
105
330
1F
100
AcDbEntity
  8
Hewi
370
    13
100
AcDbLine
 10
255.1470913974283
 20
241.4709814250312
 30
0.0
 11
256.7044132997135
 21
241.4709814250312
 31
0.0
  0
LINE
  5
106
330
1F
100
AcDbEntity
  8
Hewi
370
    13
100
AcDbLine
 10
314.2044120602203
 20
245.7209814949456
 30
0.0
 11
314.2044120602203
 21
246.4709815072834
 31
0.0
  0
LWPOLYLINE
  5
17E
330
1F
100
AcDbEntity
  8
Hewi
370
    13
100
AcDbPolyline
 90
       57
 70
     0
 43
0.0
 10
983.6629049736203
 20
1892.175046579823
 10
983.6629049736203
 20
1861.375046778863
 10
983.6879770605619
 20
1861.152525842695
 10
983.761936102258
 20
1860.941163035433
 10
983.8810734835291
 20
1860.751556970808
 10
984.0394151586059
 20
1860.593215288624
 10
984.2290212147217
 20
1860.474077902006
 10
984.440384012498
 20
1860.400118856992
 10
984.6629049386796
 20
1860.375046768924
 10
987.2629048478316
 20
1860.375046768926
 10
987.3193170434511
 20
1860.375046768926
 10
987.4857248872652
 20
1860.375046768926
 10
987.7537839951267
 20
1860.375046768926
 10
988.1100527640493
 20
1860.375046768926
 10
988.5366663903106
 20
1860.375046768926
 10
989.0122326853063
 20
1860.375046768926
 10
989.5129047692142
 20
1860.375046768926
 10
1069.512901973915
 20
1860.375046768926
 10
1071.738111235726
 20
1860.625767649599
 10
1073.851739213486
 20
1861.365358099744
 10
1075.747799774647
 20
1862.556731965928
 10
1077.331216525413
 20
1864.140148787758
 10
1078.522590338129
 20
1866.036209434014
 10
1079.262180755081
 20
1868.149837506633
 10
1079.512901624503
 20
1870.375046868311
 10
1079.512901624503
 20
2090.375049054804
 10
1079.788694580865
 20
2092.822779352651
 10
1080.602244039512
 20
2095.147770232531
 10
1081.9127552335
 20
2097.233436943413
 10
1083.654513659343
 20
2098.975195447426
 10
1085.74018027662
 20
2100.285706700229
 10
1088.065171052156
 20
2101.099256195387
 10
1090.512901240148
 20
2101.375049164128
 10
1145.012899335851
 20
2101.375049164128
 10
1147.238108597663
 20
2101.625770044802
 10
1149.351736575423
 20
2102.365360494947
 10
1151.247797136583
 20
2103.556734361131
 10
1152.831213887349
 20
2105.140151182961
 10
1154.022587700066
 20
2107.036211829217
 10
1154.762178117017
 20
2109.149839901836
 10
1155.012898986438
 20
2111.375049263515
 10
1155.012898986438
 20
2141.375049561673
 10
1155.012898986438
 20
2143.87841009356
 10
1155.012898986438
 20
2146.256241675257
 10
1155.012898986438
 20
2148.389309902295
 10
1155.012898986438
 20
2150.170653826853
 10
1155.012898986438
 20
2151.510949426312
 10
1155.012898986438
 20
2152.342988682724
 10
1155.012898986438
 20
2152.625049673482
 10
988.5129048041555
 20
2152.625049673482
 10
988.5129048041555
 20
2152.342988682724
 10
988.5129048041555
 20
2151.510949426312
 10
988.5129048041555
 20
2150.170653826853
 10
988.5129048041555
 20
2148.389309902295
 10
988.5129048041555
 20
2146.256241675257
 10
988.5129048041555
 20
2143.878410093561
 10
988.5129048041555
 20
2141.375049561673
  0
LINE
  5
17F
330
1F
100
AcDbEntity
  8
Hewi
370
    13
100
AcDbLine
 10
988.5129048041555
 20
2141.375049561673
 30
0.0
 11
989.5129047692142
 21
2141.375049561673
 31
0.0
  0
LWPOLYLINE
  5
180
330
1F
100
AcDbEntity
  8
Hewi
370
    13
100
AcDbPolyline
 90
        6
 70
     0
 43
0.0
 10
988.5129048041555
 20
2141.375049561673
 10
988.0935722089196
 20
2141.375049561673
 10
987.7439334810032
 20
2141.375049561673
 10
987.4811570246235
 20
2141.375049561673
 10
987.3181460225843
 20
2141.375049561673
 10
987.2629048478307
 20
2141.375049561673
  0
LWPOLYLINE
  5
181
330
1F
100
AcDbEntity
  8
Hewi
370
    13
100
AcDbPolyline
 90
       26
 70
     0
 43
0.0
 10
746.2629132686688
 20
836.1114167506483
 10
747.842886233937
 20
827.1509443950932
 10
748.1169130647471
 20
826.5156787677264
 10
748.3559164309994
 20
826.2623499880842
 10
748.6468990650612
 20
826.0709676903754
 10
749.3200978118393
 20
825.9114166492745
 10
749.5552603096
 20
825.9114166492745
 10
750.247081013294
 20
825.9114166492745
 10
751.3553538182882
 20
825.9114166492745
 10
752.8156699375633
 20
825.9114166492745
 10
754.5431611063015
 20
825.9114166492745
 10
756.4374318169493
 20
825.9114166492745
 10
758.3883939411987
 20
825.9114166492745
 10
760.2826646518475
 20
825.9114166492745
 10
762.0101558205848
 20
825.9114166492745
 10
763.4704719398606
 20
825.9114166492745
 10
764.5787447448542
 20
825.9114166492745
 10
765.2705654485482
 20
825.9114166492745
 10
765.5057279463091
 20
825.9114166492745
 10
765.8516509296553
 20
825.9518486928813
 10
766.1789272815082
 20
826.0709681484241
 10
766.4699093066777
 20
826.2623500124806
 10
766.7089121401317
 20
826.5156782677841
 10
766.8830528403137
 20
826.8172976945514
 10
766.9829395242116
 20
827.1509443950932
 10
768.5629124894793
 20
836.1114167506483
  0
LWPOLYLINE
  5
182
330
1F
100
AcDbEntity
  8
Hewi
370
    13
100
AcDbPolyline
 90
       26
 70
     0
 43
0.0
 10
1096.262901039235
 20
836.1114167506483
 10
1097.842874004503
 20
827.1509443950932
 10
1098.116900835313
 20
826.5156787677264
 10
1098.355904201566
 20
826.2623499880842
 10
1098.646886835627
 20
826.0709676903754
 10
1099.320085582405
 20
825.9114166492745
 10
1099.555248080166
 20
825.9114166492745
 10
1100.24706878386
 20
825.9114166492745
 10
1101.355341588855
 20
825.9114166492745
 10
1102.815657708129
 20
825.9114166492745
 10
1104.543148876867
 20
825.9114166492745
 10
1106.437419587516
 20
825.9114166492745
 10
1108.388381711765
 20
825.9114166492745
 10
1110.282652422414
 20
825.9114166492745
 10
1112.010143591151
 20
825.9114166492745
 10
1113.470459710427
 20
825.9114166492745
 10
1114.57873251542
 20
825.9114166492745
 10
1115.270553219114
 20
825.9114166492745
 10
1115.505715716875
 20
825.9114166492745
 10
1115.851638700221
 20
825.9518486928813
 10
1116.178915052074
 20
826.0709681484241
 10
1116.469897077244
 20
826.2623500124806
 10
1116.708899910698
 20
826.5156782677841
 10
1116.88304061088
 20
826.8172976945514
 10
1116.982927294778
 20
827.1509443950932
 10
1118.562900260046
 20
836.1114167506483
  0
LWPOLYLINE
  5
183
330
1F
100
AcDbEntity
  8
Hewi
370
    13
100
AcDbPolyline
 90
        7
 70
     0
 43
0.0
 10
987.2629048478316
 20
2141.375049591476
 10
987.2629048478316
 20
2150.37504965112
 10
987.3193170434511
 20
2150.875721757499
 10
987.4857248872652
 20
2151.351288073838
 10
987.7537839951267
 20
2151.777901719244
 10
988.1100527640493
 20
2152.134170504157
 10
988.5129047978507
 20
2152.387299225275
  0
LWPOLYLINE
  5
184
330
1F
100
AcDbEntity
  8
Hewi
370
    13
100
AcDbPolyline
 90
        6
 70
     0
 43
0.0
 10
987.2629048478316
 20
2107.425049224255
 10
984.9629049281967
 20
2107.425049224255
 10
984.9629049281967
 20
2107.507391281175
 10
984.9629049281967
 20
2107.590922025013
 10
984.9629049281967
 20
2107.675049226739
 10
984.9629049281967
 20
2124.175049390726
  0
LINE
  5
185
330
1F
100
AcDbEntity
  8
Hewi
370
    13
100
AcDbLine
 10
987.2629048478316
 20
2124.175049390726
 30
0.0
 11
984.9629049281967
 21
2124.175049390726
 31
0.0
  0
LWPOLYLINE
  5
186
330
1F
100
AcDbEntity
  8
Hewi
370
    13
100
AcDbPolyline
 90
       28
 70
     0
 43
0.0
 10
996.6842227562379
 20
1860.375046798578
 10
999.5796855172116
 20
1856.226786494646
 10
999.6274597569373
 20
1856.169375190253
 10
999.6856722806736
 20
1856.13093869672
 10
999.7511814213307
 20
1856.107016725883
 10
999.8204391299127
 20
1856.098905022662
 10
999.917636431919
 20
1856.098923432614
 10
999.928297432894
 20
1856.098925451893
 10
1000.431722522627
 20
1856.099020804659
 10
1001.277657208812
 20
1856.099181031501
 10
1002.52132082315
 20
1856.099416591405
 10
1004.051724925066
 20
1856.099706462266
 10
1005.71654134326
 20
1856.100021791902
 10
1007.353642536451
 20
1856.100331872051
 10
1008.837905172671
 20
1856.100613003348
 10
1010.234967199701
 20
1856.100877618147
 10
1011.464228980942
 20
1856.101110450227
 10
1012.472931638255
 20
1856.101301506633
 10
1013.240933784847
 20
1856.101446972424
 10
1013.77632123695
 20
1856.101548379118
 10
1014.105997011146
 20
1856.101610822366
 10
1014.265789179397
 20
1856.101641088289
 10
1014.28846049902
 20
1856.10164538242
 10
1014.357727380009
 20
1856.109783323314
 10
1014.42323904365
 20
1856.133730110546
 10
1014.481447301086
 20
1856.172188655113
 10
1014.524390628525
 20
1856.229617142143
 10
1017.418515924118
 20
1860.375046768229
  0
LWPOLYLINE
  5
187
330
1F
100
AcDbEntity
  8
Hewi
370
    13
100
AcDbPolyline
 90
       10
 70
     0
 43
0.0
 10
987.2629048478316
 20
2125.175049400665
 10
986.5129048740378
 20
2125.175049400665
 10
986.5129048740378
 20
2139.375049541793
 10
986.5129048740378
 20
2139.820091414129
 10
986.5129048740378
 20
2140.242817028653
 10
986.5129048740378
 20
2140.622029157905
 10
986.5129048740378
 20
2140.93871252227
 10
986.5129048740378
 20
2141.176987295507
 10
986.5129048740378
 20
2141.324905385536
 10
986.5129048740378
 20
2141.37504956167
  0
LWPOLYLINE
  5
188
330
1F
100
AcDbEntity
  8
Hewi
370
    13
100
AcDbPolyline
 90
        3
 70
     0
 43
0.0
 10
1005.828458076561
 20
1840.451062961758
 10
1005.828373036218
 20
1840.900042550003
 10
1005.728727449306
 20
1840.900023676326
  0
LWPOLYLINE
  5
189
330
1F
100
AcDbEntity
  8
Hewi
370
    13
100
AcDbPolyline
 90
       17
 70
     0
 43
0.0
 10
1006.085694891929
 20
1827.339004712373
 10
1005.89831124797
 20
1827.627036863521
 10
1005.630316123657
 20
1828.842112164128
 10
1005.614812996402
 20
1828.964272904713
 10
1005.601936370603
 20
1829.123855105866
 10
1005.592314510819
 20
1829.313072578951
 10
1005.524014263165
 20
1831.321709863912
 10
1005.476827418967
 20
1833.294505284001
 10
1005.44508821576
 20
1836.742658859156
 10
1005.481252519352
 20
1840.075540241459
 10
1005.585320329742
 20
1843.293149430909
 10
1005.594668356925
 20
1843.462517276042
 10
1005.606702476952
 20
1843.605907249808
 10
1005.620927846092
 20
1843.717423147952
 10
1005.748786962094
 20
1844.412164446043
 10
1005.878890734816
 20
1844.923009238943
 10
1006.069079440665
 20
1845.265952225366
  0
LWPOLYLINE
  5
18A
330
1F
100
AcDbEntity
  8
Hewi
370
    13
100
AcDbPolyline
 90
       11
 70
     0
 43
0.0
 10
986.5129048740378
 20
2141.37504956167
 10
984.2129049544034
 20
2141.37504956167
 10
984.2129049544034
 20
2141.324905385536
 10
984.2129049544034
 20
2141.176987295507
 10
984.2129049544034
 20
2140.93871252227
 10
984.2129049544034
 20
2140.622029157905
 10
984.2129049544034
 20
2140.242817028653
 10
984.2129049544034
 20
2139.820091414129
 10
984.2129049544034
 20
2139.375049541793
 10
984.2129049544034
 20
2124.175049390726
 10
984.9629049013747
 20
2124.175049390726
  0
LWPOLYLINE
  5
18B
330
1F
100
AcDbEntity
  8
Hewi
370
    13
100
AcDbPolyline
 90
       27
 70
     0
 43
0.0
 10
1006.025471073779
 20
1838.859263498538
 10
1006.125116660691
 20
1838.859282372214
 10
1006.132826927697
 20
1838.864743767348
 10
1006.135944204801
 20
1838.870382272005
 10
1006.139993712955
 20
1838.881124929036
 10
1006.145667069341
 20
1838.903677660494
 10
1006.149437741902
 20
1838.924382174232
 10
1006.155231845293
 20
1838.967202429712
 10
1006.157734566147
 20
1838.990689333382
 10
1006.163204743401
 20
1839.055551921399
 10
1006.165607772756
 20
1839.091397804361
 10
1006.171137655465
 20
1839.198289111488
 10
1006.172967348325
 20
1839.24423188159
 10
1006.178007274798
 20
1839.42309764724
 10
1006.179564948833
 20
1839.509429271213
 10
1006.182195436614
 20
1839.899471670284
 10
1006.182180245308
 20
1839.926095389027
 10
1006.181473643869
 20
1840.107841029832
 10
1006.17939148558
 20
1840.293580496226
 10
1006.174866716968
 20
1840.494227971194
 10
1006.170073702894
 20
1840.621433714258
 10
1006.164097182542
 20
1840.728428263179
 10
1006.157024242529
 20
1840.813813669726
 10
1006.148867996411
 20
1840.877379429973
 10
1006.138842481186
 20
1840.921522624318
 10
1006.124722382741
 20
1840.940915008625
 10
1006.025076795829
 20
1840.940896134947
  0
LINE
  5
18C
330
1F
100
AcDbEntity
  8
Hewi
370
    13
100
AcDbLine
 10
987.2629047047807
 20
2141.37504956167
 30
0.0
 11
986.5129048740378
 21
2141.37504956167
 31
0.0
  0
LWPOLYLINE
  5
18D
330
1F
100
AcDbEntity
  8
Hewi
370
    13
100
AcDbPolyline
 90
        3
 70
     0
 43
0.0
 10
1006.588585587789
 20
1839.303460230787
 10
1006.576462972449
 20
1839.485218218422
 10
1006.476817385538
 20
1839.485199344747
  0
LINE
  5
18E
330
1F
100
AcDbEntity
  8
Hewi
370
    13
100
AcDbLine
 10
1010.319811024998
 20
1856.171400407689
 30
0.0
 11
1009.241791144123
 21
1856.22861657526
 31
0.0
  0
LINE
  5
18F
330
1F
100
AcDbEntity
  8
Hewi
370
    13
100
AcDbLine
 10
882.4129085114195
 20
2153.848379472921
 30
0.0
 11
882.4129085114195
 21
844.1114168301572
 31
0.0
  0
LINE
  5
190
330
1F
100
AcDbEntity
  8
Hewi
370
    13
100
AcDbLine
 10
982.4129050172954
 20
844.1114168301572
 30
0.0
 11
982.4129050172954
 21
2153.848379472921
 31
0.0
  0
LWPOLYLINE
  5
191
330
1F
100
AcDbEntity
  8
Hewi
370
    13
100
AcDbPolyline
 90
        3
 70
     0
 43
0.0
 10
1006.446564701849
 20
1838.90015958473
 10
1006.546210288762
 20
1838.900178458406
 10
1006.588585587789
 20
1839.303460230787
  0
LWPOLYLINE
  5
192
330
1F
100
AcDbEntity
  8
Hewi
370
    13
100
AcDbPolyline
 90
        7
 70
     0
 43
0.0
 10
1006.304715153574
 20
1838.859316389615
 10
1006.404360740486
 20
1838.859335263291
 10
1006.412071007492
 20
1838.864796658426
 10
1006.415188284596
 20
1838.870435163083
 10
1006.41923779275
 20
1838.881177820114
 10
1006.424911149136
 20
1838.903730551572
 10
1006.427213393449
 20
1838.916372022887
  0
LWPOLYLINE
  5
193
330
1F
100
AcDbEntity
  8
Hewi
370
    13
100
AcDbPolyline
 90
        4
 70
     0
 43
0.0
 10
1006.426840892708
 20
1840.883029449872
 10
1006.418086560981
 20
1840.921575515396
 10
1006.403966462537
 20
1840.940967899701
 10
1006.304320875624
 20
1840.940949026025
  0
LWPOLYLINE
  5
194
330
1F
100
AcDbEntity
  8
Hewi
370
    13
100
AcDbPolyline
 90
       26
 70
     1
 43
0.0
 10
1006.415397721869
 20
1832.898442674867
 10
1006.397314060732
 20
1833.461958034775
 10
1006.368421701553
 20
1833.957951291648
 10
1006.330399763227
 20
1834.35759712026
 10
1006.285457942603
 20
1834.637669557705
 10
1006.236208094942
 20
1834.781891811939
 10
1006.185512442372
 20
1834.781882209774
 10
1006.136317231948
 20
1834.637641309253
 10
1006.091481510487
 20
1834.357551867219
 10
1006.053610967146
 20
1833.95789166396
 10
1006.02490650025
 20
1833.461887497784
 10
1006.00703630908
 20
1832.898365327927
 10
1006.001038944189
 20
1832.30007501458
 10
1006.007262950627
 20
1831.70178701606
 10
1006.025346611763
 20
1831.138271656152
 10
1006.054238970942
 20
1830.642278399278
 10
1006.092260909269
 20
1830.242632570666
 10
1006.137202729894
 20
1829.962560133222
 10
1006.186452577554
 20
1829.818337878988
 10
1006.237148230125
 20
1829.818347481153
 10
1006.286343440548
 20
1829.962588381674
 10
1006.331179162009
 20
1830.242677823707
 10
1006.369049705351
 20
1830.642338026965
 10
1006.397754172247
 20
1831.138342193143
 10
1006.415624363417
 20
1831.701864363001
 10
1006.421621728307
 20
1832.300154676347
  0
LWPOLYLINE
  5
195
330
1F
100
AcDbEntity
  8
Hewi
370
    13
100
AcDbPolyline
 90
        6
 70
     0
 43
0.0
 10
1005.88584903388
 20
1838.859237052998
 10
1005.985494620793
 20
1838.859255926676
 10
1005.993204887799
 20
1838.864717321809
 10
1005.996322164902
 20
1838.870355826467
 10
1006.000371673057
 20
1838.881098483498
 10
1006.005884923956
 20
1838.903014763479
  0
LWPOLYLINE
  5
196
330
1F
100
AcDbEntity
  8
Hewi
370
    13
100
AcDbPolyline
 90
        4
 70
     0
 43
0.0
 10
1006.004754072598
 20
1840.897131130516
 10
1005.999220441289
 20
1840.92149617878
 10
1005.985100342844
 20
1840.940888563085
 10
1005.885454755931
 20
1840.940869689409
  0
LWPOLYLINE
  5
197
330
1F
100
AcDbEntity
  8
Hewi
370
    13
100
AcDbPolyline
 90
       25
 70
     0
 43
0.0
 10
1006.304715153574
 20
1838.859316389615
 10
1006.31242542058
 20
1838.864777784749
 10
1006.315542697683
 20
1838.870416289406
 10
1006.319592205837
 20
1838.881158946437
 10
1006.325265562223
 20
1838.903711677896
 10
1006.329036234785
 20
1838.924416191632
 10
1006.334830338176
 20
1838.967236447113
 10
1006.33733305903
 20
1838.990723350783
 10
1006.342803236285
 20
1839.055585938799
 10
1006.345206265639
 20
1839.091431821762
 10
1006.350736148348
 20
1839.198323128889
 10
1006.352565841208
 20
1839.244265898991
 10
1006.35760576768
 20
1839.423131664641
 10
1006.359163441716
 20
1839.509463288614
 10
1006.361793929497
 20
1839.899505687685
 10
1006.36177873819
 20
1839.926129406428
 10
1006.361072136751
 20
1840.107875047233
 10
1006.358989978462
 20
1840.293614513627
 10
1006.354465209851
 20
1840.494261988594
 10
1006.349672195776
 20
1840.621467731658
 10
1006.343695675425
 20
1840.72846228058
 10
1006.336622735412
 20
1840.813847687127
 10
1006.328466489294
 20
1840.877413447375
 10
1006.318440974069
 20
1840.921556641719
 10
1006.304320875624
 20
1840.940949026025
  0
LINE
  5
198
330
1F
100
AcDbEntity
  8
Hewi
370
    13
100
AcDbLine
 10
1006.488940000876
 20
1839.30344135711
 30
0.0
 11
1006.588585587789
 21
1839.303460230787
 31
0.0
  0
LWPOLYLINE
  5
199
330
1F
100
AcDbEntity
  8
Hewi
370
    13
100
AcDbPolyline
 90
        4
 70
     0
 43
0.0
 10
1006.448582064844
 20
1840.900160022588
 10
1006.426837648794
 20
1840.90015590402
 10
1006.427216464863
 20
1838.900155920018
 10
1006.446564701849
 20
1838.90015958473
  0
LWPOLYLINE
  5
19A
330
1F
100
AcDbEntity
  8
Hewi
370
    13
100
AcDbPolyline
 90
       25
 70
     0
 43
0.0
 10
1006.304320875624
 20
1840.940949026025
 10
1006.296639074849
 20
1840.935487634164
 10
1006.293532586477
 20
1840.929849129362
 10
1006.289496375862
 20
1840.919106470679
 10
1006.283840074205
 20
1840.896553733698
 10
1006.280079536762
 20
1840.875849213845
 10
1006.274298696683
 20
1840.833028944256
 10
1006.271800656957
 20
1840.809542032358
 10
1006.266337871116
 20
1840.744679420564
 10
1006.263936545235
 20
1840.708833524012
 10
1006.258407171255
 20
1840.601921713473
 10
1006.256577485436
 20
1840.555947545096
 10
1006.25153760329
 20
1840.376863691908
 10
1006.249979957752
 20
1840.290386557189
 10
1006.247349634499
 20
1839.899484011014
 10
1006.247364813259
 20
1839.872926502932
 10
1006.248071333873
 20
1839.691605473827
 10
1006.250153420448
 20
1839.506238202632
 10
1006.254678129801
 20
1839.305889485903
 10
1006.259471121712
 20
1839.178785777176
 10
1006.265446424281
 20
1839.071803072243
 10
1006.272510344131
 20
1838.986417697303
 10
1006.280648772856
 20
1838.922851958482
 10
1006.290645164246
 20
1838.878708775845
 10
1006.304715153574
 20
1838.859316389615
  0
LINE
  5
19B
330
1F
100
AcDbEntity
  8
Hewi
370
    13
100
AcDbLine
 10
1006.488940000876
 20
1839.30344135711
 30
0.0
 11
1006.476817385538
 21
1839.485199344747
 31
0.0
  0
LWPOLYLINE
  5
19C
330
1F
100
AcDbEntity
  8
Hewi
370
    13
100
AcDbPolyline
 90
        3
 70
     0
 43
0.0
 10
1006.476817385538
 20
1839.485199344747
 10
1006.448904026327
 20
1839.200329909582
 10
1006.448582064844
 20
1840.900160022588
  0
LWPOLYLINE
  5
19D
330
1F
100
AcDbEntity
  8
Hewi
370
    13
100
AcDbPolyline
 90
       25
 70
     0
 43
0.0
 10
1006.025471073779
 20
1838.859263498538
 10
1006.033181340785
 20
1838.864724893672
 10
1006.036298617888
 20
1838.870363398328
 10
1006.040348126042
 20
1838.88110605536
 10
1006.046021482429
 20
1838.903658786817
 10
1006.04979215499
 20
1838.924363300555
 10
1006.05558625838
 20
1838.967183556036
 10
1006.058088979235
 20
1838.990670459705
 10
1006.063559156489
 20
1839.055533047722
 10
1006.065962185844
 20
1839.091378930685
 10
1006.071492068553
 20
1839.198270237811
 10
1006.073321761413
 20
1839.244213007914
 10
1006.078361687885
 20
1839.423078773564
 10
1006.079919361921
 20
1839.509410397536
 10
1006.082549849701
 20
1839.899452796608
 10
1006.082534658396
 20
1839.926076515351
 10
1006.081828056957
 20
1840.107822156156
 10
1006.079745898667
 20
1840.29356162255
 10
1006.075221130056
 20
1840.494209097517
 10
1006.070428115981
 20
1840.62141484058
 10
1006.06445159563
 20
1840.728409389503
 10
1006.057378655617
 20
1840.813794796049
 10
1006.049222409498
 20
1840.877360556297
 10
1006.039196894274
 20
1840.921503750642
 10
1006.025076795829
 20
1840.940896134947
  0
LINE
  5
19E
330
1F
100
AcDbEntity
  8
Hewi
370
    13
100
AcDbLine
 10
1006.446564701849
 20
1838.90015958473
 30
0.0
 11
1006.488940000876
 21
1839.30344135711
 31
0.0
  0
LWPOLYLINE
  5
19F
330
1F
100
AcDbEntity
  8
Hewi
370
    13
100
AcDbPolyline
 90
        3
 70
     0
 43
0.0
 10
1006.448582064844
 20
1840.900160022588
 10
1006.548227651756
 20
1840.900178896264
 10
1006.548495657684
 20
1839.48521291371
  0
LWPOLYLINE
  5
1A0
330
1F
100
AcDbEntity
  8
Hewi
370
    13
100
AcDbPolyline
 90
       21
 70
     0
 43
0.0
 10
1006.00459599441
 20
1840.896500842621
 10
1006.000835456966
 20
1840.875796322768
 10
1005.995054616888
 20
1840.832976053179
 10
1005.992556577162
 20
1840.80948914128
 10
1005.987093791321
 20
1840.744626529486
 10
1005.984692465439
 20
1840.708780632934
 10
1005.97916309146
 20
1840.601868822396
 10
1005.97733340564
 20
1840.555894654019
 10
1005.972293523496
 20
1840.376810800831
 10
1005.970735877957
 20
1840.290333666111
 10
1005.968105554704
 20
1839.899431119937
 10
1005.968120733464
 20
1839.872873611855
 10
1005.968827254078
 20
1839.69155258275
 10
1005.970909340653
 20
1839.506185311555
 10
1005.975434050006
 20
1839.305836594825
 10
1005.980227041916
 20
1839.178732886099
 10
1005.986202344485
 20
1839.071750181166
 10
1005.993266264336
 20
1838.986364806225
 10
1006.001404693061
 20
1838.922799067405
 10
1006.011401084451
 20
1838.878655884767
 10
1006.025471073779
 20
1838.859263498538
  0
LWPOLYLINE
  5
1A1
330
1F
100
AcDbEntity
  8
Hewi
370
    13
100
AcDbPolyline
 90
        5
 70
     0
 43
0.0
 10
1006.025076795829
 20
1840.940896134947
 10
1006.017394995053
 20
1840.935434743087
 10
1006.014288506682
 20
1840.929796238284
 10
1006.010252296066
 20
1840.919053579602
 10
1006.00459599441
 20
1840.896500842621
  0
LWPOLYLINE
  5
1A2
330
1F
100
AcDbEntity
  8
Hewi
370
    13
100
AcDbPolyline
 90
       25
 70
     0
 43
0.0
 10
1005.88584903388
 20
1838.859237052998
 10
1005.893559300887
 20
1838.864698448133
 10
1005.89667657799
 20
1838.87033695279
 10
1005.900726086144
 20
1838.881079609822
 10
1005.906399442531
 20
1838.90363234128
 10
1005.910170115092
 20
1838.924336855017
 10
1005.915964218482
 20
1838.967157110497
 10
1005.918466939337
 20
1838.990644014167
 10
1005.923937116592
 20
1839.055506602184
 10
1005.926340145947
 20
1839.091352485146
 10
1005.931870028654
 20
1839.198243792273
 10
1005.933699721515
 20
1839.244186562375
 10
1005.938739647987
 20
1839.423052328025
 10
1005.940297322023
 20
1839.509383951998
 10
1005.942927809805
 20
1839.899426351069
 10
1005.942912618498
 20
1839.926050069812
 10
1005.942206017059
 20
1840.107795710617
 10
1005.94012385877
 20
1840.293535177011
 10
1005.935599090158
 20
1840.494182651978
 10
1005.930806076083
 20
1840.621388395042
 10
1005.924829555733
 20
1840.728382943964
 10
1005.917756615718
 20
1840.81376835051
 10
1005.909600369601
 20
1840.877334110758
 10
1005.899574854376
 20
1840.921477305103
 10
1005.885454755931
 20
1840.940869689409
  0
LWPOLYLINE
  5
1A3
330
1F
100
AcDbEntity
  8
Hewi
370
    13
100
AcDbPolyline
 90
       25
 70
     0
 43
0.0
 10
1005.885454755931
 20
1840.940869689409
 10
1005.877772955156
 20
1840.935408297548
 10
1005.874666466786
 20
1840.929769792746
 10
1005.870630256168
 20
1840.919027134064
 10
1005.864973954512
 20
1840.896474397082
 10
1005.861213417069
 20
1840.875769877229
 10
1005.85543257699
 20
1840.832949607641
 10
1005.852934537264
 20
1840.809462695741
 10
1005.847471751423
 20
1840.744600083949
 10
1005.845070425541
 20
1840.708754187395
 10
1005.839541051562
 20
1840.601842376857
 10
1005.837711365742
 20
1840.55586820848
 10
1005.832671483597
 20
1840.376784355292
 10
1005.831113838058
 20
1840.290307220572
 10
1005.828483514806
 20
1839.899404674398
 10
1005.828498693566
 20
1839.872847166316
 10
1005.829205214179
 20
1839.691526137212
 10
1005.831287300754
 20
1839.506158866016
 10
1005.835812010109
 20
1839.305810149287
 10
1005.840605002018
 20
1839.178706440559
 10
1005.846580304588
 20
1839.071723735628
 10
1005.853644224439
 20
1838.986338360687
 10
1005.861782653163
 20
1838.922772621866
 10
1005.871779044553
 20
1838.878629439229
 10
1005.88584903388
 20
1838.859237052998
  0
LWPOLYLINE
  5
1A4
330
1F
100
AcDbEntity
  8
Hewi
370
    13
100
AcDbPolyline
 90
        3
 70
     0
 43
0.0
 10
1005.735668925777
 20
1838.900024935346
 10
1005.808972297744
 20
1840.193406007957
 10
1005.808923496148
 20
1840.451059261751
  0
LWPOLYLINE
  5
1A5
330
1F
100
AcDbEntity
  8
Hewi
370
    13
100
AcDbPolyline
 90
        8
 70
     0
 43
0.0
 10
1005.728727449306
 20
1840.900023676326
 10
1005.706983033256
 20
1840.900019557759
 10
1005.707068073598
 20
1840.451039969514
 10
1005.683034771648
 20
1840.451035417413
 10
1005.68307600333
 20
1840.233348344324
 10
1005.707109305279
 20
1840.233352896425
 10
1005.707361849326
 20
1838.900019573757
 10
1005.735668925777
 20
1838.900024935346
  0
LWPOLYLINE
  5
1A6
330
1F
100
AcDbEntity
  8
Hewi
370
    13
100
AcDbPolyline
 90
       32
 70
     1
 43
0.0
 10
1006.613540526799
 20
1843.551980714277
 10
1006.626993163489
 20
1843.399261848542
 10
1006.637304007804
 20
1843.215233577053
 10
1006.694658634805
 20
1841.709719625795
 10
1006.736898292762
 20
1840.178524440496
 10
1006.775736511601
 20
1837.135317642249
 10
1006.753809361534
 20
1833.740131237564
 10
1006.635246963695
 20
1829.393092986078
 10
1006.624877216516
 20
1829.189860560695
 10
1006.610756840528
 20
1829.021612238063
 10
1006.593685231947
 20
1828.897873093254
 10
1006.42689123588
 20
1828.107919648467
 10
1006.262997998685
 20
1827.563227543464
 10
1005.976344423664
 20
1827.200716825101
 10
1005.69902007404
 20
1827.626999116245
 10
1005.431024949812
 20
1828.842074416898
 10
1005.41552182254
 20
1828.964235157327
 10
1005.402645196755
 20
1829.123817358414
 10
1005.393023337002
 20
1829.313034831376
 10
1005.324723089347
 20
1831.321672116393
 10
1005.277536245147
 20
1833.294467536529
 10
1005.245797041937
 20
1836.742621111752
 10
1005.281961345528
 20
1840.075502494093
 10
1005.386029155917
 20
1843.293111683556
 10
1005.3953771831
 20
1843.462479528688
 10
1005.407411303128
 20
1843.605869502454
 10
1005.421636672268
 20
1843.717385400598
 10
1005.549495788269
 20
1844.41212669869
 10
1005.679599560993
 20
1844.922971491589
 10
1005.938355440266
 20
1845.389552898716
 10
1006.227297199398
 20
1845.116355952312
 10
1006.59760246647
 20
1843.665938855108
  0
LWPOLYLINE
  5
1A7
330
1F
100
AcDbEntity
  8
Hewi
370
    13
100
AcDbPolyline
 90
        3
 70
     0
 43
0.0
 10
1005.808923496148
 20
1840.451059261751
 10
1005.728812489647
 20
1840.451044088081
 10
1005.728727449306
 20
1840.900023676326
  0
LWPOLYLINE
  5
1A8
330
1F
100
AcDbEntity
  8
Hewi
370
    13
100
AcDbPolyline
 90
        3
 70
     0
 43
0.0
 10
1005.84581806971
 20
1839.085370915816
 10
1005.83531451269
 20
1838.900043809022
 10
1005.735668925777
 20
1838.900024935346
  0
LWPOLYLINE
  5
1A9
330
1F
100
AcDbEntity
  8
Hewi
370
    13
100
AcDbPolyline
 90
       50
 70
     1
 43
0.0
 10
1006.32247036538
 20
1840.629680680121
 10
1006.318527842777
 20
1840.670623240791
 10
1006.314156880811
 20
1840.699867632479
 10
1006.30935747948
 20
1840.717413855184
 10
1006.304129638784
 20
1840.723261908905
 10
1006.300995519449
 20
1840.721145824491
 10
1006.298649393202
 20
1840.716539035795
 10
1006.298014006976
 20
1840.714798787408
 10
1006.293654046054
 20
1840.696372584312
 10
1006.293104242301
 20
1840.693152620316
 10
1006.28901167386
 20
1840.661507260131
 10
1006.288340220638
 20
1840.654844432943
 10
1006.284822445159
 20
1840.611444362891
 10
1006.283823211852
 20
1840.596056857267
 10
1006.279724796986
 20
1840.513435764428
 10
1006.278926411722
 20
1840.492593731485
 10
1006.275056262668
 20
1840.35274418062
 10
1006.274533133623
 20
1840.325832708389
 10
1006.271399465266
 20
1839.950049120133
 10
1006.271381607673
 20
1839.906503976228
 10
1006.27270566791
 20
1839.619496930792
 10
1006.273101200967
 20
1839.583332936345
 10
1006.276557902671
 20
1839.391743282895
 10
1006.279894278444
 20
1839.288201907482
 10
1006.282925813722
 20
1839.223668189439
 10
1006.286396711119
 20
1839.170868062294
 10
1006.290306970634
 20
1839.129801526048
 10
1006.294656592269
 20
1839.100468580702
 10
1006.299445576021
 20
1839.082869226253
 10
1006.304673921892
 20
1839.077003462704
 10
1006.307872843898
 20
1839.079119558345
 10
1006.310264902595
 20
1839.083726353463
 10
1006.310912308389
 20
1839.085466603265
 10
1006.315349217359
 20
1839.10389281182
 10
1006.315907960219
 20
1839.107112775916
 10
1006.320060523025
 20
1839.13875813181
 10
1006.320740565195
 20
1839.145420957329
 10
1006.324296097049
 20
1839.188821013061
 10
1006.325303446455
 20
1839.204208512611
 10
1006.329418516664
 20
1839.286829567731
 10
1006.330216899619
 20
1839.30768816853
 10
1006.334086908202
 20
1839.448300584217
 10
1006.334609991592
 20
1839.475455979019
 10
1006.337742671874
 20
1839.85647368382
 10
1006.337760385952
 20
1839.900776665242
 10
1006.336409979788
 20
1840.184090869786
 10
1006.336006243593
 20
1840.219853303187
 10
1006.332477016018
 20
1840.409695025544
 10
1006.32907009249
 20
1840.51270105183
 10
1006.325984448616
 20
1840.577039950467
  0
LWPOLYLINE
  5
1AA
330
1F
100
AcDbEntity
  8
Hewi
370
    13
100
AcDbPolyline
 90
       50
 70
     1
 43
0.0
 10
1006.004579132056
 20
1840.596003966189
 10
1006.000480717191
 20
1840.51338287335
 10
1005.999682331926
 20
1840.492540840407
 10
1005.995812182873
 20
1840.352691289542
 10
1005.995289053827
 20
1840.325779817311
 10
1005.99215538547
 20
1839.949996229056
 10
1005.992137527878
 20
1839.906451085151
 10
1005.993461588115
 20
1839.619444039714
 10
1005.993857121172
 20
1839.583280045267
 10
1005.997313822876
 20
1839.391690391818
 10
1006.000650198648
 20
1839.288149016406
 10
1006.003681733927
 20
1839.223615298361
 10
1006.007152631324
 20
1839.170815171216
 10
1006.011062890839
 20
1839.129748634971
 10
1006.015412512474
 20
1839.100415689624
 10
1006.020201496226
 20
1839.082816335176
 10
1006.025429842097
 20
1839.076950571626
 10
1006.028628764103
 20
1839.079066667268
 10
1006.0310208228
 20
1839.083673462385
 10
1006.031668228594
 20
1839.085413712187
 10
1006.036105137564
 20
1839.103839920743
 10
1006.036663880424
 20
1839.107059884839
 10
1006.04081644323
 20
1839.138705240733
 10
1006.041496485399
 20
1839.145368066251
 10
1006.045052017253
 20
1839.188768121983
 10
1006.04605936666
 20
1839.204155621533
 10
1006.050174436869
 20
1839.286776676653
 10
1006.050972819823
 20
1839.307635277452
 10
1006.054842828406
 20
1839.448247693139
 10
1006.055365911796
 20
1839.475403087941
 10
1006.058498592078
 20
1839.856420792743
 10
1006.058516306157
 20
1839.900723774164
 10
1006.057165899993
 20
1840.184037978708
 10
1006.056762163798
 20
1840.219800412109
 10
1006.053232936222
 20
1840.409642134468
 10
1006.049826012694
 20
1840.512648160754
 10
1006.046740368821
 20
1840.57698705939
 10
1006.043226285584
 20
1840.629627789044
 10
1006.039283762982
 20
1840.670570349714
 10
1006.034912801015
 20
1840.699814741402
 10
1006.030113399684
 20
1840.717360964106
 10
1006.024885558989
 20
1840.723209017828
 10
1006.021751439653
 20
1840.721092933414
 10
1006.019405313408
 20
1840.716486144717
 10
1006.018769927181
 20
1840.714745896331
 10
1006.014409966259
 20
1840.696319693235
 10
1006.013860162506
 20
1840.693099729239
 10
1006.009767594064
 20
1840.661454369053
 10
1006.009096140842
 20
1840.654791541866
 10
1006.005578365363
 20
1840.611391471813
  0
LWPOLYLINE
  5
1AB
330
1F
100
AcDbEntity
  8
Hewi
370
    13
100
AcDbPolyline
 90
       50
 70
     1
 43
0.0
 10
1005.869474100945
 20
1840.654765096327
 10
1005.865956325466
 20
1840.611365026275
 10
1005.864957092158
 20
1840.59597752065
 10
1005.860858677293
 20
1840.513356427811
 10
1005.860060292029
 20
1840.492514394868
 10
1005.856190142976
 20
1840.352664844003
 10
1005.85566701393
 20
1840.325753371773
 10
1005.852533345573
 20
1839.949969783518
 10
1005.85251548798
 20
1839.906424639613
 10
1005.853839548218
 20
1839.619417594176
 10
1005.854235081273
 20
1839.583253599728
 10
1005.857691782979
 20
1839.391663946279
 10
1005.861028158751
 20
1839.288122570867
 10
1005.864059694029
 20
1839.223588852823
 10
1005.867530591426
 20
1839.170788725678
 10
1005.871440850943
 20
1839.129722189432
 10
1005.875790472576
 20
1839.100389244085
 10
1005.880579456329
 20
1839.082789889637
 10
1005.8858078022
 20
1839.076924126088
 10
1005.889006724206
 20
1839.079040221729
 10
1005.891398782903
 20
1839.083647016847
 10
1005.892046188697
 20
1839.085387266649
 10
1005.896483097668
 20
1839.103813475204
 10
1005.897041840525
 20
1839.1070334393
 10
1005.901194403332
 20
1839.138678795194
 10
1005.901874445501
 20
1839.145341620712
 10
1005.905429977356
 20
1839.188741676444
 10
1005.906437326763
 20
1839.204129175994
 10
1005.910552396972
 20
1839.286750231114
 10
1005.911350779925
 20
1839.307608831914
 10
1005.915220788508
 20
1839.448221247601
 10
1005.915743871899
 20
1839.475376642402
 10
1005.918876552181
 20
1839.856394347205
 10
1005.91889426626
 20
1839.900697328625
 10
1005.917543860096
 20
1840.18401153317
 10
1005.9171401239
 20
1840.219773966571
 10
1005.913610896326
 20
1840.409615688929
 10
1005.910203972796
 20
1840.512621715215
 10
1005.907118328924
 20
1840.576960613851
 10
1005.903604245686
 20
1840.629601343505
 10
1005.899661723084
 20
1840.670543904176
 10
1005.895290761118
 20
1840.699788295863
 10
1005.890491359787
 20
1840.717334518568
 10
1005.885263519091
 20
1840.723182572289
 10
1005.882129399756
 20
1840.721066487875
 10
1005.879783273511
 20
1840.716459699178
 10
1005.879147887283
 20
1840.714719450793
 10
1005.87478792636
 20
1840.696293247696
 10
1005.874238122608
 20
1840.6930732837
 10
1005.870145554167
 20
1840.661427923514
  0
LWPOLYLINE
  5
1AC
330
1F
100
AcDbEntity
  8
Hewi
370
    13
100
AcDbPolyline
 90
       40
 70
     0
 43
0.0
 10
1006.302052844906
 20
1855.500132675767
 10
1006.311414066727
 20
1855.4875984046
 10
1006.32031062665
 20
1855.450620566509
 10
1006.328296414015
 20
1855.391053384703
 10
1006.334970988095
 20
1855.31188380641
 10
1006.339999657877
 20
1855.217081724867
 10
1006.34313026486
 20
1855.111400912303
 10
1006.344205827335
 20
1855.000140645944
 10
1006.344834073402
 20
1851.6832482909
 10
1006.344857426373
 20
1851.627922619721
 10
1006.35757751319
 20
1849.97121997931
 10
1006.358255819801
 20
1849.926015295175
 10
1006.394194190857
 20
1848.329223954028
 10
1006.398563957474
 20
1848.187594971956
 10
1006.485639289808
 20
1846.163363032153
 10
1006.489102979007
 20
1846.10186475242
 10
1006.621231318873
 20
1844.287575620048
 10
1006.623915405118
 20
1844.258479125626
 10
1006.739307594345
 20
1842.740734772997
 10
1006.75652689138
 20
1842.456543014986
 10
1006.833341360902
 20
1840.87512488552
 10
1006.855881160613
 20
1840.255348886844
 10
1006.895009590378
 20
1838.779508888753
 10
1006.910639205269
 20
1837.801266334844
 10
1006.919384287019
 20
1836.579260283536
 10
1006.915959219951
 20
1835.291397706387
 10
1006.906113994471
 20
1834.412592739453
 10
1006.87483469564
 20
1832.923521855557
 10
1006.859269557459
 20
1832.403042059808
 10
1006.792712849382
 20
1830.771246956261
 10
1006.78077493394
 20
1830.538943769611
 10
1006.668547145834
 20
1828.827047769425
 10
1006.666734456125
 20
1828.80457627602
 10
1006.526528865405
 20
1827.39147889513
 10
1006.50216735125
 20
1827.199487668142
 10
1006.362767025756
 20
1826.331854967477
 10
1006.311347171568
 20
1826.098270031867
 10
1006.187976857887
 20
1825.701659082821
 10
1006.110551630255
 20
1825.562138008417
 10
1006.013327137058
 20
1825.500077152504
  0
LWPOLYLINE
  5
1AD
330
1F
100
AcDbEntity
  8
Hewi
370
    13
100
AcDbPolyline
 90
       14
 70
     0
 43
0.0
 10
1006.044074025853
 20
1855.500083694051
 10
1006.050085582538
 20
1853.625969166197
 10
1006.079713342954
 20
1851.799311909587
 10
1006.085475752455
 20
1851.656797932724
 10
1006.089790657889
 20
1851.5863506657
 10
1006.094100810428
 20
1851.540996821003
 10
1006.097868256715
 20
1851.51755688495
 10
1006.101694194976
 20
1851.50526883543
 10
1006.109342396351
 20
1851.500096063351
 10
1006.113665810252
 20
1851.501032003193
 10
1006.117988161437
 20
1851.507578668541
 10
1006.122073116639
 20
1851.523996171963
 10
1006.126155273331
 20
1851.55518869544
 10
1006.125408075577
 20
1855.500099217826
  0
LWPOLYLINE
  5
1AE
330
1F
100
AcDbEntity
  8
Hewi
370
    13
100
AcDbPolyline
 90
       17
 70
     0
 43
0.0
 10
1005.825189023616
 20
1855.500042045357
 10
1005.826232361464
 20
1854.119751691527
 10
1005.860311262797
 20
1851.820864809495
 10
1005.86567646188
 20
1851.67929415548
 10
1005.869694121573
 20
1851.606058905653
 10
1005.874153051669
 20
1851.551803671156
 10
1005.877453134113
 20
1851.526549244793
 10
1005.881850397746
 20
1851.507903968057
 10
1005.890639348609
 20
1851.500054639233
 10
1005.896976362737
 20
1851.50300095737
 10
1005.900282943687
 20
1851.510439314748
 10
1005.903310029889
 20
1851.523617982006
 10
1005.907132706091
 20
1851.552062038698
 10
1005.911715655187
 20
1851.608698417632
 10
1005.917816928094
 20
1851.73345062063
 10
1005.947260084544
 20
1853.458414794682
 10
1005.948930870296
 20
1855.500065682829
  0
LWPOLYLINE
  5
1AF
330
1F
100
AcDbEntity
  8
Hewi
370
    13
100
AcDbPolyline
 90
       31
 70
     0
 43
0.0
 10
1006.013327137058
 20
1825.500077152504
 10
1005.912361633356
 20
1825.566948973329
 10
1005.838601066288
 20
1825.701592908232
 10
1005.711391523651
 20
1826.113486217664
 10
1005.66357218264
 20
1826.331722534343
 10
1005.520494981153
 20
1827.224822426505
 10
1005.499408952182
 20
1827.391284350347
 10
1005.3568468654
 20
1828.826799322828
 10
1005.355938509898
 20
1828.838055567987
 10
1005.243970591651
 20
1830.538652686493
 10
1005.230004186518
 20
1830.809697108687
 10
1005.164769823397
 20
1832.402721107912
 10
1005.147855027384
 20
1832.964818342072
 10
1005.117164139679
 20
1834.412253897944
 10
1005.106623912006
 20
1835.336886361243
 10
1005.103073079623
 20
1836.578916259567
 10
1005.111906195016
 20
1837.84760345998
 10
1005.126614285012
 20
1838.779173940441
 10
1005.166631057282
 20
1840.298722509834
 10
1005.187488657071
 20
1840.874813147764
 10
1005.26588943059
 20
1842.493660536933
 10
1005.280815693898
 20
1842.740458522886
 10
1005.398305992746
 20
1844.287343988144
 10
1005.498568458309
 20
1845.585198451676
 10
1005.511359677007
 20
1845.788745905297
 10
1005.579519509
 20
1847.106813089968
 10
1005.598261008297
 20
1847.570728517803
 10
1005.646695822344
 20
1849.231516449908
 10
1005.657598083085
 20
1849.824562626668
 10
1005.671901618814
 20
1851.683120832073
 10
1005.671178668756
 20
1855.50001304528
  0
LWPOLYLINE
  5
1B0
330
1F
100
AcDbEntity
  8
Hewi
370
    13
100
AcDbPolyline
 90
        3
 70
     1
 43
0.0
 10
1005.78947343329
 20
1840.233368496853
 10
1005.728853721329
 20
1840.233357014993
 10
1005.728594862199
 20
1839.145346530433
  0
LWPOLYLINE
  5
1B1
330
1F
100
AcDbEntity
  8
Hewi
370
    13
100
AcDbPolyline
 90
       41
 70
     0
 43
0.0
 10
1008.294964583153
 20
1855.500510149299
 10
1008.304325804973
 20
1855.487975878132
 10
1008.313222364897
 20
1855.450998040041
 10
1008.321208152261
 20
1855.391430858237
 10
1008.327882726342
 20
1855.312261279943
 10
1008.332911396123
 20
1855.2174591984
 10
1008.336042003106
 20
1855.111778385835
 10
1008.337117565582
 20
1855.000518119476
 10
1008.337745811648
 20
1851.683625764432
 10
1008.33776916462
 20
1851.628300093253
 10
1008.350489251437
 20
1849.971597452842
 10
1008.351167558047
 20
1849.926392768707
 10
1008.387105929103
 20
1848.32960142756
 10
1008.39147569572
 20
1848.187972445487
 10
1008.478551028055
 20
1846.163740505685
 10
1008.482014717253
 20
1846.102242225952
 10
1008.614143057119
 20
1844.287953093581
 10
1008.616827143365
 20
1844.258856599158
 10
1008.732219332591
 20
1842.741112246528
 10
1008.749438629627
 20
1842.456920488519
 10
1008.826253099148
 20
1840.875502359052
 10
1008.848792898859
 20
1840.255726360376
 10
1008.887921328625
 20
1838.779886362285
 10
1008.903550943516
 20
1837.801643808376
 10
1008.912296025266
 20
1836.579637757069
 10
1008.908870958198
 20
1835.291775179919
 10
1008.899025732717
 20
1834.412970212985
 10
1008.867746433887
 20
1832.923899329089
 10
1008.852181295705
 20
1832.40341953334
 10
1008.785624587628
 20
1830.771624429793
 10
1008.773686672186
 20
1830.539321243143
 10
1008.66145888408
 20
1828.827425242957
 10
1008.659646194371
 20
1828.804953749551
 10
1008.519440603651
 20
1827.391856368663
 10
1008.495079089496
 20
1827.199865141674
 10
1008.355678764002
 20
1826.332232441009
 10
1008.304258909815
 20
1826.098647505399
 10
1008.180888596133
 20
1825.702036556351
 10
1008.103463368502
 20
1825.562515481948
 10
1008.006238875305
 20
1825.500454626036
 10
1006.013327137058
 20
1825.500077152504
  0
LWPOLYLINE
  5
1B2
330
1F
100
AcDbEntity
  8
Hewi
370
    13
100
AcDbPolyline
 90
       37
 70
     0
 43
0.0
 10
995.5742198940123
 20
2169.653450740294
 10
995.6263803619103
 20
2170.20840305265
 10
995.7803049908923
 20
2170.744127790778
 10
996.1143708988036
 20
2171.368712825333
 10
996.5855620651739
 20
2171.897566860581
 10
997.1676111186438
 20
2172.301207571472
 10
1174.255866666039
 20
2266.324704683886
 10
1176.725261644833
 20
2267.635546076283
 10
1179.075184606244
 20
2268.882967535069
 10
1181.191943719154
 20
2270.006617452058
 10
1182.973127873268
 20
2270.952132421007
 10
1184.332561440122
 20
2271.673767398381
 10
1185.204473543805
 20
2272.136608898365
 10
1185.464108469549
 20
2272.274432215615
 10
1185.55110009592
 20
2272.320610419433
 10
1186.002487516257
 20
2272.719955718474
 10
1186.345188857293
 20
2273.215720854105
 10
1186.559287562753
 20
2273.779093758671
 10
1186.632340994093
 20
2274.37733324674
 10
1186.560103551423
 20
2274.975671813775
 10
1186.346773412338
 20
2275.539336197134
 10
1186.004748549099
 20
2276.035568271693
 10
1185.553906203546
 20
2276.435528833006
 10
1185.020447694059
 20
2276.71597362705
 10
1184.435375690165
 20
2276.860604221769
 10
1183.832692450081
 20
2276.86101521271
 10
1183.247423733057
 20
2276.717182714572
 10
1182.71358322956
 20
2276.437465749337
 10
1182.630510028745
 20
2276.39336758312
 10
1182.382570023199
 20
2276.26175233935
 10
1181.549932075115
 20
2275.819758937483
 10
1180.251732439071
 20
2275.13062907647
 10
1178.550779426746
 20
2274.227703609209
 10
1176.529366996619
 20
2273.154667052776
 10
1174.285293282673
 20
2271.963434083934
 10
1171.9271290142
 20
2270.711637850552
 10
994.8278304714179
 20
2176.708943803992
  0
LINE
  5
1B3
330
1F
100
AcDbEntity
  8
Hewi
370
    13
100
AcDbLine
 10
1005.808923496148
 20
1840.451059261751
 30
0.0
 11
1005.834761908003
 21
1840.451064155754
 31
0.0
  0
LWPOLYLINE
  5
1B4
330
1F
100
AcDbEntity
  8
Hewi
370
    13
100
AcDbPolyline
 90
        8
 70
     0
 43
0.0
 10
994.8278304714179
 20
2176.708943803992
 10
993.2775888037069
 20
2175.633878413038
 10
992.0226090720126
 20
2174.225318591619
 10
991.1328504249063
 20
2172.561784847541
 10
990.7228852139864
 20
2171.134925965546
 10
990.5742212313077
 20
2169.656860415584
 10
990.5626283358406
 20
2152.656864199429
 10
990.5663718329043
 20
2152.625049694422
  0
LWPOLYLINE
  5
1B5
330
1F
100
AcDbEntity
  8
Hewi
370
    13
100
AcDbPolyline
 90
        3
 70
     0
 43
0.0
 10
993.418021684657
 20
2175.731266148755
 10
993.5868793698359
 20
2175.894058546035
 10
994.8278304714179
 20
2176.708943803992
  0
LINE
  5
1B6
330
1F
100
AcDbEntity
  8
Hewi
370
    13
100
AcDbLine
 10
995.7054975549263
 20
2170.483765336309
 30
0.0
 11
995.8520168267233
 21
2170.878203548861
 31
0.0
  0
LINE
  5
1B7
330
1F
100
AcDbEntity
  8
Hewi
370
    13
100
AcDbLine
 10
996.49542890035
 20
2171.796403486555
 30
0.0
 11
996.6382884966384
 21
2171.934131706825
 31
0.0
  0
LWPOLYLINE
  5
1B8
330
1F
100
AcDbEntity
  8
Hewi
370
    13
100
AcDbPolyline
 90
        3
 70
     0
 43
0.0
 10
990.7860965274569
 20
2171.354929106553
 10
990.8079464702
 20
2171.530044867311
 10
990.9336070028819
 20
2171.868330284298
  0
LWPOLYLINE
  5
1B9
330
1F
100
AcDbEntity
  8
Hewi
370
    13
100
AcDbPolyline
 90
       30
 70
     0
 43
0.0
 10
1000.810155667549
 20
1855.65240372482
 10
1000.826434558555
 20
1855.608298052123
 10
1000.852558649239
 20
1855.569211657358
 10
1000.887084338705
 20
1855.537304430228
 10
1000.928103758967
 20
1855.514339544123
 10
1000.965619748802
 20
1855.502965239228
 10
1001.004650659563
 20
1855.499129305138
 10
1001.190232857426
 20
1855.499164455901
 10
1001.693201384194
 20
1855.499259722191
 10
1002.48656902338
 20
1855.499409992409
 10
1003.5280718046
 20
1855.499607261424
 10
1004.759114146447
 20
1855.499840430758
 10
1006.115578466396
 20
1855.500097356022
 10
1007.522792668675
 20
1855.500363893738
 10
1007.562828727389
 20
1855.500371476878
 10
1008.579573659297
 20
1855.500564056556
 10
1009.551958685211
 20
1855.50074823411
 10
1010.758620977882
 20
1855.500976785665
 10
1011.764357478231
 20
1855.501167280258
 10
1012.514273299093
 20
1855.501309320353
 10
1012.968834617974
 20
1855.501395417927
 10
1013.102511712943
 20
1855.501420737446
 10
1013.141532105948
 20
1855.505271455081
 10
1013.179039509346
 20
1855.516659970012
 10
1013.220045553233
 20
1855.539640392398
 10
1013.254555219485
 20
1855.571560695381
 10
1013.280661525553
 20
1855.610656983005
 10
1013.296921853308
 20
1855.654768818892
 10
1013.29803975115
 20
1855.701457777606
 10
1013.297830642267
 20
1856.101457747659
  0
LWPOLYLINE
  5
1BA
330
1F
100
AcDbEntity
  8
Hewi
370
    13
100
AcDbPolyline
 90
        3
 70
     0
 43
0.0
 10
995.5659691712593
 20
2152.625049673194
 10
995.5626269985467
 20
2152.65345452414
 10
995.5742198940123
 20
2169.653450740294
  0
LINE
  5
1BB
330
1F
100
AcDbEntity
  8
Hewi
370
    13
100
AcDbLine
 10
996.0184760557444
 20
2171.189423401666
 30
0.0
 11
996.2155185284661
 21
2171.482238576841
 31
0.0
  0
LWPOLYLINE
  5
1BC
330
1F
100
AcDbEntity
  8
Hewi
370
    13
100
AcDbPolyline
 90
        3
 70
     0
 43
0.0
 10
992.2920077143119
 20
2174.52768530939
 10
992.5180985066246
 20
2174.863667784102
 10
993.0375268676828
 20
2175.364438524993
  0
LWPOLYLINE
  5
1BD
330
1F
100
AcDbEntity
  8
Hewi
370
    13
100
AcDbPolyline
 90
        3
 70
     0
 43
0.0
 10
991.323849343631
 20
2172.918885221069
 10
991.4648661902202
 20
2173.298510722668
 10
991.7672004908698
 20
2173.747794948195
  0
LINE
  5
1BE
330
1F
100
AcDbEntity
  8
Hewi
370
    13
100
AcDbLine
 10
995.5742198940123
 20
2169.653450740294
 30
0.0
 11
995.6506991025712
 21
2170.293042857487
 31
0.0
  0
LWPOLYLINE
  5
1BF
330
1F
100
AcDbEntity
  8
Hewi
370
    13
100
AcDbPolyline
 90
       18
 70
     0
 43
0.0
 10
883.0129084904553
 20
2153.848379472921
 10
883.0123836813807
 20
2153.818313179866
 10
883.0108289779886
 20
2153.729244278166
 10
883.0076887492763
 20
2153.549340687624
 10
883.0033212583249
 20
2153.299127287385
 10
882.9979625440357
 20
2152.992126737571
 10
882.991902215485
 20
2152.644930731866
 10
882.9854678001487
 20
2152.276303307597
 10
882.8383578472722
 20
2143.848379373535
 10
981.9874556814436
 20
2143.848379373535
 10
981.8403457285667
 20
2152.276303307596
 10
981.8349669777292
 20
2152.584451750531
 10
981.8298086941256
 20
2152.879969633511
 10
981.8241817115044
 20
2153.202339266446
 10
981.8194546472083
 20
2153.473152610781
 10
981.8158829731002
 20
2153.67777369255
 10
981.8136597185519
 20
2153.805143866053
 10
981.8129050382609
 20
2153.848379472921
  0
LWPOLYLINE
  5
1C0
330
1F
100
AcDbEntity
  8
Hewi
370
    13
100
AcDbPolyline
 90
       10
 70
     0
 43
0.0
 10
883.0129084904553
 20
2153.848379472921
 10
882.985224112407
 20
2153.848379472921
 10
882.6330810363476
 20
2153.809146990555
 10
882.2982072688937
 20
2153.693373528027
 10
881.9970252213527
 20
2153.506736685691
 10
881.7443050427904
 20
2153.258389246738
 10
881.552440283019
 20
2152.960510319196
 10
881.4308401054507
 20
2152.627708065134
 10
881.3854678560547
 20
2152.276303307597
 10
881.3814894305878
 20
2152.048379455032
  0
LINE
  5
1C1
330
1F
100
AcDbEntity
  8
Hewi
370
    13
100
AcDbLine
 10
981.8129050382609
 20
2153.848379472921
 30
0.0
 11
883.0129084904553
 21
2153.848379472921
 31
0.0
  0
LWPOLYLINE
  5
1C2
330
1F
100
AcDbEntity
  8
Hewi
370
    13
100
AcDbPolyline
 90
        9
 70
     0
 43
0.0
 10
981.8303608305326
 20
2152.848337758525
 10
981.9612485036639
 20
2152.832302860101
 10
982.085472351636
 20
2152.788063322434
 10
982.1970321203064
 20
2152.717756001478
 10
982.2905392552659
 20
2152.624776877962
 10
982.3614771795204
 20
2152.513617024895
 10
982.4064194529732
 20
2152.389645679987
 10
982.4231952761612
 20
2152.258850900986
 10
982.4268690687503
 20
2152.048379455032
  0
LWPOLYLINE
  5
1C3
330
1F
100
AcDbEntity
  8
Hewi
370
    13
100
AcDbPolyline
 90
        9
 70
     0
 43
0.0
 10
882.3989444599645
 20
2152.048379455032
 10
882.402618252555
 20
2152.258850900986
 10
882.4193940757421
 20
2152.389645679988
 10
882.4643363491947
 20
2152.513617024897
 10
882.5352742734489
 20
2152.624776877964
 10
882.6287814084087
 20
2152.717756001479
 10
882.7403411770795
 20
2152.788063322434
 10
882.8645650250512
 20
2152.832302860101
 10
882.9954526981834
 20
2152.848337758525
  0
LWPOLYLINE
  5
1C4
330
1F
100
AcDbEntity
  8
Hewi
370
    13
100
AcDbPolyline
 90
        3
 70
     0
 43
0.0
 10
1000.810155667549
 20
1855.65240372482
 10
1000.809731602847
 20
1855.699092391474
 10
1000.811246561223
 20
1856.099092796859
  0
LWPOLYLINE
  5
1C5
330
1F
100
AcDbEntity
  8
Hewi
370
    13
100
AcDbPolyline
 90
        4
 70
     0
 43
0.0
 10
881.3814894305878
 20
2152.048379455032
 10
881.2383579031775
 20
2143.848379373535
 10
882.2558129325553
 20
2143.848379373535
 10
882.3989444599645
 20
2152.048379455032
  0
LWPOLYLINE
  5
1C6
330
1F
100
AcDbEntity
  8
Hewi
370
    13
100
AcDbPolyline
 90
        4
 70
     0
 43
0.0
 10
982.4268690687503
 20
2152.048379455032
 10
982.5700005961612
 20
2143.848379373535
 10
983.5874556255376
 20
2143.848379373535
 10
983.4443240981276
 20
2152.048379455032
  0
LWPOLYLINE
  5
1C7
330
1F
100
AcDbEntity
  8
Hewi
370
    13
100
AcDbPolyline
 90
       10
 70
     0
 43
0.0
 10
981.8129050382609
 20
2153.848379472921
 10
981.8405894163079
 20
2153.848379472921
 10
982.1927324923676
 20
2153.809146990554
 10
982.5276062598224
 20
2153.693373528027
 10
982.8287883073624
 20
2153.506736685691
 10
983.0815084859247
 20
2153.258389246738
 10
983.273373245697
 20
2152.960510319196
 10
983.3949734232643
 20
2152.627708065134
 10
983.4403456726606
 20
2152.276303307596
 10
983.4443240981276
 20
2152.048379455032
  0
LINE
  5
1C8
330
1F
100
AcDbEntity
  8
Hewi
370
    13
100
AcDbLine
 10
1000.926500001716
 20
1855.69911450835
 30
0.0
 11
1000.810155667549
 21
1855.65240372482
 31
0.0
  0
LWPOLYLINE
  5
1C9
330
1F
100
AcDbEntity
  8
Hewi
370
    13
100
AcDbPolyline
 90
       35
 70
     0
 43
0.0
 10
987.2629048478316
 20
2098.875049139281
 10
983.6629049736203
 20
2098.875049139281
 10
983.6629049736203
 20
2098.79983287508
 10
983.6629049736203
 20
2098.577955740036
 10
983.6629049736203
 20
2098.220543580181
 10
983.6629049736203
 20
2097.745518533632
 10
983.6629049736203
 20
2097.176700339755
 10
983.6629049736203
 20
2096.542611917969
 10
983.6629049736203
 20
2095.875049109466
 10
983.6629049736203
 20
2094.948693235592
 10
983.6629049736203
 20
2094.528981776989
 10
983.6629049736203
 20
2094.026135534412
 10
983.6629049736203
 20
2093.465430030752
 10
983.6629049736203
 20
2092.875049079649
 10
983.6629049736203
 20
2092.284668128548
 10
983.6629049736203
 20
2091.723962624887
 10
983.6629049736203
 20
2091.221116382312
 10
983.6629049736203
 20
2090.801404923709
 10
983.6629049736203
 20
1960.44869189885
 10
983.6629049736203
 20
1960.028980440247
 10
983.6629049736203
 20
1959.52613419767
 10
983.6629049736203
 20
1958.965428694009
 10
983.6629049736203
 20
1958.375047742906
 10
983.6629049736203
 20
1957.784666791806
 10
983.6629049736203
 20
1957.223961288145
 10
983.6629049736203
 20
1956.721115045569
 10
983.6629049736203
 20
1956.301403586966
 10
983.6629049736203
 20
1954.375047703153
 10
983.6629049736203
 20
1954.152526766986
 10
983.6629049736203
 20
1953.941163959724
 10
983.6629049736203
 20
1953.751557895098
 10
983.6629049736203
 20
1953.593216212915
 10
983.6629049736203
 20
1953.474078826296
 10
983.6629049736203
 20
1953.400119781282
 10
983.6629049736203
 20
1953.375047693214
  0
LWPOLYLINE
  5
1CA
330
1F
100
AcDbEntity
  8
Hewi
370
    13
100
AcDbPolyline
 90
       28
 70
     0
 43
0.0
 10
987.2629048478316
 20
2097.745518533632
 10
987.2629048478316
 20
2097.176700339755
 10
987.2629048478316
 20
2096.542611917969
 10
987.2629048478316
 20
2095.875049109466
 10
987.2629048478316
 20
2094.948693235592
 10
987.2629048478316
 20
2094.528981776989
 10
987.2629048478316
 20
2094.026135534412
 10
987.2629048478316
 20
2093.465430030752
 10
987.2629048478316
 20
2092.875049079649
 10
987.2629048478316
 20
2092.284668128548
 10
987.2629048478316
 20
2091.723962624887
 10
987.2629048478316
 20
2091.221116382312
 10
987.2629048478316
 20
2090.801404923709
 10
987.2629048478316
 20
1960.44869189885
 10
987.2629048478316
 20
1960.028980440247
 10
987.2629048478316
 20
1959.52613419767
 10
987.2629048478316
 20
1958.965428694009
 10
987.2629048478316
 20
1958.375047742906
 10
987.2629048478316
 20
1957.784666791806
 10
987.2629048478316
 20
1957.223961288145
 10
987.2629048478316
 20
1956.721115045569
 10
987.2629048478316
 20
1956.301403586966
 10
987.2629048478316
 20
1954.375047703153
 10
987.2629048478316
 20
1954.152526766986
 10
987.2629048478316
 20
1953.941163959724
 10
987.2629048478316
 20
1953.751557895098
 10
987.2629048478316
 20
1953.593216212915
 10
987.2629048478316
 20
1953.474078826296
  0
LINE
  5
1CB
330
1F
100
AcDbEntity
  8
Hewi
370
    13
100
AcDbLine
 10
983.6629049736203
 20
1912.475047286726
 30
0.0
 11
982.412905017297
 21
1912.475047286726
 31
0.0
  0
LINE
  5
1CC
330
1F
100
AcDbEntity
  8
Hewi
370
    13
100
AcDbLine
 10
983.6629049736203
 20
1953.375047693214
 30
0.0
 11
983.6629049736203
 21
1892.175047084972
 31
0.0
  0
LINE
  5
1CD
330
1F
100
AcDbEntity
  8
Hewi
370
    13
100
AcDbLine
 10
983.4443240981276
 20
2152.048379455032
 30
0.0
 11
982.4268690687503
 21
2152.048379455032
 31
0.0
  0
LINE
  5
1CE
330
1F
100
AcDbEntity
  8
Hewi
370
    13
100
AcDbLine
 10
882.3989444599645
 20
2152.048379455032
 30
0.0
 11
881.3814894305878
 21
2152.048379455032
 31
0.0
  0
LINE
  5
1CF
330
1F
100
AcDbEntity
  8
Hewi
370
    13
100
AcDbLine
 10
983.6629049736203
 20
1900.275047165475
 30
0.0
 11
982.412905017297
 21
1900.275047165475
 31
0.0
  0
LINE
  5
1D0
330
1F
100
AcDbEntity
  8
Hewi
370
    13
100
AcDbLine
 10
982.412905017297
 20
2092.275656909777
 30
0.0
 11
983.6629049736203
 21
2092.275656909777
 31
0.0
  0
LWPOLYLINE
  5
1D1
330
1F
100
AcDbEntity
  8
Hewi
370
    13
100
AcDbPolyline
 90
       32
 70
     1
 43
0.0
 10
733.0674192823316
 20
844.1114168301572
 10
732.7100071385174
 20
844.1114168301572
 10
732.4881300134316
 20
844.1114168301572
 10
732.4129137526056
 20
844.1114168301572
 10
732.4129137526056
 20
836.1114167506483
 10
732.4881300134316
 20
836.1114167506483
 10
732.7100071385174
 20
836.1114167506483
 10
733.0674192823316
 20
836.1114167506483
 10
733.5424443075619
 20
836.1114167506483
 10
734.1112624759097
 20
836.1114167506483
 10
734.7453508692377
 20
836.1114167506483
 10
735.4129136477821
 20
836.1114167506483
 10
1129.412899880933
 20
836.1114167506483
 10
1130.080462659477
 20
836.1114167506483
 10
1130.714551052804
 20
836.1114167506483
 10
1131.283369221153
 20
836.1114167506483
 10
1131.758394246382
 20
836.1114167506483
 10
1132.115806390198
 20
836.1114167506483
 10
1132.337683515283
 20
836.1114167506483
 10
1132.412899776109
 20
836.1114167506483
 10
1132.412899776109
 20
844.1114168301572
 10
1132.337683515283
 20
844.1114168301572
 10
1132.115806390198
 20
844.1114168301572
 10
1131.758394246382
 20
844.1114168301572
 10
1131.283369221153
 20
844.1114168301572
 10
1130.714551052804
 20
844.1114168301572
 10
1130.080462659477
 20
844.1114168301572
 10
1129.412899880933
 20
844.1114168301572
 10
735.4129136477821
 20
844.1114168301572
 10
734.7453508692377
 20
844.1114168301572
 10
734.1112624759097
 20
844.1114168301572
 10
733.5424443075619
 20
844.1114168301572
  0
LWPOLYLINE
  5
1D2
330
1F
100
AcDbEntity
  8
Hewi
370
    13
100
AcDbPolyline
 90
        3
 70
     0
 43
0.0
 10
987.1629048513266
 20
1892.175047084972
 10
987.1629048513266
 20
1886.175047025341
 10
987.2629048496952
 20
1886.175047025341
  0
LINE
  5
1D3
330
1F
100
AcDbEntity
  8
Hewi
370
    13
100
AcDbLine
 10
984.2129049514223
 20
2134.375049492102
 30
0.0
 11
982.412905017297
 21
2134.375049492102
 31
0.0
  0
LINE
  5
1D4
330
1F
100
AcDbEntity
  8
Hewi
370
    13
100
AcDbLine
 10
983.6629049736203
 20
2053.406820872636
 30
0.0
 11
982.412905017297
 21
2053.406820872636
 31
0.0
  0
LINE
  5
1D5
330
1F
100
AcDbEntity
  8
Hewi
370
    13
100
AcDbLine
 10
983.6629049736203
 20
1907.52504723753
 30
0.0
 11
982.412905017297
 21
1907.52504723753
 31
0.0
  0
LINE
  5
1D6
330
1F
100
AcDbEntity
  8
Hewi
370
    13
100
AcDbLine
 10
983.6629049736203
 20
1973.943275712389
 30
0.0
 11
982.412905017297
 21
1973.943275712389
 31
0.0
  0
LINE
  5
1D7
330
1F
100
AcDbEntity
  8
Hewi
370
    13
100
AcDbLine
 10
983.6629049736203
 20
2048.443276452816
 30
0.0
 11
982.412905017297
 21
2048.443276452816
 31
0.0
  0
LINE
  5
1D8
330
1F
100
AcDbEntity
  8
Hewi
370
    13
100
AcDbLine
 10
983.6629049736203
 20
1978.90682013221
 30
0.0
 11
982.412905017297
 21
1978.90682013221
 31
0.0
  0
LINE
  5
1D9
330
1F
100
AcDbEntity
  8
Hewi
370
    13
100
AcDbLine
 10
982.412905017297
 20
1905.225047214671
 30
0.0
 11
983.6629049736203
 21
1905.225047214671
 31
0.0
  0
LINE
  5
1DA
330
1F
100
AcDbEntity
  8
Hewi
370
    13
100
AcDbLine
 10
983.6629049736203
 20
1953.375047693214
 30
0.0
 11
987.2629048478316
 21
1953.375047693214
 31
0.0
  0
LINE
  5
1DB
330
1F
100
AcDbEntity
  8
Hewi
370
    13
100
AcDbLine
 10
984.4129049474148
 20
2124.175049626167
 30
0.0
 11
984.4129049474148
 21
2098.875049139281
 31
0.0
  0
LINE
  5
1DC
330
1F
100
AcDbEntity
  8
Hewi
370
    13
100
AcDbLine
 10
983.6629049736203
 20
1892.175047084972
 30
0.0
 11
987.262904800148
 21
1892.175047084972
 31
0.0
  0
LWPOLYLINE
  5
322
330
1F
100
AcDbEntity
  8
Hewi
370
    13
100
AcDbPolyline
 90
       33
 70
     0
 43
0.0
 10
282.4360993920937
 20
1856.086952682369
 10
282.7039373689455
 20
1856.087033999349
 10
283.2230005036389
 20
1856.087300652503
 10
283.4413399404521
 20
1856.087584145661
 10
283.510629830776
 20
1856.095708437887
 10
283.57616664069
 20
1856.119642315976
 10
283.6344004963477
 20
1856.1580893899
 10
283.6816904735566
 20
1856.21548865679
 10
287.0902594431153
 20
1861.087534127116
 10
287.0611530828152
 20
1862.087455540111
 10
286.9670964595154
 20
1862.087965967979
 10
286.2143693233837
 20
1862.088456403546
 10
284.8490381747906
 20
1862.088896832417
 10
282.9546605538409
 20
1862.089260300578
 10
280.6471713633556
 20
1862.08952456397
 10
278.0677877144894
 20
1862.089673449818
 10
275.6312954429778
 20
1862.089700985411
 10
273.2235416710789
 20
1862.089625139165
 10
270.9652612268205
 20
1862.08944971433
 10
268.9696937214343
 20
1862.089183507436
 10
267.3369052424068
 20
1862.088839867211
 10
266.1487706220064
 20
1862.088436025208
 10
265.4648678913178
 20
1862.087992231754
 10
265.3360636229725
 20
1862.087482076098
 10
265.3185662447269
 20
1861.087744475996
 10
268.7274022394054
 20
1856.215645078283
 10
268.7747783314545
 20
1856.158204364401
 10
268.8330094193149
 20
1856.119756389343
 10
268.8985431143295
 20
1856.095821497113
 10
268.967829707347
 20
1856.087696132264
 10
269.0861442480165
 20
1856.087386052114
 10
269.6130912393873
 20
1856.087070722478
 10
269.9732104023898
 20
1856.086959909818
  0
LINE
  5
323
330
1F
100
AcDbEntity
  8
Hewi
370
    13
100
AcDbLine
 10
269.5240401803373
 20
1856.158764667901
 30
0.0
 11
269.0426514333639
 21
1856.215980835472
 31
0.0
  0
LWPOLYLINE
  5
324
330
1F
100
AcDbEntity
  8
Hewi
370
    13
100
AcDbPolyline
 90
        7
 70
     0
 43
0.0
 10
232.0044143883153
 20
2091.851238847332
 10
234.2044143114456
 20
2091.851238847332
 10
233.6846351025629
 20
2091.851228499781
 10
233.1875727392854
 20
2091.851197909368
 10
232.7349512320587
 20
2091.851148413039
 10
232.3465523126675
 20
2091.851082174021
 10
232.0393508776338
 20
2091.851002087278
  0
LWPOLYLINE
  5
325
330
1F
100
AcDbEntity
  8
Hewi
370
    13
100
AcDbPolyline
 90
        3
 70
     0
 43
0.0
 10
234.1074614787699
 20
2101.86332300138
 10
234.2044143114456
 20
2101.85313284777
 10
232.0044143883153
 20
2101.85313284777
  0
LINE
  5
326
330
1F
100
AcDbEntity
  8
Hewi
370
    13
100
AcDbLine
 10
232.0044143883153
 20
2101.863323000483
 30
0.0
 11
234.2044143114456
 21
2101.863323000483
 31
0.0
  0
LINE
  5
327
330
1F
100
AcDbEntity
  8
Hewi
370
    13
100
AcDbLine
 10
234.2044143114456
 20
1873.351240595134
 30
0.0
 11
232.004414388317
 21
1873.351240595134
 31
0.0
  0
LWPOLYLINE
  5
328
330
1F
100
AcDbEntity
  8
Hewi
370
    13
100
AcDbPolyline
 90
        3
 70
     0
 43
0.0
 10
320.4044112995108
 20
2101.853132847771
 10
318.2044113763812
 20
2101.853132847771
 10
318.3013642013118
 20
2101.863323000567
  0
LINE
  5
329
330
1F
100
AcDbEntity
  8
Hewi
370
    13
100
AcDbLine
 10
232.0393508776338
 20
2091.851002087278
 30
0.0
 11
232.0044143883153
 21
2091.851002087278
 31
0.0
  0
LINE
  5
32A
330
1F
100
AcDbEntity
  8
Hewi
370
    13
100
AcDbLine
 10
320.4044112995108
 20
2091.851002087278
 30
0.0
 11
320.3694748101922
 21
2091.851002087278
 31
0.0
  0
LINE
  5
32B
330
1F
100
AcDbEntity
  8
Hewi
370
    13
100
AcDbLine
 10
320.4044112995108
 20
2091.851238847332
 30
0.0
 11
320.4044112995108
 21
2091.851002087278
 31
0.0
  0
LWPOLYLINE
  5
32C
330
1F
100
AcDbEntity
  8
Hewi
370
    13
100
AcDbPolyline
 90
        7
 70
     0
 43
0.0
 10
320.3694748101922
 20
2091.851002087278
 10
320.0622733751585
 20
2091.851082174022
 10
319.6738744557673
 20
2091.851148413039
 10
319.221252948541
 20
2091.851197909368
 10
318.724190585264
 20
2091.851228499782
 10
318.2044113763812
 20
2091.851238847332
 10
320.4044112995108
 20
2091.851238847332
  0
LINE
  5
32D
330
1F
100
AcDbEntity
  8
Hewi
370
    13
100
AcDbLine
 10
318.2044113763812
 20
2101.863323000483
 30
0.0
 11
320.4044112995108
 21
2101.863323000483
 31
0.0
  0
LINE
  5
32E
330
1F
100
AcDbEntity
  8
Hewi
370
    13
100
AcDbLine
 10
232.0044143883153
 20
2091.851002087278
 30
0.0
 11
232.0044143883153
 21
2091.851238847332
 31
0.0
  0
LWPOLYLINE
  5
32F
330
1F
100
AcDbEntity
  8
Hewi
370
    13
100
AcDbPolyline
 90
       13
 70
     0
 43
0.0
 10
270.0491086031972
 20
1836.88427791259
 10
270.0429265586647
 20
1836.887827105699
 10
270.033991714868
 20
1836.896614024318
 10
270.024045058169
 20
1836.911506921973
 10
269.9849926338116
 20
1837.012202712325
 10
269.880199958208
 20
1837.388635765229
 10
269.6711733466391
 20
1838.101891233673
 10
269.5430010037155
 20
1838.42802320587
 10
269.4637236970486
 20
1838.552669892422
 10
269.414978130324
 20
1838.597916060989
 10
269.3809108386342
 20
1838.617165094191
 10
269.347662245362
 20
1838.627854526721
 10
269.3012259166697
 20
1838.631619046374
  0
LWPOLYLINE
  5
330
330
1F
100
AcDbEntity
  8
Hewi
370
    13
100
AcDbPolyline
 90
       18
 70
     0
 43
0.0
 10
270.7012908181702
 20
1838.986877374145
 10
270.6619047649454
 20
1838.983360468992
 10
270.6237290590459
 20
1838.970555549923
 10
270.5764371865068
 20
1838.940880371908
 10
270.5251594204993
 20
1838.888413778669
 10
270.4596084639898
 20
1838.779847237067
 10
270.3689672445155
 20
1838.488232044002
 10
270.1950057227505
 20
1837.261824163048
 10
270.149142725035
 20
1837.048574602833
 10
270.1245549976774
 20
1836.972311418615
 10
270.0992395588871
 20
1836.918289010794
 10
270.0877129297772
 20
1836.901675757813
 10
270.0793266516486
 20
1836.89275132737
 10
270.0711889438163
 20
1836.886697180677
 10
270.0642928910453
 20
1836.883641488157
 10
270.058780891549
 20
1836.882632030552
 10
270.0543420665464
 20
1836.882820276889
 10
270.0491086031972
 20
1836.88427791259
  0
LWPOLYLINE
  5
331
330
1F
100
AcDbEntity
  8
Hewi
370
    13
100
AcDbPolyline
 90
       42
 70
     0
 43
0.0
 10
272.7967279698431
 20
1855.487874409511
 10
272.6284948531788
 20
1855.487496935979
 10
272.517628705868
 20
1855.474962664812
 10
272.4123218501201
 20
1855.437984826721
 10
272.3178548114059
 20
1855.378417644916
 10
272.2389645615051
 20
1855.299248066622
 10
272.1796069869667
 20
1855.20444598508
 10
272.1427585244323
 20
1855.098765172515
 10
272.130266909679
 20
1854.987504906156
 10
272.130266909679
 20
1851.670612551111
 10
272.1301144044163
 20
1851.615286879933
 10
271.9831478054554
 20
1849.958584239522
 10
271.9752139238259
 20
1849.913379555387
 10
271.5530660344758
 20
1848.31658821424
 10
271.5016189819046
 20
1848.174959232167
 10
270.4746549605882
 20
1846.150727292365
 10
270.4337616274139
 20
1846.089229012631
 10
268.8726226637261
 20
1844.27493988026
 10
268.8408919085917
 20
1844.245843385838
 10
267.4773462245566
 20
1842.728099033209
 10
267.2740018117038
 20
1842.4439072752
 10
266.3675957629634
 20
1840.862489145732
 10
266.1019769401521
 20
1840.242713147056
 10
265.6417678087625
 20
1838.766873148965
 10
265.4588122590352
 20
1837.788630595056
 10
265.3579587439272
 20
1836.566624543749
 10
265.4014221862148
 20
1835.278761966599
 10
265.5200218496274
 20
1834.399956999664
 10
265.8939016650016
 20
1832.910886115769
 10
266.07945617732
 20
1832.390406320019
 10
266.8715570836905
 20
1830.758611216473
 10
267.0134964389431
 20
1830.526308029823
 10
268.3468027230647
 20
1828.814412029636
 10
268.3683265054348
 20
1828.791940536232
 10
270.0323911074294
 20
1827.378843155342
 10
270.3214116052073
 20
1827.186851928354
 10
271.9747130410805
 20
1826.319219227689
 10
272.584363537632
 20
1826.085634292079
 10
274.0467144783222
 20
1825.689023343032
 10
274.9642170102269
 20
1825.549502268629
 10
276.1160904576694
 20
1825.487441412716
 10
276.2843235743339
 20
1825.487818886249
  0
LWPOLYLINE
  5
332
330
1F
100
AcDbEntity
  8
Hewi
370
    13
100
AcDbPolyline
 90
       16
 70
     0
 43
0.0
 10
270.7012908181702
 20
1838.986877374145
 10
270.6844675065041
 20
1838.986839626792
 10
270.645081453279
 20
1838.983322721638
 10
270.6069057473793
 20
1838.97051780257
 10
270.5596138748403
 20
1838.940842624555
 10
270.5083361088331
 20
1838.888376031315
 10
270.4427851523233
 20
1838.779809489713
 10
270.3521439328493
 20
1838.488194296648
 10
270.1781824110843
 20
1837.261786415695
 10
270.1323194133688
 20
1837.04853685548
 10
270.1077316860112
 20
1836.972273671262
 10
270.0824162472208
 20
1836.918251263441
 10
270.0708896181102
 20
1836.90163801046
 10
270.0625033399821
 20
1836.892713580017
 10
270.0543656321498
 20
1836.886659433323
 10
270.0490573930697
 20
1836.884307312918
  0
LWPOLYLINE
  5
333
330
1F
100
AcDbEntity
  8
Hewi
370
    13
100
AcDbPolyline
 90
       20
 70
     0
 43
0.0
 10
269.3012259166697
 20
1838.631619046374
 10
269.2349101861494
 20
1838.620598115273
 10
269.1049419223095
 20
1838.580788089361
 10
269.087985009486
 20
1838.572356417149
 10
269.074091212705
 20
1838.563359331072
 10
269.0589631284451
 20
1838.549182428022
 10
269.051143059293
 20
1838.53719728404
 10
269.0466323671269
 20
1838.524290369166
 10
269.0453755645255
 20
1838.509541149844
 10
269.0472623261907
 20
1838.495330887466
 10
269.0583419688006
 20
1838.465781405008
 10
269.2433275773741
 20
1838.237483345846
 10
269.3077679412444
 20
1838.145522942499
 10
269.8128624237272
 20
1836.61135873808
 10
269.8578486168109
 20
1836.54807619961
 10
269.8925570670503
 20
1836.511974688695
 10
269.9279311047202
 20
1836.485191593214
 10
269.9638190540337
 20
1836.4672894164
 10
270.0000692392022
 20
1836.457830661492
 10
270.0394513972627
 20
1836.45659435741
  0
LWPOLYLINE
  5
334
330
1F
100
AcDbEntity
  8
Hewi
370
    13
100
AcDbPolyline
 90
       17
 70
     0
 43
0.0
 10
271.2431442222158
 20
1836.861365918447
 10
271.2541361381691
 20
1836.862683447131
 10
271.263313297518
 20
1836.866218623239
 10
271.2713826848293
 20
1836.871883152955
 10
271.2779884643443
 20
1836.879089521723
 10
271.2855841331081
 20
1836.891872404721
 10
271.2926901055265
 20
1836.912006977123
 10
271.3003947310996
 20
1836.976525247802
 10
271.2559482426361
 20
1837.32529817727
 10
270.9972310695524
 20
1838.361772749703
 10
270.8806030800539
 20
1838.778681656187
 10
270.8466993441591
 20
1838.869816172706
 10
270.8149216033045
 20
1838.926476804322
 10
270.7949045239375
 20
1838.949326081011
 10
270.7700439282977
 20
1838.967809663331
 10
270.7380943641636
 20
1838.981112774753
 10
270.7012908181702
 20
1838.986877374145
  0
LWPOLYLINE
  5
335
330
1F
100
AcDbEntity
  8
Hewi
370
    13
100
AcDbPolyline
 90
       22
 70
     0
 43
0.0
 10
269.3012259166697
 20
1838.631619046374
 10
269.2844026050032
 20
1838.631581299021
 10
269.2180868744797
 20
1838.620560367919
 10
269.088118610643
 20
1838.580750342007
 10
269.071161697819
 20
1838.572318669796
 10
269.0572679010385
 20
1838.563321583719
 10
269.0421398167787
 20
1838.549144680669
 10
269.0343197476265
 20
1838.537159536687
 10
269.0298090554604
 20
1838.524252621813
 10
269.0285522528585
 20
1838.509503402491
 10
269.0304390145245
 20
1838.495293140112
 10
269.0415186571344
 20
1838.465743657654
 10
269.2265042657071
 20
1838.237445598493
 10
269.2909446295779
 20
1838.145485195146
 10
269.7960391120609
 20
1836.611320990726
 10
269.8410253051439
 20
1836.548038452257
 10
269.8757337553841
 20
1836.511936941343
 10
269.911107793054
 20
1836.48515384586
 10
269.9469957423666
 20
1836.467251669047
 10
269.9832459275357
 20
1836.457792914139
 10
270.0226280855964
 20
1836.456556610057
 10
270.0394513972627
 20
1836.45659435741
  0
LWPOLYLINE
  5
336
330
1F
100
AcDbEntity
  8
Hewi
370
    13
100
AcDbPolyline
 90
       28
 70
     0
 43
0.0
 10
276.1847765939585
 20
1840.492755613516
 10
276.1641723631744
 20
1840.490178502671
 10
276.1411856310026
 20
1840.481650646566
 10
276.1130219304679
 20
1840.462460794172
 10
276.0871427357132
 20
1840.435268671567
 10
276.0380747227644
 20
1840.352041588431
 10
275.967668467193
 20
1840.110822229599
 10
275.8194860710351
 20
1838.954035161274
 10
275.7743337669463
 20
1838.736281940889
 10
275.7492377737683
 20
1838.658547823733
 10
275.7237185737515
 20
1838.604195833231
 10
275.7088828059425
 20
1838.582612582186
 10
275.6940626559772
 20
1838.567746575576
 10
275.6824430961553
 20
1838.560503998239
 10
275.6729333892012
 20
1838.557339745766
 10
275.6642793323162
 20
1838.556594470163
 10
275.6558813983911
 20
1838.557853872083
 10
275.6461496137605
 20
1838.561780394464
 10
275.6340508691191
 20
1838.570332776968
 10
275.6118068941133
 20
1838.596245863095
 10
275.1846444526036
 20
1839.819210299108
 10
275.1057453301128
 20
1839.96262660402
 10
275.0535557234015
 20
1840.029255533681
 10
275.0143141357746
 20
1840.066221271795
 10
274.9747799793685
 20
1840.093495897367
 10
274.934766608856
 20
1840.112390577582
 10
274.8986636199392
 20
1840.123135373663
 10
274.8713850140275
 20
1840.127130273324
  0
LWPOLYLINE
  5
337
330
1F
100
AcDbEntity
  8
Hewi
370
    13
100
AcDbPolyline
 90
       27
 70
     0
 43
0.0
 10
270.0394513972627
 20
1836.45659435741
 10
270.0867651518505
 20
1836.466661122295
 10
270.1298212818857
 20
1836.486133855818
 10
270.1864656568243
 20
1836.526060527241
 10
270.2830043754228
 20
1836.631116652391
 10
270.4024141646987
 20
1836.836160307523
 10
270.5526619252383
 20
1837.329350687065
 10
270.652742535609
 20
1838.202863848137
 10
270.6563848025131
 20
1838.210596865477
 10
270.6597287349832
 20
1838.215136647008
 10
270.6620408886756
 20
1838.217040151194
 10
270.6637967778782
 20
1838.217883057284
 10
270.6654349475117
 20
1838.218238133805
 10
270.6672391914433
 20
1838.218181925739
 10
270.6692289032945
 20
1838.217616039209
 10
270.6712947226634
 20
1838.216512313157
 10
270.6752816887852
 20
1838.213045440426
 10
270.679898097906
 20
1838.207112416219
 10
270.7528325919447
 20
1837.99014246068
 10
271.0192279476526
 20
1837.140056758434
 10
271.1003989859575
 20
1836.986894289626
 10
271.1518633796559
 20
1836.91876653034
 10
271.1837864952399
 20
1836.888119648233
 10
271.2036497318861
 20
1836.874155531893
 10
271.2176736052164
 20
1836.867042479657
 10
271.2308638851387
 20
1836.862786240312
 10
271.2431442222158
 20
1836.861365918447
  0
LWPOLYLINE
  5
338
330
1F
100
AcDbEntity
  8
Hewi
370
    13
100
AcDbPolyline
 90
       12
 70
     0
 43
0.0
 10
276.9528335400791
 20
1838.43081066447
 10
276.9566931096132
 20
1838.439180580255
 10
276.959689663019
 20
1838.454256684125
 10
276.9581163224826
 20
1838.492277072218
 10
276.849311496308
 20
1838.856097079469
 10
276.4837486819406
 20
1839.895561854237
 10
276.2788774156017
 20
1840.438017126434
 10
276.2628575404609
 20
1840.45747316889
 10
276.2457125926104
 20
1840.472389100448
 10
276.2268935962525
 20
1840.483407960062
 10
276.2062609295533
 20
1840.490475648172
 10
276.1847765939585
 20
1840.492755613516
  0
LWPOLYLINE
  5
339
330
1F
100
AcDbEntity
  8
Hewi
370
    13
100
AcDbPolyline
 90
       16
 70
     0
 43
0.0
 10
276.1847765939585
 20
1840.492755613516
 10
276.1679532822923
 20
1840.492717866163
 10
276.1473490515082
 20
1840.490140755318
 10
276.1243623193355
 20
1840.481612899213
 10
276.0961986188017
 20
1840.462423046819
 10
276.070319424047
 20
1840.435230924214
 10
276.0212514110973
 20
1840.352003841078
 10
275.9508451555267
 20
1840.110784482246
 10
275.8026627593686
 20
1838.953997413921
 10
275.7575104552798
 20
1838.736244193535
 10
275.7324144621021
 20
1838.65851007638
 10
275.7068952620845
 20
1838.604158085878
 10
275.6920594942762
 20
1838.582574834832
 10
275.677239344311
 20
1838.567708828223
 10
275.6656197844888
 20
1838.560466250886
 10
275.6571823258424
 20
1838.557658777478
  0
LWPOLYLINE
  5
33A
330
1F
100
AcDbEntity
  8
Hewi
370
    13
100
AcDbPolyline
 90
       12
 70
     0
 43
0.0
 10
271.2431442222158
 20
1836.861365918447
 10
271.2263209105497
 20
1836.861328171094
 10
271.2140405734722
 20
1836.862748492959
 10
271.2008502935502
 20
1836.867004732304
 10
271.1868264202196
 20
1836.87411778454
 10
271.1669631835737
 20
1836.88808190088
 10
271.1350400679889
 20
1836.918728782987
 10
271.0835756742913
 20
1836.986856542273
 10
271.0024046359864
 20
1837.140019011081
 10
270.7360092802785
 20
1837.990104713327
 10
270.6630747862389
 20
1838.207074668866
 10
270.6584583771189
 20
1838.213007693072
  0
LWPOLYLINE
  5
33B
330
1F
100
AcDbEntity
  8
Hewi
370
    13
100
AcDbPolyline
 90
       20
 70
     0
 43
0.0
 10
273.4873463814558
 20
1840.011342774848
 10
273.4516014599428
 20
1840.005784024606
 10
273.4294039617758
 20
1839.99804814122
 10
273.4082103460993
 20
1839.987507965395
 10
273.369366701052
 20
1839.959616220289
 10
273.3271658046284
 20
1839.913912986736
 10
273.2969662520158
 20
1839.864405765065
 10
273.2813799172792
 20
1839.819460087775
 10
273.2794644632689
 20
1839.796770173559
 10
273.2813747727799
 20
1839.784972850062
 10
273.2847624222812
 20
1839.776942220564
 10
273.2908738631785
 20
1839.768696183488
 10
273.2992641304731
 20
1839.76104388057
 10
273.3863985937743
 20
1839.694585905115
 10
273.4969749335793
 20
1839.561548355162
 10
274.3178784809204
 20
1837.939020069623
 10
274.3614772208717
 20
1837.897471561877
 10
274.4033151983508
 20
1837.869053644322
 10
274.4433987164299
 20
1837.853194913972
 10
274.4737269610048
 20
1837.849172081858
  0
LWPOLYLINE
  5
33C
330
1F
100
AcDbEntity
  8
Hewi
370
    13
100
AcDbPolyline
 90
       28
 70
     0
 43
0.0
 10
274.8713850140275
 20
1840.127130273324
 10
274.8442089004855
 20
1840.126634817895
 10
274.8152681495064
 20
1840.119973097894
 10
274.7919886324289
 20
1840.108903721651
 10
274.7649662231386
 20
1840.087970913768
 10
274.7309943288517
 20
1840.045207810981
 10
274.6864426790064
 20
1839.945303978652
 10
274.5201101525863
 20
1838.477603355095
 10
274.4926303743709
 20
1838.392841783777
 10
274.4718380881825
 20
1838.352450998221
 10
274.4569136334216
 20
1838.332867170331
 10
274.4451751598226
 20
1838.322099324296
 10
274.4315947074879
 20
1838.314127564599
 10
274.4211761617048
 20
1838.310961998268
 10
274.409586488574
 20
1838.31018937318
 10
274.3966818674418
 20
1838.312471824842
 10
274.3831637512859
 20
1838.318140568446
 10
274.36451575259
 20
1838.331012255506
 10
274.3385696373433
 20
1838.357755654394
 10
274.3021149081808
 20
1838.410767082211
 10
274.157295458656
 20
1838.751012246046
 10
273.7987344718438
 20
1839.718312132631
 10
273.7067912633743
 20
1839.868749458208
 10
273.6480050056111
 20
1839.936432065495
 10
273.6054689344844
 20
1839.97190892037
 10
273.5644203315402
 20
1839.995493883224
 10
273.524999409593
 20
1840.008275614552
 10
273.4873463814558
 20
1840.011342774848
  0
LWPOLYLINE
  5
33D
330
1F
100
AcDbEntity
  8
Hewi
370
    13
100
AcDbPolyline
 90
       22
 70
     0
 43
0.0
 10
273.4873463814558
 20
1840.011342774848
 10
273.4705230697888
 20
1840.011305027495
 10
273.4347781482758
 20
1840.005746277254
 10
273.4125806501087
 20
1839.998010393867
 10
273.3913870344328
 20
1839.987470218041
 10
273.3525433893858
 20
1839.959578472936
 10
273.3103424929622
 20
1839.913875239383
 10
273.2801429403496
 20
1839.864368017712
 10
273.2645566056122
 20
1839.819422340422
 10
273.2626411516027
 20
1839.796732426206
 10
273.2645514611137
 20
1839.784935102709
 10
273.2679391106141
 20
1839.77690447321
 10
273.274050551512
 20
1839.768658436134
 10
273.2824408188069
 20
1839.761006133216
 10
273.3695752821079
 20
1839.694548157762
 10
273.4801516219131
 20
1839.561510607809
 10
274.3010551692542
 20
1837.938982322269
 10
274.3446539092055
 20
1837.897433814525
 10
274.3864918866838
 20
1837.869015896969
 10
274.4265754047636
 20
1837.853157166618
 10
274.4569036493386
 20
1837.849134334505
 10
274.4737269610048
 20
1837.849172081858
  0
LWPOLYLINE
  5
33E
330
1F
100
AcDbEntity
  8
Hewi
370
    13
100
AcDbPolyline
 90
       10
 70
     0
 43
0.0
 10
274.4737269610048
 20
1837.849172081858
 10
274.5034368644716
 20
1837.852408667878
 10
274.5342741902728
 20
1837.863860818089
 10
274.5613423712519
 20
1837.881261406969
 10
274.5957559782401
 20
1837.914256431035
 10
274.6386707016661
 20
1837.974593636344
 10
274.6906381091467
 20
1838.081567070494
 10
274.9571652320806
 20
1839.479658368211
 10
274.9623759328527
 20
1839.489789929382
 10
274.9663192310326
 20
1839.494945404534
  0
LWPOLYLINE
  5
33F
330
1F
100
AcDbEntity
  8
Hewi
370
    13
100
AcDbPolyline
 90
       15
 70
     0
 43
0.0
 10
274.8713850140275
 20
1840.127130273324
 10
274.8545617023609
 20
1840.127092525971
 10
274.8273855888193
 20
1840.126597070542
 10
274.7984448378402
 20
1840.11993535054
 10
274.7751653207625
 20
1840.108865974298
 10
274.7481429114721
 20
1840.087933166414
 10
274.7141710171856
 20
1840.045170063627
 10
274.6696193673399
 20
1839.945266231299
 10
274.5032868409193
 20
1838.477565607741
 10
274.4758070627047
 20
1838.392804036424
 10
274.4550147765155
 20
1838.352413250868
 10
274.4400903217554
 20
1838.332829422978
 10
274.4283518481562
 20
1838.322061576942
 10
274.4147713958209
 20
1838.314089817246
 10
274.4047497637639
 20
1838.311044849005
  0
LWPOLYLINE
  5
340
330
1F
100
AcDbEntity
  8
Hewi
370
    13
100
AcDbPolyline
 90
       18
 70
     0
 43
0.0
 10
274.9663192310326
 20
1839.494945404534
 10
274.9694539550911
 20
1839.497571810033
 10
274.9717968651556
 20
1839.498721198735
 10
274.9739572847825
 20
1839.499189746239
 10
274.9760753365795
 20
1839.499120078312
 10
274.9782475449312
 20
1839.498527158678
 10
274.9811782803168
 20
1839.496931940117
 10
274.9851538557804
 20
1839.493405387864
 10
274.9905911956791
 20
1839.486288420844
 10
275.0231612007225
 20
1839.406051782581
 10
275.1045922569976
 20
1839.127807883507
 10
275.5054124282735
 20
1838.152994274663
 10
275.5625435377131
 20
1838.07880109706
 10
275.5990025836681
 20
1838.044337077983
 10
275.6256063062325
 20
1838.025942373014
 10
275.6516507533244
 20
1838.013658429653
 10
275.6800157246989
 20
1838.006872464259
 10
275.7070936202352
 20
1838.006885334248
  0
LWPOLYLINE
  5
341
330
1F
100
AcDbEntity
  8
Hewi
370
    13
100
AcDbPolyline
 90
       11
 70
     0
 43
0.0
 10
275.7070936202352
 20
1838.006885334248
 10
275.7341989329153
 20
1838.013244216449
 10
275.7698530029934
 20
1838.031104479522
 10
275.8168674223
 20
1838.070344715498
 10
275.8718197442023
 20
1838.136461184275
 10
275.9799068500315
 20
1838.324943226665
 10
276.1122879561286
 20
1838.730829293763
 10
276.1986297879089
 20
1839.706712107503
 10
276.203846304394
 20
1839.722148371616
 10
276.2082505881518
 20
1839.730270040351
 10
276.212005090107
 20
1839.73464879565
  0
LWPOLYLINE
  5
342
330
1F
100
AcDbEntity
  8
Hewi
370
    13
100
AcDbPolyline
 90
       16
 70
     0
 43
0.0
 10
276.212005090107
 20
1839.73464879565
 10
276.2149449748825
 20
1839.736776957092
 10
276.2177492596812
 20
1839.737909835816
 10
276.2198965879211
 20
1839.738256697646
 10
276.2228509038557
 20
1839.738078426437
 10
276.2265311594281
 20
1839.736915600674
 10
276.2316618728793
 20
1839.733793650993
 10
276.2405173494802
 20
1839.725033817216
 10
276.2536674701181
 20
1839.705973771126
 10
276.613492487091
 20
1838.715892146303
 10
276.6934743463819
 20
1838.585736271401
 10
276.7550368477033
 20
1838.51334647465
 10
276.814122256939
 20
1838.46155572412
 10
276.8617681515739
 20
1838.432047606441
 10
276.8897280307907
 20
1838.420674119943
 10
276.9081893222893
 20
1838.416360780221
  0
LWPOLYLINE
  5
343
330
1F
100
AcDbEntity
  8
Hewi
370
    13
100
AcDbPolyline
 90
        4
 70
     0
 43
0.0
 10
276.9081893222893
 20
1838.416360780221
 10
276.9241631228014
 20
1838.415569520986
 10
276.9358588181479
 20
1838.417700504768
 10
276.9430513264337
 20
1838.420977113047
  0
LWPOLYLINE
  5
344
330
1F
100
AcDbEntity
  8
Hewi
370
    13
100
AcDbPolyline
 90
        3
 70
     0
 43
0.0
 10
276.9430513264337
 20
1838.420977113047
 10
276.9485239967333
 20
1838.425309414439
 10
276.9528335400791
 20
1838.43081066447
  0
LWPOLYLINE
  5
345
330
1F
100
AcDbEntity
  8
Hewi
370
    13
100
AcDbPolyline
 90
       12
 70
     0
 43
0.0
 10
272.3097016297795
 20
1837.055635000803
 10
272.3490057548035
 20
1837.061256775198
 10
272.3862762447929
 20
1837.075186150117
 10
272.4188835871705
 20
1837.096703477154
 10
272.441518224851
 20
1837.12118373004
 10
272.4559585760086
 20
1837.147718153337
 10
272.4855703735961
 20
1837.269900508599
 10
272.4929256856317
 20
1837.285705337555
 10
272.5037922992639
 20
1837.300193245002
 10
272.5155910474843
 20
1837.309690420975
 10
272.5300072476624
 20
1837.316477922123
 10
272.5461043058335
 20
1837.320310086199
  0
LWPOLYLINE
  5
346
330
1F
100
AcDbEntity
  8
Hewi
370
    13
100
AcDbPolyline
 90
       13
 70
     0
 43
0.0
 10
274.9664388789055
 20
1839.495045650717
 10
274.968330544114
 20
1839.493367640511
 10
274.9737678840129
 20
1839.486250673491
 10
275.0063378890563
 20
1839.406014035227
 10
275.0877689453314
 20
1839.127770136154
 10
275.488589116607
 20
1838.15295652731
 10
275.545720226046
 20
1838.078763349707
 10
275.5821792720017
 20
1838.04429933063
 10
275.6087829945654
 20
1838.025904625661
 10
275.6348274416581
 20
1838.013620682299
 10
275.6631924130319
 20
1838.006834716905
 10
275.6902703085681
 20
1838.006847586894
 10
275.7070936202352
 20
1838.006885334248
  0
LWPOLYLINE
  5
347
330
1F
100
AcDbEntity
  8
Hewi
370
    13
100
AcDbPolyline
 90
        3
 70
     0
 43
0.0
 10
272.5461043058335
 20
1837.320310086199
 10
272.5968485109432
 20
1837.320270178098
 10
272.8507304841388
 20
1837.290333060128
  0
LWPOLYLINE
  5
348
330
1F
100
AcDbEntity
  8
Hewi
370
    13
100
AcDbPolyline
 90
       25
 70
     0
 43
0.0
 10
271.3895292894064
 20
1839.187133465516
 10
271.3397264032634
 20
1839.184139501508
 10
271.2951624177056
 20
1839.172909725982
 10
271.2637332754793
 20
1839.159299049505
 10
271.235634934132
 20
1839.141318697121
 10
271.2123270039579
 20
1839.119038397951
 10
271.1956429343134
 20
1839.09333037166
 10
271.1862140133506
 20
1839.066651892693
 10
271.1818560369364
 20
1839.027760191154
 10
271.1879663934878
 20
1838.978643480954
 10
271.2097602578761
 20
1838.920733109466
 10
271.2379265677684
 20
1838.877828741784
 10
271.2593545260553
 20
1838.854968492011
 10
271.2850938590422
 20
1838.83392461425
 10
271.4213672508417
 20
1838.743689896599
 10
271.5325966515605
 20
1838.637204446799
 10
271.7803824200128
 20
1838.236900086969
 10
272.0927122682202
 20
1837.381006787424
 10
272.1416109618555
 20
1837.214530259791
 10
272.1680990162385
 20
1837.150519436646
 10
272.1969741669655
 20
1837.105009106645
 10
272.2179404586795
 20
1837.084059602594
 10
272.2418819950034
 20
1837.068910462065
 10
272.270993382299
 20
1837.059040475345
 10
272.3097016297795
 20
1837.055635000803
  0
LWPOLYLINE
  5
349
330
1F
100
AcDbEntity
  8
Hewi
370
    13
100
AcDbPolyline
 90
        4
 70
     0
 43
0.0
 10
272.8507304841388
 20
1837.290333060128
 10
272.8339071724723
 20
1837.290295312775
 10
272.580025199277
 20
1837.320232430745
 10
272.5458908767127
 20
1837.320259275899
  0
LWPOLYLINE
  5
34A
330
1F
100
AcDbEntity
  8
Hewi
370
    13
100
AcDbPolyline
 90
       12
 70
     0
 43
0.0
 10
272.5783250587041
 20
1839.486076971349
 10
272.2361154347335
 20
1839.425635903278
 10
271.9560830028437
 20
1839.319845141049
 10
271.6620311076415
 20
1839.155480025368
 10
271.6180929518246
 20
1839.134870822646
 10
271.5898030775291
 20
1839.127606409222
 10
271.5651699080767
 20
1839.127009027529
 10
271.5444386338389
 20
1839.130881790226
 10
271.5183971221607
 20
1839.140736469031
 10
271.4724788865983
 20
1839.164226550719
 10
271.4343071309291
 20
1839.179746081739
 10
271.3895292894064
 20
1839.187133465516
  0
LWPOLYLINE
  5
34B
330
1F
100
AcDbEntity
  8
Hewi
370
    13
100
AcDbPolyline
 90
       18
 70
     0
 43
0.0
 10
272.8507304841388
 20
1837.290333060128
 10
272.9406379745551
 20
1837.294313250896
 10
273.0312573647491
 20
1837.314349211436
 10
273.1293208892803
 20
1837.360663845398
 10
273.2432857459427
 20
1837.451332572277
 10
273.3680178669253
 20
1837.607988328908
 10
273.4780258031004
 20
1837.830294500356
 10
273.5489676262294
 20
1838.091423379806
 10
273.5727330913944
 20
1838.374667963084
 10
273.5480711093102
 20
1838.630123216917
 10
273.4979174230095
 20
1838.815854877333
 10
273.4191862061148
 20
1838.990377423117
 10
273.3143565811205
 20
1839.147687951834
 10
273.1866908240156
 20
1839.281693358818
 10
273.0394512107885
 20
1839.3863005394
 10
272.8759000174282
 20
1839.45541638891
 10
272.7293448515375
 20
1839.482933481768
 10
272.5783250587041
 20
1839.486076971349
  0
LWPOLYLINE
  5
34C
330
1F
100
AcDbEntity
  8
Hewi
370
    13
100
AcDbPolyline
 90
       27
 70
     0
 43
0.0
 10
271.3895292894064
 20
1839.187133465516
 10
271.3727059777402
 20
1839.187095718163
 10
271.322903091597
 20
1839.184101754154
 10
271.2783391060394
 20
1839.172871978628
 10
271.2469099638131
 20
1839.159261302152
 10
271.2188116224659
 20
1839.141280949768
 10
271.1955036922908
 20
1839.119000650599
 10
271.1788196226471
 20
1839.093292624307
 10
271.1693907016844
 20
1839.066614145339
 10
271.1650327252694
 20
1839.027722443801
 10
271.1711430818216
 20
1838.9786057336
 10
271.1929369462096
 20
1838.920695362112
 10
271.2211032561019
 20
1838.877790994431
 10
271.2425312143888
 20
1838.854930744657
 10
271.268270547376
 20
1838.833886866897
 10
271.4045439391752
 20
1838.743652149246
 10
271.5157733398935
 20
1838.637166699445
 10
271.7635591083463
 20
1838.236862339616
 10
272.075888956554
 20
1837.38096904007
 10
272.1247876501891
 20
1837.214492512437
 10
272.1512757045715
 20
1837.150481689292
 10
272.1801508552985
 20
1837.104971359293
 10
272.2011171470133
 20
1837.084021855241
 10
272.2250586833372
 20
1837.068872714712
 10
272.2541700706337
 20
1837.059002727992
 10
272.292878318113
 20
1837.055597253451
 10
272.3097016297795
 20
1837.055635000803
  0
LWPOLYLINE
  5
34D
330
1F
100
AcDbEntity
  8
Hewi
370
    13
100
AcDbPolyline
 90
        3
 70
     0
 43
0.0
 10
277.8194288196717
 20
1839.507037420204
 10
277.8194288196717
 20
1839.711036811773
 10
277.2385402504885
 20
1839.711046099612
  0
LWPOLYLINE
  5
34E
330
1F
100
AcDbEntity
  8
Hewi
370
    13
100
AcDbPolyline
 90
        8
 70
     0
 43
0.0
 10
272.5783250587041
 20
1839.486076971349
 10
272.5615017470376
 20
1839.486039223996
 10
272.2192921230664
 20
1839.425598155925
 10
271.9392596911744
 20
1839.319807393694
 10
271.6452077959754
 20
1839.155442278015
 10
271.6012696401581
 20
1839.134833075292
 10
271.572979765862
 20
1839.127568661869
 10
271.5634157214201
 20
1839.127336723179
  0
LWPOLYLINE
  5
34F
330
1F
100
AcDbEntity
  8
Hewi
370
    13
100
AcDbPolyline
 90
       42
 70
     0
 43
0.0
 10
280.1064569622001
 20
1840.85915354261
 10
280.0498333480017
 20
1840.855917112966
 10
280.0003696735986
 20
1840.848711706368
 10
279.9869210184063
 20
1840.845924611073
 10
279.9088149500254
 20
1840.820984704441
 10
279.9030552620955
 20
1840.818443805558
 10
279.8317927914827
 20
1840.775972536831
 10
279.8317927914836
 20
1841.251936399441
 10
279.8317927914836
 20
1841.311431882268
 10
279.8368507803842
 20
1841.376373246155
 10
279.8405019849635
 20
1841.393933163326
 10
279.8500521314129
 20
1841.423488715919
 10
279.8513884768137
 20
1841.426625996598
 10
279.8653304191349
 20
1841.451780245177
 10
279.868277219072
 20
1841.455845311802
 10
279.8798138518039
 20
1841.469036038522
 10
279.8885576511317
 20
1841.476817557833
 10
279.9008998769305
 20
1841.48543114286
 10
279.9106268814504
 20
1841.490691918192
 10
279.9238365030622
 20
1841.496140846982
 10
279.9363120668425
 20
1841.49982881017
 10
279.9568752331792
 20
1841.503454980751
 10
279.9600058750671
 20
1841.503779677034
 10
279.9792837478124
 20
1841.504663455583
 10
279.9984934789789
 20
1841.503945047761
 10
280.029302993215
 20
1841.499213717998
 10
280.0352213067823
 20
1841.497681489305
 10
280.0631519260197
 20
1841.486810849403
 10
280.0665729137413
 20
1841.484975664036
 10
280.0868013662871
 20
1841.471013319398
 10
280.090192691181
 20
1841.468032283167
 10
280.1045430505313
 20
1841.452550229414
 10
280.1077271891303
 20
1841.448321648505
 10
280.1189283865683
 20
1841.430065263972
 10
280.1217343485832
 20
1841.424384242587
 10
280.1299573743999
 20
1841.403558423075
 10
280.1322141695392
 20
1841.396220065412
 10
280.1397266659019
 20
1841.359930894934
 10
280.1424053094599
 20
1841.331114705941
 10
280.1429830964027
 20
1841.308499076476
 10
280.1429830964027
 20
1841.195665677554
 10
280.1429830964027
 20
1841.004985448256
  0
LWPOLYLINE
  5
350
330
1F
100
AcDbEntity
  8
Hewi
370
    13
100
AcDbPolyline
 90
        3
 70
     0
 43
0.0
 10
278.0987868358853
 20
1838.33822832428
 10
278.4241535792351
 20
1838.284351985935
 10
278.5857349257504
 20
1838.277615510401
  0
LWPOLYLINE
  5
351
330
1F
100
AcDbEntity
  8
Hewi
370
    13
100
AcDbPolyline
 90
       13
 70
     0
 43
0.0
 10
278.5857349257504
 20
1838.277615510401
 10
278.747622266524
 20
1838.284346813987
 10
279.0741415841465
 20
1838.338212729313
 10
279.1289159865319
 20
1838.566587163106
 10
279.1327118526176
 20
1838.590966614981
 10
279.1471741206605
 20
1838.782811951647
 10
279.1471741206605
 20
1838.960229262405
 10
279.1471741206605
 20
1840.395696594898
 10
279.1445376460923
 20
1840.476430876376
 10
279.1289159865319
 20
1840.611922007009
 10
279.0741415841465
 20
1840.840298311514
 10
278.747622266524
 20
1840.894174809483
 10
278.5857349257496
 20
1840.900911307559
  0
LWPOLYLINE
  5
352
330
1F
100
AcDbEntity
  8
Hewi
370
    13
100
AcDbPolyline
 90
        3
 70
     0
 43
0.0
 10
278.5857349257496
 20
1840.900911307559
 10
278.4241535792351
 20
1840.89417998143
 10
278.0987868358853
 20
1840.840313906481
  0
LWPOLYLINE
  5
353
330
1F
100
AcDbEntity
  8
Hewi
370
    13
100
AcDbPolyline
 90
        3
 70
     0
 43
0.0
 10
277.2385402504885
 20
1839.711046099612
 10
277.2259227667386
 20
1839.711017789097
 10
277.2259227667386
 20
1839.507018397528
  0
LWPOLYLINE
  5
354
330
1F
100
AcDbEntity
  8
Hewi
370
    13
100
AcDbPolyline
 90
        6
 70
     0
 43
0.0
 10
278.0987868358853
 20
1840.840313906481
 10
278.0448634761846
 20
1840.611939339946
 10
278.0268890229511
 20
1840.395714507159
 10
278.0268890229511
 20
1838.782829863908
 10
278.0448634761846
 20
1838.566604496044
 10
278.0987868358853
 20
1838.33822832428
  0
LINE
  5
355
330
1F
100
AcDbEntity
  8
Hewi
370
    13
100
AcDbLine
 10
277.2385402504885
 20
1839.507046708042
 30
0.0
 11
277.2259227667386
 21
1839.507018397528
 31
0.0
  0
LINE
  5
356
330
1F
100
AcDbEntity
  8
Hewi
370
    13
100
AcDbLine
 10
280.1429830964027
 20
1841.004985448256
 30
0.0
 11
280.1303656126533
 21
1841.004957137741
 31
0.0
  0
LINE
  5
357
330
1F
100
AcDbEntity
  8
Hewi
370
    13
100
AcDbLine
 10
277.2385402504885
 20
1839.711046099612
 30
0.0
 11
277.2385402504885
 21
1839.507046708042
 31
0.0
  0
LWPOLYLINE
  5
358
330
1F
100
AcDbEntity
  8
Hewi
370
    13
100
AcDbPolyline
 90
        4
 70
     0
 43
0.0
 10
278.5857349257496
 20
1840.900911307559
 10
278.5731174420006
 20
1840.900882997044
 10
278.4115360954853
 20
1840.894151670915
 10
278.0861693521346
 20
1840.840285595966
  0
LWPOLYLINE
  5
359
330
1F
100
AcDbEntity
  8
Hewi
370
    13
100
AcDbPolyline
 90
        4
 70
     0
 43
0.0
 10
278.5857349257504
 20
1838.277615510401
 10
278.5731174420006
 20
1838.277587199886
 10
278.4115360954853
 20
1838.28432367542
 10
278.0861693521346
 20
1838.338200013765
  0
LINE
  5
35A
330
1F
100
AcDbEntity
  8
Hewi
370
    13
100
AcDbLine
 10
278.0987868358853
 20
1840.840313906481
 30
0.0
 11
278.0861693521346
 21
1840.840285595966
 31
0.0
  0
LINE
  5
35B
330
1F
100
AcDbEntity
  8
Hewi
370
    13
100
AcDbLine
 10
277.2385402504885
 20
1839.507046708042
 30
0.0
 11
277.8194288196717
 21
1839.507037420204
 31
0.0
  0
LWPOLYLINE
  5
35C
330
1F
100
AcDbEntity
  8
Hewi
370
    13
100
AcDbPolyline
 90
        3
 70
     0
 43
0.0
 10
277.8194288196717
 20
1839.507037420204
 10
277.8068113359215
 20
1839.507009109688
 10
277.2259227667386
 20
1839.507018397528
  0
LINE
  5
35D
330
1F
100
AcDbEntity
  8
Hewi
370
    13
100
AcDbLine
 10
278.0987868358853
 20
1838.33822832428
 30
0.0
 11
278.0861693521346
 21
1838.338200013765
 31
0.0
  0
LWPOLYLINE
  5
35E
330
1F
100
AcDbEntity
  8
Hewi
370
    13
100
AcDbPolyline
 90
        9
 70
     0
 43
0.0
 10
279.6041587403463
 20
1841.456607670997
 10
279.537033806191
 20
1841.384478851154
 10
279.5277133532185
 20
1841.371970928475
 10
279.4864861490724
 20
1841.303335791925
 10
279.4756609572921
 20
1841.279548962931
 10
279.4511551763936
 20
1841.203939478362
 10
279.4474034780582
 20
1841.186452390685
 10
279.4376184052522
 20
1841.082094983214
 10
279.4376184052522
 20
1838.448334990039
  0
LWPOLYLINE
  5
35F
330
1F
100
AcDbEntity
  8
Hewi
370
    13
100
AcDbPolyline
 90
       16
 70
     0
 43
0.0
 10
280.5371574826337
 20
1841.004979145794
 10
280.5371574826337
 20
1841.057094807806
 10
280.5371574826337
 20
1841.092812462236
 10
280.5313613834796
 20
1841.16683274725
 10
280.5294706199502
 20
1841.17770282842
 10
280.5064100319011
 20
1841.257240091828
 10
280.5053062021256
 20
1841.25997166339
 10
280.455674243807
 20
1841.349541741079
 10
280.4517899550829
 20
1841.354905496311
 10
280.3724147127367
 20
1841.440835274831
 10
280.3708651584971
 20
1841.442197770838
 10
280.2752214134254
 20
1841.511158523587
 10
280.2534123953019
 20
1841.523165568458
 10
280.1688011852432
 20
1841.55882100224
 10
280.1227772045696
 20
1841.571747208986
 10
280.0531563611521
 20
1841.583820795178
  0
LINE
  5
360
330
1F
100
AcDbEntity
  8
Hewi
370
    13
100
AcDbLine
 10
279.5751877209805
 20
1838.278210694061
 30
0.0
 11
279.6123033581194
 21
1838.274492938988
 31
0.0
  0
LWPOLYLINE
  5
361
330
1F
100
AcDbEntity
  8
Hewi
370
    13
100
AcDbPolyline
 90
        9
 70
     0
 43
0.0
 10
279.4461333657544
 20
1838.394501016584
 10
279.4581982949113
 20
1838.366149881478
 10
279.4635710922149
 20
1838.356807187742
 10
279.479511959717
 20
1838.334975449641
 10
279.4888718311348
 20
1838.324891500405
 10
279.5065197247346
 20
1838.309552268233
 10
279.5094552000641
 20
1838.307378072969
 10
279.5329578661177
 20
1838.293052536993
 10
279.5390557435545
 20
1838.290120182961
  0
LINE
  5
362
330
1F
100
AcDbEntity
  8
Hewi
370
    13
100
AcDbLine
 10
280.1429830964027
 20
1841.004985448256
 30
0.0
 11
280.5371574826337
 21
1841.004979145794
 31
0.0
  0
LWPOLYLINE
  5
363
330
1F
100
AcDbEntity
  8
Hewi
370
    13
100
AcDbPolyline
 90
        7
 70
     0
 43
0.0
 10
279.9268169220197
 20
1841.586149954355
 10
279.8735253195793
 20
1841.580267577753
 10
279.8052509461892
 20
1841.565733425406
 10
279.7775425442479
 20
1841.557238711046
 10
279.6976982189649
 20
1841.522552664288
 10
279.6860277109941
 20
1841.51601153541
 10
279.605155335265
 20
1841.457495907911
  0
LWPOLYLINE
  5
364
330
1F
100
AcDbEntity
  8
Hewi
370
    13
100
AcDbPolyline
 90
        3
 70
     0
 43
0.0
 10
280.0531563611521
 20
1841.583820795178
 10
280.0153256958428
 20
1841.586145294329
 10
279.9789595862985
 20
1841.58794269242
  0
LWPOLYLINE
  5
365
330
1F
100
AcDbEntity
  8
Hewi
370
    13
100
AcDbPolyline
 90
        3
 70
     0
 43
0.0
 10
279.4397202830932
 20
1838.42133581838
 10
279.4439948798485
 20
1838.401601840807
 10
279.4461333657544
 20
1838.394501016584
  0
LWPOLYLINE
  5
366
330
1F
100
AcDbEntity
  8
Hewi
370
    13
100
AcDbPolyline
 90
       36
 70
     0
 43
0.0
 10
279.6123033581194
 20
1838.274492938988
 10
279.9589563936054
 20
1838.277028736298
 10
280.1183471379074
 20
1838.277591005434
 10
280.1865828574396
 20
1838.280889229845
 10
280.2081518551107
 20
1838.283478892058
 10
280.2487548953807
 20
1838.290786182077
 10
280.2990088126996
 20
1838.305151661836
 10
280.3290966798438
 20
1838.317294854479
 10
280.3732816204366
 20
1838.3414966222
 10
280.3963506410342
 20
1838.358046191544
 10
280.4290875065659
 20
1838.387919211302
 10
280.4505167789526
 20
1838.413040193274
 10
280.4763567433841
 20
1838.452203918633
 10
280.4906229998861
 20
1838.480144418827
 10
280.5152582920273
 20
1838.548739636955
 10
280.5255238619476
 20
1838.594083504013
 10
280.5368844177879
 20
1838.710365076333
 10
280.5371574826337
 20
1838.733342881936
 10
280.5371574826337
 20
1840.401204716289
 10
280.5369857118474
 20
1840.419569057325
 10
280.5330388900706
 20
1840.48754420748
 10
280.5254732348989
 20
1840.541436761565
 10
280.5206831123797
 20
1840.564875157324
 10
280.5049966658579
 20
1840.619886386074
 10
280.4933731878167
 20
1840.649516788074
 10
280.4743696299648
 20
1840.687235021723
 10
280.4529754399821
 20
1840.719845010144
 10
280.4335921272176
 20
1840.743482668511
 10
280.399489868874
 20
1840.775859823534
 10
280.3763789223008
 20
1840.792960375539
 10
280.3329164744933
 20
1840.817561228245
 10
280.3005133469544
 20
1840.831002927909
 10
280.2463169654631
 20
1840.846521924704
 10
280.21833927613
 20
1840.85179903885
 10
280.1183471379074
 20
1840.859247186764
 10
280.1057296541576
 20
1840.859218876248
  0
LWPOLYLINE
  5
367
330
1F
100
AcDbEntity
  8
Hewi
370
    13
100
AcDbPolyline
 90
        3
 70
     0
 43
0.0
 10
279.5390557435545
 20
1838.290120182961
 10
279.5719065433805
 20
1838.278936845459
 10
279.5751877209805
 20
1838.278210694061
  0
LWPOLYLINE
  5
368
330
1F
100
AcDbEntity
  8
Hewi
370
    13
100
AcDbPolyline
 90
       30
 70
     0
 43
0.0
 10
279.9268169220197
 20
1841.586149954355
 10
279.8917410044033
 20
1841.584174189698
 10
279.8160053750963
 20
1841.571651283935
 10
279.7761990403684
 20
1841.560864191413
 10
279.6978243600499
 20
1841.529200214072
 10
279.6737978758115
 20
1841.516207326428
 10
279.6053302986338
 20
1841.468464683029
 10
279.5845375107335
 20
1841.450203594743
 10
279.5277866323861
 20
1841.388779694735
 10
279.5118892500223
 20
1841.367441226182
 10
279.4716091208202
 20
1841.298625339555
 10
279.4611191480909
 20
1841.274880677602
 10
279.4373611438892
 20
1841.198746270231
 10
279.4340304781495
 20
1841.182473595289
 10
279.4280909770994
 20
1841.141772503068
 10
279.4250009215024
 20
1841.082058148121
 10
279.4250009215024
 20
1838.448316919623
 10
279.4271025276929
 20
1838.421311607192
 10
279.4282990404623
 20
1838.414547060458
 10
279.433515472448
 20
1838.394475306575
 10
279.4383261962257
 20
1838.381443909743
 10
279.4509532614826
 20
1838.356779769064
 10
279.4586301857852
 20
1838.345373365758
 10
279.4762543473849
 20
1838.32486318989
 10
279.4861407417617
 20
1838.315758937455
 10
279.4968377163142
 20
1838.307349762454
 10
279.5203403823679
 20
1838.293024226478
 10
279.5592890596314
 20
1838.278908534942
 10
279.5996858743687
 20
1838.274464628474
 10
279.6123033581194
 20
1838.274492938988
  0
LWPOLYLINE
  5
369
330
1F
100
AcDbEntity
  8
Hewi
370
    13
100
AcDbPolyline
 90
        3
 70
     0
 43
0.0
 10
279.9789595862985
 20
1841.58794269242
 10
279.9663421025487
 20
1841.587914381907
 10
279.9268169220197
 20
1841.586149954355
  0
LWPOLYLINE
  5
36A
330
1F
100
AcDbEntity
  8
Hewi
370
    13
100
AcDbPolyline
 90
        3
 70
     0
 43
0.0
 10
279.4376184052522
 20
1838.448334990039
 10
279.4378789824587
 20
1838.438803241542
 10
279.4397202830932
 20
1838.42133581838
  0
LWPOLYLINE
  5
36B
330
1F
100
AcDbEntity
  8
Hewi
370
    13
100
AcDbPolyline
 90
        3
 70
     0
 43
0.0
 10
280.5371574826337
 20
1841.004979145794
 10
280.5245399988847
 20
1841.004950835278
 10
280.1303656126533
 20
1841.004957137741
  0
LINE
  5
36C
330
1F
100
AcDbEntity
  8
Hewi
370
    13
100
AcDbLine
 10
279.605155335265
 20
1841.457495907911
 30
0.0
 11
279.6041587403463
 21
1841.456607670997
 31
0.0
  0
LINE
  5
36D
330
1F
100
AcDbEntity
  8
Hewi
370
    13
100
AcDbLine
 10
279.9789595862985
 20
1841.58794269242
 30
0.0
 11
279.9268169220197
 21
1841.586149954355
 31
0.0
  0
LINE
  5
36E
330
1F
100
AcDbEntity
  8
Hewi
370
    13
100
AcDbLine
 10
280.0531563611521
 20
1841.583820795178
 30
0.0
 11
279.9789595862985
 21
1841.58794269242
 31
0.0
  0
LWPOLYLINE
  5
36F
330
1F
100
AcDbEntity
  8
Hewi
370
    13
100
AcDbPolyline
 90
       26
 70
     0
 43
0.0
 10
281.5122204380478
 20
1838.450633153638
 10
281.479311966355
 20
1838.425806137503
 10
281.4719527679573
 20
1838.421070950502
 10
281.4456774235209
 20
1838.406496364602
 10
281.4306032529533
 20
1838.399729431517
 10
281.3938642258814
 20
1838.387876536312
 10
281.3860304702451
 20
1838.38617005564
 10
281.3404173681736
 20
1838.381670505298
 10
281.3323644286801
 20
1838.381832518005
 10
281.3192400636525
 20
1838.382849148496
 10
281.299806716885
 20
1838.386384372997
 10
281.2949103816869
 20
1838.387727652062
 10
281.2755327745195
 20
1838.39529130537
 10
281.2691706051917
 20
1838.398715914218
 10
281.2546761127267
 20
1838.408815952531
 10
281.2495234206967
 20
1838.413359995607
 10
281.2355099657255
 20
1838.429259176597
 10
281.2316027872019
 20
1838.434914136539
 10
281.2195491560233
 20
1838.457741089762
 10
281.2165176036895
 20
1838.465385329411
 10
281.2092608099708
 20
1838.489608614641
 10
281.205094619106
 20
1838.511191515441
 10
281.2010394843479
 20
1838.566953755233
 10
281.2010301331291
 20
1838.570026630886
 10
281.2010301331291
 20
1840.880049683637
 10
280.8068557468978
 20
1840.880055986099
  0
LINE
  5
370
330
1F
100
AcDbEntity
  8
Hewi
370
    13
100
AcDbLine
 10
281.5122204380478
 20
1838.450633153638
 30
0.0
 11
281.499602954298
 21
1838.450604843123
 31
0.0
  0
LINE
  5
371
330
1F
100
AcDbEntity
  8
Hewi
370
    13
100
AcDbLine
 10
281.5122204380478
 20
1840.880044708009
 30
0.0
 11
281.5122204380478
 21
1838.450633153638
 31
0.0
  0
LWPOLYLINE
  5
372
330
1F
100
AcDbEntity
  8
Hewi
370
    13
100
AcDbPolyline
 90
        3
 70
     0
 43
0.0
 10
281.9063948242792
 20
1838.448321381302
 10
281.9063948242792
 20
1840.880038405547
 10
281.5122204380478
 20
1840.880044708009
  0
LWPOLYLINE
  5
373
330
1F
100
AcDbEntity
  8
Hewi
370
    13
100
AcDbPolyline
 90
        3
 70
     0
 43
0.0
 10
281.5122204380478
 20
1840.880044708009
 10
281.499602954298
 20
1840.880016397494
 10
281.499602954298
 20
1838.450604843123
  0
LWPOLYLINE
  5
374
330
1F
100
AcDbEntity
  8
Hewi
370
    13
100
AcDbPolyline
 90
       20
 70
     0
 43
0.0
 10
280.8068557468978
 20
1840.880055986099
 10
280.8068557468978
 20
1839.596377644601
 10
280.8068557468978
 20
1838.73398919865
 10
280.8109743363478
 20
1838.64795631521
 10
280.8200533452854
 20
1838.586331016653
 10
280.8233301047001
 20
1838.570899981603
 10
280.8401803798936
 20
1838.512816141736
 10
280.8506400086194
 20
1838.486558927863
 10
280.8694657522956
 20
1838.449281658963
 10
280.8910377259197
 20
1838.416480452418
 10
280.9079094624898
 20
1838.395727568333
 10
280.9445232565993
 20
1838.360664555267
 10
280.9597153145098
 20
1838.349099126906
 10
281.0110966006588
 20
1838.319111236411
 10
281.0276639774293
 20
1838.311815726704
 10
281.0976960442324
 20
1838.290253379988
 10
281.1094694082409
 20
1838.28783986277
 10
281.2256657750599
 20
1838.277573300494
 10
281.2312022462386
 20
1838.277571998187
 10
281.7317242308066
 20
1838.274484795605
  0
LWPOLYLINE
  5
375
330
1F
100
AcDbEntity
  8
Hewi
370
    13
100
AcDbPolyline
 90
       10
 70
     0
 43
0.0
 10
281.785433553871
 20
1838.282580110487
 10
281.8137737664038
 20
1838.29444552483
 10
281.823135677438
 20
1838.299763243411
 10
281.8450153922698
 20
1838.315571898901
 10
281.8551464965686
 20
1838.324884604273
 10
281.8705739800241
 20
1838.342460731389
 10
281.8727682119346
 20
1838.345392620462
 10
281.887238144961
 20
1838.368856617538
 10
281.8902092396969
 20
1838.374947568345
 10
281.9016284948692
 20
1838.407821787452
  0
LWPOLYLINE
  5
376
330
1F
100
AcDbEntity
  8
Hewi
370
    13
100
AcDbPolyline
 90
        3
 70
     0
 43
0.0
 10
282.653251556086
 20
1837.403118542411
 10
282.6406340723362
 20
1837.403090231895
 10
282.2464596861049
 20
1837.403096534357
  0
LWPOLYLINE
  5
377
330
1F
100
AcDbEntity
  8
Hewi
370
    13
100
AcDbPolyline
 90
        3
 70
     0
 43
0.0
 10
282.2464596861049
 20
1838.298348274657
 10
282.6406340723362
 20
1838.298341972196
 10
282.653251556086
 20
1838.29837028271
  0
LWPOLYLINE
  5
378
330
1F
100
AcDbEntity
  8
Hewi
370
    13
100
AcDbPolyline
 90
        3
 70
     0
 43
0.0
 10
282.653251556086
 20
1838.29837028271
 10
282.653251556086
 20
1840.88002646404
 10
282.2590771698547
 20
1840.880032766501
  0
LWPOLYLINE
  5
379
330
1F
100
AcDbEntity
  8
Hewi
370
    13
100
AcDbPolyline
 90
        3
 70
     0
 43
0.0
 10
281.9016284948692
 20
1838.407821787452
 10
281.9023790859542
 20
1838.411106392465
 10
281.9063948242792
 20
1838.448321381302
  0
LWPOLYLINE
  5
37A
330
1F
100
AcDbEntity
  8
Hewi
370
    13
100
AcDbPolyline
 90
        3
 70
     0
 43
0.0
 10
281.7317242308066
 20
1838.274484795605
 10
281.7412106536328
 20
1838.274666206907
 10
281.758642871528
 20
1838.276368800282
  0
LWPOLYLINE
  5
37B
330
1F
100
AcDbEntity
  8
Hewi
370
    13
100
AcDbPolyline
 90
       32
 70
     1
 43
0.0
 10
280.0465060125124
 20
1844.949609349507
 10
283.2526919007223
 20
1843.705127134342
 10
283.4214577180505
 20
1843.593611236198
 10
283.5643372262824
 20
1843.450221262432
 10
283.6754552115344
 20
1843.2808534173
 10
284.367710116923
 20
1841.759254865931
 10
284.8767198485866
 20
1840.211388255366
 10
285.3415987887883
 20
1837.134171626608
 10
285.0693155569608
 20
1833.699774815146
 10
283.6239690520788
 20
1829.300776565122
 10
283.5104117865022
 20
1829.111559092161
 10
283.3582316383125
 20
1828.951976891078
 10
283.1748536420998
 20
1828.829816150647
 10
281.6746646194356
 20
1828.151383122435
 10
280.1488882333977
 20
1827.652699094815
 10
277.1164596585582
 20
1827.197881014725
 10
273.7333104112728
 20
1827.466255941829
 10
269.4017010528888
 20
1828.885614826998
 10
269.1991908688696
 20
1829.009353971807
 10
269.0315415074097
 20
1829.177602294439
 10
268.9082441337508
 20
1829.380834719822
 10
268.1211218751757
 20
1831.365517370052
 10
267.5783911682604
 20
1833.315158858177
 10
267.2172193410041
 20
1836.723794702251
 10
267.6420431692541
 20
1840.019733519807
 10
268.8528626530093
 20
1843.202975310844
 10
268.97459336442
 20
1843.387003582307
 10
269.1336124135456
 20
1843.539722448024
 10
269.3221610884676
 20
1843.653680588837
 10
271.3236923710114
 20
1844.461097145846
 10
273.2895048324122
 20
1845.017593235445
 10
276.7254436564091
 20
1845.387098049874
  0
LWPOLYLINE
  5
37C
330
1F
100
AcDbEntity
  8
Hewi
370
    13
100
AcDbPolyline
 90
        3
 70
     0
 43
0.0
 10
281.758642871528
 20
1838.276368800282
 10
281.7783297687792
 20
1838.280490536789
 10
281.785433553871
 20
1838.282580110487
  0
LWPOLYLINE
  5
37D
330
1F
100
AcDbEntity
  8
Hewi
370
    13
100
AcDbPolyline
 90
       22
 70
     0
 43
0.0
 10
281.7317242308066
 20
1838.274484795605
 10
281.7191067470572
 20
1838.27445648509
 10
281.2185847624887
 20
1838.277543687672
 10
281.21304829131
 20
1838.277544989978
 10
281.0968519244907
 20
1838.287811552255
 10
281.0850785604826
 20
1838.290225069473
 10
281.0150464936803
 20
1838.311787416188
 10
280.9984791169098
 20
1838.319082925895
 10
280.9470978307599
 20
1838.349070816393
 10
280.9319057728494
 20
1838.360636244752
 10
280.8952919787405
 20
1838.395699257818
 10
280.8784202421689
 20
1838.416452141902
 10
280.8568482685457
 20
1838.449253348448
 10
280.8380225248696
 20
1838.486530617348
 10
280.8275628961438
 20
1838.512787831222
 10
280.8107126209494
 20
1838.570871671088
 10
280.8074358615355
 20
1838.586302706137
 10
280.7983568525979
 20
1838.647928004696
 10
280.7942382631479
 20
1838.733960888135
 10
280.7942382631479
 20
1839.596349334086
 10
280.7942382631471
 20
1840.880027675584
 10
280.8068557468978
 20
1840.880055986099
  0
LWPOLYLINE
  5
37E
330
1F
100
AcDbEntity
  8
Hewi
370
    13
100
AcDbPolyline
 90
        3
 70
     0
 43
0.0
 10
282.2590771698547
 20
1840.880032766501
 10
282.2464596861049
 20
1840.880004455986
 10
282.2464596861049
 20
1838.298348274657
  0
LINE
  5
37F
330
1F
100
AcDbEntity
  8
Hewi
370
    13
100
AcDbLine
 10
282.2590771698547
 20
1838.006899274376
 30
0.0
 11
282.2590771698547
 21
1837.403124844872
 31
0.0
  0
LINE
  5
380
330
1F
100
AcDbEntity
  8
Hewi
370
    13
100
AcDbLine
 10
282.2590771698547
 20
1837.403124844872
 30
0.0
 11
282.2464596861049
 21
1837.403096534357
 31
0.0
  0
LWPOLYLINE
  5
381
330
1F
100
AcDbEntity
  8
Hewi
370
    13
100
AcDbPolyline
 90
        3
 70
     0
 43
0.0
 10
282.653251556086
 20
1837.403118542411
 10
282.653251556086
 20
1838.006892971915
 10
282.2590771698547
 20
1838.006899274376
  0
LINE
  5
382
330
1F
100
AcDbEntity
  8
Hewi
370
    13
100
AcDbLine
 10
282.2590771698547
 20
1837.403124844872
 30
0.0
 11
282.653251556086
 21
1837.403118542411
 31
0.0
  0
LINE
  5
383
330
1F
100
AcDbEntity
  8
Hewi
370
    13
100
AcDbLine
 10
282.2590771698547
 20
1838.298376585172
 30
0.0
 11
282.653251556086
 21
1838.29837028271
 31
0.0
  0
LWPOLYLINE
  5
384
330
1F
100
AcDbEntity
  8
Hewi
370
    13
100
AcDbPolyline
 90
        3
 70
     0
 43
0.0
 10
282.2464596861049
 20
1837.403096534357
 10
282.2464596861049
 20
1838.006870963862
 10
282.2590771698547
 20
1838.006899274376
  0
LINE
  5
385
330
1F
100
AcDbEntity
  8
Hewi
370
    13
100
AcDbLine
 10
282.2590771698547
 20
1838.298376585172
 30
0.0
 11
282.2464596861049
 21
1838.298348274657
 31
0.0
  0
LINE
  5
386
330
1F
100
AcDbEntity
  8
Hewi
370
    13
100
AcDbLine
 10
282.2590771698547
 20
1840.880032766501
 30
0.0
 11
282.2590771698547
 21
1838.298376585172
 31
0.0
  0
LWPOLYLINE
  5
387
330
1F
100
AcDbEntity
  8
Hewi
370
    13
100
AcDbPolyline
 90
       31
 70
     0
 43
0.0
 10
276.2843235743339
 20
1825.487818886249
 10
277.480224233705
 20
1825.554690707073
 10
278.353699553681
 20
1825.689334641976
 10
279.8597164245198
 20
1826.101227951407
 10
280.4257009909237
 20
1826.319464268087
 10
282.1186085374627
 20
1827.212564160249
 10
282.3680229245745
 20
1827.379026084091
 10
284.0536113089395
 20
1828.814541056573
 10
284.0643465520632
 20
1828.825797301731
 10
285.3869175930602
 20
1830.526394420237
 10
285.5517573178171
 20
1830.797438842431
 10
286.3209578546833
 20
1832.390462841656
 10
286.5200715570257
 20
1832.952560075816
 10
286.8803921823759
 20
1834.399995631688
 10
287.003178466155
 20
1835.324628094987
 10
287.0424552880761
 20
1836.566657993312
 10
286.934970415276
 20
1837.835345193724
 10
286.7586462232408
 20
1838.766915674185
 10
286.2811927581315
 20
1840.286464243578
 10
286.0328182690399
 20
1840.862554881508
 10
285.100440049281
 20
1842.481402270678
 10
284.9230678074467
 20
1842.72820025663
 10
283.5277913682772
 20
1844.275085721887
 10
282.3371568834433
 20
1845.57294018542
 10
282.1851737057748
 20
1845.77648763904
 10
281.3747859094194
 20
1847.094554823712
 10
281.1517307199117
 20
1847.558470251547
 10
280.5742391129733
 20
1849.219258183652
 10
280.4437588421602
 20
1849.812304360414
 10
280.2701471223237
 20
1851.670862565817
 10
280.2701471223237
 20
1855.487754779025
  0
LWPOLYLINE
  5
388
330
1F
100
AcDbEntity
  8
Hewi
370
    13
100
AcDbPolyline
 90
       40
 70
     0
 43
0.0
 10
272.7967279698431
 20
1855.487874409511
 10
272.6858618225326
 20
1855.475340138344
 10
272.5805549667846
 20
1855.438362300253
 10
272.4860879280704
 20
1855.378795118449
 10
272.4071976781711
 20
1855.299625540155
 10
272.3478401036321
 20
1855.204823458612
 10
272.3109916410969
 20
1855.099142646047
 10
272.2985000263451
 20
1854.987882379688
 10
272.2985000263442
 20
1851.670990024643
 10
272.2983475210806
 20
1851.615664353465
 10
272.1513809221201
 20
1849.958961713054
 10
272.1434470404902
 20
1849.913757028919
 10
271.7212991511404
 20
1848.316965687772
 10
271.66985209857
 20
1848.1753367057
 10
270.6428880772527
 20
1846.151104765897
 10
270.6019947440781
 20
1846.089606486163
 10
269.0408557803912
 20
1844.275317353792
 10
269.0091250252562
 20
1844.24622085937
 10
267.6455793412218
 20
1842.728476506741
 10
267.4422349283689
 20
1842.444284748731
 10
266.535828879628
 20
1840.862866619264
 10
266.2702100568175
 20
1840.243090620588
 10
265.8100009254269
 20
1838.767250622497
 10
265.6270453756998
 20
1837.789008068588
 10
265.5261918605914
 20
1836.567002017281
 10
265.5696553028794
 20
1835.279139440131
 10
265.688254966292
 20
1834.400334473197
 10
266.0621347816668
 20
1832.9112635893
 10
266.2476892939854
 20
1832.390783793552
 10
267.0397902003564
 20
1830.758988690005
 10
267.1817295556083
 20
1830.526685503355
 10
268.515035839729
 20
1828.814789503169
 10
268.5365596220994
 20
1828.792318009764
 10
270.2006242240939
 20
1827.379220628874
 10
270.4896447218725
 20
1827.187229401886
 10
272.142946157745
 20
1826.319596701221
 10
272.7525966542971
 20
1826.08601176561
 10
274.2149475949865
 20
1825.689400816564
 10
275.1324501268921
 20
1825.549879742161
 10
276.2843235743339
 20
1825.487818886249
  0
LWPOLYLINE
  5
389
330
1F
100
AcDbEntity
  8
Hewi
370
    13
100
AcDbPolyline
 90
       34
 70
     1
 43
0.0
 10
278.4431019430059
 20
1840.650666846537
 10
278.4296145890114
 20
1840.612142998325
 10
278.4210634091825
 20
1840.531297104458
 10
278.4210634091825
 20
1839.544730051654
 10
278.4285157289029
 20
1838.563833834786
 10
278.4382211108989
 20
1838.535858150633
 10
278.449359016573
 20
1838.515309032733
 10
278.4644742864206
 20
1838.495041193895
 10
278.4860847980293
 20
1838.475856458007
 10
278.514724405034
 20
1838.460537412639
 10
278.5465732562052
 20
1838.451179375727
 10
278.5799117738879
 20
1838.447418242218
 10
278.6130203804258
 20
1838.448889907054
 10
278.6441794981625
 20
1838.455230265185
 10
278.6716402308142
 20
1838.466068929981
 10
278.6958977655471
 20
1838.482245671587
 10
278.716282793364
 20
1838.504047591104
 10
278.7315477626673
 20
1838.52980730416
 10
278.7446784850657
 20
1838.568011886594
 10
278.7529997344292
 20
1838.648364197099
 10
278.7529997344292
 20
1839.632566156762
 10
278.7461506241275
 20
1840.611537763848
 10
278.7370049974761
 20
1840.639380950963
 10
278.726430242345
 20
1840.659766821732
 10
278.7120102363445
 20
1840.67986142389
 10
278.6910783002962
 20
1840.699712389633
 10
278.6628870474975
 20
1840.715892315462
 10
278.6311994993166
 20
1840.726168388687
 10
278.5977710663677
 20
1840.730838866463
 10
278.5643571592668
 20
1840.730202005941
 10
278.5327131886269
 20
1840.724556064271
 10
278.5046126495162
 20
1840.714204835544
 10
278.4797087174105
 20
1840.698298444875
 10
278.4587779689154
 20
1840.676551228372
  0
LWPOLYLINE
  5
38A
330
1F
100
AcDbEntity
  8
Hewi
370
    13
100
AcDbPolyline
 90
       33
 70
     1
 43
0.0
 10
271.9609031051852
 20
1838.715005094711
 10
272.0134196742434
 20
1838.484852941294
 10
272.1336413276624
 20
1838.17748009979
 10
272.2484176236496
 20
1837.970999490889
 10
272.393713530043
 20
1837.798428104256
 10
272.4823310238609
 20
1837.726941464236
 10
272.5773537606007
 20
1837.67016327084
 10
272.6737340226104
 20
1837.631053814248
 10
272.7581578125476
 20
1837.612651580728
 10
272.8189678057463
 20
1837.610092758802
 10
272.8763333310225
 20
1837.61801818132
 10
272.9331314331882
 20
1837.639167172694
 10
272.9879636267587
 20
1837.67641208336
 10
273.0371160747675
 20
1837.728182389678
 10
273.0930587647883
 20
1837.816481574261
 10
273.1521276090542
 20
1837.962829083747
 10
273.21836201131
 20
1838.278650483667
 10
273.2271290383532
 20
1838.502784713168
 10
273.2064333751388
 20
1838.662398299259
 10
273.1564448828164
 20
1838.804344450628
 10
273.1099116572822
 20
1838.878398395085
 10
273.0519492649831
 20
1838.942664737317
 10
272.9455854806032
 20
1839.021707612987
 10
272.7894984010772
 20
1839.090022553435
 10
272.5940797917927
 20
1839.129446871217
 10
272.412437947646
 20
1839.133004604326
 10
272.2817308266543
 20
1839.115466971848
 10
272.1764430087769
 20
1839.084693682622
 10
272.107597591952
 20
1839.051919443346
 10
272.0499538388937
 20
1839.010600489961
 10
272.0068189998268
 20
1838.962048192341
 10
271.9797730141594
 20
1838.910439494054
 10
271.9607198322101
 20
1838.832284316326
  0
LINE
  5
38B
330
1F
100
AcDbEntity
  8
Hewi
370
    13
100
AcDbLine
 10
276.9528335400791
 20
1838.43081066447
 30
0.0
 11
276.9430513264337
 21
1838.420977113047
 31
0.0
  0
LWPOLYLINE
  5
38C
330
1F
100
AcDbEntity
  8
Hewi
370
    13
100
AcDbPolyline
 90
       10
 70
     0
 43
0.0
 10
279.8991404276172
 20
1838.406383031687
 10
279.9424297926679
 20
1838.390089792112
 10
279.9510563678167
 20
1838.387899605396
 10
279.9737761979985
 20
1838.383739298857
 10
280.0048921908502
 20
1838.381691859036
 10
280.0060973872986
 20
1838.381695442247
 10
280.0246960982788
 20
1838.382736382919
 10
280.0382386248209
 20
1838.384829148489
 10
280.042967964407
 20
1838.385870612354
 10
280.0656121773867
 20
1838.393602322792
  0
LINE
  5
38D
330
1F
100
AcDbEntity
  8
Hewi
370
    13
100
AcDbLine
 10
280.0656121773867
 20
1838.393602322792
 30
0.0
 11
280.0660854081884
 21
1838.393820493611
 31
0.0
  0
LWPOLYLINE
  5
38E
330
1F
100
AcDbEntity
  8
Hewi
370
    13
100
AcDbPolyline
 90
       18
 70
     0
 43
0.0
 10
280.0660854081884
 20
1838.393820493611
 10
280.0853538705016
 20
1838.40529307263
 10
280.0869241607422
 20
1838.406489605983
 10
280.1034147887536
 20
1838.422365875512
 10
280.1047322687442
 20
1838.423954336749
 10
280.1206190317491
 20
1838.448948766067
 10
280.1216230417161
 20
1838.45102131407
 10
280.1348289665209
 20
1838.489625793754
 10
280.1354422717334
 20
1838.492299079434
 10
280.1429830964027
 20
1838.570043548022
 10
280.1429830964027
 20
1838.575594169804
 10
280.1429830964027
 20
1840.54453376198
 10
280.1429830964027
 20
1840.566793538675
 10
280.140305436068
 20
1840.615597936088
 10
280.1400978237627
 20
1840.617310410064
 10
280.1322724550634
 20
1840.657097830786
 10
280.1319279341736
 20
1840.658301891724
 10
280.1223290578714
 20
1840.684310533008
  0
LWPOLYLINE
  5
38F
330
1F
100
AcDbEntity
  8
Hewi
370
    13
100
AcDbPolyline
 90
       19
 70
     0
 43
0.0
 10
280.1218716206709
 20
1840.68529109137
 10
280.1097546451877
 20
1840.706260628612
 10
280.1079753602316
 20
1840.708716691787
 10
280.0922932489204
 20
1840.725889601017
 10
280.0905836737452
 20
1840.727374632034
 10
280.0718001171033
 20
1840.740166890945
 10
280.0696965612125
 20
1840.741264912112
 10
280.0474219781482
 20
1840.749825258044
 10
280.0432124171409
 20
1840.750911378695
 10
280.0093436806504
 20
1840.755100152767
 10
280.0048921908502
 20
1840.755149961227
 10
279.9747817068122
 20
1840.753234728414
 10
279.9532669094945
 20
1840.74945033945
 10
279.945175456433
 20
1840.74748805904
 10
279.8945778305055
 20
1840.728211993407
 10
279.8874756566441
 20
1840.724500410605
 10
279.8317927914827
 20
1840.686187015924
 10
279.8317927914836
 20
1838.45066002203
 10
279.8649604784241
 20
1838.425831949402
  0
LINE
  5
390
330
1F
100
AcDbEntity
  8
Hewi
370
    13
100
AcDbLine
 10
279.8988542618316
 20
1838.406521096788
 30
0.0
 11
279.8991404276172
 21
1838.406383031687
 31
0.0
  0
LINE
  5
391
330
1F
100
AcDbEntity
  8
Hewi
370
    13
100
AcDbLine
 10
279.8649604784241
 20
1838.425831949402
 30
0.0
 11
279.8651005225154
 21
1838.425739826617
 31
0.0
  0
LINE
  5
392
330
1F
100
AcDbEntity
  8
Hewi
370
    13
100
AcDbLine
 10
279.8651005225154
 20
1838.425739826617
 30
0.0
 11
279.8988542618316
 21
1838.406521096788
 31
0.0
  0
LINE
  5
393
330
1F
100
AcDbEntity
  8
Hewi
370
    13
100
AcDbLine
 10
279.5943192511607
 20
1851.717173768864
 30
0.0
 11
279.3274935456894
 21
1851.809263848148
 31
0.0
  0
LINE
  5
394
330
1F
100
AcDbEntity
  8
Hewi
370
    13
100
AcDbLine
 10
279.2736912353187
 20
1851.487770881212
 30
0.0
 11
279.2574033504495
 21
1851.490651891138
 31
0.0
  0
LWPOLYLINE
  5
395
330
1F
100
AcDbEntity
  8
Hewi
370
    13
100
AcDbPolyline
 90
        9
 70
     0
 43
0.0
 10
275.7172236731721
 20
1855.487884674075
 10
275.7894642781904
 20
1853.590178354918
 10
276.1352006169888
 20
1851.782189660726
 10
276.2027738088862
 20
1851.641984862555
 10
276.2534537028078
 20
1851.572678515324
 10
276.3041335967303
 20
1851.52805861893
 10
276.3484683679335
 20
1851.504997427654
 10
276.3935171625306
 20
1851.492907236075
 10
276.4836147517268
 20
1851.487815491801
  0
LWPOLYLINE
  5
396
330
1F
100
AcDbEntity
  8
Hewi
370
    13
100
AcDbPolyline
 90
        9
 70
     0
 43
0.0
 10
276.4836147517268
 20
1851.487815491801
 10
276.5589157598622
 20
1851.490785998696
 10
276.598220238349
 20
1851.498290260554
 10
276.6342167679978
 20
1851.511586770898
 10
276.6797005984143
 20
1851.540286206219
 10
276.7342811949159
 20
1851.597432236441
 10
276.8070553235832
 20
1851.723308563506
 10
277.1604367818911
 20
1853.458749317912
 10
277.1838528109781
 20
1855.487861338035
  0
LWPOLYLINE
  5
397
330
1F
100
AcDbEntity
  8
Hewi
370
    13
100
AcDbPolyline
 90
        3
 70
     0
 43
0.0
 10
279.537913050748
 20
1851.717144113489
 10
279.5755292533355
 20
1851.717157779404
 10
279.5943192511607
 20
1851.717173768864
  0
LINE
  5
398
330
1F
100
AcDbEntity
  8
Hewi
370
    13
100
AcDbLine
 10
281.758642871528
 20
1838.276368800282
 30
0.0
 11
281.7317242308066
 21
1838.274484795605
 31
0.0
  0
LINE
  5
399
330
1F
100
AcDbEntity
  8
Hewi
370
    13
100
AcDbLine
 10
281.9016284948692
 20
1838.407821787452
 30
0.0
 11
281.9063948242792
 21
1838.448321381302
 31
0.0
  0
LWPOLYLINE
  5
39A
330
1F
100
AcDbEntity
  8
Hewi
370
    13
100
AcDbPolyline
 90
        9
 70
     0
 43
0.0
 10
278.5070631680933
 20
1855.48784042679
 10
278.5162080634326
 20
1854.110902222006
 10
278.9148633965969
 20
1851.809337026492
 10
278.9781514857348
 20
1851.667435809639
 10
279.0256175525887
 20
1851.594029086606
 10
279.0783576268693
 20
1851.539646256293
 10
279.1174243485592
 20
1851.514331972733
 10
279.1695133108125
 20
1851.495641759646
 10
279.2736912353187
 20
1851.487770881212
  0
LWPOLYLINE
  5
39B
330
1F
100
AcDbEntity
  8
Hewi
370
    13
100
AcDbPolyline
 90
        7
 70
     0
 43
0.0
 10
279.2736912353187
 20
1851.487770881212
 10
279.3483374452576
 20
1851.490664547048
 10
279.3873001421097
 20
1851.497974730118
 10
279.4229836551956
 20
1851.510927369023
 10
279.4680719699234
 20
1851.538884594672
 10
279.5221779475967
 20
1851.594552754254
 10
279.5943192511607
 20
1851.717173768864
  0
LINE
  5
39C
330
1F
100
AcDbEntity
  8
Hewi
370
    13
100
AcDbLine
 10
279.5390557435545
 20
1838.290120182961
 30
0.0
 11
279.5751877209805
 21
1838.278210694061
 31
0.0
  0
LINE
  5
39D
330
1F
100
AcDbEntity
  8
Hewi
370
    13
100
AcDbLine
 10
279.4461333657544
 20
1838.394501016584
 30
0.0
 11
279.4397202830932
 21
1838.42133581838
 31
0.0
  0
LINE
  5
39E
330
1F
100
AcDbEntity
  8
Hewi
370
    13
100
AcDbLine
 10
276.4836147517268
 20
1851.487815491801
 30
0.0
 11
276.4860191343526
 21
1851.490772896588
 31
0.0
  0
LWPOLYLINE
  5
39F
330
1F
100
AcDbEntity
  8
Hewi
370
    13
100
AcDbPolyline
 90
        3
 70
     0
 43
0.0
 10
279.8273794398044
 20
1853.422022894806
 10
279.9062058139132
 20
1853.422051532322
 10
279.9455810643685
 20
1853.422085038924
  0
LWPOLYLINE
  5
3A0
330
1F
100
AcDbEntity
  8
Hewi
370
    13
100
AcDbPolyline
 90
       17
 70
     0
 43
0.0
 10
272.8062816087664
 20
1837.610626580902
 10
272.8595100193554
 20
1837.617980433966
 10
272.916308121522
 20
1837.639129425341
 10
272.9711403150922
 20
1837.676374336006
 10
273.0202927631014
 20
1837.728144642324
 10
273.0762354531218
 20
1837.816443826907
 10
273.135304297388
 20
1837.962791336394
 10
273.2015386996435
 20
1838.278612736314
 10
273.210305726687
 20
1838.502746965815
 10
273.1896100634726
 20
1838.662360551905
 10
273.13962157115
 20
1838.804306703275
 10
273.0930883456152
 20
1838.878360647731
 10
273.0351259533169
 20
1838.942626989965
 10
272.928762168937
 20
1839.021669865633
 10
272.772675089411
 20
1839.089984806082
 10
272.5772564801256
 20
1839.129409123865
 10
272.4100494604708
 20
1839.132684128876
  0
LINE
  5
3A1
330
1F
100
AcDbEntity
  8
Hewi
370
    13
100
AcDbLine
 10
279.5943192511607
 20
1851.717173768864
 30
0.0
 11
279.9455810643685
 21
1853.422085038924
 31
0.0
  0
LINE
  5
3A2
330
1F
100
AcDbEntity
  8
Hewi
370
    13
100
AcDbLine
 10
281.758642871528
 20
1838.276368800282
 30
0.0
 11
281.785433553871
 21
1838.282580110487
 31
0.0
  0
LINE
  5
3A3
330
1F
100
AcDbEntity
  8
Hewi
370
    13
100
AcDbLine
 10
279.1084075765185
 20
1854.1107495715
 30
0.0
 11
279.9455810643685
 21
1853.422085038924
 31
0.0
  0
LINE
  5
3A4
330
1F
100
AcDbEntity
  8
Hewi
370
    13
100
AcDbLine
 10
279.4376184052522
 20
1838.448334990039
 30
0.0
 11
279.4397202830932
 21
1838.42133581838
 31
0.0
  0
LINE
  5
3A5
330
1F
100
AcDbEntity
  8
Hewi
370
    13
100
AcDbLine
 10
280.1223290578714
 20
1840.684310533008
 30
0.0
 11
280.1218716206709
 21
1840.68529109137
 31
0.0
  0
LWPOLYLINE
  5
3A6
330
1F
100
AcDbEntity
  8
Hewi
370
    13
100
AcDbPolyline
 90
       18
 70
     0
 43
0.0
 10
278.5765255906371
 20
1838.447800259462
 10
278.6004028966759
 20
1838.44886159654
 10
278.6315620144135
 20
1838.455201954669
 10
278.6590227470641
 20
1838.466040619466
 10
278.6832802817973
 20
1838.482217361072
 10
278.7036653096133
 20
1838.504019280591
 10
278.7189302789165
 20
1838.529778993646
 10
278.732061001315
 20
1838.567983576079
 10
278.7403822506802
 20
1838.648335886584
 10
278.7403822506802
 20
1839.632537846248
 10
278.7335331403777
 20
1840.611509453333
 10
278.7243875137262
 20
1840.639352640448
 10
278.7138127585952
 20
1840.659738511218
 10
278.6993927525945
 20
1840.679833113375
 10
278.678460816546
 20
1840.699684079118
 10
278.6502695637476
 20
1840.715864004946
 10
278.6185820155667
 20
1840.726140078172
 10
278.5864899077172
 20
1840.730623850317
  0
LWPOLYLINE
  5
3A7
330
1F
100
AcDbEntity
  8
Hewi
370
    13
100
AcDbPolyline
 90
       15
 70
     0
 43
0.0
 10
280.0907973050037
 20
1838.422337564997
 10
280.0921147849944
 20
1838.423926026234
 10
280.1080015480001
 20
1838.448920455553
 10
280.1090055579654
 20
1838.450993003555
 10
280.1222114827707
 20
1838.489597483238
 10
280.1228247879832
 20
1838.492270768919
 10
280.1303656126533
 20
1838.570015237507
 10
280.1303656126533
 20
1838.575565859289
 10
280.1303656126533
 20
1840.544505451465
 10
280.1303656126533
 20
1840.56676522816
 10
280.1276879523182
 20
1840.615569625573
 10
280.1274803400137
 20
1840.617282099549
 10
280.1196549713141
 20
1840.65706952027
 10
280.1193104504243
 20
1840.658273581209
 10
280.1097115741216
 20
1840.684282222494
  0
LWPOLYLINE
  5
3A8
330
1F
100
AcDbEntity
  8
Hewi
370
    13
100
AcDbPolyline
 90
        3
 70
     0
 43
0.0
 10
280.0534679244391
 20
1838.393792183096
 10
280.0727363867519
 20
1838.405264762115
 10
280.0743066769929
 20
1838.406461295469
  0
LWPOLYLINE
  5
3A9
330
1F
100
AcDbEntity
  8
Hewi
370
    13
100
AcDbPolyline
 90
        3
 70
     0
 43
0.0
 10
280.0796757651706
 20
1840.725861290502
 10
280.0779661899953
 20
1840.72734632152
 10
280.0591826333526
 20
1840.740138580429
  0
LWPOLYLINE
  5
3AA
330
1F
100
AcDbEntity
  8
Hewi
370
    13
100
AcDbPolyline
 90
        5
 70
     0
 43
0.0
 10
279.9998498390307
 20
1838.382023647027
 10
280.0120786145295
 20
1838.382708072405
 10
280.0256211410719
 20
1838.384800837974
 10
280.0303504806576
 20
1838.385842301839
 10
280.0529946936375
 20
1838.393574012277
  0
LINE
  5
3AB
330
1F
100
AcDbEntity
  8
Hewi
370
    13
100
AcDbLine
 10
280.0796757651706
 20
1840.725861290502
 30
0.0
 11
280.0570790774618
 21
1840.741236601597
 31
0.0
  0
LWPOLYLINE
  5
3AC
330
1F
100
AcDbEntity
  8
Hewi
370
    13
100
AcDbPolyline
 90
       14
 70
     0
 43
0.0
 10
275.9659970159235
 20
1834.769253939904
 10
276.4331874809402
 20
1834.769246469986
 10
277.0162840874705
 20
1834.625005569465
 10
277.5480424220309
 20
1834.344916127431
 10
277.9975586230809
 20
1833.945255924172
 10
278.3387084429399
 20
1833.449251757996
 10
278.5516654941075
 20
1832.885729588139
 10
278.6240534868353
 20
1832.287439274792
 10
278.5516654941075
 20
1831.689151276273
 10
278.3387084429399
 20
1831.125635916364
 10
277.9975586230809
 20
1830.62964265949
 10
277.5480424220309
 20
1830.229996830878
 10
277.0162840874705
 20
1829.949924393434
 10
276.4344170179892
 20
1829.806006251079
  0
LWPOLYLINE
  5
3AD
330
1F
100
AcDbEntity
  8
Hewi
370
    13
100
AcDbPolyline
 90
       12
 70
     0
 43
0.0
 10
276.2126289577121
 20
1839.735100408845
 10
276.2148385612128
 20
1839.733755903639
 10
276.2236940378132
 20
1839.724996069864
 10
276.2368441584512
 20
1839.705936023773
 10
276.5966691754248
 20
1838.71585439895
 10
276.6766510347149
 20
1838.585698524047
 10
276.7382135360362
 20
1838.513308727297
 10
276.7972989452728
 20
1838.461517976767
 10
276.8449448399077
 20
1838.432009859088
 10
276.8729047191242
 20
1838.42063637259
 10
276.8913660106231
 20
1838.416323032868
 10
276.9073398111352
 20
1838.415531773634
  0
LINE
  5
3AE
330
1F
100
AcDbEntity
  8
Hewi
370
    13
100
AcDbLine
 10
280.1097115741216
 20
1840.684282222494
 30
0.0
 11
280.1092541369211
 21
1840.685262780856
 31
0.0
  0
LINE
  5
3AF
330
1F
100
AcDbEntity
  8
Hewi
370
    13
100
AcDbLine
 10
280.0534679244391
 20
1838.393792183096
 30
0.0
 11
280.0743066769929
 21
1838.406461295469
 31
0.0
  0
LWPOLYLINE
  5
3B0
330
1F
100
AcDbEntity
  8
Hewi
370
    13
100
AcDbPolyline
 90
        4
 70
     0
 43
0.0
 10
280.1092541369211
 20
1840.685262780856
 10
280.0971371614379
 20
1840.706232318097
 10
280.0953578764817
 20
1840.708688381272
 10
280.0796757651706
 20
1840.725861290502
  0
LINE
  5
3B1
330
1F
100
AcDbEntity
  8
Hewi
370
    13
100
AcDbLine
 10
280.0529946936375
 20
1838.393574012277
 30
0.0
 11
280.0534679244391
 21
1838.393792183096
 31
0.0
  0
LINE
  5
3B2
330
1F
100
AcDbEntity
  8
Hewi
370
    13
100
AcDbLine
 10
280.0534679244391
 20
1838.393792183096
 30
0.0
 11
280.0907973050037
 21
1838.422337564997
 31
0.0
  0
LWPOLYLINE
  5
3B3
330
1F
100
AcDbEntity
  8
Hewi
370
    13
100
AcDbPolyline
 90
        8
 70
     0
 43
0.0
 10
281.499602954298
 20
1838.450604843123
 10
281.4666944826051
 20
1838.425777826988
 10
281.4593352842065
 20
1838.421042639987
 10
281.4330599397719
 20
1838.406468054087
 10
281.4179857692041
 20
1838.399701121002
 10
281.3812467421307
 20
1838.387848225797
 10
281.3734129864961
 20
1838.386141745125
 10
281.330888335887
 20
1838.381946858185
  0
LWPOLYLINE
  5
3B4
330
1F
100
AcDbEntity
  8
Hewi
370
    13
100
AcDbPolyline
 90
       17
 70
     0
 43
0.0
 10
276.7160238262089
 20
1845.386085030411
 10
280.0296827008445
 20
1844.949571602153
 10
283.2358685890552
 20
1843.705089386989
 10
283.4046344063851
 20
1843.593573488845
 10
283.5475139146167
 20
1843.450183515078
 10
283.6586318998674
 20
1843.280815669946
 10
284.3508868052576
 20
1841.759217118578
 10
284.8598965369218
 20
1840.211350508016
 10
285.3247754771298
 20
1837.134133879269
 10
285.0524922453105
 20
1833.699737067828
 10
283.6071457404456
 20
1829.30073881784
 10
283.4935884746069
 20
1829.111521344701
 10
283.3414083261708
 20
1828.95193914346
 10
283.1580303296989
 20
1828.829778402915
 10
281.6578413072012
 20
1828.151345374789
 10
280.1320649213208
 20
1827.652661347247
 10
277.1056206934902
 20
1827.198740828121
  0
LWPOLYLINE
  5
3B5
330
1F
100
AcDbEntity
  8
Hewi
370
    13
100
AcDbPolyline
 90
        4
 70
     0
 43
0.0
 10
280.0570790774618
 20
1840.741236601597
 10
280.0348044943975
 20
1840.749796947529
 10
280.030594933391
 20
1840.75088306818
 10
279.99908248544
 20
1840.754780424226
  0
LINE
  5
3B6
330
1F
100
AcDbEntity
  8
Hewi
370
    13
100
AcDbLine
 10
280.0591826333526
 20
1840.740138580429
 30
0.0
 11
280.0796757651706
 21
1840.725861290502
 31
0.0
  0
LWPOLYLINE
  5
3B7
330
1F
100
AcDbEntity
  8
Hewi
370
    13
100
AcDbPolyline
 90
       13
 70
     0
 43
0.0
 10
270.658276849041
 20
1838.213165541101
 10
270.6584583771189
 20
1838.213007693072
 10
270.6630747862389
 20
1838.207074668866
 10
270.7360092802785
 20
1837.990104713327
 10
271.0024046359864
 20
1837.140019011081
 10
271.0835756742913
 20
1836.986856542273
 10
271.1350400679889
 20
1836.918728782987
 10
271.1669631835737
 20
1836.88808190088
 10
271.1868264202196
 20
1836.87411778454
 10
271.2008502935502
 20
1836.867004732304
 10
271.2140405734722
 20
1836.862748492959
 10
271.2263209105497
 20
1836.861328171094
 10
271.2431442222158
 20
1836.861365918447
  0
LINE
  5
3B8
330
1F
100
AcDbEntity
  8
Hewi
370
    13
100
AcDbLine
 10
280.0743066769929
 20
1838.406461295469
 30
0.0
 11
280.0907973050037
 21
1838.422337564997
 31
0.0
  0
LINE
  5
3B9
330
1F
100
AcDbEntity
  8
Hewi
370
    13
100
AcDbLine
 10
280.0591826333526
 20
1840.740138580429
 30
0.0
 11
280.0570790774618
 21
1840.741236601597
 31
0.0
  0
LINE
  5
3BA
330
1F
100
AcDbEntity
  8
Hewi
370
    13
100
AcDbLine
 10
279.9455810643685
 20
1853.422085038924
 30
0.0
 11
279.9718931983419
 21
1855.487816641068
 31
0.0
  0
LWPOLYLINE
  5
3BB
330
1F
100
AcDbEntity
  8
Hewi
370
    13
100
AcDbPolyline
 90
       48
 70
     1
 43
0.0
 10
269.9732103759576
 20
1856.087313610751
 10
269.73154361975
 20
1856.087526972753
 10
269.7759206018547
 20
1856.087821457616
 10
270.1883970593572
 20
1856.088105514401
 10
270.9453543330265
 20
1856.088362877837
 10
272.0034485772409
 20
1856.088578811134
 10
273.3020926556155
 20
1856.088740949817
 10
274.7669253982242
 20
1856.088840009723
 10
276.3519693324257
 20
1856.088870176561
 10
277.9281503391358
 20
1856.088826413737
 10
279.4007956722104
 20
1856.088711349847
 10
280.6814514185662
 20
1856.088531896164
 10
281.6931954506982
 20
1856.088298831509
 10
282.3752577266454
 20
1856.088026154827
 10
282.6866704207402
 20
1856.087730244342
 10
282.6087286413452
 20
1856.087428873817
 10
282.4360993920937
 20
1856.086952682369
 10
282.7039373689455
 20
1856.087033999349
 10
283.2230005036389
 20
1856.087300652503
 10
283.4413399404521
 20
1856.087584145661
 10
283.510629830776
 20
1856.095708437887
 10
283.57616664069
 20
1856.119642315976
 10
283.6344004963477
 20
1856.1580893899
 10
283.6816904735566
 20
1856.21548865679
 10
287.0902594431153
 20
1861.087534127116
 10
287.0611530828152
 20
1862.087455540111
 10
286.9670964595154
 20
1862.087965967979
 10
286.2143693233837
 20
1862.088456403546
 10
284.8490381747906
 20
1862.088896832417
 10
282.9546605538409
 20
1862.089260300578
 10
280.6471713633556
 20
1862.08952456397
 10
278.0677877144894
 20
1862.089673449818
 10
275.6312954429778
 20
1862.089700985411
 10
273.2235416710789
 20
1862.089625139165
 10
270.9652612268205
 20
1862.08944971433
 10
268.9696937214343
 20
1862.089183507436
 10
267.3369052424068
 20
1862.088839867211
 10
266.1487706220064
 20
1862.088436025208
 10
265.4648678913178
 20
1862.087992231754
 10
265.3360636229725
 20
1862.087482076098
 10
265.3185662447269
 20
1861.087744475996
 10
268.7274022394054
 20
1856.215645078283
 10
268.7747783314545
 20
1856.158204364401
 10
268.8330094193149
 20
1856.119756389343
 10
268.8985431143295
 20
1856.095821497113
 10
268.967829707347
 20
1856.087696132264
 10
269.0861442480165
 20
1856.087386052114
 10
269.6130912393873
 20
1856.087070722478
  0
LINE
  5
3BC
330
1F
100
AcDbEntity
  8
Hewi
370
    13
100
AcDbLine
 10
326.2044110968485
 20
844.0987810903692
 30
0.0
 11
326.2044110968485
 21
2143.835743633747
 31
0.0
  0
LWPOLYLINE
  5
3BD
330
1F
100
AcDbEntity
  8
Hewi
370
    13
100
AcDbPolyline
 90
        3
 70
     0
 43
0.0
 10
279.9724750013622
 20
1841.504351314071
 10
279.9913080179503
 20
1841.503431080704
 10
280.0131110250559
 20
1841.500002347599
  0
LINE
  5
3BE
330
1F
100
AcDbEntity
  8
Hewi
370
    13
100
AcDbLine
 10
278.8842103606405
 20
1854.668527761533
 30
0.0
 11
278.8810215103525
 21
1855.487834167454
 31
0.0
  0
LINE
  5
3BF
330
1F
100
AcDbEntity
  8
Hewi
370
    13
100
AcDbLine
 10
280.2701471223237
 20
1855.487754779025
 30
0.0
 11
280.2701471223237
 21
1855.487812033853
 31
0.0
  0
LWPOLYLINE
  5
3C0
330
1F
100
AcDbEntity
  8
Hewi
370
    13
100
AcDbPolyline
 90
        3
 70
     0
 43
0.0
 10
274.9889309212373
 20
1855.487839358334
 10
274.9889309212373
 20
1855.487839358334
 10
273.7931838212047
 20
1855.487858477159
  0
LINE
  5
3C1
330
1F
100
AcDbEntity
  8
Hewi
370
    13
100
AcDbLine
 10
226.2044145909726
 20
2152.323088010091
 30
0.0
 11
226.2044145909726
 21
2152.035743723811
 31
0.0
  0
LINE
  5
3C2
330
1F
100
AcDbEntity
  8
Hewi
370
    13
100
AcDbLine
 10
326.2044110968485
 20
2152.035742093996
 30
0.0
 11
326.2044110968485
 21
2152.336232953154
 31
0.0
  0
LINE
  5
3C3
330
1F
100
AcDbEntity
  8
Hewi
370
    13
100
AcDbLine
 10
274.8908664430108
 20
1855.487897952544
 30
0.0
 11
274.8908663843009
 21
1855.487840937819
 31
0.0
  0
LWPOLYLINE
  5
3C4
330
1F
100
AcDbEntity
  8
Hewi
370
    13
100
AcDbPolyline
 90
        8
 70
     0
 43
0.0
 10
280.1057296541576
 20
1840.859218876248
 10
280.0938394784511
 20
1840.859125232095
 10
280.0372158642515
 20
1840.855888802449
 10
279.9877521898479
 20
1840.848683395852
 10
279.9743035346561
 20
1840.845896300559
 10
279.8961974662755
 20
1840.820956393926
 10
279.8904377783454
 20
1840.818415495043
 10
279.8317927907469
 20
1840.783464040141
  0
LINE
  5
3C5
330
1F
100
AcDbEntity
  8
Hewi
370
    13
100
AcDbLine
 10
273.7931838212047
 20
1855.487858477159
 30
0.0
 11
272.7967279698431
 21
1855.487874409511
 31
0.0
  0
LINE
  5
3C6
330
1F
100
AcDbEntity
  8
Hewi
370
    13
100
AcDbLine
 10
226.2044145909726
 20
2153.848379472921
 30
0.0
 11
226.2044145909726
 21
2152.035743715243
 31
0.0
  0
LWPOLYLINE
  5
3C7
330
1F
100
AcDbEntity
  8
Hewi
370
    13
100
AcDbPolyline
 90
       32
 70
     0
 43
0.0
 10
320.4044112995108
 20
2101.863323000483
 10
320.4044112995108
 20
2102.145858142796
 10
320.4044112995108
 20
2102.978347764705
 10
320.4044112995108
 20
2104.319047360396
 10
320.4044112995108
 20
2106.100728653864
 10
320.4044112995108
 20
2108.234050705403
 10
320.4044112995108
 20
2110.612039839373
 10
320.4044112995099
 20
2113.115453750977
 10
320.4044112995099
 20
2140.615453531001
 10
320.153690430089
 20
2142.840662852765
 10
319.4141000131371
 20
2144.95429088747
 10
318.2227262004212
 20
2146.850351499715
 10
316.6393094496545
 20
2148.433768293142
 10
314.7432488884938
 20
2149.625142137956
 10
312.6296209107342
 20
2150.364732574834
 10
310.4044116489224
 20
2150.615453451011
 10
242.004414038903
 20
2150.615453451011
 10
239.7792047770919
 20
2150.364732574834
 10
237.6655767993317
 20
2149.625142137956
 10
235.7695162381701
 20
2148.433768293141
 10
234.1860994874041
 20
2146.850351499715
 10
232.9947256746881
 20
2144.954290887469
 10
232.2551352577373
 20
2142.840662852763
 10
232.0044143883153
 20
2140.615453531001
 10
232.0044143883153
 20
2113.115453750977
 10
232.0044143883153
 20
2110.612039839373
 10
232.0044143883153
 20
2108.234050705403
 10
232.0044143883153
 20
2106.100728653864
 10
232.0044143883153
 20
2104.319047360395
 10
232.0044143883153
 20
2102.978347764705
 10
232.0044143883153
 20
2102.145858142796
 10
232.0044143883153
 20
2101.863323000483
  0
LWPOLYLINE
  5
3C8
330
1F
100
AcDbEntity
  8
Hewi
370
    13
100
AcDbPolyline
 90
       12
 70
     0
 43
0.0
 10
279.9350152221522
 20
2103.109561133678
 10
279.74623682277
 20
2103.109466852463
 10
279.1984557319817
 20
2103.109316538628
 10
278.4766717514417
 20
2103.109195422636
 10
277.6228323425213
 20
2103.109110543302
 10
276.6865595480872
 20
2103.109066833509
 10
275.7222661397388
 20
2103.109066833509
 10
274.7859933453038
 20
2103.109110543302
 10
273.9321539363835
 20
2103.109195422636
 10
273.2103699558436
 20
2103.109316538628
 10
272.6625888650561
 20
2103.109466852463
 10
272.4557680552574
 20
2103.109570144562
  0
LWPOLYLINE
  5
3C9
330
1F
100
AcDbEntity
  8
Hewi
370
    13
100
AcDbPolyline
 90
       36
 70
     1
 43
0.0
 10
275.3358054248663
 20
2104.704195168804
 10
276.1424550588832
 20
2104.77863260572
 10
276.9540776276126
 20
2104.723842885767
 10
277.7269987739245
 20
2104.553668432343
 10
278.4317323685089
 20
2104.291861014864
 10
279.0388815212854
 20
2103.962176096157
 10
279.5472312185838
 20
2103.566333568773
 10
279.9497893847844
 20
2103.092158583472
 10
280.2044127041482
 20
2102.521670120451
 10
280.2044127041482
 20
2102.157690844556
 10
280.2044127041482
 20
2101.937279013216
 10
280.2044127041482
 20
2101.863323000483
 10
280.2044127041482
 20
2101.859818951687
 10
280.0881799779138
 20
2101.859637638441
 10
279.74623682277
 20
2101.859466862462
 10
279.1984557319817
 20
2101.859316548628
 10
278.4766717514417
 20
2101.859195432635
 10
277.6228323425213
 20
2101.859110553301
 10
276.6865595480872
 20
2101.859066843508
 10
275.7222661397388
 20
2101.859066843508
 10
274.7859933453038
 20
2101.859110553301
 10
273.9321539363835
 20
2101.859195432634
 10
273.2103699558436
 20
2101.859316548628
 10
272.6625888650561
 20
2101.859466862462
 10
272.3206457099122
 20
2101.859637638441
 10
272.2044129836779
 20
2101.859818951687
 10
272.2044129836779
 20
2101.863323000483
 10
272.2044129836779
 20
2101.937279013217
 10
272.2044129836779
 20
2102.157690844557
 10
272.2044129836779
 20
2102.521670120451
 10
272.3118161802263
 20
2102.877333345354
 10
272.5663354988693
 20
2103.287948025007
 10
272.8097184443071
 20
2103.537736299273
 10
273.2849789416697
 20
2103.906112670911
 10
273.8797253460272
 20
2104.244140891681
 10
274.5724464583044
 20
2104.518103731269
  0
LINE
  5
3CA
330
1F
100
AcDbEntity
  8
Hewi
370
    13
100
AcDbLine
 10
320.4044112995108
 20
1873.351240595134
 30
0.0
 11
318.2044113763822
 21
1873.351240595134
 31
0.0
  0
LWPOLYLINE
  5
3CB
330
1F
100
AcDbEntity
  8
Hewi
370
    13
100
AcDbPolyline
 90
       10
 70
     0
 43
0.0
 10
232.004414388317
 20
1873.351240595134
 10
232.004414388317
 20
1870.84782668353
 10
232.004414388317
 20
1868.469837549561
 10
232.004414388317
 20
1866.336515498021
 10
232.004414388317
 20
1864.554834204553
 10
232.004414388317
 20
1863.214134608863
 10
232.004414388317
 20
1862.381644986953
 10
232.004414388317
 20
1862.099109844641
 10
232.004414388317
 20
1862.085046297449
 10
265.3360215906353
 20
1862.085046297449
  0
LWPOLYLINE
  5
3CC
330
1F
100
AcDbEntity
  8
Hewi
370
    13
100
AcDbPolyline
 90
       10
 70
     0
 43
0.0
 10
287.0612227243823
 20
1862.085046297449
 10
320.4044112995108
 20
1862.085046297448
 10
320.4044112995108
 20
1862.099109844641
 10
320.4044112995108
 20
1862.381644986952
 10
320.4044112995108
 20
1863.214134608862
 10
320.4044112995108
 20
1864.554834204552
 10
320.4044112995108
 20
1866.336515498021
 10
320.4044112995108
 20
1868.469837549559
 10
320.4044112995108
 20
1870.847826683529
 10
320.4044112995108
 20
1873.351240595134
  0
LWPOLYLINE
  5
3CD
330
1F
100
AcDbEntity
  8
Hewi
370
    13
100
AcDbPolyline
 90
       32
 70
     1
 43
0.0
 10
249.6947250911704
 20
2041.440076641752
 10
250.8860989038864
 20
2043.336137253996
 10
252.4695156546524
 20
2044.919554047423
 10
254.3655762158137
 20
2046.110927892237
 10
256.4792041935733
 20
2046.850518329115
 10
258.7044134553851
 20
2047.101002445238
 10
293.7044122324418
 20
2047.101239205291
 10
295.9296214942536
 20
2046.850518329115
 10
298.0432494720123
 20
2046.110927892238
 10
299.939310033174
 20
2044.919554047423
 10
301.52272678394
 20
2043.336137253997
 10
302.7141005966559
 20
2041.440076641752
 10
303.4536910136083
 20
2039.326448607046
 10
303.7044118830293
 20
2037.101239285283
 10
303.7044118830293
 20
1927.101240165182
 10
303.4536910136083
 20
1924.876030843419
 10
302.7141005966565
 20
1922.762402808714
 10
301.5227267839405
 20
1920.866342196469
 10
299.9393100331745
 20
1919.282925403042
 10
298.0432494720132
 20
1918.091551558227
 10
295.9296214942536
 20
1917.351961121349
 10
293.7044122324418
 20
1917.101240245173
 10
258.7044134553851
 20
1917.101240245173
 10
256.4792041935733
 20
1917.351961121349
 10
254.3655762158137
 20
1918.091551558227
 10
252.4695156546529
 20
1919.282925403042
 10
250.8860989038869
 20
1920.866342196468
 10
249.6947250911709
 20
1922.762402808714
 10
248.9551346742185
 20
1924.876030843419
 10
248.7044138047976
 20
1927.101240165182
 10
248.7044138047976
 20
2037.101239285282
 10
248.9551346742185
 20
2039.326448607046
  0
LWPOLYLINE
  5
3CE
330
1F
100
AcDbEntity
  8
Hewi
370
    13
100
AcDbPolyline
 90
        4
 70
     0
 43
0.0
 10
320.704411289028
 20
2109.201958997177
 10
320.704411289028
 20
2109.015225417446
 10
320.704411289028
 20
2108.901702608102
 10
320.704411289028
 20
2108.863550234141
  0
LWPOLYLINE
  5
3CF
330
1F
100
AcDbEntity
  8
Hewi
370
    13
100
AcDbPolyline
 90
        8
 70
     0
 43
0.0
 10
320.4044112995108
 20
2091.851238847332
 10
320.4044112995108
 20
2094.076495657647
 10
320.4044112995108
 20
2096.19026377673
 10
320.4044112995108
 20
2098.086550044766
 10
320.4044112995108
 20
2099.670266750071
 10
320.4044112995108
 20
2100.861999724018
 10
320.4044112995108
 20
2101.601990499048
 10
320.4044112995108
 20
2101.853132847771
  0
LINE
  5
3D0
330
1F
100
AcDbEntity
  8
Hewi
370
    13
100
AcDbLine
 10
320.704411289028
 20
2108.863550234141
 30
0.0
 11
320.704411289028
 21
2108.863322944489
 31
0.0
  0
LWPOLYLINE
  5
3D1
330
1F
100
AcDbEntity
  8
Hewi
370
    13
100
AcDbPolyline
 90
        5
 70
     0
 43
0.0
 10
320.3694748101922
 20
2091.851002087278
 10
320.5536428462604
 20
2091.850927280639
 10
320.6664306728861
 20
2091.850847553128
 10
320.704411289028
 20
2091.850765327225
 10
320.704411289028
 20
1873.350767075026
  0
LINE
  5
3D2
330
1F
100
AcDbEntity
  8
Hewi
370
    13
100
AcDbLine
 10
320.6603281511032
 20
2109.645249814634
 30
0.0
 11
320.704411289028
 21
2109.201958997177
 31
0.0
  0
LWPOLYLINE
  5
3D3
330
1F
100
AcDbEntity
  8
Hewi
370
    13
100
AcDbPolyline
 90
        6
 70
     0
 43
0.0
 10
320.4044112910951
 20
2110.327388691578
 10
320.4410433821625
 20
2110.258481154862
 10
320.5657497636282
 20
2109.979767127077
 10
320.5735495222758
 20
2109.958250689503
 10
320.6515905858531
 20
2109.686715954391
 10
320.6603281511032
 20
2109.645249814634
  0
LINE
  5
3D4
330
1F
100
AcDbEntity
  8
Hewi
370
    13
100
AcDbLine
 10
320.704411289028
 20
2108.863322944489
 30
0.0
 11
320.704411289028
 21
2104.363322980486
 31
0.0
  0
LWPOLYLINE
  5
3D5
330
1F
100
AcDbEntity
  8
Hewi
370
    13
100
AcDbPolyline
 90
        8
 70
     0
 43
0.0
 10
232.0044143883153
 20
2101.85313284777
 10
232.0044143883153
 20
2101.601990499048
 10
232.0044143883153
 20
2100.861999724018
 10
232.0044143883153
 20
2099.670266750071
 10
232.0044143883153
 20
2098.086550044766
 10
232.0044143883153
 20
2096.19026377673
 10
232.0044143883153
 20
2094.076495657646
 10
232.0044143883153
 20
2091.851238847332
  0
LWPOLYLINE
  5
3D6
330
1F
100
AcDbEntity
  8
Hewi
370
    13
100
AcDbPolyline
 90
       11
 70
     0
 43
0.0
 10
320.704411289028
 20
1873.349914738833
 10
320.7044112890288
 20
1872.149914748432
 10
320.7044112890288
 20
1871.599510110959
 10
320.7044112890288
 20
1871.059561992347
 10
320.7044112890288
 20
1870.540342399235
 10
320.6836997270763
 20
1870.230513404973
 10
320.6804872128252
 20
1870.207309737446
 10
320.6219410297864
 20
1869.920704800958
 10
320.6101924884758
 20
1869.877744739388
 10
320.4410433821643
 20
1869.425354055083
 10
320.4044112947558
 20
1869.358151937823
  0
LWPOLYLINE
  5
3D7
330
1F
100
AcDbEntity
  8
Hewi
370
    13
100
AcDbPolyline
 90
        5
 70
     0
 43
0.0
 10
320.704411289028
 20
2104.363322980486
 10
320.704411289028
 20
2104.353132827773
 10
320.6664306728861
 20
2103.919012387079
 10
320.5536428462604
 20
2103.498082476298
 10
320.4044112986464
 20
2103.178054381058
  0
LWPOLYLINE
  5
3D8
330
1F
100
AcDbEntity
  8
Hewi
370
    13
100
AcDbPolyline
 90
        4
 70
     0
 43
0.0
 10
320.704411289028
 20
2104.363322980486
 10
320.6664306728861
 20
2103.929202539791
 10
320.5536428462604
 20
2103.50827262901
 10
320.4044113013909
 20
2103.188244539656
  0
LWPOLYLINE
  5
3D9
330
1F
100
AcDbEntity
  8
Hewi
370
    13
100
AcDbPolyline
 90
        4
 70
     0
 43
0.0
 10
320.4044112986473
 20
1873.350989644337
 10
320.5536428462612
 20
1873.350929028442
 10
320.6664306728861
 20
1873.35084930093
 10
320.7044112890288
 20
1873.350767075026
  0
LINE
  5
3DA
330
1F
100
AcDbEntity
  8
Hewi
370
    13
100
AcDbLine
 10
320.704411289028
 20
1873.349914738833
 30
0.0
 11
320.7044112890288
 21
1873.350767075026
 31
0.0
  0
LWPOLYLINE
  5
3DB
330
1F
100
AcDbEntity
  8
Hewi
370
    13
100
AcDbPolyline
 90
        4
 70
     0
 43
0.0
 10
232.0044143891796
 20
2103.188244533771
 10
231.8551828415657
 20
2103.50827262901
 10
231.7423950149408
 20
2103.92920253979
 10
231.7044143987986
 20
2104.363322980486
  0
LWPOLYLINE
  5
3DC
330
1F
100
AcDbEntity
  8
Hewi
370
    13
100
AcDbPolyline
 90
        8
 70
     0
 43
0.0
 10
231.7044143987986
 20
2108.863550234141
 10
231.7044143987981
 20
2108.901702608102
 10
231.7044143987981
 20
2109.015225417446
 10
231.7044143987981
 20
2109.201958997177
 10
231.7251259607515
 20
2109.506601846317
 10
231.7283384750017
 20
2109.529262012406
 10
231.7868846580411
 20
2109.805657367279
 10
231.7986331993508
 20
2109.846372786367
  0
LWPOLYLINE
  5
3DD
330
1F
100
AcDbEntity
  8
Hewi
370
    13
100
AcDbPolyline
 90
       11
 70
     0
 43
0.0
 10
232.0044143930725
 20
1869.358151937822
 10
231.9677823056643
 20
1869.425354055083
 10
231.8430759241987
 20
1869.735178138219
 10
231.8352761655511
 20
1869.758381589114
 10
231.7572351019738
 20
1870.044985604961
 10
231.7484975367243
 20
1870.087945808726
 10
231.7044143987986
 20
1870.540342399235
 10
231.7044143987986
 20
1871.059561992346
 10
231.7044143987986
 20
1871.599510110958
 10
231.7044143987986
 20
1872.149914748433
 10
231.7044143987986
 20
1873.349914738833
  0
LINE
  5
3DE
330
1F
100
AcDbEntity
  8
Hewi
370
    13
100
AcDbLine
 10
231.7986331993508
 20
2109.846372786367
 30
0.0
 11
231.9677823056635
 21
2110.258481154862
 31
0.0
  0
LWPOLYLINE
  5
3DF
330
1F
100
AcDbEntity
  8
Hewi
370
    13
100
AcDbPolyline
 90
        5
 70
     0
 43
0.0
 10
232.0044143864352
 20
2103.178054386944
 10
231.8551828415657
 20
2103.498082476298
 10
231.7423950149408
 20
2103.919012387079
 10
231.7044143987981
 20
2104.353132827773
 10
231.7044143987981
 20
2104.363322980486
  0
LWPOLYLINE
  5
3E0
330
1F
100
AcDbEntity
  8
Hewi
370
    13
100
AcDbPolyline
 90
        4
 70
     0
 43
0.0
 10
231.7044143987986
 20
1873.350767075026
 10
231.7423950149417
 20
1873.35084930093
 10
231.8551828415657
 20
1873.350929028441
 10
232.0044143864365
 20
1873.350989644336
  0
LINE
  5
3E1
330
1F
100
AcDbEntity
  8
Hewi
370
    13
100
AcDbLine
 10
231.7044143987986
 20
2108.86332294449
 30
0.0
 11
231.7044143987986
 21
2104.363322980486
 31
0.0
  0
LINE
  5
3E2
330
1F
100
AcDbEntity
  8
Hewi
370
    13
100
AcDbLine
 10
320.4044112995108
 20
2101.863323006771
 30
0.0
 11
320.4044112995108
 21
2101.853132847771
 31
0.0
  0
LWPOLYLINE
  5
3E3
330
1F
100
AcDbEntity
  8
Hewi
370
    13
100
AcDbPolyline
 90
        3
 70
     0
 43
0.0
 10
231.7986331993508
 20
2109.846372786367
 10
231.8227719490055
 20
2109.911375906686
 10
231.9677823056635
 20
2110.258481154862
  0
LINE
  5
3E4
330
1F
100
AcDbEntity
  8
Hewi
370
    13
100
AcDbLine
 10
320.704411289028
 20
2108.863322944489
 30
0.0
 11
320.404411306216
 21
2108.863322944489
 31
0.0
  0
LWPOLYLINE
  5
3E5
330
1F
100
AcDbEntity
  8
Hewi
370
    13
100
AcDbPolyline
 90
        5
 70
     0
 43
0.0
 10
232.0393508776338
 20
2091.851002087278
 10
231.8551828415657
 20
2091.850927280639
 10
231.7423950149408
 20
2091.850847553127
 10
231.7044143987986
 20
2091.850765327224
 10
231.7044143987986
 20
1873.350767075026
  0
LINE
  5
3E6
330
1F
100
AcDbEntity
  8
Hewi
370
    13
100
AcDbLine
 10
231.7044143987986
 20
2108.86332294449
 30
0.0
 11
231.7044143987986
 21
2108.863550234141
 31
0.0
  0
LWPOLYLINE
  5
3E7
330
1F
100
AcDbEntity
  8
Hewi
370
    13
100
AcDbPolyline
 90
        3
 70
     0
 43
0.0
 10
320.6603281511032
 20
2109.645249814634
 10
320.6746247373222
 20
2109.55613702506
 10
320.704411289028
 20
2109.201958997177
  0
LINE
  5
3E8
330
1F
100
AcDbEntity
  8
Hewi
370
    13
100
AcDbLine
 10
232.0044143883153
 20
2101.85313284777
 30
0.0
 11
232.0044143883153
 21
2101.863323000951
 31
0.0
  0
LINE
  5
3E9
330
1F
100
AcDbEntity
  8
Hewi
370
    13
100
AcDbLine
 10
320.4044112875895
 20
1873.349914738833
 30
0.0
 11
320.704411289028
 21
1873.349914738833
 31
0.0
  0
LWPOLYLINE
  5
3EA
330
1F
100
AcDbEntity
  8
Hewi
370
    13
100
AcDbPolyline
 90
        3
 70
     0
 43
0.0
 10
319.1960263778337
 20
2147.321506191732
 10
317.9935754990209
 20
2147.321506191732
 10
317.9935754990209
 20
2147.079502207316
  0
LWPOLYLINE
  5
3EB
330
1F
100
AcDbEntity
  8
Hewi
370
    13
100
AcDbPolyline
 90
        4
 70
     0
 43
0.0
 10
319.2435754553445
 20
2147.245832266155
 10
319.2435754553445
 20
2147.071206788102
 10
319.2435754553445
 20
2146.332016689377
 10
319.2435754553445
 20
2145.225679140452
  0
LWPOLYLINE
  5
3EC
330
1F
100
AcDbEntity
  8
Hewi
370
    13
100
AcDbPolyline
 90
        4
 70
     0
 43
0.0
 10
233.1652502324807
 20
2145.225679175946
 10
233.1652502324807
 20
2146.332016689376
 10
233.1652502324807
 20
2147.071206788102
 10
233.1652502324807
 20
2147.245832273614
  0
LINE
  5
3ED
330
1F
100
AcDbEntity
  8
Hewi
370
    13
100
AcDbLine
 10
231.7044143987986
 20
1873.349914738833
 30
0.0
 11
232.0044143816109
 21
1873.349914738833
 31
0.0
  0
LINE
  5
3EE
330
1F
100
AcDbEntity
  8
Hewi
370
    13
100
AcDbLine
 10
231.7044143987986
 20
1873.349914738833
 30
0.0
 11
231.7044143987986
 21
1873.350767075026
 31
0.0
  0
LWPOLYLINE
  5
3EF
330
1F
100
AcDbEntity
  8
Hewi
370
    13
100
AcDbPolyline
 90
       32
 70
     0
 43
0.0
 10
229.9544144599458
 20
2101.362413424341
 10
229.9544144599458
 20
2101.613134305014
 10
229.9544144599458
 20
2102.352724755158
 10
229.9544144599458
 20
2103.544098621344
 10
229.9544144599458
 20
2105.127515443174
 10
229.9544144599458
 20
2107.023576089429
 10
229.9544144599458
 20
2109.137204162048
 10
229.9544144599458
 20
2111.362413523727
 10
229.9544144599458
 20
2141.362413821885
 10
230.2364754380436
 20
2143.865774353772
 10
231.0685146571144
 20
2146.243605935469
 10
232.4088101964191
 20
2148.376674162507
 10
234.1901540410323
 20
2150.158018087066
 10
236.323222172338
 20
2151.498313686523
 10
238.7010536473177
 20
2152.330352942936
 10
241.204414066856
 20
2152.612413933694
 10
311.2044116209692
 20
2152.612413933695
 10
313.7077720405075
 20
2152.330352942937
 10
316.0856035154874
 20
2151.498313686524
 10
318.2186716467929
 20
2150.158018087066
 10
320.0000154914055
 20
2148.376674162508
 10
321.3403110307102
 20
2146.243605935469
 10
322.1723502497817
 20
2143.865774353774
 10
322.4544112278802
 20
2141.362413821885
 10
322.454411227881
 20
2111.362413523727
 10
322.454411227881
 20
2109.137204162048
 10
322.454411227881
 20
2107.023576089429
 10
322.454411227881
 20
2105.127515443174
 10
322.454411227881
 20
2103.544098621344
 10
322.454411227881
 20
2102.352724755158
 10
322.454411227881
 20
2101.613134305014
 10
322.454411227881
 20
2101.362413424341
  0
LWPOLYLINE
  5
3F0
330
1F
100
AcDbEntity
  8
Hewi
370
    13
100
AcDbPolyline
 90
       16
 70
     0
 43
0.0
 10
321.204411271557
 20
2141.362413821885
 10
320.9536904021358
 20
2143.587623183564
 10
320.2140999851833
 20
2145.701251256182
 10
319.0227261724674
 20
2147.597311902438
 10
317.4393094217013
 20
2149.180728724268
 10
315.5432488605407
 20
2150.372102590453
 10
313.429620882781
 20
2151.111693040598
 10
311.2044116209692
 20
2151.362413921271
 10
241.204414066856
 20
2151.362413921271
 10
238.9792048050451
 20
2151.111693040597
 10
236.8655768272846
 20
2150.372102590453
 10
234.9695162661238
 20
2149.180728724268
 10
233.3860995153573
 20
2147.597311902438
 10
232.1947257026413
 20
2145.701251256182
 10
231.4551352856902
 20
2143.587623183564
 10
231.2044144162693
 20
2141.362413821885
  0
LWPOLYLINE
  5
3F1
330
1F
100
AcDbEntity
  8
Hewi
370
    13
100
AcDbPolyline
 90
       32
 70
     1
 43
0.0
 10
77.33395038711545
 20
844.0987810903692
 10
76.85892536188515
 20
844.0987810903692
 10
76.50151321807112
 20
844.0987810903692
 10
76.27963609298501
 20
844.0987810903692
 10
76.20441983215909
 20
844.0987810903692
 10
76.20441983215909
 20
836.0987810108603
 10
76.27963609298501
 20
836.0987810108603
 10
76.50151321807112
 20
836.0987810108603
 10
76.85892536188515
 20
836.0987810108603
 10
77.33395038711545
 20
836.0987810108603
 10
77.90276855546334
 20
836.0987810108603
 10
78.53685694879129
 20
836.0987810108603
 10
79.20441972733567
 20
836.0987810108603
 10
473.2044059604866
 20
836.0987810108603
 10
473.8719687390301
 20
836.0987810108603
 10
474.5060571323578
 20
836.0987810108603
 10
475.0748753007068
 20
836.0987810108603
 10
475.5499003259362
 20
836.0987810108603
 10
475.9073124697512
 20
836.0987810108603
 10
476.1291895948365
 20
836.0987810108603
 10
476.2044058556631
 20
836.0987810108603
 10
476.2044058556631
 20
844.0987810903692
 10
476.1291895948365
 20
844.0987810903692
 10
475.9073124697512
 20
844.0987810903692
 10
475.5499003259362
 20
844.0987810903692
 10
475.0748753007068
 20
844.0987810903692
 10
474.5060571323578
 20
844.0987810903692
 10
473.8719687390301
 20
844.0987810903692
 10
473.2044059604866
 20
844.0987810903692
 10
79.20441972733567
 20
844.0987810903692
 10
78.53685694879129
 20
844.0987810903692
 10
77.90276855546334
 20
844.0987810903692
  0
LWPOLYLINE
  5
3F2
330
1F
100
AcDbEntity
  8
Hewi
370
    13
100
AcDbPolyline
 90
       16
 70
     0
 43
0.0
 10
321.2044112715592
 20
1860.362411029137
 10
321.2044112715592
 20
1860.61313190981
 10
321.2044112715592
 20
1861.352722359955
 10
321.2044112715592
 20
1862.54409622614
 10
321.2044112715592
 20
1864.127513047969
 10
321.2044112715592
 20
1866.023573694225
 10
321.2044112715592
 20
1868.137201766844
 10
321.2044112715592
 20
1870.362411128523
 10
321.2044112715576
 20
2090.362413315016
 10
321.2044112715576
 20
2092.810143612863
 10
321.2044112715576
 20
2095.135134492743
 10
321.2044112715576
 20
2097.220801203625
 10
321.2044112715576
 20
2098.962559707638
 10
321.2044112715576
 20
2100.273070960441
 10
321.2044112715576
 20
2101.0866204556
 10
321.2044112715576
 20
2101.362413424341
  0
LWPOLYLINE
  5
3F3
330
1F
100
AcDbEntity
  8
Hewi
370
    13
100
AcDbPolyline
 90
        3
 70
     0
 43
0.0
 10
233.2127993099918
 20
2147.321506191732
 10
234.4152501888042
 20
2147.321506191733
 10
234.4152501888042
 20
2147.079502203587
  0
LWPOLYLINE
  5
3F4
330
1F
100
AcDbEntity
  8
Hewi
370
    13
100
AcDbPolyline
 90
       17
 70
     0
 43
0.0
 10
322.454411227881
 20
2101.362413424341
 10
322.454411227881
 20
2101.0866204556
 10
322.454411227881
 20
2100.273070960441
 10
322.454411227881
 20
2098.962559707638
 10
322.454411227881
 20
2097.220801203625
 10
322.454411227881
 20
2095.135134492743
 10
322.454411227881
 20
2092.810143612863
 10
322.454411227881
 20
2090.362413315016
 10
322.4544112278828
 20
1870.362411128523
 10
322.4544112278828
 20
1868.137201766844
 10
322.4544112278828
 20
1866.023573694225
 10
322.4544112278828
 20
1864.127513047969
 10
322.4544112278828
 20
1862.54409622614
 10
322.4544112278828
 20
1861.352722359955
 10
322.4544112278828
 20
1860.61313190981
 10
322.4544112278828
 20
1860.362411029137
 10
321.2044112715592
 20
1860.362411029137
  0
LINE
  5
3F5
330
1F
100
AcDbEntity
  8
Hewi
370
    13
100
AcDbLine
 10
232.0044143967307
 20
2110.327388691578
 30
0.0
 11
231.9677823056635
 21
2110.258481154862
 31
0.0
  0
LINE
  5
3F6
330
1F
100
AcDbEntity
  8
Hewi
370
    13
100
AcDbLine
 10
232.0044144002371
 20
2108.86332294449
 30
0.0
 11
231.7044143987986
 21
2108.86332294449
 31
0.0
  0
LWPOLYLINE
  5
3F7
330
1F
100
AcDbEntity
  8
Hewi
370
    13
100
AcDbPolyline
 90
       16
 70
     0
 43
0.0
 10
231.2044144162693
 20
2101.362413424341
 10
231.2044144162693
 20
2101.0866204556
 10
231.2044144162693
 20
2100.273070960441
 10
231.2044144162693
 20
2098.962559707638
 10
231.2044144162693
 20
2097.220801203625
 10
231.2044144162693
 20
2095.135134492743
 10
231.2044144162693
 20
2092.810143612863
 10
231.2044144162693
 20
2090.362413315016
 10
231.2044144162693
 20
1870.362411128523
 10
231.2044144162693
 20
1868.137201766845
 10
231.2044144162693
 20
1866.023573694226
 10
231.2044144162693
 20
1864.12751304797
 10
231.2044144162693
 20
1862.54409622614
 10
231.2044144162693
 20
1861.352722359956
 10
231.2044144162693
 20
1860.613131909812
 10
231.2044144162693
 20
1860.362411029138
  0
LWPOLYLINE
  5
3F8
330
1F
100
AcDbEntity
  8
Hewi
370
    13
100
AcDbPolyline
 90
        9
 70
     0
 43
0.0
 10
321.2044112715576
 20
2101.362413424341
 10
321.2044112715576
 20
2101.613134305014
 10
321.2044112715576
 20
2102.352724755158
 10
321.2044112715576
 20
2103.544098621344
 10
321.2044112715576
 20
2105.127515443174
 10
321.2044112715576
 20
2107.023576089429
 10
321.2044112715576
 20
2109.137204162048
 10
321.2044112715576
 20
2111.362413523727
 10
321.2044112715576
 20
2141.362413821885
  0
LWPOLYLINE
  5
3F9
330
1F
100
AcDbEntity
  8
Hewi
370
    13
100
AcDbPolyline
 90
       17
 70
     0
 43
0.0
 10
231.2044144162693
 20
1860.362411029138
 10
229.9544144599458
 20
1860.362411029138
 10
229.9544144599458
 20
1860.613131909812
 10
229.9544144599458
 20
1861.352722359956
 10
229.9544144599458
 20
1862.54409622614
 10
229.9544144599458
 20
1864.12751304797
 10
229.9544144599458
 20
1866.023573694226
 10
229.9544144599458
 20
1868.137201766845
 10
229.9544144599458
 20
1870.362411128523
 10
229.9544144599458
 20
2090.362413315016
 10
229.9544144599458
 20
2092.810143612863
 10
229.9544144599458
 20
2095.135134492743
 10
229.9544144599458
 20
2097.220801203625
 10
229.9544144599458
 20
2098.962559707638
 10
229.9544144599458
 20
2100.273070960441
 10
229.9544144599458
 20
2101.0866204556
 10
229.9544144599458
 20
2101.362413424341
  0
LINE
  5
3FA
330
1F
100
AcDbEntity
  8
Hewi
370
    13
100
AcDbLine
 10
321.2044112715576
 20
2101.362413424341
 30
0.0
 11
322.454411227881
 21
2101.362413424341
 31
0.0
  0
LWPOLYLINE
  5
3FB
330
1F
100
AcDbEntity
  8
Hewi
370
    13
100
AcDbPolyline
 90
        9
 70
     0
 43
0.0
 10
231.2044144162693
 20
1860.362411029138
 10
231.2294865032116
 20
1860.362411029138
 10
231.303445544907
 20
1860.362411029138
 10
231.4225829261788
 20
1860.362411029138
 10
231.5809246012547
 20
1860.362411029138
 10
231.7705306573712
 20
1860.362411029138
 10
231.9818934551473
 20
1860.362411029138
 10
232.2044143813259
 20
1860.362411029138
 10
237.7044141891487
 20
1860.362411029138
  0
LINE
  5
3FC
330
1F
100
AcDbEntity
  8
Hewi
370
    13
100
AcDbLine
 10
229.9544144599458
 20
2101.362413424341
 30
0.0
 11
231.2044144162693
 21
2101.362413424341
 31
0.0
  0
LWPOLYLINE
  5
3FD
330
1F
100
AcDbEntity
  8
Hewi
370
    13
100
AcDbPolyline
 90
        9
 70
     0
 43
0.0
 10
231.2044144162693
 20
2141.362413821885
 10
231.2044144162693
 20
2111.362413523727
 10
231.2044144162693
 20
2109.137204162048
 10
231.2044144162693
 20
2107.023576089429
 10
231.2044144162693
 20
2105.127515443174
 10
231.2044144162693
 20
2103.544098621344
 10
231.2044144162693
 20
2102.352724755158
 10
231.2044144162693
 20
2101.613134305014
 10
231.2044144162693
 20
2101.362413424341
  0
LWPOLYLINE
  5
3FE
330
1F
100
AcDbEntity
  8
Hewi
370
    13
100
AcDbPolyline
 90
        9
 70
     0
 43
0.0
 10
314.7044114986759
 20
1860.362411029137
 10
320.2044113064993
 20
1860.362411029137
 10
320.426932232681
 20
1860.362411029137
 10
320.6382950304565
 20
1860.362411029137
 10
320.8279010865731
 20
1860.362411029137
 10
320.9862427616498
 20
1860.362411029137
 10
321.1053801429209
 20
1860.362411029137
 10
321.1793391846159
 20
1860.362411029137
 10
321.2044112715584
 20
1860.362411029137
  0
LWPOLYLINE
  5
3FF
330
1F
100
AcDbEntity
  8
Hewi
370
    13
100
AcDbPolyline
 90
        8
 70
     0
 43
0.0
 10
232.0885766008869
 20
2141.362413821885
 10
231.9818934551459
 20
2141.362413821885
 10
231.7705306573698
 20
2141.362413821885
 10
231.5809246012539
 20
2141.362413821885
 10
231.4225829261771
 20
2141.362413821885
 10
231.303445544906
 20
2141.362413821885
 10
231.2294865032102
 20
2141.362413821885
 10
231.2044144162685
 20
2141.362413821885
  0
LWPOLYLINE
  5
400
330
1F
100
AcDbEntity
  8
Hewi
370
    13
100
AcDbPolyline
 90
        8
 70
     0
 43
0.0
 10
321.2044112715576
 20
2141.362413821885
 10
321.1793391846153
 20
2141.362413821885
 10
321.10538014292
 20
2141.362413821885
 10
320.9862427616475
 20
2141.362413821885
 10
320.8279010865707
 20
2141.362413821885
 10
320.6382950304542
 20
2141.362413821885
 10
320.4269322326779
 20
2141.362413821885
 10
320.3202490869368
 20
2141.362413821885
  0
LWPOLYLINE
  5
401
330
1F
100
AcDbEntity
  8
Hewi
370
    13
100
AcDbPolyline
 90
        4
 70
     0
 43
0.0
 10
231.2044144162685
 20
1865.761366647584
 10
231.304702764037
 20
1865.761366647584
 10
231.6005389308172
 20
1865.761366647584
 10
232.0044143817806
 20
1865.761366647584
  0
LINE
  5
402
330
1F
100
AcDbEntity
  8
Hewi
370
    13
100
AcDbLine
 10
321.2044112717804
 20
1918.962411611539
 30
0.0
 11
320.70441129254
 21
1918.962411611539
 31
0.0
  0
LINE
  5
403
330
1F
100
AcDbEntity
  8
Hewi
370
    13
100
AcDbLine
 10
321.2044112717809
 20
1913.962511561848
 30
0.0
 11
320.7044112925406
 21
1913.962511561848
 31
0.0
  0
LWPOLYLINE
  5
404
330
1F
100
AcDbEntity
  8
Hewi
370
    13
100
AcDbPolyline
 90
       23
 70
     0
 43
0.0
 10
462.2731102886324
 20
836.0987810108603
 10
460.704657105176
 20
827.1383086553052
 10
460.4326282384893
 20
826.5030430279383
 10
460.1953674758716
 20
826.2497142482962
 10
459.9065064328303
 20
826.0583319505872
 10
459.2382160628717
 20
825.8987809094863
 10
458.7713202661073
 20
825.8987809094863
 10
457.8646629591887
 20
825.8987809094863
 10
456.5709357692293
 20
825.8987809094863
 10
454.9653254180023
 20
825.8987809094863
 10
453.1411441429652
 20
825.8987809094863
 10
451.2044067291933
 20
825.8987809094863
 10
449.2676693154216
 20
825.8987809094863
 10
447.4434880403848
 20
825.8987809094863
 10
445.8378776891581
 20
825.8987809094863
 10
444.5441504991988
 20
825.8987809094863
 10
443.63749319228
 20
825.8987809094863
 10
443.1705973955151
 20
825.8987809094863
 10
442.5023070255571
 20
826.0583319505872
 10
442.2134459825151
 20
826.2497142482962
 10
441.9761852198973
 20
826.5030430279383
 10
441.7041563532107
 20
827.1383086553052
 10
440.1357031697544
 20
836.0987810108603
  0
LWPOLYLINE
  5
405
330
1F
100
AcDbEntity
  8
Hewi
370
    13
100
AcDbPolyline
 90
        4
 70
     0
 43
0.0
 10
321.204411271557
 20
1864.51136663516
 10
321.1041229237885
 20
1864.51136663516
 10
320.8082867570074
 20
1864.51136663516
 10
320.4044113060446
 20
1864.51136663516
  0
LWPOLYLINE
  5
406
330
1F
100
AcDbEntity
  8
Hewi
370
    13
100
AcDbPolyline
 90
        6
 70
     0
 43
0.0
 10
299.4292148894452
 20
1918.962411611539
 10
292.2044122848522
 20
1918.962411611539
 10
292.2044122848522
 20
1918.562411607564
 10
284.2044125643828
 20
1918.562411607564
 10
284.2044125643828
 20
1918.962411611539
 10
283.8979063585664
 20
1918.962411611539
  0
LWPOLYLINE
  5
407
330
1F
100
AcDbEntity
  8
Hewi
370
    13
100
AcDbPolyline
 90
        7
 70
     0
 43
0.0
 10
295.7044121625584
 20
2150.615453451202
 10
295.7044121625584
 20
2150.796297654762
 10
295.7044121625584
 20
2150.985903719388
 10
295.7044121625584
 20
2151.144245401571
 10
295.7044121625584
 20
2151.263382788189
 10
295.7044121625584
 20
2151.337341833203
 10
295.7044121625584
 20
2151.362413921271
  0
LWPOLYLINE
  5
408
330
1F
100
AcDbEntity
  8
Hewi
370
    13
100
AcDbPolyline
 90
        4
 70
     0
 43
0.0
 10
320.4044112989434
 20
1865.761366647584
 10
320.8082867570074
 20
1865.761366647584
 10
321.1041229237885
 20
1865.761366647584
 10
321.204411271557
 20
1865.761366647584
  0
LINE
  5
409
330
1F
100
AcDbEntity
  8
Hewi
370
    13
100
AcDbLine
 10
320.7044113072196
 20
1891.904820811758
 30
0.0
 11
321.204411271557
 21
1887.310222799215
 31
0.0
  0
LWPOLYLINE
  5
40A
330
1F
100
AcDbEntity
  8
Hewi
370
    13
100
AcDbPolyline
 90
        6
 70
     0
 43
0.0
 10
268.5109192696542
 20
1918.962411611539
 10
268.2044131234424
 20
1918.962411611539
 10
268.2044131234424
 20
1918.562411607564
 10
260.2044134029721
 20
1918.562411607564
 10
260.2044134029721
 20
1918.962411611539
 10
252.9796107983794
 20
1918.962411611539
  0
LWPOLYLINE
  5
40B
330
1F
100
AcDbEntity
  8
Hewi
370
    13
100
AcDbPolyline
 90
        7
 70
     0
 43
0.0
 10
256.704413525267
 20
2151.362413921271
 10
256.704413525267
 20
2151.337341833203
 10
256.704413525267
 20
2151.263382788189
 10
256.704413525267
 20
2151.144245401571
 10
256.704413525267
 20
2150.985903719388
 10
256.704413525267
 20
2150.796297654762
 10
256.704413525267
 20
2150.615453444902
  0
LINE
  5
40C
330
1F
100
AcDbEntity
  8
Hewi
370
    13
100
AcDbLine
 10
231.204414416044
 20
1918.962411611539
 30
0.0
 11
231.7044143952846
 21
1918.962411611539
 31
0.0
  0
LINE
  5
40D
330
1F
100
AcDbEntity
  8
Hewi
370
    13
100
AcDbLine
 10
231.2044144162685
 20
1887.310222799214
 30
0.0
 11
231.7044144169334
 21
1891.904821145579
 31
0.0
  0
LINE
  5
40E
330
1F
100
AcDbEntity
  8
Hewi
370
    13
100
AcDbLine
 10
231.7044143952846
 20
1913.962511561846
 30
0.0
 11
231.2044144423857
 21
1913.962511561846
 31
0.0
  0
LWPOLYLINE
  5
40F
330
1F
100
AcDbEntity
  8
Hewi
370
    13
100
AcDbPolyline
 90
        3
 70
     0
 43
0.0
 10
276.2044309893498
 20
2103.631155507921
 10
276.2044128439159
 20
2103.497323583899
 10
276.2044128439159
 20
2103.109066836279
  0
LWPOLYLINE
  5
410
330
1F
100
AcDbEntity
  8
Hewi
370
    13
100
AcDbPolyline
 90
        4
 70
     0
 43
0.0
 10
232.0044143888817
 20
1864.51136663516
 10
231.6005389308172
 20
1864.51136663516
 10
231.304702764037
 20
1864.51136663516
 10
231.2044144162685
 20
1864.51136663516
  0
LWPOLYLINE
  5
411
330
1F
100
AcDbEntity
  8
Hewi
370
    13
100
AcDbPolyline
 90
        5
 70
     0
 43
0.0
 10
266.2044131933258
 20
1961.162412030948
 10
266.2044131933258
 20
1923.162411653281
 10
266.2044131933258
 20
1922.162411643341
 10
266.2044131933258
 20
1921.162411633403
 10
268.5109192994575
 20
1921.162411633403
  0
LWPOLYLINE
  5
412
330
1F
100
AcDbEntity
  8
Hewi
370
    13
100
AcDbPolyline
 90
        5
 70
     0
 43
0.0
 10
283.8979059413345
 20
1921.162411633403
 10
286.2044124945011
 20
1921.162411633403
 10
286.2044124945011
 20
1922.162411643341
 10
286.2044124945011
 20
1923.162411653281
 10
286.2044124945011
 20
1961.162412030948
  0
LWPOLYLINE
  5
413
330
1F
100
AcDbEntity
  8
Hewi
370
    13
100
AcDbPolyline
 90
        7
 70
     0
 43
0.0
 10
287.6203762984191
 20
1918.562411607977
 10
288.0499068774209
 20
1918.991942206256
 10
288.407319021236
 20
1919.560760400133
 10
288.6291961463213
 20
1920.194848821919
 10
288.7044124071478
 20
1920.862411630422
 10
288.7044124071478
 20
1947.862411898764
 10
286.2044124945011
 20
1947.862411898764
  0
LWPOLYLINE
  5
414
330
1F
100
AcDbEntity
  8
Hewi
370
    13
100
AcDbPolyline
 90
        7
 70
     0
 43
0.0
 10
317.415816214298
 20
1862.085046308198
 10
317.4073180079397
 20
1862.060759828664
 10
317.0499058641256
 20
1861.491941634786
 10
316.5748808388953
 20
1861.016916588238
 10
316.0060626705471
 20
1860.659504428383
 10
315.3719742772195
 20
1860.437627293339
 10
314.7044114986754
 20
1860.362411029136
  0
LWPOLYLINE
  5
415
330
1F
100
AcDbEntity
  8
Hewi
370
    13
100
AcDbPolyline
 90
        7
 70
     0
 43
0.0
 10
237.7044141891509
 20
1860.362411029136
 10
237.0368514106074
 20
1860.437627293339
 10
236.4027630172798
 20
1860.659504428381
 10
235.8339448489307
 20
1861.016916588238
 10
235.3589198237013
 20
1861.491941634786
 10
235.0015076798864
 20
1862.060759828663
 10
234.9930094776608
 20
1862.085046296388
  0
LWPOLYLINE
  5
416
330
1F
100
AcDbEntity
  8
Hewi
370
    13
100
AcDbPolyline
 90
       11
 70
     0
 43
0.0
 10
278.3594241858408
 20
2104.318723388197
 10
278.261872436761
 20
2104.225788719659
 10
277.8622194315936
 20
2104.000231215617
 10
277.3662207334315
 20
2103.829049617063
 10
276.8027019837306
 20
2103.722192376285
 10
276.2044128439173
 20
2103.685869647707
 10
275.6061237041031
 20
2103.722192376285
 10
275.042604954403
 20
2103.829049617063
 10
274.546606256241
 20
2104.000231215617
 10
274.1469532510727
 20
2104.225788719659
 10
274.0549480497254
 20
2104.313439356082
  0
LWPOLYLINE
  5
417
330
1F
100
AcDbEntity
  8
Hewi
370
    13
100
AcDbPolyline
 90
       11
 70
     0
 43
0.0
 10
274.4510679600507
 20
2104.470100002162
 10
274.5584451696414
 20
2104.367804907753
 10
274.8781675737764
 20
2104.18735890452
 10
275.2749665323053
 20
2104.050413625676
 10
275.7257815320658
 20
2103.964927833054
 10
276.2044128439173
 20
2103.935869650191
 10
276.6830441557679
 20
2103.964927833054
 10
277.1338591555284
 20
2104.050413625676
 10
277.5306581140581
 20
2104.18735890452
 10
277.8503805181923
 20
2104.367804907753
 10
277.9561279071209
 20
2104.468547320182
  0
LWPOLYLINE
  5
418
330
1F
100
AcDbEntity
  8
Hewi
370
    13
100
AcDbPolyline
 90
        4
 70
     0
 43
0.0
 10
283.8979063493563
 20
1917.101241729651
 10
283.8979063493563
 20
1958.897322138294
 10
284.1460835592092
 20
1960.397322153202
 10
284.1460835592092
 20
2047.101004007042
  0
LWPOLYLINE
  5
419
330
1F
100
AcDbEntity
  8
Hewi
370
    13
100
AcDbPolyline
 90
        7
 70
     0
 43
0.0
 10
266.2044131933258
 20
1947.862411898764
 10
263.7044132806788
 20
1947.862411898764
 10
263.7044132806788
 20
1920.862411630422
 10
263.7796295415047
 20
1920.194848821919
 10
264.0015066665908
 20
1919.560760400133
 10
264.3589188104051
 20
1918.991942206256
 10
264.7884493858684
 20
1918.562411611515
  0
LINE
  5
41A
330
1F
100
AcDbEntity
  8
Hewi
370
    13
100
AcDbLine
 10
237.7044141891509
 20
1860.362411029136
 30
0.0
 11
265.8260556769055
 21
1860.362411029136
 31
0.0
  0
LINE
  5
41B
330
1F
100
AcDbEntity
  8
Hewi
370
    13
100
AcDbLine
 10
286.5829490036623
 20
1860.362411029136
 30
0.0
 11
314.7044114986754
 21
1860.362411029136
 31
0.0
  0
LWPOLYLINE
  5
41C
330
1F
100
AcDbEntity
  8
Hewi
370
    13
100
AcDbPolyline
 90
        4
 70
     0
 43
0.0
 10
268.5109193384774
 20
1917.101239926612
 10
268.5109193384774
 20
1958.897322138294
 10
268.262742128624
 20
1960.397322153202
 10
268.262742128624
 20
2047.101004007042
  0
LWPOLYLINE
  5
41D
330
1F
100
AcDbEntity
  8
Hewi
370
    13
100
AcDbPolyline
 90
       14
 70
     0
 43
0.0
 10
269.973210376532
 20
1856.087957332201
 10
269.9732103765323
 20
1855.687731088091
 10
269.9787148175154
 20
1855.641037847881
 10
269.9949411157571
 20
1855.596930970698
 10
270.0209880735433
 20
1855.557844999462
 10
270.0554062077923
 20
1855.525929556234
 10
270.0962968277675
 20
1855.502949963037
 10
270.1337024329616
 20
1855.49156777053
 10
270.1726066196262
 20
1855.48772815395
 10
270.2275923560408
 20
1855.487461616235
 10
270.6065510843045
 20
1855.48720469097
 10
271.2881051099365
 20
1855.486971521636
 10
272.2369546181242
 20
1855.486774252622
 10
272.6216629777208
 20
1855.486724543781
  0
LWPOLYLINE
  5
41E
330
1F
100
AcDbEntity
  8
Hewi
370
    13
100
AcDbPolyline
 90
        5
 70
     0
 43
0.0
 10
256.9683481554254
 20
2269.881932847918
 10
258.6656651211184
 20
2270.700334258065
 10
260.7035243821296
 20
2271.324953753778
 10
262.9833320888922
 20
2271.725571563863
 10
264.3263723527103
 20
2271.844252804979
  0
LWPOLYLINE
  5
41F
330
1F
100
AcDbEntity
  8
Hewi
370
    13
100
AcDbPolyline
 90
        4
 70
     0
 43
0.0
 10
278.866920334565
 20
1855.688710355598
 10
277.7794083631836
 20
1855.642095113835
 10
277.4363384543404
 20
1855.688799920943
 10
276.338807463254
 20
1855.642133079104
  0
LWPOLYLINE
  5
420
330
1F
100
AcDbEntity
  8
Hewi
370
    13
100
AcDbPolyline
 90
       29
 70
     0
 43
0.0
 10
269.9732103759576
 20
1856.087313610751
 10
269.73154361975
 20
1856.087526972753
 10
269.7759206018547
 20
1856.087821457616
 10
270.1883970593572
 20
1856.088105514401
 10
270.9453543330265
 20
1856.088362877837
 10
272.0034485772409
 20
1856.088578811134
 10
273.3020926556155
 20
1856.088740949817
 10
274.7669253982242
 20
1856.088840009723
 10
276.3519693324257
 20
1856.088870176561
 10
277.9281503391358
 20
1856.088826413737
 10
279.4007956722104
 20
1856.088711349847
 10
280.6814514185662
 20
1856.088531896164
 10
281.6931954506982
 20
1856.088298831509
 10
282.3752577266454
 20
1856.088026154827
 10
282.6866704207402
 20
1856.087730244342
 10
282.6087286413452
 20
1856.087428873817
 10
282.4361006273996
 20
1856.087968354578
 10
282.4356153113039
 20
1855.687547601413
 10
282.4267557848061
 20
1855.640851110285
 10
282.4105410038812
 20
1855.596742615077
 10
282.3845138135188
 20
1855.55765168975
 10
282.3501124599634
 20
1855.525738474363
 10
282.3092379404743
 20
1855.50276647322
 10
282.2718526579795
 20
1855.491385660655
 10
282.2329709602515
 20
1855.487542955614
 10
282.0633624777475
 20
1855.487353628294
 10
281.7292017315954
 20
1855.487172325051
 10
281.0091891806577
 20
1855.486943022921
 10
280.2701470963241
 20
1855.486798575337
  0
LWPOLYLINE
  5
421
330
1F
100
AcDbEntity
  8
Hewi
370
    13
100
AcDbPolyline
 90
       44
 70
     0
 43
0.0
 10
250.7226415490324
 20
2152.612413933794
 10
250.7226415490324
 20
2152.642318126526
 10
250.7226415490324
 20
2169.642314342681
 10
250.7124254223409
 20
2170.622802390326
 10
250.7124254223409
 20
2171.569251059172
 10
250.7124254223409
 20
2172.672688348966
 10
250.7124254223409
 20
2173.606999082001
 10
250.7124254223409
 20
2174.320099880567
 10
250.7044497842248
 20
2268.493677179164
 10
250.7738812474623
 20
2269.022463539577
 10
251.1350589427236
 20
2270.552925312338
 10
251.3406475254434
 20
2271.030073304958
 10
252.3916632527017
 20
2272.465938137226
 10
252.6988858517425
 20
2272.837698849445
 10
254.3548685242014
 20
2274.101246323707
 10
254.7092122865509
 20
2274.327116733773
 10
256.8454533689656
 20
2275.357155759836
 10
259.4103005728412
 20
2276.14330110251
 10
262.2796637982323
 20
2276.647518194276
 10
263.9787480827625
 20
2276.797662190015
 10
264.0446643267806
 20
2276.799994759924
 10
265.7044132107954
 20
2276.848379472921
 10
286.704412477029
 20
2276.848379472921
 10
289.6337500693057
 20
2276.696404676499
 10
289.7500875064945
 20
2276.689958069049
 10
292.6484094623559
 20
2276.22357154605
 10
295.2591543731277
 20
2275.471373200696
 10
297.456011557836
 20
2274.469755207818
 10
297.8025047320691
 20
2274.248481626305
 10
299.5332225321685
 20
2273.007147709311
 10
299.8362706330967
 20
2272.639389796647
 10
300.9725386581463
 20
2271.217871480488
 10
301.1767583526135
 20
2270.743411443213
 10
301.5199551162295
 20
2269.889615972268
 10
301.634944440362
 20
2269.022463539577
 10
301.7043759035999
 20
2268.493677179165
 10
301.6964002654843
 20
2174.320099880567
 10
301.6964002654843
 20
2173.779578966139
 10
301.6964002654843
 20
2173.096111261427
 10
301.6964002654843
 20
2172.057928133421
 10
301.6964002654843
 20
2170.88488840551
 10
301.6861841387931
 20
2169.642314342681
 10
301.6861841387931
 20
2152.642318126527
 10
301.6861841387931
 20
2152.612413909802
  0
LWPOLYLINE
  5
422
330
1F
100
AcDbEntity
  8
Hewi
370
    13
100
AcDbPolyline
 90
        4
 70
     0
 43
0.0
 10
289.2406434094114
 20
2271.752844895642
 10
286.704412477029
 20
2271.884425216273
 10
265.7044132107954
 20
2271.884425216273
 10
264.2673967089332
 20
2271.842533559235
  0
LWPOLYLINE
  5
423
330
1F
100
AcDbEntity
  8
Hewi
370
    13
100
AcDbPolyline
 90
        9
 70
     0
 43
0.0
 10
255.7043745963214
 20
2268.282805473404
 10
255.7032102299523
 20
2174.565244932516
 10
255.7032102299523
 20
2173.814801518342
 10
255.7032102299523
 20
2172.831564172644
 10
255.7032102299523
 20
2171.670343698983
 10
255.7032102299523
 20
2170.674332795872
 10
255.6861857460897
 20
2169.642314342681
 10
255.6861857460897
 20
2152.642318126526
 10
255.6861857460897
 20
2152.612413933794
  0
LWPOLYLINE
  5
424
330
1F
100
AcDbEntity
  8
Hewi
370
    13
100
AcDbPolyline
 90
        4
 70
     0
 43
0.0
 10
280.270147121321
 20
1855.487754916865
 10
280.2953820898234
 20
1855.487811537897
 10
273.8184188243401
 20
1855.487915098193
 10
273.7931838542708
 20
1855.487858477157
  0
LINE
  5
425
330
1F
100
AcDbEntity
  8
Hewi
370
    13
100
AcDbLine
 10
296.1572862030518
 20
2269.315077599888
 30
0.0
 11
296.669088927198
 21
2268.674791214462
 31
0.0
  0
LWPOLYLINE
  5
426
330
1F
100
AcDbEntity
  8
Hewi
370
    13
100
AcDbPolyline
 90
        5
 70
     0
 43
0.0
 10
320.1297869861493
 20
2142.90897497777
 10
319.9939476882942
 20
2143.939219829116
 10
319.9099302893269
 20
2144.211589134631
 10
319.2981693518298
 20
2145.703130911165
 10
319.2435754567473
 20
2145.776970613424
  0
LWPOLYLINE
  5
427
330
1F
100
AcDbEntity
  8
Hewi
370
    13
100
AcDbPolyline
 90
        5
 70
     0
 43
0.0
 10
233.1652502354724
 20
2145.736197233766
 10
232.9891143708839
 20
2145.478051123376
 10
232.4677543952138
 20
2144.090147138395
 10
232.3833974492016
 20
2143.816453685728
 10
232.2700903857891
 20
2142.883402143927
  0
LINE
  5
428
330
1F
100
AcDbEntity
  8
Hewi
370
    13
100
AcDbLine
 10
295.1426660523843
 20
2270.042800168721
 30
0.0
 11
296.1785820029918
 21
2269.299803474188
 31
0.0
  0
LWPOLYLINE
  5
429
330
1F
100
AcDbEntity
  8
Hewi
370
    13
100
AcDbPolyline
 90
        3
 70
     0
 43
0.0
 10
296.6419269136311
 20
2268.708772022109
 10
296.6963284031221
 20
2268.573433492542
 10
296.7738796401657
 20
2267.988607515285
  0
LWPOLYLINE
  5
42A
330
1F
100
AcDbEntity
  8
Hewi
370
    13
100
AcDbPolyline
 90
        4
 70
     0
 43
0.0
 10
235.5805356928134
 20
2148.244787743281
 10
235.3198365582257
 20
2148.097453374682
 10
235.1758900552637
 20
2147.979270980471
 10
234.4152502044078
 20
2147.289884005987
  0
LWPOLYLINE
  5
42B
330
1F
100
AcDbEntity
  8
Hewi
370
    13
100
AcDbPolyline
 90
        3
 70
     0
 43
0.0
 10
296.7226399417354
 20
2150.615453473986
 10
296.7226399417354
 20
2150.652608309368
 10
296.7226399417354
 20
2151.362413924191
  0
LINE
  5
42C
330
1F
100
AcDbEntity
  8
Hewi
370
    13
100
AcDbLine
 10
255.6729433566816
 20
2268.543635375683
 30
0.0
 11
256.1792480382972
 21
2269.235333004833
 31
0.0
  0
LWPOLYLINE
  5
42D
330
1F
100
AcDbEntity
  8
Hewi
370
    13
100
AcDbPolyline
 90
        9
 70
     0
 43
0.0
 10
296.7044482414245
 20
2268.512202690099
 10
296.7056154578729
 20
2174.565244932516
 10
296.7056154578729
 20
2173.996418812462
 10
296.7056154578729
 20
2173.277160274493
 10
296.7056154578729
 20
2172.184611096755
 10
296.7056154578729
 20
2170.950143346691
 10
296.7226399417354
 20
2169.642314342681
 10
296.7226399417354
 20
2152.642318126527
 10
296.7226399417354
 20
2152.612413934362
  0
LWPOLYLINE
  5
42E
330
1F
100
AcDbEntity
  8
Hewi
370
    13
100
AcDbPolyline
 90
        4
 70
     0
 43
0.0
 10
289.1280752937224
 20
2271.758684958761
 10
291.427122385699
 20
2271.388731380184
 10
293.5014489524091
 20
2270.791083940648
 10
295.2469274948386
 20
2269.995264018239
  0
LWPOLYLINE
  5
42F
330
1F
100
AcDbEntity
  8
Hewi
370
    13
100
AcDbPolyline
 90
        3
 70
     0
 43
0.0
 10
301.6861841387931
 20
2150.615453473986
 10
301.6861841387931
 20
2150.652608309368
 10
301.6861841387931
 20
2151.36241389512
  0
LWPOLYLINE
  5
430
330
1F
100
AcDbEntity
  8
Hewi
370
    13
100
AcDbPolyline
 90
        4
 70
     0
 43
0.0
 10
316.7741611531023
 20
2148.298916581462
 10
316.8723373288218
 20
2148.247713207672
 10
317.0098991041574
 20
2148.133958823237
 10
317.9935755066988
 20
2147.30434072442
  0
LINE
  5
431
330
1F
100
AcDbEntity
  8
Hewi
370
    13
100
AcDbLine
 10
255.6349460476589
 20
2267.988607515285
 30
0.0
 11
255.8101717609643
 21
2268.731112546291
 31
0.0
  0
LINE
  5
432
330
1F
100
AcDbEntity
  8
Hewi
370
    13
100
AcDbLine
 10
255.6861857460897
 20
2151.362413920872
 30
0.0
 11
255.6861857460897
 21
2150.61545345744
 31
0.0
  0
LINE
  5
433
330
1F
100
AcDbEntity
  8
Hewi
370
    13
100
AcDbLine
 10
250.7226415490324
 20
2151.362413920872
 30
0.0
 11
250.7226415490324
 21
2150.61545345744
 31
0.0
  0
LINE
  5
434
330
1F
100
AcDbEntity
  8
Hewi
370
    13
100
AcDbLine
 10
256.0997366706793
 20
2269.174664258824
 30
0.0
 11
257.1268010207715
 21
2269.958334635965
 31
0.0
  0
LWPOLYLINE
  5
435
330
1F
100
AcDbEntity
  8
Hewi
370
    13
100
AcDbPolyline
 90
        3
 70
     0
 43
0.0
 10
326.8387142911665
 20
2153.286491547597
 10
326.661624843462
 20
2153.460516870992
 10
326.5634922155679
 20
2153.536704947836
  0
LWPOLYLINE
  5
436
330
1F
100
AcDbEntity
  8
Hewi
370
    13
100
AcDbPolyline
 90
        9
 70
     0
 43
0.0
 10
326.214701355713
 20
2152.246215161198
 10
326.2015928508201
 20
2152.360906128405
 10
326.1667632060543
 20
2152.470964052299
 10
326.0981650174783
 20
2152.591202922316
 10
326.003836524322
 20
2152.692520405217
 10
325.888798910196
 20
2152.769523287693
 10
325.7591757223277
 20
2152.818112642701
 10
325.621866910085
 20
2152.835702018737
 10
325.6044111178129
 20
2152.835702018737
  0
LWPOLYLINE
  5
437
330
1F
100
AcDbEntity
  8
Hewi
370
    13
100
AcDbPolyline
 90
        3
 70
     0
 43
0.0
 10
326.5634922155679
 20
2153.536704947836
 10
326.3510058685263
 20
2153.665137952762
 10
326.2379332624563
 20
2153.716608538377
  0
LWPOLYLINE
  5
438
330
1F
100
AcDbEntity
  8
Hewi
370
    13
100
AcDbPolyline
 90
        3
 70
     0
 43
0.0
 10
325.9408156736869
 20
2153.805677440079
 10
325.6320954958609
 20
2153.835743733133
 10
325.6044111178129
 20
2153.835743733133
  0
LWPOLYLINE
  5
439
330
1F
100
AcDbEntity
  8
Hewi
370
    13
100
AcDbPolyline
 90
       10
 70
     0
 43
0.0
 10
226.8044145700072
 20
2153.835743733133
 10
226.8044145700072
 20
2153.796511250767
 10
226.8044145700072
 20
2153.680737788239
 10
226.8044145700072
 20
2153.494100945904
 10
226.8044145700072
 20
2153.245753506949
 10
226.8044145700072
 20
2152.947874579407
 10
226.8044145700072
 20
2152.615072325346
 10
226.8044145700072
 20
2152.263667567808
 10
226.8044145700072
 20
2152.035743715243
 10
225.1729955101406
 20
2152.035743715243
  0
LINE
  5
43A
330
1F
100
AcDbEntity
  8
Hewi
370
    13
100
AcDbLine
 10
325.9408156736869
 20
2153.805677440079
 30
0.0
 11
326.2379332624563
 21
2153.716608538377
 31
0.0
  0
LWPOLYLINE
  5
43B
330
1F
100
AcDbEntity
  8
Hewi
370
    13
100
AcDbPolyline
 90
       10
 70
     0
 43
0.0
 10
327.23583017768
 20
2152.035743715243
 10
325.6044111178129
 20
2152.035743715243
 10
325.6044111178129
 20
2152.263667567808
 10
325.6044111178129
 20
2152.615072325346
 10
325.6044111178129
 20
2152.947874579407
 10
325.6044111178129
 20
2153.245753506949
 10
325.6044111178129
 20
2153.494100945904
 10
325.6044111178129
 20
2153.680737788239
 10
325.6044111178129
 20
2153.796511250767
 10
325.6044111178129
 20
2153.835743733133
  0
LWPOLYLINE
  5
43C
330
1F
100
AcDbEntity
  8
Hewi
370
    13
100
AcDbPolyline
 90
        3
 70
     0
 43
0.0
 10
327.0487252475691
 20
2152.979490997782
 10
326.9166034112838
 20
2153.189703526658
 10
326.8387142911665
 20
2153.286491547597
  0
LWPOLYLINE
  5
43D
330
1F
100
AcDbEntity
  8
Hewi
370
    13
100
AcDbPolyline
 90
        3
 70
     0
 43
0.0
 10
326.2379332624563
 20
2153.716608538377
 10
326.0015337361697
 20
2153.792508126265
 10
325.9408156736869
 20
2153.805677440079
  0
LWPOLYLINE
  5
43E
330
1F
100
AcDbEntity
  8
Hewi
370
    13
100
AcDbPolyline
 90
        3
 70
     0
 43
0.0
 10
226.8044145700072
 20
2153.835743733133
 10
226.7767301919606
 20
2153.835743733133
 10
226.4072919516509
 20
2153.792508126264
  0
LWPOLYLINE
  5
43F
330
1F
100
AcDbEntity
  8
Hewi
370
    13
100
AcDbPolyline
 90
       10
 70
     0
 43
0.0
 10
226.8044145700072
 20
2152.835702018737
 10
226.7869587777356
 20
2152.835702018737
 10
226.6721954245371
 20
2152.823243188308
 10
226.5619420390429
 20
2152.789037329586
 10
226.4413166487061
 20
2152.721121118993
 10
226.3394666372922
 20
2152.627367868355
 10
226.2618135650434
 20
2152.512768140649
 10
226.2124909691404
 20
2152.383422174047
 10
226.1941243321077
 20
2152.246215161198
 10
226.190450536241
 20
2152.035743527505
  0
LWPOLYLINE
  5
440
330
1F
100
AcDbEntity
  8
Hewi
370
    13
100
AcDbPolyline
 90
        3
 70
     0
 43
0.0
 10
327.1821751459541
 20
2152.632294992078
 10
327.1021613807328
 20
2152.867333893724
 10
327.0487252475691
 20
2152.979490997782
  0
LINE
  5
441
330
1F
100
AcDbEntity
  8
Hewi
370
    13
100
AcDbLine
 10
226.4680100141332
 20
2153.805677440079
 30
0.0
 11
226.4072919516509
 21
2153.792508126264
 31
0.0
  0
LINE
  5
442
330
1F
100
AcDbEntity
  8
Hewi
370
    13
100
AcDbLine
 10
326.8387142911665
 20
2153.286491547597
 30
0.0
 11
327.0487252475691
 21
2152.979490997782
 31
0.0
  0
LINE
  5
443
330
1F
100
AcDbEntity
  8
Hewi
370
    13
100
AcDbLine
 10
225.492222276536
 20
2153.189703526657
 30
0.0
 11
225.7472008443587
 21
2153.460516870992
 31
0.0
  0
LINE
  5
444
330
1F
100
AcDbEntity
  8
Hewi
370
    13
100
AcDbLine
 10
225.2124235580889
 20
2152.571816010743
 30
0.0
 11
225.3066643070879
 21
2152.867333893724
 31
0.0
  0
LINE
  5
445
330
1F
100
AcDbEntity
  8
Hewi
370
    13
100
AcDbLine
 10
327.0487252475691
 20
2152.979490997782
 30
0.0
 11
327.1821751459541
 21
2152.632294992078
 31
0.0
  0
LINE
  5
446
330
1F
100
AcDbEntity
  8
Hewi
370
    13
100
AcDbLine
 10
326.5634922155679
 20
2153.536704947836
 30
0.0
 11
326.8387142911665
 21
2153.286491547597
 31
0.0
  0
LINE
  5
447
330
1F
100
AcDbEntity
  8
Hewi
370
    13
100
AcDbLine
 10
225.7472008443587
 20
2153.460516870992
 30
0.0
 11
226.0578198192947
 21
2153.665137952762
 31
0.0
  0
LWPOLYLINE
  5
448
330
1F
100
AcDbEntity
  8
Hewi
370
    13
100
AcDbPolyline
 90
        2
 70
     0
 43
0.0
 10
232.6033290731217
 20
2143.835743633747
 10
231.5419563823544
 20
2143.835743633747
  0
LINE
  5
449
330
1F
100
AcDbEntity
  8
Hewi
370
    13
100
AcDbLine
 10
327.1821751459541
 20
2152.632294992078
 30
0.0
 11
327.2318517522139
 21
2152.263667567808
 31
0.0
  0
LWPOLYLINE
  5
44A
330
1F
100
AcDbEntity
  8
Hewi
370
    13
100
AcDbPolyline
 90
        3
 70
     0
 43
0.0
 10
225.1729955101929
 20
2152.035743718254
 10
225.176973935607
 20
2152.263667567808
 10
225.2124235580889
 20
2152.571816010743
  0
LINE
  5
44B
330
1F
100
AcDbEntity
  8
Hewi
370
    13
100
AcDbLine
 10
326.2379332624563
 20
2153.716608538377
 30
0.0
 11
326.5634922155679
 21
2153.536704947836
 31
0.0
  0
LINE
  5
44C
330
1F
100
AcDbEntity
  8
Hewi
370
    13
100
AcDbLine
 10
226.0578198192947
 20
2153.665137952762
 30
0.0
 11
226.4072919516509
 21
2153.792508126264
 31
0.0
  0
LINE
  5
44D
330
1F
100
AcDbEntity
  8
Hewi
370
    13
100
AcDbLine
 10
225.3066643070879
 20
2152.867333893724
 30
0.0
 11
225.492222276536
 21
2153.189703526657
 31
0.0
  0
LWPOLYLINE
  5
44E
330
1F
100
AcDbEntity
  8
Hewi
370
    13
100
AcDbPolyline
 90
        3
 70
     0
 43
0.0
 10
327.2318517522139
 20
2152.263667567808
 10
327.1964021297317
 20
2152.571816010743
 10
327.1821751459541
 20
2152.632294992078
  0
LWPOLYLINE
  5
44F
330
1F
100
AcDbEntity
  8
Hewi
370
    13
100
AcDbPolyline
 90
        3
 70
     0
 43
0.0
 10
327.23583017768
 20
2152.035743715243
 10
327.3789617050904
 20
2143.835743633747
 10
322.1757338991426
 20
2143.835743633747
  0
LWPOLYLINE
  5
450
330
1F
100
AcDbEntity
  8
Hewi
370
    13
100
AcDbPolyline
 90
       23
 70
     0
 43
0.0
 10
90.13571539918912
 20
836.0987810108603
 10
91.70416858264543
 20
827.1383086553052
 10
91.97619744933218
 20
826.5030430279383
 10
92.21345821194985
 20
826.2497142482962
 10
92.50231925499106
 20
826.0583319505872
 10
93.17060962494918
 20
825.8987809094863
 10
93.63750542171414
 20
825.8987809094863
 10
94.54416272863268
 20
825.8987809094863
 10
95.83788991859206
 20
825.8987809094863
 10
97.44350026981905
 20
825.8987809094863
 10
99.26768154485626
 20
825.8987809094863
 10
101.2044189586281
 20
825.8987809094863
 10
103.1411563723999
 20
825.8987809094863
 10
104.9653376474365
 20
825.8987809094863
 10
106.5709479986641
 20
825.8987809094863
 10
107.8646751886226
 20
825.8987809094863
 10
108.771332495542
 20
825.8987809094863
 10
109.2382282923064
 20
825.8987809094863
 10
109.9065186622651
 20
826.0583319505872
 10
110.1953797053063
 20
826.2497142482962
 10
110.432640467924
 20
826.5030430279383
 10
110.7046693346107
 20
827.1383086553052
 10
112.273122518067
 20
836.0987810108603
  0
LINE
  5
451
330
1F
100
AcDbEntity
  8
Hewi
370
    13
100
AcDbLine
 10
255.7041348148418
 20
2248.862414890285
 30
0.0
 11
296.7046908729789
 21
2248.862414890285
 31
0.0
  0
LWPOLYLINE
  5
452
330
1F
100
AcDbEntity
  8
Hewi
370
    13
100
AcDbPolyline
 90
       26
 70
     1
 43
0.0
 10
275.9672265510745
 20
1829.806013720191
 10
275.3841299445442
 20
1829.950254620712
 10
274.8523716099839
 20
1830.230344062745
 10
274.402855408933
 20
1830.630004266005
 10
274.0617055890742
 20
1831.126008432181
 10
273.8487485379083
 20
1831.689530602037
 10
273.7763605451796
 20
1832.287820915385
 10
273.8487485379083
 20
1832.886108913904
 10
274.0617055890742
 20
1833.449624273813
 10
274.402855408933
 20
1833.945617530687
 10
274.8523716099839
 20
1834.345263359297
 10
275.3841299445442
 20
1834.625335796742
 10
275.9672265510745
 20
1834.769558050977
 10
276.567773974272
 20
1834.769548448812
 10
277.1508705808024
 20
1834.625307548291
 10
277.6826289153628
 20
1834.345218106257
 10
278.1321451164127
 20
1833.945557902998
 10
278.4732949362724
 20
1833.449553736821
 10
278.6862519874385
 20
1832.886031566964
 10
278.7586399801672
 20
1832.287741253618
 10
278.6862519874394
 20
1831.689453255098
 10
278.4732949362724
 20
1831.12593789519
 10
278.1321451164127
 20
1830.629944638316
 10
277.6826289153628
 20
1830.230298809703
 10
277.1508705808024
 20
1829.95022637226
 10
276.567773974272
 20
1829.806004118025
  0
LINE
  5
453
330
1F
100
AcDbEntity
  8
Hewi
370
    13
100
AcDbLine
 10
296.7045681248855
 20
2258.862414989671
 30
0.0
 11
255.7042575629346
 21
2258.862414989671
 31
0.0
  0
LWPOLYLINE
  5
454
330
1F
100
AcDbEntity
  8
Hewi
370
    13
100
AcDbPolyline
 90
        3
 70
     0
 43
0.0
 10
226.4072919516509
 20
2153.792508126264
 10
226.1708924253652
 20
2153.716608538377
 10
226.0578198192947
 20
2153.665137952762
  0
LINE
  5
455
330
1F
100
AcDbEntity
  8
Hewi
370
    13
100
AcDbLine
 10
326.2044110967413
 20
2152.323088009093
 30
0.0
 11
326.214701355713
 21
2152.246215161198
 31
0.0
  0
LWPOLYLINE
  5
456
330
1F
100
AcDbEntity
  8
Hewi
370
    13
100
AcDbPolyline
 90
        3
 70
     0
 43
0.0
 10
225.7472008443587
 20
2153.460516870992
 10
225.570111396655
 20
2153.286491547597
 10
225.492222276536
 20
2153.189703526657
  0
LWPOLYLINE
  5
457
330
1F
100
AcDbEntity
  8
Hewi
370
    13
100
AcDbPolyline
 90
        3
 70
     0
 43
0.0
 10
225.3066643070879
 20
2152.867333893724
 10
225.2266505418667
 20
2152.632294992078
 10
225.2124235580889
 20
2152.571816010743
  0
LWPOLYLINE
  5
458
330
1F
100
AcDbEntity
  8
Hewi
370
    13
100
AcDbPolyline
 90
        3
 70
     0
 43
0.0
 10
225.492222276536
 20
2153.189703526657
 10
225.3601004402516
 20
2152.979490997782
 10
225.3066643070879
 20
2152.867333893724
  0
LINE
  5
459
330
1F
100
AcDbEntity
  8
Hewi
370
    13
100
AcDbLine
 10
250.7052670588182
 20
2153.835743733133
 30
0.0
 11
226.8044145700072
 21
2153.835743733133
 31
0.0
  0
LINE
  5
45A
330
1F
100
AcDbEntity
  8
Hewi
370
    13
100
AcDbLine
 10
327.2358301759835
 20
2152.035743812444
 30
0.0
 11
327.2318517522139
 21
2152.263667567808
 31
0.0
  0
LWPOLYLINE
  5
45B
330
1F
100
AcDbEntity
  8
Hewi
370
    13
100
AcDbPolyline
 90
        3
 70
     0
 43
0.0
 10
226.0578198192947
 20
2153.665137952762
 10
225.8453334722527
 20
2153.536704947836
 10
225.7472008443587
 20
2153.460516870992
  0
LINE
  5
45C
330
1F
100
AcDbEntity
  8
Hewi
370
    13
100
AcDbLine
 10
325.6044111178129
 20
2153.835743733133
 30
0.0
 11
301.7035601012362
 21
2153.835743733133
 31
0.0
  0
LINE
  5
45D
330
1F
100
AcDbEntity
  8
Hewi
370
    13
100
AcDbLine
 10
326.214701355713
 20
2152.246215161198
 30
0.0
 11
326.2183751482983
 21
2152.035743715492
 31
0.0
  0
LWPOLYLINE
  5
45E
330
1F
100
AcDbEntity
  8
Hewi
370
    13
100
AcDbPolyline
 90
        6
 70
     0
 43
0.0
 10
278.0861693521346
 20
1840.840285595966
 10
278.0322459924347
 20
1840.611911029432
 10
278.0142715392013
 20
1840.395686196644
 10
278.0142715392013
 20
1838.782801553392
 10
278.0322459924347
 20
1838.566576185529
 10
278.0861693521346
 20
1838.338200013765
  0
LWPOLYLINE
  5
45F
330
1F
100
AcDbEntity
  8
Hewi
370
    13
100
AcDbPolyline
 90
        8
 70
     0
 43
0.0
 10
280.073414059067
 20
1841.471631831908
 10
280.0944604341422
 20
1841.449184165559
 10
280.1121767961423
 20
1841.417449813291
 10
280.1243454997894
 20
1841.376492495917
 10
280.1258184085254
 20
1841.368409154746
 10
280.1299530006939
 20
1841.327672960842
 10
280.1303656126533
 20
1841.308470765961
 10
280.1303656126533
 20
1841.004957137741
  0
LWPOLYLINE
  5
460
330
1F
100
AcDbEntity
  8
Hewi
370
    13
100
AcDbPolyline
 90
        4
 70
     0
 43
0.0
 10
280.0139408170538
 20
1841.499819707732
 10
280.0458962940597
 20
1841.489071166934
 10
280.0475345425742
 20
1841.488287997601
 10
280.0727361664227
 20
1841.472192652877
  0
LINE
  5
461
330
1F
100
AcDbEntity
  8
Hewi
370
    13
100
AcDbLine
 10
280.0131110250559
 20
1841.500002347599
 30
0.0
 11
280.0139408170538
 21
1841.499819707732
 31
0.0
  0
LINE
  5
462
330
1F
100
AcDbEntity
  8
Hewi
370
    13
100
AcDbLine
 10
280.0727361664227
 20
1841.472192652877
 30
0.0
 11
280.073414059067
 21
1841.471631831908
 31
0.0
  0
LINE
  5
4A9
330
1F
100
AcDbEntity
  8
0
100
AcDbLine
 10
226.2044145909726
 20
2153.848379472921
 30
0.0
 11
326.2044110968485
 21
2153.848379472921
 31
0.0
  0
LWPOLYLINE
  5
4AD
330
1F
100
AcDbEntity
  8
Hewi
370
    13
100
AcDbPolyline
 90
        3
 70
     0
 43
0.0
 10
230.2330917886829
 20
2143.835743633747
 10
225.0298639827305
 20
2143.835743633747
 10
225.1729955101406
 20
2152.035743715243
  0
LINE
  5
4AE
330
1F
100
AcDbEntity
  8
Hewi
370
    13
100
AcDbLine
 10
226.2044145909726
 20
2143.835743633747
 30
0.0
 11
226.2044145909726
 21
844.0987810903692
 31
0.0
  0
LINE
  5
4AF
330
1F
100
AcDbEntity
  8
Hewi
370
    13
100
AcDbLine
 10
326.2044110968485
 20
2152.035743715243
 30
0.0
 11
326.2044110968485
 21
2153.848379472921
 31
0.0
  0
LWPOLYLINE
  5
4B0
330
1F
100
AcDbEntity
  8
Hewi
370
    13
100
AcDbPolyline
 90
        2
 70
     0
 43
0.0
 10
320.007591176738
 20
2143.835743633747
 10
319.8054966147047
 20
2143.835743633747
  0
ENDSEC
  0
SECTION
  2
OBJECTS
  0
DICTIONARY
  5
C
330
0
100
AcDbDictionary
281
     1
  3
ACAD_CIP_PREVIOUS_PRODUCT_INFO
350
119
  3
ACAD_COLOR
350
114
  3
ACAD_DETAILVIEWSTYLE
350
10E
  3
ACAD_GROUP
350
D
  3
ACAD_IMAGE_DICT
350
6E
  3
ACAD_LAYOUT
350
1A
  3
ACAD_MATERIAL
350
43
  3
ACAD_MLEADERSTYLE
350
6B
  3
ACAD_MLINESTYLE
350
17
  3
ACAD_PLOTSETTINGS
350
19
  3
ACAD_PLOTSTYLENAME
350
E
  3
ACAD_SCALELIST
350
47
  3
ACAD_SECTIONVIEWSTYLE
350
10F
  3
ACAD_TABLESTYLE
350
69
  3
ACAD_VISUALSTYLE
350
2A
  3
ACDB_RECOMPOSE_DATA
350
4B2
  3
AcDbVariableDictionary
350
107
  0
SUN
  5
6D
330
29
100
AcDbSun
 90
        1
290
     1
 63
     7
421
 16777215
 40
1.0
291
     1
 91
  2455826
 92
 54000000
292
     0
 70
     0
 71
   256
280
     1
1001
ACAD
1000
AcDbSavedByObjectVersion
1070
     0
1000
AcDbSavedByObjectVersion
1070
     0
  0
DICTIONARY
  5
490
330
2
100
AcDbDictionary
280
     1
281
     1
  3
ACAD_LAYERSTATES
360
491
  0
DICTIONARY
  5
48E
330
48D
100
AcDbDictionary
280
     1
281
     1
  0
DICTIONARY
  5
4AA
330
1F
100
AcDbDictionary
280
     1
281
     1
  3
ACAD_SORTENTS
360
4AB
  0
XRECORD
  5
119
102
{ACAD_REACTORS
330
C
102
}
330
C
100
AcDbXrecord
280
     1
300
ACDLT
300
2021
300
ACDLT_F_S
  0
DICTIONARY
  5
114
102
{ACAD_REACTORS
330
C
102
}
330
C
100
AcDbDictionary
281
     1
  0
DICTIONARY
  5
10E
102
{ACAD_REACTORS
330
C
102
}
330
C
100
AcDbDictionary
281
     1
  3
Metric50
350
116
  0
DICTIONARY
  5
D
102
{ACAD_REACTORS
330
C
102
}
330
C
100
AcDbDictionary
281
     1
  0
DICTIONARY
  5
6E
102
{ACAD_REACTORS
330
C
102
}
330
C
100
AcDbDictionary
281
     1
  0
DICTIONARY
  5
1A
102
{ACAD_REACTORS
330
C
102
}
330
C
100
AcDbDictionary
281
     1
  3
Layout1
350
1E
  3
Layout2
350
26
  3
Model
350
22
  0
DICTIONARY
  5
43
102
{ACAD_REACTORS
330
C
102
}
330
C
100
AcDbDictionary
281
     1
  3
ByBlock
350
45
  3
ByLayer
350
44
  3
Global
350
46
  0
DICTIONARY
  5
6B
102
{ACAD_REACTORS
330
C
102
}
330
C
100
AcDbDictionary
281
     1
  3
Standard
350
6C
  0
DICTIONARY
  5
17
102
{ACAD_REACTORS
330
C
102
}
330
C
100
AcDbDictionary
281
     1
  3
Standard
350
18
  0
DICTIONARY
  5
19
102
{ACAD_REACTORS
330
C
102
}
330
C
100
AcDbDictionary
281
     1
  0
ACDBDICTIONARYWDFLT
  5
E
102
{ACAD_REACTORS
330
C
102
}
330
C
100
AcDbDictionary
281
     1
  3
Normal
350
F
100
AcDbDictionaryWithDefault
340
F
  0
DICTIONARY
  5
47
102
{ACAD_REACTORS
330
C
102
}
330
C
100
AcDbDictionary
281
     1
  3
A0
350
48
  3
A1
350
49
  3
A2
350
4A
  3
A3
350
4B
  3
A4
350
4C
  3
A5
350
4D
  3
A6
350
4E
  3
A7
350
4F
  3
A8
350
50
  3
A9
350
51
  3
B0
350
52
  3
B1
350
53
  3
B2
350
54
  3
B3
350
55
  3
B4
350
56
  3
B5
350
57
  3
B6
350
58
  3
B7
350
59
  3
B8
350
5A
  3
B9
350
5B
  3
C0
350
5C
  3
C1
350
5D
  3
C2
350
5E
  3
C3
350
5F
  3
C4
350
60
  3
C5
350
61
  3
C6
350
62
  3
C7
350
63
  3
C8
350
64
  3
C9
350
65
  3
D0
350
66
  3
D1
350
67
  3
D2
350
68
  0
DICTIONARY
  5
10F
102
{ACAD_REACTORS
330
C
102
}
330
C
100
AcDbDictionary
281
     1
  3
Metric50
350
115
  0
DICTIONARY
  5
69
102
{ACAD_REACTORS
330
C
102
}
330
C
100
AcDbDictionary
281
     1
  3
Standard
350
6A
  0
DICTIONARY
  5
2A
102
{ACAD_REACTORS
330
C
102
}
330
C
100
AcDbDictionary
281
     1
  3
2dWireframe
350
2F
  3
Basic
350
32
  3
Brighten
350
36
  3
ColorChange
350
3A
  3
Conceptual
350
34
  3
Dim
350
35
  3
EdgeColorOff
350
3D
  3
Facepattern
350
39
  3
Flat
350
2B
  3
FlatWithEdges
350
2C
  3
Gouraud
350
2D
  3
GouraudWithEdges
350
2E
  3
Hidden
350
31
  3
JitterOff
350
3B
  3
Linepattern
350
38
  3
OverhangOff
350
3C
  3
Realistic
350
33
  3
Shaded
350
42
  3
Shaded with edges
350
41
  3
Shades of Gray
350
3E
  3
Sketchy
350
3F
  3
Thicken
350
37
  3
Wireframe
350
30
  3
X-Ray
350
40
  0
XRECORD
  5
4B2
102
{ACAD_REACTORS
330
C
102
}
330
C
100
AcDbXrecord
280
     1
 90
        1
330
6A
  0
DICTIONARY
  5
107
102
{ACAD_REACTORS
330
C
102
}
330
C
100
AcDbDictionary
281
     1
  3
CANNOSCALE
350
108
  3
CENTEREXE
350
110
  3
CENTERLTYPEFILE
350
111
  3
CMLEADERSTYLE
350
10D
  3
CTABLESTYLE
350
10C
  3
CVIEWDETAILSTYLE
350
485
  3
CVIEWSECTIONSTYLE
350
486
  0
DICTIONARY
  5
491
102
{ACAD_REACTORS
330
490
102
}
330
490
100
AcDbDictionary
281
     1
  0
SORTENTSTABLE
  5
4AB
102
{ACAD_REACTORS
330
4AA
102
}
330
4AA
100
AcDbSortentsTable
330
1F
331
3BD
  5
3BE
331
3BE
  5
3BF
331
3BF
  5
3C0
331
3C0
  5
3C1
331
3C1
  5
3C2
331
3C2
  5
3C3
331
3C3
  5
3C4
331
3C4
  5
3C5
331
3C5
  5
3C6
331
3C6
  5
3C7
331
3C7
  5
3C9
331
3C8
  5
3CA
331
3C9
  5
3CB
331
3CA
  5
3CC
331
3CB
  5
3CD
331
3CC
  5
3CE
331
3CD
  5
3CF
331
3CE
  5
3D0
331
3CF
  5
3D1
331
3D0
  5
3D2
331
3D1
  5
3D3
331
3D2
  5
3D4
331
3D3
  5
3D5
331
3D4
  5
3D6
331
3D5
  5
3D7
331
3D6
  5
3D8
331
3D7
  5
3D9
331
3D8
  5
3DA
331
3D9
  5
3DB
331
3DA
  5
3DC
331
3DB
  5
3DD
331
3DC
  5
3DE
331
3DD
  5
3DF
331
3DE
  5
3E0
331
3DF
  5
3E1
331
3E0
  5
3E2
331
3E1
  5
3E3
331
3E2
  5
3E4
331
3E3
  5
3E5
331
3E4
  5
3E6
331
3E5
  5
3E7
331
3E6
  5
3E8
331
3E7
  5
3E9
331
3E8
  5
3EA
331
3E9
  5
3EB
331
3EA
  5
3EC
331
3EB
  5
3ED
331
3EC
  5
3EE
331
3ED
  5
3EF
331
3EE
  5
3F0
331
3EF
  5
3F1
331
3F0
  5
3F2
331
3F1
  5
3F3
331
3F2
  5
3F4
331
3F3
  5
3F5
331
3F4
  5
3F6
331
3F5
  5
3F7
331
3F6
  5
3F8
331
3F7
  5
3F9
331
3F8
  5
3FA
331
3F9
  5
3FB
331
3FA
  5
3FC
331
3FB
  5
3FD
331
3FC
  5
3FE
331
3FD
  5
3FF
331
3FE
  5
400
331
3FF
  5
401
331
400
  5
402
331
401
  5
403
331
402
  5
404
331
403
  5
405
331
404
  5
406
331
405
  5
407
331
406
  5
408
331
407
  5
409
331
408
  5
40A
331
409
  5
40B
331
40A
  5
40C
331
40B
  5
40D
331
40C
  5
40E
331
40D
  5
40F
331
40E
  5
410
331
40F
  5
411
331
410
  5
412
331
411
  5
413
331
412
  5
414
331
413
  5
415
331
414
  5
416
331
415
  5
417
331
416
  5
418
331
417
  5
419
331
418
  5
41A
331
419
  5
41B
331
41A
  5
41C
331
41B
  5
41D
331
41C
  5
41E
331
41D
  5
41F
331
41E
  5
420
331
41F
  5
421
331
420
  5
422
331
421
  5
423
331
422
  5
424
331
423
  5
425
331
424
  5
426
331
425
  5
427
331
426
  5
428
331
427
  5
429
331
428
  5
42A
331
429
  5
42B
331
42A
  5
42C
331
42B
  5
42D
331
42C
  5
42E
331
42D
  5
42F
331
42E
  5
430
331
42F
  5
431
331
430
  5
432
331
431
  5
433
331
432
  5
434
331
433
  5
435
331
434
  5
436
331
435
  5
437
331
436
  5
438
331
437
  5
439
331
438
  5
43A
331
439
  5
43B
331
43A
  5
43C
331
43B
  5
43D
331
43C
  5
43E
331
43D
  5
43F
331
43E
  5
440
331
43F
  5
441
331
440
  5
442
331
441
  5
443
331
442
  5
444
331
443
  5
445
331
444
  5
446
331
445
  5
447
331
446
  5
448
331
447
  5
449
331
448
  5
44A
331
449
  5
44C
331
44A
  5
44D
331
44B
  5
44E
331
44C
  5
44F
331
44D
  5
450
331
44E
  5
451
331
44F
  5
452
331
450
  5
454
331
451
  5
455
331
452
  5
456
331
453
  5
457
331
454
  5
458
331
455
  5
459
331
456
  5
45A
331
457
  5
45B
331
458
  5
45C
331
459
  5
45D
331
45A
  5
45E
331
45B
  5
45F
331
45C
  5
460
331
45D
  5
461
331
45E
  5
462
331
45F
  5
4A8
331
460
  5
4A9
331
461
  5
4AC
331
462
  5
4AD
331
4A9
  5
4B0
331
4AD
  5
44B
331
4AE
  5
3C8
331
4AF
  5
3BD
331
4B0
  5
453
  0
ACDBDETAILVIEWSTYLE
  5
116
102
{ACAD_XDICTIONARY
360
4B5
102
}
102
{ACAD_REACTORS
330
10E
102
}
330
10E
100
AcDbModelDocViewStyle
 70
     0
  3
Metric50
290
     0
100
AcDbDetailViewStyle
 70
     0
 71
     0
 90
        3
 71
     1
340
11
 62
   256
 40
5.0
340
0
 62
   256
 40
5.0
300

 40
0.0
280
     1
 71
     2
340
16
 90
       25
 62
   256
 71
     3
340
11
 62
   256
 40
5.0
 90
        0
 40
15.0
 90
        1
300
%<\AcVar ViewDetailId>% (%<\AcVar ViewScale \f "%sn">%)
 71
     4
340
16
 90
       25
 62
   256
340
16
 90
       25
 62
   256
280
     0
  0
LAYOUT
  5
1E
102
{ACAD_REACTORS
330
1A
102
}
330
1A
100
AcDbPlotSettings
  1

  2
none_device
  4

  6

 40
0.0
 41
0.0
 42
0.0
 43
0.0
 44
0.0
 45
0.0
 46
0.0
 47
0.0
 48
0.0
 49
0.0
140
0.0
141
0.0
142
1.0
143
1.0
 70
   688
 72
     1
 73
     0
 74
     5
  7

 75
    16
147
1.0
 76
     0
 77
     2
 78
   300
148
0.0
149
0.0
100
AcDbLayout
  1
Layout1
 70
     1
 71
     1
 10
0.0
 20
0.0
 11
420.0
 21
297.0
 12
0.0
 22
0.0
 32
0.0
 14
1.000000000000000E+20
 24
1.000000000000000E+20
 34
1.000000000000000E+20
 15
-1.000000000000000E+20
 25
-1.000000000000000E+20
 35
-1.000000000000000E+20
146
0.0
 13
0.0
 23
0.0
 33
0.0
 16
1.0
 26
0.0
 36
0.0
 17
0.0
 27
1.0
 37
0.0
 76
     0
330
1B
  0
LAYOUT
  5
26
102
{ACAD_REACTORS
330
1A
102
}
330
1A
100
AcDbPlotSettings
  1

  2
none_device
  4

  6

 40
0.0
 41
0.0
 42
0.0
 43
0.0
 44
0.0
 45
0.0
 46
0.0
 47
0.0
 48
0.0
 49
0.0
140
0.0
141
0.0
142
1.0
143
1.0
 70
   688
 72
     1
 73
     0
 74
     5
  7

 75
    16
147
1.0
 76
     0
 77
     2
 78
   300
148
0.0
149
0.0
100
AcDbLayout
  1
Layout2
 70
     1
 71
     2
 10
0.0
 20
0.0
 11
0.0
 21
0.0
 12
0.0
 22
0.0
 32
0.0
 14
0.0
 24
0.0
 34
0.0
 15
0.0
 25
0.0
 35
0.0
146
0.0
 13
0.0
 23
0.0
 33
0.0
 16
1.0
 26
0.0
 36
0.0
 17
0.0
 27
1.0
 37
0.0
 76
     0
330
23
  0
LAYOUT
  5
22
102
{ACAD_REACTORS
330
1A
102
}
330
1A
100
AcDbPlotSettings
  1

  2
none_device
  4
Letter_(8.50_x_11.00_Inches)
  6

 40
6.349999999999998
 41
6.349999999999998
 42
6.350005079999998
 43
6.350005079999998
 44
215.9
 45
279.4
 46
0.0
 47
0.0
 48
0.0
 49
0.0
140
0.0
141
0.0
142
1.0
143
1.0
 70
  1712
 72
     1
 73
     0
 74
     0
  7

 75
     0
147
1.0
 76
     0
 77
     2
 78
   300
148
0.0
149
0.0
100
AcDbLayout
  1
Model
 70
     1
 71
     0
 10
0.0
 20
0.0
 11
420.0
 21
297.0
 12
0.0
 22
0.0
 32
0.0
 14
-45.25316535320677
 24
93.29113539721936
 34
0.0
 15
0.1687797052525326
 25
133.2911345722814
 35
0.0
146
0.0
 13
0.0
 23
0.0
 33
0.0
 16
1.0
 26
0.0
 36
0.0
 17
0.0
 27
1.0
 37
0.0
 76
     0
330
1F
331
29
  0
MATERIAL
  5
45
102
{ACAD_REACTORS
330
43
102
}
330
43
100
AcDbMaterial
  1
ByBlock
  0
MATERIAL
  5
44
102
{ACAD_REACTORS
330
43
102
}
330
43
100
AcDbMaterial
  1
ByLayer
  0
MATERIAL
  5
46
102
{ACAD_REACTORS
330
43
102
}
330
43
100
AcDbMaterial
  1
Global
  0
MLEADERSTYLE
  5
6C
102
{ACAD_REACTORS
330
6B
102
}
330
6B
100
AcDbMLeaderStyle
179
     2
170
     2
171
     1
172
     0
 90
        2
 40
0.0
 41
0.0
173
     1
 91
-1056964608
340
14
 92
       -2
290
     1
 42
2.0
291
     1
 43
8.0
  3
Standard
 44
4.0
300

342
11
174
     1
178
     6
175
     1
176
     0
 93
-1056964608
 45
4.0
292
     0
297
     0
 46
4.0
 94
-1056964608
 47
1.0
 49
1.0
140
1.0
293
     1
141
0.0
294
     1
177
     0
142
1.0
295
     0
296
     0
143
3.75
271
     0
272
     9
273
     9
298
     0
  0
MLINESTYLE
  5
18
102
{ACAD_REACTORS
330
17
102
}
330
17
100
AcDbMlineStyle
  2
STANDARD
 70
     0
  3

 62
   256
 51
90.0
 52
90.0
 71
     2
 49
0.5
 62
   256
  6
BYLAYER
 49
-0.5
 62
   256
  6
BYLAYER
  0
ACDBPLACEHOLDER
  5
F
102
{ACAD_REACTORS
330
E
102
}
330
E
  0
SCALE
  5
48
102
{ACAD_REACTORS
330
47
102
}
330
47
100
AcDbScale
 70
     0
300
1:1
140
1.0
141
1.0
290
     1
  0
SCALE
  5
49
102
{ACAD_REACTORS
330
47
102
}
330
47
100
AcDbScale
 70
     0
300
1:2
140
1.0
141
2.0
290
     0
  0
SCALE
  5
4A
102
{ACAD_REACTORS
330
47
102
}
330
47
100
AcDbScale
 70
     0
300
1:4
140
1.0
141
4.0
290
     0
  0
SCALE
  5
4B
102
{ACAD_REACTORS
330
47
102
}
330
47
100
AcDbScale
 70
     0
300
1:5
140
1.0
141
5.0
290
     0
  0
SCALE
  5
4C
102
{ACAD_REACTORS
330
47
102
}
330
47
100
AcDbScale
 70
     0
300
1:8
140
1.0
141
8.0
290
     0
  0
SCALE
  5
4D
102
{ACAD_REACTORS
330
47
102
}
330
47
100
AcDbScale
 70
     0
300
1:10
140
1.0
141
10.0
290
     0
  0
SCALE
  5
4E
102
{ACAD_REACTORS
330
47
102
}
330
47
100
AcDbScale
 70
     0
300
1:16
140
1.0
141
16.0
290
     0
  0
SCALE
  5
4F
102
{ACAD_REACTORS
330
47
102
}
330
47
100
AcDbScale
 70
     0
300
1:20
140
1.0
141
20.0
290
     0
  0
SCALE
  5
50
102
{ACAD_REACTORS
330
47
102
}
330
47
100
AcDbScale
 70
     0
300
1:30
140
1.0
141
30.0
290
     0
  0
SCALE
  5
51
102
{ACAD_REACTORS
330
47
102
}
330
47
100
AcDbScale
 70
     0
300
1:40
140
1.0
141
40.0
290
     0
  0
SCALE
  5
52
102
{ACAD_REACTORS
330
47
102
}
330
47
100
AcDbScale
 70
     0
300
1:50
140
1.0
141
50.0
290
     0
  0
SCALE
  5
53
102
{ACAD_REACTORS
330
47
102
}
330
47
100
AcDbScale
 70
     0
300
1:100
140
1.0
141
100.0
290
     0
  0
SCALE
  5
54
102
{ACAD_REACTORS
330
47
102
}
330
47
100
AcDbScale
 70
     0
300
2:1
140
2.0
141
1.0
290
     0
  0
SCALE
  5
55
102
{ACAD_REACTORS
330
47
102
}
330
47
100
AcDbScale
 70
     0
300
4:1
140
4.0
141
1.0
290
     0
  0
SCALE
  5
56
102
{ACAD_REACTORS
330
47
102
}
330
47
100
AcDbScale
 70
     0
300
8:1
140
8.0
141
1.0
290
     0
  0
SCALE
  5
57
102
{ACAD_REACTORS
330
47
102
}
330
47
100
AcDbScale
 70
     0
300
10:1
140
10.0
141
1.0
290
     0
  0
SCALE
  5
58
102
{ACAD_REACTORS
330
47
102
}
330
47
100
AcDbScale
 70
     0
300
100:1
140
100.0
141
1.0
290
     0
  0
SCALE
  5
59
102
{ACAD_REACTORS
330
47
102
}
330
47
100
AcDbScale
 70
     0
300
1/128" = 1'-0"
140
0.0078125
141
12.0
290
     0
  0
SCALE
  5
5A
102
{ACAD_REACTORS
330
47
102
}
330
47
100
AcDbScale
 70
     0
300
1/64" = 1'-0"
140
0.015625
141
12.0
290
     0
  0
SCALE
  5
5B
102
{ACAD_REACTORS
330
47
102
}
330
47
100
AcDbScale
 70
     0
300
1/32" = 1'-0"
140
0.03125
141
12.0
290
     0
  0
SCALE
  5
5C
102
{ACAD_REACTORS
330
47
102
}
330
47
100
AcDbScale
 70
     0
300
1/16" = 1'-0"
140
0.0625
141
12.0
290
     0
  0
SCALE
  5
5D
102
{ACAD_REACTORS
330
47
102
}
330
47
100
AcDbScale
 70
     0
300
3/32" = 1'-0"
140
0.09375
141
12.0
290
     0
  0
SCALE
  5
5E
102
{ACAD_REACTORS
330
47
102
}
330
47
100
AcDbScale
 70
     0
300
1/8" = 1'-0"
140
0.125
141
12.0
290
     0
  0
SCALE
  5
5F
102
{ACAD_REACTORS
330
47
102
}
330
47
100
AcDbScale
 70
     0
300
3/16" = 1'-0"
140
0.1875
141
12.0
290
     0
  0
SCALE
  5
60
102
{ACAD_REACTORS
330
47
102
}
330
47
100
AcDbScale
 70
     0
300
1/4" = 1'-0"
140
0.25
141
12.0
290
     0
  0
SCALE
  5
61
102
{ACAD_REACTORS
330
47
102
}
330
47
100
AcDbScale
 70
     0
300
3/8" = 1'-0"
140
0.375
141
12.0
290
     0
  0
SCALE
  5
62
102
{ACAD_REACTORS
330
47
102
}
330
47
100
AcDbScale
 70
     0
300
1/2" = 1'-0"
140
0.5
141
12.0
290
     0
  0
SCALE
  5
63
102
{ACAD_REACTORS
330
47
102
}
330
47
100
AcDbScale
 70
     0
300
3/4" = 1'-0"
140
0.75
141
12.0
290
     0
  0
SCALE
  5
64
102
{ACAD_REACTORS
330
47
102
}
330
47
100
AcDbScale
 70
     0
300
1" = 1'-0"
140
1.0
141
12.0
290
     0
  0
SCALE
  5
65
102
{ACAD_REACTORS
330
47
102
}
330
47
100
AcDbScale
 70
     0
300
1-1/2" = 1'-0"
140
1.5
141
12.0
290
     0
  0
SCALE
  5
66
102
{ACAD_REACTORS
330
47
102
}
330
47
100
AcDbScale
 70
     0
300
3" = 1'-0"
140
3.0
141
12.0
290
     0
  0
SCALE
  5
67
102
{ACAD_REACTORS
330
47
102
}
330
47
100
AcDbScale
 70
     0
300
6" = 1'-0"
140
6.0
141
12.0
290
     0
  0
SCALE
  5
68
102
{ACAD_REACTORS
330
47
102
}
330
47
100
AcDbScale
 70
     0
300
1'-0" = 1'-0"
140
12.0
141
12.0
290
     0
  0
ACDBSECTIONVIEWSTYLE
  5
115
102
{ACAD_XDICTIONARY
360
4B3
102
}
102
{ACAD_REACTORS
330
10F
102
}
330
10F
100
AcDbModelDocViewStyle
 70
     0
  3
Metric50
290
     0
100
AcDbSectionViewStyle
 70
     0
 71
     0
 90
      102
 71
     1
340
11
 62
   256
 40
5.0
340
0
340
0
 62
   256
 40
5.0
300
I, O, Q, S, X, Z
 40
10.0
 90
        0
 40
2.5
 90
        0
 71
     2
340
16
 90
       25
 62
   256
340
16
 90
       50
 62
   256
 40
5.0
 40
2.5
 40
5.0
 71
     3
340
11
 62
   256
 40
5.0
 90
        0
 40
15.0
 90
        1
300
%<\AcVar ViewSectionStartId>%-%<\AcVar ViewSectionEndId>% (%<\AcVar ViewScale \f "%sn">%)
 71
     4
 62
   256
 62
   257
300
ANSI31
 40
1.0
 90
        0
290
     0
290
     0
 90
        6
 40
0.0
 40
1.570796326794896
 40
0.2617993877991494
 40
1.308996938995747
 40
-0.2617993877991494
 40
1.832595714594045
  0
TABLESTYLE
  5
6A
102
{ACAD_XDICTIONARY
360
109
102
}
102
{ACAD_REACTORS
330
69
102
}
330
69
100
AcDbTableStyle
280
     0
  3
Standard
 70
     0
 71
     0
 40
1.5
 41
1.5
280
     0
281
     0
  7
Standard
140
4.5
170
     2
 62
     0
 63
     7
283
     0
 90
        4
 91
        0
  1

274
    -2
284
     1
 64
     0
275
    -2
285
     1
 65
     0
276
    -2
286
     1
 66
     0
277
    -2
287
     1
 67
     0
278
    -2
288
     1
 68
     0
279
    -2
289
     1
 69
     0
  7
Standard
140
6.0
170
     5
 62
     0
 63
     7
283
     0
 90
        4
 91
        0
  1

274
    -2
284
     1
 64
     0
275
    -2
285
     1
 65
     0
276
    -2
286
     1
 66
     0
277
    -2
287
     1
 67
     0
278
    -2
288
     1
 68
     0
279
    -2
289
     1
 69
     0
  7
Standard
140
4.5
170
     5
 62
     0
 63
     7
283
     0
 90
        4
 91
        0
  1

274
    -2
284
     1
 64
     0
275
    -2
285
     1
 65
     0
276
    -2
286
     1
 66
     0
277
    -2
287
     1
 67
     0
278
    -2
288
     1
 68
     0
279
    -2
289
     1
 69
     0
  0
VISUALSTYLE
  5
2F
102
{ACAD_REACTORS
330
2A
102
}
330
2A
100
AcDbVisualStyle
  2
2dWireframe
 70
     4
177
     3
291
     0
 70
    58
 90
        0
176
     1
 90
        2
176
     1
 90
        0
176
     1
 90
        0
176
     1
 40
0.6
176
     1
 40
30.0
176
     1
 62
     7
420
 16777215
176
     1
 90
        1
176
     1
 90
        4
176
     1
 62
     7
176
     1
 62
   257
176
     1
 90
        1
176
     1
 90
        1
176
     1
 40
1.0
176
     1
 90
        0
176
     1
 62
   257
176
     1
 40
1.0
176
     1
 90
        1
176
     1
 90
        6
176
     1
 90
        2
176
     1
 62
     7
176
     1
 90
        5
176
     1
 90
        0
176
     1
 90
        0
176
     1
290
     0
176
     1
 90
        1
176
     1
 40
0.0
176
     1
 90
        0
176
     1
290
     1
176
     1
290
     1
176
     1
290
     0
176
     1
290
     0
176
     1
290
     0
176
     1
290
     0
176
     1
290
     0
176
     1
290
     0
176
     1
290
     0
176
     1
 90
       50
176
     1
 40
0.0
176
     1
 40
1.0
176
     1
 90
        0
176
     1
 62
    18
176
     1
 90
       50
176
     1
 90
        3
176
     1
 62
     5
420
      255
176
     1
290
     0
176
     1
 90
       50
176
     1
 90
       50
176
     1
 90
       50
176
     1
290
     0
176
     1
 90
       50
176
     1
 62
   256
176
     0
 40
1.0
176
     0
 90
        2
176
     1
  1
strokes_ogs.tif
176
     1
290
     0
176
     1
 40
1.0
176
     1
 40
1.0
176
     1
1001
ACAD
1000
AcDbSavedByObjectVersion
1070
     0
  0
VISUALSTYLE
  5
32
102
{ACAD_REACTORS
330
2A
102
}
330
2A
100
AcDbVisualStyle
  2
Basic
 70
     7
177
     3
291
     1
 70
    58
 90
        1
176
     1
 90
        0
176
     1
 90
        1
176
     1
 90
        0
176
     1
 40
0.6
176
     1
 40
30.0
176
     1
 62
     7
420
 16777215
176
     1
 90
        0
176
     1
 90
        4
176
     1
 62
     7
176
     1
 62
   257
176
     1
 90
        1
176
     1
 90
        1
176
     1
 40
1.0
176
     1
 90
        8
176
     1
 62
     7
176
     1
 40
1.0
176
     1
 90
        1
176
     1
 90
        6
176
     1
 90
        2
176
     1
 62
     7
176
     1
 90
        5
176
     1
 90
        0
176
     1
 90
        0
176
     1
290
     0
176
     1
 90
        1
176
     1
 40
0.0
176
     1
 90
        0
176
     1
290
     0
176
     1
290
     1
176
     1
290
     1
176
     1
290
     0
176
     1
290
     0
176
     1
290
     0
176
     1
290
     0
176
     1
290
     0
176
     1
290
     0
176
     1
 90
       50
176
     1
 40
0.0
176
     1
 40
1.0
176
     1
 90
        0
176
     1
 62
    18
176
     1
 90
       50
176
     1
 90
        3
176
     1
 62
     5
420
      255
176
     1
290
     0
176
     1
 90
       50
176
     1
 90
       50
176
     1
 90
       50
176
     1
290
     0
176
     1
 90
       50
176
     1
 62
   256
176
     0
 40
1.0
176
     0
 90
        2
176
     1
  1
strokes_ogs.tif
176
     1
290
     0
176
     1
 40
1.0
176
     1
 40
1.0
176
     1
1001
ACAD
1000
AcDbSavedByObjectVersion
1070
     0
  0
VISUALSTYLE
  5
36
102
{ACAD_REACTORS
330
2A
102
}
330
2A
100
AcDbVisualStyle
  2
Brighten
 70
    12
177
     3
291
     1
 70
    58
 90
        2
176
     1
 90
        2
176
     1
 90
        0
176
     1
 90
        0
176
     1
 40
0.6
176
     1
 40
30.0
176
     1
 62
     7
420
 16777215
176
     1
 90
        1
176
     1
 90
        4
176
     1
 62
     7
176
     1
 62
   257
176
     1
 90
        1
176
     1
 90
        1
176
     1
 40
1.0
176
     1
 90
        8
176
     1
 62
     7
176
     1
 40
1.0
176
     1
 90
        1
176
     1
 90
        6
176
     1
 90
        2
176
     1
 62
     7
176
     1
 90
        5
176
     1
 90
        0
176
     1
 90
        0
176
     1
290
     0
176
     1
 90
        1
176
     1
 40
50.0
176
     1
 90
        0
176
     1
290
     0
176
     1
290
     1
176
     1
290
     1
176
     1
290
     0
176
     1
290
     0
176
     1
290
     0
176
     1
290
     0
176
     1
290
     0
176
     1
290
     0
176
     1
 90
       50
176
     1
 40
0.0
176
     1
 40
1.0
176
     1
 90
        0
176
     1
 62
    18
176
     1
 90
       50
176
     1
 90
        3
176
     1
 62
     5
420
      255
176
     1
290
     0
176
     1
 90
       50
176
     1
 90
       50
176
     1
 90
       50
176
     1
290
     0
176
     1
 90
       50
176
     1
 62
   256
176
     0
 40
1.0
176
     0
 90
        2
176
     1
  1
strokes_ogs.tif
176
     1
290
     0
176
     1
 40
1.0
176
     1
 40
1.0
176
     1
1001
ACAD
1000
AcDbSavedByObjectVersion
1070
     0
  0
VISUALSTYLE
  5
3A
102
{ACAD_REACTORS
330
2A
102
}
330
2A
100
AcDbVisualStyle
  2
ColorChange
 70
    16
177
     3
291
     1
 70
    58
 90
        2
176
     1
 90
        2
176
     1
 90
        3
176
     1
 90
        0
176
     1
 40
0.6
176
     1
 40
30.0
176
     1
 62
     8
420
  8421504
176
     1
 90
        1
176
     1
 90
        4
176
     1
 62
     7
176
     1
 62
   257
176
     1
 90
        1
176
     1
 90
        1
176
     1
 40
1.0
176
     1
 90
        8
176
     1
 62
     8
420
  8421504
176
     1
 40
1.0
176
     1
 90
        1
176
     1
 90
        6
176
     1
 90
        2
176
     1
 62
     7
176
     1
 90
        5
176
     1
 90
        0
176
     1
 90
        0
176
     1
290
     0
176
     1
 90
        1
176
     1
 40
0.0
176
     1
 90
        0
176
     1
290
     0
176
     1
290
     1
176
     1
290
     1
176
     1
290
     0
176
     1
290
     0
176
     1
290
     0
176
     1
290
     0
176
     1
290
     0
176
     1
290
     0
176
     1
 90
       50
176
     1
 40
0.0
176
     1
 40
1.0
176
     1
 90
        0
176
     1
 62
    18
176
     1
 90
       50
176
     1
 90
        3
176
     1
 62
     5
420
      255
176
     1
290
     0
176
     1
 90
       50
176
     1
 90
       50
176
     1
 90
       50
176
     1
290
     0
176
     1
 90
       50
176
     1
 62
   256
176
     0
 40
1.0
176
     0
 90
        2
176
     1
  1
strokes_ogs.tif
176
     1
290
     0
176
     1
 40
1.0
176
     1
 40
1.0
176
     1
1001
ACAD
1000
AcDbSavedByObjectVersion
1070
     0
  0
VISUALSTYLE
  5
34
102
{ACAD_REACTORS
330
2A
102
}
330
2A
100
AcDbVisualStyle
  2
Conceptual
 70
     9
177
     3
291
     0
 70
    58
 90
        3
176
     1
 90
        2
176
     1
 90
        0
176
     1
 90
        0
176
     1
 40
0.6
176
     1
 40
30.0
176
     1
 62
     7
420
 16777215
176
     1
 90
        2
176
     1
 90
        2
176
     1
 62
     7
176
     1
 62
   257
176
     1
 90
        1
176
     1
 90
        1
176
     1
 40
179.0
176
     1
 90
        8
176
     1
 62
     7
176
     1
 40
1.0
176
     1
 90
        1
176
     1
 90
        6
176
     1
 90
        2
176
     1
 62
     7
176
     1
 90
        3
176
     1
 90
        0
176
     1
 90
        0
176
     1
290
     0
176
     1
 90
        1
176
     1
 40
0.0
176
     1
 90
        0
176
     1
290
     0
176
     1
290
     1
176
     1
290
     1
176
     1
290
     0
176
     1
290
     0
176
     1
290
     0
176
     1
290
     0
176
     1
290
     0
176
     1
290
     0
176
     1
 90
       50
176
     1
 40
0.0
176
     1
 40
1.0
176
     1
 90
        0
176
     1
 62
    18
176
     1
 90
       50
176
     1
 90
        3
176
     1
 62
     5
420
      255
176
     1
290
     0
176
     1
 90
       50
176
     1
 90
       50
176
     1
 90
       50
176
     1
290
     0
176
     1
 90
       50
176
     1
 62
   256
176
     0
 40
1.0
176
     0
 90
        2
176
     1
  1
strokes_ogs.tif
176
     1
290
     0
176
     1
 40
1.0
176
     1
 40
1.0
176
     1
1001
ACAD
1000
AcDbSavedByObjectVersion
1070
     0
  0
VISUALSTYLE
  5
35
102
{ACAD_REACTORS
330
2A
102
}
330
2A
100
AcDbVisualStyle
  2
Dim
 70
    11
177
     3
291
     1
 70
    58
 90
        2
176
     1
 90
        2
176
     1
 90
        0
176
     1
 90
        0
176
     1
 40
0.6
176
     1
 40
30.0
176
     1
 62
     7
420
 16777215
176
     1
 90
        1
176
     1
 90
        4
176
     1
 62
     7
176
     1
 62
   257
176
     1
 90
        1
176
     1
 90
        1
176
     1
 40
1.0
176
     1
 90
        8
176
     1
 62
     7
176
     1
 40
1.0
176
     1
 90
        1
176
     1
 90
        6
176
     1
 90
        2
176
     1
 62
     7
176
     1
 90
        5
176
     1
 90
        0
176
     1
 90
        0
176
     1
290
     0
176
     1
 90
        1
176
     1
 40
-50.0
176
     1
 90
        0
176
     1
290
     0
176
     1
290
     1
176
     1
290
     1
176
     1
290
     0
176
     1
290
     0
176
     1
290
     0
176
     1
290
     0
176
     1
290
     0
176
     1
290
     0
176
     1
 90
       50
176
     1
 40
0.0
176
     1
 40
1.0
176
     1
 90
        0
176
     1
 62
    18
176
     1
 90
       50
176
     1
 90
        3
176
     1
 62
     5
420
      255
176
     1
290
     0
176
     1
 90
       50
176
     1
 90
       50
176
     1
 90
       50
176
     1
290
     0
176
     1
 90
       50
176
     1
 62
   256
176
     0
 40
1.0
176
     0
 90
        2
176
     1
  1
strokes_ogs.tif
176
     1
290
     0
176
     1
 40
1.0
176
     1
 40
1.0
176
     1
1001
ACAD
1000
AcDbSavedByObjectVersion
1070
     0
  0
VISUALSTYLE
  5
3D
102
{ACAD_REACTORS
330
2A
102
}
330
2A
100
AcDbVisualStyle
  2
EdgeColorOff
 70
    22
177
     3
291
     1
 70
    58
 90
        2
176
     0
 90
        2
176
     0
 90
        0
176
     0
 90
        0
176
     0
 40
0.6
176
     0
 40
30.0
176
     0
 62
     7
420
 16777215
176
     0
 90
        1
176
     0
 90
        4
176
     0
 62
     7
176
     0
 62
   257
176
     0
 90
        1
176
     0
 90
        1
176
     0
 40
1.0
176
     0
 90
        8
176
     2
 62
     7
176
     0
 40
1.0
176
     0
 90
        1
176
     0
 90
        6
176
     0
 90
        2
176
     0
 62
     7
176
     0
 90
        5
176
     0
 90
        0
176
     0
 90
        0
176
     0
290
     0
176
     0
 90
        1
176
     0
 40
0.0
176
     0
 90
        0
176
     0
290
     0
176
     0
290
     1
176
     0
290
     1
176
     0
290
     0
176
     0
290
     0
176
     0
290
     0
176
     0
290
     0
176
     0
290
     0
176
     0
290
     0
176
     0
 90
       50
176
     0
 40
0.0
176
     0
 40
1.0
176
     0
 90
        0
176
     0
 62
    18
176
     0
 90
       50
176
     0
 90
        3
176
     0
 62
     5
420
      255
176
     0
290
     0
176
     0
 90
       50
176
     0
 90
       50
176
     0
 90
       50
176
     0
290
     0
176
     0
 90
       50
176
     0
 62
   256
176
     0
 40
1.0
176
     0
 90
        2
176
     0
  1
strokes_ogs.tif
176
     0
290
     0
176
     0
 40
1.0
176
     0
 40
1.0
176
     0
1001
ACAD
1000
AcDbSavedByObjectVersion
1070
     0
  0
VISUALSTYLE
  5
39
102
{ACAD_REACTORS
330
2A
102
}
330
2A
100
AcDbVisualStyle
  2
Facepattern
 70
    15
177
     3
291
     1
 70
    58
 90
        2
176
     1
 90
        2
176
     1
 90
        0
176
     1
 90
        0
176
     1
 40
0.6
176
     1
 40
30.0
176
     1
 62
     7
420
 16777215
176
     1
 90
        1
176
     1
 90
        4
176
     1
 62
     7
176
     1
 62
   257
176
     1
 90
        1
176
     1
 90
        1
176
     1
 40
1.0
176
     1
 90
        8
176
     1
 62
     7
176
     1
 40
1.0
176
     1
 90
        1
176
     1
 90
        6
176
     1
 90
        2
176
     1
 62
     7
176
     1
 90
        5
176
     1
 90
        0
176
     1
 90
        0
176
     1
290
     0
176
     1
 90
        1
176
     1
 40
0.0
176
     1
 90
        0
176
     1
290
     0
176
     1
290
     1
176
     1
290
     1
176
     1
290
     0
176
     1
290
     0
176
     1
290
     0
176
     1
290
     0
176
     1
290
     0
176
     1
290
     0
176
     1
 90
       50
176
     1
 40
0.0
176
     1
 40
1.0
176
     1
 90
        0
176
     1
 62
    18
176
     1
 90
       50
176
     1
 90
        3
176
     1
 62
     5
420
      255
176
     1
290
     0
176
     1
 90
       50
176
     1
 90
       50
176
     1
 90
       50
176
     1
290
     0
176
     1
 90
       50
176
     1
 62
   256
176
     0
 40
1.0
176
     0
 90
        2
176
     1
  1
strokes_ogs.tif
176
     1
290
     0
176
     1
 40
1.0
176
     1
 40
1.0
176
     1
1001
ACAD
1000
AcDbSavedByObjectVersion
1070
     0
  0
VISUALSTYLE
  5
2B
102
{ACAD_REACTORS
330
2A
102
}
330
2A
100
AcDbVisualStyle
  2
Flat
 70
     0
177
     3
291
     1
 70
    58
 90
        2
176
     1
 90
        1
176
     1
 90
        1
176
     1
 90
        2
176
     1
 40
0.6
176
     1
 40
30.0
176
     1
 62
     7
420
 16777215
176
     1
 90
        0
176
     1
 90
        0
176
     1
 62
     7
176
     1
 62
   257
176
     1
 90
        1
176
     1
 90
        1
176
     1
 40
1.0
176
     1
 90
        8
176
     1
 62
     7
176
     1
 40
1.0
176
     1
 90
        1
176
     1
 90
        6
176
     1
 90
        2
176
     1
 62
     7
176
     1
 90
        5
176
     1
 90
        0
176
     1
 90
        0
176
     1
290
     0
176
     1
 90
       13
176
     1
 40
0.0
176
     1
 90
        0
176
     1
290
     0
176
     1
290
     1
176
     1
290
     1
176
     1
290
     0
176
     1
290
     0
176
     1
290
     0
176
     1
290
     0
176
     1
290
     0
176
     1
290
     0
176
     1
 90
       50
176
     1
 40
0.0
176
     1
 40
1.0
176
     1
 90
        0
176
     1
 62
    18
176
     1
 90
       50
176
     1
 90
        3
176
     1
 62
     5
420
      255
176
     1
290
     0
176
     1
 90
       50
176
     1
 90
       50
176
     1
 90
       50
176
     1
290
     0
176
     1
 90
       50
176
     1
 62
   256
176
     0
 40
1.0
176
     0
 90
        2
176
     1
  1
strokes_ogs.tif
176
     1
290
     0
176
     1
 40
1.0
176
     1
 40
1.0
176
     1
1001
ACAD
1000
AcDbSavedByObjectVersion
1070
     0
  0
VISUALSTYLE
  5
2C
102
{ACAD_REACTORS
330
2A
102
}
330
2A
100
AcDbVisualStyle
  2
FlatWithEdges
 70
     1
177
     3
291
     1
 70
    58
 90
        2
176
     1
 90
        1
176
     1
 90
        1
176
     1
 90
        2
176
     1
 40
0.6
176
     1
 40
30.0
176
     1
 62
     7
420
 16777215
176
     1
 90
        1
176
     1
 90
        0
176
     1
 62
     7
176
     1
 62
   257
176
     1
 90
        1
176
     1
 90
        1
176
     1
 40
1.0
176
     1
 90
        0
176
     1
 62
   257
176
     1
 40
1.0
176
     1
 90
        1
176
     1
 90
        6
176
     1
 90
        2
176
     1
 62
     7
176
     1
 90
        5
176
     1
 90
        0
176
     1
 90
        0
176
     1
290
     0
176
     1
 90
       13
176
     1
 40
0.0
176
     1
 90
        0
176
     1
290
     0
176
     1
290
     1
176
     1
290
     1
176
     1
290
     0
176
     1
290
     0
176
     1
290
     0
176
     1
290
     0
176
     1
290
     0
176
     1
290
     0
176
     1
 90
       50
176
     1
 40
0.0
176
     1
 40
1.0
176
     1
 90
        0
176
     1
 62
    18
176
     1
 90
       50
176
     1
 90
        3
176
     1
 62
     5
420
      255
176
     1
290
     0
176
     1
 90
       50
176
     1
 90
       50
176
     1
 90
       50
176
     1
290
     0
176
     1
 90
       50
176
     1
 62
   256
176
     0
 40
1.0
176
     0
 90
        2
176
     1
  1
strokes_ogs.tif
176
     1
290
     0
176
     1
 40
1.0
176
     1
 40
1.0
176
     1
1001
ACAD
1000
AcDbSavedByObjectVersion
1070
     0
  0
VISUALSTYLE
  5
2D
102
{ACAD_REACTORS
330
2A
102
}
330
2A
100
AcDbVisualStyle
  2
Gouraud
 70
     2
177
     3
291
     1
 70
    58
 90
        2
176
     1
 90
        2
176
     1
 90
        1
176
     1
 90
        2
176
     1
 40
0.6
176
     1
 40
30.0
176
     1
 62
     7
420
 16777215
176
     1
 90
        0
176
     1
 90
        0
176
     1
 62
     7
176
     1
 62
   257
176
     1
 90
        1
176
     1
 90
        1
176
     1
 40
1.0
176
     1
 90
        0
176
     1
 62
     7
176
     1
 40
1.0
176
     1
 90
        1
176
     1
 90
        6
176
     1
 90
        2
176
     1
 62
     7
176
     1
 90
        5
176
     1
 90
        0
176
     1
 90
        0
176
     1
290
     0
176
     1
 90
       13
176
     1
 40
0.0
176
     1
 90
        0
176
     1
290
     0
176
     1
290
     1
176
     1
290
     1
176
     1
290
     0
176
     1
290
     0
176
     1
290
     0
176
     1
290
     0
176
     1
290
     0
176
     1
290
     0
176
     1
 90
       50
176
     1
 40
0.0
176
     1
 40
1.0
176
     1
 90
        0
176
     1
 62
    18
176
     1
 90
       50
176
     1
 90
        3
176
     1
 62
     5
420
      255
176
     1
290
     0
176
     1
 90
       50
176
     1
 90
       50
176
     1
 90
       50
176
     1
290
     0
176
     1
 90
       50
176
     1
 62
   256
176
     0
 40
1.0
176
     0
 90
        2
176
     1
  1
strokes_ogs.tif
176
     1
290
     0
176
     1
 40
1.0
176
     1
 40
1.0
176
     1
1001
ACAD
1000
AcDbSavedByObjectVersion
1070
     0
  0
VISUALSTYLE
  5
2E
102
{ACAD_REACTORS
330
2A
102
}
330
2A
100
AcDbVisualStyle
  2
GouraudWithEdges
 70
     3
177
     3
291
     1
 70
    58
 90
        2
176
     1
 90
        2
176
     1
 90
        1
176
     1
 90
        2
176
     1
 40
0.6
176
     1
 40
30.0
176
     1
 62
     7
420
 16777215
176
     1
 90
        1
176
     1
 90
        0
176
     1
 62
     7
176
     1
 62
   257
176
     1
 90
        1
176
     1
 90
        1
176
     1
 40
1.0
176
     1
 90
        0
176
     1
 62
   257
176
     1
 40
1.0
176
     1
 90
        1
176
     1
 90
        6
176
     1
 90
        2
176
     1
 62
     7
176
     1
 90
        5
176
     1
 90
        0
176
     1
 90
        0
176
     1
290
     0
176
     1
 90
       13
176
     1
 40
0.0
176
     1
 90
        0
176
     1
290
     0
176
     1
290
     1
176
     1
290
     1
176
     1
290
     0
176
     1
290
     0
176
     1
290
     0
176
     1
290
     0
176
     1
290
     0
176
     1
290
     0
176
     1
 90
       50
176
     1
 40
0.0
176
     1
 40
1.0
176
     1
 90
        0
176
     1
 62
    18
176
     1
 90
       50
176
     1
 90
        3
176
     1
 62
     5
420
      255
176
     1
290
     0
176
     1
 90
       50
176
     1
 90
       50
176
     1
 90
       50
176
     1
290
     0
176
     1
 90
       50
176
     1
 62
   256
176
     0
 40
1.0
176
     0
 90
        2
176
     1
  1
strokes_ogs.tif
176
     1
290
     0
176
     1
 40
1.0
176
     1
 40
1.0
176
     1
1001
ACAD
1000
AcDbSavedByObjectVersion
1070
     0
  0
VISUALSTYLE
  5
31
102
{ACAD_REACTORS
330
2A
102
}
330
2A
100
AcDbVisualStyle
  2
Hidden
 70
     6
177
     3
291
     0
 70
    58
 90
        1
176
     1
 90
        2
176
     1
 90
        2
176
     1
 90
        0
176
     1
 40
0.6
176
     1
 40
30.0
176
     1
 62
     7
420
 16777215
176
     1
 90
        2
176
     1
 90
        2
176
     1
 62
     7
176
     1
 62
   257
176
     1
 90
        2
176
     1
 90
        1
176
     1
 40
40.0
176
     1
 90
        0
176
     1
 62
   257
176
     1
 40
1.0
176
     1
 90
        1
176
     1
 90
        6
176
     1
 90
        2
176
     1
 62
     7
176
     1
 90
        3
176
     1
 90
        0
176
     1
 90
        0
176
     1
290
     0
176
     1
 90
        1
176
     1
 40
0.0
176
     1
 90
        0
176
     1
290
     0
176
     1
290
     1
176
     1
290
     1
176
     1
290
     0
176
     1
290
     0
176
     1
290
     0
176
     1
290
     0
176
     1
290
     0
176
     1
290
     0
176
     1
 90
       50
176
     1
 40
0.0
176
     1
 40
1.0
176
     1
 90
        0
176
     1
 62
    18
176
     1
 90
       50
176
     1
 90
        3
176
     1
 62
     5
420
      255
176
     1
290
     0
176
     1
 90
       50
176
     1
 90
       50
176
     1
 90
       50
176
     1
290
     0
176
     1
 90
       50
176
     1
 62
   256
176
     0
 40
1.0
176
     0
 90
        2
176
     1
  1
strokes_ogs.tif
176
     1
290
     0
176
     1
 40
1.0
176
     1
 40
1.0
176
     1
1001
ACAD
1000
AcDbSavedByObjectVersion
1070
     0
  0
VISUALSTYLE
  5
3B
102
{ACAD_REACTORS
330
2A
102
}
330
2A
100
AcDbVisualStyle
  2
JitterOff
 70
    20
177
     3
291
     1
 70
    58
 90
        2
176
     0
 90
        2
176
     0
 90
        0
176
     0
 90
        0
176
     0
 40
0.6
176
     0
 40
30.0
176
     0
 62
     7
420
 16777215
176
     0
 90
        1
176
     0
 90
        4
176
     0
 62
     7
176
     0
 62
   257
176
     0
 90
        1
176
     0
 90
        1
176
     0
 40
1.0
176
     0
 90
       10
176
     2
 62
     7
176
     0
 40
1.0
176
     0
 90
        1
176
     0
 90
        6
176
     0
 90
        2
176
     0
 62
     7
176
     0
 90
        5
176
     0
 90
        0
176
     0
 90
        0
176
     0
290
     0
176
     0
 90
        1
176
     0
 40
0.0
176
     0
 90
        0
176
     0
290
     0
176
     0
290
     1
176
     0
290
     1
176
     0
290
     0
176
     0
290
     0
176
     0
290
     0
176
     0
290
     0
176
     0
290
     0
176
     0
290
     0
176
     0
 90
       50
176
     0
 40
0.0
176
     0
 40
1.0
176
     0
 90
        0
176
     0
 62
    18
176
     0
 90
       50
176
     0
 90
        3
176
     0
 62
     5
420
      255
176
     0
290
     0
176
     0
 90
       50
176
     0
 90
       50
176
     0
 90
       50
176
     0
290
     0
176
     0
 90
       50
176
     0
 62
   256
176
     0
 40
1.0
176
     0
 90
        2
176
     0
  1
strokes_ogs.tif
176
     0
290
     0
176
     0
 40
1.0
176
     0
 40
1.0
176
     0
1001
ACAD
1000
AcDbSavedByObjectVersion
1070
     0
  0
VISUALSTYLE
  5
38
102
{ACAD_REACTORS
330
2A
102
}
330
2A
100
AcDbVisualStyle
  2
Linepattern
 70
    14
177
     3
291
     1
 70
    58
 90
        2
176
     1
 90
        2
176
     1
 90
        0
176
     1
 90
        0
176
     1
 40
0.6
176
     1
 40
30.0
176
     1
 62
     7
420
 16777215
176
     1
 90
        1
176
     1
 90
        4
176
     1
 62
     7
176
     1
 62
   257
176
     1
 90
        7
176
     1
 90
        7
176
     1
 40
1.0
176
     1
 90
        8
176
     1
 62
     7
176
     1
 40
1.0
176
     1
 90
        1
176
     1
 90
        6
176
     1
 90
        2
176
     1
 62
     7
176
     1
 90
        5
176
     1
 90
        0
176
     1
 90
        0
176
     1
290
     0
176
     1
 90
        1
176
     1
 40
0.0
176
     1
 90
        0
176
     1
290
     0
176
     1
290
     1
176
     1
290
     1
176
     1
290
     0
176
     1
290
     0
176
     1
290
     0
176
     1
290
     0
176
     1
290
     0
176
     1
290
     0
176
     1
 90
       50
176
     1
 40
0.0
176
     1
 40
1.0
176
     1
 90
        0
176
     1
 62
    18
176
     1
 90
       50
176
     1
 90
        3
176
     1
 62
     5
420
      255
176
     1
290
     0
176
     1
 90
       50
176
     1
 90
       50
176
     1
 90
       50
176
     1
290
     0
176
     1
 90
       50
176
     1
 62
   256
176
     0
 40
1.0
176
     0
 90
        2
176
     1
  1
strokes_ogs.tif
176
     1
290
     0
176
     1
 40
1.0
176
     1
 40
1.0
176
     1
1001
ACAD
1000
AcDbSavedByObjectVersion
1070
     0
  0
VISUALSTYLE
  5
3C
102
{ACAD_REACTORS
330
2A
102
}
330
2A
100
AcDbVisualStyle
  2
OverhangOff
 70
    21
177
     3
291
     1
 70
    58
 90
        2
176
     0
 90
        2
176
     0
 90
        0
176
     0
 90
        0
176
     0
 40
0.6
176
     0
 40
30.0
176
     0
 62
     7
420
 16777215
176
     0
 90
        1
176
     0
 90
        4
176
     0
 62
     7
176
     0
 62
   257
176
     0
 90
        1
176
     0
 90
        1
176
     0
 40
1.0
176
     0
 90
        9
176
     2
 62
     7
176
     0
 40
1.0
176
     0
 90
        1
176
     0
 90
        6
176
     0
 90
        2
176
     0
 62
     7
176
     0
 90
        5
176
     0
 90
        0
176
     0
 90
        0
176
     0
290
     0
176
     0
 90
        1
176
     0
 40
0.0
176
     0
 90
        0
176
     0
290
     0
176
     0
290
     1
176
     0
290
     1
176
     0
290
     0
176
     0
290
     0
176
     0
290
     0
176
     0
290
     0
176
     0
290
     0
176
     0
290
     0
176
     0
 90
       50
176
     0
 40
0.0
176
     0
 40
1.0
176
     0
 90
        0
176
     0
 62
    18
176
     0
 90
       50
176
     0
 90
        3
176
     0
 62
     5
420
      255
176
     0
290
     0
176
     0
 90
       50
176
     0
 90
       50
176
     0
 90
       50
176
     0
290
     0
176
     0
 90
       50
176
     0
 62
   256
176
     0
 40
1.0
176
     0
 90
        2
176
     0
  1
strokes_ogs.tif
176
     0
290
     0
176
     0
 40
1.0
176
     0
 40
1.0
176
     0
1001
ACAD
1000
AcDbSavedByObjectVersion
1070
     0
  0
VISUALSTYLE
  5
33
102
{ACAD_REACTORS
330
2A
102
}
330
2A
100
AcDbVisualStyle
  2
Realistic
 70
     8
177
     3
291
     0
 70
    58
 90
        2
176
     1
 90
        3
176
     1
 90
        0
176
     1
 90
        2
176
     1
 40
0.6
176
     1
 40
30.0
176
     1
 62
     7
420
 16777215
176
     1
 90
        0
176
     1
 90
        0
176
     1
 62
     7
176
     1
 62
   257
176
     1
 90
        1
176
     1
 90
        1
176
     1
 40
1.0
176
     1
 90
        8
176
     1
 62
   257
176
     1
 40
1.0
176
     1
 90
        1
176
     1
 90
        6
176
     1
 90
        2
176
     1
 62
     7
176
     1
 90
        3
176
     1
 90
        0
176
     1
 90
        0
176
     1
290
     0
176
     1
 90
       13
176
     1
 40
0.0
176
     1
 90
        0
176
     1
290
     0
176
     1
290
     1
176
     1
290
     1
176
     1
290
     0
176
     1
290
     0
176
     1
290
     0
176
     1
290
     0
176
     1
290
     0
176
     1
290
     0
176
     1
 90
       50
176
     1
 40
0.0
176
     1
 40
1.0
176
     1
 90
        0
176
     1
 62
    18
176
     1
 90
       50
176
     1
 90
        3
176
     1
 62
     5
420
      255
176
     1
290
     0
176
     1
 90
       50
176
     1
 90
       50
176
     1
 90
       50
176
     1
290
     0
176
     1
 90
       50
176
     1
 62
   256
176
     0
 40
1.0
176
     0
 90
        2
176
     1
  1
strokes_ogs.tif
176
     1
290
     0
176
     1
 40
1.0
176
     1
 40
1.0
176
     1
1001
ACAD
1000
AcDbSavedByObjectVersion
1070
     0
  0
VISUALSTYLE
  5
42
102
{ACAD_REACTORS
330
2A
102
}
330
2A
100
AcDbVisualStyle
  2
Shaded
 70
    27
177
     3
291
     0
 70
    58
 90
        2
176
     1
 90
        2
176
     1
 90
        1
176
     1
 90
        2
176
     1
 40
0.6
176
     1
 40
30.0
176
     1
 62
     7
420
 16777215
176
     1
 90
        0
176
     1
 90
        4
176
     1
 62
     7
176
     1
 62
   257
176
     1
 90
        1
176
     1
 90
        1
176
     1
 40
1.0
176
     1
 90
        8
176
     1
 62
   257
176
     1
 40
1.0
176
     1
 90
        1
176
     1
 90
        6
176
     1
 90
        2
176
     1
 62
     8
420
  7895160
176
     1
 90
        3
176
     1
 90
        0
176
     1
 90
        0
176
     1
290
     0
176
     1
 90
        5
176
     1
 40
0.0
176
     1
 90
        0
176
     1
290
     0
176
     1
290
     1
176
     1
290
     1
176
     1
290
     0
176
     1
290
     0
176
     1
290
     0
176
     1
290
     0
176
     1
290
     0
176
     1
290
     0
176
     1
 90
       50
176
     1
 40
0.0
176
     1
 40
1.0
176
     1
 90
        0
176
     1
 62
    18
176
     1
 90
       50
176
     1
 90
        3
176
     1
 62
     5
420
      255
176
     1
290
     0
176
     1
 90
       50
176
     1
 90
       50
176
     1
 90
       50
176
     1
290
     0
176
     1
 90
       50
176
     1
 62
   256
176
     0
 40
1.0
176
     0
 90
        2
176
     1
  1
strokes_ogs.tif
176
     1
290
     0
176
     1
 40
1.0
176
     1
 40
1.0
176
     1
1001
ACAD
1000
AcDbSavedByObjectVersion
1070
     0
  0
VISUALSTYLE
  5
41
102
{ACAD_REACTORS
330
2A
102
}
330
2A
100
AcDbVisualStyle
  2
Shaded with edges
 70
    26
177
     3
291
     0
 70
    58
 90
        2
176
     1
 90
        2
176
     1
 90
        1
176
     1
 90
        2
176
     1
 40
0.6
176
     1
 40
30.0
176
     1
 62
     7
420
 16777215
176
     1
 90
        1
176
     1
 90
       10
176
     1
 62
     7
176
     1
 62
   257
176
     1
 90
        2
176
     1
 90
        1
176
     1
 40
1.0
176
     1
 90
        8
176
     1
 62
   257
176
     1
 40
1.0
176
     1
 90
        1
176
     1
 90
        6
176
     1
 90
        2
176
     1
 62
     7
176
     1
 90
        3
176
     1
 90
        0
176
     1
 90
        0
176
     1
290
     0
176
     1
 90
        5
176
     1
 40
0.0
176
     1
 90
        0
176
     1
290
     0
176
     1
290
     1
176
     1
290
     1
176
     1
290
     0
176
     1
290
     0
176
     1
290
     0
176
     1
290
     0
176
     1
290
     0
176
     1
290
     0
176
     1
 90
       50
176
     1
 40
0.0
176
     1
 40
1.0
176
     1
 90
        0
176
     1
 62
    18
176
     1
 90
       50
176
     1
 90
        3
176
     1
 62
     5
420
      255
176
     1
290
     0
176
     1
 90
       50
176
     1
 90
       50
176
     1
 90
       50
176
     1
290
     0
176
     1
 90
       50
176
     1
 62
   256
176
     0
 40
1.0
176
     0
 90
        2
176
     1
  1
strokes_ogs.tif
176
     1
290
     0
176
     1
 40
1.0
176
     1
 40
1.0
176
     1
1001
ACAD
1000
AcDbSavedByObjectVersion
1070
     0
  0
VISUALSTYLE
  5
3E
102
{ACAD_REACTORS
330
2A
102
}
330
2A
100
AcDbVisualStyle
  2
Shades of Gray
 70
    23
177
     3
291
     0
 70
    58
 90
        2
176
     1
 90
        2
176
     1
 90
        3
176
     1
 90
        0
176
     1
 40
0.6
176
     1
 40
30.0
176
     1
 62
     7
420
 16777215
176
     1
 90
        2
176
     1
 90
        2
176
     1
 62
     7
176
     1
 62
     7
176
     1
 90
        1
176
     1
 90
        1
176
     1
 40
40.0
176
     1
 90
        8
176
     1
 62
     7
176
     1
 40
1.0
176
     1
 90
        1
176
     1
 90
        6
176
     1
 90
        2
176
     1
 62
     7
176
     1
 90
        3
176
     1
 90
        0
176
     1
 90
        0
176
     1
290
     0
176
     1
 90
        1
176
     1
 40
0.0
176
     1
 90
        0
176
     1
290
     0
176
     1
290
     1
176
     1
290
     1
176
     1
290
     0
176
     1
290
     0
176
     1
290
     0
176
     1
290
     0
176
     1
290
     0
176
     1
290
     0
176
     1
 90
       50
176
     1
 40
0.0
176
     1
 40
1.0
176
     1
 90
        0
176
     1
 62
    18
176
     1
 90
       50
176
     1
 90
        3
176
     1
 62
     5
420
      255
176
     1
290
     0
176
     1
 90
       50
176
     1
 90
       50
176
     1
 90
       50
176
     1
290
     0
176
     1
 90
       50
176
     1
 62
   256
176
     0
 40
1.0
176
     0
 90
        2
176
     1
  1
strokes_ogs.tif
176
     1
290
     0
176
     1
 40
1.0
176
     1
 40
1.0
176
     1
1001
ACAD
1000
AcDbSavedByObjectVersion
1070
     0
  0
VISUALSTYLE
  5
3F
102
{ACAD_REACTORS
330
2A
102
}
330
2A
100
AcDbVisualStyle
  2
Sketchy
 70
    24
177
     3
291
     0
 70
    58
 90
        1
176
     1
 90
        2
176
     1
 90
        2
176
     1
 90
        0
176
     1
 40
0.6
176
     1
 40
30.0
176
     1
 62
     7
420
 16777215
176
     1
 90
        2
176
     1
 90
        2
176
     1
 62
     7
176
     1
 62
     7
176
     1
 90
        1
176
     1
 90
        1
176
     1
 40
40.0
176
     1
 90
       11
176
     1
 62
     7
176
     1
 40
1.0
176
     1
 90
        1
176
     1
 90
        6
176
     1
 90
        2
176
     1
 62
     7
176
     1
 90
        6
176
     1
 90
        0
176
     1
 90
        0
176
     1
290
     0
176
     1
 90
        1
176
     1
 40
0.0
176
     1
 90
        0
176
     1
290
     0
176
     1
290
     1
176
     1
290
     1
176
     1
290
     0
176
     1
290
     0
176
     1
290
     0
176
     1
290
     0
176
     1
290
     0
176
     1
290
     0
176
     1
 90
       50
176
     1
 40
0.0
176
     1
 40
1.0
176
     1
 90
        0
176
     1
 62
    18
176
     1
 90
       50
176
     1
 90
        3
176
     1
 62
     5
420
      255
176
     1
290
     0
176
     1
 90
       50
176
     1
 90
       50
176
     1
 90
       50
176
     1
290
     0
176
     1
 90
       50
176
     1
 62
   256
176
     0
 40
1.0
176
     0
 90
        2
176
     1
  1
strokes_ogs.tif
176
     1
290
     0
176
     1
 40
1.0
176
     1
 40
1.0
176
     1
1001
ACAD
1000
AcDbSavedByObjectVersion
1070
     0
  0
VISUALSTYLE
  5
37
102
{ACAD_REACTORS
330
2A
102
}
330
2A
100
AcDbVisualStyle
  2
Thicken
 70
    13
177
     3
291
     1
 70
    58
 90
        2
176
     1
 90
        2
176
     1
 90
        0
176
     1
 90
        0
176
     1
 40
0.6
176
     1
 40
30.0
176
     1
 62
     7
420
 16777215
176
     1
 90
        1
176
     1
 90
        4
176
     1
 62
     7
176
     1
 62
   257
176
     1
 90
        1
176
     1
 90
        1
176
     1
 40
1.0
176
     1
 90
       12
176
     1
 62
     7
176
     1
 40
1.0
176
     1
 90
        1
176
     1
 90
        6
176
     1
 90
        2
176
     1
 62
     7
176
     1
 90
        5
176
     1
 90
        0
176
     1
 90
        0
176
     1
290
     0
176
     1
 90
        1
176
     1
 40
0.0
176
     1
 90
        0
176
     1
290
     0
176
     1
290
     1
176
     1
290
     1
176
     1
290
     0
176
     1
290
     0
176
     1
290
     0
176
     1
290
     0
176
     1
290
     0
176
     1
290
     0
176
     1
 90
       50
176
     1
 40
0.0
176
     1
 40
1.0
176
     1
 90
        0
176
     1
 62
    18
176
     1
 90
       50
176
     1
 90
        3
176
     1
 62
     5
420
      255
176
     1
290
     0
176
     1
 90
       50
176
     1
 90
       50
176
     1
 90
       50
176
     1
290
     0
176
     1
 90
       50
176
     1
 62
   256
176
     0
 40
1.0
176
     0
 90
        2
176
     1
  1
strokes_ogs.tif
176
     1
290
     0
176
     1
 40
1.0
176
     1
 40
1.0
176
     1
1001
ACAD
1000
AcDbSavedByObjectVersion
1070
     0
  0
VISUALSTYLE
  5
30
102
{ACAD_REACTORS
330
2A
102
}
330
2A
100
AcDbVisualStyle
  2
Wireframe
 70
     5
177
     3
291
     0
 70
    58
 90
        0
176
     1
 90
        2
176
     1
 90
        0
176
     1
 90
        0
176
     1
 40
0.6
176
     1
 40
30.0
176
     1
 62
     7
420
 16777215
176
     1
 90
        1
176
     1
 90
        4
176
     1
 62
     7
176
     1
 62
   257
176
     1
 90
        1
176
     1
 90
        1
176
     1
 40
1.0
176
     1
 90
        0
176
     1
 62
   257
176
     1
 40
1.0
176
     1
 90
        1
176
     1
 90
        6
176
     1
 90
        2
176
     1
 62
     7
176
     1
 90
        3
176
     1
 90
        0
176
     1
 90
        0
176
     1
290
     0
176
     1
 90
        1
176
     1
 40
0.0
176
     1
 90
        0
176
     1
290
     0
176
     1
290
     1
176
     1
290
     1
176
     1
290
     0
176
     1
290
     0
176
     1
290
     0
176
     1
290
     0
176
     1
290
     0
176
     1
290
     0
176
     1
 90
       50
176
     1
 40
0.0
176
     1
 40
1.0
176
     1
 90
        0
176
     1
 62
    18
176
     1
 90
       50
176
     1
 90
        3
176
     1
 62
     5
420
      255
176
     1
290
     0
176
     1
 90
       50
176
     1
 90
       50
176
     1
 90
       50
176
     1
290
     0
176
     1
 90
       50
176
     1
 62
   256
176
     0
 40
1.0
176
     0
 90
        2
176
     1
  1
strokes_ogs.tif
176
     1
290
     0
176
     1
 40
1.0
176
     1
 40
1.0
176
     1
1001
ACAD
1000
AcDbSavedByObjectVersion
1070
     0
  0
VISUALSTYLE
  5
40
102
{ACAD_REACTORS
330
2A
102
}
330
2A
100
AcDbVisualStyle
  2
X-Ray
 70
    25
177
     3
291
     0
 70
    58
 90
        2
176
     1
 90
        2
176
     1
 90
        1
176
     1
 90
        1
176
     1
 40
0.5
176
     1
 40
30.0
176
     1
 62
     7
420
 16777215
176
     1
 90
        1
176
     1
 90
        0
176
     1
 62
     7
176
     1
 62
   257
176
     1
 90
        1
176
     1
 90
        1
176
     1
 40
1.0
176
     1
 90
        8
176
     1
 62
     7
176
     1
 40
1.0
176
     1
 90
        1
176
     1
 90
        6
176
     1
 90
        2
176
     1
 62
     7
176
     1
 90
        3
176
     1
 90
        0
176
     1
 90
        0
176
     1
290
     0
176
     1
 90
       13
176
     1
 40
0.0
176
     1
 90
        0
176
     1
290
     0
176
     1
290
     1
176
     1
290
     1
176
     1
290
     0
176
     1
290
     0
176
     1
290
     0
176
     1
290
     0
176
     1
290
     0
176
     1
290
     0
176
     1
 90
       50
176
     1
 40
0.0
176
     1
 40
1.0
176
     1
 90
        0
176
     1
 62
    18
176
     1
 90
       50
176
     1
 90
        3
176
     1
 62
     5
420
      255
176
     1
290
     0
176
     1
 90
       50
176
     1
 90
       50
176
     1
 90
       50
176
     1
290
     0
176
     1
 90
       50
176
     1
 62
   256
176
     0
 40
1.0
176
     0
 90
        2
176
     1
  1
strokes_ogs.tif
176
     1
290
     0
176
     1
 40
1.0
176
     1
 40
1.0
176
     1
1001
ACAD
1000
AcDbSavedByObjectVersion
1070
     0
  0
DICTIONARYVAR
  5
108
102
{ACAD_REACTORS
330
107
102
}
330
107
100
DictionaryVariables
280
     0
  1
1:1
  0
DICTIONARYVAR
  5
110
102
{ACAD_REACTORS
330
107
102
}
330
107
100
DictionaryVariables
280
     0
  1
3.500000
  0
DICTIONARYVAR
  5
111
102
{ACAD_REACTORS
330
107
102
}
330
107
100
DictionaryVariables
280
     0
  1
acadiso.lin
  0
DICTIONARYVAR
  5
10D
102
{ACAD_REACTORS
330
107
102
}
330
107
100
DictionaryVariables
280
     0
  1
STANDARD
  0
DICTIONARYVAR
  5
10C
102
{ACAD_REACTORS
330
107
102
}
330
107
100
DictionaryVariables
280
     0
  1
STANDARD
  0
DICTIONARYVAR
  5
485
102
{ACAD_REACTORS
330
107
102
}
330
107
100
DictionaryVariables
280
     0
  1
Metric50
  0
DICTIONARYVAR
  5
486
102
{ACAD_REACTORS
330
107
102
}
330
107
100
DictionaryVariables
280
     0
  1
Metric50
  0
DICTIONARY
  5
4B5
330
116
100
AcDbDictionary
280
     1
281
     1
  3
ACAD_XREC_ROUNDTRIP
360
4B6
  0
DICTIONARY
  5
4B3
330
115
100
AcDbDictionary
280
     1
281
     1
  3
ACAD_XREC_ROUNDTRIP
360
4B4
  0
DICTIONARY
  5
109
330
6A
100
AcDbDictionary
280
     1
281
     1
  3
ACAD_ROUNDTRIP_2008_TABLESTYLE_CELLSTYLEMAP
360
4B1
  0
XRECORD
  5
4B6
102
{ACAD_REACTORS
330
4B5
102
}
330
4B5
100
AcDbXrecord
280
     1
102
DISPLAYNAME
  1
Metric50
102
FLAGS
 90
        0
  0
XRECORD
  5
4B4
102
{ACAD_REACTORS
330
4B3
102
}
330
4B3
100
AcDbXrecord
280
     1
102
DISPLAYNAME
  1
Metric50
102
FLAGS
 90
        0
  0
CELLSTYLEMAP
  5
4B1
102
{ACAD_REACTORS
330
109
102
}
330
109
100
AcDbCellStyleMap
 90
        3
300
CELLSTYLE
  1
TABLEFORMAT_BEGIN
 90
        5
170
     1
 91
        0
 92
    32768
 62
   257
 93
        1
300
CONTENTFORMAT
  1
CONTENTFORMAT_BEGIN
 90
        0
 91
        0
 92
        4
 93
        0
300

 40
0.0
140
1.0
 94
        5
 62
     0
340
11
144
6.0
309
CONTENTFORMAT_END
171
     1
301
MARGIN
  1
CELLMARGIN_BEGIN
 40
1.5
 40
1.5
 40
1.5
 40
1.5
 40
0.18
 40
0.18
309
CELLMARGIN_END
 94
        6
 95
        1
302
GRIDFORMAT
  1
GRIDFORMAT_BEGIN
 90
        0
 91
        1
 62
     0
 92
       -2
340
14
 93
        0
 40
0.045
309
GRIDFORMAT_END
 95
        2
302
GRIDFORMAT
  1
GRIDFORMAT_BEGIN
 90
        0
 91
        1
 62
     0
 92
       -2
340
14
 93
        0
 40
0.045
309
GRIDFORMAT_END
 95
        4
302
GRIDFORMAT
  1
GRIDFORMAT_BEGIN
 90
        0
 91
        1
 62
     0
 92
       -2
340
14
 93
        0
 40
0.045
309
GRIDFORMAT_END
 95
        8
302
GRIDFORMAT
  1
GRIDFORMAT_BEGIN
 90
        0
 91
        1
 62
     0
 92
       -2
340
14
 93
        0
 40
0.045
309
GRIDFORMAT_END
 95
       16
302
GRIDFORMAT
  1
GRIDFORMAT_BEGIN
 90
        0
 91
        1
 62
     0
 92
       -2
340
14
 93
        0
 40
0.045
309
GRIDFORMAT_END
 95
       32
302
GRIDFORMAT
  1
GRIDFORMAT_BEGIN
 90
        0
 91
        1
 62
     0
 92
       -2
340
14
 93
        0
 40
0.045
309
GRIDFORMAT_END
309
TABLEFORMAT_END
  1
CELLSTYLE_BEGIN
 90
        1
 91
        1
300
_TITLE
309
CELLSTYLE_END
300
CELLSTYLE
  1
TABLEFORMAT_BEGIN
 90
        5
170
     1
 91
        0
 92
        0
 62
   257
 93
        1
300
CONTENTFORMAT
  1
CONTENTFORMAT_BEGIN
 90
        0
 91
        0
 92
        4
 93
        0
300

 40
0.0
140
1.0
 94
        5
 62
     0
340
11
144
4.5
309
CONTENTFORMAT_END
171
     1
301
MARGIN
  1
CELLMARGIN_BEGIN
 40
1.5
 40
1.5
 40
1.5
 40
1.5
 40
0.18
 40
0.18
309
CELLMARGIN_END
 94
        6
 95
        1
302
GRIDFORMAT
  1
GRIDFORMAT_BEGIN
 90
        0
 91
        1
 62
     0
 92
       -2
340
14
 93
        0
 40
0.045
309
GRIDFORMAT_END
 95
        2
302
GRIDFORMAT
  1
GRIDFORMAT_BEGIN
 90
        0
 91
        1
 62
     0
 92
       -2
340
14
 93
        0
 40
0.045
309
GRIDFORMAT_END
 95
        4
302
GRIDFORMAT
  1
GRIDFORMAT_BEGIN
 90
        0
 91
        1
 62
     0
 92
       -2
340
14
 93
        0
 40
0.045
309
GRIDFORMAT_END
 95
        8
302
GRIDFORMAT
  1
GRIDFORMAT_BEGIN
 90
        0
 91
        1
 62
     0
 92
       -2
340
14
 93
        0
 40
0.045
309
GRIDFORMAT_END
 95
       16
302
GRIDFORMAT
  1
GRIDFORMAT_BEGIN
 90
        0
 91
        1
 62
     0
 92
       -2
340
14
 93
        0
 40
0.045
309
GRIDFORMAT_END
 95
       32
302
GRIDFORMAT
  1
GRIDFORMAT_BEGIN
 90
        0
 91
        1
 62
     0
 92
       -2
340
14
 93
        0
 40
0.045
309
GRIDFORMAT_END
309
TABLEFORMAT_END
  1
CELLSTYLE_BEGIN
 90
        2
 91
        1
300
_HEADER
309
CELLSTYLE_END
300
CELLSTYLE
  1
TABLEFORMAT_BEGIN
 90
        5
170
     1
 91
        0
 92
        0
 62
   257
 93
        1
300
CONTENTFORMAT
  1
CONTENTFORMAT_BEGIN
 90
        0
 91
        0
 92
        4
 93
        0
300

 40
0.0
140
1.0
 94
        2
 62
     0
340
11
144
4.5
309
CONTENTFORMAT_END
171
     1
301
MARGIN
  1
CELLMARGIN_BEGIN
 40
1.5
 40
1.5
 40
1.5
 40
1.5
 40
0.18
 40
0.18
309
CELLMARGIN_END
 94
        6
 95
        1
302
GRIDFORMAT
  1
GRIDFORMAT_BEGIN
 90
        0
 91
        1
 62
     0
 92
       -2
340
14
 93
        0
 40
0.045
309
GRIDFORMAT_END
 95
        2
302
GRIDFORMAT
  1
GRIDFORMAT_BEGIN
 90
        0
 91
        1
 62
     0
 92
       -2
340
14
 93
        0
 40
0.045
309
GRIDFORMAT_END
 95
        4
302
GRIDFORMAT
  1
GRIDFORMAT_BEGIN
 90
        0
 91
        1
 62
     0
 92
       -2
340
14
 93
        0
 40
0.045
309
GRIDFORMAT_END
 95
        8
302
GRIDFORMAT
  1
GRIDFORMAT_BEGIN
 90
        0
 91
        1
 62
     0
 92
       -2
340
14
 93
        0
 40
0.045
309
GRIDFORMAT_END
 95
       16
302
GRIDFORMAT
  1
GRIDFORMAT_BEGIN
 90
        0
 91
        1
 62
     0
 92
       -2
340
14
 93
        0
 40
0.045
309
GRIDFORMAT_END
 95
       32
302
GRIDFORMAT
  1
GRIDFORMAT_BEGIN
 90
        0
 91
        1
 62
     0
 92
       -2
340
14
 93
        0
 40
0.045
309
GRIDFORMAT_END
309
TABLEFORMAT_END
  1
CELLSTYLE_BEGIN
 90
        3
 91
        2
300
_DATA
309
CELLSTYLE_END
  0
ENDSEC
  0
EOF
