  0
SECTION
  2
HEADER
  9
$ACADVER
  1
AC1027
  9
$ACADMAINTVER
 70
   125
  9
$DWGCODEPAGE
  3
ANSI_1252
  9
$LASTSAVEDBY
  1
kaschu
  9
$REQUIREDVERSIONS
160
                 0
  9
$INSBASE
 10
0.0
 20
0.0
 30
0.0
  9
$EXTMIN
 10
42.09042090848106
 20
-22.20789666034734
 30
0.0
  9
$EXTMAX
 10
2901.045998279683
 20
1399.150075611528
 30
0.0
  9
$LIMMIN
 10
-0.5
 20
-0.5
  9
$LIMMAX
 10
5.0
 20
5.0
  9
$ORTHOMODE
 70
     0
  9
$REGENMODE
 70
     1
  9
$FILLMODE
 70
     1
  9
$QTEXTMODE
 70
     0
  9
$MIRRTEXT
 70
     1
  9
$LTSCALE
 40
1.0
  9
$ATTMODE
 70
     1
  9
$TEXTSIZE
 40
0.2
  9
$TRACEWID
 40
0.05
  9
$TEXTSTYLE
  7
Standard
  9
$CLAYER
  8
0
  9
$CELTYPE
  6
ByLayer
  9
$CECOLOR
 62
   256
  9
$CELTSCALE
 40
1.0
  9
$DISPSILH
 70
     0
  9
$DIMSCALE
 40
1.0
  9
$DIMASZ
 40
0.18
  9
$DIMEXO
 40
0.0625
  9
$DIMDLI
 40
0.38
  9
$DIMRND
 40
0.0
  9
$DIMDLE
 40
0.0
  9
$DIMEXE
 40
0.18
  9
$DIMTP
 40
0.0
  9
$DIMTM
 40
0.0
  9
$DIMTXT
 40
0.18
  9
$DIMCEN
 40
0.09
  9
$DIMTSZ
 40
0.0
  9
$DIMTOL
 70
     0
  9
$DIMLIM
 70
     0
  9
$DIMTIH
 70
     1
  9
$DIMTOH
 70
     1
  9
$DIMSE1
 70
     0
  9
$DIMSE2
 70
     0
  9
$DIMTAD
 70
     0
  9
$DIMZIN
 70
     0
  9
$DIMBLK
  1

  9
$DIMASO
 70
     1
  9
$DIMSHO
 70
     1
  9
$DIMPOST
  1

  9
$DIMAPOST
  1

  9
$DIMALT
 70
     0
  9
$DIMALTD
 70
     2
  9
$DIMALTF
 40
25.4
  9
$DIMLFAC
 40
1.0
  9
$DIMTOFL
 70
     0
  9
$DIMTVP
 40
0.0
  9
$DIMTIX
 70
     0
  9
$DIMSOXD
 70
     0
  9
$DIMSAH
 70
     0
  9
$DIMBLK1
  1

  9
$DIMBLK2
  1

  9
$DIMSTYLE
  2
Standard
  9
$DIMCLRD
 70
     0
  9
$DIMCLRE
 70
     0
  9
$DIMCLRT
 70
     0
  9
$DIMTFAC
 40
1.0
  9
$DIMGAP
 40
0.09
  9
$DIMJUST
 70
     0
  9
$DIMSD1
 70
     0
  9
$DIMSD2
 70
     0
  9
$DIMTOLJ
 70
     1
  9
$DIMTZIN
 70
     0
  9
$DIMALTZ
 70
     0
  9
$DIMALTTZ
 70
     0
  9
$DIMUPT
 70
     0
  9
$DIMDEC
 70
     4
  9
$DIMTDEC
 70
     4
  9
$DIMALTU
 70
     2
  9
$DIMALTTD
 70
     2
  9
$DIMTXSTY
  7
Standard
  9
$DIMAUNIT
 70
     0
  9
$DIMADEC
 70
     0
  9
$DIMALTRND
 40
0.0
  9
$DIMAZIN
 70
     0
  9
$DIMDSEP
 70
    46
  9
$DIMATFIT
 70
     3
  9
$DIMFRAC
 70
     0
  9
$DIMLDRBLK
  1

  9
$DIMLUNIT
 70
     2
  9
$DIMLWD
 70
    -2
  9
$DIMLWE
 70
    -2
  9
$DIMTMOVE
 70
     0
  9
$DIMFXL
 40
1.0
  9
$DIMFXLON
 70
     0
  9
$DIMJOGANG
 40
0.7853981633974483
  9
$DIMTFILL
 70
     0
  9
$DIMTFILLCLR
 70
     0
  9
$DIMARCSYM
 70
     0
  9
$DIMLTYPE
  6

  9
$DIMLTEX1
  6

  9
$DIMLTEX2
  6

  9
$DIMTXTDIRECTION
 70
     0
  9
$LUNITS
 70
     2
  9
$LUPREC
 70
     4
  9
$SKETCHINC
 40
0.1
  9
$FILLETRAD
 40
0.5
  9
$AUNITS
 70
     0
  9
$AUPREC
 70
     0
  9
$MENU
  1
.
  9
$ELEVATION
 40
0.0
  9
$PELEVATION
 40
0.0
  9
$THICKNESS
 40
0.0
  9
$LIMCHECK
 70
     0
  9
$CHAMFERA
 40
0.5
  9
$CHAMFERB
 40
0.5
  9
$CHAMFERC
 40
1.0
  9
$CHAMFERD
 40
0.0
  9
$SKPOLY
 70
     0
  9
$TDCREATE
 40
2454358.331145833
  9
$TDUCREATE
 40
2454358.247814502
  9
$TDUPDATE
 40
2459353.565034723
  9
$TDUUPDATE
 40
2459353.481701389
  9
$TDINDWG
 40
0.0434135995
  9
$TDUSRTIMER
 40
0.0434125116
  9
$USRTIMER
 70
     1
  9
$ANGBASE
 50
0.0
  9
$ANGDIR
 70
     0
  9
$PDMODE
 70
     0
  9
$PDSIZE
 40
0.0
  9
$PLINEWID
 40
0.0
  9
$SPLFRAME
 70
     0
  9
$SPLINETYPE
 70
     6
  9
$SPLINESEGS
 70
     8
  9
$HANDSEED
  5
1766
  9
$SURFTAB1
 70
     6
  9
$SURFTAB2
 70
     6
  9
$SURFTYPE
 70
     6
  9
$SURFU
 70
     6
  9
$SURFV
 70
     6
  9
$UCSBASE
  2

  9
$UCSNAME
  2

  9
$UCSORG
 10
0.0
 20
0.0
 30
0.0
  9
$UCSXDIR
 10
1.0
 20
0.0
 30
0.0
  9
$UCSYDIR
 10
0.0
 20
1.0
 30
0.0
  9
$UCSORTHOREF
  2

  9
$UCSORTHOVIEW
 70
     0
  9
$UCSORGTOP
 10
0.0
 20
0.0
 30
0.0
  9
$UCSORGBOTTOM
 10
0.0
 20
0.0
 30
0.0
  9
$UCSORGLEFT
 10
0.0
 20
0.0
 30
0.0
  9
$UCSORGRIGHT
 10
0.0
 20
0.0
 30
0.0
  9
$UCSORGFRONT
 10
0.0
 20
0.0
 30
0.0
  9
$UCSORGBACK
 10
0.0
 20
0.0
 30
0.0
  9
$PUCSBASE
  2

  9
$PUCSNAME
  2

  9
$PUCSORG
 10
0.0
 20
0.0
 30
0.0
  9
$PUCSXDIR
 10
1.0
 20
0.0
 30
0.0
  9
$PUCSYDIR
 10
0.0
 20
1.0
 30
0.0
  9
$PUCSORTHOREF
  2

  9
$PUCSORTHOVIEW
 70
     0
  9
$PUCSORGTOP
 10
0.0
 20
0.0
 30
0.0
  9
$PUCSORGBOTTOM
 10
0.0
 20
0.0
 30
0.0
  9
$PUCSORGLEFT
 10
0.0
 20
0.0
 30
0.0
  9
$PUCSORGRIGHT
 10
0.0
 20
0.0
 30
0.0
  9
$PUCSORGFRONT
 10
0.0
 20
0.0
 30
0.0
  9
$PUCSORGBACK
 10
0.0
 20
0.0
 30
0.0
  9
$USERI1
 70
     0
  9
$USERI2
 70
     0
  9
$USERI3
 70
     0
  9
$USERI4
 70
     0
  9
$USERI5
 70
     0
  9
$USERR1
 40
0.0
  9
$USERR2
 40
0.0
  9
$USERR3
 40
0.0
  9
$USERR4
 40
0.0
  9
$USERR5
 40
0.0
  9
$WORLDVIEW
 70
     1
  9
$SHADEDGE
 70
     3
  9
$SHADEDIF
 70
    70
  9
$TILEMODE
 70
     1
  9
$MAXACTVP
 70
    64
  9
$PINSBASE
 10
0.0
 20
0.0
 30
0.0
  9
$PLIMCHECK
 70
     0
  9
$PEXTMIN
 10
-0.5
 20
-0.5
 30
-0.5
  9
$PEXTMAX
 10
5.0
 20
5.0
 30
5.0
  9
$PLIMMIN
 10
-0.5
 20
-0.5
  9
$PLIMMAX
 10
5.0
 20
5.0
  9
$UNITMODE
 70
     0
  9
$VISRETAIN
 70
     1
  9
$PLINEGEN
 70
     0
  9
$PSLTSCALE
 70
     1
  9
$TREEDEPTH
 70
  3020
  9
$CMLSTYLE
  2
Standard
  9
$CMLJUST
 70
     0
  9
$CMLSCALE
 40
1.0
  9
$PROXYGRAPHICS
 70
     1
  9
$MEASUREMENT
 70
     1
  9
$CELWEIGHT
370
    -1
  9
$ENDCAPS
280
     0
  9
$JOINSTYLE
280
     0
  9
$LWDISPLAY
290
     0
  9
$INSUNITS
 70
     1
  9
$HYPERLINKBASE
  1

  9
$STYLESHEET
  1

  9
$XEDIT
290
     1
  9
$CEPSNTYPE
380
     0
  9
$PSTYLEMODE
290
     1
  9
$FINGERPRINTGUID
  2
{72345E11-71F7-0D0E-5B7C-1D5C09D26A6C}
  9
$VERSIONGUID
  2
{0B6E7782-8D72-334C-868B-9DF969F2BB18}
  9
$EXTNAMES
290
     1
  9
$PSVPSCALE
 40
0.0
  9
$OLESTARTUP
290
     0
  9
$SORTENTS
280
   127
  9
$INDEXCTL
280
     0
  9
$HIDETEXT
280
     0
  9
$XCLIPFRAME
280
     2
  9
$HALOGAP
280
     0
  9
$OBSCOLOR
 70
   257
  9
$OBSLTYPE
280
     0
  9
$INTERSECTIONDISPLAY
280
     0
  9
$INTERSECTIONCOLOR
 70
   257
  9
$DIMASSOC
280
     1
  9
$PROJECTNAME
  1

  9
$CAMERADISPLAY
290
     0
  9
$LENSLENGTH
 40
50.0
  9
$CAMERAHEIGHT
 40
0.0
  9
$STEPSPERSEC
 40
2.0
  9
$STEPSIZE
 40
6.0
  9
$3DDWFPREC
 40
2.0
  9
$PSOLWIDTH
 40
0.25
  9
$PSOLHEIGHT
 40
4.0
  9
$LOFTANG1
 40
1.570796326794896
  9
$LOFTANG2
 40
1.570796326794896
  9
$LOFTMAG1
 40
0.0
  9
$LOFTMAG2
 40
0.0
  9
$LOFTPARAM
 70
     7
  9
$LOFTNORMALS
280
     1
  9
$LATITUDE
 40
37.795
  9
$LONGITUDE
 40
-122.394
  9
$NORTHDIRECTION
 40
0.0
  9
$TIMEZONE
 70
 -8000
  9
$LIGHTGLYPHDISPLAY
280
     1
  9
$TILEMODELIGHTSYNCH
280
     1
  9
$CMATERIAL
347
13D
  9
$SOLIDHIST
280
     0
  9
$SHOWHIST
280
     1
  9
$DWFFRAME
280
     2
  9
$DGNFRAME
280
     0
  9
$REALWORLDSCALE
290
     1
  9
$INTERFERECOLOR
 62
     1
  9
$INTERFEREOBJVS
345
14A
  9
$INTERFEREVPVS
346
1E8
  9
$CSHADOW
280
     0
  9
$SHADOWPLANELOCATION
 40
0.0
  0
ENDSEC
  0
SECTION
  2
CLASSES
  0
CLASS
  1
ACDBDICTIONARYWDFLT
  2
AcDbDictionaryWithDefault
  3
ObjectDBX Classes
 90
        0
 91
        1
280
     0
281
     0
  0
CLASS
  1
MATERIAL
  2
AcDbMaterial
  3
ObjectDBX Classes
 90
     1153
 91
        3
280
     0
281
     0
  0
CLASS
  1
VISUALSTYLE
  2
AcDbVisualStyle
  3
ObjectDBX Classes
 90
     4095
 91
       26
280
     0
281
     0
  0
CLASS
  1
TABLESTYLE
  2
AcDbTableStyle
  3
ObjectDBX Classes
 90
     4095
 91
        1
280
     0
281
     0
  0
CLASS
  1
DICTIONARYVAR
  2
AcDbDictionaryVar
  3
ObjectDBX Classes
 90
        0
 91
       12
280
     0
281
     0
  0
CLASS
  1
SCALE
  2
AcDbScale
  3
ObjectDBX Classes
 90
     1153
 91
       17
280
     0
281
     0
  0
CLASS
  1
MLEADERSTYLE
  2
AcDbMLeaderStyle
  3
ACDB_MLEADERSTYLE_CLASS
 90
     4095
 91
        1
280
     0
281
     0
  0
CLASS
  1
ACDBSECTIONVIEWSTYLE
  2
AcDbSectionViewStyle
  3
ObjectDBX Classes
 90
     1025
 91
        1
280
     0
281
     0
  0
CLASS
  1
ACDBDETAILVIEWSTYLE
  2
AcDbDetailViewStyle
  3
ObjectDBX Classes
 90
     1025
 91
        1
280
     0
281
     0
  0
CLASS
  1
SORTENTSTABLE
  2
AcDbSortentsTable
  3
ObjectDBX Classes
 90
        0
 91
        1
280
     0
281
     0
  0
CLASS
  1
CELLSTYLEMAP
  2
AcDbCellStyleMap
  3
ObjectDBX Classes
 90
     1152
 91
        5
280
     0
281
     0
  0
ENDSEC
  0
SECTION
  2
TABLES
  0
TABLE
  2
VPORT
  5
8
330
0
100
AcDbSymbolTable
 70
    17
1001
ACAD
1000
DbSaveVer
1071
      224
  0
VPORT
  5
29
330
8
100
AcDbSymbolTableRecord
100
AcDbViewportTableRecord
  2
DUMMY
 70
     0
 10
0.0
 20
0.0
 11
1.0
 21
1.0
 12
10.429907
 22
4.5
 13
0.0
 23
0.0
 14
0.5
 24
0.5
 15
0.5
 25
0.5
 16
0.0
 26
0.0
 36
1.0
 17
0.0
 27
0.0
 37
0.0
 40
9.0
 41
1.972972999999999
 42
50.0
 43
0.0
 44
0.0
 50
0.0
 51
0.0
 71
     0
 72
   100
 73
     1
 74
     3
 75
     0
 76
     0
 77
     0
 78
     0
281
     0
 65
     1
110
0.0
120
0.0
130
0.0
111
1.0
121
0.0
131
0.0
112
0.0
122
1.0
132
0.0
 79
     0
146
0.0
348
146
 60
     3
 61
     5
292
     1
282
     1
141
0.0
142
0.0
 63
   250
421
  3355443
  0
VPORT
  5
12A
330
8
100
AcDbSymbolTableRecord
100
AcDbViewportTableRecord
  2
*ACTIVE
 70
     0
 10
0.0
 20
0.0
 11
1.0
 21
1.0
 12
1438.186370832557
 22
894.2814372289531
 13
0.0
 23
0.0
 14
0.5
 24
0.5
 15
0.5
 25
0.5
 16
0.0
 26
0.0
 36
1.0
 17
0.0
 27
0.0
 37
0.0
 40
2148.733150331841
 41
2.340125391849529
 42
50.0
 43
1495.008748
 44
-1495.008748
 50
0.0
 51
0.0
 71
     0
 72
   100
 73
     1
 74
     3
 75
     0
 76
     0
 77
     0
 78
     0
281
     0
 65
     1
110
0.0
120
0.0
130
0.0
111
1.0
121
0.0
131
0.0
112
0.0
122
1.0
132
0.0
 79
     0
146
0.0
348
146
 60
     3
 61
     5
292
     1
282
     1
141
0.0
142
0.0
 63
   250
421
  3355443
1001
ACAD_NAV_VCDISPLAY
1070
     3
  0
VPORT
  5
12B
330
8
100
AcDbSymbolTableRecord
100
AcDbViewportTableRecord
  2
L1
 70
     0
 10
0.0
 20
0.0
 11
1.0
 21
1.0
 12
367.629064
 22
386.32268
 13
0.0
 23
0.0
 14
0.5
 24
0.5
 15
0.5
 25
0.5
 16
0.0
 26
0.0
 36
1.0
 17
0.0
 27
0.0
 37
0.0
 40
254.0
 41
0.069908
 42
50.0
 43
1495.008748
 44
-1495.008748
 50
0.0
 51
0.0
 71
     0
 72
   100
 73
     1
 74
     3
 75
     0
 76
     0
 77
     0
 78
     0
281
     0
 65
     1
110
0.0
120
0.0
130
0.0
111
1.0
121
0.0
131
0.0
112
0.0
122
1.0
132
0.0
 79
     0
146
0.0
348
146
 60
     3
 61
     5
292
     1
282
     1
141
0.0
142
0.0
 63
   250
421
  3355443
  0
VPORT
  5
12C
330
8
100
AcDbSymbolTableRecord
100
AcDbViewportTableRecord
  2
L2
 70
     0
 10
0.0
 20
0.0
 11
0.5
 21
1.0
 12
0.0
 22
0.0
 13
0.0
 23
0.0
 14
0.5
 24
0.5
 15
0.5
 25
0.5
 16
0.0
 26
-1.0
 36
0.0
 17
0.0
 27
0.0
 37
0.0
 40
1319.822715
 41
0.013454
 42
50.0
 43
672.020833
 44
-672.020833
 50
0.0
 51
0.0
 71
     0
 72
   100
 73
     1
 74
     3
 75
     0
 76
     0
 77
     0
 78
     0
281
     0
 65
     1
110
0.0
120
0.0
130
0.0
111
1.0
121
0.0
131
0.0
112
0.0
122
1.0
132
0.0
 79
     0
146
0.0
348
146
 60
     3
 61
     5
292
     1
282
     1
141
0.0
142
0.0
 63
   250
421
  3355443
  0
VPORT
  5
12D
330
8
100
AcDbSymbolTableRecord
100
AcDbViewportTableRecord
  2
L2
 70
     0
 10
0.5
 20
0.0
 11
1.0
 21
1.0
 12
0.0
 22
0.0
 13
0.0
 23
0.0
 14
0.5
 24
0.5
 15
0.5
 25
0.5
 16
1.0
 26
0.0
 36
0.0
 17
0.0
 27
0.0
 37
0.0
 40
1319.822715
 41
0.013454
 42
50.0
 43
672.020833
 44
-672.020833
 50
0.0
 51
0.0
 71
     0
 72
   100
 73
     1
 74
     3
 75
     0
 76
     0
 77
     0
 78
     0
281
     0
 65
     1
110
0.0
120
0.0
130
0.0
111
1.0
121
0.0
131
0.0
112
0.0
122
1.0
132
0.0
 79
     0
146
0.0
348
146
 60
     3
 61
     5
292
     1
282
     1
141
0.0
142
0.0
 63
   250
421
  3355443
  0
VPORT
  5
12E
330
8
100
AcDbSymbolTableRecord
100
AcDbViewportTableRecord
  2
L3
 70
     0
 10
0.0
 20
0.5
 11
1.0
 21
1.0
 12
367.629064
 22
386.32268
 13
0.0
 23
0.0
 14
0.5
 24
0.5
 15
0.5
 25
0.5
 16
0.0
 26
0.0
 36
1.0
 17
0.0
 27
0.0
 37
0.0
 40
254.0
 41
0.069908
 42
50.0
 43
1495.008748
 44
-1495.008748
 50
0.0
 51
0.0
 71
     0
 72
   100
 73
     1
 74
     3
 75
     0
 76
     0
 77
     0
 78
     0
281
     0
 65
     1
110
0.0
120
0.0
130
0.0
111
1.0
121
0.0
131
0.0
112
0.0
122
1.0
132
0.0
 79
     0
146
0.0
348
146
 60
     3
 61
     5
292
     1
282
     1
141
0.0
142
0.0
 63
   250
421
  3355443
  0
VPORT
  5
12F
330
8
100
AcDbSymbolTableRecord
100
AcDbViewportTableRecord
  2
L3
 70
     0
 10
0.0
 20
0.0
 11
1.0
 21
0.5
 12
0.0
 22
0.0
 13
0.0
 23
0.0
 14
0.5
 24
0.5
 15
0.5
 25
0.5
 16
0.0
 26
-1.0
 36
0.0
 17
0.0
 27
0.0
 37
0.0
 40
1319.822715
 41
0.013454
 42
50.0
 43
672.020833
 44
-672.020833
 50
0.0
 51
0.0
 71
     0
 72
   100
 73
     1
 74
     3
 75
     0
 76
     0
 77
     0
 78
     0
281
     0
 65
     1
110
0.0
120
0.0
130
0.0
111
1.0
121
0.0
131
0.0
112
0.0
122
1.0
132
0.0
 79
     0
146
0.0
348
146
 60
     3
 61
     5
292
     1
282
     1
141
0.0
142
0.0
 63
   250
421
  3355443
  0
VPORT
  5
130
330
8
100
AcDbSymbolTableRecord
100
AcDbViewportTableRecord
  2
L4
 70
     0
 10
0.0
 20
0.5
 11
0.5
 21
1.0
 12
367.629064
 22
386.32268
 13
0.0
 23
0.0
 14
0.5
 24
0.5
 15
0.5
 25
0.5
 16
0.0
 26
0.0
 36
1.0
 17
0.0
 27
0.0
 37
0.0
 40
254.0
 41
0.069908
 42
50.0
 43
1495.008748
 44
-1495.008748
 50
0.0
 51
0.0
 71
     0
 72
   100
 73
     1
 74
     3
 75
     0
 76
     0
 77
     0
 78
     0
281
     0
 65
     1
110
0.0
120
0.0
130
0.0
111
1.0
121
0.0
131
0.0
112
0.0
122
1.0
132
0.0
 79
     0
146
0.0
348
146
 60
     3
 61
     5
292
     1
282
     1
141
0.0
142
0.0
 63
   250
421
  3355443
  0
VPORT
  5
131
330
8
100
AcDbSymbolTableRecord
100
AcDbViewportTableRecord
  2
L4
 70
     0
 10
0.0
 20
0.0
 11
0.5
 21
0.5
 12
0.0
 22
0.0
 13
0.0
 23
0.0
 14
0.5
 24
0.5
 15
0.5
 25
0.5
 16
0.0
 26
-1.0
 36
0.0
 17
0.0
 27
0.0
 37
0.0
 40
1319.822715
 41
0.013454
 42
50.0
 43
672.020833
 44
-672.020833
 50
0.0
 51
0.0
 71
     0
 72
   100
 73
     1
 74
     3
 75
     0
 76
     0
 77
     0
 78
     0
281
     0
 65
     1
110
0.0
120
0.0
130
0.0
111
1.0
121
0.0
131
0.0
112
0.0
122
1.0
132
0.0
 79
     0
146
0.0
348
146
 60
     3
 61
     5
292
     1
282
     1
141
0.0
142
0.0
 63
   250
421
  3355443
  0
VPORT
  5
132
330
8
100
AcDbSymbolTableRecord
100
AcDbViewportTableRecord
  2
L4
 70
     0
 10
0.5
 20
0.0
 11
1.0
 21
0.5
 12
0.0
 22
0.0
 13
0.0
 23
0.0
 14
0.5
 24
0.5
 15
0.5
 25
0.5
 16
1.0
 26
0.0
 36
0.0
 17
0.0
 27
0.0
 37
0.0
 40
1319.822715
 41
0.013454
 42
50.0
 43
672.020833
 44
-672.020833
 50
0.0
 51
0.0
 71
     0
 72
   100
 73
     1
 74
     3
 75
     0
 76
     0
 77
     0
 78
     0
281
     0
 65
     1
110
0.0
120
0.0
130
0.0
111
1.0
121
0.0
131
0.0
112
0.0
122
1.0
132
0.0
 79
     0
146
0.0
348
146
 60
     3
 61
     5
292
     1
282
     1
141
0.0
142
0.0
 63
   250
421
  3355443
  0
VPORT
  5
133
330
8
100
AcDbSymbolTableRecord
100
AcDbViewportTableRecord
  2
L4
 70
     0
 10
0.5
 20
0.5
 11
1.0
 21
1.0
 12
0.0
 22
0.0
 13
0.0
 23
0.0
 14
0.5
 24
0.5
 15
0.5
 25
0.5
 16
0.577350269189626
 26
-0.577350269189626
 36
0.577350269189626
 17
0.0
 27
0.0
 37
0.0
 40
1285.020866
 41
0.013818
 42
50.0
 43
667.141407
 44
-667.141407
 50
0.0
 51
0.0
 71
     0
 72
   100
 73
     1
 74
     3
 75
     0
 76
     0
 77
     0
 78
     0
281
     0
 65
     1
110
0.0
120
0.0
130
0.0
111
1.0
121
0.0
131
0.0
112
0.0
122
1.0
132
0.0
 79
     0
146
0.0
348
146
 60
     3
 61
     5
292
     1
282
     1
141
0.0
142
0.0
 63
   250
421
  3355443
  0
VPORT
  5
134
330
8
100
AcDbSymbolTableRecord
100
AcDbViewportTableRecord
  2
L6
 70
     0
 10
0.0
 20
0.5
 11
0.333333
 21
1.0
 12
0.0
 22
0.0
 13
0.0
 23
0.0
 14
0.5
 24
0.5
 15
0.5
 25
0.5
 16
0.7188730927569436
 26
-0.5850486126764432
 36
0.3754192287502549
 17
0.0
 27
0.0
 37
0.0
 40
1357.434192
 41
0.013081
 42
50.0
 43
701.839477
 44
-701.839477
 50
0.0
 51
0.0
 71
     0
 72
   100
 73
     1
 74
     3
 75
     0
 76
     0
 77
     0
 78
     0
281
     0
 65
     1
110
0.0
120
0.0
130
0.0
111
1.0
121
0.0
131
0.0
112
0.0
122
1.0
132
0.0
 79
     0
146
0.0
348
146
 60
     3
 61
     5
292
     1
282
     1
141
0.0
142
0.0
 63
   250
421
  3355443
  0
VPORT
  5
135
330
8
100
AcDbSymbolTableRecord
100
AcDbViewportTableRecord
  2
L6
 70
     0
 10
0.0
 20
0.0
 11
0.333333
 21
0.5
 12
0.0
 22
0.0
 13
0.0
 23
0.0
 14
0.5
 24
0.5
 15
0.5
 25
0.5
 16
-1.0
 26
0.0
 36
0.0
 17
0.0
 27
0.0
 37
0.0
 40
1319.822715
 41
0.013454
 42
50.0
 43
672.020833
 44
-672.020833
 50
0.0
 51
0.0
 71
     0
 72
   100
 73
     1
 74
     3
 75
     0
 76
     0
 77
     0
 78
     0
281
     0
 65
     1
110
0.0
120
0.0
130
0.0
111
1.0
121
0.0
131
0.0
112
0.0
122
1.0
132
0.0
 79
     0
146
0.0
348
146
 60
     3
 61
     5
292
     1
282
     1
141
0.0
142
0.0
 63
   250
421
  3355443
  0
VPORT
  5
136
330
8
100
AcDbSymbolTableRecord
100
AcDbViewportTableRecord
  2
L6
 70
     0
 10
0.333333
 20
0.5
 11
0.666667
 21
1.0
 12
367.629064
 22
386.32268
 13
0.0
 23
0.0
 14
0.5
 24
0.5
 15
0.5
 25
0.5
 16
0.0
 26
0.0
 36
1.0
 17
0.0
 27
0.0
 37
0.0
 40
254.0
 41
0.069908
 42
50.0
 43
1495.008748
 44
-1495.008748
 50
0.0
 51
0.0
 71
     0
 72
   100
 73
     1
 74
     3
 75
     0
 76
     0
 77
     0
 78
     0
281
     0
 65
     1
110
0.0
120
0.0
130
0.0
111
1.0
121
0.0
131
0.0
112
0.0
122
1.0
132
0.0
 79
     0
146
0.0
348
146
 60
     3
 61
     5
292
     1
282
     1
141
0.0
142
0.0
 63
   250
421
  3355443
  0
VPORT
  5
137
330
8
100
AcDbSymbolTableRecord
100
AcDbViewportTableRecord
  2
L6
 70
     0
 10
0.333333
 20
0.0
 11
0.666667
 21
0.5
 12
0.0
 22
0.0
 13
0.0
 23
0.0
 14
0.5
 24
0.5
 15
0.5
 25
0.5
 16
0.0
 26
-1.0
 36
0.0
 17
0.0
 27
0.0
 37
0.0
 40
1319.822715
 41
0.013454
 42
50.0
 43
672.020833
 44
-672.020833
 50
0.0
 51
0.0
 71
     0
 72
   100
 73
     1
 74
     3
 75
     0
 76
     0
 77
     0
 78
     0
281
     0
 65
     1
110
0.0
120
0.0
130
0.0
111
1.0
121
0.0
131
0.0
112
0.0
122
1.0
132
0.0
 79
     0
146
0.0
348
146
 60
     3
 61
     5
292
     1
282
     1
141
0.0
142
0.0
 63
   250
421
  3355443
  0
VPORT
  5
138
330
8
100
AcDbSymbolTableRecord
100
AcDbViewportTableRecord
  2
L6
 70
     0
 10
0.666667
 20
0.5
 11
1.0
 21
1.0
 12
0.0
 22
0.0
 13
0.0
 23
0.0
 14
0.5
 24
0.5
 15
0.5
 25
0.5
 16
0.577350269189626
 26
-0.577350269189626
 36
0.577350269189626
 17
0.0
 27
0.0
 37
0.0
 40
1285.020866
 41
0.013818
 42
50.0
 43
667.141407
 44
-667.141407
 50
0.0
 51
0.0
 71
     0
 72
   100
 73
     1
 74
     3
 75
     0
 76
     0
 77
     0
 78
     0
281
     0
 65
     1
110
0.0
120
0.0
130
0.0
111
1.0
121
0.0
131
0.0
112
0.0
122
1.0
132
0.0
 79
     0
146
0.0
348
146
 60
     3
 61
     5
292
     1
282
     1
141
0.0
142
0.0
 63
   250
421
  3355443
  0
VPORT
  5
139
330
8
100
AcDbSymbolTableRecord
100
AcDbViewportTableRecord
  2
L6
 70
     0
 10
0.666667
 20
0.0
 11
1.0
 21
0.5
 12
0.0
 22
0.0
 13
0.0
 23
0.0
 14
0.5
 24
0.5
 15
0.5
 25
0.5
 16
1.0
 26
0.0
 36
0.0
 17
0.0
 27
0.0
 37
0.0
 40
1319.822715
 41
0.013454
 42
50.0
 43
672.020833
 44
-672.020833
 50
0.0
 51
0.0
 71
     0
 72
   100
 73
     1
 74
     3
 75
     0
 76
     0
 77
     0
 78
     0
281
     0
 65
     1
110
0.0
120
0.0
130
0.0
111
1.0
121
0.0
131
0.0
112
0.0
122
1.0
132
0.0
 79
     0
146
0.0
348
146
 60
     3
 61
     5
292
     1
282
     1
141
0.0
142
0.0
 63
   250
421
  3355443
  0
ENDTAB
  0
TABLE
  2
LTYPE
  5
5
330
0
100
AcDbSymbolTable
 70
     2
  0
LTYPE
  5
14
330
5
100
AcDbSymbolTableRecord
100
AcDbLinetypeTableRecord
  2
ByBlock
 70
     0
  3

 72
    65
 73
     0
 40
0.0
  0
LTYPE
  5
15
330
5
100
AcDbSymbolTableRecord
100
AcDbLinetypeTableRecord
  2
ByLayer
 70
     0
  3

 72
    65
 73
     0
 40
0.0
  0
LTYPE
  5
16
330
5
100
AcDbSymbolTableRecord
100
AcDbLinetypeTableRecord
  2
Continuous
 70
     0
  3
Solid line
 72
    65
 73
     0
 40
0.0
  0
LTYPE
  5
90D
330
5
100
AcDbSymbolTableRecord
100
AcDbLinetypeTableRecord
  2
CUSTOM
 70
     0
  3

 72
    65
 73
     0
 40
0.0
  0
ENDTAB
  0
TABLE
  2
LAYER
  5
2
102
{ACAD_XDICTIONARY
360
19A
102
}
330
0
100
AcDbSymbolTable
 70
     4
  0
LAYER
  5
10
102
{ACAD_XDICTIONARY
360
20D
102
}
330
2
100
AcDbSymbolTableRecord
100
AcDbLayerTableRecord
  2
0
 70
     0
 62
     7
  6
Continuous
370
    -3
390
F
347
13F
348
0
  0
LAYER
  5
197
102
{ACAD_XDICTIONARY
360
211
102
}
330
2
100
AcDbSymbolTableRecord
100
AcDbLayerTableRecord
  2
HEWI
 70
     0
 62
     7
  6
Continuous
370
    -3
390
F
347
13F
348
0
1001
AcAecLayerStandard
1000

1000

  0
LAYER
  5
1A0
330
2
100
AcDbSymbolTableRecord
100
AcDbLayerTableRecord
  2
Defpoints
 70
     0
 62
     7
  6
Continuous
290
     0
370
    -3
390
F
347
13F
348
0
  0
LAYER
  5
90E
330
2
100
AcDbSymbolTableRecord
100
AcDbLayerTableRecord
  2
PDF_GEOMERTRY
 70
     0
 62
     7
  6
Continuous
370
    -3
390
F
347
13F
348
0
  0
ENDTAB
  0
TABLE
  2
STYLE
  5
3
330
0
100
AcDbSymbolTable
 70
     1
  0
STYLE
  5
11
330
3
100
AcDbSymbolTableRecord
100
AcDbTextStyleTableRecord
  2
Standard
 70
     0
 40
0.0
 41
1.0
 50
0.0
 71
     0
 42
0.2
  3
txt
  4

  0
ENDTAB
  0
TABLE
  2
VIEW
  5
6
330
0
100
AcDbSymbolTable
 70
     8
  0
VIEW
  5
122
330
6
100
AcDbSymbolTableRecord
100
AcDbViewTableRecord
  2
TOP
 70
     0
 40
254.0
 10
367.629064
 20
386.32268
 41
254.0
 11
0.0
 21
0.0
 31
1.0
 12
0.0
 22
0.0
 32
0.0
 42
50.0
 43
1495.008748
 44
-1495.008748
 50
0.0
 71
     0
281
     0
 72
     0
 73
     0
348
146
  0
VIEW
  5
123
330
6
100
AcDbSymbolTableRecord
100
AcDbViewTableRecord
  2
FRONT
 70
     0
 40
1319.822715
 10
0.0
 20
0.0
 41
254.0
 11
0.0
 21
-1.0
 31
0.0
 12
0.0
 22
0.0
 32
0.0
 42
50.0
 43
672.020833
 44
-672.020833
 50
0.0
 71
     0
281
     0
 72
     0
 73
     0
348
146
  0
VIEW
  5
124
330
6
100
AcDbSymbolTableRecord
100
AcDbViewTableRecord
  2
RIGHT
 70
     0
 40
1319.822715
 10
0.0
 20
0.0
 41
254.0
 11
1.0
 21
0.0
 31
0.0
 12
0.0
 22
0.0
 32
0.0
 42
50.0
 43
672.020833
 44
-672.020833
 50
0.0
 71
     0
281
     0
 72
     0
 73
     0
348
146
  0
VIEW
  5
125
330
6
100
AcDbSymbolTableRecord
100
AcDbViewTableRecord
  2
BACK
 70
     0
 40
1319.822715
 10
0.0
 20
0.0
 41
254.0
 11
0.0
 21
1.0
 31
0.0
 12
0.0
 22
0.0
 32
0.0
 42
50.0
 43
672.020833
 44
-672.020833
 50
0.0
 71
     0
281
     0
 72
     0
 73
     0
348
146
  0
VIEW
  5
126
330
6
100
AcDbSymbolTableRecord
100
AcDbViewTableRecord
  2
BOTTOM
 70
     0
 40
254.0
 10
0.0
 20
0.0
 41
254.0
 11
0.0
 21
0.0
 31
-1.0
 12
0.0
 22
0.0
 32
0.0
 42
50.0
 43
659.911358
 44
-659.911358
 50
180.0
 71
     0
281
     0
 72
     0
 73
     0
348
146
  0
VIEW
  5
127
330
6
100
AcDbSymbolTableRecord
100
AcDbViewTableRecord
  2
LEFT
 70
     0
 40
1319.822715
 10
0.0
 20
0.0
 41
254.0
 11
-1.0
 21
0.0
 31
0.0
 12
0.0
 22
0.0
 32
0.0
 42
50.0
 43
672.020833
 44
-672.020833
 50
0.0
 71
     0
281
     0
 72
     0
 73
     0
348
146
  0
VIEW
  5
128
330
6
100
AcDbSymbolTableRecord
100
AcDbViewTableRecord
  2
TFR-ISO
 70
     0
 40
1285.020866
 10
0.0
 20
0.0
 41
359.210245
 11
0.577350269189626
 21
-0.577350269189626
 31
0.577350269189626
 12
0.0
 22
0.0
 32
0.0
 42
50.0
 43
667.141407
 44
-667.141407
 50
0.0
 71
     0
281
     0
 72
     0
 73
     0
348
146
  0
VIEW
  5
129
330
6
100
AcDbSymbolTableRecord
100
AcDbViewTableRecord
  2
TFR-TRI
 70
     0
 40
1357.434192
 10
0.0
 20
0.0
 41
357.33321
 11
0.7188730927569436
 21
-0.5850486126764432
 31
0.3754192287502549
 12
0.0
 22
0.0
 32
0.0
 42
50.0
 43
701.839477
 44
-701.839477
 50
0.0
 71
     0
281
     0
 72
     0
 73
     0
348
146
  0
ENDTAB
  0
TABLE
  2
UCS
  5
7
330
0
100
AcDbSymbolTable
 70
     0
  0
ENDTAB
  0
TABLE
  2
APPID
  5
9
330
0
100
AcDbSymbolTable
 70
     5
  0
APPID
  5
12
330
9
100
AcDbSymbolTableRecord
100
AcDbRegAppTableRecord
  2
ACAD
 70
     0
  0
APPID
  5
198
330
9
100
AcDbSymbolTableRecord
100
AcDbRegAppTableRecord
  2
AcAecLayerStandard
 70
     0
  0
APPID
  5
215
330
9
100
AcDbSymbolTableRecord
100
AcDbRegAppTableRecord
  2
ACAD_NAV_VCDISPLAY
 70
     0
  0
APPID
  5
21E
330
9
100
AcDbSymbolTableRecord
100
AcDbRegAppTableRecord
  2
ACAD_EXEMPT_FROM_CAD_STANDARDS
 70
     0
  0
APPID
  5
2A7
330
9
100
AcDbSymbolTableRecord
100
AcDbRegAppTableRecord
  2
ACAD_DSTYLE_DIMRADIAL_EXTENSION
 70
     0
  0
ENDTAB
  0
TABLE
  2
DIMSTYLE
  5
A
330
0
100
AcDbSymbolTable
 70
     2
100
AcDbDimStyleTable
 71
     1
340
27
  0
DIMSTYLE
105
27
330
A
100
AcDbSymbolTableRecord
100
AcDbDimStyleTableRecord
  2
Standard
 70
     0
340
11
  0
DIMSTYLE
105
90F
330
A
100
AcDbSymbolTableRecord
100
AcDbDimStyleTableRecord
  2
ISO-25
 70
     0
 41
2.5
 42
0.625
 43
3.75
 44
1.25
 73
     0
 74
     0
 77
     1
 78
     8
140
2.5
141
2.5
143
0.03937007874016
147
0.625
171
     3
172
     1
271
     2
272
     2
274
     3
278
    44
283
     0
284
     8
340
11
  0
ENDTAB
  0
TABLE
  2
BLOCK_RECORD
  5
1
330
0
100
AcDbSymbolTable
 70
     7
  0
BLOCK_RECORD
  5
1F
102
{ACAD_XDICTIONARY
360
25E
102
}
330
1
100
AcDbSymbolTableRecord
100
AcDbBlockTableRecord
  2
*Model_Space
340
22
 70
     0
280
     1
281
     0
  0
BLOCK_RECORD
  5
1B
330
1
100
AcDbSymbolTableRecord
100
AcDbBlockTableRecord
  2
*Paper_Space
340
1E
 70
     0
280
     1
281
     0
  0
BLOCK_RECORD
  5
23
330
1
100
AcDbSymbolTableRecord
100
AcDbBlockTableRecord
  2
*Paper_Space0
340
26
 70
     0
280
     1
281
     0
  0
BLOCK_RECORD
  5
1729
330
1
100
AcDbSymbolTableRecord
100
AcDbBlockTableRecord
  2
*D3
340
0
 70
     0
280
     1
281
     0
  0
BLOCK_RECORD
  5
1737
330
1
100
AcDbSymbolTableRecord
100
AcDbBlockTableRecord
  2
*D4
340
0
 70
     0
280
     1
281
     0
  0
BLOCK_RECORD
  5
1745
330
1
100
AcDbSymbolTableRecord
100
AcDbBlockTableRecord
  2
*D5
340
0
 70
     0
280
     1
281
     0
  0
BLOCK_RECORD
  5
1753
330
1
100
AcDbSymbolTableRecord
100
AcDbBlockTableRecord
  2
*D6
340
0
 70
     0
280
     1
281
     0
  0
ENDTAB
  0
ENDSEC
  0
SECTION
  2
BLOCKS
  0
BLOCK
  5
20
330
1F
100
AcDbEntity
  8
0
100
AcDbBlockBegin
  2
*Model_Space
 70
     0
 10
0.0
 20
0.0
 30
0.0
  3
*Model_Space
  1

  0
ENDBLK
  5
21
330
1F
100
AcDbEntity
  8
0
100
AcDbBlockEnd
  0
BLOCK
  5
1C
330
1B
100
AcDbEntity
 67
     1
  8
0
100
AcDbBlockBegin
  2
*Paper_Space
 70
     0
 10
0.0
 20
0.0
 30
0.0
  3
*Paper_Space
  1

  0
ENDBLK
  5
1D
330
1B
100
AcDbEntity
 67
     1
  8
0
100
AcDbBlockEnd
  0
BLOCK
  5
24
330
23
100
AcDbEntity
 67
     1
  8
0
100
AcDbBlockBegin
  2
*Paper_Space0
 70
     0
 10
0.0
 20
0.0
 30
0.0
  3
*Paper_Space0
  1

  0
ENDBLK
  5
25
330
23
100
AcDbEntity
 67
     1
  8
0
100
AcDbBlockEnd
  0
BLOCK
  5
172A
330
1729
100
AcDbEntity
  8
0
100
AcDbBlockBegin
  2
*D3
 70
     1
 10
0.0
 20
0.0
 30
0.0
  3
*D3
  1

  0
LINE
  5
172C
330
1729
100
AcDbEntity
  8
0
 62
     0
440
 16777216
370
    -2
100
AcDbLine
 10
289.4402222543837
 20
474.51880845067
 30
0.0
 11
193.6749020550568
 21
474.51880845067
 31
0.0
  0
LINE
  5
172D
330
1729
100
AcDbEntity
  8
0
 62
     0
440
 16777216
370
    -2
100
AcDbLine
 10
289.0403758529493
 20
280.2243896722477
 30
0.0
 11
193.6749020550568
 21
280.2243896722477
 31
0.0
  0
LINE
  5
172E
330
1729
100
AcDbEntity
  8
0
 62
     0
440
 16777216
370
    -2
100
AcDbLine
 10
193.8549020550568
 20
474.3388084506701
 30
0.0
 11
193.8549020550568
 21
377.5515990614589
 31
0.0
  0
LINE
  5
172F
330
1729
100
AcDbEntity
  8
0
 62
     0
440
 16777216
370
    -2
100
AcDbLine
 10
193.8549020550568
 20
280.4043896722478
 30
0.0
 11
193.8549020550568
 21
377.1915990614589
 31
0.0
  0
SOLID
  5
1730
330
1729
100
AcDbEntity
  8
0
 62
     0
440
 16777216
100
AcDbTrace
 10
193.8249020550568
 20
474.3388084506701
 30
0.0
 11
193.8849020550568
 21
474.3388084506701
 31
0.0
 12
193.8549020550568
 22
474.51880845067
 32
0.0
 13
193.8549020550568
 23
474.51880845067
 33
0.0
  0
SOLID
  5
1731
330
1729
100
AcDbEntity
  8
0
 62
     0
440
 16777216
100
AcDbTrace
 10
193.8249020550568
 20
280.4043896722478
 30
0.0
 11
193.8849020550568
 21
280.4043896722478
 31
0.0
 12
193.8549020550568
 22
280.2243896722477
 32
0.0
 13
193.8549020550568
 23
280.2243896722477
 33
0.0
  0
MTEXT
  5
1732
330
1729
100
AcDbEntity
  8
0
 62
     0
440
 16777216
100
AcDbMText
 10
193.8549020550569
 20
377.3715990614588
 30
0.0
 40
0.18
 41
0.0
 46
0.0
 71
     5
 72
     1
  1
\A1;194.2944
 73
     1
 44
1.0
  0
POINT
  5
1733
330
1729
100
AcDbEntity
  8
Defpoints
 62
     0
440
 16777216
100
AcDbPoint
 10
289.5027222543837
 20
474.51880845067
 30
0.0
  0
POINT
  5
1734
330
1729
100
AcDbEntity
  8
Defpoints
 62
     0
440
 16777216
100
AcDbPoint
 10
289.1028758529493
 20
280.2243896722477
 30
0.0
  0
POINT
  5
1735
330
1729
100
AcDbEntity
  8
Defpoints
 62
     0
440
 16777216
100
AcDbPoint
 10
193.8549020550568
 20
280.2243896722477
 30
0.0
  0
ENDBLK
  5
172B
330
1729
100
AcDbEntity
  8
0
100
AcDbBlockEnd
  0
BLOCK
  5
1738
330
1737
100
AcDbEntity
  8
0
100
AcDbBlockBegin
  2
*D4
 70
     1
 10
0.0
 20
0.0
 30
0.0
  3
*D4
  1

  0
LINE
  5
173A
330
1737
100
AcDbEntity
  8
0
 62
     0
440
 16777216
370
    -2
100
AcDbLine
 10
62.93232182125487
 20
474.7685240386454
 30
0.0
 11
-18.39271971682068
 21
474.7685240386454
 31
0.0
  0
LINE
  5
173B
330
1737
100
AcDbEntity
  8
0
 62
     0
440
 16777216
370
    -2
100
AcDbLine
 10
49.42166059850094
 20
279.5251429622248
 30
0.0
 11
-18.39271971682063
 21
279.5251429622248
 31
0.0
  0
LINE
  5
173C
330
1737
100
AcDbEntity
  8
0
 62
     0
440
 16777216
370
    -2
100
AcDbLine
 10
-18.21271971682067
 20
474.5885240386454
 30
0.0
 11
-18.21271971682065
 21
377.3268335004351
 31
0.0
  0
LINE
  5
173D
330
1737
100
AcDbEntity
  8
0
 62
     0
440
 16777216
370
    -2
100
AcDbLine
 10
-18.21271971682062
 20
279.7051429622248
 30
0.0
 11
-18.21271971682065
 21
376.9668335004351
 31
0.0
  0
SOLID
  5
173E
330
1737
100
AcDbEntity
  8
0
 62
     0
440
 16777216
100
AcDbTrace
 10
-18.24271971682067
 20
474.5885240386454
 30
0.0
 11
-18.18271971682067
 21
474.5885240386454
 31
0.0
 12
-18.21271971682067
 22
474.7685240386454
 32
0.0
 13
-18.21271971682067
 23
474.7685240386454
 33
0.0
  0
SOLID
  5
173F
330
1737
100
AcDbEntity
  8
0
 62
     0
440
 16777216
100
AcDbTrace
 10
-18.24271971682063
 20
279.7051429622248
 30
0.0
 11
-18.18271971682062
 21
279.7051429622248
 31
0.0
 12
-18.21271971682062
 22
279.5251429622248
 32
0.0
 13
-18.21271971682062
 23
279.5251429622248
 33
0.0
  0
MTEXT
  5
1740
330
1737
100
AcDbEntity
  8
0
 62
     0
440
 16777216
100
AcDbMText
 10
-18.21271971682054
 20
377.146833500435
 30
0.0
 40
0.18
 41
0.0
 46
0.0
 71
     5
 72
     1
  1
\A1;195.2434
 73
     1
 44
1.0
  0
POINT
  5
1741
330
1737
100
AcDbEntity
  8
Defpoints
 62
     0
440
 16777216
100
AcDbPoint
 10
62.99482182125487
 20
474.7685240386454
 30
0.0
  0
POINT
  5
1742
330
1737
100
AcDbEntity
  8
Defpoints
 62
     0
440
 16777216
100
AcDbPoint
 10
49.48416059850095
 20
279.5251429622248
 30
0.0
  0
POINT
  5
1743
330
1737
100
AcDbEntity
  8
Defpoints
 62
     0
440
 16777216
100
AcDbPoint
 10
-18.21271971682062
 20
279.5251429622248
 30
0.0
  0
ENDBLK
  5
1739
330
1737
100
AcDbEntity
  8
0
100
AcDbBlockEnd
  0
BLOCK
  5
1746
330
1745
100
AcDbEntity
  8
0
100
AcDbBlockBegin
  2
*D5
 70
     1
 10
0.0
 20
0.0
 30
0.0
  3
*D5
  1

  0
LINE
  5
1748
330
1745
100
AcDbEntity
  8
0
 62
     0
440
 16777216
370
    -2
100
AcDbLine
 10
1719.754804531536
 20
1263.952559817953
 30
0.0
 11
1612.694278623302
 21
1263.952559817953
 31
0.0
  0
LINE
  5
1749
330
1745
100
AcDbEntity
  8
0
 62
     0
440
 16777216
370
    -2
100
AcDbLine
 10
1718.055618814295
 20
954.6957753565932
 30
0.0
 11
1612.694278623302
 21
954.6957753565932
 31
0.0
  0
LINE
  5
174A
330
1745
100
AcDbEntity
  8
0
 62
     0
440
 16777216
370
    -2
100
AcDbLine
 10
1612.874278623302
 20
1263.772559817953
 30
0.0
 11
1612.874278623302
 21
1109.504167587273
 31
0.0
  0
LINE
  5
174B
330
1745
100
AcDbEntity
  8
0
 62
     0
440
 16777216
370
    -2
100
AcDbLine
 10
1612.874278623302
 20
954.8757753565931
 30
0.0
 11
1612.874278623302
 21
1109.144167587273
 31
0.0
  0
SOLID
  5
174C
330
1745
100
AcDbEntity
  8
0
 62
     0
440
 16777216
100
AcDbTrace
 10
1612.844278623302
 20
1263.772559817953
 30
0.0
 11
1612.904278623302
 21
1263.772559817953
 31
0.0
 12
1612.874278623302
 22
1263.952559817953
 32
0.0
 13
1612.874278623302
 23
1263.952559817953
 33
0.0
  0
SOLID
  5
174D
330
1745
100
AcDbEntity
  8
0
 62
     0
440
 16777216
100
AcDbTrace
 10
1612.844278623302
 20
954.8757753565931
 30
0.0
 11
1612.904278623302
 21
954.8757753565931
 31
0.0
 12
1612.874278623302
 22
954.6957753565932
 32
0.0
 13
1612.874278623302
 23
954.6957753565932
 33
0.0
  0
MTEXT
  5
174E
330
1745
100
AcDbEntity
  8
0
 62
     0
440
 16777216
100
AcDbMText
 10
1612.874278623302
 20
1109.324167587272
 30
0.0
 40
0.18
 41
0.0
 46
0.0
 71
     5
 72
     1
  1
\A1;309.2568
 73
     1
 44
1.0
  0
POINT
  5
174F
330
1745
100
AcDbEntity
  8
Defpoints
 62
     0
440
 16777216
100
AcDbPoint
 10
1719.817304531536
 20
1263.952559817953
 30
0.0
  0
POINT
  5
1750
330
1745
100
AcDbEntity
  8
Defpoints
 62
     0
440
 16777216
100
AcDbPoint
 10
1718.118118814295
 20
954.6957753565932
 30
0.0
  0
POINT
  5
1751
330
1745
100
AcDbEntity
  8
Defpoints
 62
     0
440
 16777216
100
AcDbPoint
 10
1612.874278623302
 20
954.6957753565932
 30
0.0
  0
ENDBLK
  5
1747
330
1745
100
AcDbEntity
  8
0
100
AcDbBlockEnd
  0
BLOCK
  5
1754
330
1753
100
AcDbEntity
  8
0
100
AcDbBlockBegin
  2
*D6
 70
     1
 10
0.0
 20
0.0
 30
0.0
  3
*D6
  1

  0
LINE
  5
1756
330
1753
100
AcDbEntity
  8
0
 62
     0
440
 16777216
370
    -2
100
AcDbLine
 10
1735.378478120584
 20
684.9753941610099
 30
0.0
 11
1735.378478120584
 21
701.8348976147432
 31
0.0
  0
LINE
  5
1757
330
1753
100
AcDbEntity
  8
0
 62
     0
440
 16777216
370
    -2
100
AcDbLine
 10
1816.540945716865
 20
684.9753941610099
 30
0.0
 11
1816.540945716865
 21
701.8348976147432
 31
0.0
  0
LINE
  5
1758
330
1753
100
AcDbEntity
  8
0
 62
     0
440
 16777216
370
    -2
100
AcDbLine
 10
1735.558478120584
 20
701.6548976147433
 30
0.0
 11
1775.389711918724
 21
701.6548976147433
 31
0.0
  0
LINE
  5
1759
330
1753
100
AcDbEntity
  8
0
 62
     0
440
 16777216
370
    -2
100
AcDbLine
 10
1816.360945716865
 20
701.6548976147433
 30
0.0
 11
1776.529711918724
 21
701.6548976147433
 31
0.0
  0
SOLID
  5
175A
330
1753
100
AcDbEntity
  8
0
 62
     0
440
 16777216
100
AcDbTrace
 10
1735.558478120584
 20
701.6848976147432
 30
0.0
 11
1735.558478120584
 21
701.6248976147433
 31
0.0
 12
1735.378478120584
 22
701.6548976147433
 32
0.0
 13
1735.378478120584
 23
701.6548976147433
 33
0.0
  0
SOLID
  5
175B
330
1753
100
AcDbEntity
  8
0
 62
     0
440
 16777216
100
AcDbTrace
 10
1816.360945716865
 20
701.6848976147432
 30
0.0
 11
1816.360945716865
 21
701.6248976147433
 31
0.0
 12
1816.540945716865
 22
701.6548976147433
 32
0.0
 13
1816.540945716865
 23
701.6548976147433
 33
0.0
  0
MTEXT
  5
175C
330
1753
100
AcDbEntity
  8
0
 62
     0
440
 16777216
100
AcDbMText
 10
1775.959711918725
 20
701.6548976147433
 30
0.0
 40
0.18
 41
0.0
 46
0.0
 71
     5
 72
     1
  1
\A1;81.1625
 73
     1
 44
1.0
  0
POINT
  5
175D
330
1753
100
AcDbEntity
  8
Defpoints
 62
     0
440
 16777216
100
AcDbPoint
 10
1735.378478120584
 20
684.9128941610099
 30
0.0
  0
POINT
  5
175E
330
1753
100
AcDbEntity
  8
Defpoints
 62
     0
440
 16777216
100
AcDbPoint
 10
1816.540945716865
 20
684.9128941610099
 30
0.0
  0
POINT
  5
175F
330
1753
100
AcDbEntity
  8
Defpoints
 62
     0
440
 16777216
100
AcDbPoint
 10
1816.540945716865
 20
701.6548976147433
 30
0.0
  0
ENDBLK
  5
1755
330
1753
100
AcDbEntity
  8
0
100
AcDbBlockEnd
  0
ENDSEC
  0
SECTION
  2
ENTITIES
  0
LWPOLYLINE
  5
CBA
330
1F
100
AcDbEntity
  8
HEWI
100
AcDbPolyline
 90
       22
 70
     0
 43
0.0
 10
47.08819883295382
 20
533.8050898780623
 10
47.10068563358254
 20
533.6609202898919
 10
47.12357291344779
 20
533.5180323520021
 10
47.15674065263647
 20
533.3771753625021
 10
47.20001492099163
 20
533.239087969267
 10
47.25316879013099
 20
533.1044942965363
 10
47.31592352349799
 20
532.9741001476472
 10
47.38795003802443
 20
532.8485893038007
 10
47.46887062982387
 20
532.7286199383715
 10
47.55826095484372
 20
532.6148211654478
 10
47.65565225413957
 20
532.5077897408229
 10
47.76053381200745
 20
532.4080869325914
 10
47.87235563414106
 20
532.3162355779263
 10
47.99053133181224
 20
532.2327173412973
 10
48.11444119683165
 20
532.157970188691
 10
48.24343545128249
 20
532.0923860908928
 10
48.37683765496058
 20
532.0363089680413
 10
48.51394825254465
 20
531.9900328861215
 10
48.65404824205689
 20
531.9538005148761
 10
48.796402945296
 20
531.9278018552731
 10
48.94026586043401
 20
531.9121732431378
 10
49.08488257663157
 20
531.9069966342417
  0
LWPOLYLINE
  5
CBB
330
1F
100
AcDbEntity
  8
HEWI
100
AcDbPolyline
 90
       30
 70
     0
 43
0.0
 10
49.08488254576787
 20
531.907067517561
 10
49.69385701257215
 20
531.907067517561
 10
51.42784357775417
 20
531.907067517561
 10
54.02272722131875
 20
531.907067517561
 10
57.0838022703183
 20
531.907067517561
 10
60.14485040450927
 20
531.907067517561
 10
62.73976096286879
 20
531.907067517561
 10
64.47372061324677
 20
531.907067517561
 10
65.08266813423325
 20
531.9069968608264
 10
65.22728652714795
 20
531.9121729365722
 10
65.37115116779296
 20
531.9278010037371
 10
65.5135076557699
 20
531.953799111553
 10
65.6536094991734
 20
531.9900309305908
 10
65.79072202901534
 20
532.0363064676869
 10
65.92412625175348
 20
532.0923830622129
 10
66.05312261953804
 20
532.157966658551
 10
66.17703469854496
 20
532.2327133480721
 10
66.2952127160097
 20
532.3162311725261
 10
66.40703696758555
 20
532.4080821794061
 10
66.51192106693179
 20
532.5077847184875
 10
66.60931502061521
 20
532.6148159675015
 10
66.69870811219516
 20
532.7286146737728
 10
66.77963158032162
 20
532.8485840972562
 10
66.85166107680379
 20
532.9740951397966
 10
66.91441889187536
 20
533.1044896439627
 10
66.96757593480106
 20
533.2390838443368
 10
67.01085345957472
 20
533.377171953052
 10
67.04402452659087
 20
533.5180298607915
 10
67.06691519273227
 20
533.6609189339217
 10
67.07940542344295
 20
533.8050898877472
  0
LWPOLYLINE
  5
CBC
330
1F
100
AcDbEntity
  8
HEWI
100
AcDbPolyline
 90
        6
 70
     0
 43
0.0
 10
162.2198516515946
 20
576.103335074317
 10
162.2022052561769
 20
576.1520670753916
 10
162.1730841805456
 20
576.1940853271616
 10
162.1342962027129
 20
576.2273966385723
 10
162.0876491006729
 20
576.2500078185516
 10
162.0349506524198
 20
576.2599256760617
  0
LINE
  5
CBD
330
1F
100
AcDbEntity
  8
HEWI
100
AcDbLine
 10
162.2242155888089
 20
576.0498825149816
 30
0.0
 11
162.2198516515946
 21
576.103335074317
 31
0.0
  0
LWPOLYLINE
  5
CBE
330
1F
100
AcDbEntity
  8
HEWI
100
AcDbPolyline
 90
       19
 70
     0
 43
0.0
 10
62.09213683286725
 20
576.2601048508267
 10
62.07671114255936
 20
576.2595104152567
 10
62.0613774316198
 20
576.2577264354363
 10
62.0462272933637
 20
576.2547635676569
 10
62.03135122454205
 20
576.2506395101113
 10
62.01683808482449
 20
576.2453788971479
 10
62.00277456595904
 20
576.2390131521372
 10
61.98924467398319
 20
576.2315802997725
 10
61.97632922738285
 20
576.2231247389227
 10
61.9641053743735
 20
576.2136969774426
 10
61.95264613206382
 20
576.2033533304518
 10
61.94201995027561
 20
576.1921555839567
 10
61.93229030268049
 20
576.1801706257879
 10
61.92351530768156
 20
576.1674700460307
 10
61.91574738117743
 20
576.1541297094468
 10
61.90903292360053
 20
576.1402293022476
 10
61.90341204258493
 20
576.1258518561382
 10
61.89891831349632
 20
576.1110832523363
 10
61.89557857887485
 20
576.096011708581
  0
LWPOLYLINE
  5
CBF
330
1F
100
AcDbEntity
  8
HEWI
100
AcDbPolyline
 90
        6
 70
     0
 43
0.0
 10
62.07915986585795
 20
574.7746735030521
 10
62.09284875516096
 20
574.7700611183765
 10
62.10683504515237
 20
574.7664495431317
 10
62.12104566956987
 20
574.7638576446783
 10
62.13540639019902
 20
574.7622989634314
 10
62.14984218470454
 20
574.7617816421572
  0
LWPOLYLINE
  5
CC0
330
1F
100
AcDbEntity
  8
HEWI
100
AcDbPolyline
 90
       22
 70
     0
 43
0.0
 10
161.9669638486457
 20
574.7617974418878
 10
161.9813981719208
 20
574.7623064546482
 10
161.9957578985722
 20
574.7638579161568
 10
162.0099678418555
 20
574.7664437030525
 10
162.0239535992923
 20
574.7700502762868
 10
162.0376419422209
 20
574.7746587520553
 10
162.0509611992165
 20
574.7802450006222
 10
162.0638416314123
 20
574.7867797726971
 10
162.0762157975387
 20
574.7942288525766
 10
162.0880189071531
 20
574.802553237283
 10
162.0991891598223
 20
574.811709340797
 10
162.1096680687296
 20
574.8216492222613
 10
162.1194007668564
 20
574.8323208369968
 10
162.1283362943459
 20
574.8436683090321
 10
162.1364278652672
 20
574.8556322236013
 10
162.1436331125878
 20
574.8681499383267
 10
162.1499143100445
 20
574.881155911132
 10
162.1552385696177
 20
574.894582043448
 10
162.1595780137759
 20
574.9083580367969
 10
162.1629099214497
 20
574.922411760833
 10
162.1652168469254
 20
574.9366696310219
 10
162.1664867112859
 20
574.9510569939364
  0
LWPOLYLINE
  5
CC1
330
1F
100
AcDbEntity
  8
HEWI
100
AcDbPolyline
 90
        3
 70
     0
 43
0.0
 10
61.89557857887485
 20
576.096011708581
 10
61.89341278805932
 20
576.0807272521626
 10
61.89243387800707
 20
576.0653211821622
  0
LWPOLYLINE
  5
CC2
330
1F
100
AcDbEntity
  8
HEWI
100
AcDbPolyline
 90
       17
 70
     0
 43
0.0
 10
61.95020337495953
 20
574.9510579480167
 10
61.95148868909746
 20
574.9366701845824
 10
61.95380988791476
 20
574.9224128424268
 10
61.9571548451504
 20
574.9083604038114
 10
61.96150608628705
 20
574.8945862805815
 10
61.96684087986887
 20
574.8811624305924
 10
61.97313135621334
 20
574.8681589818463
 10
61.9803446530259
 20
574.8556438661112
 10
61.98844308707157
 20
574.8436824640268
 10
61.99738435104882
 20
574.8323372635716
 10
62.00712173458305
 20
574.8216675335911
 10
62.01760436828954
 20
574.8117290141985
 10
62.02877748946412
 20
574.8025736255474
 10
62.04058272823295
 20
574.7942491966157
 10
62.05295841243787
 20
574.7867992153474
 10
62.06583988982493
 20
574.7802626014411
 10
62.07915986585795
 20
574.7746735030521
  0
LWPOLYLINE
  5
CC3
330
1F
100
AcDbEntity
  8
HEWI
100
AcDbPolyline
 90
       51
 70
     0
 43
0.0
 10
157.0373724866167
 20
533.8050898250182
 10
157.0498652739716
 20
533.6609120135071
 10
157.072759408089
 20
533.5180163532559
 10
157.1059348264416
 20
533.3771522245556
 10
157.1492175489229
 20
533.2390583538413
 10
157.2023805901844
 20
533.104458939616
 10
157.2651451500642
 20
532.974059854607
 10
157.3371820756128
 20
532.8485449439515
 10
157.4181135873559
 20
532.7285724389819
 10
157.507515260364
 20
532.6147715052773
 10
157.6049182500728
 20
532.5077389431519
 10
157.7098117510522
 20
532.4080360579225
 10
157.8216456757636
 20
532.3161857162469
 10
157.9398335393725
 20
532.2326696040975
 10
158.0637555353823
 20
532.157925700686
 10
158.1927617861411
 20
532.0923459815819
 10
158.3261757508408
 20
532.0362743631026
 10
158.4632977735609
 20
531.9900048987208
 10
158.6034087524021
 20
531.9537802369811
 10
158.7457739106512
 20
531.9277903490067
 10
158.8896466500873
 20
531.9121715322078
 10
159.0342724346519
 20
531.907067517561
 10
159.6432469014653
 20
531.907067517561
 10
161.3772603814559
 20
531.907067517561
 10
163.9721171102119
 20
531.907067517561
 10
167.0329230111165
 20
531.907067517561
 10
170.0939980601206
 20
531.907067517561
 10
172.6889086184892
 20
531.907067517561
 10
174.4229220984798
 20
531.907067517561
 10
175.0318427044258
 20
531.9069971286771
 10
175.1764597347901
 20
531.9121725850672
 10
175.320323033894
 20
531.9278001879909
 10
175.4626781718898
 20
531.9537979851483
 10
175.6027786278318
 20
531.9900296421415
 10
175.7398897044923
 20
532.0363051574722
 10
175.8732923811712
 20
532.092381858881
 10
176.0022870843167
 20
532.1579656759772
 10
176.1261973560758
 20
532.2327126823368
 10
176.2443734017561
 20
532.3162308990922
 10
176.3561954973838
 20
532.408082350498
 10
176.4610772395608
 20
532.5077853606976
 10
176.558468620602
 20
532.6148170796816
 10
176.6478589128755
 20
532.7286162251412
 10
176.7287793470277
 20
532.8485860258909
 10
176.8008055702703
 20
532.9740973513512
 10
176.8635598717046
 20
533.1044920107919
 10
176.916713163142
 20
533.2390862048973
 10
176.9599867047245
 20
533.377174111707
 10
176.9931535667965
 20
533.5180315879378
 10
177.0160398198604
 20
533.6609199664983
 10
177.0285254466998
 20
533.8050899300876
  0
LINE
  5
CC4
330
1F
100
AcDbEntity
  8
HEWI
100
AcDbLine
 10
61.89243387800707
 20
576.0653211821622
 30
0.0
 11
61.89264769609144
 21
576.0498855241062
 31
0.0
  0
LWPOLYLINE
  5
CC5
330
1F
100
AcDbEntity
  8
HEWI
100
AcDbPolyline
 90
       51
 70
     0
 43
0.0
 10
582.8308786785928
 20
533.3055505246725
 10
582.8433746662003
 20
533.1613796611415
 10
582.8662703180234
 20
533.0184909745614
 10
582.8994455907432
 20
532.8776336391158
 10
582.9427265443664
 20
532.739546178502
 10
582.9958862541716
 20
532.6049525937762
 10
583.0586460005506
 20
532.4745585674029
 10
583.1306767302621
 20
532.3490477632865
 10
583.2116007817703
 20
532.2290782423269
 10
583.3009938652694
 20
532.1152790120923
 10
583.3983872873305
 20
532.0082467289726
 10
583.5032704082331
 20
531.908542569822
 10
583.6150933193002
 20
531.8166892896815
 10
583.7332697261408
 20
531.7331684809617
 10
583.8571800225609
 20
531.6584180484162
 10
583.9861745392509
 20
531.5928299131619
 10
584.1195769500027
 20
531.5367479578376
 10
584.2566878177477
 20
531.490466223581
 10
584.3967882617707
 20
531.4542273683921
 10
584.5391437268163
 20
531.4282213948067
 10
584.6830078343973
 20
531.4125846537567
 10
584.8276262680392
 20
531.4074748527625
 10
585.4363315867531
 20
531.4074748527625
 10
587.1697529409503
 20
531.4074748527625
 10
589.7644481808456
 20
531.4074748527625
 10
592.82487727443
 20
531.4074748527625
 10
595.8855216864876
 20
531.4074748527625
 10
598.4807552225683
 20
531.4074748527625
 10
600.2153608283524
 20
531.4074748527625
 10
600.8250350484331
 20
531.4074111145019
 10
600.9696675347977
 20
531.4125790387627
 10
601.1135468376878
 20
531.4281998496776
 10
601.2559185009695
 20
531.4541916368122
 10
601.3960359740495
 20
531.4904181077062
 10
601.5331645265969
 20
531.5366893025518
 10
601.6665851011812
 20
531.5927625903018
 10
601.7955980838096
 20
531.6583439409121
 10
601.9195269724705
 20
531.7330894671622
 10
602.037721924481
 20
531.8166072278879
 10
602.1495631640491
 20
531.908459283172
 10
602.25446423218
 20
532.0081639907969
 10
602.3518750618632
 20
532.1151985317758
 10
602.4412848624952
 20
532.2290016518864
 10
602.5222247982046
 20
532.3489766046564
 10
602.5942704463841
 20
532.4744942805612
 10
602.6570440231325
 20
532.6048965058325
 10
602.7102163642767
 20
532.7394994937171
 10
602.753508651399
 20
532.8775974300319
 10
602.7866938738725
 20
533.0184661742314
 10
602.8095980192001
 20
533.1613670565477
 10
602.8221009855142
 20
533.3055507513515
  0
LWPOLYLINE
  5
CC6
330
1F
100
AcDbEntity
  8
HEWI
100
AcDbPolyline
 90
       51
 70
     0
 43
0.0
 10
472.8816814411502
 20
533.3055507433514
 10
472.8941737574187
 20
533.1613813116425
 10
472.9170657748327
 20
533.018493808448
 10
472.9502374660987
 20
532.8776374206913
 10
472.9935149055982
 20
532.7395506857656
 10
473.0466711813151
 20
532.6049576192506
 10
473.1094275845735
 20
532.4745639187356
 10
473.1814550713452
 20
532.3490532637058
 10
473.2623759875523
 20
532.2290837309126
 10
473.3517660490961
 20
532.1152843439128
 10
473.4491565665312
 20
532.0082517749924
 10
473.5540369024565
 20
531.9085472167021
 10
473.6658571489043
 20
531.8166934394057
 10
473.7840310105966
 20
531.7331720502872
 10
473.9079388790387
 20
531.6584209682262
 10
474.0369310811965
 20
531.5928321276564
 10
474.170331285919
 20
531.5367494236077
 10
474.3074400500026
 20
531.4904669085863
 10
474.4475384855795
 20
531.4542272508171
 10
474.5898920293539
 20
531.4282204618573
 10
474.7337542940258
 20
531.4125829003521
 10
474.8783709531935
 20
531.4074748527625
 10
475.4872377607589
 20
531.4074748527625
 10
477.2206052853435
 20
531.4074748527625
 10
479.8151928659954
 20
531.4074748527625
 10
482.875675789206
 20
531.4074748527625
 10
485.9363740308809
 20
531.4074748527625
 10
488.5316613965742
 20
531.4074748527625
 10
490.2661055135068
 20
531.4074748527625
 10
490.8759950535031
 20
531.4074051211171
 10
491.0206205278255
 20
531.4125818450927
 10
491.1644922333253
 20
531.4282106209029
 10
491.3068557977348
 20
531.4542095011367
 10
491.4469647565201
 20
531.4904421640969
 10
491.5840844668819
 20
531.5367186286014
 10
491.7174959597341
 20
531.5927962501413
 10
491.8464997095552
 20
531.6583809930976
 10
491.9704193022253
 20
531.7331289725562
 10
492.0886049817418
 20
531.8166482573665
 10
492.200437057123
 20
531.9085009251816
 10
492.3053291516553
 20
532.0082053587018
 10
492.4027312775079
 20
532.1152387708909
 10
492.4921327195179
 20
532.2290399462006
 10
492.5730647130203
 20
532.3490121832228
 10
492.6451029018208
 20
532.4745264233772
 10
492.707869563188
 20
532.6049245493411
 10
492.7610355884426
 20
532.7395228357759
 10
492.8043222085407
 20
532.8776155343562
 10
492.8375024558236
 20
533.0184785742719
 10
492.8604023540501
 20
533.1613733587866
 10
492.8729018306293
 20
533.3055506379967
  0
LWPOLYLINE
  5
CC7
330
1F
100
AcDbEntity
  8
HEWI
100
AcDbPolyline
 90
        4
 70
     0
 43
0.0
 10
588.5858457579579
 20
575.5504486910078
 10
588.5860516097964
 20
575.5658880406063
 10
588.5850644058937
 20
575.5812971716474
 10
588.5828900438136
 20
575.5965840300766
  0
LWPOLYLINE
  5
CC8
330
1F
100
AcDbEntity
  8
HEWI
100
AcDbPolyline
 90
       21
 70
     0
 43
0.0
 10
588.5828900438136
 20
575.5965840300766
 10
588.5795415131688
 20
575.611657292312
 10
588.5750388180722
 20
575.6264269107666
 10
588.5694088575801
 20
575.640804651832
 10
588.5626852650566
 20
575.6547046229761
 10
588.5549082071938
 20
575.6680437858628
 10
588.5461241440962
 20
575.680742452407
 10
588.5363855516843
 20
575.6927247608562
 10
588.5257506082653
 20
575.7039191289877
 10
588.5142828469143
 20
575.7142586816971
 10
588.5020507759654
 20
575.723681650571
 10
588.4891274697438
 20
575.7321317428509
 10
588.4755901319985
 20
575.7395584777473
 10
588.4615196346803
 20
575.7459174879714
 10
588.4470000348856
 20
575.751170784857
 10
588.4321180725792
 20
575.7552869852267
 10
588.4169626525463
 20
575.7582414989323
 10
588.4016243131336
 20
575.760016675732
 10
588.3861946452598
 20
575.7606559889629
 10
587.5693840239145
 20
575.7606559889629
 10
585.5983587365026
 20
575.7606559889629
  0
LWPOLYLINE
  5
CC9
330
1F
100
AcDbEntity
  8
HEWI
100
AcDbPolyline
 90
       26
 70
     0
 43
0.0
 10
511.6326957290912
 20
586.2897826808566
 10
511.5820881627642
 20
586.2722095541821
 10
511.5393471969728
 20
586.2429509150567
 10
511.5059606225586
 20
586.2042541499565
 10
511.4834162303314
 20
586.1583666453371
 10
511.4732018111326
 20
586.1075357876618
 10
511.4774116329554
 20
586.0514517740669
 10
511.5112059688827
 20
585.9003839075158
 10
511.5465612083299
 20
585.7496737071423
 10
511.5834735679218
 20
585.5993373004671
 10
511.6219390976684
 20
585.4493907750268
 10
511.6619536813559
 20
585.2998501766169
 10
511.7035130370241
 20
585.1507315076125
 10
511.7466127173939
 20
585.0020507252268
 10
511.7912481103585
 20
584.8538237398165
 10
511.8374144394838
 20
584.7060664131877
 10
511.8851067644991
 20
584.558794556867
 10
511.934319981834
 20
584.4120239304468
 10
511.9850488251777
 20
584.2657702398773
 10
512.0372878660382
 20
584.1200491358015
 10
512.0910315142882
 20
583.9748762118526
 10
512.1462740188108
 20
583.830267003012
 10
512.2030094681177
 20
583.6862369839466
 10
512.2612317909088
 20
583.5428015673264
 10
512.3209347568226
 20
583.3999761022059
 10
512.3821119770227
 20
583.2577758723673
  0
LWPOLYLINE
  5
CCA
330
1F
100
AcDbEntity
  8
HEWI
100
AcDbPolyline
 90
       48
 70
     0
 43
0.0
 10
513.6025126038576
 20
584.2240614732268
 10
513.5591842913763
 20
584.3333716007609
 10
513.5168102638645
 20
584.4430551839864
 10
513.475393739769
 20
584.5531038921226
 10
513.434937864782
 20
584.6635093666427
 10
513.3954457116406
 20
584.7742632219271
 10
513.3569202799081
 20
584.8853570458922
 10
513.3193644956882
 20
584.9967824006373
 10
513.2827812114701
 20
585.108530823081
 10
513.2471732058466
 20
585.2205938256028
 10
513.2125431833592
 20
585.3329628966819
 10
513.1788937742621
 20
585.4456295015629
 10
513.1462275343128
 20
585.5585850828775
 10
513.1145469446218
 20
585.6718210613232
 10
513.0838544114167
 20
585.7853288362966
 10
513.0541522658822
 20
585.8990997865427
 10
513.0254427639929
 20
586.0131252708263
 10
512.9977280863213
 20
586.1273966285816
 10
512.9710103378656
 20
586.2419051805463
 10
512.9452925869336
 20
586.356642468032
 10
512.9413601915403
 20
586.3716862435317
 10
512.9362709889492
 20
586.3863790626155
 10
512.9300557396081
 20
586.4006321181566
 10
512.9227520100593
 20
586.4143592610625
 10
512.9144039458934
 20
586.427477520991
 10
512.9050620049438
 20
586.4399076078573
 10
512.8947826522662
 20
586.4515743910474
 10
512.8836280188725
 20
586.4624073535671
 10
512.8716655262232
 20
586.4723410182373
 10
512.8589674786289
 20
586.4813153434611
 10
512.8456106263511
 20
586.4892760861412
 10
512.8316757015737
 20
586.4961751295274
 10
512.8172469305318
 20
586.5019707740518
 10
512.8024115243861
 20
586.506627989356
 10
512.7872591520927
 20
586.5101186260526
 10
512.7718813984357
 20
586.5124215858518
 10
512.7563712104675
 20
586.5135229490724
 10
512.7408223357142
 20
586.5134160587976
 10
512.7253287555149
 20
586.5121015611018
 10
512.7099878712497
 20
586.5095690024165
 10
512.576221270875
 20
586.4822773871717
 10
512.4421316927928
 20
586.4549319423165
 10
512.3075576481515
 20
586.4274788382269
 10
512.1727144554288
 20
586.3999719045214
 10
512.0379789219314
 20
586.3725188004318
 10
511.9029204107309
 20
586.3449580371125
 10
511.767861899526
 20
586.3172896145622
 10
511.6326957290912
 20
586.2897826808566
  0
LWPOLYLINE
  5
CCB
330
1F
100
AcDbEntity
  8
HEWI
100
AcDbPolyline
 90
       24
 70
     0
 43
0.0
 10
585.5983587365026
 20
574.2623086314913
 10
587.5286888328227
 20
574.2623086314913
 10
588.3284892971287
 20
574.2623113792226
 10
588.3429267840219
 20
574.2628218801358
 10
588.3572896784117
 20
574.2643739444369
 10
588.3715029374489
 20
574.2669594629465
 10
588.385492300109
 20
574.2705649269155
 10
588.3991846751642
 20
574.2751714986159
 10
588.4125085230707
 20
574.2807551097675
 10
588.4253942297855
 20
574.2872865872763
 10
588.4377744704179
 20
574.294731805663
 10
588.4495845610318
 20
574.3030518653629
 10
588.4607627966179
 20
574.3122032959624
 10
588.4712507734421
 20
574.3221382833232
 10
588.4809936942074
 20
574.3328049194119
 10
588.4899406543909
 20
574.3441474734774
 10
588.498044908175
 20
574.3561066832817
 10
588.5052641126694
 20
574.3686200646729
 10
588.5115605491828
 20
574.3816222380972
 10
588.5169013202685
 20
574.3950452701572
 10
588.521258521624
 20
574.4088190285865
 10
588.5246093878695
 20
574.4228715486358
 10
588.5269364114865
 20
574.4371294091011
 10
588.5282274343181
 20
574.4515181159122
  0
LWPOLYLINE
  5
CCC
330
1F
100
AcDbEntity
  8
HEWI
100
AcDbPolyline
 90
       21
 70
     0
 43
0.0
 10
518.7158121650609
 20
576.0713067020922
 10
518.6918534817241
 20
576.1450518060266
 10
518.6880875217921
 20
576.1558839929862
 10
518.6839102426038
 20
576.1665643051274
 10
518.6793277503611
 20
576.1770771303313
 10
518.674346743579
 20
576.187407101331
 10
518.6689745033218
 20
576.1975391181224
 10
518.6632188825533
 20
576.2074583700812
 10
518.6570882946316
 20
576.2171503575971
 10
518.6505917010308
 20
576.2266009132518
 10
518.6437385982535
 20
576.235796222563
 10
518.6365390039336
 20
576.2447228441417
 10
518.6290034421618
 20
576.2533677293661
 10
518.6211429281784
 20
576.2617182414474
 10
518.6129689522031
 20
576.2697621738923
 10
518.6044934626679
 20
576.2774877683669
 10
518.5957288487552
 20
576.2848837318617
 10
518.5866879222576
 20
576.2919392532226
 10
518.5773838988925
 20
576.2986440189272
 10
518.5678303789618
 20
576.3049882281868
 10
518.5580413274656
 20
576.3109626072625
  0
LWPOLYLINE
  5
CCD
330
1F
100
AcDbEntity
  8
HEWI
100
AcDbPolyline
 90
       46
 70
     0
 43
0.0
 10
584.8301024304564
 20
694.1353725316319
 10
525.8572802558192
 20
694.1360388632469
 10
524.7370153075108
 20
694.0946987901279
 10
523.622974499518
 20
693.9697362631486
 10
522.5213910713692
 20
693.7618504679719
 10
521.4384285615697
 20
693.4722045594478
 10
520.3801463215141
 20
693.1024191535377
 10
519.3524656124837
 20
692.6545632597558
 10
518.3611364752196
 20
692.1311427046768
 10
517.411705557507
 20
691.5350861114368
 10
516.5094850797786
 20
690.8697285136631
 10
515.6595231123729
 20
690.1387926953223
 10
514.8665753307577
 20
689.3463683612376
 10
514.135078406749
 20
688.4968892544564
 10
513.4691251846525
 20
687.5951083487721
 10
512.8724417810699
 20
686.6460712550312
 10
512.3483667366927
 20
685.6550879901724
 10
511.8998323366631
 20
684.6277032667567
 10
511.5293482039087
 20
683.5696654694365
 10
511.2389872574213
 20
682.4868944918009
 10
511.0303741139214
 20
681.3854486136128
 10
510.9046759978773
 20
680.2714906037167
 10
510.8643317638198
 20
679.151253001522
 10
510.8625915448337
 20
589.2463740853473
 10
510.9046769207962
 20
588.1261397813009
 10
511.0303800330357
 20
587.0121852025883
 10
511.2389975580627
 20
585.9107430542267
 10
511.5293622566296
 20
584.8279760327577
 10
511.8998495045762
 20
583.7699423452066
 10
512.3483863828014
 20
582.7425618127413
 10
512.8724632754583
 20
581.7515827485622
 10
513.46914791157
 20
580.8025497954267
 10
514.1351017714042
 20
579.9007729027616
 10
514.8665987659078
 20
579.0512976168324
 10
515.659546084581
 20
578.2588768503567
 10
516.5095070952302
 20
577.5279442894166
 10
517.4117261674437
 20
576.8625895864269
 10
518.3611552809098
 20
576.2665354781129
 10
519.3524822696381
 20
575.7431169563071
 10
520.380160544215
 20
575.2952626083422
 10
521.4384401254947
 20
574.9254782312116
 10
522.5213998165473
 20
574.6358328113919
 10
523.6229803323213
 20
574.4279469485864
 10
524.7370182020959
 20
574.3029837882963
 10
525.8572799067824
 20
574.2623086314913
 10
584.8301024304564
 20
574.2623086314913
  0
LWPOLYLINE
  5
CCE
330
1F
100
AcDbEntity
  8
HEWI
100
AcDbPolyline
 90
       30
 70
     0
 43
0.0
 10
532.5863083768545
 20
883.9348852373982
 10
532.5067535304023
 20
884.0614140744808
 10
532.4179634161246
 20
884.181642340421
 10
532.3204348280123
 20
884.2948973400709
 10
532.2147134531051
 20
884.400545394752
 10
532.1013908183304
 20
884.4979953877757
 10
531.9811009808072
 20
884.5867020718557
 10
531.8545169801618
 20
884.6661691197969
 10
531.7223470728422
 20
884.7359519015876
 10
531.5853307692496
 20
884.7956599721019
 10
531.4442346961468
 20
884.8449592557514
 10
531.2998483071542
 20
884.8835739156729
 10
531.1529794657517
 20
884.9112878970501
 10
531.0044499250907
 20
884.9279461360172
 10
530.855090776623
 20
884.9334770155017
 10
527.3565962993379
 20
884.9334591190014
 10
527.2072394969482
 20
884.9279465958327
 10
527.0587125716483
 20
884.9112854202004
 10
526.911846537756
 20
884.8835688120956
 10
526.7674631168447
 20
884.8449518470815
 10
526.6263701401485
 20
884.7956505886813
 10
526.4893570287413
 20
884.7359408794918
 10
526.357190376676
 20
884.6661567978159
 10
526.2306096618804
 20
884.5866887884913
 10
526.1103231087063
 20
884.4979814783378
 10
525.9970037254206
 20
884.4005311884425
 10
525.891285538688
 20
884.2948831572265
 10
525.7937600461546
 20
884.1816284898275
 10
525.7049729070204
 20
884.0614008508064
 10
525.6254208889968
 20
883.9348729188063
  0
LWPOLYLINE
  5
CCF
330
1F
100
AcDbEntity
  8
HEWI
100
AcDbPolyline
 90
       60
 70
     0
 43
0.0
 10
525.6254208889968
 20
883.9348729188063
 10
525.5555490889546
 20
883.8027526228778
 10
525.4957484425049
 20
883.6657791815568
 10
525.4463535367685
 20
883.5247189669516
 10
525.4076407382817
 20
883.3803612168274
 10
525.3798266467684
 20
883.2335136187973
 10
525.3630668832247
 20
883.0849977912826
 10
525.3576872234552
 20
882.9356446524613
 10
525.3574719319576
 20
807.0159693265814
 10
525.3630659486962
 20
806.8666053109062
 10
525.3798098416573
 20
806.7180773866969
 10
525.4076099127005
 20
806.5712167101773
 10
525.4463105937575
 20
806.426845107712
 10
525.495695317396
 20
806.2857704769223
 10
525.5554877286986
 20
806.1487822656918
 10
525.6253532317678
 20
806.0166470544764
 10
525.704900862107
 20
805.8901042665477
 10
525.7936854744057
 20
805.7698620301867
 10
525.8912102335771
 20
805.6565932160616
 10
525.9969293950562
 20
805.550931671847
 10
526.1102513586966
 20
805.4534686752365
 10
526.230541979422
 20
805.3647496251969
 10
526.357128115802
 20
805.2852709899262
 10
526.489301396974
 20
805.2154775286268
 10
526.6263221866447
 20
805.1557598026725
 10
526.7674237220271
 20
805.1064519900215
 10
526.9118164046913
 20
805.0678300151979
 10
527.0586922190532
 20
805.0401100051814
 10
527.2072292540415
 20
805.0234470800361
 10
527.3565962529219
 20
805.0180293092475
 10
530.8550907269782
 20
805.017938177027
 10
531.0044601679201
 20
805.0234475398733
 10
531.1529998183332
 20
805.0401075279772
 10
531.2998784403098
 20
805.0678249109317
 10
531.4442740911827
 20
805.1064445803817
 10
531.5853787231353
 20
805.1557504180628
 10
531.7224027051415
 20
805.2154665051725
 10
531.8545792417499
 20
805.2852586664673
 10
531.9811686641478
 20
805.3647363402966
 10
532.1014625693906
 20
805.4534547642411
 10
532.2147877846701
 20
805.550917464013
 10
532.3205101344329
 20
805.6565790317719
 10
532.4180379892786
 20
805.7698481782617
 10
532.5068255767619
 20
805.8900910416966
 10
532.5863760355478
 20
806.016634734901
 10
532.6562441958968
 20
806.1487711108256
 10
532.7160390708841
 20
806.2857607254066
 10
532.7654260443441
 20
806.4268369755163
 10
532.8041287434471
 20
806.571210388947
 10
532.8319305852856
 20
806.7180730423363
 10
532.8486759888674
 20
806.8666030823724
 10
532.8540536357068
 20
807.0159693315222
 10
532.854287958431
 20
882.9356446885718
 10
532.8486750538977
 20
883.0850000200619
 10
532.8319137794332
 20
883.2335179632227
 10
532.8040979168791
 20
883.3803675379122
 10
532.7653831001416
 20
883.5247270987871
 10
532.7159859444291
 20
883.6657889324975
 10
532.6561828342128
 20
883.802763776948
 10
532.5863083768545
 20
883.9348852373982
  0
LWPOLYLINE
  5
CD0
330
1F
100
AcDbEntity
  8
HEWI
100
AcDbPolyline
 90
      176
 70
     1
 43
0.0
 10
149.6614368739992
 20
150.8116004110671
 10
149.4809891990789
 20
150.9446701652767
 10
149.2910993494897
 20
151.0638790917413
 10
149.0928298442631
 20
151.168560162947
 10
148.8872900904071
 20
151.2581276412514
 10
148.6756301752039
 20
151.3320803563577
 10
148.4590344310036
 20
151.3900045095975
 10
148.2387148083453
 20
151.4315759892973
 10
148.0159040945282
 20
151.4565621843472
 10
147.7918490861984
 20
151.4646963657865
 10
76.32493009363861
 20
151.4648252481514
 10
76.10087634402225
 20
151.4565594407666
 10
75.87806725363953
 20
151.4315691327759
 10
75.65774946766487
 20
151.3899941481268
 10
75.44115569208407
 20
151.3320671041479
 10
75.22949779657301
 20
151.2581121099968
 10
75.02396003395552
 20
151.1685429532666
 10
74.82569241411602
 20
151.0638607847566
 10
74.6358042695565
 20
150.9446513145074
 10
74.45535804857718
 20
150.8115815346319
 10
74.28536337069636
 20
150.6653959874573
 10
74.1267713777288
 20
150.5069125996872
 10
73.98046941201847
 20
150.3370181060016
 10
73.8472760516388
 20
150.1566630876776
 10
73.72793653037297
 20
149.9668566539479
 10
73.62311856798988
 20
149.7686607959063
 10
73.53340863429457
 20
149.5631844445664
 10
73.45930866777599
 20
149.3515772661974
 10
73.40123326715093
 20
149.1350232298519
 10
73.35950737164785
 20
148.9147339828524
 10
73.33436444298604
 20
148.6919420715263
 10
73.32629733257454
 20
148.4678939916123
 10
73.32652452952152
 20
145.9706304326674
 10
73.32092096449833
 20
145.8212682001065
 10
73.30416785768284
 20
145.6727427481165
 10
73.27635895584626
 20
145.5258851930123
 10
73.23764987158575
 20
145.3815173179064
 10
73.18825721256962
 20
145.2404469742064
 10
73.12845736941745
 20
145.1034635610515
 10
73.05858496914061
 20
144.9713336079865
 10
72.97903100256099
 20
144.8447964856619
 10
72.89024063648958
 20
144.7245602684368
 10
72.79271072259326
 20
144.6112977721871
 10
72.68698701718313
 20
144.5056427893472
 10
72.57366112725867
 20
144.4081865423411
 10
72.45336719997431
 20
144.3194743752631
 10
72.32677837415031
 20
144.2400027022027
 10
72.19460301346408
 20
144.1702162294619
 10
72.05758074264486
 20
144.1105054670423
 10
71.91647830869533
 20
144.0612045434669
 10
71.7720852903185
 20
144.0225893360307
 10
71.62520967961518
 20
143.9948759270917
 10
71.47667336074028
 20
143.978219394887
 10
71.32730755868215
 20
143.9727980895814
 10
64.33037241202874
 20
143.9729457851807
 10
64.1063219238149
 20
143.9646683745875
 10
63.88351696196514
 20
143.9396666601667
 10
63.66320416039889
 20
143.8980805310164
 10
63.44661620899024
 20
143.8401426690323
 10
63.23496495636482
 20
143.7661772470026
 10
63.02943462946223
 20
143.6765981147924
 10
62.83117520751694
 20
143.571906483812
 10
62.64129598776526
 20
143.452688122612
 10
62.46085937866701
 20
143.3196100794121
 10
62.29087495558451
 20
143.1734169498768
 10
62.13229381203382
 20
143.014926710923
 10
61.98600323808569
 20
142.8450261440171
 10
61.85282175590692
 20
142.6646658734726
 10
61.73349453990886
 20
142.4748550475224
 10
61.6286892473554
 20
142.2766556919724
 10
61.53899228278624
 20
142.0711767679573
 10
61.46490551688294
 20
141.8595679671123
 10
61.40684347846309
 20
141.6430132788376
 10
61.36513103509606
 20
141.4227243656578
 10
61.34000157542778
 20
141.1999337837765
 10
61.33192805227372
 20
140.9758880561729
 10
61.33158637155793
 20
44.57781192422253
 10
61.34000342081527
 20
44.35377234936691
 10
61.36514287249702
 20
44.13098862951738
 10
61.40686407859994
 20
43.91070717567668
 10
61.46493362092406
 20
43.69416039939715
 10
61.53902661704797
 20
43.48255981776156
 10
61.62872853790395
 20
43.27708927533745
 10
61.73353752699404
 20
43.07889832085657
 10
61.8528672080547
 20
42.88909577586633
 10
61.9860499657907
 20
42.70874353115669
 10
62.13234068085603
 20
42.53885060579687
 10
62.29092089867299
 20
42.38036750197744
 10
62.46090340840601
 20
42.23418088719181
 10
62.64133720667905
 20
42.10110863362256
 10
62.83121281814238
 20
41.9818952423564
 10
63.02946794322543
 20
41.87720767811224
 10
63.23499340137096
 20
41.78763163778722
 10
63.44663933659467
 20
41.7136682736314
 10
63.66322165061865
 20
41.65573138945187
 10
63.88352862749889
 20
41.61414512548781
 10
64.10632771290784
 20
41.58914214496626
 10
64.3303723409017
 20
41.58100959930634
 10
159.7863797884029
 20
41.58087230929236
 10
160.0104308653144
 20
41.58914786914788
 10
160.2332366693881
 20
41.6141467409373
 10
160.4535507175806
 20
41.65572906892685
 10
160.6701404669784
 20
41.71366222153192
 10
160.881794210155
 20
41.78762209279766
 10
161.0873278540894
 20
41.87719491555622
 10
161.2855915445616
 20
41.98187957628743
 10
161.4754760989499
 20
42.10109041855212
 10
161.6559192115674
 20
42.23416051947224
 10
161.8259113967142
 20
42.38034542077667
 10
161.9845016361851
 20
42.53882729369734
 10
162.1308026997767
 20
42.7087195142813
 10
162.2639961088462
 20
42.8890716235865
 10
162.3833367152983
 20
43.07887464501646
 10
162.488156870264
 20
43.27706672902291
 10
162.5778701593171
 20
43.48253909359169
 10
162.6519746830636
 20
43.69414222731716
 10
162.7100558651145
 20
43.9106923203165
 10
162.7517887713347
 20
44.13097788703208
 10
162.776939927754
 20
44.35376654386669
 10
162.7850125476298
 20
44.57781197348759
 10
162.7853592960773
 20
140.9758881059313
 10
162.7769417746785
 20
141.1999395886378
 10
162.7518006105547
 20
141.422735108067
 10
162.7100764672477
 20
141.6430281346366
 10
162.6520027892238
 20
141.8595861401125
 10
162.5779044957435
 20
142.0711974934771
 10
162.4881961629726
 20
142.2766782400013
 10
162.3833797044754
 20
142.4748787253825
 10
162.2640415629812
 20
142.6646900280069
 10
162.1308494293143
 20
142.8450501633118
 10
161.9845485066671
 20
143.0149500255411
 10
161.8259573412579
 20
143.1734390336167
 10
161.6559632425615
 20
143.3196304496264
 10
161.4755173188914
 20
143.452706340041
 10
161.285629156001
 20
143.5719221520479
 10
161.0873611684801
 20
143.6766108792424
 10
160.8818226556159
 20
143.7661867935422
 10
160.6701635948966
 20
143.8401487222721
 10
160.4535682079913
 20
143.8980828522129
 10
160.2332483350401
 20
143.9396650448519
 10
160.0104366544983
 20
143.9646626499471
 10
159.7863798553462
 20
143.9727980895814
 10
152.7896600001404
 20
143.9727224340161
 10
152.6402881027261
 20
143.9782258062869
 10
152.4917454711667
 20
143.9948792574067
 10
152.3448632484005
 20
144.022589606062
 10
152.2004632868456
 20
144.0612018041018
 10
152.0593535498901
 20
144.1104998040815
 10
151.9223235910849
 20
144.1702077681223
 10
151.7901401363142
 20
144.239991611307
 10
151.6635427937544
 20
144.3194608709926
 10
151.5432399155415
 20
144.4081708915813
 10
151.4299046342385
 20
144.5056253124867
 10
151.3241710965585
 20
144.6112788454466
 10
151.2266309150263
 20
144.7245403255725
 10
151.1378298577674
 20
144.844776019123
 10
151.0582647947476
 20
144.9713131694168
 10
150.9883809176208
 20
145.1034437611313
 10
150.9285692487319
 20
145.2404284818815
 10
150.8791644532775
 20
145.3815008588911
 10
150.8404429666925
 20
145.5258715476621
 10
150.8126214478998
 20
145.6727327485917
 10
150.7958555671039
 20
145.8212627268811
 10
150.790481778482
 20
145.9706304526228
 10
150.7908297624781
 20
148.4678940362663
 10
150.7824153503734
 20
148.691943401652
 10
150.7572766994017
 20
148.9147369579471
 10
150.7155544715997
 20
149.1350280750872
 10
150.6574821215881
 20
149.351584125262
 10
150.5833845902643
 20
149.5631933800517
 10
150.4936764866133
 20
149.7686717905661
 10
150.3888597677915
 20
149.966869612766
 10
150.269520930452
 20
150.1566778407571
 10
150.1363277290202
 20
150.3370344121979
 10
149.9900254393114
 20
150.5069301510114
 10
149.8314326884028
 20
150.6654144141974
  0
LWPOLYLINE
  5
CD1
330
1F
100
AcDbEntity
  8
HEWI
100
AcDbPolyline
 90
       23
 70
     0
 43
0.0
 10
182.026315792651
 20
160.5051650579569
 10
182.0179122454519
 20
160.7292097454022
 10
181.9927843798959
 20
160.951999404027
 10
181.9510728044188
 20
161.172287365956
 10
181.8930109252014
 20
161.3888409621027
 10
181.8189236400812
 20
161.6004484198172
 10
181.7292255205402
 20
161.8059256436616
 10
181.624418491866
 20
162.0041228412377
 10
181.5050890245457
 20
162.1939309571165
 10
181.3719048524817
 20
162.3742878788014
 10
181.2256112366331
 20
162.5441843800022
 10
181.0670267946589
 20
162.7026697679728
 10
180.8970389202259
 20
162.8488572033369
 10
180.7165988173674
 20
162.9819286625818
 10
180.5267161778247
 20
163.1011395154722
 10
180.328453531134
 20
163.2058226918228
 10
180.1229202989325
 20
163.2953924141973
 10
179.9112665870425
 20
163.3693474757772
 10
179.6946767497193
 20
163.4272740449726
 10
179.4743627623993
 20
163.4688479810914
 10
179.2515574398212
 20
163.4938366481615
 10
179.027507609886
 20
163.5019674052476
 10
45.08943299002658
 20
163.5019674052476
  0
LWPOLYLINE
  5
CD2
330
1F
100
AcDbEntity
  8
HEWI
100
AcDbPolyline
 90
       24
 70
     0
 43
0.0
 10
45.08943299002658
 20
23.6501492377668
 10
179.0275075387726
 20
23.65002105871195
 10
179.2515529861757
 20
23.65828215337188
 10
179.474354075397
 20
23.6832678050062
 10
179.6946641068061
 20
23.72483820458211
 10
179.9112503196884
 20
23.78276074192268
 10
180.1229007902075
 20
23.85671130727683
 10
180.3284312128253
 20
23.94627610490698
 10
180.5266915271895
 20
24.05095396850225
 10
180.7165723533544
 20
24.1701591654974
 10
180.8970111994185
 20
24.30322467458773
 10
181.0669984067553
 20
24.44940591807636
 10
181.2255827996396
 20
24.60788492823763
 10
181.3718770076193
 20
24.7777749243026
 10
181.5050624308615
 20
24.95812527449157
 10
181.6243938206989
 20
25.14792681537283
 10
181.7292034496913
 20
25.34611749868173
 10
181.8189048479744
 20
25.55158833409774
 10
181.8929960848809
 20
25.76318959468704
 10
181.9510625775328
 20
25.97973725028719
 10
181.9927794106624
 20
26.20001959280699
 10
182.0179131547238
 20
26.42280401645649
 10
182.0261403021741
 20
26.64684395271234
 10
182.0261403021741
 20
160.5051650310666
  0
LWPOLYLINE
  5
CD3
330
1F
100
AcDbEntity
  8
HEWI
100
AcDbPolyline
 90
       22
 70
     0
 43
0.0
 10
45.08943306167203
 20
163.5020872936466
 10
44.86537478593255
 20
163.4938350375124
 10
44.6425603098678
 20
163.4688566492376
 10
44.42223649647167
 20
163.4272919071314
 10
44.2056362710091
 20
163.3693734062056
 10
43.99397172169847
 20
163.2954252566172
 10
43.78842731685927
 20
163.2058612699323
 10
43.5901532766602
 20
163.1011826434722
 10
43.40025913653881
 20
162.9819751556065
 10
43.21980753826756
 20
162.8489058877913
 10
43.0498082834547
 20
162.7027194915557
 10
42.89121268270355
 20
162.544234021477
 10
42.74490823212182
 20
162.374336357377
 10
42.61171364691654
 20
162.1939772413666
 10
42.49237427990101
 20
162.0041659575166
 10
42.38755795050201
 20
161.8059646839468
 10
42.29785120768247
 20
161.6004825488822
 10
42.22375604762055
 20
161.3888694240527
 10
42.16568710455795
 20
161.1723094899865
 10
42.12396933049695
 20
160.9520146094369
 10
42.09883617684318
 20
160.7292175457767
 10
42.09042828794372
 20
160.5051650645417
  0
LWPOLYLINE
  5
CD4
330
1F
100
AcDbEntity
  8
HEWI
100
AcDbPolyline
 90
       23
 70
     0
 43
0.0
 10
42.09077338292536
 20
160.5051650310666
 10
42.09042090848106
 20
26.64684390791245
 10
42.09883526786689
 20
26.42279621583185
 10
42.12397430038072
 20
26.20000438731204
 10
42.16569733238975
 20
25.97971512635632
 10
42.22377088912799
 20
25.76316113303647
 10
42.29787000116721
 20
25.55155420554211
 10
42.38758002285613
 20
25.34607845911733
 10
42.49239895265055
 20
25.14788370001707
 10
42.611740242206
 20
24.95807899135212
 10
42.7449360785713
 20
24.77772644700672
 10
42.89124112121135
 20
24.60783528818165
 10
43.04983667277702
 20
24.44935619601647
 10
43.21983526034819
 20
24.3031759917124
 10
43.40028560165229
 20
24.17011267407684
 10
43.59017792821396
 20
24.05091084208703
 10
43.78844963588199
 20
23.94623752830608
 10
43.99399123093735
 20
23.85667846623146
 10
44.20565253865425
 20
23.7827348126812
 10
44.42224913947121
 20
23.7248203433624
 10
44.64256899680186
 20
23.6832591375126
 10
44.86537923933247
 20
23.65828376432756
 10
45.08943306003494
 20
23.65003398162212
  0
LINE
  5
CD5
330
1F
100
AcDbEntity
  8
HEWI
100
AcDbLine
 10
821.6382836303955
 20
277.2285464270717
 30
0.0
 11
823.051957054532
 21
278.0441189369711
 31
0.0
  0
LINE
  5
CD6
330
1F
100
AcDbEntity
  8
HEWI
100
AcDbLine
 10
891.6101119705954
 20
93.72354744804198
 30
0.0
 11
933.8730368601673
 21
69.33765487099236
 31
0.0
  0
LINE
  5
CD7
330
1F
100
AcDbEntity
  8
HEWI
100
AcDbLine
 10
934.0530431022843
 20
70.38194941868169
 30
0.0
 11
891.6100043113502
 21
94.87162549511168
 31
0.0
  0
LINE
  5
CD8
330
1F
100
AcDbEntity
  8
HEWI
100
AcDbLine
 10
778.5246354602159
 20
37.84000876494161
 30
0.0
 11
778.5246354602159
 21
32.94625072784157
 31
0.0
  0
LWPOLYLINE
  5
CD9
330
1F
100
AcDbEntity
  8
HEWI
100
AcDbPolyline
 90
        3
 70
     0
 43
0.0
 10
532.3544609523796
 20
883.9343993451322
 10
532.3544609523796
 20
884.095888192713
 10
532.3544609523796
 20
884.257161721832
  0
LINE
  5
CDA
330
1F
100
AcDbEntity
  8
HEWI
100
AcDbLine
 10
490.4238262938279
 20
921.8943984944514
 30
0.0
 11
490.4238262938279
 21
919.8964584721768
 31
0.0
  0
LINE
  5
CDB
330
1F
100
AcDbEntity
  8
HEWI
100
AcDbLine
 10
485.4259077647484
 20
919.8964584721768
 30
0.0
 11
485.4259077647484
 21
921.8943984944514
 31
0.0
  0
LWPOLYLINE
  5
CDC
330
1F
100
AcDbEntity
  8
HEWI
100
AcDbPolyline
 90
        3
 70
     0
 43
0.0
 10
944.5468041256017
 20
70.2133550618069
 10
944.5009412911886
 20
70.22218311880607
 10
944.4468963548615
 20
70.20334275326177
  0
LWPOLYLINE
  5
CDD
330
1F
100
AcDbEntity
  8
HEWI
100
AcDbPolyline
 90
        3
 70
     0
 43
0.0
 10
911.1866520739923
 20
89.4621797380708
 10
911.140789239579
 20
89.4710077950711
 10
911.0863136663093
 20
89.4524904072162
  0
LINE
  5
CDE
330
1F
100
AcDbEntity
  8
HEWI
100
AcDbLine
 10
823.7586322777415
 20
276.8205717684671
 30
0.0
 11
822.3451741720774
 21
276.0051069177965
 31
0.0
  0
LINE
  5
CDF
330
1F
100
AcDbEntity
  8
HEWI
100
AcDbLine
 10
943.9111839979624
 20
347.9830009581329
 30
0.0
 11
943.9111839979624
 21
164.2632218118163
 31
0.0
  0
LINE
  5
CE0
330
1F
100
AcDbEntity
  8
HEWI
100
AcDbLine
 10
877.4738083661931
 20
-16.80738661954337
 30
0.0
 11
877.4738083661931
 21
-21.70114465663887
 31
0.0
  0
LINE
  5
CE1
330
1F
100
AcDbEntity
  8
HEWI
100
AcDbLine
 10
873.2332187307211
 20
309.8925726495864
 30
0.0
 11
873.2332187307211
 21
-0.4946445107631874
 31
0.0
  0
LINE
  5
CE2
330
1F
100
AcDbEntity
  8
HEWI
100
AcDbLine
 10
943.9111839979624
 20
66.37508813250207
 30
0.0
 11
943.9111839979624
 21
37.84000876494161
 31
0.0
  0
LINE
  5
CE3
330
1F
100
AcDbEntity
  8
HEWI
100
AcDbLine
 10
907.1591200660067
 20
297.2113917452069
 30
0.0
 11
905.7453389826378
 21
298.0270719143371
 31
0.0
  0
LINE
  5
CE4
330
1F
100
AcDbEntity
  8
HEWI
100
AcDbLine
 10
903.2715450644491
 20
231.3491341923819
 30
0.0
 11
901.8580869587813
 21
232.1648143615121
 31
0.0
  0
LINE
  5
CE5
330
1F
100
AcDbEntity
  8
HEWI
100
AcDbLine
 10
907.1591200660067
 20
235.2234669643113
 30
0.0
 11
905.7453389826378
 21
236.0389318149819
 31
0.0
  0
LINE
  5
CE6
330
1F
100
AcDbEntity
  8
HEWI
100
AcDbLine
 10
482.9271369038734
 20
921.8943984944514
 30
0.0
 11
482.9271369038734
 21
919.8964584721768
 31
0.0
  0
LINE
  5
CE7
330
1F
100
AcDbEntity
  8
HEWI
100
AcDbLine
 10
972.182714614405
 20
32.94625072784157
 30
0.0
 11
972.182714614405
 21
37.84000876494161
 31
0.0
  0
LWPOLYLINE
  5
CE8
330
1F
100
AcDbEntity
  8
HEWI
100
AcDbPolyline
 90
        3
 70
     0
 43
0.0
 10
532.5863051164888
 20
883.9343993451322
 10
532.47046377886
 20
883.9343993451322
 10
532.3544609523796
 20
883.9343993451322
  0
LINE
  5
CE9
330
1F
100
AcDbEntity
  8
HEWI
100
AcDbLine
 10
532.3544609523796
 20
805.6949905583119
 30
0.0
 11
532.3544609523796
 21
883.9343993451322
 31
0.0
  0
LINE
  5
CEA
330
1F
100
AcDbEntity
  8
HEWI
100
AcDbLine
 10
930.8165911583046
 20
62.13686715735121
 30
0.0
 11
891.6103272890586
 21
84.75887088189125
 31
0.0
  0
LINE
  5
CEB
330
1F
100
AcDbEntity
  8
HEWI
100
AcDbLine
 10
822.3451741720774
 20
284.1613703129567
 30
0.0
 11
821.6382836303955
 21
283.7534494839625
 31
0.0
  0
LWPOLYLINE
  5
CEC
330
1F
100
AcDbEntity
  8
HEWI
100
AcDbPolyline
 90
       20
 70
     0
 43
0.0
 10
512.9609081594808
 20
582.3931954688905
 10
512.9536666907652
 20
582.3899579857672
 10
512.946476212779
 20
582.3866087780161
 10
512.9393384491558
 20
582.383148648473
 10
512.9322551108462
 20
582.3795784265517
 10
512.9252278958038
 20
582.3758989680718
 10
512.9182584885038
 20
582.3721111550216
 10
512.9113485595516
 20
582.3682158953667
 10
512.9044997653236
 20
582.3642141228365
 10
512.8977137475212
 20
582.3601067966806
 10
512.8909921328077
 20
582.3558949014668
 10
512.8843365324073
 20
582.3515794468059
 10
512.8777485417194
 20
582.3471614671562
 10
512.8712297399269
 20
582.3426420215375
 10
512.8647816896464
 20
582.3380221932914
 10
512.8584059365275
 20
582.333303089832
 10
512.8521040088762
 20
582.3284858423606
 10
512.8458774173268
 20
582.3235716056169
 10
512.8397276544328
 20
582.318561557573
 10
512.8336561943306
 20
582.3134568991722
  0
LINE
  5
CED
330
1F
100
AcDbEntity
  8
HEWI
100
AcDbLine
 10
873.2332187307211
 20
-21.70114465663887
 30
0.0
 11
873.2332187307211
 21
-16.80738661954337
 31
0.0
  0
LINE
  5
CEE
330
1F
100
AcDbEntity
  8
HEWI
100
AcDbLine
 10
532.3544609523796
 20
883.9343993451322
 30
0.0
 11
525.6252742538263
 21
883.9343993451322
 31
0.0
  0
LINE
  5
CEF
330
1F
100
AcDbEntity
  8
HEWI
100
AcDbLine
 10
932.1580252352806
 20
62.91082937419133
 30
0.0
 11
933.8730368601673
 21
69.33765487099236
 31
0.0
  0
LINE
  5
CF0
330
1F
100
AcDbEntity
  8
HEWI
100
AcDbLine
 10
877.4738083661931
 20
309.6594365832917
 30
0.0
 11
877.4738083661931
 21
-0.4946445107631874
 31
0.0
  0
LINE
  5
CF1
330
1F
100
AcDbEntity
  8
HEWI
100
AcDbLine
 10
806.7959507581972
 20
348.227333584521
 30
0.0
 11
806.7959507581972
 21
37.84000876494161
 31
0.0
  0
LINE
  5
CF2
330
1F
100
AcDbEntity
  8
HEWI
100
AcDbLine
 10
835.0670507376936
 20
268.6643622029206
 30
0.0
 11
835.7739412793844
 21
269.0720677134507
 31
0.0
  0
LINE
  5
CF3
330
1F
100
AcDbEntity
  8
HEWI
100
AcDbLine
 10
905.7453389826378
 20
232.7764802865321
 30
0.0
 11
904.3317732177374
 21
233.5921604556668
 31
0.0
  0
LINE
  5
CF4
330
1F
100
AcDbEntity
  8
HEWI
100
AcDbLine
 10
586.8790730045303
 20
919.8964584721768
 30
0.0
 11
586.8790730045303
 21
921.8943984944514
 31
0.0
  0
LWPOLYLINE
  5
CF5
330
1F
100
AcDbEntity
  8
HEWI
100
AcDbPolyline
 90
       20
 70
     0
 43
0.0
 10
517.4562488631099
 20
578.6350448152129
 10
517.6490993574825
 20
578.4808287519317
 10
517.8446908489886
 20
578.3301042486764
 10
518.0429601311616
 20
578.1829200129172
 10
518.2438431321734
 20
578.0393236080564
 10
518.4472749355754
 20
577.8993614380724
 10
518.653189801249
 20
577.7630787325072
 10
518.8615211866508
 20
577.6305195318875
 10
519.0722017683456
 20
577.5017266734514
 10
519.2851634637291
 20
577.376741777326
 10
519.5003374530424
 20
577.2556052330819
 10
519.7176542016095
 20
577.1383561866614
 10
519.9370434823195
 20
577.0250325277422
 10
520.1584343983186
 20
576.9156708774958
 10
520.3817554058887
 20
576.8103065767568
 10
520.6069343376075
 20
576.7089736745718
 10
520.8338984256497
 20
576.6117049172416
 10
521.0625743253158
 20
576.5185317376969
 10
521.292888138706
 20
576.4294842453771
 10
521.5247654386403
 20
576.3445912164716
  0
LWPOLYLINE
  5
CF6
330
1F
100
AcDbEntity
  8
HEWI
100
AcDbPolyline
 90
       22
 70
     0
 43
0.0
 10
513.3613678367018
 20
584.1752344847029
 10
513.333157917742
 20
584.1440414341023
 10
513.305585566678
 20
584.1122834211305
 10
513.2786620954366
 20
584.0799734749177
 10
513.2523985497082
 20
584.0471248510275
 10
513.2268057044539
 20
584.0137510260306
 10
513.201894059458
 20
583.9798656919774
 10
513.177673835049
 20
583.9454827507413
 10
513.1541549678886
 20
583.9106163083815
 10
513.1313471068834
 20
583.8752806693023
 10
513.1092596092558
 20
583.8394903303922
 10
513.0879015366881
 20
583.803259975102
 10
513.0672816515889
 20
583.7666044674015
 10
513.0474084135548
 20
583.7295388456775
 10
513.028289975824
 20
583.6920783165814
 10
513.0099341819787
 20
583.6542382487707
 10
512.9923485627168
 20
583.6160341666275
 10
512.975540332769
 20
583.577481743857
 10
512.9595163879239
 20
583.5385967970873
 10
512.945653938219
 20
583.4988785873472
 10
512.95297476625
 20
582.9467482174672
 10
512.9604032535153
 20
582.3943486995071
  0
LWPOLYLINE
  5
CF7
330
1F
100
AcDbEntity
  8
HEWI
100
AcDbPolyline
 90
        8
 70
     0
 43
0.0
 10
526.1256743814064
 20
575.5504513390267
 10
526.1256743814064
 20
575.5908235509227
 10
526.1256743814064
 20
575.6299038520373
 10
526.1256743814064
 20
575.6664003315868
 10
526.1256743814064
 20
575.6983212937914
 10
526.1256743814064
 20
575.7247516351774
 10
526.1256743814064
 20
575.7444532745873
 10
526.1256743814064
 20
575.7565649381567
  0
LWPOLYLINE
  5
CF8
330
1F
100
AcDbEntity
  8
HEWI
100
AcDbPolyline
 90
       21
 70
     0
 43
0.0
 10
512.9579270910936
 20
583.5094830216721
 10
512.9589310810261
 20
583.5084552541227
 10
512.9843548008294
 20
583.5331479440115
 10
513.0099204812777
 20
583.5576936248125
 10
513.0356272723347
 20
583.5820914803921
 10
513.0614743192618
 20
583.6063406995422
 10
513.0874607626456
 20
583.6304404759821
 10
513.1135857384706
 20
583.6543900084016
 10
513.1398483780786
 20
583.6781885005016
 10
513.1662478082589
 20
583.7018351609922
 10
513.1927831512403
 20
583.7253292036312
 10
513.2194535247354
 20
583.7486698472523
 10
513.2462580419778
 20
583.7718563157907
 10
513.2731958117128
 20
583.7948878383176
 10
513.3002659382928
 20
583.8177636490318
 10
513.3274675216316
 20
583.8404829873318
 10
513.3547996573051
 20
583.8630450978164
 10
513.3822614365235
 20
583.8854492303014
 10
513.4098519462086
 20
583.9076946398572
 10
513.4375702689712
 20
583.9297805868418
 10
513.465415483216
 20
583.9517063369121
  0
LWPOLYLINE
  5
CF9
330
1F
100
AcDbEntity
  8
HEWI
100
AcDbPolyline
 90
        3
 70
     0
 43
0.0
 10
513.4655942170966
 20
583.9514779975011
 10
513.6137871550463
 20
584.0131667372779
 10
513.6783826964765
 20
584.0390587825059
  0
LWPOLYLINE
  5
CFA
330
1F
100
AcDbEntity
  8
HEWI
100
AcDbPolyline
 90
        8
 70
     0
 43
0.0
 10
526.1256743814064
 20
574.2658075565166
 10
526.1256743814064
 20
574.2765734796919
 10
526.1256743814064
 20
574.2937989567665
 10
526.1256743814064
 20
574.3171071804315
 10
526.1256743814064
 20
574.345583047228
 10
526.1256743814064
 20
574.3784191128972
 10
526.1256743814064
 20
574.4141081482164
 10
526.1256743814064
 20
574.4515197312373
  0
LWPOLYLINE
  5
CFB
330
1F
100
AcDbEntity
  8
HEWI
100
AcDbPolyline
 90
        3
 70
     0
 43
0.0
 10
521.5247492840226
 20
576.3445458321971
 10
521.5746493397782
 20
576.4843413445882
 10
521.5955890611221
 20
576.5433924331817
  0
LWPOLYLINE
  5
CFC
330
1F
100
AcDbEntity
  8
HEWI
100
AcDbPolyline
 90
        3
 70
     0
 43
0.0
 10
517.4562529368459
 20
578.6350498166732
 10
517.551100723509
 20
578.751375616541
 10
517.5914729369024
 20
578.8004143965915
  0
LINE
  5
CFD
330
1F
100
AcDbEntity
  8
HEWI
100
AcDbLine
 10
512.95297476625
 20
583.504692185862
 30
0.0
 11
512.9493143522322
 21
583.501731556988
 31
0.0
  0
LINE
  5
CFE
330
1F
100
AcDbEntity
  8
HEWI
100
AcDbLine
 10
526.1256743814064
 20
574.2623086314913
 30
0.0
 11
526.1256743814064
 21
574.2658075565166
 31
0.0
  0
LINE
  5
CFF
330
1F
100
AcDbEntity
  8
HEWI
100
AcDbLine
 10
526.1256743814064
 20
575.7565649381567
 30
0.0
 11
526.1256743814064
 21
575.7606559889629
 31
0.0
  0
LWPOLYLINE
  5
D00
330
1F
100
AcDbEntity
  8
HEWI
100
AcDbPolyline
 90
        2
 70
     1
 43
0.0
 10
512.9493143522322
 20
583.501731556988
 10
512.9493143522322
 20
583.501731556988
  0
LWPOLYLINE
  5
D01
330
1F
100
AcDbEntity
  8
HEWI
100
AcDbPolyline
 90
        3
 70
     0
 43
0.0
 10
513.3589039145008
 20
584.1775085544973
 10
513.5189393683877
 20
584.2314458295922
 10
513.6025367649208
 20
584.2240711722158
  0
LWPOLYLINE
  5
D02
330
1F
100
AcDbEntity
  8
HEWI
100
AcDbPolyline
 90
       21
 70
     0
 43
0.0
 10
512.9203134112922
 20
583.478792698746
 10
512.9212318567952
 20
583.4772747346116
 10
512.9027605049859
 20
583.466324708472
 10
512.884093044755
 20
583.4557124589967
 10
512.8652356521579
 20
583.4454414972274
 10
512.8461945661329
 20
583.4355152212729
 10
512.8269760863495
 20
583.4259369152116
 10
512.8075865711943
 20
583.4167097480063
 10
512.7880324356338
 20
583.4078367724382
 10
512.7683201490945
 20
583.3993209240973
 10
512.7484562333311
 20
583.3911650204377
 10
512.7284472602659
 20
583.3833717598131
 10
512.7082998498062
 20
583.3759437205978
 10
512.6880206676705
 20
583.3688833603376
 10
512.6676164231648
 20
583.3621930149408
 10
512.6470938669681
 20
583.3558748978825
 10
512.6264597889176
 20
583.3499310994918
 10
512.6057210157441
 20
583.3443635862611
 10
512.5848844087986
 20
583.3391742001809
 10
512.5639568618144
 20
583.3343646581576
 10
512.5429452986154
 20
583.3299365514026
  0
LINE
  5
D03
330
1F
100
AcDbEntity
  8
HEWI
100
AcDbLine
 10
585.5983587365026
 20
575.5504513390267
 30
0.0
 11
526.1256743814064
 21
575.5504513390267
 31
0.0
  0
LWPOLYLINE
  5
D04
330
1F
100
AcDbEntity
  8
HEWI
100
AcDbPolyline
 90
        3
 70
     0
 43
0.0
 10
585.5983587365026
 20
575.5504513390267
 10
585.5983587365026
 20
575.6983212937914
 10
585.5983587365026
 20
575.7606559889629
  0
LWPOLYLINE
  5
D05
330
1F
100
AcDbEntity
  8
HEWI
100
AcDbPolyline
 90
        5
 70
     0
 43
0.0
 10
513.4655942170966
 20
583.9514779975011
 10
513.4380872823713
 20
584.0083759014621
 10
513.4112263030565
 20
584.0651123165773
 10
513.3847959606883
 20
584.1214719243871
 10
513.3589039145008
 20
584.1775085544973
  0
LWPOLYLINE
  5
D06
330
1F
100
AcDbEntity
  8
HEWI
100
AcDbPolyline
 90
        3
 70
     0
 43
0.0
 10
526.1256743814064
 20
574.4515197312373
 10
526.1256743814064
 20
575.0010662795521
 10
526.1256743814064
 20
575.5504513390267
  0
LINE
  5
D07
330
1F
100
AcDbEntity
  8
HEWI
100
AcDbLine
 10
512.9260410821107
 20
583.4824883117764
 30
0.0
 11
512.927438629209
 21
583.483463820173
 31
0.0
  0
LINE
  5
D08
330
1F
100
AcDbEntity
  8
HEWI
100
AcDbLine
 10
585.5983587365026
 20
574.4515197312373
 30
0.0
 11
585.5983587365026
 21
575.5504513390267
 31
0.0
  0
LWPOLYLINE
  5
D09
330
1F
100
AcDbEntity
  8
HEWI
100
AcDbPolyline
 90
        3
 70
     0
 43
0.0
 10
585.5983587365026
 20
574.4515197312373
 10
587.6699377500663
 20
574.4515197312373
 10
588.5280895179321
 20
574.4515197312373
  0
LINE
  5
D0A
330
1F
100
AcDbEntity
  8
HEWI
100
AcDbLine
 10
512.9315440336322
 20
583.4865109095821
 30
0.0
 11
512.9328824566491
 21
583.4875660770214
 31
0.0
  0
LINE
  5
D0B
330
1F
100
AcDbEntity
  8
HEWI
100
AcDbLine
 10
512.9368036220021
 20
583.4908468637374
 30
0.0
 11
512.9380783864198
 21
583.4919781153403
 31
0.0
  0
LINE
  5
D0C
330
1F
100
AcDbEntity
  8
HEWI
100
AcDbLine
 10
512.9380783864198
 20
583.4919781153403
 30
0.0
 11
512.9393365526002
 21
583.4931277989264
 31
0.0
  0
LINE
  5
D0D
330
1F
100
AcDbEntity
  8
HEWI
100
AcDbLine
 10
526.1256743814064
 20
574.4515197312373
 30
0.0
 11
585.5983587365026
 21
574.4515197312373
 31
0.0
  0
LWPOLYLINE
  5
D0E
330
1F
100
AcDbEntity
  8
HEWI
100
AcDbPolyline
 90
        3
 70
     0
 43
0.0
 10
588.5857948682687
 20
575.5504513390267
 10
587.7108482596449
 20
575.5504513390267
 10
585.5983587365026
 20
575.5504513390267
  0
LWPOLYLINE
  5
D0F
330
1F
100
AcDbEntity
  8
HEWI
100
AcDbPolyline
 90
       20
 70
     0
 43
0.0
 10
511.6298290784343
 20
586.2891953170126
 10
511.6634473421582
 20
586.1292978004062
 10
511.6987050449879
 20
585.9697537692657
 10
511.735598472329
 20
585.8105800323969
 10
511.7741237372647
 20
585.6517933595918
 10
511.8142767809659
 20
585.4934104798619
 10
511.856053373077
 20
585.3354480796813
 10
511.8994491122348
 20
585.1779228012308
 10
511.9444594264551
 20
585.0208512406172
 10
511.9910795736641
 20
584.8642499461662
 10
512.039304642195
 20
584.7081354166468
 10
512.0891295512692
 20
584.5525240995479
 10
512.1405490515699
 20
584.3974323893471
 10
512.1935577258009
 20
584.2428766257669
 10
512.2481499891919
 20
584.088873092081
 10
512.3043200901802
 20
583.935438013377
 10
512.3620621109385
 20
583.7825875548376
 10
512.4213699680476
 20
583.6303378200725
 10
512.4822374130972
 20
583.4787048493965
 10
512.5446580333901
 20
583.3277046181408
  0
LWPOLYLINE
  5
D10
330
1F
100
AcDbEntity
  8
HEWI
100
AcDbPolyline
 90
       41
 70
     0
 43
0.0
 10
512.7034230290892
 20
586.5084494971868
 10
512.7255953898484
 20
586.382740601417
 10
512.7491936809528
 20
586.2572915650819
 10
512.7742148599063
 20
586.1321185621225
 10
512.8006557007766
 20
586.0072377309015
 10
512.8285127945773
 20
585.8826651721162
 10
512.8577825497459
 20
585.7584169467165
 10
512.888461192575
 20
585.6345090738259
 10
512.920544767695
 20
585.5109575286983
 10
512.9540291386465
 20
585.3877782406479
 10
512.9889099883312
 20
585.2649870909815
 10
513.0251828196159
 20
585.1425999109867
 10
513.0628429559019
 20
585.0206324798407
 10
513.1018855417151
 20
584.8991005226228
 10
513.1423055433661
 20
584.7780197082577
 10
513.1840977495685
 20
584.6574056475069
 10
513.227256772112
 20
584.537273890962
 10
513.271777046576
 20
584.4176399270154
 10
513.3176528330168
 20
584.2985191799025
 10
513.3613678367018
 20
584.1752344847029
 10
513.333157917742
 20
584.1440414341023
 10
513.305585566678
 20
584.1122834211305
 10
513.2786620954366
 20
584.0799734749177
 10
513.2523985497082
 20
584.0471248510275
 10
513.2268057044539
 20
584.0137510260306
 10
513.201894059458
 20
583.9798656919774
 10
513.177673835049
 20
583.9454827507413
 10
513.1541549678886
 20
583.9106163083815
 10
513.1313471068834
 20
583.8752806693023
 10
513.1092596092558
 20
583.8394903303922
 10
513.0879015366881
 20
583.803259975102
 10
513.0672816515889
 20
583.7666044674015
 10
513.0474084135548
 20
583.7295388456775
 10
513.028289975824
 20
583.6920783165814
 10
513.0099341819787
 20
583.6542382487707
 10
512.9923485627168
 20
583.6160341666275
 10
512.975540332769
 20
583.577481743857
 10
512.9595163879239
 20
583.5385967970873
 10
512.945653938219
 20
583.4988785873472
 10
512.95297476625
 20
582.9467482174672
 10
512.9604032535153
 20
582.3943486995071
  0
LWPOLYLINE
  5
D11
330
1F
100
AcDbEntity
  8
HEWI
100
AcDbPolyline
 90
        3
 70
     0
 43
0.0
 10
512.3821116688905
 20
583.2577757379064
 10
512.4283513106193
 20
583.2773158884672
 10
512.5434928632203
 20
583.3272159423663
  0
LINE
  5
D12
330
1F
100
AcDbEntity
  8
HEWI
100
AcDbLine
 10
512.9393365526002
 20
583.4931277989264
 30
0.0
 11
512.9405778540749
 21
583.4942956709867
 31
0.0
  0
LINE
  5
D13
330
1F
100
AcDbEntity
  8
HEWI
100
AcDbLine
 10
490.8735189213948
 20
919.8964584721768
 30
0.0
 11
490.8735189213948
 21
539.2993271748125
 31
0.0
  0
LWPOLYLINE
  5
D14
330
1F
100
AcDbEntity
  8
HEWI
100
AcDbPolyline
 90
        7
 70
     0
 43
0.0
 10
929.7755263489662
 20
605.7705551509414
 10
929.4144372723939
 20
602.395438236497
 10
928.3550703929822
 20
598.8337478734822
 10
926.6704186725647
 20
595.3275020148011
 10
924.4748162194582
 20
592.1163501102719
 10
921.9176940528258
 20
589.4189480595119
 10
919.1741060899449
 20
587.4185318749064
  0
LWPOLYLINE
  5
D15
330
1F
100
AcDbEntity
  8
HEWI
100
AcDbPolyline
 90
       20
 70
     0
 43
0.0
 10
512.5437619775275
 20
583.3273315809115
 10
512.565034796713
 20
583.2779388255764
 10
512.5863898225325
 20
583.2285815567306
 10
512.6078269958098
 20
583.1792599111927
 10
512.6293462570957
 20
583.129974025687
 10
512.6509475467591
 20
583.0807240368423
 10
512.6726308049056
 20
583.0315100811626
 10
512.6943959714262
 20
582.9823322950878
 10
512.7162429860036
 20
582.933190814932
 10
512.7381717880653
 20
582.8840857769225
 10
512.7601823168206
 20
582.8350173171779
 10
512.7822745112653
 20
582.7859855717165
 10
512.8044483101584
 20
582.7369906764565
 10
512.8267036520228
 20
582.6880327672163
 10
512.849040475181
 20
582.6391119797071
 10
512.8714587176964
 20
582.5902284495371
 10
512.8939583174415
 20
582.5413823122219
 10
512.916539212034
 20
582.4925737031524
 10
512.9392013388869
 20
582.4438027576307
 10
512.9619446351771
 20
582.3950696108611
  0
LINE
  5
D16
330
1F
100
AcDbEntity
  8
HEWI
100
AcDbLine
 10
929.7755263489662
 20
679.1775716627515
 30
0.0
 11
929.7755263489662
 21
605.7705551509414
 31
0.0
  0
LINE
  5
D17
330
1F
100
AcDbEntity
  8
HEWI
100
AcDbLine
 10
777.6463514152774
 20
574.3685104426563
 30
0.0
 11
778.5246354602159
 21
573.1450709333821
 31
0.0
  0
LWPOLYLINE
  5
D18
330
1F
100
AcDbEntity
  8
HEWI
100
AcDbPolyline
 90
        8
 70
     0
 43
0.0
 10
877.4738083661931
 20
661.2333615564764
 10
919.1741060899449
 20
685.2946615498868
 10
921.9176940528258
 20
686.4610416663472
 10
924.4748162194582
 20
686.7141485201218
 10
926.6704186725647
 20
686.0368642933715
 10
928.3550703929822
 20
684.475051818795
 10
929.4144372723939
 20
682.1355090542774
 10
929.7755263489662
 20
679.1775716627515
  0
LINE
  5
D19
330
1F
100
AcDbEntity
  8
HEWI
100
AcDbLine
 10
778.5246354602159
 20
568.2513128962866
 30
0.0
 11
873.2332187307211
 21
513.6040251710372
 31
0.0
  0
LWPOLYLINE
  5
D1A
330
1F
100
AcDbEntity
  8
HEWI
100
AcDbPolyline
 90
        3
 70
     0
 43
0.0
 10
877.4738083661931
 20
513.6040251710372
 10
875.3535673780707
 20
513.0970578488622
 10
873.2332187307211
 20
513.6040251710372
  0
LINE
  5
D1B
330
1F
100
AcDbEntity
  8
HEWI
100
AcDbLine
 10
584.8301024304564
 20
574.2623086314913
 30
0.0
 11
584.8301024304564
 21
539.2993271748125
 31
0.0
  0
LWPOLYLINE
  5
D1C
330
1F
100
AcDbEntity
  8
HEWI
100
AcDbPolyline
 90
        3
 70
     0
 43
0.0
 10
926.4376594049563
 20
685.9118719253424
 10
927.6606683226464
 20
683.4821107246377
 10
928.079462749566
 20
680.3192978151517
  0
LWPOLYLINE
  5
D1D
330
1F
100
AcDbEntity
  8
HEWI
100
AcDbPolyline
 90
        4
 70
     0
 43
0.0
 10
777.6463514152774
 20
574.3685104426563
 10
777.6463514152774
 20
569.4747524055562
 10
777.874804313461
 20
568.8125404712516
 10
778.5246354602159
 20
568.2513128962866
  0
LINE
  5
D1E
330
1F
100
AcDbEntity
  8
HEWI
100
AcDbLine
 10
915.640084018455
 20
773.7909806612017
 30
0.0
 11
918.1136626181714
 21
775.2181114368911
 31
0.0
  0
LINE
  5
D1F
330
1F
100
AcDbEntity
  8
HEWI
100
AcDbLine
 10
943.9111839979624
 20
573.1450709333821
 30
0.0
 11
877.4738083661931
 21
534.8104176576773
 31
0.0
  0
LWPOLYLINE
  5
D20
330
1F
100
AcDbEntity
  8
HEWI
100
AcDbPolyline
 90
        4
 70
     0
 43
0.0
 10
972.182714614405
 20
568.2513128962866
 10
972.8325457611672
 20
568.8125404712516
 10
973.0609986593472
 20
569.4747524055562
 10
973.0609986593472
 20
574.3685104426563
  0
LINE
  5
D21
330
1F
100
AcDbEntity
  8
HEWI
100
AcDbLine
 10
928.079462749566
 20
680.3192978151517
 30
0.0
 11
928.079462749566
 21
603.6165092426759
 31
0.0
  0
LINE
  5
D22
330
1F
100
AcDbEntity
  8
HEWI
100
AcDbLine
 10
806.7959507581972
 20
699.5683378098763
 30
0.0
 11
873.2332187307211
 21
661.2333615564764
 31
0.0
  0
LINE
  5
D23
330
1F
100
AcDbEntity
  8
HEWI
100
AcDbLine
 10
470.8827060789745
 20
539.2993271748125
 30
0.0
 11
470.8827060789745
 21
533.3055609376069
 31
0.0
  0
LINE
  5
D24
330
1F
100
AcDbEntity
  8
HEWI
100
AcDbLine
 10
877.4738083661931
 20
513.6040251710372
 30
0.0
 11
972.182714614405
 21
568.2513128962866
 31
0.0
  0
LINE
  5
D25
330
1F
100
AcDbEntity
  8
HEWI
100
AcDbLine
 10
861.0768761303052
 20
668.2485447546278
 30
0.0
 11
861.0768761303052
 21
642.4074223424057
 31
0.0
  0
LWPOLYLINE
  5
D26
330
1F
100
AcDbEntity
  8
HEWI
100
AcDbPolyline
 90
        3
 70
     0
 43
0.0
 10
585.5983587365026
 20
574.2623086314913
 10
585.5983587365026
 20
574.3171071804315
 10
585.5983587365026
 20
574.4515197312373
  0
LINE
  5
D27
330
1F
100
AcDbEntity
  8
HEWI
100
AcDbLine
 10
526.0354021122666
 20
574.2624701203371
 30
0.0
 11
526.0375552969763
 21
574.2624701203371
 31
0.0
  0
LINE
  5
D28
330
1F
100
AcDbEntity
  8
HEWI
100
AcDbLine
 10
584.8301024304564
 20
919.8964584721768
 30
0.0
 11
584.8301024304564
 21
694.1353725316319
 31
0.0
  0
LWPOLYLINE
  5
D29
330
1F
100
AcDbEntity
  8
HEWI
100
AcDbPolyline
 90
        3
 70
     0
 43
0.0
 10
805.9175590540244
 20
591.3980477162263
 10
778.5246354602159
 20
575.591949951927
 10
777.6463514152774
 20
574.3685104426563
  0
LWPOLYLINE
  5
D2A
330
1F
100
AcDbEntity
  8
HEWI
100
AcDbPolyline
 90
        3
 70
     0
 43
0.0
 10
873.2332187307211
 20
661.2333615564764
 10
875.3535673780707
 20
660.7267172119966
 10
877.4738083661931
 20
661.2333615564764
  0
LINE
  5
D2B
330
1F
100
AcDbEntity
  8
HEWI
100
AcDbLine
 10
604.8208076136461
 20
533.3055609376069
 30
0.0
 11
604.8208076136461
 21
539.2993271748125
 31
0.0
  0
LWPOLYLINE
  5
D2C
330
1F
100
AcDbEntity
  8
HEWI
100
AcDbPolyline
 90
        5
 70
     0
 43
0.0
 10
918.1136626181714
 20
840.4688645535463
 10
915.640084018455
 20
839.0416261186262
 10
914.6407909925756
 20
837.9871039439205
 10
914.2267335720307
 20
836.5947471000765
 10
914.2267335720307
 20
774.6064993414859
  0
LINE
  5
D2D
330
1F
100
AcDbEntity
  8
HEWI
100
AcDbLine
 10
805.9477036400231
 20
350.3501044859709
 30
0.0
 11
810.8951838171661
 21
347.4954122976661
 31
0.0
  0
LWPOLYLINE
  5
D2E
330
1F
100
AcDbEntity
  8
HEWI
100
AcDbPolyline
 90
        4
 70
     0
 43
0.0
 10
805.9175590540244
 20
882.7341563793709
 10
805.9175590540244
 20
700.7916696599172
 10
806.1459042929699
 20
700.1294577256023
 10
806.7959507581972
 20
699.5683378098763
  0
LINE
  5
D2F
330
1F
100
AcDbEntity
  8
HEWI
100
AcDbLine
 10
914.2267335720307
 20
774.6064993414859
 30
0.0
 11
916.7000968532729
 21
776.0339530948715
 31
0.0
  0
LINE
  5
D30
330
1F
100
AcDbEntity
  8
HEWI
100
AcDbLine
 10
805.0694195950846
 20
351.5733825064026
 30
0.0
 11
805.9477036400231
 21
350.3501044859709
 31
0.0
  0
LWPOLYLINE
  5
D31
330
1F
100
AcDbEntity
  8
HEWI
100
AcDbPolyline
 90
        3
 70
     0
 43
0.0
 10
918.1136626181714
 20
775.2181114368911
 10
919.1133862809975
 20
776.2727412708266
 10
919.5272283830718
 20
777.6652057739013
  0
LWPOLYLINE
  5
D32
330
1F
100
AcDbEntity
  8
HEWI
100
AcDbPolyline
 90
        3
 70
     0
 43
0.0
 10
919.5272283830718
 20
839.653238214027
 10
919.1133862809975
 20
840.5679110467261
 10
918.1136626181714
 20
840.4688645535463
  0
LINE
  5
D33
330
1F
100
AcDbEntity
  8
HEWI
100
AcDbLine
 10
859.0977764002118
 20
646.5521951044209
 30
0.0
 11
859.0977764002118
 21
669.3907015439529
 31
0.0
  0
LWPOLYLINE
  5
D34
330
1F
100
AcDbEntity
  8
HEWI
100
AcDbPolyline
 90
        7
 70
     0
 43
0.0
 10
946.768460113758
 20
351.9813571650062
 10
945.8901760688158
 20
353.204689015046
 10
878.3926799429892
 20
392.151277363852
 10
876.2723312956396
 20
392.6580293675616
 10
874.1520903075297
 20
392.151277363852
 10
805.9477036400231
 20
352.7969296749066
 10
805.0694195950846
 20
351.5733825064026
  0
LWPOLYLINE
  5
D35
330
1F
100
AcDbEntity
  8
HEWI
100
AcDbPolyline
 90
        3
 70
     0
 43
0.0
 10
916.7000968532729
 20
776.0339530948715
 10
917.6998205160989
 20
777.0883676103415
 10
918.1136626181714
 20
778.4809397726523
  0
LINE
  5
D36
330
1F
100
AcDbEntity
  8
HEWI
100
AcDbLine
 10
945.8901760688158
 20
350.7577561668816
 30
0.0
 11
946.768460113758
 21
351.9813571650062
 31
0.0
  0
LWPOLYLINE
  5
D37
330
1F
100
AcDbEntity
  8
HEWI
100
AcDbPolyline
 90
        4
 70
     0
 43
0.0
 10
943.9111839979624
 20
573.1450709333821
 10
944.5612304631913
 20
573.7064061675769
 10
944.7896833613695
 20
574.3685104426563
 10
944.7896833613695
 20
883.7943844933572
  0
LWPOLYLINE
  5
D38
330
1F
100
AcDbEntity
  8
HEWI
100
AcDbPolyline
 90
        3
 70
     0
 43
0.0
 10
873.4455227435491
 20
311.403516137166
 10
875.5655484131958
 20
310.8967103038415
 10
877.6860047197761
 20
311.403516137166
  0
LWPOLYLINE
  5
D39
330
1F
100
AcDbEntity
  8
HEWI
100
AcDbPolyline
 90
        3
 70
     0
 43
0.0
 10
925.9303690862825
 20
686.3867567964623
 10
927.7358144691707
 20
683.7749438349171
 10
928.3619605840712
 20
679.9930903430313
  0
LINE
  5
D3A
330
1F
100
AcDbEntity
  8
HEWI
100
AcDbLine
 10
868.4978272479375
 20
314.2583698143213
 30
0.0
 11
873.4455227435491
 21
311.403516137166
 31
0.0
  0
LWPOLYLINE
  5
D3B
330
1F
100
AcDbEntity
  8
HEWI
100
AcDbPolyline
 90
        3
 70
     0
 43
0.0
 10
914.2267335720307
 20
774.6064993414859
 10
914.6407909925756
 20
773.6920418272509
 10
915.640084018455
 20
773.7909806612017
  0
LINE
  5
D3C
330
1F
100
AcDbEntity
  8
HEWI
100
AcDbLine
 10
919.5272283830718
 20
777.6652057739013
 30
0.0
 11
919.5272283830718
 21
839.653238214027
 31
0.0
  0
LWPOLYLINE
  5
D3D
330
1F
100
AcDbEntity
  8
HEWI
100
AcDbPolyline
 90
        3
 70
     0
 43
0.0
 10
858.614171113396
 20
642.6212335766072
 10
858.9761214638556
 20
644.6347841874776
 10
859.0977764002118
 20
646.5521951044209
  0
LWPOLYLINE
  5
D3E
330
1F
100
AcDbEntity
  8
HEWI
100
AcDbPolyline
 90
        3
 70
     0
 43
0.0
 10
865.6705880589024
 20
314.2583698143213
 10
867.0841538237974
 20
314.5960429946118
 10
868.4978272479375
 20
314.2583698143213
  0
LWPOLYLINE
  5
D3F
330
1F
100
AcDbEntity
  8
HEWI
100
AcDbPolyline
 90
        3
 70
     0
 43
0.0
 10
877.4738083661931
 20
534.8104176576773
 10
875.3535673780707
 20
534.3034503355059
 10
873.2332187307211
 20
534.8104176576773
  0
LWPOLYLINE
  5
D40
330
1F
100
AcDbEntity
  8
HEWI
100
AcDbPolyline
 90
        4
 70
     0
 43
0.0
 10
805.9175590540244
 20
601.8014822550972
 10
805.9175590540244
 20
574.3685104426563
 10
806.1459042929699
 20
573.7064061675769
 10
806.7959507581972
 20
573.1450709333821
  0
LWPOLYLINE
  5
D41
330
1F
100
AcDbEntity
  8
HEWI
100
AcDbPolyline
 90
        3
 70
     0
 43
0.0
 10
928.3619605840712
 20
606.5861814904567
 10
928.2842306158919
 20
605.0615114508266
 10
928.0521173036968
 20
603.4695543913758
  0
LINE
  5
D42
330
1F
100
AcDbEntity
  8
HEWI
100
AcDbLine
 10
863.9039000008642
 20
313.2386215714624
 30
0.0
 11
865.6705880589024
 21
314.2583698143213
 31
0.0
  0
LWPOLYLINE
  5
D43
330
1F
100
AcDbEntity
  8
HEWI
100
AcDbPolyline
 90
        3
 70
     0
 43
0.0
 10
859.6630950469361
 20
313.2386215714624
 10
861.7835513535201
 20
312.7319233973711
 10
863.9039000008642
 20
313.2386215714624
  0
LWPOLYLINE
  5
D44
330
1F
100
AcDbEntity
  8
HEWI
100
AcDbPolyline
 90
        3
 70
     0
 43
0.0
 10
860.2363804771002
 20
642.8106061652024
 10
860.442332595022
 20
644.3039473684009
 10
860.5110191874073
 20
645.7364611056768
  0
LWPOLYLINE
  5
D45
330
1F
100
AcDbEntity
  8
HEWI
100
AcDbPolyline
 90
        3
 70
     0
 43
0.0
 10
810.8951838171661
 20
347.4954122976661
 10
811.4808500594381
 20
346.6797859581518
 10
810.8951838171661
 20
345.8639443001701
  0
LWPOLYLINE
  5
D46
330
1F
100
AcDbEntity
  8
HEWI
100
AcDbPolyline
 90
        3
 70
     0
 43
0.0
 10
810.8951838171661
 20
345.8639443001701
 10
809.1282804406592
 20
344.8444652053971
 10
808.2499963957207
 20
343.6210795257367
  0
LINE
  5
D47
330
1F
100
AcDbEntity
  8
HEWI
100
AcDbLine
 10
873.2332187307211
 20
534.8104176576773
 30
0.0
 11
806.7959507581972
 21
573.1450709333821
 31
0.0
  0
LINE
  5
D48
330
1F
100
AcDbEntity
  8
HEWI
100
AcDbLine
 10
877.6860047197761
 20
311.403516137166
 30
0.0
 11
945.8901760688158
 21
350.7577561668816
 31
0.0
  0
LINE
  5
D49
330
1F
100
AcDbEntity
  8
HEWI
100
AcDbLine
 10
918.1136626181714
 20
778.4809397726523
 30
0.0
 11
918.1136626181714
 21
840.4688645535463
 31
0.0
  0
LINE
  5
D4A
330
1F
100
AcDbEntity
  8
HEWI
100
AcDbLine
 10
809.1282804406592
 20
342.3977476756923
 30
0.0
 11
859.6630950469361
 21
313.2386215714624
 31
0.0
  0
LINE
  5
D4B
330
1F
100
AcDbEntity
  8
HEWI
100
AcDbLine
 10
808.2499963957207
 20
343.6210795257367
 30
0.0
 11
809.1282804406592
 21
342.3977476756923
 31
0.0
  0
LINE
  5
D4C
330
1F
100
AcDbEntity
  8
HEWI
100
AcDbLine
 10
860.5110191874073
 20
645.7364611056768
 30
0.0
 11
860.5110191874073
 21
668.5751828636673
 31
0.0
  0
LWPOLYLINE
  5
D4D
330
1F
100
AcDbEntity
  8
HEWI
100
AcDbPolyline
 90
        3
 70
     0
 43
0.0
 10
877.6860047197761
 20
309.7722096285216
 10
875.5655484131958
 20
309.2654576248131
 10
873.4455227435491
 20
309.7722096285216
  0
LINE
  5
D4E
330
1F
100
AcDbEntity
  8
HEWI
100
AcDbLine
 10
928.3619605840712
 20
679.9930903430313
 30
0.0
 11
928.3619605840712
 21
606.5861814904567
 31
0.0
  0
LWPOLYLINE
  5
D4F
330
1F
100
AcDbEntity
  8
HEWI
100
AcDbPolyline
 90
       51
 70
     0
 43
0.0
 10
902.3527811468785
 20
42.46343447118106
 10
901.9895388855902
 20
42.26114277478159
 10
901.628557468247
 20
42.07424634851149
 10
901.2689756209683
 20
41.90263753315121
 10
900.911116321463
 20
41.74577803253241
 10
900.5549795697252
 20
41.60399082435588
 10
900.2003500472882
 20
41.47738356785253
 10
899.8474430726265
 20
41.36574094455595
 10
899.4960433272636
 20
41.26938593217146
 10
899.4085163686314
 20
41.24763876736124
 10
899.3213123877021
 20
41.22707585410608
 10
899.2342160660145
 20
41.20737421469612
 10
899.1476580404915
 20
41.18864150837707
 10
898.9754032633564
 20
41.15429821346224
 10
898.8043327378136
 20
41.12404596935248
 10
898.466175078439
 20
41.07549165584173
 10
898.1335080400867
 20
41.0426555901668
 10
897.8060086450486
 20
41.02564543155749
 10
897.4834615748649
 20
41.02435352077036
 10
897.1664051256857
 20
41.03888751705681
 10
896.8540856828903
 20
41.06892444270584
 10
896.5471492018687
 20
41.11543323080609
 10
896.2455956826406
 20
41.17766026674217
 10
896.1710954915279
 20
41.19574701767105
 10
896.0968106188911
 20
41.21491036092066
 10
896.0232793608929
 20
41.2349349780166
 10
895.9505017175533
 20
41.25614384666646
 10
895.8059153639942
 20
41.30103774629588
 10
895.6635898543854
 20
41.34991503749602
 10
895.3851830708289
 20
41.45908149846177
 10
895.1153890261366
 20
41.58332025186637
 10
894.8533464464153
 20
41.72284661617623
 10
894.5997012870748
 20
41.87766059139135
 10
894.3543458888916
 20
42.04754685904531
 10
894.1165266371999
 20
42.23282839683775
 10
894.0006852995784
 20
42.33133659386139
 10
893.8868894874312
 20
42.43382818246145
 10
893.8305837071483
 20
42.48658120600253
 10
893.7748162230537
 20
42.54019550340131
 10
893.719802353603
 20
42.59488639311739
 10
893.6650038026265
 20
42.65054621591189
 10
893.5575598853857
 20
42.76444968307742
 10
893.4525921305713
 20
42.88179824565218
 10
893.3496699012275
 20
43.00291488133693
 10
893.2485778788931
 20
43.12790724936149
 10
893.1492084043302
 20
43.25677534973151
 10
893.0517767960109
 20
43.38962684167682
 10
893.003545458413
 20
43.45766747612088
 10
892.9552064615736
 20
43.52667704365699
 10
892.9070827832138
 20
43.59697852197114
 10
892.8587437863743
 20
43.66867957029653
  0
LWPOLYLINE
  5
D50
330
1F
100
AcDbEntity
  8
HEWI
100
AcDbPolyline
 90
        4
 70
     0
 43
0.0
 10
809.1282804406592
 20
340.7664411670467
 10
808.4782339754301
 20
341.3276149123922
 10
808.2499963957207
 20
341.9897730170865
 10
808.2499963957207
 20
343.6210795257367
  0
LINE
  5
D51
330
1F
100
AcDbEntity
  8
HEWI
100
AcDbLine
 10
809.1282804406592
 20
340.7664411670467
 30
0.0
 11
859.6630950469361
 21
311.6073688924306
 31
0.0
  0
LWPOLYLINE
  5
D52
330
1F
100
AcDbEntity
  8
HEWI
100
AcDbPolyline
 90
        4
 70
     0
 43
0.0
 10
945.8901760688158
 20
349.1265034878532
 10
946.5402225340504
 20
349.6879463812766
 10
946.768460113758
 20
350.3501044859709
 10
946.768460113758
 20
351.9813571650062
  0
LWPOLYLINE
  5
D53
330
1F
100
AcDbEntity
  8
HEWI
100
AcDbPolyline
 90
        4
 70
     0
 43
0.0
 10
805.9477036400231
 20
348.7187979773253
 10
805.2978724932644
 20
349.2801870411316
 10
805.0694195950846
 20
349.9421298273663
 10
805.0694195950846
 20
351.5733825064026
  0
LWPOLYLINE
  5
D54
330
1F
100
AcDbEntity
  8
HEWI
100
AcDbPolyline
 90
        3
 70
     0
 43
0.0
 10
868.4978272479375
 20
312.6269018168264
 10
867.0841538237974
 20
312.9647903155822
 10
865.6705880589024
 20
312.6269018168264
  0
LWPOLYLINE
  5
D55
330
1F
100
AcDbEntity
  8
HEWI
100
AcDbPolyline
 90
        3
 70
     0
 43
0.0
 10
863.9039000008642
 20
311.6073688924306
 10
861.7835513535201
 20
311.1006168887221
 10
859.6630950469361
 20
311.6073688924306
  0
LINE
  5
D56
330
1F
100
AcDbEntity
  8
HEWI
100
AcDbLine
 10
805.9477036400231
 20
348.7187979773253
 30
0.0
 11
810.8951838171661
 21
345.8639443001701
 31
0.0
  0
LINE
  5
D57
330
1F
100
AcDbEntity
  8
HEWI
100
AcDbLine
 10
863.9039000008642
 20
311.6073688924306
 30
0.0
 11
865.6705880589024
 21
312.6269018168264
 31
0.0
  0
LINE
  5
D58
330
1F
100
AcDbEntity
  8
HEWI
100
AcDbLine
 10
893.6204328790436
 20
42.43425881938633
 30
0.0
 11
894.831706940039
 21
41.73533508705559
 31
0.0
  0
LINE
  5
D59
330
1F
100
AcDbEntity
  8
HEWI
100
AcDbLine
 10
877.6860047197761
 20
309.7722096285216
 30
0.0
 11
945.8901760688158
 21
349.1265034878532
 31
0.0
  0
LINE
  5
D5A
330
1F
100
AcDbEntity
  8
HEWI
100
AcDbLine
 10
868.4978272479375
 20
312.6269018168264
 30
0.0
 11
873.4455227435491
 21
309.7722096285216
 31
0.0
  0
LWPOLYLINE
  5
D5B
330
1F
100
AcDbEntity
  8
HEWI
100
AcDbPolyline
 90
       34
 70
     0
 43
0.0
 10
893.4675567643271
 20
45.26828043520167
 10
893.3522537228881
 20
45.4562534537868
 10
893.2279073056371
 20
45.65004007088673
 10
893.1623428310876
 20
45.74897890483639
 10
893.0945175125916
 20
45.84920964956636
 10
893.059528260982
 20
45.89980948847624
 10
893.0240007131988
 20
45.95062464585253
 10
893.0061292800738
 20
45.97635520222666
 10
892.9879348692329
 20
46.00187044014687
 10
892.9694174806892
 20
46.02770865575535
 10
892.9509000921562
 20
46.05354687137178
 10
892.8000695029178
 20
46.25917600395751
 10
892.642779359544
 20
46.46362088499613
 10
892.56160429582
 20
46.56557417743697
 10
892.4784913658468
 20
46.66677385525104
 10
892.4362889454451
 20
46.71715837569563
 10
892.3937635473384
 20
46.76775821460664
 10
892.3506998530546
 20
46.81792741659164
 10
892.3073131810587
 20
46.86788130010568
 10
892.2194632447199
 20
46.96692779329196
 10
892.130752034499
 20
47.06414407953189
 10
892.1085742319329
 20
47.0881520882122
 10
892.0861811109089
 20
47.1118371191872
 10
892.0805828306502
 20
47.11786603616274
 10
892.0751998688674
 20
47.12367963467641
 10
892.06938627014
 20
47.12970855165194
 10
892.0638956491156
 20
47.13573746862635
 10
892.0529144070778
 20
47.14757998411669
 10
892.0418255057985
 20
47.1594224996059
 10
891.9971469229777
 20
47.20646958387106
 10
891.9524683401551
 20
47.25308603120111
 10
891.8619269229193
 20
47.34459637816626
 10
891.7704165725618
 20
47.4339535404968
 10
891.7582510789316
 20
47.44558073752073
  0
LWPOLYLINE
  5
D5C
330
1F
100
AcDbEntity
  8
HEWI
100
AcDbPolyline
 90
       39
 70
     0
 43
0.0
 10
893.586348894979
 20
45.35599399064181
 10
893.6715144100935
 20
45.16522758339561
 10
893.7646171172772
 20
44.97820653346166
 10
893.8654927045126
 20
44.79526090433096
 10
893.9739631418296
 20
44.61671356701599
 10
894.0898369955348
 20
44.44287963021706
 10
894.2129097660391
 20
44.2740658841913
 10
894.3429642487307
 20
44.11057025934524
 10
894.4797709173972
 20
43.95268130039567
 10
894.6230883292255
 20
43.80067765717767
 10
894.7726635509344
 20
43.6548275928274
 10
894.9282326051788
 20
43.51538851036621
 10
895.0895209364089
 20
43.3826064984069
 10
895.2562438954183
 20
43.25671589686208
 10
895.4281072417607
 20
43.13793888334685
 10
895.6048076629258
 20
43.02648508110137
 10
895.7860333097697
 20
42.9225511890118
 10
895.9714643467659
 20
42.82632063447095
 10
896.1607735165589
 20
42.73796324966183
 10
896.3552458812273
 20
42.66134637280202
 10
896.4989348904556
 20
42.614314369562
 10
896.6438497488443
 20
42.57120724084216
 10
896.7898832699438
 20
42.53205687089148
 10
896.9369274398914
 20
42.49689221732096
 10
897.0848734972777
 20
42.46573928971229
 10
897.2336120136196
 20
42.43862113036612
 10
897.3830329743131
 20
42.41555779726268
 10
897.5330258599433
 20
42.39656634922112
 10
897.6834797281071
 20
42.38166083328706
 10
897.8342832954103
 20
42.37085227434618
 10
897.9853250198093
 20
42.36414866696605
 10
898.136493183124
 20
42.36155496947076
 10
898.287675973629
 20
42.36307310029615
 10
898.4387615687946
 20
42.36870193655732
 10
898.5896382179808
 20
42.37843731487173
 10
898.7401943250834
 20
42.39227203446175
 10
898.8903185311018
 20
42.41019586245697
 10
899.0398997964794
 20
42.43219554147713
 10
899.1888274832662
 20
42.45825479943191
  0
LWPOLYLINE
  5
D5D
330
1F
100
AcDbEntity
  8
HEWI
100
AcDbPolyline
 90
       22
 70
     0
 43
0.0
 10
893.4675567643271
 20
45.26828043520167
 10
893.5536841529019
 20
45.39294982553115
 10
893.5028516945612
 20
45.48116276182695
 10
893.425581020273
 20
45.60524504637128
 10
893.3464291882765
 20
45.72813588393187
 10
893.2654145659316
 20
45.84980675741717
 10
893.1825559528761
 20
45.97022943281699
 10
893.097872576628
 20
46.08937596578726
 10
893.0113840881595
 20
46.20721870810625
 10
892.9231105573117
 20
46.3237303140957
 10
892.83307246817
 20
46.43888374697694
 10
892.7412907142615
 20
46.5526522851374
 10
892.6477865937513
 20
46.66500952832648
 10
892.5525818044979
 20
46.77592940380264
 10
892.4556984389756
 20
46.88538617234171
 10
892.3571589791855
 20
46.9933544342703
 10
892.2569862914233
 20
47.09980913530698
 10
892.1552036210041
 20
47.20472557239104
 10
892.0518345868231
 20
47.30807939943161
 10
891.9469031758845
 20
47.40984663294084
 10
891.8404337377788
 20
47.51000365760119
 10
891.7324509789605
 20
47.60852723175189
  0
LWPOLYLINE
  5
D5E
330
1F
100
AcDbEntity
  8
HEWI
100
AcDbPolyline
 90
       57
 70
     0
 43
0.0
 10
893.0975319711897
 20
43.69139566819199
 10
893.0975319711897
 20
43.69139566819199
 10
893.1039915253268
 20
43.68289058888108
 10
893.1104510794785
 20
43.67449316880565
 10
893.12337018776
 20
43.65769832866162
 10
893.1359663183421
 20
43.64090348851191
 10
893.1615892164437
 20
43.60720614898155
 10
893.186566159121
 20
43.57372412791646
 10
893.236412385254
 20
43.50729838194665
 10
893.2858279744495
 20
43.44141093213266
 10
893.3848744713078
 20
43.31232751329621
 10
893.485105219751
 20
43.18658153065171
 10
893.5860895828509
 20
43.06438830264624
 10
893.6890118121946
 20
42.94553251082702
 10
893.7940872262434
 20
42.83012181442159
 10
893.9008851880672
 20
42.71826387266655
 10
893.9552531021082
 20
42.66357298295274
 10
894.0097286753726
 20
42.60995868555624
 10
894.0651731817697
 20
42.55699034355102
 10
894.1211559843386
 20
42.50520625309177
 10
894.2340905225965
 20
42.4043295529671
 10
894.3490705863396
 20
42.30722092595697
 10
894.5845213348411
 20
42.12463086895609
 10
894.8277235483137
 20
41.95700544516653
 10
895.0790002044696
 20
41.8044523138215
 10
895.338028325591
 20
41.66664849721683
 10
895.6050232301558
 20
41.54380931382688
 10
895.8804155551034
 20
41.43625774133652
 10
896.0212338354168
 20
41.38802640552653
 10
896.1639899819701
 20
41.34356314282654
 10
896.2363369883723
 20
41.32256959264196
 10
896.309114631712
 20
41.3027602940022
 10
896.3823229119944
 20
41.28381226922129
 10
896.4559618292287
 20
41.26604849598634
 10
896.7542855713791
 20
41.20435975621176
 10
897.0578846160888
 20
41.15871224196125
 10
897.3662206671715
 20
41.12878297554202
 10
897.6800473392676
 20
41.11457195695748
 10
897.9988263362166
 20
41.11575620850572
 10
898.3226653172378
 20
41.13244338942108
 10
898.6517796008039
 20
41.16495647740207
 10
898.9860615276947
 20
41.21275717628718
 10
899.1548712092944
 20
41.24268644270187
 10
899.3250804609534
 20
41.27659910069637
 10
899.4107772125781
 20
41.29500882931693
 10
899.4970122603799
 20
41.31438749103181
 10
899.5832473081819
 20
41.33495040428697
 10
899.6699129929357
 20
41.35637459139643
 10
900.0172216873389
 20
41.45154535224178
 10
900.3661452702862
 20
41.56178840552143
 10
900.7163607640531
 20
41.68710375124674
 10
901.0686217833017
 20
41.82716841171241
 10
901.422390031853
 20
41.98209004616187
 10
901.7777731689411
 20
42.15197631381243
 10
901.9563798409862
 20
42.24251772769121
 10
902.134771194559
 20
42.33671955545132
 10
902.2077641563782
 20
42.37612283426215
  0
LWPOLYLINE
  5
D5F
330
1F
100
AcDbEntity
  8
HEWI
100
AcDbPolyline
 90
       39
 70
     0
 43
0.0
 10
893.5762174288274
 20
45.11733965990088
 10
893.6641016484818
 20
44.9241780351022
 10
893.7599519897768
 20
44.73484298408748
 10
893.8636022248456
 20
44.54966286000654
 10
893.9748725989147
 20
44.36895881035666
 10
894.0935701420048
 20
44.19304422001601
 10
894.2194890036544
 20
44.02222416778186
 10
894.3524108098291
 20
43.85679489727663
 10
894.4921050417224
 20
43.69704330320614
 10
894.6383294354664
 20
43.54324643377167
 10
894.7908304023121
 20
43.39567101026232
 10
894.9493434683835
 20
43.25457296444169
 10
895.1135937333846
 20
43.12019699473267
 10
895.2832963472928
 20
42.99277614182101
 10
895.4581570044002
 20
42.87253138455212
 10
895.6378724536799
 20
42.75967125665174
 10
895.8221310247381
 20
42.65439148509613
 10
896.0106131682596
 20
42.55687465068745
 10
896.2029920102677
 20
42.46728987139163
 10
896.4007000247248
 20
42.38987948200615
 10
896.546760746397
 20
42.34228547683669
 10
896.6940590247531
 20
42.29867193580076
 10
896.8424864056204
 20
42.2590709710917
 10
896.9919336034354
 20
42.2235117404969
 10
897.1422905818007
 20
42.19202042590182
 10
897.2934466344259
 20
42.16462021403713
 10
897.4452904666804
 20
42.14133127939162
 10
897.5977102775424
 20
42.12217076937036
 10
897.7505938418572
 20
42.10715279165611
 10
897.903828593072
 20
42.09628840383202
 10
898.0573017060223
 20
42.08958560522119
 10
898.210900180048
 20
42.087049331042
 10
898.3645109221971
 20
42.08868144871217
 10
898.5180208304692
 20
42.09448075652658
 10
898.6713168771157
 20
42.1044429845213
 10
898.8242861918525
 20
42.11856079760678
 10
898.9768161449546
 20
42.13682380098162
 10
899.128794430212
 20
42.15921854778144
 10
899.280109147584
 20
42.18572854900144
  0
LWPOLYLINE
  5
D60
330
1F
100
AcDbEntity
  8
HEWI
100
AcDbPolyline
 90
       58
 70
     0
 43
0.0
 10
893.090964757811
 20
43.69990074749607
 10
893.0943021941175
 20
43.69559437822686
 10
893.0975319711897
 20
43.69139566819199
 10
893.1039915253268
 20
43.68289058888108
 10
893.1104510794785
 20
43.67449316880565
 10
893.12337018776
 20
43.65769832866162
 10
893.1359663183421
 20
43.64090348851191
 10
893.1615892164437
 20
43.60720614898155
 10
893.186566159121
 20
43.57372412791646
 10
893.236412385254
 20
43.50729838194665
 10
893.2858279744495
 20
43.44141093213266
 10
893.3848744713078
 20
43.31232751329621
 10
893.485105219751
 20
43.18658153065171
 10
893.5860895828509
 20
43.06438830264624
 10
893.6890118121946
 20
42.94553251082702
 10
893.7940872262434
 20
42.83012181442159
 10
893.9008851880672
 20
42.71826387266655
 10
893.9552531021082
 20
42.66357298295274
 10
894.0097286753726
 20
42.60995868555624
 10
894.0651731817697
 20
42.55699034355102
 10
894.1211559843386
 20
42.50520625309177
 10
894.2340905225965
 20
42.4043295529671
 10
894.3490705863396
 20
42.30722092595697
 10
894.5845213348411
 20
42.12463086895609
 10
894.8277235483137
 20
41.95700544516653
 10
895.0790002044696
 20
41.8044523138215
 10
895.338028325591
 20
41.66664849721683
 10
895.6050232301558
 20
41.54380931382688
 10
895.8804155551034
 20
41.43625774133652
 10
896.0212338354168
 20
41.38802640552653
 10
896.1639899819701
 20
41.34356314282654
 10
896.2363369883723
 20
41.32256959264196
 10
896.309114631712
 20
41.3027602940022
 10
896.3823229119944
 20
41.28381226922129
 10
896.4559618292287
 20
41.26604849598634
 10
896.7542855713791
 20
41.20435975621176
 10
897.0578846160888
 20
41.15871224196125
 10
897.3662206671715
 20
41.12878297554202
 10
897.6800473392676
 20
41.11457195695748
 10
897.9988263362166
 20
41.11575620850572
 10
898.3226653172378
 20
41.13244338942108
 10
898.6517796008039
 20
41.16495647740207
 10
898.9860615276947
 20
41.21275717628718
 10
899.1548712092944
 20
41.24268644270187
 10
899.3250804609534
 20
41.27659910069637
 10
899.4107772125781
 20
41.29500882931693
 10
899.4970122603799
 20
41.31438749103181
 10
899.5832473081819
 20
41.33495040428697
 10
899.6699129929357
 20
41.35637459139643
 10
900.0172216873389
 20
41.45154535224178
 10
900.3661452702862
 20
41.56178840552143
 10
900.7163607640531
 20
41.68710375124674
 10
901.0686217833017
 20
41.82716841171241
 10
901.422390031853
 20
41.98209004616187
 10
901.7777731689411
 20
42.15197631381243
 10
901.9563798409862
 20
42.24251772769121
 10
902.134771194559
 20
42.33671955545132
 10
902.2077641563782
 20
42.37612283426215
  0
LINE
  5
D61
330
1F
100
AcDbEntity
  8
HEWI
100
AcDbLine
 10
893.0841822259672
 20
43.70829816756581
 30
0.0
 11
893.0874120030285
 21
43.70409945753208
 31
0.0
  0
LWPOLYLINE
  5
D62
330
1F
100
AcDbEntity
  8
HEWI
100
AcDbPolyline
 90
        3
 70
     0
 43
0.0
 10
893.5667109204178
 20
45.11325114152128
 10
893.6390579268163
 20
45.24287285651694
 10
893.5774768439888
 20
45.35225463594115
  0
LWPOLYLINE
  5
D63
330
1F
100
AcDbEntity
  8
HEWI
100
AcDbPolyline
 90
        8
 70
     0
 43
0.0
 10
899.1601465118392
 20
44.73106086891589
 10
898.5521948077721
 20
44.65699131749174
 10
897.9347690909662
 20
44.62555482183147
 10
897.0847994250153
 20
44.65203899283124
 10
896.2240638354987
 20
44.74634847982115
 10
895.3092833096516
 20
44.90546882430662
 10
894.3977325608821
 20
45.1192800585025
 10
893.6370124013402
 20
45.33847425428716
  0
LWPOLYLINE
  5
D64
330
1F
100
AcDbEntity
  8
HEWI
100
AcDbPolyline
 90
        3
 70
     0
 43
0.0
 10
854.3054331817302
 20
635.2741369670618
 10
854.2758268919033
 20
635.3084802619812
 10
854.3509730384403
 20
635.2726297378219
  0
LWPOLYLINE
  5
D65
330
1F
100
AcDbEntity
  8
HEWI
100
AcDbPolyline
 90
       20
 70
     0
 43
0.0
 10
848.1731584676627
 20
629.2186165487865
 10
848.3596795807343
 20
629.3302442455378
 10
848.544674265514
 20
629.4443837867405
 10
848.7281086975698
 20
629.5610143031311
 10
848.9099493377752
 20
629.680114469992
 10
849.090162938387
 20
629.801662511052
 10
849.2687165491634
 20
629.9256362024712
 10
849.4455775233754
 20
630.0520128769167
 10
849.6207135237682
 20
630.180769427682
 10
849.7940925284865
 20
630.3118823129173
 10
849.9656828369179
 20
630.4453275599556
 10
850.1354530755079
 20
630.5810807696778
 10
850.3033722034697
 20
630.7191171209674
 10
850.4694095184923
 20
630.8594113752761
 10
850.6335346622881
 20
631.0019378811958
 10
850.7957176262598
 20
631.1466705792022
 10
850.9559287568709
 20
631.293583006367
 10
851.1141387611178
 20
631.4426483012314
 10
851.2703187119141
 20
631.5938392087119
 10
851.4244400533016
 20
631.7471280850557
  0
LWPOLYLINE
  5
D66
330
1F
100
AcDbEntity
  8
HEWI
100
AcDbPolyline
 90
       12
 70
     0
 43
0.0
 10
858.7099878331819
 20
642.6343680028767
 10
858.754774075237
 20
642.6393203275372
 10
858.8452078332293
 20
642.6457798814411
 10
858.9368258428212
 20
642.6467488145263
 10
858.9830116549446
 20
642.6453492445105
 10
859.0293051263007
 20
642.6425501044868
 10
859.0760292346013
 20
642.6384590536875
 10
859.1230763206031
 20
642.6327531143956
 10
859.3110493461526
 20
642.5974408863967
 10
859.4982687570619
 20
642.540704471277
 10
859.6849498717848
 20
642.4635128021364
 10
859.8713080088009
 20
642.3647892866463
  0
LWPOLYLINE
  5
D67
330
1F
100
AcDbEntity
  8
HEWI
100
AcDbPolyline
 90
       20
 70
     0
 43
0.0
 10
854.304886284709
 20
635.2744987913254
 10
854.495058722604
 20
635.5666108097571
 10
854.6808947670351
 20
635.8615005381627
 10
854.8623538536221
 20
636.1591036078712
 10
855.039396373394
 20
636.4593550579618
 10
855.2119836814371
 20
636.7621893494063
 10
855.3800781053096
 20
637.0675403794032
 10
855.5436429532884
 20
637.375341495796
 10
855.702642522373
 20
637.6855255116177
 10
855.8570421060531
 20
637.9980247197559
 10
856.0068080019291
 20
638.3127709077577
 10
856.1519075190327
 20
638.6296953726721
 10
856.2923089849709
 20
638.9487289360922
 10
856.4279817528504
 20
639.2698019592264
 10
856.5588962079663
 20
639.5928443581115
 10
856.6850237742391
 20
639.9177856189058
 10
856.8063369205038
 20
640.2445548132962
 10
856.9228091664545
 20
640.5730806139402
 10
857.0344150884967
 20
640.9032913100966
 10
857.1411303252162
 20
641.2351148232167
  0
LWPOLYLINE
  5
D68
330
1F
100
AcDbEntity
  8
HEWI
100
AcDbPolyline
 90
       32
 70
     0
 43
0.0
 10
857.2015742816175
 20
641.3111283857963
 10
857.1580799503854
 20
641.3718481924868
 10
857.1568956987949
 20
641.4214790983126
 10
857.1869326255646
 20
641.444948810828
 10
857.2397933103012
 20
641.449685817021
 10
857.3549886925057
 20
641.6499319880202
 10
857.4791197912773
 20
641.8337062965727
 10
857.544899584299
 20
641.9196183634815
 10
857.6128325620402
 20
642.0014393795909
 10
857.6477141544083
 20
642.0407349991663
 10
857.6833493614277
 20
642.0792770041262
 10
857.7013284537962
 20
642.0980097104464
 10
857.7194152053881
 20
642.1165270983013
 10
857.7376096162252
 20
642.1348291676909
 10
857.7563423232449
 20
642.1528082593911
 10
857.9070652532381
 20
642.2850137959462
 10
858.0645707150861
 20
642.3968717377013
 10
858.1457457788118
 20
642.4452107327411
 10
858.2288587087814
 20
642.4888127215925
 10
858.2708458107035
 20
642.5087296794563
 10
858.3134788680499
 20
642.5272470673169
 10
858.3563272438651
 20
642.544472544387
 10
858.4000368935676
 20
642.5604061106869
 10
858.4878868299083
 20
642.5885051701677
 10
858.5764903808968
 20
642.6108982903613
 10
858.5986681834501
 20
642.6156352965565
 10
858.6210613044741
 20
642.6200493250624
 10
858.6267672439781
 20
642.6211259173762
 10
858.6322578649969
 20
642.6220948504626
 10
858.6376408267815
 20
642.6229561243169
 10
858.6431314478023
 20
642.6240327166319
 10
858.654328008316
 20
642.6258629235726
  0
LWPOLYLINE
  5
D69
330
1F
100
AcDbEntity
  8
HEWI
100
AcDbPolyline
 90
        3
 70
     0
 43
0.0
 10
851.4265175595529
 20
631.7450673512555
 10
851.4298549958576
 20
631.8165530811214
 10
851.5177049321982
 20
631.7969591009514
  0
LWPOLYLINE
  5
D6A
330
1F
100
AcDbEntity
  8
HEWI
100
AcDbPolyline
 90
        5
 70
     0
 43
0.0
 10
857.082826144625
 20
641.2253239781173
 10
857.0724908579951
 20
641.2170342172762
 10
857.0680768293378
 20
641.2066989310304
 10
857.0826108261563
 20
641.175370094601
 10
857.1295502529256
 20
641.1393042519708
  0
LWPOLYLINE
  5
D6B
330
1F
100
AcDbEntity
  8
HEWI
100
AcDbPolyline
 90
        3
 70
     0
 43
0.0
 10
858.654328008316
 20
642.6258629235726
 10
858.665524568828
 20
642.6278007897465
 10
858.7099878331819
 20
642.6343680028767
  0
LWPOLYLINE
  5
D6C
330
1F
100
AcDbEntity
  8
HEWI
100
AcDbPolyline
 90
       20
 70
     0
 43
0.0
 10
851.4272277123428
 20
631.744354210821
 10
851.5964573688425
 20
631.9147231815921
 10
851.7638186048053
 20
632.0869279419562
 10
851.9292915069408
 20
632.2609480023166
 10
852.0928563866245
 20
632.4367626570883
 10
852.2544937822923
 20
632.6143509871578
 10
852.4141844616778
 20
632.7936918623711
 10
852.5719094241821
 20
632.9747639440611
 10
852.7276499030548
 20
633.1575456875614
 10
852.8813873676927
 20
633.3420153447823
 10
853.0331035258177
 20
633.5281509668121
 10
853.1827803256518
 20
633.7159304065019
 10
853.3303999580594
 20
633.9053313211266
 10
853.4759448586838
 20
634.096331175032
 10
853.6193977100182
 20
634.2889072423022
 10
853.7607414434978
 20
634.483036609487
 10
853.8999592414903
 20
634.6786961783268
 10
854.0370345393048
 20
634.8758626684777
 10
854.1719510272059
 20
635.0745126202971
 10
854.3046926522993
 20
635.2746223976512
  0
LWPOLYLINE
  5
D6D
330
1F
100
AcDbEntity
  8
HEWI
100
AcDbPolyline
 90
        4
 70
     0
 43
0.0
 10
944.5472347625445
 20
66.80163400857651
 10
945.1608924061066
 20
67.32119746086283
 10
945.4035563233983
 20
67.9344244447455
 10
945.4606157183253
 20
68.83036457112694
  0
LINE
  5
D6E
330
1F
100
AcDbEntity
  8
HEWI
100
AcDbLine
 10
777.6463514152774
 20
39.06344827421236
 30
0.0
 11
778.5246354602159
 21
37.84000876494161
 31
0.0
  0
LINE
  5
D6F
330
1F
100
AcDbEntity
  8
HEWI
100
AcDbLine
 10
877.4738083661931
 20
-21.70114465663887
 30
0.0
 11
972.182714614405
 21
32.94625072784157
 31
0.0
  0
LWPOLYLINE
  5
D70
330
1F
100
AcDbEntity
  8
HEWI
100
AcDbPolyline
 90
        4
 70
     0
 43
0.0
 10
973.0609986593472
 20
39.06344827421236
 10
973.0609986593472
 20
34.16979789634666
 10
972.8325457611672
 20
33.50758596203746
 10
972.182714614405
 20
32.94625072784157
  0
LWPOLYLINE
  5
D71
330
1F
100
AcDbEntity
  8
HEWI
100
AcDbPolyline
 90
        4
 70
     0
 43
0.0
 10
778.5246354602159
 20
32.94625072784157
 10
777.874804313461
 20
33.50758596203746
 10
777.6463514152774
 20
34.16979789634666
 10
777.6463514152774
 20
39.06344827421236
  0
LWPOLYLINE
  5
D72
330
1F
100
AcDbEntity
  8
HEWI
100
AcDbPolyline
 90
        5
 70
     0
 43
0.0
 10
835.7739412793844
 20
269.0720677134507
 10
835.7739412793844
 20
275.5972399184216
 10
835.5669125691065
 20
276.2933645107276
 10
835.0670507376936
 20
276.8205717684671
 10
822.3451741720774
 20
284.1613703129567
  0
LWPOLYLINE
  5
D73
330
1F
100
AcDbEntity
  8
HEWI
100
AcDbPolyline
 90
        5
 70
     0
 43
0.0
 10
944.5468041256017
 20
70.2133550618069
 10
944.5788865778476
 20
70.17502837531679
 10
944.5879299536418
 20
70.11333963554221
 10
945.4627689030393
 20
68.89431415476707
 10
944.5879299536418
 20
67.67539633322741
  0
LWPOLYLINE
  5
D74
330
1F
100
AcDbEntity
  8
HEWI
100
AcDbPolyline
 90
        3
 70
     0
 43
0.0
 10
877.4738083661931
 20
-0.4946445107631874
 10
875.3535673780707
 20
-1.001504173704866
 10
873.2332187307211
 20
-0.4946445107631874
  0
LWPOLYLINE
  5
D75
330
1F
100
AcDbEntity
  8
HEWI
100
AcDbPolyline
 90
        3
 70
     0
 43
0.0
 10
877.4738083661931
 20
-21.70114465663887
 10
875.3535673780707
 20
-22.20789666034734
 10
873.2332187307211
 20
-21.70114465663887
  0
LINE
  5
D76
330
1F
100
AcDbEntity
  8
HEWI
100
AcDbLine
 10
821.6382836303955
 20
277.2285464270717
 30
0.0
 11
821.6382836303955
 21
283.7534494839625
 31
0.0
  0
LWPOLYLINE
  5
D77
330
1F
100
AcDbEntity
  8
HEWI
100
AcDbPolyline
 90
        3
 70
     0
 43
0.0
 10
822.3451741720774
 20
276.0051069177965
 10
821.8452046814354
 20
276.532368005152
 10
821.6382836303955
 20
277.2285464270717
  0
LINE
  5
D78
330
1F
100
AcDbEntity
  8
HEWI
100
AcDbLine
 10
778.5246354602159
 20
32.94625072784157
 30
0.0
 11
873.2332187307211
 21
-21.70114465663887
 31
0.0
  0
LWPOLYLINE
  5
D79
330
1F
100
AcDbEntity
  8
HEWI
100
AcDbPolyline
 90
       14
 70
     0
 43
0.0
 10
901.5501815446487
 20
41.9685249829618
 10
898.436030492444
 20
40.94963801395606
 10
895.6629438989684
 20
41.16043478966644
 10
893.4815524649684
 20
42.58132132991732
 10
892.0883342956322
 20
45.08429080819182
 10
891.6094660151747
 20
48.44325883787661
 10
891.6094660151747
 20
121.8503830089165
 10
891.9708780694591
 20
125.2250692864314
 10
893.0298143119262
 20
128.787136456763
 10
894.7146813508252
 20
132.2930055081272
 10
896.910283803928
 20
135.5043189015069
 10
899.4672983113296
 20
138.2020439299665
 10
902.2114245703878
 20
140.2020294776415
 10
943.9111839979624
 20
164.2632218118163
  0
LINE
  5
D7A
330
1F
100
AcDbEntity
  8
HEWI
100
AcDbLine
 10
873.2332187307211
 20
-16.80738661954337
 30
0.0
 11
778.5246354602159
 21
37.84000876494161
 31
0.0
  0
LINE
  5
D7B
330
1F
100
AcDbEntity
  8
HEWI
100
AcDbLine
 10
944.5468041256017
 20
70.2133550618069
 30
0.0
 11
911.1866520739923
 21
89.4621797380708
 31
0.0
  0
LWPOLYLINE
  5
D7C
330
1F
100
AcDbEntity
  8
HEWI
100
AcDbPolyline
 90
        3
 70
     0
 43
0.0
 10
777.6463514152774
 20
39.06344827421236
 10
778.5246354602159
 20
40.2871031019461
 10
805.9175590540244
 20
56.09298554778689
  0
LINE
  5
D7D
330
1F
100
AcDbEntity
  8
HEWI
100
AcDbLine
 10
911.1866520739923
 20
89.4621797380708
 30
0.0
 11
891.6094660151747
 21
100.7584322855953
 31
0.0
  0
LWPOLYLINE
  5
D7E
330
1F
100
AcDbEntity
  8
HEWI
100
AcDbPolyline
 90
        3
 70
     0
 43
0.0
 10
835.7739412793844
 20
269.0720677134507
 10
835.5669125691065
 20
268.6148389563314
 10
835.0670507376936
 20
268.6643622029206
  0
LWPOLYLINE
  5
D7F
330
1F
100
AcDbEntity
  8
HEWI
100
AcDbPolyline
 90
        3
 70
     0
 43
0.0
 10
873.2332187307211
 20
-16.80738661954337
 10
875.3535673780707
 20
-17.31403096402318
 10
877.4738083661931
 20
-16.80738661954337
  0
LINE
  5
D80
330
1F
100
AcDbEntity
  8
HEWI
100
AcDbLine
 10
943.9111839979624
 20
37.84000876494161
 30
0.0
 11
877.4738083661931
 21
-0.4946445107631874
 31
0.0
  0
LINE
  5
D81
330
1F
100
AcDbEntity
  8
HEWI
100
AcDbLine
 10
972.182714614405
 20
37.84000876494161
 30
0.0
 11
973.0609986593472
 21
39.06344827421236
 31
0.0
  0
LINE
  5
D82
330
1F
100
AcDbEntity
  8
HEWI
100
AcDbLine
 10
822.3451741720774
 20
276.0051069177965
 30
0.0
 11
835.0670507376936
 21
268.6643622029206
 31
0.0
  0
LINE
  5
D83
330
1F
100
AcDbEntity
  8
HEWI
100
AcDbLine
 10
905.7453389826378
 20
298.0270719143371
 30
0.0
 11
903.2715450644491
 21
296.5998873090374
 31
0.0
  0
LWPOLYLINE
  5
D84
330
1F
100
AcDbEntity
  8
HEWI
100
AcDbPolyline
 90
        4
 70
     0
 43
0.0
 10
903.2715450644491
 20
296.5998873090374
 10
902.2714984239165
 20
295.5453113047113
 10
901.8580869587813
 20
294.1529544608719
 10
901.8580869587813
 20
232.1648143615121
  0
LWPOLYLINE
  5
D85
330
1F
100
AcDbEntity
  8
HEWI
100
AcDbPolyline
 90
        3
 70
     0
 43
0.0
 10
821.6382836303955
 20
283.7534494839625
 10
821.8452046814354
 20
284.210893559547
 10
822.3451741720774
 20
284.1613703129567
  0
LWPOLYLINE
  5
D86
330
1F
100
AcDbEntity
  8
HEWI
100
AcDbPolyline
 90
        3
 70
     0
 43
0.0
 10
973.0609986593472
 20
39.06344827421236
 10
972.182714614405
 20
40.2871031019461
 10
944.7896833613695
 20
56.09298554778689
  0
LWPOLYLINE
  5
D87
330
1F
100
AcDbEntity
  8
HEWI
100
AcDbPolyline
 90
        3
 70
     0
 43
0.0
 10
901.8580869587813
 20
232.1648143615121
 10
902.2714984239165
 20
231.2500338695807
 10
903.2715450644491
 20
231.3491341923819
  0
LINE
  5
D88
330
1F
100
AcDbEntity
  8
HEWI
100
AcDbLine
 10
873.2332187307211
 20
-0.4946445107631874
 30
0.0
 11
806.7959507581972
 21
37.84000876494161
 31
0.0
  0
LINE
  5
D89
330
1F
100
AcDbEntity
  8
HEWI
100
AcDbLine
 10
972.182714614405
 20
37.84000876494161
 30
0.0
 11
877.4738083661931
 21
-16.80738661954337
 31
0.0
  0
LWPOLYLINE
  5
D8A
330
1F
100
AcDbEntity
  8
HEWI
100
AcDbPolyline
 90
        3
 70
     0
 43
0.0
 10
823.051957054532
 20
278.0441189369711
 10
823.2589857648045
 20
277.3479943446617
 10
823.7586322777415
 20
276.8205717684671
  0
LWPOLYLINE
  5
D8B
330
1F
100
AcDbEntity
  8
HEWI
100
AcDbPolyline
 90
        4
 70
     0
 43
0.0
 10
487.8748862291067
 20
918.6975652677368
 10
487.6896046844477
 20
918.6975652677368
 10
487.6250629726436
 20
918.6975652677368
 10
487.6250629726436
 20
919.8964584721768
  0
LINE
  5
D8C
330
1F
100
AcDbEntity
  8
HEWI
100
AcDbLine
 10
823.051957054532
 20
278.0441189369711
 30
0.0
 11
823.051957054532
 21
283.7534494839625
 31
0.0
  0
LWPOLYLINE
  5
D8D
330
1F
100
AcDbEntity
  8
HEWI
100
AcDbPolyline
 90
        3
 70
     0
 43
0.0
 10
904.3317732177374
 20
233.5921604556668
 10
905.3312815620948
 20
234.6465211415207
 10
905.7453389826378
 20
236.0389318149819
  0
LWPOLYLINE
  5
D8E
330
1F
100
AcDbEntity
  8
HEWI
100
AcDbPolyline
 90
        4
 70
     0
 43
0.0
 10
944.7896833613695
 20
66.95989307920655
 10
944.7896833613695
 20
39.06344827421236
 10
944.5612304631913
 20
38.40145165836275
 10
943.9111839979624
 20
37.84000876494161
  0
LWPOLYLINE
  5
D8F
330
1F
100
AcDbEntity
  8
HEWI
100
AcDbPolyline
 90
        6
 70
     0
 43
0.0
 10
586.8790730045303
 20
921.8943984944514
 10
588.9994216518799
 20
921.8943984944514
 10
589.8778133560527
 20
921.8943984944514
 10
589.8778133560527
 20
919.8964584721768
 10
588.9994216518799
 20
919.8964584721768
 10
586.8790730045303
 20
919.8964584721768
  0
LWPOLYLINE
  5
D90
330
1F
100
AcDbEntity
  8
HEWI
100
AcDbPolyline
 90
        4
 70
     0
 43
0.0
 10
806.7959507581972
 20
37.84000876494161
 10
806.1459042929699
 20
38.40145165836275
 10
805.9175590540244
 20
39.06344827421236
 10
805.9175590540244
 20
348.7321477220567
  0
LWPOLYLINE
  5
D91
330
1F
100
AcDbEntity
  8
HEWI
100
AcDbPolyline
 90
        3
 70
     0
 43
0.0
 10
490.4238262938279
 20
919.8964584721768
 10
488.3033161576222
 20
919.8964584721768
 10
487.4251397719271
 20
919.8964584721768
  0
LINE
  5
D92
330
1F
100
AcDbEntity
  8
HEWI
100
AcDbLine
 10
903.2715450644491
 20
231.3491341923819
 30
0.0
 11
905.7453389826378
 21
232.7764802865321
 31
0.0
  0
LINE
  5
D93
330
1F
100
AcDbEntity
  8
HEWI
100
AcDbLine
 10
824.1120775485843
 20
276.6167728428164
 30
0.0
 11
824.1120775485843
 21
283.1418912181769
 31
0.0
  0
LWPOLYLINE
  5
D94
330
1F
100
AcDbEntity
  8
HEWI
100
AcDbPolyline
 90
        3
 70
     0
 43
0.0
 10
487.4251397719271
 20
919.8964584721768
 10
486.8396350185012
 20
919.8964584721768
 10
485.4259077647484
 20
919.8964584721768
  0
LINE
  5
D95
330
1F
100
AcDbEntity
  8
HEWI
100
AcDbLine
 10
905.7453389826378
 20
236.0389318149819
 30
0.0
 11
905.7453389826378
 21
298.0270719143371
 31
0.0
  0
LINE
  5
D96
330
1F
100
AcDbEntity
  8
HEWI
100
AcDbLine
 10
490.4238262938279
 20
919.8964584721768
 30
0.0
 11
586.8790730045303
 21
919.8964584721768
 31
0.0
  0
LWPOLYLINE
  5
D97
330
1F
100
AcDbEntity
  8
HEWI
100
AcDbPolyline
 90
        3
 70
     0
 43
0.0
 10
487.4251397719271
 20
921.8943984944514
 10
488.3033161576222
 20
921.8943984944514
 10
490.4238262938279
 20
921.8943984944514
  0
LWPOLYLINE
  5
D98
330
1F
100
AcDbEntity
  8
HEWI
100
AcDbPolyline
 90
        3
 70
     0
 43
0.0
 10
907.1591200660067
 20
297.2113917452069
 10
906.7448473269823
 20
298.1261184075211
 10
905.7453389826378
 20
298.0270719143371
  0
LINE
  5
D99
330
1F
100
AcDbEntity
  8
HEWI
100
AcDbLine
 10
901.8580869587813
 20
232.1648143615121
 30
0.0
 11
904.3317732177374
 21
233.5921604556668
 31
0.0
  0
LINE
  5
D9A
330
1F
100
AcDbEntity
  8
HEWI
100
AcDbLine
 10
823.7586322777415
 20
283.345690143822
 30
0.0
 11
823.7586322777415
 21
276.8205717684671
 31
0.0
  0
LWPOLYLINE
  5
D9B
330
1F
100
AcDbEntity
  8
HEWI
100
AcDbPolyline
 90
        3
 70
     0
 43
0.0
 10
485.4259077647484
 20
921.8943984944514
 10
486.8396350185012
 20
921.8943984944514
 10
487.4251397719271
 20
921.8943984944514
  0
LWPOLYLINE
  5
D9C
330
1F
100
AcDbEntity
  8
HEWI
100
AcDbPolyline
 90
        6
 70
     0
 43
0.0
 10
482.9271369038734
 20
919.8964584721768
 10
480.80684208615
 20
919.8964584721768
 10
479.9285580412069
 20
919.8964584721768
 10
479.9285580412069
 20
921.8943984944514
 10
480.80684208615
 20
921.8943984944514
 10
482.9271369038734
 20
921.8943984944514
  0
LINE
  5
D9D
330
1F
100
AcDbEntity
  8
HEWI
100
AcDbLine
 10
482.9271369038734
 20
921.8943984944514
 30
0.0
 11
485.4259077647484
 21
921.8943984944514
 31
0.0
  0
LWPOLYLINE
  5
D9E
330
1F
100
AcDbEntity
  8
HEWI
100
AcDbPolyline
 90
        3
 70
     0
 43
0.0
 10
905.7453389826378
 20
232.7764802865321
 10
906.7448473269823
 20
233.8308409723916
 10
907.1591200660067
 20
235.2234669643113
  0
LINE
  5
D9F
330
1F
100
AcDbEntity
  8
HEWI
100
AcDbLine
 10
487.4251397719271
 20
919.8964584721768
 30
0.0
 11
487.4251397719271
 21
921.8943984944514
 31
0.0
  0
LINE
  5
DA0
330
1F
100
AcDbEntity
  8
HEWI
100
AcDbLine
 10
823.7586322777415
 20
276.8205717684671
 30
0.0
 11
835.7739412793844
 21
269.8876940529672
 31
0.0
  0
LWPOLYLINE
  5
DA1
330
1F
100
AcDbEntity
  8
HEWI
100
AcDbPolyline
 90
        4
 70
     0
 43
0.0
 10
943.9111839979624
 20
164.2632218118163
 10
944.5612304631913
 20
164.8245570460065
 10
944.7896833613695
 20
165.4867689803271
 10
944.7896833613695
 20
348.4891608360661
  0
LINE
  5
DA2
330
1F
100
AcDbEntity
  8
HEWI
100
AcDbLine
 10
482.9271369038734
 20
919.8964584721768
 30
0.0
 11
485.4259077647484
 21
919.8964584721768
 31
0.0
  0
LINE
  5
DA3
330
1F
100
AcDbEntity
  8
HEWI
100
AcDbLine
 10
907.1591200660067
 20
235.2234669643113
 30
0.0
 11
907.1591200660067
 21
297.2113917452069
 31
0.0
  0
LINE
  5
DA4
330
1F
100
AcDbEntity
  8
HEWI
100
AcDbLine
 10
490.4238262938279
 20
921.8943984944514
 30
0.0
 11
586.8790730045303
 21
921.8943984944514
 31
0.0
  0
LWPOLYLINE
  5
DA5
330
1F
100
AcDbEntity
  8
HEWI
100
AcDbPolyline
 90
       21
 70
     0
 43
0.0
 10
512.9684092332909
 20
582.3985791827519
 10
513.3647816926768
 20
581.6952183564612
 10
513.7986196963774
 20
581.014327640282
 10
514.2686529523016
 20
580.3579007048378
 10
514.7735051874824
 20
579.7278595899817
 10
515.3116981778212
 20
579.1260490770216
 10
515.8816560763589
 20
578.554231287122
 10
516.4817100274659
 20
578.014080521742
 10
517.1101030532335
 20
577.5071783602616
 10
517.7649951980411
 20
577.0350090290365
 10
518.4444689159372
 20
576.5989550555466
 10
519.146534685311
 20
576.2002932202912
 10
519.8691368343006
 20
575.8401908183722
 10
520.6101595598156
 20
575.519702241572
 10
521.3674331227102
 20
575.2397658910772
 10
522.1387402008677
 20
575.0012014298167
 10
522.9218223815506
 20
574.8047073824611
 10
523.7143867741279
 20
574.6508590900973
 10
524.5141127237602
 20
574.5401070256364
 10
525.3186586063166
 20
574.4727754747973
 10
526.1256686847318
 20
574.4490615865979
  0
LWPOLYLINE
  5
DA6
330
1F
100
AcDbEntity
  8
HEWI
100
AcDbPolyline
 90
       20
 70
     0
 43
0.0
 10
517.5914726153096
 20
578.8004140025223
 10
517.7811929455456
 20
578.6484158380469
 10
517.9736211634381
 20
578.4998607077316
 10
518.1686947932039
 20
578.3547968430716
 10
518.3663505001695
 20
578.2132713420432
 10
518.5665241113165
 20
578.0753301538116
 10
518.7691506361589
 20
577.9410180638317
 10
518.9741642878161
 20
577.8103786793017
 10
519.1814985043729
 20
577.6834544149969
 10
519.3910859704974
 20
577.5602864794823
 10
519.6028586393013
 20
577.4409148617767
 10
519.8167477544084
 20
577.3253783183472
 10
520.0326838723194
 20
577.2137143605013
 10
520.2505968848945
 20
577.1059592422668
 10
520.4704160422043
 20
577.0021479485408
 10
520.6920699754037
 20
576.9023141838269
 10
520.9154867199786
 20
576.8064903612023
 10
521.1405937390791
 20
576.7147075918476
 10
521.3673179470569
 20
576.6269956749372
 10
521.5955857332219
 20
576.5433830879519
  0
LWPOLYLINE
  5
DA7
330
1F
100
AcDbEntity
  8
HEWI
100
AcDbPolyline
 90
       21
 70
     0
 43
0.0
 10
512.8342879353531
 20
582.3123652493868
 10
513.2320632039554
 20
581.5991432281212
 10
513.6680803691669
 20
580.9086362767161
 10
514.1410459690141
 20
580.2428928110018
 10
514.6495569326007
 20
579.6038877849728
 10
515.1921047422693
 20
578.9935168319923
 10
515.76707990877
 20
578.4135906413312
 10
516.3727767458213
 20
577.8658295866805
 10
517.0073984300925
 20
577.3518586226018
 10
517.6690623315662
 20
576.8732024640266
 10
518.355805598454
 20
576.4312810631517
 10
519.0655909800271
 20
576.0274053970622
 10
519.7963128702268
 20
575.6627735787024
 10
520.5458035540468
 20
575.3384673025911
 10
521.3118396380886
 20
575.0554486359724
 10
522.0921486463939
 20
574.8145571647658
 10
522.8844157618241
 20
574.6165075029316
 10
523.6862906930273
 20
574.4618871725274
 10
524.4953946467203
 20
574.3511548608021
 10
525.3093273844215
 20
574.2846390594772
 10
526.1256743428711
 20
574.2625370902758
  0
LWPOLYLINE
  5
DA8
330
1F
100
AcDbEntity
  8
HEWI
100
AcDbPolyline
 90
       20
 70
     0
 43
0.0
 10
513.4662718785748
 20
583.9517654974915
 10
513.6083996991474
 20
583.6283029041928
 10
513.7587363531666
 20
583.3085729286174
 10
513.9171839062746
 20
582.9927838535659
 10
514.0836391404591
 20
582.6811413946265
 10
514.2579936211959
 20
582.3738485661224
 10
514.4401337681356
 20
582.0711055488979
 10
514.6299409290905
 20
581.7731095598876
 10
514.8272914573281
 20
581.4800547236516
 10
515.0320567920934
 20
581.1921319459267
 10
515.2441035424144
 20
580.9095287892509
 10
515.4632935739128
 20
580.6324293507814
 10
515.6894840988716
 20
580.3610141423721
 10
515.9225277692176
 20
580.0954599729729
 10
516.1622727724952
 20
579.8359398334614
 10
516.4085629307792
 20
579.582622783947
 10
516.6612378024238
 20
579.3356738436316
 10
516.9201327865549
 20
579.095253883331
 10
517.1850792302993
 20
578.8615195206566
 10
517.4559045386931
 20
578.6346230179922
  0
LWPOLYLINE
  5
DA9
330
1F
100
AcDbEntity
  8
HEWI
100
AcDbPolyline
 90
       20
 70
     0
 43
0.0
 10
513.6784195643631
 20
584.0390742259658
 10
513.8168386540437
 20
583.7202234770118
 10
513.9634294101879
 20
583.4050460747719
 10
514.1180944463358
 20
583.0937514049773
 10
514.2807310119324
 20
582.7865462738871
 10
514.4512310606168
 20
582.4836347709172
 10
514.6294813219456
 20
582.1852181330323
 10
514.8153633767251
 20
581.8914946110769
 10
515.0087537355975
 20
581.6026593380522
 10
515.2095239211539
 20
581.3189041994982
 10
515.4175405532314
 20
581.0404177059874
 10
515.6326654375389
 20
580.767384867938
 10
515.8547556575067
 20
580.4999870726326
 10
516.0836636691474
 20
580.2384019637973
 10
516.319237399176
 20
579.9828033235176
 10
516.5613203459415
 20
579.7333609568179
 10
516.8097516834778
 20
579.4902405788523
 10
517.0643663683003
 20
579.2536037048123
 10
517.3249952490651
 20
579.0236075426125
 10
517.5914651789262
 20
578.8004048884724
  0
LWPOLYLINE
  5
DAA
330
1F
100
AcDbEntity
  8
HEWI
100
AcDbPolyline
 90
       20
 70
     0
 43
0.0
 10
521.5247770352207
 20
576.3446238244066
 10
521.7581548773032
 20
576.2639409107962
 10
521.9929464099196
 20
576.1874694390869
 10
522.2290756419452
 20
576.1152341595525
 10
522.4664661492679
 20
576.0472584514125
 10
522.7050410995944
 20
575.9835643152414
 10
522.9447232772836
 20
575.9241723658917
 10
523.1854351083084
 20
575.8691018257727
 10
523.4270986854071
 20
575.8183705186727
 10
523.669635793286
 20
575.7719948639621
 10
523.9129679339257
 20
575.7299898712878
 10
524.1570163519927
 20
575.6923691357278
 10
524.4017020603187
 20
575.6591448333617
 10
524.6469458654937
 20
575.6303277173558
 10
524.8926683934369
 20
575.6059271144872
 10
525.1387901151938
 20
575.5859509220872
 10
525.3852313725392
 20
575.5704056055228
 10
525.63191240387
 20
575.5592961961062
 10
525.8787533699806
 20
575.5526262894225
 10
526.1256743798876
 20
575.5503980442219
  0
LWPOLYLINE
  5
DAB
330
1F
100
AcDbEntity
  8
HEWI
100
AcDbPolyline
 90
       20
 70
     0
 43
0.0
 10
521.5955784379511
 20
576.5433626110231
 10
521.8253464872587
 20
576.4638396350981
 10
522.0565095029233
 20
576.3884677542623
 10
522.2889924961109
 20
576.3172714190168
 10
522.5227200498111
 20
576.2502737253064
 10
522.7576163432567
 20
576.1874964070475
 10
522.993605176549
 20
576.1289598290873
 10
523.2306099953766
 20
576.0746829805677
 10
523.4685539158508
 20
576.0246834688027
 10
523.7073597494245
 20
575.9789775135161
 10
523.9469500279628
 20
575.937579941652
 10
524.1872470288499
 20
575.9005041824864
 10
524.4281728001952
 20
575.867762263326
 10
524.6696491861812
 20
575.8393648055923
 10
524.911597852325
 20
575.8153210213524
 10
525.1539403109618
 20
575.7956387103726
 10
525.3965979466793
 20
575.780324257548
 10
525.6394920418061
 20
575.7693826308625
 10
525.8825438019912
 20
575.7628173797522
 10
526.1256743817066
 20
575.760630633981
  0
LWPOLYLINE
  5
DAC
330
1F
100
AcDbEntity
  8
HEWI
100
AcDbPolyline
 90
        3
 70
     0
 43
0.0
 10
513.6025367649208
 20
584.2240711722158
 10
513.6398945197115
 20
584.1322916771762
 10
513.6783826964765
 20
584.0390587825059
  0
LINE
  5
DAD
330
1F
100
AcDbEntity
  8
HEWI
100
AcDbLine
 10
588.5280895179321
 20
574.4515197312373
 30
0.0
 11
588.5857948682687
 21
575.5504513390267
 31
0.0
  0
LINE
  5
DAE
330
1F
100
AcDbEntity
  8
HEWI
100
AcDbLine
 10
526.1256743814064
 20
575.7606559889629
 30
0.0
 11
585.5983587365026
 21
575.7606559889629
 31
0.0
  0
LWPOLYLINE
  5
DAF
330
1F
100
AcDbEntity
  8
HEWI
100
AcDbPolyline
 90
        4
 70
     0
 43
0.0
 10
585.5983587365026
 20
574.2623086314913
 10
585.4667991504593
 20
574.2623086314913
 10
585.1504963159422
 20
574.2623086314913
 10
584.8301024304564
 20
574.2623086314913
  0
LWPOLYLINE
  5
DB0
330
1F
100
AcDbEntity
  8
HEWI
100
AcDbPolyline
 90
        6
 70
     0
 43
0.0
 10
604.8208076136461
 20
539.2993271748125
 10
606.94126392023
 20
539.2993271748125
 10
607.8194403059269
 20
539.2993271748125
 10
607.8194403059269
 20
533.3055609376069
 10
606.94126392023
 20
533.3055609376069
 10
604.8208076136461
 20
533.3055609376069
  0
LWPOLYLINE
  5
DB1
330
1F
100
AcDbEntity
  8
HEWI
100
AcDbPolyline
 90
        6
 70
     0
 43
0.0
 10
470.8827060789745
 20
533.3055609376069
 10
468.7624650908637
 20
533.3055609376069
 10
467.8840733866864
 20
533.3055609376069
 10
467.8840733866864
 20
539.2993271748125
 10
468.7624650908637
 20
539.2993271748125
 10
470.8827060789745
 20
539.2993271748125
  0
LINE
  5
DB2
330
1F
100
AcDbEntity
  8
HEWI
100
AcDbLine
 10
521.3974422377905
 20
576.6156317776663
 30
0.0
 11
521.7034636153003
 21
576.5054963836164
 31
0.0
  0
LINE
  5
DB3
330
1F
100
AcDbEntity
  8
HEWI
100
AcDbLine
 10
470.8827060789745
 20
533.3055609376069
 30
0.0
 11
604.8208076136461
 21
533.3055609376069
 31
0.0
  0
LWPOLYLINE
  5
DB4
330
1F
100
AcDbEntity
  8
HEWI
100
AcDbPolyline
 90
        4
 70
     0
 43
0.0
 10
584.8301024304564
 20
694.1353725316319
 10
586.9505587370404
 20
694.1353725316319
 10
587.8286274635102
 20
694.1353725316319
 10
587.8286274635102
 20
919.8964584721768
  0
LWPOLYLINE
  5
DB5
330
1F
100
AcDbEntity
  8
HEWI
100
AcDbPolyline
 90
       20
 70
     0
 43
0.0
 10
512.3820940776531
 20
583.2577680720962
 10
512.4042275429801
 20
583.2072348458312
 10
512.4265495687141
 20
583.156784628662
 10
512.4490598435532
 20
583.1064181241979
 10
512.471758053558
 20
583.0561360348574
 10
512.4946438821698
 20
583.0059390618871
 10
512.5177170102288
 20
582.9558279053523
 10
512.5409771159374
 20
582.9058032641214
 10
512.5644238749064
 20
582.8558658358461
 10
512.5880569601449
 20
582.8060163169809
 10
512.6118760420522
 20
582.7562554027313
 10
512.6358807884444
 20
582.7065837870825
 10
512.6600708645455
 20
582.6570021627626
 10
512.6844459329832
 20
582.6075112212672
 10
512.7090056538291
 20
582.5581116527971
 10
512.7337496845584
 20
582.508804146307
 10
512.7586776800772
 20
582.459589389442
 10
512.7837892927446
 20
582.4104680685727
 10
512.809084172346
 20
582.3614408687567
 10
512.8345619660977
 20
582.3125084737475
  0
LWPOLYLINE
  5
DB6
330
1F
100
AcDbEntity
  8
HEWI
100
AcDbPolyline
 90
       20
 70
     0
 43
0.0
 10
922.3712451178753
 20
590.8090590632766
 10
922.5403569609179
 20
590.9795031174374
 10
922.7075917091124
 20
591.1517893037662
 10
922.8729292973957
 20
591.3258969511118
 10
923.0363498882898
 20
591.5018051697566
 10
923.197833874342
 20
591.6794928539618
 10
923.3573618804539
 20
591.858938684476
 10
923.5149147661932
 20
592.0401211311118
 10
923.6704736281271
 20
592.2230184553156
 10
923.8240198020676
 20
592.4076087127857
 10
923.9755348652934
 20
592.5938697560868
 10
924.1250006388064
 20
592.7817792373368
 10
924.2723991894481
 20
592.971314610851
 10
924.4177128321144
 20
593.1624531358923
 10
924.5609241318607
 20
593.3551718793514
 10
924.7020159059674
 20
593.549447718532
 10
924.8409712260173
 20
593.7452573439215
 10
924.9777734199369
 20
593.9425772619804
 10
925.1124060739849
 20
594.1413837979452
 10
925.2448530347274
 20
594.341653098701
  0
LWPOLYLINE
  5
DB7
330
1F
100
AcDbEntity
  8
HEWI
100
AcDbPolyline
 90
        4
 70
     0
 43
0.0
 10
524.1135770955734
 20
575.9113250837524
 10
524.3745430829322
 20
575.8746671153526
 10
524.6815333935646
 20
575.8380629765654
 10
524.9958445322372
 20
575.8080798805313
  0
LINE
  5
DB8
330
1F
100
AcDbEntity
  8
HEWI
100
AcDbLine
 10
487.8748862291067
 20
919.8964584721768
 30
0.0
 11
487.8748862291067
 21
539.2993271748125
 31
0.0
  0
LINE
  5
DB9
330
1F
100
AcDbEntity
  8
HEWI
100
AcDbLine
 10
587.8286274635102
 20
574.2623086314913
 30
0.0
 11
587.8286274635102
 21
539.2993271748125
 31
0.0
  0
LINE
  5
DBA
330
1F
100
AcDbEntity
  8
HEWI
100
AcDbLine
 10
604.8208076136461
 20
539.2993271748125
 30
0.0
 11
470.8827060789745
 21
539.2993271748125
 31
0.0
  0
LWPOLYLINE
  5
DBB
330
1F
100
AcDbEntity
  8
HEWI
100
AcDbPolyline
 90
       20
 70
     0
 43
0.0
 10
925.2441865759275
 20
594.3421012031628
 10
925.434495783792
 20
594.6343723689417
 10
925.6203244181097
 20
594.9295125855919
 10
925.8016292344937
 20
595.2274531706907
 10
925.9783680412866
 20
595.5281247901418
 10
926.1504997094007
 20
595.8314574743112
 10
926.3179841818882
 20
596.1373806342967
 10
926.4807824832178
 20
596.445823078367
 10
926.638856728433
 20
596.7567130285308
 10
926.7921701318655
 20
597.0699781372209
 10
926.9406870158228
 20
597.3855455041566
 10
927.084372818722
 20
597.7033416932957
 10
927.2231941032979
 20
598.0232927499209
 10
927.3571185642859
 20
598.3453242178463
 10
927.4861150359711
 20
598.6693611567616
 10
927.610153499444
 20
598.9953281596617
 10
927.7292050895585
 20
599.323149370381
 10
927.8432421016759
 20
599.652748501277
 10
927.952237998129
 20
599.9840488509462
 10
928.0561674143527
 20
600.3169733221116
  0
LWPOLYLINE
  5
DBC
330
1F
100
AcDbEntity
  8
HEWI
100
AcDbPolyline
 90
       21
 70
     0
 43
0.0
 10
928.3356917305637
 20
600.2100634917965
 10
928.3293733173513
 20
600.210940128567
 10
928.3155624048513
 20
600.2181435031118
 10
928.3016642168686
 20
600.2251770143325
 10
928.2876808425053
 20
600.2320396049972
 10
928.2736143836473
 20
600.2387302435672
 10
928.2594669546643
 20
600.2452479243518
 10
928.245240682104
 20
600.2515916676466
 10
928.2309377043848
 20
600.2577605199055
 10
928.2165601714268
 20
600.2637535538715
 10
928.2021102443696
 20
600.269569868707
 10
928.1875900952318
 20
600.2752085901411
 10
928.1730019065898
 20
600.2806688705905
 10
928.1583478712354
 20
600.2859498893158
 10
928.1436301918848
 20
600.2910508524965
 10
928.1288510807998
 20
600.2959709933966
 10
928.1140127594744
 20
600.3007095724458
 10
928.0991174583132
 20
600.3052658773711
 10
928.0841674162902
 20
600.3096392233069
 10
928.0691648805795
 20
600.3138289528706
 10
928.0541121062787
 20
600.3178344362972
  0
LWPOLYLINE
  5
DBD
330
1F
100
AcDbEntity
  8
HEWI
100
AcDbPolyline
 90
        3
 70
     0
 43
0.0
 10
928.3356917305637
 20
600.2100634917965
 10
928.3111454248128
 20
599.7674763901957
 10
928.2859531636631
 20
599.3249969478259
  0
LWPOLYLINE
  5
DBE
330
1F
100
AcDbEntity
  8
HEWI
100
AcDbPolyline
 90
        9
 70
     0
 43
0.0
 10
917.31440045225
 20
589.4961397286524
 10
916.4300874901119
 20
589.5313442974273
 10
915.7686291458949
 20
589.1422638339864
 10
915.7012344643399
 20
589.0576436778567
 10
915.6275955471128
 20
588.9723775663312
 10
915.2721047507938
 20
588.6194706047526
 10
914.8266108334201
 20
588.2692551239656
 10
914.5281794320226
 20
588.0740689368567
 10
914.2004647185158
 20
587.8843733705607
  0
LWPOLYLINE
  5
DBF
330
1F
100
AcDbEntity
  8
HEWI
100
AcDbPolyline
 90
        3
 70
     0
 43
0.0
 10
914.2148910561036
 20
587.8651023680858
 10
914.6900989225333
 20
587.9751301029059
 10
915.2568171393204
 20
587.7913557943556
  0
LWPOLYLINE
  5
DC0
330
1F
100
AcDbEntity
  8
HEWI
100
AcDbPolyline
 90
        3
 70
     0
 43
0.0
 10
922.1793059956063
 20
591.0245778413914
 10
922.2968698810028
 20
590.9255313482062
 10
922.3705087982297
 20
590.8097976741069
  0
LWPOLYLINE
  5
DC1
330
1F
100
AcDbEntity
  8
HEWI
100
AcDbPolyline
 90
        3
 70
     0
 43
0.0
 10
927.7640211889329
 20
600.3829642179416
 10
927.9171126221072
 20
600.3265507805215
 10
928.0540551699404
 20
600.317615064288
  0
LWPOLYLINE
  5
DC2
330
1F
100
AcDbEntity
  8
HEWI
100
AcDbPolyline
 90
       38
 70
     0
 43
0.0
 10
916.4423606429764
 20
590.5623967596116
 10
916.4550644328038
 20
590.6170876493311
 10
916.5054489551085
 20
590.8592132614674
 10
916.5467901016191
 20
591.104030354402
 10
916.5799491462212
 20
591.3506776542706
 10
916.6044954519666
 20
591.5995857980115
 10
916.6208596557908
 20
591.8501088302266
 10
916.6286111207691
 20
592.1021390916805
 10
916.6275345284075
 20
592.3554612639216
 10
916.6180605156615
 20
592.6100753469418
 10
916.5993278086526
 20
592.8653353853522
 10
916.5717670443072
 20
593.1212413791516
 10
916.5541109296455
 20
593.2493558648959
 10
916.5338709933394
 20
593.3773626914162
 10
916.5119085092474
 20
593.5051541994666
 10
916.4869315665645
 20
593.6324074113612
 10
916.429872171634
 20
593.8846529912816
 10
916.3620468531362
 20
594.1340994311771
 10
916.2841015664843
 20
594.3796701387375
 10
916.1949597193189
 20
594.6217957508772
 10
916.0935447192741
 20
594.8590766975874
 10
915.9802872033024
 20
595.0912976604061
 10
915.9497119803663
 20
595.1483570532221
 10
915.9182754835374
 20
595.2050934683373
 10
915.8861930312914
 20
595.2615069057562
 10
915.8530339867002
 20
595.3172743877874
 10
915.7849933497264
 20
595.4268714856871
 10
915.7137229356804
 20
595.5339924212469
 10
915.5617080948568
 20
595.7398368722911
 10
915.3959128718588
 20
595.9349154001713
 10
915.2167679036383
 20
596.1175054571676
 10
915.022981279354
 20
596.287499384056
 10
914.9717354831581
 20
596.3277639367211
 10
914.9202743684863
 20
596.3672748747617
 10
914.867736661453
 20
596.4056015612563
 10
914.8141223620759
 20
596.4431746331277
 10
914.7058171709478
 20
596.5150909999172
 10
914.5929902919224
 20
596.5827009974364
  0
LWPOLYLINE
  5
DC3
330
1F
100
AcDbEntity
  8
HEWI
100
AcDbPolyline
 90
        3
 70
     0
 43
0.0
 10
925.0090213470603
 20
594.5019710259717
 10
925.1405809330981
 20
594.4189657583174
 10
925.2456563471524
 20
594.3411281337821
  0
LWPOLYLINE
  5
DC4
330
1F
100
AcDbEntity
  8
HEWI
100
AcDbPolyline
 90
       21
 70
     0
 43
0.0
 10
916.2227339141018
 20
589.8486620991447
 10
916.2404677954791
 20
590.0940031433313
 10
916.2427787432633
 20
590.3399734220377
 10
916.2296576574181
 20
590.585604355771
 10
916.2011562060424
 20
590.829928701295
 10
916.157386621885
 20
591.0719843604558
 10
916.098521260409
 20
591.3108181687063
 10
916.0247919210988
 20
591.5454896484711
 10
915.9364889346752
 20
591.7750747125571
 10
915.8339600198132
 20
591.9986693030218
 10
915.7176089139275
 20
592.2153929511309
 10
915.5878937833394
 20
592.4243922445056
 10
915.4453254190876
 20
592.6248441876455
 10
915.2904652255756
 20
592.8159594427463
 10
915.1239230098498
 20
592.9969854379012
 10
914.9463545802964
 20
593.167209330626
 10
914.758459164258
 20
593.3259608148321
 10
914.560976654574
 20
593.4726147603853
 10
914.3546846960553
 20
593.6065936747414
 10
914.140395623267
 20
593.7273699769504
 10
913.9189532617557
 20
593.8344680752108
  0
LWPOLYLINE
  5
DC5
330
1F
100
AcDbEntity
  8
HEWI
100
AcDbPolyline
 90
        6
 70
     0
 43
0.0
 10
861.1608503341622
 20
627.4136134814377
 10
861.4016840444538
 20
628.0686122472323
 10
861.7855968789944
 20
628.6743030848915
 10
915.2180598144687
 20
597.8432829416512
 10
914.8343622983929
 20
597.2378074224527
 10
914.5929902919224
 20
596.5827009974364
  0
LWPOLYLINE
  5
DC6
330
1F
100
AcDbEntity
  8
HEWI
100
AcDbPolyline
 90
        7
 70
     0
 43
0.0
 10
917.31440045225
 20
589.4961397286524
 10
917.4323949745948
 20
589.666779610932
 10
917.541776758072
 20
589.8433407509562
 10
917.6406079364561
 20
590.0266844225714
 10
917.7310416944555
 20
590.2162723296319
 10
916.7358397195302
 20
590.1445712813065
 10
916.0896689867868
 20
589.6070287373268
  0
LWPOLYLINE
  5
DC7
330
1F
100
AcDbEntity
  8
HEWI
100
AcDbPolyline
 90
       38
 70
     0
 43
0.0
 10
913.9702892725646
 20
594.0105066331661
 10
914.0732115019009
 20
593.9501098041719
 10
914.1746265019492
 20
593.888851701321
 10
914.2736729988019
 20
593.8269476430823
 10
914.3707816294146
 20
593.7640746517561
 10
914.4659523937834
 20
593.7001250681171
 10
914.5591852919014
 20
593.6350988921563
 10
914.6050481263218
 20
593.6023704857123
 10
914.6506956422626
 20
593.5691037831068
 10
914.6954818843179
 20
593.536160058202
 10
914.7398374894283
 20
593.5026780371415
 10
914.9105850372734
 20
593.367350382862
 10
915.0727198462472
 20
593.2299772031867
 10
915.2258112794434
 20
593.0905584981124
 10
915.3694286998733
 20
592.9489866083954
 10
915.50464869993
 20
592.8048308971212
 10
915.6308253241869
 20
592.6579837050556
 10
915.7477432541645
 20
592.5088756691265
 10
915.855833126824
 20
592.3577221077928
 10
915.9064329676084
 20
592.2814993717318
 10
915.9550949421454
 20
592.2046306802817
 10
916.0007424580953
 20
592.1274390111366
 10
916.0440214708478
 20
592.0501396827616
 10
916.1232586683318
 20
591.8950027298515
 10
916.1921605791858
 20
591.7390045030869
 10
916.2509425218877
 20
591.583006276327
 10
916.3008964072568
 20
591.4265774126366
 10
916.3405150059944
 20
591.2698255712464
 10
916.3706595919929
 20
591.1127507521668
 10
916.3908995283099
 20
590.9550299777029
 10
916.4016654518809
 20
590.7970938847667
 10
916.4033879996523
 20
590.717749030987
 10
916.4023114072961
 20
590.6385118364417
 10
916.399081630224
 20
590.5591669826619
 10
916.3930527130277
 20
590.4799297881154
 10
916.3741046875429
 20
590.3219936951816
 10
916.345252012371
 20
590.1653495130269
 10
916.3297490824252
 20
590.0974165378115
  0
LWPOLYLINE
  5
DC8
330
1F
100
AcDbEntity
  8
HEWI
100
AcDbPolyline
 90
       20
 70
     0
 43
0.0
 10
928.1027131794918
 20
600.5600745024812
 10
928.1125769664186
 20
600.7715099130373
 10
928.1105185816695
 20
600.9831652700975
 10
928.0965445578431
 20
601.1943688538613
 10
928.0706992435797
 20
601.4044503782772
 10
928.0330646628309
 20
601.6127431183329
 10
927.983760254555
 20
601.8185860259714
 10
927.9229424936374
 20
602.0213258280628
 10
927.850804394292
 20
602.2203190996313
 10
927.7675748975443
 20
602.4149343058914
 10
927.6735181445975
 20
602.6045538064707
 10
927.5689326385645
 20
602.788575815646
 10
927.4541502971359
 20
602.9664163121415
 10
927.3295353991716
 20
603.1375108926468
 10
927.1954834286216
 20
603.3013165630213
 10
927.0524198193971
 20
603.4573134615563
 10
926.900798605161
 20
603.6050065088559
 10
926.7411009784437
 20
603.7439269790277
 10
926.573833763442
 20
603.8736339872562
 10
926.3995278076063
 20
603.993715889027
  0
LWPOLYLINE
  5
DC9
330
1F
100
AcDbEntity
  8
HEWI
100
AcDbPolyline
 90
        4
 70
     0
 43
0.0
 10
859.7050821488656
 20
642.1441955208527
 10
926.2255707106078
 20
603.7615262278009
 10
926.2865058380203
 20
603.8982534520871
 10
926.3920118890155
 20
603.9821199935957
  0
LINE
  5
DCA
330
1F
100
AcDbEntity
  8
HEWI
100
AcDbLine
 10
911.988713380043
 20
586.5781439120953
 30
0.0
 11
913.9341157693625
 21
593.868504106522
 31
0.0
  0
LWPOLYLINE
  5
DCB
330
1F
100
AcDbEntity
  8
HEWI
100
AcDbPolyline
 90
        3
 70
     0
 43
0.0
 10
913.9341157693625
 20
593.868504106522
 10
913.9526331579062
 20
593.939451540232
 10
913.9702892725646
 20
594.0105066331661
  0
LWPOLYLINE
  5
DCC
330
1F
100
AcDbEntity
  8
HEWI
100
AcDbPolyline
 90
        3
 70
     0
 43
0.0
 10
927.799333418242
 20
600.5756742427209
 10
927.9655592781809
 20
600.5539270779174
 10
928.1057316030738
 20
600.5598483356564
  0
LWPOLYLINE
  5
DCD
330
1F
100
AcDbEntity
  8
HEWI
100
AcDbPolyline
 90
       20
 70
     0
 43
0.0
 10
928.3484473822054
 20
600.2055833858016
 10
928.3604641495358
 20
600.2063928705913
 10
928.3724593501311
 20
600.2074759797451
 10
928.38442675432
 20
600.2088321507462
 10
928.3963601468522
 20
600.2104606792673
 10
928.4082533301761
 20
600.212360719536
 10
928.420100127586
 20
600.2145312847815
 10
928.4318943864992
 20
600.2169712477214
 10
928.4436299815979
 20
600.2196793411658
 10
928.4553008180219
 20
600.2226541586869
 10
928.4669008345691
 20
600.2258941553023
 10
928.4784240068065
 20
600.2293976483465
 10
928.4898643502119
 20
600.2331628182801
 10
928.5012159232655
 20
600.2371877096813
 10
928.5124728305699
 20
600.2414702322258
 10
928.5236292258842
 20
600.2460081618053
 10
928.5346793151665
 20
600.2507991416612
 10
928.5456173595875
 20
600.2558406836115
 10
928.5564376785032
 20
600.2611301693425
 10
928.5671346524168
 20
600.2666648517767
  0
LWPOLYLINE
  5
DCE
330
1F
100
AcDbEntity
  8
HEWI
100
AcDbPolyline
 90
       20
 70
     0
 43
0.0
 10
928.3365980432837
 20
600.2102838995178
 10
928.3308887113262
 20
600.2320088833462
 10
928.3243827169089
 20
600.2535087305878
 10
928.3170888970916
 20
600.2747542380623
 10
928.3090171590401
 20
600.2957165480816
 10
928.3001784665747
 20
600.3163671876066
 10
928.2905848252731
 20
600.3366781069567
 10
928.2802492661094
 20
600.356621717872
 10
928.2691858278658
 20
600.3761709310256
 10
928.2574095379686
 20
600.3952991927806
 10
928.2449363920978
 20
600.4139805213017
 10
928.2317833324896
 20
600.4321895417959
 10
928.2179682248942
 20
600.4499015210208
 10
928.2035098343394
 20
600.4670924008522
 10
928.1884277995768
 20
600.4837388309809
 10
928.1727426065108
 20
600.4998182006263
 10
928.1564755602676
 20
600.5153086692305
 10
928.1396487563133
 20
600.5301891961451
 10
928.1222850504482
 20
600.5444395692111
 10
928.1044080277197
 20
600.5580404321918
  0
LWPOLYLINE
  5
DCF
330
1F
100
AcDbEntity
  8
HEWI
100
AcDbPolyline
 90
       20
 70
     0
 43
0.0
 10
927.0638252537274
 20
604.293644983102
 10
927.0277331709904
 20
604.2788902954955
 10
926.9917157171267
 20
604.2639543569808
 10
926.9557738023459
 20
604.2488375450207
 10
926.9199083349658
 20
604.2335402416315
 10
926.8841202213652
 20
604.2180628334122
 10
926.8484103659456
 20
604.2024057114863
 10
926.812779671177
 20
604.1865692715421
 10
926.7772290374878
 20
604.1705539137913
 10
926.7417593632989
 20
604.1543600429625
 10
926.7063715449921
 20
604.1379880683066
 10
926.6710664768698
 20
604.1214384035654
 10
926.6358450511425
 20
604.1047114669768
 10
926.6007081579109
 20
604.0878076812523
 10
926.5656566851475
 20
604.0707274735816
 10
926.5306915186474
 20
604.0534712756064
 10
926.4958135420521
 20
604.0360395234202
 10
926.4610236367616
 20
604.0184326575515
 10
926.4263226819867
 20
604.0006511229469
 10
926.3917115546711
 20
603.9826953689773
  0
LINE
  5
DD0
330
1F
100
AcDbEntity
  8
HEWI
100
AcDbLine
 10
928.3421512847043
 20
600.2080179663963
 30
0.0
 11
928.3404287369293
 21
600.2083409440913
 31
0.0
  0
LWPOLYLINE
  5
DD1
330
1F
100
AcDbEntity
  8
HEWI
100
AcDbPolyline
 90
        5
 70
     0
 43
0.0
 10
928.1057316030738
 20
600.5598483356564
 10
928.097334182693
 20
600.4975136404916
 10
928.0859223037069
 20
600.4365785153416
 10
928.0714959661226
 20
600.376719982502
 10
928.0540551699404
 20
600.317615064288
  0
LWPOLYLINE
  5
DD2
330
1F
100
AcDbEntity
  8
HEWI
100
AcDbPolyline
 90
       22
 70
     0
 43
0.0
 10
928.5671346524168
 20
600.2666648517767
 10
928.5564376785032
 20
600.2611301693425
 10
928.5456173595875
 20
600.2558406836115
 10
928.5346793151665
 20
600.2507991416612
 10
928.5236292258842
 20
600.2460081618053
 10
928.5124728305699
 20
600.2414702322258
 10
928.5012159232655
 20
600.2371877096813
 10
928.4898643502119
 20
600.2331628182801
 10
928.4784240068065
 20
600.2293976483465
 10
928.4669008345691
 20
600.2258941553023
 10
928.4553008180219
 20
600.2226541586869
 10
928.4436299815979
 20
600.2196793411658
 10
928.4318943864992
 20
600.2169712477214
 10
928.420100127586
 20
600.2145312847815
 10
928.4082533301761
 20
600.212360719536
 10
928.3963601468522
 20
600.2104606792673
 10
928.38442675432
 20
600.2088321507462
 10
928.3724593501311
 20
600.2074759797451
 10
928.3604641495358
 20
600.2063928705913
 10
928.3483955203692
 20
600.2065107371529
 10
928.3421512847043
 20
600.2080179663963
 10
928.3404287369293
 20
600.2083409440913
  0
LINE
  5
DD3
330
1F
100
AcDbEntity
  8
HEWI
100
AcDbLine
 10
914.5929902919224
 20
596.5827009974364
 30
0.0
 11
913.9702892725646
 21
594.0105066331661
 31
0.0
  0
LWPOLYLINE
  5
DD4
330
1F
100
AcDbEntity
  8
HEWI
100
AcDbPolyline
 90
        3
 70
     0
 43
0.0
 10
848.2756547079688
 20
623.6259463910462
 10
848.1588444372201
 20
624.1565987441961
 10
848.0954331473867
 20
624.6701332795069
  0
LWPOLYLINE
  5
DD5
330
1F
100
AcDbEntity
  8
HEWI
100
AcDbPolyline
 90
        3
 70
     0
 43
0.0
 10
855.2096631024678
 20
611.927801931512
 10
857.0337335331451
 20
613.6443207220625
 10
858.1980681673657
 20
616.0675147096313
  0
LINE
  5
DD6
330
1F
100
AcDbEntity
  8
HEWI
100
AcDbLine
 10
913.9702892725646
 20
594.0105066331661
 30
0.0
 11
860.537503359391
 21
624.8414191171709
 31
0.0
  0
LWPOLYLINE
  5
DD7
330
1F
100
AcDbEntity
  8
HEWI
100
AcDbPolyline
 90
        3
 70
     0
 43
0.0
 10
816.6543069723402
 20
606.528368483022
 10
816.2014922269364
 20
607.8513927816382
 10
815.2460165099901
 20
608.8320607233813
  0
LWPOLYLINE
  5
DD8
330
1F
100
AcDbEntity
  8
HEWI
100
AcDbPolyline
 90
        3
 70
     0
 43
0.0
 10
850.3486332916063
 20
615.857471548542
 10
849.3119825109307
 20
619.7418166290267
 10
848.2756547079688
 20
623.6259463910462
  0
LWPOLYLINE
  5
DD9
330
1F
100
AcDbEntity
  8
HEWI
100
AcDbPolyline
 90
       20
 70
     0
 43
0.0
 10
859.871381748403
 20
642.3644389377912
 10
859.9165405730483
 20
642.374026091052
 10
859.9616656484931
 20
642.3837708597264
 10
860.006756424632
 20
642.3936731250265
 10
860.0518123517531
 20
642.4037327662269
 10
860.0968328806002
 20
642.4139496606962
 10
860.1418174623168
 20
642.4243236838767
 10
860.1867655485138
 20
642.4348547093066
 10
860.2316765912338
 20
642.4455426085958
 10
860.2765500429587
 20
642.4563872514513
 10
860.3213853566604
 20
642.4673885056713
 10
860.3661819857471
 20
642.478546237136
 10
860.4109393840909
 20
642.489860309827
 10
860.4556570060877
 20
642.5013305858115
 10
860.5003343065718
 20
642.5129569252569
 10
860.5449707408979
 20
642.5247391864322
 10
860.5895657648989
 20
642.5366772256907
 10
860.6341188349242
 20
642.5487708975119
 10
860.6786294078291
 20
642.5610200544613
 10
860.7230969409929
 20
642.5734245471963
  0
LWPOLYLINE
  5
DDA
330
1F
100
AcDbEntity
  8
HEWI
100
AcDbPolyline
 90
        3
 70
     0
 43
0.0
 10
848.0954331473867
 20
624.6701332795069
 10
847.6427260612172
 20
625.9933728965827
 10
846.6873580035144
 20
626.9739331790961
  0
LINE
  5
DDB
330
1F
100
AcDbEntity
  8
HEWI
100
AcDbLine
 10
818.5491095208735
 20
599.0574637569968
 30
0.0
 11
816.8343132144572
 21
605.4840739353315
 31
0.0
  0
LWPOLYLINE
  5
DDC
330
1F
100
AcDbEntity
  8
HEWI
100
AcDbPolyline
 90
        3
 70
     0
 43
0.0
 10
850.3486332916063
 20
615.857471548542
 10
851.5131832443067
 20
613.4343852202064
 10
853.337253674973
 20
611.7178664296525
  0
LWPOLYLINE
  5
DDD
330
1F
100
AcDbEntity
  8
HEWI
100
AcDbPolyline
 90
        3
 70
     0
 43
0.0
 10
816.8343132144572
 20
605.4840739353315
 10
816.7173952844724
 20
606.0148339477168
 10
816.6543069723402
 20
606.528368483022
  0
LWPOLYLINE
  5
DDE
330
1F
100
AcDbEntity
  8
HEWI
100
AcDbPolyline
 90
        3
 70
     0
 43
0.0
 10
806.1605459490229
 20
605.0547289192266
 10
806.2063011242017
 20
605.0635569762314
 10
806.2604537197612
 20
605.0448242699124
  0
LWPOLYLINE
  5
DDF
330
1F
100
AcDbEntity
  8
HEWI
100
AcDbPolyline
 90
        3
 70
     0
 43
0.0
 10
814.4335122580788
 20
601.9152780630215
 10
814.9827896786801
 20
603.845608087777
 10
816.8343132144572
 20
605.4840739353315
  0
LWPOLYLINE
  5
DE0
330
1F
100
AcDbEntity
  8
HEWI
100
AcDbPolyline
 90
        3
 70
     0
 43
0.0
 10
860.5014375154269
 20
624.6995242497669
 10
860.5199549039671
 20
624.7705793426964
 10
860.537503359391
 20
624.8414191171709
  0
LINE
  5
DE1
330
1F
100
AcDbEntity
  8
HEWI
100
AcDbLine
 10
860.5014375154269
 20
624.6995242497669
 30
0.0
 11
913.9341157693625
 21
593.868504106522
 31
0.0
  0
LINE
  5
DE2
330
1F
100
AcDbEntity
  8
HEWI
100
AcDbLine
 10
816.8343132144572
 20
605.4840739353315
 30
0.0
 11
848.2756547079688
 21
623.6259463910462
 31
0.0
  0
LWPOLYLINE
  5
DE3
330
1F
100
AcDbEntity
  8
HEWI
100
AcDbPolyline
 90
       20
 70
     0
 43
0.0
 10
848.2756163507101
 20
623.6260128127073
 10
848.3006781776012
 20
623.6405387663708
 10
848.3256936539611
 20
623.6551443968019
 10
848.3506625264444
 20
623.6698295560861
 10
848.3755845422447
 20
623.684594095537
 10
848.4004594489988
 20
623.699437865637
 10
848.4252869948059
 20
623.7143607160819
 10
848.4500669282706
 20
623.7293624957615
 10
848.474798998478
 20
623.7444430527662
 10
848.499482954975
 20
623.7596022343907
 10
848.5241185478107
 20
623.7748398871318
 10
848.5487055275362
 20
623.7901558566911
 10
848.573243645168
 20
623.805549987982
 10
848.5977326522506
 20
623.8210221251168
 10
848.622172300783
 20
623.8365721114271
 10
848.6465623433151
 20
623.8521997894511
 10
848.6709025328481
 20
623.8679050009457
 10
848.695192622913
 20
623.8836875868778
 10
848.7194323675657
 20
623.8995473874254
 10
848.7436215213447
 20
623.9154842419966
  0
LINE
  5
DE4
330
1F
100
AcDbEntity
  8
HEWI
100
AcDbLine
 10
861.1608503341622
 20
627.4136134814377
 30
0.0
 11
860.537503359391
 21
624.8414191171709
 31
0.0
  0
LINE
  5
DE5
330
1F
100
AcDbEntity
  8
HEWI
100
AcDbLine
 10
859.8713080088009
 20
642.3647892866463
 30
0.0
 11
926.3920118890155
 21
603.9821199935957
 31
0.0
  0
LWPOLYLINE
  5
DE6
330
1F
100
AcDbEntity
  8
HEWI
100
AcDbPolyline
 90
        3
 70
     0
 43
0.0
 10
816.6543069723402
 20
606.528368483022
 10
814.7292521785775
 20
604.8151871286509
 10
814.18374283122
 20
602.7976531262063
  0
LWPOLYLINE
  5
DE7
330
1F
100
AcDbEntity
  8
HEWI
100
AcDbPolyline
 90
        3
 70
     0
 43
0.0
 10
859.7050821488656
 20
642.1441955208527
 10
859.7658019578112
 20
642.2811380636008
 10
859.8713080088009
 20
642.3647892866463
  0
LINE
  5
DE8
330
1F
100
AcDbEntity
  8
HEWI
100
AcDbLine
 10
910.6472793030761
 20
585.8040740360265
 30
0.0
 11
858.1980681673657
 21
616.0675147096313
 31
0.0
  0
LINE
  5
DE9
330
1F
100
AcDbEntity
  8
HEWI
100
AcDbLine
 10
858.1980681673657
 20
616.0675147096313
 30
0.0
 11
860.5014375154269
 21
624.6995242497669
 31
0.0
  0
LINE
  5
DEA
330
1F
100
AcDbEntity
  8
HEWI
100
AcDbLine
 10
914.5929902919224
 20
596.5827009974364
 30
0.0
 11
861.1608503341622
 21
627.4136134814377
 31
0.0
  0
LINE
  5
DEB
330
1F
100
AcDbEntity
  8
HEWI
100
AcDbLine
 10
850.3486332916063
 20
615.857471548542
 30
0.0
 11
819.8908665755507
 21
598.283286221696
 31
0.0
  0
LINE
  5
DEC
330
1F
100
AcDbEntity
  8
HEWI
100
AcDbLine
 10
848.0954331473867
 20
624.6701332795069
 30
0.0
 11
816.6543069723402
 21
606.528368483022
 31
0.0
  0
LINE
  5
DED
330
1F
100
AcDbEntity
  8
HEWI
100
AcDbLine
 10
927.0635902013882
 20
604.2942241063522
 30
0.0
 11
860.7232155409938
 21
642.5730022407961
 31
0.0
  0
LWPOLYLINE
  5
DEE
330
1F
100
AcDbEntity
  8
HEWI
100
AcDbPolyline
 90
       69
 70
     0
 43
0.0
 10
848.7436494056101
 20
623.9154420651416
 10
848.8937263801917
 20
624.012443032922
 10
849.0467101541389
 20
624.1072908160722
 10
849.1242248038533
 20
624.154014922631
 10
849.2028160459257
 20
624.200093073812
 10
849.2819455841699
 20
624.2458482472912
 10
849.3616134185968
 20
624.2910651246122
 10
849.5226716352217
 20
624.3795610130874
 10
849.6862060142621
 20
624.4655807392305
 10
849.8518935780257
 20
624.549447280747
 10
850.0198419857397
 20
624.6308376599259
 10
850.3626289922422
 20
624.786728227456
 10
850.7140287376124
 20
624.9330371233659
 10
850.893066046602
 20
625.0029079647518
 10
851.0747948364761
 20
625.0703026438068
 10
851.2584614926081
 20
625.1353288197722
 10
851.4444966519214
 20
625.1978788333965
 10
851.5383755054562
 20
625.2282387367418
 10
851.6329003144083
 20
625.2581680031632
 10
851.7279634195428
 20
625.2871283364961
 10
851.8231341839154
 20
625.3155503736664
 10
852.014982941956
 20
625.3705642410764
 10
852.2075853146407
 20
625.4225636499975
 10
852.5953738816779
 20
625.5176267516063
 10
852.9875764773706
 20
625.6017086115823
 10
853.3833318278547
 20
625.6744862522216
 10
853.7833935477637
 20
625.7356366958426
 10
853.9847163185413
 20
625.761690229921
 10
854.1873310001491
 20
625.7848369647424
 10
854.2889613186662
 20
625.7952799102159
 10
854.3906992964139
 20
625.8049692410716
 10
854.4929755703369
 20
625.8137972980708
 10
854.595144185022
 20
625.8220870589118
 10
855.002634392199
 20
625.8471716599061
 10
855.4088326885457
 20
625.8595524715522
 10
855.8138467332856
 20
625.8587988569322
 10
856.2176765264476
 20
625.8452337937378
 10
856.3182302525992
 20
625.8401738098418
 10
856.4188916379908
 20
625.833929574401
 10
856.5190147271996
 20
625.8270393835723
 10
856.6185995202349
 20
625.8192879188916
 10
856.8169078324217
 20
625.8014164864212
 10
857.0134935968335
 20
625.7804229362366
 10
857.2083568134722
 20
625.7559842906417
 10
857.4011745046254
 20
625.7283158680868
 10
857.592915603428
 20
625.6975253278121
 10
857.7823958582802
 20
625.6637203290566
 10
858.1568346800896
 20
625.5868516376076
 10
858.5242756515754
 20
625.4971714975809
 10
858.6149247280363
 20
625.4725175335172
 10
858.7052508268053
 20
625.4468946363661
 10
858.7950386293915
 20
625.4207334430625
 10
858.8840728173227
 20
625.3936033166669
 10
859.0597726900078
 20
625.337082220017
 10
859.2325657633219
 20
625.2779773017951
 10
859.4022367188072
 20
625.2160732435563
 10
859.5685702379805
 20
625.1514777045261
 10
859.7317816393214
 20
625.0838677070069
 10
859.8926245374778
 20
625.0132432509965
 10
860.049807021619
 20
624.9391736995769
 10
860.2040827063966
 20
624.8621973488914
 10
860.2798748083287
 20
624.822255773927
 10
860.3545903179156
 20
624.7819912212619
 10
860.3916250949978
 20
624.7615359672309
 10
860.4285522128511
 20
624.7408653947425
 10
860.4468542829227
 20
624.7307454269619
 10
860.4650486937543
 20
624.7203024814816
 10
860.4832431045952
 20
624.7098595360071
 10
860.5014375154269
 20
624.6995242497669
  0
LWPOLYLINE
  5
DEF
330
1F
100
AcDbEntity
  8
HEWI
100
AcDbPolyline
 90
       20
 70
     0
 43
0.0
 10
858.207590200168
 20
616.087798939882
 10
857.8146774957394
 20
616.2605505280716
 10
857.4137245292067
 20
616.4137178340709
 10
857.0057067629068
 20
616.5469282233064
 10
856.591616846822
 20
616.6598576135871
 10
856.1724622036408
 20
616.7522312635415
 10
855.7492625778241
 20
616.823824441042
 10
855.3230475546943
 20
616.8744629699326
 10
854.8948540556294
 20
616.9040236537673
 10
854.4657238153476
 20
616.912434575552
 10
854.0367008475286
 20
616.8996752726914
 10
853.6088289048812
 20
616.8657767867821
 10
853.1831489398237
 20
616.8108215880866
 10
852.7606965720142
 20
616.7349433748918
 10
852.3424995687847
 20
616.6383267482515
 10
851.9295753448195
 20
616.5212067628672
 10
851.522928486821
 20
616.3838683552321
 10
851.1235483095433
 20
616.2266456504212
 10
850.7324064489557
 20
616.0499211492415
 10
850.3504544983398
 20
615.854124797602
  0
LWPOLYLINE
  5
DF0
330
1F
100
AcDbEntity
  8
HEWI
100
AcDbPolyline
 90
        3
 70
     0
 43
0.0
 10
848.7436494056101
 20
623.9154420651416
 10
848.5482478927943
 20
624.3939873501417
 10
848.4043074946484
 20
624.8546612026703
  0
LWPOLYLINE
  5
DF1
330
1F
100
AcDbEntity
  8
HEWI
100
AcDbPolyline
 90
       20
 70
     0
 43
0.0
 10
850.8342904733444
 20
625.9099101098016
 10
850.7006117267801
 20
625.8690970151908
 10
850.5674554376664
 20
625.8266103274459
 10
850.4348425576891
 20
625.7824567316859
 10
850.3027939529957
 20
625.7366431753419
 10
850.1713304009944
 20
625.6891768669961
 10
850.0404725870057
 20
625.6400652753122
 10
849.9102411010289
 20
625.5893161278313
 10
849.7806564345456
 20
625.5369374097417
 10
849.6517389772371
 20
625.4829373626628
 10
849.5235090138148
 20
625.4273244832964
 10
849.3959867208022
 20
625.3701075221457
 10
849.2691921634023
 20
625.3112954820963
 10
849.1431452922652
 20
625.2508976170011
 10
849.0178659404401
 20
625.1889234302714
 10
848.893373820184
 20
625.1253826733218
 10
848.7696885198957
 20
625.0602853440457
 10
848.6468295010173
 20
624.993641685302
 10
848.5248160949822
 20
624.9254621832315
 10
848.4036675001689
 20
624.8557575656323
  0
LWPOLYLINE
  5
DF2
330
1F
100
AcDbEntity
  8
HEWI
100
AcDbPolyline
 90
        5
 70
     0
 43
0.0
 10
851.9023713814013
 20
626.2241942893913
 10
851.630639470458
 20
626.1471102794772
 10
851.3623526550682
 20
626.0693803141762
 10
851.0966496613319
 20
625.990466097327
 10
850.8339611262009
 20
625.9110135843164
  0
LWPOLYLINE
  5
DF3
330
1F
100
AcDbEntity
  8
HEWI
100
AcDbPolyline
 90
       20
 70
     0
 43
0.0
 10
860.5510173398497
 20
624.8683981855926
 10
860.12929291835
 20
625.0710706706175
 10
859.7011561730642
 20
625.2598206417658
 10
859.2670665826327
 20
625.4344455315563
 10
858.8274900143288
 20
625.5947579316162
 10
858.3828982240948
 20
625.7405857938274
 10
857.9337683502117
 20
625.8717726149373
 10
857.4805824012901
 20
625.9881776045418
 10
857.0238267388949
 20
626.0896758361914
 10
856.5639915556667
 20
626.1761583814418
 10
856.1015703491966
 20
626.2475324267463
 10
855.6370593923976
 20
626.3037213731117
 10
855.1709572009086
 20
626.3446649182517
 10
854.7037639981235
 20
626.3703191213371
 10
854.2359811782763
 20
626.3806564501365
 10
853.7681107684012
 20
626.3756658105765
 10
853.3006548895455
 20
626.3553525586362
 10
852.8341152178464
 20
626.3197384946058
 10
852.3689924461951
 20
626.2688618396955
 10
851.9057857468315
 20
626.2027771950024
  0
LWPOLYLINE
  5
DF4
330
1F
100
AcDbEntity
  8
HEWI
100
AcDbPolyline
 90
       41
 70
     0
 43
0.0
 10
861.1608503341622
 20
627.4136134814377
 10
860.9280910665539
 20
627.5361296871372
 10
860.6870420377882
 20
627.6402361642115
 10
860.4372726109422
 20
627.7271171642112
 10
860.1800746968228
 20
627.7972033240623
 10
859.9149099992601
 20
627.8513559176169
 10
859.641886177501
 20
627.8908668556575
 10
859.5727689481746
 20
627.8982953426466
 10
859.5028981041933
 20
627.9049702150123
 10
859.4324889640402
 20
627.910783813526
 10
859.3618645054185
 20
627.9157361381876
 10
859.2206155881603
 20
627.9230569659412
 10
859.0786130562547
 20
627.9271480167474
 10
858.7929931039116
 20
627.9260714244323
 10
858.5053276260905
 20
627.913905931247
 10
858.2152936450793
 20
627.8915128110455
 10
857.922891160887
 20
627.8597533376912
 10
857.6284431512167
 20
627.8198117627212
 10
857.3316266383562
 20
627.7719034046063
 10
857.1821956191843
 20
627.7453115743767
 10
857.0322263038406
 20
627.716997196426
 10
856.8819340107902
 20
627.6871755892423
 10
856.7316417177345
 20
627.6559544120462
 10
856.4312724500988
 20
627.5893133476122
 10
856.130580204749
 20
627.5177199585121
 10
855.8297803001778
 20
627.4419278593873
 10
855.5288727363631
 20
627.3622600279114
 10
855.2272115578844
 20
627.278931782562
 10
854.9250120832503
 20
627.1924814194861
 10
854.6223819716679
 20
627.1032319163865
 10
854.3189982454268
 20
627.0110756140357
 10
854.1669834045979
 20
626.9642438482369
 10
854.0147532453111
 20
626.9168737862813
 10
853.8623077675357
 20
626.8688577689365
 10
853.7096469712968
 20
626.8205187738922
 10
853.4059402673584
 20
626.722979509956
 10
853.1029871780619
 20
626.624255994466
 10
852.8013259995995
 20
626.5249941828201
 10
852.5007414134879
 20
626.4248710973165
 10
852.2009104420295
 20
626.3247480118175
 10
851.9023713814013
 20
626.2241942893913
  0
LWPOLYLINE
  5
DF5
330
1F
100
AcDbEntity
  8
HEWI
100
AcDbPolyline
 90
        3
 70
     0
 43
0.0
 10
849.9763476545112
 20
628.3505717751054
 10
850.5453267152507
 20
627.2653667193631
 10
850.8339611262009
 20
625.9110135843164
  0
LWPOLYLINE
  5
DF6
330
1F
100
AcDbEntity
  8
HEWI
100
AcDbPolyline
 90
        3
 70
     0
 43
0.0
 10
847.0216399304
 20
627.1637364046162
 10
847.9575216664443
 20
626.1777931605174
 10
848.4043074946484
 20
624.8546612026703
  0
LWPOLYLINE
  5
DF7
330
1F
100
AcDbEntity
  8
HEWI
100
AcDbPolyline
 90
        7
 70
     0
 43
0.0
 10
849.9763476545112
 20
628.3505717751054
 10
850.2668122724617
 20
628.4215192088063
 10
850.560721985953
 20
628.4917130278918
 10
850.8575384988207
 20
628.5610455731207
 10
851.1572618110394
 20
628.6298398221916
 10
851.606416142421
 20
627.5341918209667
 10
851.9023713814013
 20
626.2241942893913
  0
LWPOLYLINE
  5
DF8
330
1F
100
AcDbEntity
  8
HEWI
100
AcDbPolyline
 90
        3
 70
     0
 43
0.0
 10
903.2715450644491
 20
235.4272658899621
 10
903.0594563700878
 20
233.7795951780927
 10
902.4395544908648
 20
232.500280527552
  0
LINE
  5
DF9
330
1F
100
AcDbEntity
  8
HEWI
100
AcDbLine
 10
873.2332187307211
 20
562.9613688864631
 30
0.0
 11
873.2332187307211
 21
534.8104176576773
 31
0.0
  0
LINE
  5
DFA
330
1F
100
AcDbEntity
  8
HEWI
100
AcDbLine
 10
918.1136626181714
 20
778.4809397726523
 30
0.0
 11
919.5272283830718
 21
777.6652057739013
 31
0.0
  0
LWPOLYLINE
  5
DFB
330
1F
100
AcDbEntity
  8
HEWI
100
AcDbPolyline
 90
        3
 70
     0
 43
0.0
 10
903.2715450644491
 20
235.4272658899621
 10
904.5354644917015
 20
236.1868555993661
 10
905.7455543011064
 20
236.975620960566
  0
LINE
  5
DFC
330
1F
100
AcDbEntity
  8
HEWI
100
AcDbLine
 10
863.9039000008642
 20
313.2386215714624
 30
0.0
 11
863.9039000008642
 21
311.6073688924306
 31
0.0
  0
LINE
  5
DFD
330
1F
100
AcDbEntity
  8
HEWI
100
AcDbLine
 10
859.6630950469361
 20
311.6073688924306
 30
0.0
 11
859.6630950469361
 21
313.2386215714624
 31
0.0
  0
LWPOLYLINE
  5
DFE
330
1F
100
AcDbEntity
  8
HEWI
100
AcDbPolyline
 90
       22
 70
     0
 43
0.0
 10
892.7770304264731
 20
44.30688349593792
 10
892.6489159359798
 20
44.24605603001196
 10
892.5227856745141
 20
44.26545078506165
 10
892.5383294699159
 20
44.23289633485665
 10
892.5541148926996
 20
44.20045835971136
 10
892.5701410701467
 20
44.16813865301292
 10
892.586407116206
 20
44.13593900160235
 10
892.6029121315977
 20
44.10386118570186
 10
892.6196552037973
 20
44.07190697878632
 10
892.6366354071479
 20
44.0400781474912
 10
892.653851802871
 20
44.00837645154665
 10
892.6713034391205
 20
43.97680364361717
 10
892.6889893510496
 20
43.94536146926752
 10
892.7069085608772
 20
43.91405166682743
 10
892.7250600778961
 20
43.88287596731657
 10
892.7434428985716
 20
43.85183609433652
 10
892.762056006587
 20
43.82093376398215
 10
892.7808983728747
 20
43.79017068473131
 10
892.7999689557063
 20
43.75954855738796
 10
892.8192667007269
 20
43.72906907494125
 10
892.8387905410373
 20
43.69873392249615
 10
892.8585393972161
 20
43.66854477719157
  0
LWPOLYLINE
  5
DFF
330
1F
100
AcDbEntity
  8
HEWI
100
AcDbPolyline
 90
        3
 70
     0
 43
0.0
 10
848.4043074946484
 20
624.8546612026703
 10
848.2493858544557
 20
624.7605670341457
 10
848.0954331473867
 20
624.6701332795069
  0
LINE
  5
E00
330
1F
100
AcDbEntity
  8
HEWI
100
AcDbLine
 10
778.5246354602159
 20
573.1450709333821
 30
0.0
 11
778.5246354602159
 21
568.2513128962866
 31
0.0
  0
LINE
  5
E01
330
1F
100
AcDbEntity
  8
HEWI
100
AcDbLine
 10
928.3619605840712
 20
606.5861814904567
 30
0.0
 11
929.7755263489662
 21
605.7705551509414
 31
0.0
  0
LINE
  5
E02
330
1F
100
AcDbEntity
  8
HEWI
100
AcDbLine
 10
972.182714614405
 20
568.2513128962866
 30
0.0
 11
972.182714614405
 21
573.1450709333821
 31
0.0
  0
LINE
  5
E03
330
1F
100
AcDbEntity
  8
HEWI
100
AcDbLine
 10
903.2715450644491
 20
235.4272658899621
 30
0.0
 11
903.2715450644491
 21
296.599349012877
 31
0.0
  0
LINE
  5
E04
330
1F
100
AcDbEntity
  8
HEWI
100
AcDbLine
 10
865.6705880589024
 20
312.6269018168264
 30
0.0
 11
865.6705880589024
 21
314.2583698143213
 31
0.0
  0
LINE
  5
E05
330
1F
100
AcDbEntity
  8
HEWI
100
AcDbLine
 10
873.2332187307211
 20
513.6040251710372
 30
0.0
 11
873.2332187307211
 21
518.4975678896628
 31
0.0
  0
LINE
  5
E06
330
1F
100
AcDbEntity
  8
HEWI
100
AcDbLine
 10
805.9477036400231
 20
350.3501044859709
 30
0.0
 11
805.9477036400231
 21
348.7187979773253
 31
0.0
  0
LINE
  5
E07
330
1F
100
AcDbEntity
  8
HEWI
100
AcDbLine
 10
810.8951838171661
 20
345.8639443001701
 30
0.0
 11
810.8951838171661
 21
347.4954122976661
 31
0.0
  0
LINE
  5
E08
330
1F
100
AcDbEntity
  8
HEWI
100
AcDbLine
 10
916.7000968532729
 20
776.0339530948715
 30
0.0
 11
918.1136626181714
 21
775.2181114368911
 31
0.0
  0
LINE
  5
E09
330
1F
100
AcDbEntity
  8
HEWI
100
AcDbLine
 10
877.4738083661931
 20
844.9531945324068
 30
0.0
 11
877.4738083661931
 21
661.2333615564764
 31
0.0
  0
LINE
  5
E0A
330
1F
100
AcDbEntity
  8
HEWI
100
AcDbLine
 10
877.4738083661931
 20
563.3456046844721
 30
0.0
 11
877.4738083661931
 21
534.8104176576773
 31
0.0
  0
LINE
  5
E0B
330
1F
100
AcDbEntity
  8
HEWI
100
AcDbLine
 10
914.2267335720307
 20
774.6064993414859
 30
0.0
 11
915.640084018455
 21
773.7909806612017
 31
0.0
  0
LINE
  5
E0C
330
1F
100
AcDbEntity
  8
HEWI
100
AcDbLine
 10
868.4978272479375
 20
314.2583698143213
 30
0.0
 11
868.4978272479375
 21
312.6269018168264
 31
0.0
  0
LINE
  5
E0D
330
1F
100
AcDbEntity
  8
HEWI
100
AcDbLine
 10
873.4455227435491
 20
309.7722096285216
 30
0.0
 11
873.4455227435491
 21
311.403516137166
 31
0.0
  0
LINE
  5
E0E
330
1F
100
AcDbEntity
  8
HEWI
100
AcDbLine
 10
928.079462749566
 20
680.3192978151517
 30
0.0
 11
919.3160009626071
 21
685.3760519290667
 31
0.0
  0
LINE
  5
E0F
330
1F
100
AcDbEntity
  8
HEWI
100
AcDbLine
 10
806.7959507581972
 20
601.216677308387
 30
0.0
 11
806.7959507581972
 21
573.1450709333821
 31
0.0
  0
LINE
  5
E10
330
1F
100
AcDbEntity
  8
HEWI
100
AcDbLine
 10
928.3619605840712
 20
679.9930903430313
 30
0.0
 11
929.7755263489662
 21
679.1775716627515
 31
0.0
  0
LINE
  5
E11
330
1F
100
AcDbEntity
  8
HEWI
100
AcDbLine
 10
877.4738083661931
 20
518.4975678896628
 30
0.0
 11
877.4738083661931
 21
513.6040251710372
 31
0.0
  0
LINE
  5
E12
330
1F
100
AcDbEntity
  8
HEWI
100
AcDbLine
 10
918.1136626181714
 20
840.4688645535463
 30
0.0
 11
919.5272283830718
 21
839.653238214027
 31
0.0
  0
LINE
  5
E13
330
1F
100
AcDbEntity
  8
HEWI
100
AcDbLine
 10
809.1282804406592
 20
342.3977476756923
 30
0.0
 11
809.1282804406592
 21
340.7664411670467
 31
0.0
  0
LWPOLYLINE
  5
E14
330
1F
100
AcDbEntity
  8
HEWI
100
AcDbPolyline
 90
       21
 70
     0
 43
0.0
 10
893.0900324293352
 20
44.55751506150163
 10
893.0906583430179
 20
44.55680959811188
 10
893.075016365673
 20
44.54261994688777
 10
893.059268383403
 20
44.52854803472091
 10
893.0434152824373
 20
44.51459465351176
 10
893.027457954885
 20
44.50076058848622
 10
893.011397298752
 20
44.48704661814558
 10
892.9952342178431
 20
44.4734535142416
 10
892.9789696217257
 20
44.45998204172751
 10
892.9626044256938
 20
44.44663295869673
 10
892.9461395506942
 20
44.43340701637139
 10
892.9295759232909
 20
44.4203049590456
 10
892.912914475578
 20
44.40732752402055
 10
892.8961561451897
 20
44.39447544161139
 10
892.8793018751921
 20
44.38174943505173
 10
892.8623526140572
 20
44.36915022050725
 10
892.8453093156086
 20
44.35667850698137
 10
892.8281729389301
 20
44.34433499633683
 10
892.8109444483879
 20
44.33212038318202
 10
892.7936248135038
 20
44.32003535490166
 10
892.7762150089357
 20
44.30808059157725
  0
LINE
  5
E15
330
1F
100
AcDbEntity
  8
HEWI
100
AcDbLine
 10
901.8580869587813
 20
234.6114780615963
 30
0.0
 11
903.2715450644491
 21
235.4272658899621
 31
0.0
  0
LINE
  5
E16
330
1F
100
AcDbEntity
  8
HEWI
100
AcDbLine
 10
873.2332187307211
 20
844.0601612052807
 30
0.0
 11
873.2332187307211
 21
661.2333615564764
 31
0.0
  0
LINE
  5
E17
330
1F
100
AcDbEntity
  8
HEWI
100
AcDbLine
 10
806.7959507581972
 20
882.2280503310514
 30
0.0
 11
806.7959507581972
 21
699.5683378098763
 31
0.0
  0
LINE
  5
E18
330
1F
100
AcDbEntity
  8
HEWI
100
AcDbLine
 10
943.9111839979624
 20
883.2896780150525
 30
0.0
 11
943.9111839979624
 21
573.1450709333821
 31
0.0
  0
LINE
  5
E19
330
1F
100
AcDbEntity
  8
HEWI
100
AcDbLine
 10
859.0977764002118
 20
646.5521951044209
 30
0.0
 11
860.5110191874073
 21
645.7364611056768
 31
0.0
  0
LINE
  5
E1A
330
1F
100
AcDbEntity
  8
HEWI
100
AcDbLine
 10
945.8901760688158
 20
349.1265034878532
 30
0.0
 11
945.8901760688158
 21
350.7577561668816
 31
0.0
  0
LINE
  5
E1B
330
1F
100
AcDbEntity
  8
HEWI
100
AcDbLine
 10
877.6860047197761
 20
311.403516137166
 30
0.0
 11
877.6860047197761
 21
309.7722096285216
 31
0.0
  0
LINE
  5
E1C
330
1F
100
AcDbEntity
  8
HEWI
100
AcDbLine
 10
893.0990775431245
 20
44.56569527562151
 30
0.0
 11
893.1003090885543
 21
44.56692838592089
 31
0.0
  0
LWPOLYLINE
  5
E1D
330
1F
100
AcDbEntity
  8
HEWI
100
AcDbPolyline
 90
       20
 70
     0
 43
0.0
 10
892.7783767937899
 20
44.30751946480227
 10
892.744530561994
 20
44.37828023685169
 10
892.7099979276308
 20
44.44870857940741
 10
892.6747821553226
 20
44.51879783433155
 10
892.6388865743057
 20
44.5885413755414
 10
892.6023145780481
 20
44.65793260966193
 10
892.5650696239927
 20
44.72696497658744
 10
892.5271552331933
 20
44.79563195015571
 10
892.488574989983
 20
44.8639270387619
 10
892.4493325416506
 20
44.93184378593155
 10
892.4094315980974
 20
44.99937577097766
 10
892.3688759314527
 20
45.06651660957714
 10
892.3276693757589
 20
45.1332599543869
 10
892.2858158265981
 20
45.19959949565559
 10
892.2433192407069
 20
45.26552896178741
 10
892.2001836356093
 20
45.33104211995605
 10
892.1564130892502
 20
45.39613277671178
 10
892.1120117395958
 20
45.46079477852145
 10
892.0669837842424
 20
45.52502201238694
 10
892.0213334800529
 20
45.58880840642159
  0
LWPOLYLINE
  5
E1E
330
1F
100
AcDbEntity
  8
HEWI
100
AcDbPolyline
 90
       20
 70
     0
 43
0.0
 10
893.469374756728
 20
45.26710738760612
 10
893.4474537250252
 20
45.23276627627097
 10
893.4258699478696
 20
45.19821220095677
 10
893.4046254940358
 20
45.1634484736317
 10
893.3837223997898
 20
45.12847842635578
 10
893.363162668661
 20
45.09330541098761
 10
893.3429482712881
 20
45.05793279881713
 10
893.3230811451949
 20
45.02236398026666
 10
893.3035631946323
 20
44.98660236458049
 10
893.2843962903634
 20
44.95065137946226
 10
893.2655822695187
 20
44.91451447078161
 10
893.2471229354186
 20
44.87819510222748
 10
893.2290200573506
 20
44.841696754967
 10
893.2112753704632
 20
44.80502292733176
 10
893.1938905755714
 20
44.76817713446535
 10
893.1768673389843
 20
44.73116290801185
 10
893.1602072923624
 20
44.69398379572708
 10
893.1439120325549
 20
44.65664336120567
 10
893.1279831214443
 20
44.61914518348662
 10
893.1124220858009
 20
44.5814928567202
  0
LINE
  5
E1F
330
1F
100
AcDbEntity
  8
HEWI
100
AcDbLine
 10
893.1050757163674
 20
44.57201421950599
 30
0.0
 11
893.106226523686
 21
44.57332300047055
 31
0.0
  0
LINE
  5
E20
330
1F
100
AcDbEntity
  8
HEWI
100
AcDbLine
 10
893.1095779259804
 20
44.57733554944666
 30
0.0
 11
893.1106607861465
 21
44.57870108193133
 31
0.0
  0
LWPOLYLINE
  5
E21
330
1F
100
AcDbEntity
  8
HEWI
100
AcDbPolyline
 90
        2
 70
     1
 43
0.0
 10
893.1003090885543
 20
44.56692838592089
 10
893.0990775431245
 20
44.56569527562151
  0
LINE
  5
E22
330
1F
100
AcDbEntity
  8
HEWI
100
AcDbLine
 10
893.106226523686
 20
44.57332300047055
 30
0.0
 11
893.1073606159143
 21
44.57464629181258
 31
0.0
  0
LINE
  5
E23
330
1F
100
AcDbEntity
  8
HEWI
100
AcDbLine
 10
893.1106607861465
 20
44.57870108193133
 30
0.0
 11
893.1117262159123
 21
44.5800802572367
 31
0.0
  0
LWPOLYLINE
  5
E24
330
1F
100
AcDbEntity
  8
HEWI
100
AcDbPolyline
 90
        3
 70
     0
 43
0.0
 10
893.0952903426486
 20
44.56209117250096
 10
893.0990775431245
 20
44.56569527562151
 10
893.1003090885543
 20
44.56692838592089
  0
LWPOLYLINE
  5
E25
330
1F
100
AcDbEntity
  8
HEWI
100
AcDbPolyline
 90
       20
 70
     0
 43
0.0
 10
893.7404841557246
 20
45.22194483547109
 10
894.0342737006858
 20
45.11995425835634
 10
894.3302020712371
 20
45.02434686247652
 10
894.6281305977127
 20
44.93516744869139
 10
894.9279196732014
 20
44.85245780575183
 10
895.2294288189287
 20
44.77625669074227
 10
895.532516750146
 20
44.70659981088743
 10
895.8370414422743
 20
44.6435198068471
 10
896.1428601974921
 20
44.58704623740259
 10
896.4498297115634
 20
44.53720556561648
 10
896.757806141054
 20
44.49402114642707
 10
897.0666451706811
 20
44.45751321570724
 10
897.3762020809363
 20
44.42769888077605
 10
897.6863318159402
 20
44.40459211240663
 10
897.9968890513964
 20
44.38820373822664
 10
898.3077282626609
 20
44.37854143771146
 10
898.6187037929912
 20
44.37560973852696
 10
898.9296699217311
 20
44.37941001444669
 10
899.2404809326499
 20
44.38994048469594
 10
899.5509911822036
 20
44.40719621478165
  0
LWPOLYLINE
  5
E26
330
1F
100
AcDbEntity
  8
HEWI
100
AcDbPolyline
 90
       41
 70
     0
 43
0.0
 10
902.5334856158943
 20
43.41190517710201
 10
902.3746366295481
 20
43.31903116665698
 10
902.2140999109351
 20
43.22910595160606
 10
902.0519301938939
 20
43.14216019130667
 10
901.8881827689792
 20
43.05822352926184
 10
901.7229134646905
 20
42.9773245830725
 10
901.5561786283715
 20
42.8994909346366
 10
901.3880351070392
 20
42.8247491207665
 10
901.2185402279929
 20
42.75312462412585
 10
901.0477517792706
 20
42.68464186456667
 10
900.8757279899374
 20
42.61932419078703
 10
900.7025275102341
 20
42.55719387236722
 10
900.5282093916058
 20
42.49827209217101
 10
900.3528330665222
 20
42.44257893916283
 10
900.1764583282593
 20
42.39013340149567
 10
899.9991453104948
 20
42.34095336011164
 10
899.8209544667815
 20
42.29505558257101
 10
899.641946549992
 20
42.25245571738724
 10
899.4621825915519
 20
42.21316828866661
 10
899.2808325150736
 20
42.18190558023734
 10
899.2773874195327
 20
42.33854976238744
 10
899.1902422691373
 20
42.45072425723178
 10
899.3680347916951
 20
42.48565355199075
 10
899.5451397965544
 20
42.52391650986765
 10
899.7214947822785
 20
42.56549962761737
 10
899.8970375121198
 20
42.61038823031667
 10
900.0717060359647
 20
42.65856647649711
 10
900.2454387122369
 20
42.71001736376688
 10
900.4181742295978
 20
42.7647227347873
 10
900.5898516286425
 20
42.82266328369614
 10
900.7604103233743
 20
42.88381856293113
 10
900.9297901225645
 20
42.9481669904058
 10
901.0979312510562
 20
43.01568585718114
 10
901.2647743708248
 20
43.08635133542593
 10
901.4302606019146
 20
43.16013848687162
 10
901.5943315432114
 20
43.23702127157189
 10
901.756929293092
 20
43.31697255712724
 10
901.9179964698006
 20
43.39996412823693
 10
902.077476231766
 20
43.48596669667158
 10
902.2353122975847
 20
43.57494991159597
 10
902.3914489659592
 20
43.66688237029193
  0
LINE
  5
E27
330
1F
100
AcDbEntity
  8
HEWI
100
AcDbLine
 10
902.3934763379829
 20
43.66351192717643
 30
0.0
 11
900.7308947608827
 21
44.62275568180216
 31
0.0
  0
LWPOLYLINE
  5
E28
330
1F
100
AcDbEntity
  8
HEWI
100
AcDbPolyline
 90
        9
 70
     0
 43
0.0
 10
900.7308947608827
 20
44.62275568180216
 10
900.4403224836924
 20
44.55686823199157
 10
900.1466280886589
 20
44.50153138688647
 10
899.8498115758147
 20
44.45631450956653
 10
899.5500882635852
 20
44.42078696309663
 10
899.3516722921695
 20
44.64762496433109
 10
899.165098836679
 20
44.70759115640162
 10
899.6869231521804
 20
44.79856320720641
 10
900.1864620058814
 20
44.94358019233145
  0
LWPOLYLINE
  5
E29
330
1F
100
AcDbEntity
  8
HEWI
100
AcDbPolyline
 90
        2
 70
     1
 43
0.0
 10
893.1166953151469
 20
44.58464431377733
 10
893.1166953151469
 20
44.58464431377733
  0
LWPOLYLINE
  5
E2A
330
1F
100
AcDbEntity
  8
HEWI
100
AcDbPolyline
 90
       13
 70
     0
 43
0.0
 10
893.5667109204178
 20
45.11325114152128
 10
893.5108357770868
 20
45.04865560249213
 10
893.455498929935
 20
44.98384474499544
 10
893.4000544235377
 20
44.91871090980139
 10
893.3450405540853
 20
44.85325409692022
 10
893.2904573215864
 20
44.78790494326658
 10
893.2356587706044
 20
44.72244813037632
 10
893.2085286432075
 20
44.68982738316554
 10
893.1809678788658
 20
44.65742195442117
 10
893.167079837457
 20
44.64116541043181
 10
893.1532994552844
 20
44.62512418490205
 10
893.1390884361745
 20
44.6089753001459
 10
893.1247697578191
 20
44.5934723707765
  0
LINE
  5
E2B
330
1F
100
AcDbEntity
  8
HEWI
100
AcDbLine
 10
893.1247697578191
 20
44.5934723707765
 30
0.0
 11
893.1235855062286
 21
44.59174982307131
 31
0.0
  0
LWPOLYLINE
  5
E2C
330
1F
100
AcDbEntity
  8
HEWI
100
AcDbPolyline
 90
        4
 70
     0
 43
0.0
 10
893.1213246622784
 20
44.58916600151183
 10
893.1201404106877
 20
44.58808940919225
 10
893.1166953151469
 20
44.58464431377733
 10
893.1131425603643
 20
44.58119921836241
  0
LWPOLYLINE
  5
E2D
330
1F
100
AcDbEntity
  8
HEWI
100
AcDbPolyline
 90
       20
 70
     0
 43
0.0
 10
892.7766794013724
 20
44.30671699449617
 10
892.7919126998904
 20
44.27474492110177
 10
892.8072568535307
 20
44.24282590153125
 10
892.8227116775188
 20
44.21096032015639
 10
892.838276985748
 20
44.17914856067709
 10
892.8539525907899
 20
44.14739100617707
 10
892.8697383038842
 20
44.11568803905679
 10
892.8856339349467
 20
44.08404004108688
 10
892.9016392925577
 20
44.05244739336153
 10
892.9177541839917
 20
44.0209104763167
 10
892.9339784151844
 20
43.98942966970166
 10
892.950311790787
 20
43.95800535261201
 10
892.9667541140943
 20
43.92663790343731
 10
892.9833051871401
 20
43.89532769991233
 10
892.9999648106049
 20
43.86407511905217
 10
893.0167327838708
 20
43.83288053720234
 10
893.0336089050243
 20
43.80174432999552
 10
893.050592970866
 20
43.77066687237202
 10
893.0676847768509
 20
43.73964853854686
 10
893.0848841171927
 20
43.7086897020461
  0
LWPOLYLINE
  5
E2E
330
1F
100
AcDbEntity
  8
HEWI
100
AcDbPolyline
 90
        4
 70
     0
 43
0.0
 10
944.5472347625445
 20
66.80163400857651
 10
902.494030064131
 20
42.53653508952111
 10
902.5142700004462
 20
42.97341625184144
 10
902.5345099367632
 20
43.41018975493766
  0
LWPOLYLINE
  5
E2F
330
1F
100
AcDbEntity
  8
HEWI
100
AcDbPolyline
 90
        3
 70
     0
 43
0.0
 10
893.1131425603643
 20
44.58119921836241
 10
893.0987162227857
 20
44.14474869296696
 10
893.0841822259672
 20
43.70829816756581
  0
LWPOLYLINE
  5
E30
330
1F
100
AcDbEntity
  8
HEWI
100
AcDbPolyline
 90
       17
 70
     0
 43
0.0
 10
902.5303732200928
 20
43.45762597515231
 10
902.5272001236089
 20
43.47320491395207
 10
902.5232312922335
 20
43.48860037606214
 10
902.5184771964623
 20
43.50377174547047
 10
902.5129503784583
 20
43.51867899739686
 10
902.5066654189549
 20
43.53328280380565
 10
902.4996388988119
 20
43.54754463725185
 10
902.4918893552467
 20
43.561426872441
 10
902.4834372329488
 20
43.57489288554261
 10
902.4743048301434
 20
43.58790715078753
 10
902.4645162397419
 20
43.60043533421758
 10
902.4540972858222
 20
43.61244438421663
 10
902.4430754554405
 20
43.62390261876639
 10
902.4314798261775
 20
43.63477980896646
 10
902.4193409893859
 20
43.64504725884699
 10
902.4066909694965
 20
43.65467788102733
 10
902.3935631395389
 20
43.66364626818636
  0
LWPOLYLINE
  5
E31
330
1F
100
AcDbEntity
  8
HEWI
100
AcDbPolyline
 90
        9
 70
     0
 43
0.0
 10
892.8587437863743
 20
43.66867957029653
 10
892.8827517959426
 20
43.65855960251592
 10
892.9095589456402
 20
43.65285366323205
 10
892.938411620803
 20
43.65156175245174
 10
892.9682332290985
 20
43.65468387017158
 10
892.9985931335714
 20
43.66222001639157
 10
893.0285224011013
 20
43.67384721341664
 10
893.0573750762697
 20
43.68935014278718
 10
893.0841822259672
 20
43.70829816756581
  0
LWPOLYLINE
  5
E32
330
1F
100
AcDbEntity
  8
HEWI
100
AcDbPolyline
 90
        5
 70
     0
 43
0.0
 10
893.5667109204178
 20
45.11325114152128
 10
893.5452867325139
 20
45.14985528031075
 10
893.5217093598939
 20
45.18785898910691
 10
893.4955481656151
 20
45.2273699271464
 10
893.4675567643271
 20
45.26828043520167
  0
LWPOLYLINE
  5
E33
330
1F
100
AcDbEntity
  8
HEWI
100
AcDbPolyline
 90
        4
 70
     0
 43
0.0
 10
902.5350450116139
 20
43.41020106764204
 10
902.5343008449809
 20
43.42608244323769
 10
902.5327422104956
 20
43.44190465969204
 10
902.5303732200928
 20
43.45762597515231
  0
LWPOLYLINE
  5
E34
330
1F
100
AcDbEntity
  8
HEWI
100
AcDbPolyline
 90
        3
 70
     0
 43
0.0
 10
896.4018092336619
 20
42.39313299287146
 10
896.431200205011
 20
42.54859292347673
 10
896.3563770361897
 20
42.66464957526664
  0
LINE
  5
E35
330
1F
100
AcDbEntity
  8
HEWI
100
AcDbLine
 10
944.5879299536418
 20
67.67539633322741
 30
0.0
 11
902.5345099367632
 21
43.41018975493766
 31
0.0
  0
LINE
  5
E36
330
1F
100
AcDbEntity
  8
HEWI
100
AcDbLine
 10
902.3934763379829
 20
43.66351192717643
 30
0.0
 11
944.4468963548615
 21
67.92839552776655
 31
0.0
  0
LWPOLYLINE
  5
E37
330
1F
100
AcDbEntity
  8
HEWI
100
AcDbPolyline
 90
       20
 70
     0
 43
0.0
 10
900.7304620718105
 20
44.62436694937678
 10
900.8924134913204
 20
44.66894313951711
 10
901.0537957102052
 20
44.71553797211668
 10
901.2145835681431
 20
44.76414418280255
 10
901.3747519975286
 20
44.81475419362168
 10
901.534276027286
 20
44.86736011423118
 10
901.693130786799
 20
44.92195374308635
 10
901.8512915098391
 20
44.97852656877653
 10
902.0087335383422
 20
45.03706977131201
 10
902.1654323263019
 20
45.09757422350758
 10
902.3213634435933
 20
45.16003049242072
 10
902.4765025797742
 20
45.2244288408056
 10
902.6308255478625
 20
45.29075922863085
 10
902.7843082881362
 20
45.35901131466657
 10
902.9369268718719
 20
45.42917445805215
 10
903.0886575050544
 20
45.5012377200117
 10
903.2394765321214
 20
45.5751898655174
 10
903.3893604396244
 20
45.6510193650618
 10
903.5382858599142
 20
45.72871439643704
 10
903.6862295747514
 20
45.80826284660616
  0
LWPOLYLINE
  5
E38
330
1F
100
AcDbEntity
  8
HEWI
100
AcDbPolyline
 90
        6
 70
     0
 43
0.0
 10
935.4612259053965
 20
72.68564165904109
 10
937.3868189953418
 20
71.15644993168217
 10
938.3992464479751
 20
69.35875608040561
 10
938.3992464479751
 20
67.46825997139154
 10
937.3868189953418
 20
65.67056612012066
 10
935.4612259053965
 20
64.14105141506666
  0
LWPOLYLINE
  5
E39
330
1F
100
AcDbEntity
  8
HEWI
100
AcDbPolyline
 90
        3
 70
     0
 43
0.0
 10
933.8730368601673
 20
69.33765487099236
 10
935.6739605551638
 20
67.7725049602364
 10
936.2811586445777
 20
65.92679509161627
  0
LWPOLYLINE
  5
E3A
330
1F
100
AcDbEntity
  8
HEWI
100
AcDbPolyline
 90
        3
 70
     0
 43
0.0
 10
933.8730368601673
 20
69.33765487099236
 10
933.9897394716818
 20
69.86841488337773
 10
934.0530431022843
 20
70.38194941868169
  0
LWPOLYLINE
  5
E3B
330
1F
100
AcDbEntity
  8
HEWI
100
AcDbPolyline
 90
        3
 70
     0
 43
0.0
 10
934.0530431022843
 20
70.38194941868169
 10
934.5054272107436
 20
71.7050813765266
 10
935.4612259053965
 20
72.68564165904109
  0
LWPOLYLINE
  5
E3C
330
1F
100
AcDbEntity
  8
HEWI
100
AcDbPolyline
 90
        3
 70
     0
 43
0.0
 10
900.7308947608827
 20
44.62275568180216
 10
900.4450594900617
 20
44.87446296557123
 10
900.1909836937839
 20
44.91494283669708
  0
LWPOLYLINE
  5
E3D
330
1F
100
AcDbEntity
  8
HEWI
100
AcDbPolyline
 90
        3
 70
     0
 43
0.0
 10
64.68031868658363
 20
627.705858486872
 10
64.58038400103396
 20
627.705858486872
 10
64.58038400103396
 20
694.6349113668166
  0
LINE
  5
E3E
330
1F
100
AcDbEntity
  8
HEWI
100
AcDbLine
 10
64.3303723409017
 20
922.3938296704019
 30
0.0
 11
159.7863798553462
 21
922.3938296704019
 31
0.0
  0
LWPOLYLINE
  5
E3F
330
1F
100
AcDbEntity
  8
HEWI
100
AcDbPolyline
 90
        3
 70
     0
 43
0.0
 10
944.5879299536418
 20
67.67539633322741
 10
944.5491726287901
 20
67.81847545218198
 10
944.4468963548615
 20
67.92839552776655
  0
LWPOLYLINE
  5
E40
330
1F
100
AcDbEntity
  8
HEWI
100
AcDbPolyline
 90
        3
 70
     0
 43
0.0
 10
904.0197767526469
 20
45.99928661858739
 10
903.853335574232
 20
45.90390053928245
 10
903.6853871665252
 20
45.80980637075668
  0
LINE
  5
E41
330
1F
100
AcDbEntity
  8
HEWI
100
AcDbLine
 10
891.6100043113502
 20
97.98836025342239
 30
0.0
 11
935.4612259053965
 21
72.68564165904109
 31
0.0
  0
LWPOLYLINE
  5
E42
330
1F
100
AcDbEntity
  8
HEWI
100
AcDbPolyline
 90
        3
 70
     0
 43
0.0
 10
944.4468963548615
 20
67.92839552776655
 10
945.2629533615608
 20
69.06592297012736
 10
944.4468963548615
 20
70.20334275326177
  0
LWPOLYLINE
  5
E43
330
1F
100
AcDbEntity
  8
HEWI
100
AcDbPolyline
 90
        3
 70
     0
 43
0.0
 10
903.0222062745369
 20
46.09940970408756
 10
903.4804039817309
 20
46.1870443187061
 10
904.0197767526469
 20
45.99928661858739
  0
LWPOLYLINE
  5
E44
330
1F
100
AcDbEntity
  8
HEWI
100
AcDbPolyline
 90
        3
 70
     0
 43
0.0
 10
934.4617175610428
 20
64.2402055674816
 10
934.9203459051796
 20
64.32913209288159
 10
935.4612259053965
 20
64.14105141506666
  0
LINE
  5
E45
330
1F
100
AcDbEntity
  8
HEWI
100
AcDbLine
 10
911.0863136663093
 20
89.4524904072162
 30
0.0
 11
891.6097889928868
 21
100.6908222880761
 31
0.0
  0
LWPOLYLINE
  5
E46
330
1F
100
AcDbEntity
  8
HEWI
100
AcDbPolyline
 90
        3
 70
     0
 43
0.0
 10
936.5281289313053
 20
66.70614027004631
 10
935.960764759092
 20
68.69417564299766
 10
934.0530431022843
 20
70.38194941868169
  0
LINE
  5
E47
330
1F
100
AcDbEntity
  8
HEWI
100
AcDbLine
 10
944.5472347625445
 20
66.80163400857651
 30
0.0
 11
944.5879299536418
 21
67.67539633322741
 31
0.0
  0
LWPOLYLINE
  5
E48
330
1F
100
AcDbEntity
  8
HEWI
100
AcDbPolyline
 90
        3
 70
     0
 43
0.0
 10
903.6853871665252
 20
45.80980637075668
 10
903.1559190452925
 20
46.00273171399549
 10
902.7063340769554
 20
45.92015708327067
  0
LINE
  5
E49
330
1F
100
AcDbEntity
  8
HEWI
100
AcDbLine
 10
891.6097889928868
 20
78.8952108262211
 30
0.0
 11
925.7346445957582
 21
59.20498329990692
 31
0.0
  0
LINE
  5
E4A
330
1F
100
AcDbEntity
  8
HEWI
100
AcDbLine
 10
944.4468963548615
 20
70.20334275326177
 30
0.0
 11
911.0863136663093
 21
89.4524904072162
 31
0.0
  0
LINE
  5
E4B
330
1F
100
AcDbEntity
  8
HEWI
100
AcDbLine
 10
935.4612259053965
 20
64.14105141506666
 30
0.0
 11
904.0197767526469
 21
45.99928661858739
 31
0.0
  0
LWPOLYLINE
  5
E4C
330
1F
100
AcDbEntity
  8
HEWI
100
AcDbPolyline
 90
        6
 70
     0
 43
0.0
 10
64.3303723409017
 20
920.3958896481319
 10
62.21013135278645
 20
920.3958896481319
 10
61.33192805227372
 20
920.3958896481319
 10
61.33192805227372
 20
922.3938296704019
 10
62.21013135278645
 20
922.3938296704019
 10
64.3303723409017
 20
922.3938296704019
  0
LWPOLYLINE
  5
E4D
330
1F
100
AcDbEntity
  8
HEWI
100
AcDbPolyline
 90
        6
 70
     0
 43
0.0
 10
159.7863798553462
 20
922.3938296704019
 10
161.9066208434524
 20
922.3938296704019
 10
162.7850125476298
 20
922.3938296704019
 10
162.7850125476298
 20
920.3958896481319
 10
161.9066208434524
 20
920.3958896481319
 10
159.7863798553462
 20
920.3958896481319
  0
LWPOLYLINE
  5
E4E
330
1F
100
AcDbEntity
  8
HEWI
100
AcDbPolyline
 90
        3
 70
     0
 43
0.0
 10
62.09213683045255
 20
576.2600871649121
 10
62.90881287775483
 20
576.2600871649121
 10
64.88029571691732
 20
576.2600871649121
  0
LWPOLYLINE
  5
E4F
330
1F
100
AcDbEntity
  8
HEWI
100
AcDbPolyline
 90
        9
 70
     0
 43
0.0
 10
162.2206628340254
 20
579.1345886518556
 10
162.2211473005891
 20
578.7718308705721
 10
162.2217394263825
 20
578.4310355725629
 10
162.2220624040947
 20
578.1122565874373
 10
162.2224392114149
 20
577.8151709375013
 10
162.2227621891225
 20
577.5396171339125
 10
162.2229236779785
 20
577.2858104951317
 10
162.2233004853033
 20
577.0538586803874
 10
162.2235158037674
 20
576.8441384969967
  0
LWPOLYLINE
  5
E50
330
1F
100
AcDbEntity
  8
HEWI
100
AcDbPolyline
 90
        7
 70
     0
 43
0.0
 10
162.2235158037674
 20
576.8441384969967
 10
162.223677292628
 20
576.6591799369027
 10
162.2238387814795
 20
576.4986061927922
 10
162.2238387814795
 20
576.3620404573519
 10
162.2240002703311
 20
576.2498595379017
 10
162.2240002703311
 20
576.1623864121268
 10
162.2242155888089
 20
576.1000517169621
  0
LWPOLYLINE
  5
E51
330
1F
100
AcDbEntity
  8
HEWI
100
AcDbPolyline
 90
       20
 70
     0
 43
0.0
 10
162.2200553572438
 20
579.1345884936718
 10
162.2199375169621
 20
579.4143997751311
 10
162.2197297147486
 20
579.6942110042366
 10
162.2194319506261
 20
579.974022152073
 10
162.2190442246174
 20
580.2538331897117
 10
162.2185665367678
 20
580.533644088226
 10
162.2179988871185
 20
580.8134548187056
 10
162.217341275742
 20
581.0932653522159
 10
162.2165937026975
 20
581.3730756598361
 10
162.2157561680624
 20
581.6528857126477
 10
162.2148286719275
 20
581.9326954817163
 10
162.213811214393
 20
582.2125049381257
 10
162.2127037955451
 20
582.4923140529526
 10
162.2115064155114
 20
582.7721227972663
 10
162.2102190744144
 20
583.0519311421571
 10
162.2088417723998
 20
583.3317390586919
 10
162.2073745095767
 20
583.6115465179475
 10
162.2058172861316
 20
583.8913534910066
 10
162.2041701022144
 20
584.1711599489358
 10
162.2024329579844
 20
584.4509658628258
  0
LINE
  5
E52
330
1F
100
AcDbEntity
  8
HEWI
100
AcDbLine
 10
162.1664564088505
 20
574.9510585664231
 30
0.0
 11
162.2242155888089
 21
576.0498825149816
 31
0.0
  0
LINE
  5
E53
330
1F
100
AcDbEntity
  8
HEWI
100
AcDbLine
 10
61.9502150429762
 20
574.9510585664231
 30
0.0
 11
61.89259043706079
 21
576.0498825149816
 31
0.0
  0
LWPOLYLINE
  5
E54
330
1F
100
AcDbEntity
  8
HEWI
100
AcDbPolyline
 90
        3
 70
     0
 43
0.0
 10
64.88029571691732
 20
574.7615783185913
 10
62.94953498365976
 20
574.7615783185913
 10
62.14984218079371
 20
574.7615783185913
  0
LINE
  5
E55
330
1F
100
AcDbEntity
  8
HEWI
100
AcDbLine
 10
159.2366179681776
 20
574.7615783185913
 30
0.0
 11
112.0584030129348
 21
574.7615783185913
 31
0.0
  0
LWPOLYLINE
  5
E56
330
1F
100
AcDbEntity
  8
HEWI
100
AcDbPolyline
 90
       11
 70
     0
 43
0.0
 10
159.2366179681776
 20
576.2600871649121
 10
161.2079662333017
 20
576.2600871649121
 10
162.0245615361782
 20
576.2600871649121
 10
162.0245615361782
 20
576.2725756357915
 10
162.0244000473221
 20
576.3095565818876
 10
162.0244000473221
 20
576.3709761735876
 10
162.0244000473221
 20
576.4571573885766
 10
162.0242385584706
 20
576.5676695899376
 10
162.0240232399974
 20
576.7021359703571
 10
162.0240232399974
 20
576.8606103594513
 10
162.0238617511504
 20
577.0427697795216
  0
LINE
  5
E57
330
1F
100
AcDbEntity
  8
HEWI
100
AcDbLine
 10
162.2242155888089
 20
576.0516050626868
 30
0.0
 11
162.2242155888089
 21
576.0507437888313
 31
0.0
  0
LWPOLYLINE
  5
E58
330
1F
100
AcDbEntity
  8
HEWI
100
AcDbPolyline
 90
        5
 70
     0
 43
0.0
 10
162.2242155888089
 20
576.1000517169621
 10
162.2242155888089
 20
576.0780892336876
 10
162.2242155888089
 20
576.0623171562415
 10
162.2242155888089
 20
576.0569341946515
 10
162.2242155888089
 20
576.0530046326969
  0
LINE
  5
E59
330
1F
100
AcDbEntity
  8
HEWI
100
AcDbLine
 10
112.0584030129348
 20
574.7615783185913
 30
0.0
 11
64.88029571691732
 21
574.7615783185913
 31
0.0
  0
LINE
  5
E5A
330
1F
100
AcDbEntity
  8
HEWI
100
AcDbLine
 10
112.0584030129348
 20
576.2600871649121
 30
0.0
 11
159.2366179681776
 21
576.2600871649121
 31
0.0
  0
LINE
  5
E5B
330
1F
100
AcDbEntity
  8
HEWI
100
AcDbLine
 10
64.3303723409017
 20
920.3958896481319
 30
0.0
 11
159.7863798553462
 21
920.3958896481319
 31
0.0
  0
LINE
  5
E5C
330
1F
100
AcDbEntity
  8
HEWI
100
AcDbLine
 10
64.88029571691732
 20
576.2600871649121
 30
0.0
 11
112.0584030129348
 21
576.2600871649121
 31
0.0
  0
LWPOLYLINE
  5
E5D
330
1F
100
AcDbEntity
  8
HEWI
100
AcDbPolyline
 90
        3
 70
     0
 43
0.0
 10
161.9669638450759
 20
574.7615783185913
 10
161.1672172125882
 20
574.7615783185913
 10
159.2366179681776
 20
574.7615783185913
  0
LWPOLYLINE
  5
E5E
330
1F
100
AcDbEntity
  8
HEWI
100
AcDbPolyline
 90
       20
 70
     0
 43
0.0
 10
61.91436403453372
 20
584.4509657414719
 10
61.91263128742412
 20
584.1711598026629
 10
61.91098760946807
 20
583.8913533264517
 10
61.90943300081563
 20
583.6115463411918
 10
61.90796746164415
 20
583.3317388752366
 10
61.90659099209006
 20
583.0519309569476
 10
61.90530359228069
 20
582.772122614667
 10
61.90410526237065
 20
582.4923138767517
 10
61.90299600246908
 20
582.2125047715619
 10
61.90197581268512
 20
581.9326953274364
 10
61.90104469312792
 20
581.6528855727413
 10
61.90020264387931
 20
581.373075535823
 10
61.89944966504845
 20
581.0932652450365
 10
61.898785756699
 20
580.8134547287372
 10
61.89821091889462
 20
580.533644015272
 10
61.89772515169898
 20
580.2538331330013
 10
61.89732845514845
 20
579.9740221102772
 10
61.89702082930216
 20
579.6942109754477
 10
61.89680227418285
 20
579.414399756873
 10
61.89667278980414
 20
579.1345884828976
  0
LWPOLYLINE
  5
E5F
330
1F
100
AcDbEntity
  8
HEWI
100
AcDbPolyline
 90
        9
 70
     0
 43
0.0
 10
61.89329022209313
 20
576.8441384969967
 10
61.8936401146093
 20
577.0538586803874
 10
61.8938285182694
 20
577.2858104951317
 10
61.89417841079012
 20
577.5397786227618
 10
61.89433989964164
 20
577.8151709375013
 10
61.89468979215326
 20
578.1122565874373
 10
61.89522808833863
 20
578.4311970614064
 10
61.89560489565884
 20
578.7718308705721
 10
61.89611627702652
 20
579.1345886518556
  0
LWPOLYLINE
  5
E60
330
1F
100
AcDbEntity
  8
HEWI
100
AcDbPolyline
 90
        3
 70
     0
 43
0.0
 10
61.89259043706079
 20
576.0569341946515
 10
61.89259043706079
 20
576.0569341946515
 10
61.89259043706079
 20
576.0624786450884
  0
LWPOLYLINE
  5
E61
330
1F
100
AcDbEntity
  8
HEWI
100
AcDbPolyline
 90
        7
 70
     0
 43
0.0
 10
61.89277884072089
 20
576.1000517169621
 10
61.89277884072089
 20
576.1623864121268
 10
61.89277884072089
 20
576.2498595379017
 10
61.89294032957241
 20
576.3620404573519
 10
61.89294032957241
 20
576.4986061927922
 10
61.89312873324161
 20
576.6591799369027
 10
61.89329022209313
 20
576.8441384969967
  0
LWPOLYLINE
  5
E62
330
1F
100
AcDbEntity
  8
HEWI
100
AcDbPolyline
 90
       20
 70
     0
 43
0.0
 10
62.0921065943603
 20
576.2600872485425
 10
62.09221616153263
 20
576.3012809482561
 10
62.09231698239455
 20
576.3424746703126
 10
62.0924090569506
 20
576.3836684128373
 10
62.09249238519169
 20
576.4248621739873
 10
62.09256696709963
 20
576.4660559519016
 10
62.09263280268351
 20
576.5072497447167
 10
62.09268989193879
 20
576.5484435505912
 10
62.09273823485637
 20
576.5896373676512
 10
62.09277783144535
 20
576.6308311940528
 10
62.09280868169662
 20
576.6720250279226
 10
62.09283078561475
 20
576.7132188674233
 10
62.09284414318609
 20
576.754412710686
 10
62.09284875442881
 20
576.7956065558573
 10
62.09284461932475
 20
576.8368004010776
 10
62.09283173787844
 20
576.8779942444914
 10
62.09281011010353
 20
576.9191880842422
 10
62.09277973598182
 20
576.9603819184724
 10
62.09274061553606
 20
577.0015757453266
 10
62.0926927487526
 20
577.0427695629414
  0
LINE
  5
E63
330
1F
100
AcDbEntity
  8
HEWI
100
AcDbLine
 10
61.89259043706079
 20
576.0500440038274
 30
0.0
 11
61.89259043706079
 21
576.0503669815213
 31
0.0
  0
LWPOLYLINE
  5
E64
330
1F
100
AcDbEntity
  8
HEWI
100
AcDbPolyline
 90
       20
 70
     0
 43
0.0
 10
62.11210046252381
 20
584.5385458337919
 10
62.11055937309629
 20
584.2628302741875
 10
62.10909554122372
 20
583.9871142935769
 10
62.1077089670016
 20
583.7113979136163
 10
62.1063996505527
 20
583.4356811559562
 10
62.10516759196344
 20
583.1599640422312
 10
62.10401279134749
 20
582.8842465941066
 10
62.10293524878671
 20
582.6085288332226
 10
62.1019349643675
 20
582.3328107812219
 10
62.10101193817172
 20
582.0570924597618
 10
62.10016617027213
 20
581.781373890486
 10
62.09939766071875
 20
581.5056550950519
 10
62.09870640959343
 20
581.2299360950882
 10
62.0980924169462
 20
580.9542169122628
 10
62.09755568281798
 20
580.6784975682112
 10
62.09709620724971
 20
580.4027780845919
 10
62.09671399029139
 20
580.1270584830477
 10
62.09640903195214
 20
579.8513387852231
 10
62.09618133227741
 20
579.5756190127767
 10
62.09603089126722
 20
579.2998991873478
  0
LWPOLYLINE
  5
E65
330
1F
100
AcDbEntity
  8
HEWI
100
AcDbPolyline
 90
       21
 70
     0
 43
0.0
 10
161.9855868324302
 20
584.725635973742
 10
161.9237440541483
 20
584.9076880834773
 10
161.8503649306249
 20
585.0854041610566
 10
161.7657509547925
 20
585.2580540241408
 10
161.6702497802325
 20
585.4249283059616
 10
161.564253792777
 20
585.5853413698773
 10
161.4481984982931
 20
585.7386341264677
 10
161.3225607333934
 20
585.8841767415262
 10
161.1878567061567
 20
586.0213712238826
 10
161.0446398752274
 20
586.1496538823425
 10
160.8934986758513
 20
586.2684976417219
 10
160.7350541021205
 20
586.377414208483
 10
160.5699571554996
 20
586.4759560769423
 10
160.3988861701018
 20
586.5637183679675
 10
160.2225440255788
 20
586.6403404924867
 10
160.0416552591569
 20
586.7055076330516
 10
159.8569630888332
 20
586.7589520373221
 10
159.669226359616
 20
586.8004541181924
 10
159.4792164257214
 20
586.8298433559866
 10
159.2877139812808
 20
586.8469989991021
 10
159.0955058526933
 20
586.8518505601125
  0
LWPOLYLINE
  5
E66
330
1F
100
AcDbEntity
  8
HEWI
100
AcDbPolyline
 90
       21
 70
     0
 43
0.0
 10
65.02129950050494
 20
586.8517882238311
 10
64.82906667026873
 20
586.8469488610921
 10
64.63753846561394
 20
586.8298074708409
 10
64.44750134962851
 20
586.8004344399614
 10
64.25973566260473
 20
586.7589503815176
 10
64.07501241775299
 20
586.7055256395028
 10
63.89409013528257
 20
586.6403795893663
 10
63.71771172766421
 20
586.5637797372174
 10
63.54660144909849
 20
586.4760406213426
 10
63.38146192149543
 20
586.3775225206652
 10
63.22297124936631
 20
586.2686299753372
 10
63.07178023537381
 20
586.1498101255822
 10
62.92850970788641
 20
586.0215508756469
 10
62.79374797181481
 20
585.8843788903377
 10
62.66804839281213
 20
585.7388574323815
 10
62.55192712500593
 20
585.5855840495721
 10
62.44586099159824
 20
585.4251881210277
 10
62.35028552685526
 20
585.2583282728526
 10
62.26559318771797
 20
585.0856896736363
 10
62.19213174227752
 20
584.9079812209729
 10
62.13020284174127
 20
584.7259326305366
  0
LWPOLYLINE
  5
E67
330
1F
100
AcDbEntity
  8
HEWI
100
AcDbPolyline
 90
        9
 70
     0
 43
0.0
 10
162.0238617511504
 20
577.0427697795216
 10
162.0237002622944
 20
577.2493678451971
 10
162.0233772845822
 20
577.4779822237528
 10
162.0232157957307
 20
577.7281822782717
 10
162.0228389884105
 20
577.9995373718223
 10
162.0225160106984
 20
578.2923166524867
 10
162.022139203369
 20
578.6065201202618
 10
162.0217623960489
 20
578.9422016047715
 10
162.021224099868
 20
579.2997379133177
  0
LINE
  5
E68
330
1F
100
AcDbEntity
  8
HEWI
100
AcDbLine
 10
162.018660908544
 20
580.9541064752554
 30
0.0
 11
162.0180548418338
 21
581.2298341741129
 31
0.0
  0
LWPOLYLINE
  5
E69
330
1F
100
AcDbEntity
  8
HEWI
100
AcDbPolyline
 90
        7
 70
     0
 43
0.0
 10
162.020679358835
 20
579.2997377053311
 10
162.0205355636799
 20
579.5754660327768
 10
162.0203147232187
 20
579.8511943092726
 10
162.0200168374467
 20
580.1269225133021
 10
162.0196419063868
 20
580.4026506233229
 10
162.0191899300707
 20
580.6783786178173
 10
162.018660908544
 20
580.9541064752554
  0
LWPOLYLINE
  5
E6A
330
1F
100
AcDbEntity
  8
HEWI
100
AcDbPolyline
 90
       10
 70
     0
 43
0.0
 10
162.0157743711716
 20
582.057016103872
 10
162.0148601242918
 20
582.3327429530977
 10
162.0138688325332
 20
582.6084695360927
 10
162.0128004959733
 20
582.8841958313305
 10
162.0116551146939
 20
583.1599218172969
 10
162.0104326887904
 20
583.4356474724424
 10
162.0091332183447
 20
583.711372775251
 10
162.0077567034659
 20
583.9870977041855
 10
162.0063031442769
 20
584.2628222377275
 10
162.0047725408549
 20
584.5385463543468
  0
LWPOLYLINE
  5
E6B
330
1F
100
AcDbEntity
  8
HEWI
100
AcDbPolyline
 90
        9
 70
     0
 43
0.0
 10
62.09550118156676
 20
579.2998994021568
 10
62.09515128905514
 20
578.9423630936162
 10
62.09461299286977
 20
578.6065201202618
 10
62.09426310035815
 20
578.2923166524867
 10
62.09391320784198
 20
577.9996988606715
 10
62.09375171898591
 20
577.7281822782717
 10
62.09340182647429
 20
577.4779822237528
 10
62.09321342280964
 20
577.2493678451971
 10
62.09286353029347
 20
577.0427697795216
  0
LWPOLYLINE
  5
E6C
330
1F
100
AcDbEntity
  8
HEWI
100
AcDbPolyline
 90
       21
 70
     0
 43
0.0
 10
65.02133463146583
 20
587.0077805102514
 10
64.81449353351854
 20
587.0002594201626
 10
64.60856404893639
 20
586.9794542777513
 10
64.40439843881541
 20
586.9454511873263
 10
64.20284166424244
 20
586.8983908742913
 10
64.0047278893926
 20
586.8384681027666
 10
63.8108770291874
 20
586.7659308695076
 10
63.6220913560428
 20
586.6810793775775
 10
63.43915217955873
 20
586.584264793897
 10
63.26281661297435
 20
586.4758877959318
 10
63.0938144397951
 20
586.3563969134222
 10
62.93284509350633
 20
586.226286672082
 10
62.7805747628654
 20
586.0860955470068
 10
62.63763363484122
 20
585.9364037340717
 10
62.50461328649726
 20
585.7778307487806
 10
62.38206423670908
 20
585.6110328623024
 10
62.27049366774827
 20
585.436700385437
 10
62.17036332628686
 20
585.2555548116911
 10
62.08208761240348
 20
585.068345831298
 10
62.00603186452645
 20
584.8758482285368
 10
61.94251084747157
 20
584.6788586752231
  0
LINE
  5
E6D
330
1F
100
AcDbEntity
  8
HEWI
100
AcDbLine
 10
162.0166115730953
 20
581.7812890099467
 30
0.0
 11
162.0157743711716
 21
582.057016103872
 31
0.0
  0
LWPOLYLINE
  5
E6E
330
1F
100
AcDbEntity
  8
HEWI
100
AcDbPolyline
 90
       21
 70
     0
 43
0.0
 10
162.1735478573155
 20
584.6786650277315
 10
162.1100974044257
 20
584.8756687218119
 10
162.0341089384474
 20
585.0681840942272
 10
161.945897058782
 20
585.2554141132324
 10
161.8458269709308
 20
585.4365836289068
 10
161.7343129744549
 20
585.6109425824022
 10
161.6118167478143
 20
585.7777691112321
 10
161.4788454369009
 20
585.9363725378657
 10
161.3359495554923
 20
586.0860962291813
 10
161.183720705968
 20
586.2263203149971
 10
161.0227891301165
 20
586.3564642543983
 10
160.8538210997867
 20
586.4759892392223
 10
160.6775161585537
 20
586.5844004247819
 10
160.4946042254696
 20
586.6812489785568
 10
160.3058425731669
 20
586.7661339384162
 10
160.1120126926398
 20
586.8387038726312
 10
159.9139170578528
 20
586.8986583348564
 10
159.7123758033794
 20
586.9457491079581
 10
159.5082233290086
 20
586.979781231706
 10
159.3023048451741
 20
587.0006138099015
 10
159.0954728738197
 20
587.0081605937159
  0
LINE
  5
E6F
330
1F
100
AcDbEntity
  8
HEWI
100
AcDbLine
 10
162.0180548418338
 20
581.2298341741129
 30
0.0
 11
162.017371730004
 21
581.5055616928484
 31
0.0
  0
LWPOLYLINE
  5
E70
330
1F
100
AcDbEntity
  8
HEWI
100
AcDbPolyline
 90
        9
 70
     0
 43
0.0
 10
61.91479515442643
 20
584.4509630030675
 10
61.91780961301993
 20
584.5078609070319
 10
61.92432299677967
 20
584.5645973221528
 10
61.93473902783899
 20
584.6210107595729
 10
61.94881547290697
 20
584.6770473896819
 10
61.98671152387396
 20
584.7309308351563
 10
62.13799966486567
 20
584.7235561777811
 10
62.11913238381021
 20
584.6316151938911
 10
62.11245751118986
 20
584.5385437880711
  0
LINE
  5
E71
330
1F
100
AcDbEntity
  8
HEWI
100
AcDbLine
 10
162.017371730004
 20
581.5055616928484
 30
0.0
 11
162.0166115730953
 21
581.7812890099467
 31
0.0
  0
LINE
  5
E72
330
1F
100
AcDbEntity
  8
HEWI
100
AcDbLine
 10
159.4365949985158
 20
679.6506841774723
 30
0.0
 11
159.4365949985158
 21
586.9533941851816
 31
0.0
  0
LWPOLYLINE
  5
E73
330
1F
100
AcDbEntity
  8
HEWI
100
AcDbPolyline
 90
        9
 70
     0
 43
0.0
 10
162.0043215998621
 20
584.5385437880711
 10
161.9976467272508
 20
584.6316151938911
 10
161.9787525313868
 20
584.7235561777811
 10
162.1300137575563
 20
584.7309308351563
 10
162.1679098085324
 20
584.6770473896819
 10
162.1822284868776
 20
584.6210107595729
 10
162.1925099438895
 20
584.5645973221528
 10
162.1991848165053
 20
584.5078609070319
 10
162.2019839566346
 20
584.4509630030675
  0
LWPOLYLINE
  5
E74
330
1F
100
AcDbEntity
  8
HEWI
100
AcDbPolyline
 90
        3
 70
     0
 43
0.0
 10
62.08155931053261
 20
694.6349113668166
 10
62.95976261105898
 20
694.6349113668166
 10
65.08005742878231
 20
694.6349113668166
  0
LINE
  5
E75
330
1F
100
AcDbEntity
  8
HEWI
100
AcDbLine
 10
62.08155931053261
 20
574.7615783185913
 30
0.0
 11
62.08155931053261
 21
539.7986506915308
 31
0.0
  0
LWPOLYLINE
  5
E76
330
1F
100
AcDbEntity
  8
HEWI
100
AcDbPolyline
 90
        6
 70
     0
 43
0.0
 10
45.08943299002658
 20
533.8050997727927
 10
42.96897668344263
 20
533.8050997727927
 10
42.09077338292536
 20
533.8050997727927
 10
42.09077338292536
 20
539.7986506915308
 10
42.96897668344263
 20
539.7986506915308
 10
45.08943299002658
 20
539.7986506915308
  0
LWPOLYLINE
  5
E77
330
1F
100
AcDbEntity
  8
HEWI
100
AcDbPolyline
 90
        7
 70
     0
 43
0.0
 10
64.68031868658363
 20
694.6349113668166
 10
64.68031868658363
 20
694.1242836307671
 10
64.68031868658363
 20
692.6272820136919
 10
64.68031868658363
 20
690.246182785721
 10
64.68031868658363
 20
687.1427977721416
 10
64.68031868658363
 20
683.5287850225163
 10
64.68031868658363
 20
679.6506841774723
  0
LWPOLYLINE
  5
E78
330
1F
100
AcDbEntity
  8
HEWI
100
AcDbPolyline
 90
        7
 70
     0
 43
0.0
 10
159.4365949985158
 20
694.6349113668166
 10
159.4365949985158
 20
694.1242836307671
 10
159.4365949985158
 20
692.6272820136919
 10
159.4365949985158
 20
690.246182785721
 10
159.4365949985158
 20
687.1427977721416
 10
159.4365949985158
 20
683.5287850225163
 10
159.4365949985158
 20
679.6506841774723
  0
LWPOLYLINE
  5
E79
330
1F
100
AcDbEntity
  8
HEWI
100
AcDbPolyline
 90
        3
 70
     0
 43
0.0
 10
62.14984218079371
 20
574.7615783185913
 10
62.09870404382946
 20
574.7615783185913
 10
62.08155931053261
 20
574.7615783185913
  0
LWPOLYLINE
  5
E7A
330
1F
100
AcDbEntity
  8
HEWI
100
AcDbPolyline
 90
        6
 70
     0
 43
0.0
 10
179.027507609886
 20
539.7986506915308
 10
181.147694768375
 20
539.7986506915308
 10
182.0261403021741
 20
539.7986506915308
 10
182.0261403021741
 20
533.8050997727927
 10
181.147694768375
 20
533.8050997727927
 10
179.027507609886
 20
533.8050997727927
  0
LINE
  5
E7B
330
1F
100
AcDbEntity
  8
HEWI
100
AcDbLine
 10
62.08155931053261
 20
920.3958896481319
 30
0.0
 11
62.08155931053261
 21
694.6349113668166
 31
0.0
  0
LINE
  5
E7C
330
1F
100
AcDbEntity
  8
HEWI
100
AcDbLine
 10
179.027507609886
 20
539.7986506915308
 30
0.0
 11
45.08943299002658
 21
539.7986506915308
 31
0.0
  0
LWPOLYLINE
  5
E7D
330
1F
100
AcDbEntity
  8
HEWI
100
AcDbPolyline
 90
        4
 70
     0
 43
0.0
 10
162.035273630132
 20
539.7986506915308
 10
162.035273630132
 20
574.7615783185913
 10
162.0180481524185
 20
574.7615783185913
 10
161.9669638450759
 20
574.7615783185913
  0
LINE
  5
E7E
330
1F
100
AcDbEntity
  8
HEWI
100
AcDbLine
 10
45.08943299002658
 20
533.8050997727927
 30
0.0
 11
179.027507609886
 21
533.8050997727927
 31
0.0
  0
LINE
  5
E7F
330
1F
100
AcDbEntity
  8
HEWI
100
AcDbLine
 10
162.035273630132
 20
920.3958896481319
 30
0.0
 11
162.035273630132
 21
694.6349113668166
 31
0.0
  0
LINE
  5
E80
330
1F
100
AcDbEntity
  8
HEWI
100
AcDbLine
 10
64.68031868658363
 20
679.6506841774723
 30
0.0
 11
64.68031868658363
 21
586.9517792967062
 31
0.0
  0
LWPOLYLINE
  5
E81
330
1F
100
AcDbEntity
  8
HEWI
100
AcDbPolyline
 90
        3
 70
     0
 43
0.0
 10
159.0367485970828
 20
694.6349113668166
 10
161.1569895851935
 20
694.6349113668166
 10
162.035273630132
 20
694.6349113668166
  0
LWPOLYLINE
  5
E82
330
1F
100
AcDbEntity
  8
HEWI
100
AcDbPolyline
 90
        4
 70
     0
 43
0.0
 10
159.0954767101639
 20
587.0129297403273
 10
65.02132931570122
 20
587.0129297403273
 10
65.02132931570122
 20
586.9688432849373
 10
65.02132931570122
 20
586.8561240693268
  0
LINE
  5
E83
330
1F
100
AcDbEntity
  8
HEWI
100
AcDbLine
 10
65.08005742878231
 20
694.6349113668166
 30
0.0
 11
159.0367485970828
 21
694.6349113668166
 31
0.0
  0
LWPOLYLINE
  5
E84
330
1F
100
AcDbEntity
  8
HEWI
100
AcDbPolyline
 90
        7
 70
     0
 43
0.0
 10
64.0805490844341
 20
679.6506841774723
 10
64.0805490844341
 20
683.5287850225163
 10
64.0805490844341
 20
687.1427977721416
 10
64.0805490844341
 20
690.246182785721
 10
64.0805490844341
 20
692.6272820136919
 10
64.0805490844341
 20
694.1242836307671
 10
64.0805490844341
 20
694.6349113668166
  0
LWPOLYLINE
  5
E85
330
1F
100
AcDbEntity
  8
HEWI
100
AcDbPolyline
 90
        3
 70
     0
 43
0.0
 10
64.0805490844341
 20
586.8142446281817
 10
64.0805490844341
 20
588.2729733883864
 10
64.0805490844341
 20
589.7458055079377
  0
LWPOLYLINE
  5
E86
330
1F
100
AcDbEntity
  8
HEWI
100
AcDbPolyline
 90
        7
 70
     0
 43
0.0
 10
62.08155931053261
 20
679.6506841774723
 10
62.08155931053261
 20
683.5287850225163
 10
62.08155931053261
 20
687.1427977721416
 10
62.08155931053261
 20
690.246182785721
 10
62.08155931053261
 20
692.6272820136919
 10
62.08155931053261
 20
694.1242836307671
 10
62.08155931053261
 20
694.6349113668166
  0
LINE
  5
E87
330
1F
100
AcDbEntity
  8
HEWI
100
AcDbLine
 10
917.972413700917
 20
840.3855363081913
 30
0.0
 11
917.972413700917
 21
777.6893214418071
 31
0.0
  0
LWPOLYLINE
  5
E88
330
1F
100
AcDbEntity
  8
HEWI
100
AcDbPolyline
 90
        3
 70
     0
 43
0.0
 10
159.5363951100225
 20
694.6349113668166
 10
159.5363951100225
 20
627.705858486872
 10
159.4365949985158
 20
627.705858486872
  0
LWPOLYLINE
  5
E89
330
1F
100
AcDbEntity
  8
HEWI
100
AcDbPolyline
 90
        3
 70
     0
 43
0.0
 10
939.8117356205194
 20
890.7120284275663
 10
939.2265000151883
 20
891.5275471078523
 10
939.8117356205194
 20
892.3432811066007
  0
LINE
  5
E8A
330
1F
100
AcDbEntity
  8
HEWI
100
AcDbLine
 10
62.08155931053261
 20
574.7615783185913
 30
0.0
 11
62.08155931053261
 21
574.763731503227
 31
0.0
  0
LWPOLYLINE
  5
E8B
330
1F
100
AcDbEntity
  8
HEWI
100
AcDbPolyline
 90
        3
 70
     0
 43
0.0
 10
62.08155931053261
 20
584.5338067818759
 10
62.08155931053261
 20
587.0980343630012
 10
62.08155931053261
 20
589.7458055079377
  0
LWPOLYLINE
  5
E8C
330
1F
100
AcDbEntity
  8
HEWI
100
AcDbPolyline
 90
        7
 70
     0
 43
0.0
 10
162.035273630132
 20
694.6349113668166
 10
162.035273630132
 20
694.1242836307671
 10
162.035273630132
 20
692.6272820136919
 10
162.035273630132
 20
690.246182785721
 10
162.035273630132
 20
687.1427977721416
 10
162.035273630132
 20
683.5287850225163
 10
162.035273630132
 20
679.6506841774723
  0
LWPOLYLINE
  5
E8D
330
1F
100
AcDbEntity
  8
HEWI
100
AcDbPolyline
 90
       13
 70
     0
 43
0.0
 10
942.4571383604279
 20
894.5862535402673
 10
941.5786389970207
 20
895.8096930495415
 10
891.0440397092125
 20
924.968550005696
 10
888.9237987211082
 20
925.4753020094019
 10
886.8033424145187
 20
924.968550005696
 10
885.0364390380118
 20
923.9489094220664
 10
883.6230885915856
 20
923.6111824121556
 10
882.2094151674528
 20
923.9489094220664
 10
877.2618273310682
 20
926.8039245880675
 10
875.1415863429601
 20
927.3104612733106
 10
873.0211300363725
 20
926.8039245880675
 10
804.8168510280984
 20
887.4495230695018
 10
803.9386746423943
 20
886.2259759009969
  0
LINE
  5
E8E
330
1F
100
AcDbEntity
  8
HEWI
100
AcDbLine
 10
62.08155931053261
 20
574.763731503227
 30
0.0
 11
62.08155931053261
 21
574.769868079438
 31
0.0
  0
LINE
  5
E8F
330
1F
100
AcDbEntity
  8
HEWI
100
AcDbLine
 10
939.8117356205194
 20
892.3432811066007
 30
0.0
 11
941.5786389970207
 21
893.3628140309968
 31
0.0
  0
LINE
  5
E90
330
1F
100
AcDbEntity
  8
HEWI
100
AcDbLine
 10
160.0362031118138
 20
679.6506841774723
 30
0.0
 11
160.0362031118138
 21
589.7458055079377
 31
0.0
  0
LWPOLYLINE
  5
E91
330
1F
100
AcDbEntity
  8
HEWI
100
AcDbPolyline
 90
        7
 70
     0
 43
0.0
 10
160.0362031118138
 20
694.6349113668166
 10
160.0362031118138
 20
694.1242836307671
 10
160.0362031118138
 20
692.6272820136919
 10
160.0362031118138
 20
690.246182785721
 10
160.0362031118138
 20
687.1427977721416
 10
160.0362031118138
 20
683.5287850225163
 10
160.0362031118138
 20
679.6506841774723
  0
LINE
  5
E92
330
1F
100
AcDbEntity
  8
HEWI
100
AcDbLine
 10
944.7593234569021
 20
885.4104572207168
 30
0.0
 11
945.6376075018406
 21
886.6338967299872
 31
0.0
  0
LWPOLYLINE
  5
E93
330
1F
100
AcDbEntity
  8
HEWI
100
AcDbPolyline
 90
        3
 70
     0
 43
0.0
 10
945.6376075018406
 20
886.6338967299872
 10
944.7593234569021
 20
887.8570132615665
 10
939.8117356205194
 20
890.7120284275663
  0
LINE
  5
E94
330
1F
100
AcDbEntity
  8
HEWI
100
AcDbLine
 10
64.0805490844341
 20
589.7458055079377
 30
0.0
 11
64.0805490844341
 21
679.6506841774723
 31
0.0
  0
LWPOLYLINE
  5
E95
330
1F
100
AcDbEntity
  8
HEWI
100
AcDbPolyline
 90
        3
 70
     0
 43
0.0
 10
160.0362031118138
 20
589.7458055079377
 10
160.0362031118138
 20
588.2056863685622
 10
160.0362031118138
 20
586.6817161139372
  0
LWPOLYLINE
  5
E96
330
1F
100
AcDbEntity
  8
HEWI
100
AcDbPolyline
 90
        3
 70
     0
 43
0.0
 10
162.035273630132
 20
589.7458055079377
 10
162.035273630132
 20
587.3117917675822
 10
162.035273630132
 20
584.9424273958718
  0
LWPOLYLINE
  5
E97
330
1F
100
AcDbEntity
  8
HEWI
100
AcDbPolyline
 90
        3
 70
     0
 43
0.0
 10
872.3143471539252
 20
846.0561633613808
 10
874.4348034605128
 20
845.5490883799768
 10
876.5550444486279
 20
846.0561633613808
  0
LINE
  5
E98
330
1F
100
AcDbEntity
  8
HEWI
100
AcDbLine
 10
804.8168510280984
 20
885.0024287324961
 30
0.0
 11
872.3143471539252
 21
846.0561633613808
 31
0.0
  0
LINE
  5
E99
330
1F
100
AcDbEntity
  8
HEWI
100
AcDbLine
 10
162.035273630132
 20
679.6506841774723
 30
0.0
 11
162.035273630132
 21
589.7458055079377
 31
0.0
  0
LINE
  5
E9A
330
1F
100
AcDbEntity
  8
HEWI
100
AcDbLine
 10
876.5550444486279
 20
846.0561633613808
 30
0.0
 11
944.7593234569021
 21
885.4104572207168
 31
0.0
  0
LINE
  5
E9B
330
1F
100
AcDbEntity
  8
HEWI
100
AcDbLine
 10
941.5786389970207
 20
893.3628140309968
 30
0.0
 11
942.4571383604279
 21
894.5862535402673
 31
0.0
  0
LINE
  5
E9C
330
1F
100
AcDbEntity
  8
HEWI
100
AcDbLine
 10
62.08155931053261
 20
589.7458055079377
 30
0.0
 11
62.08155931053261
 21
679.6506841774723
 31
0.0
  0
LINE
  5
E9D
330
1F
100
AcDbEntity
  8
HEWI
100
AcDbLine
 10
803.9386746423943
 20
886.2259759009969
 30
0.0
 11
804.8168510280984
 21
885.0024287324961
 31
0.0
  0
LWPOLYLINE
  5
E9E
330
1F
100
AcDbEntity
  8
HEWI
100
AcDbPolyline
 90
        4
 70
     0
 43
0.0
 10
877.0237927609114
 20
563.1451431950053
 10
877.0117349265138
 20
563.0944356968668
 10
876.9826669328713
 20
563.0621379273466
 10
919.0365175867
 20
587.3276674833371
  0
LWPOLYLINE
  5
E9F
330
1F
100
AcDbEntity
  8
HEWI
100
AcDbPolyline
 90
        4
 70
     0
 43
0.0
 10
804.8168510280984
 20
883.3711760534617
 10
804.166804562864
 20
883.9326189468868
 10
803.9386746423943
 20
884.5947232219662
 10
803.9386746423943
 20
886.2259759009969
  0
LINE
  5
EA0
330
1F
100
AcDbEntity
  8
HEWI
100
AcDbLine
 10
939.8117356205194
 20
890.7120284275663
 30
0.0
 11
941.5786389970207
 21
891.7314536927326
 31
0.0
  0
LWPOLYLINE
  5
EA1
330
1F
100
AcDbEntity
  8
HEWI
100
AcDbPolyline
 90
        4
 70
     0
 43
0.0
 10
944.7593234569021
 20
883.7790968824531
 10
945.4095852406053
 20
884.3404321166419
 10
945.6376075018406
 20
885.0024287324961
 10
945.6376075018406
 20
886.6338967299872
  0
LWPOLYLINE
  5
EA2
330
1F
100
AcDbEntity
  8
HEWI
100
AcDbPolyline
 90
        3
 70
     0
 43
0.0
 10
872.9805425045114
 20
564.2719047141954
 10
874.9517831104013
 20
563.8007879161878
 10
876.923346693994
 20
564.2719047141954
  0
LWPOLYLINE
  5
EA3
330
1F
100
AcDbEntity
  8
HEWI
100
AcDbPolyline
 90
        5
 70
     0
 43
0.0
 10
919.0772127777918
 20
587.4103497732963
 10
919.073121726843
 20
587.3819277361215
 10
919.0642936695176
 20
587.3579197274469
 10
919.0509439242806
 20
587.3389717026659
 10
919.0330724911573
 20
587.3257296171666
  0
LWPOLYLINE
  5
EA4
330
1F
100
AcDbEntity
  8
HEWI
100
AcDbPolyline
 90
        5
 70
     0
 43
0.0
 10
919.0330724911573
 20
587.3257296171666
 10
919.0117559624841
 20
587.3188394263368
 10
918.9882862491003
 20
587.3185164486417
 10
918.9628786694674
 20
587.3246530248459
 10
918.9361791790171
 20
587.3370338364966
  0
LWPOLYLINE
  5
EA5
330
1F
100
AcDbEntity
  8
HEWI
100
AcDbPolyline
 90
       20
 70
     0
 43
0.0
 10
869.669027886016
 20
569.5375481734415
 10
870.303071814861
 20
569.2418425980874
 10
870.9506941114387
 20
568.9771940513915
 10
871.6103745894589
 20
568.7442237520555
 10
872.2805647580743
 20
568.5434785593556
 10
872.95969145664
 20
568.3754296894371
 10
873.6461605475042
 20
568.2404716092414
 10
874.3383606579801
 20
568.1389211105513
 10
875.0346669627152
 20
568.0710165663813
 10
875.7334449977907
 20
568.0369173714111
 10
876.4330544972754
 20
568.0367035678775
 10
877.1318532435316
 20
568.0703756576362
 10
877.8282009220266
 20
568.137854601031
 10
878.5204629716963
 20
568.2389820023959
 10
879.2070144218314
 20
568.3735204818722
 10
879.8862437063972
 20
568.5411542326212
 10
880.5565564469279
 20
568.7414897621274
 10
881.2163791950979
 20
568.9740568158574
 10
881.8641631260607
 20
569.2383094810863
 10
882.4983876741544
 20
569.5336274683873
  0
LWPOLYLINE
  5
EA6
330
1F
100
AcDbEntity
  8
HEWI
100
AcDbPolyline
 90
        3
 70
     0
 43
0.0
 10
876.5550444486279
 20
844.4249106823519
 10
874.4348034605128
 20
843.9179433601774
 10
872.3143471539252
 20
844.4249106823519
  0
LINE
  5
EA7
330
1F
100
AcDbEntity
  8
HEWI
100
AcDbLine
 10
876.5550444486279
 20
844.4249106823519
 30
0.0
 11
944.7593234569021
 21
883.7790968824531
 31
0.0
  0
LWPOLYLINE
  5
EA8
330
1F
100
AcDbEntity
  8
HEWI
100
AcDbPolyline
 90
        4
 70
     0
 43
0.0
 10
872.8800964375942
 20
563.1451431950053
 10
872.8921542719936
 20
563.0944356968668
 10
872.9211146064017
 20
563.0621379273466
 10
839.5613931917351
 20
582.311070262846
  0
LWPOLYLINE
  5
EA9
330
1F
100
AcDbEntity
  8
HEWI
100
AcDbPolyline
 90
        3
 70
     0
 43
0.0
 10
877.0644879520105
 20
564.0189055196517
 10
874.9517831104013
 20
563.5139837228805
 10
872.8395089057258
 20
564.0189055196517
  0
LWPOLYLINE
  5
EAA
330
1F
100
AcDbEntity
  8
HEWI
100
AcDbPolyline
 90
        4
 70
     0
 43
0.0
 10
942.4571383604279
 20
894.5862535402673
 10
942.4571383604279
 20
892.9550008612366
 10
942.2291160991981
 20
892.2928965861514
 10
941.5786389970207
 20
891.7314536927326
  0
LWPOLYLINE
  5
EAB
330
1F
100
AcDbEntity
  8
HEWI
100
AcDbPolyline
 90
        3
 70
     0
 43
0.0
 10
872.8800964375942
 20
563.1451431950053
 10
874.9517831104013
 20
562.649910729091
 10
877.0237927609114
 20
563.1451431950053
  0
LWPOLYLINE
  5
EAC
330
1F
100
AcDbEntity
  8
HEWI
100
AcDbPolyline
 90
        3
 70
     0
 43
0.0
 10
876.837219305421
 20
563.0464196795221
 10
874.9517831104013
 20
562.6105074502802
 10
873.0665622338447
 20
563.0464196795221
  0
LINE
  5
EAD
330
1F
100
AcDbEntity
  8
HEWI
100
AcDbLine
 10
804.8168510280984
 20
883.3711760534617
 30
0.0
 11
872.3143471539252
 21
844.4249106823519
 31
0.0
  0
LWPOLYLINE
  5
EAE
330
1F
100
AcDbEntity
  8
HEWI
100
AcDbPolyline
 90
       29
 70
     0
 43
0.0
 10
859.7050821488656
 20
642.1441955208527
 10
859.5295975946564
 20
642.2352752308873
 10
859.3533594257905
 20
642.3069762792172
 10
859.1764753015185
 20
642.3599446212213
 10
858.9987299033555
 20
642.3935343015162
 10
858.954158979769
 20
642.399024922337
 10
858.9099110338965
 20
642.4031159731421
 10
858.8657707472567
 20
642.405807453936
 10
858.8217381198511
 20
642.4076376608709
 10
858.7350724351008
 20
642.4069917054808
 10
858.6485144095886
 20
642.4017164031274
 10
858.4783051579279
 20
642.376739461371
 10
858.3107873871586
 20
642.3321685394378
 10
858.2692309221702
 20
642.3176345431559
 10
858.2282127533645
 20
642.3019162953212
 10
858.18794819921
 20
642.2853367736368
 10
858.1474683265795
 20
642.2673576819422
 10
858.0685541068078
 20
642.2278467439016
 10
857.9911471163313
 20
642.1838141181276
 10
857.8410701417443
 20
642.0817531664559
 10
857.6966991066537
 20
641.9604212123069
 10
857.6617098550514
 20
641.9274774874011
 10
857.6270435811521
 20
641.8930265332463
 10
857.5930232626697
 20
641.857821964476
 10
857.5596488995969
 20
641.8215408033861
 10
857.4945150619887
 20
641.7460716819507
 10
857.4313190906241
 20
641.6667268281721
 10
857.3122479759248
 20
641.4966252420574
 10
857.2015742816175
 20
641.3111283857963
  0
LWPOLYLINE
  5
EAF
330
1F
100
AcDbEntity
  8
HEWI
100
AcDbPolyline
 90
       20
 70
     0
 43
0.0
 10
854.3500264310614
 20
635.2732565294914
 10
854.5371408352721
 20
635.5604905869554
 10
854.7199360443219
 20
635.8504925101558
 10
854.8983711227911
 20
636.1431973556411
 10
855.0724061116479
 20
636.4385395746515
 10
855.2420020372764
 20
636.7364530278214
 10
855.4071209200911
 20
637.0368709999766
 10
855.5677257831403
 20
637.3397262150765
 10
855.7237806603179
 20
637.6449508512771
 10
855.8752506044939
 20
637.9524765561418
 10
856.0221016952482
 20
638.2622344618951
 10
856.1643010465369
 20
638.5741552009065
 10
856.3018168140251
 20
638.8881689211919
 10
856.4346182022372
 20
639.2042053020625
 10
856.5626754714422
 20
639.5221935698558
 10
856.6859599442896
 20
639.8420625138217
 10
856.8044440122857
 20
640.1637405020474
 10
856.9181011419377
 20
640.4871554974809
 10
857.0269058806889
 20
640.812235074101
 10
857.130833862665
 20
641.1389064331117
  0
LWPOLYLINE
  5
EB0
330
1F
100
AcDbEntity
  8
HEWI
100
AcDbPolyline
 90
       20
 70
     0
 43
0.0
 10
848.3150932487651
 20
629.3078622751707
 10
848.4985657409733
 20
629.4180907769364
 10
848.6805489552525
 20
629.5307610377861
 10
848.8610103972305
 20
629.6458529396616
 10
849.0399178442666
 20
629.7633459321027
 10
849.2172393511928
 20
629.8832190359112
 10
849.3929432560172
 20
630.0054508469204
 10
849.5669981855817
 20
630.1300195397871
 10
849.7393730611756
 20
630.2569028719122
 10
849.9100371040686
 20
630.3860781873768
 10
850.0789598410037
 20
630.5175224210463
 10
850.2461111096554
 20
630.651212102638
 10
850.4114610640053
 20
630.7871233609162
 10
850.5749801796619
 20
630.9252319279963
 10
850.7366392591492
 20
631.065513143632
 10
850.8964094371286
 20
631.2079419596275
 10
851.0542621855083
 20
631.3524929443306
 10
851.2101693185933
 20
631.499140287166
 10
851.3641029980671
 20
631.647857803222
 10
851.5160357380219
 20
631.7986189379567
  0
LWPOLYLINE
  5
EB1
330
1F
100
AcDbEntity
  8
HEWI
100
AcDbPolyline
 90
        4
 70
     0
 43
0.0
 10
868.6786947639292
 20
569.4565579954021
 10
869.2190364679708
 20
569.6445310139815
 10
869.6779877898107
 20
569.5556044885827
 10
816.2455248543475
 20
600.386516972592
  0
LWPOLYLINE
  5
EB2
330
1F
100
AcDbEntity
  8
HEWI
100
AcDbPolyline
 90
        6
 70
     0
 43
0.0
 10
914.9284564704021
 20
587.5984304511112
 10
914.3875764701798
 20
587.7865111289272
 10
913.9287328075797
 20
587.6975846035272
 10
882.491913001958
 20
569.5579729916803
 10
882.9489264575613
 20
569.6443156955219
 10
883.4866843399423
 20
569.4565579954021
  0
LWPOLYLINE
  5
EB3
330
1F
100
AcDbEntity
  8
HEWI
100
AcDbPolyline
 90
       20
 70
     0
 43
0.0
 10
851.5184192091865
 20
631.7962423324402
 10
851.6849792689926
 20
631.9640439419757
 10
851.8496989871628
 20
632.1336524561766
 10
852.0125587629072
 20
632.3050476925211
 10
852.1735392167748
 20
632.4782092558805
 10
852.332621192937
 20
632.6531165409371
 10
852.489785761486
 20
632.8297487346461
 10
852.6450142206513
 20
633.008084818713
 10
852.798288099092
 20
633.1881035720769
 10
852.9495891579891
 20
633.3697835734611
 10
853.0988993933306
 20
633.5531032039014
 10
853.2462010379923
 20
633.7380406493255
 10
853.3914765638428
 20
633.9245739031562
 10
853.5347086838655
 20
634.112680768907
 10
853.6758803541951
 20
634.3023388628673
 10
853.8149747761409
 20
634.4935256167164
 10
853.9519753982048
 20
634.6862182802411
 10
854.0868659180295
 20
634.880393924026
 10
854.2196302843686
 20
635.0760294422016
 10
854.3502526989314
 20
635.2731015551571
  0
LWPOLYLINE
  5
EB4
330
1F
100
AcDbEntity
  8
HEWI
100
AcDbPolyline
 90
       69
 70
     0
 43
0.0
 10
919.0772127777918
 20
587.4103497732963
 10
919.0825957395817
 20
587.4133642317806
 10
919.0881940198405
 20
587.4165940087371
 10
919.0940076185643
 20
587.4199314449222
 10
919.0996058988266
 20
587.4230535626375
 10
919.1110177778091
 20
587.4297284350066
 10
919.1222143383301
 20
587.4361879889115
 10
919.1443921408836
 20
587.449430074412
 10
919.1670005803816
 20
587.4624568414517
 10
919.2117868224386
 20
587.4890486716813
 10
919.2567883829642
 20
587.5157481611508
 10
919.3461455486058
 20
587.5695777770126
 10
919.4361486696607
 20
587.6242686667276
 10
919.6144323639956
 20
587.7363419269456
 10
919.7925007398689
 20
587.8516449641213
 10
920.1477762177191
 20
588.0916173916207
 10
920.5008985108534
 20
588.344724245401
 10
920.8529442116333
 20
588.6107502069822
 10
921.2026214092285
 20
588.8898029356019
 10
921.5505760590449
 20
589.1814517943319
 10
921.8970234795698
 20
589.486558057031
 10
921.983366186606
 20
589.5648263184912
 10
922.0692782567049
 20
589.6439558538068
 10
922.1551903268036
 20
589.7234083668174
 10
922.2404564414855
 20
589.8036144944469
 10
922.4099120785021
 20
589.9659646158808
 10
922.5785064416223
 20
590.1306832404158
 10
922.9109581615002
 20
590.4674413172361
 10
923.2380269195992
 20
590.8138887249164
 10
923.5603586713159
 20
591.1698101449817
 10
923.8768768243108
 20
591.5353132366763
 10
924.1882273339896
 20
591.9101826815213
 10
924.4941948818805
 20
592.2947414572311
 10
924.7949947864608
 20
592.6887742453325
 10
925.089765773845
 20
593.0928193419779
 10
925.1623280987141
 20
593.195526249041
 10
925.2348904235796
 20
593.2983408153304
 10
925.3072374299799
 20
593.4015860185573
 10
925.3782925255464
 20
593.5051541994666
 10
925.5188954873892
 20
593.7132594943821
 10
925.6573452645161
 20
593.9227643593121
 10
925.9284312200461
 20
594.3455421622799
 10
926.1904737997602
 20
594.7737029268309
 10
926.4434730036873
 20
595.2068160160413
 10
926.6882901056987
 20
595.6456350445412
 10
926.9234178764882
 20
596.0897293753876
 10
927.1505788638378
 20
596.5389913493575
 10
927.2606066027393
 20
596.7656140321266
 10
927.36805051998
 20
596.9938516033769
 10
927.4208035454748
 20
597.1085086851624
 10
927.47291061556
 20
597.2234887446361
 10
927.5243717302318
 20
597.338468804111
 10
927.575617526435
 20
597.4538795005164
 10
927.6750946602305
 20
597.6849162117915
 10
927.7717726539039
 20
597.9165988784566
 10
927.8656515074407
 20
598.148712182041
 10
927.9565159023832
 20
598.3819020779506
 10
928.0441505202533
 20
598.6157379292458
 10
928.1285553610532
 20
598.8506503728618
 10
928.1690352336728
 20
598.9685372315968
 10
928.2090844693621
 20
599.0868547272569
 10
928.2284631317915
 20
599.1461749639316
 10
928.2478417942174
 20
599.2056028598462
 10
928.2575311254323
 20
599.2353168078014
 10
928.267220456647
 20
599.2652460742206
 10
928.2719574630164
 20
599.2799953889621
 10
928.2764791509171
 20
599.2949600221768
 10
928.2790629725742
 20
599.3023885091624
 10
928.2814314757624
 20
599.3100323146123
  0
LWPOLYLINE
  5
EB5
330
1F
100
AcDbEntity
  8
HEWI
100
AcDbPolyline
 90
        4
 70
     0
 43
0.0
 10
806.1601153120783
 20
601.6431155252362
 10
806.1720654872432
 20
601.5921927086267
 10
806.2012411401202
 20
601.5598949391167
 10
839.5613931917351
 20
582.311070262846
  0
LWPOLYLINE
  5
EB6
330
1F
100
AcDbEntity
  8
HEWI
100
AcDbPolyline
 90
       21
 70
     0
 43
0.0
 10
928.5714387626276
 20
600.2630050953317
 10
928.6268851841951
 20
600.4867706189204
 10
928.6681458800421
 20
600.7135808261218
 10
928.6950574193951
 20
600.9425373374713
 10
928.7075132075287
 20
601.1727332721411
 10
928.7054639079352
 20
601.4032568400367
 10
928.6889176377471
 20
601.6331949533369
 10
928.6579399355877
 20
601.8616368431573
 10
928.6126535019784
 20
602.0876776670561
 10
928.5532377133414
 20
602.3104220930409
 10
928.4799279114768
 20
602.5289878459264
 10
928.3930144714204
 20
602.7425092019577
 10
928.292841651265
 20
602.9501404178963
 10
928.1798062285862
 20
603.1510590809207
 10
928.0543559288334
 20
603.3444693661809
 10
927.9169876519254
 20
603.5296051889773
 10
927.7682455040476
 20
603.705733239191
 10
927.6087186425275
 20
603.8721558858574
 10
927.439038942156
 20
604.0282139404419
 10
927.2598784924275
 20
604.173289267841
 10
927.0719469354435
 20
604.3068072347764
  0
LWPOLYLINE
  5
EB7
330
1F
100
AcDbEntity
  8
HEWI
100
AcDbPolyline
 90
        3
 70
     0
 43
0.0
 10
916.4255658022112
 20
590.563903988856
 10
916.2957287639391
 20
590.0340052503272
 10
916.0864392097128
 20
589.6115504250567
  0
LWPOLYLINE
  5
EB8
330
1F
100
AcDbEntity
  8
HEWI
100
AcDbPolyline
 90
        3
 70
     0
 43
0.0
 10
914.2243650688387
 20
587.8719925589169
 10
914.0736421388455
 20
587.7810205081121
 10
913.9235651642639
 20
587.6899407980763
  0
LINE
  5
EB9
330
1F
100
AcDbEntity
  8
HEWI
100
AcDbLine
 10
928.2814314757624
 20
599.3100323146123
 30
0.0
 11
928.2825080681131
 21
599.3136927284913
 31
0.0
  0
LWPOLYLINE
  5
EBA
330
1F
100
AcDbEntity
  8
HEWI
100
AcDbPolyline
 90
        3
 70
     0
 43
0.0
 10
928.2825080681131
 20
599.3136927284913
 10
928.2848765713016
 20
599.3212288747159
 10
928.2859531636631
 20
599.3249969478259
  0
LWPOLYLINE
  5
EBB
330
1F
100
AcDbEntity
  8
HEWI
100
AcDbPolyline
 90
        5
 70
     0
 43
0.0
 10
806.1192048025068
 20
602.5167701906459
 10
805.2441505346459
 20
603.7356880121867
 10
806.1192048025068
 20
604.9546058337275
 10
806.1283558375462
 20
605.0161869142769
 10
806.1605459490229
 20
605.0547289192266
  0
LWPOLYLINE
  5
EBC
330
1F
100
AcDbEntity
  8
HEWI
100
AcDbPolyline
 90
       20
 70
     0
 43
0.0
 10
928.5701296991055
 20
600.2633047748318
 10
928.5540841208231
 20
600.2142577455813
 10
928.5381555743015
 20
600.1651725842216
 10
928.5223441501557
 20
600.1160495700005
 10
928.5066499383455
 20
600.0668889823864
 10
928.4910730281362
 20
600.0176911010558
 10
928.4756135081725
 20
599.9684562058919
 10
928.4602714663879
 20
599.919184577017
 10
928.4450469900647
 20
599.8698764947269
 10
928.4299401658291
 20
599.8205322395429
 10
928.4149510796169
 20
599.7711520921918
 10
928.4000798167062
 20
599.7217363336019
 10
928.3853264616983
 20
599.6722852449059
 10
928.3706910985266
 20
599.6227991074365
 10
928.3561738104481
 20
599.5732782027223
 10
928.3417746800614
 20
599.5237228124906
 10
928.3274937892848
 20
599.4741332186768
 10
928.3133312193594
 20
599.4245097033913
 10
928.2992870508541
 20
599.3748525489527
 10
928.2853613636788
 20
599.325162037866
  0
LWPOLYLINE
  5
EBD
330
1F
100
AcDbEntity
  8
HEWI
100
AcDbPolyline
 90
        6
 70
     0
 43
0.0
 10
927.0635902013882
 20
604.2942241063522
 10
927.1019168893008
 20
604.3005760010262
 10
927.1352912523717
 20
604.2913173070965
 10
860.7948089327429
 20
642.5699877823128
 10
860.7619728658491
 20
642.5792464762369
 10
860.7232155409938
 20
642.5730022407961
  0
LWPOLYLINE
  5
EBE
330
1F
100
AcDbEntity
  8
HEWI
100
AcDbPolyline
 90
       11
 70
     0
 43
0.0
 10
816.2455248543475
 20
600.386516972592
 10
815.9762691058267
 20
600.5495130494116
 10
815.7263920197429
 20
600.715415925496
 10
815.3017839940957
 20
601.0396855314368
 10
814.9486617009634
 20
601.367723210491
 10
814.6702549174051
 20
601.6890860171761
 10
814.4599964300642
 20
601.9960224868114
 10
814.3080892484713
 20
602.2884249601659
 10
814.2238997261401
 20
602.5571424025408
 10
814.2092580700909
 20
602.6721224620168
 10
814.2090427516187
 20
602.7820425376071
  0
LWPOLYLINE
  5
EBF
330
1F
100
AcDbEntity
  8
HEWI
100
AcDbPolyline
 90
        4
 70
     0
 43
0.0
 10
805.2463037193547
 20
603.6718460877764
 10
805.3037937512263
 20
602.775690642932
 10
805.5461346908113
 20
602.1626789775157
 10
806.1601153120783
 20
601.6431155252362
  0
LINE
  5
EC0
330
1F
100
AcDbEntity
  8
HEWI
100
AcDbLine
 10
848.0810068098026
 20
629.2432821245315
 30
0.0
 11
806.1605459490229
 21
605.0547289192266
 31
0.0
  0
LWPOLYLINE
  5
EC1
330
1F
100
AcDbEntity
  8
HEWI
100
AcDbPolyline
 90
       25
 70
     0
 43
0.0
 10
860.720731771652
 20
642.569163615042
 10
860.6593502897803
 20
642.6070586545009
 10
860.5964175013641
 20
642.6423174759409
 10
860.53204655846
 20
642.674876684621
 10
860.4663531988853
 20
642.7046777396517
 10
860.3994555381495
 20
642.7316670592667
 10
860.3314738570761
 20
642.7557961171308
 10
860.262530385521
 20
642.7770215296405
 10
860.1927490826483
 20
642.7953051338604
 10
860.1222554140067
 20
642.8106140561956
 10
860.0511761259795
 20
642.8229207714767
 10
859.9796390178699
 20
642.8322031524467
 10
859.9077727121576
 20
642.8384445095425
 10
859.8357064231777
 20
642.8416336209116
 10
859.7635697248652
 20
642.8417647525966
 10
859.6914923177346
 20
642.8388376688169
 10
859.6196037957007
 20
642.8328576324204
 10
859.5480334130433
 20
642.8238353954114
 10
859.4769098520874
 20
642.8117871796123
 10
859.4080503175346
 20
642.7941343027512
 10
859.3965307793087
 20
642.7910121850325
 10
859.3849035818539
 20
642.7877824080817
 10
859.0862568619913
 20
642.7086528727616
 10
858.7661859542194
 20
642.6458875406709
 10
858.7127869733057
 20
642.6379207575271
  0
LINE
  5
EC2
330
1F
100
AcDbEntity
  8
HEWI
100
AcDbLine
 10
858.7127869733057
 20
642.6379207575271
 30
0.0
 11
858.6580960815672
 21
642.6300616336064
 31
0.0
  0
LWPOLYLINE
  5
EC3
330
1F
100
AcDbEntity
  8
HEWI
100
AcDbPolyline
 90
        3
 70
     0
 43
0.0
 10
916.0860085727755
 20
589.6114427658269
 10
915.9419605153916
 20
589.366302695196
 10
915.7574325853829
 20
589.1724084188708
  0
LWPOLYLINE
  5
ECA
330
1F
100
AcDbEntity
  8
HEWI
100
AcDbPolyline
 90
        3
 70
     0
 43
0.0
 10
857.1851024185516
 20
641.4698180933558
 10
857.1187843293547
 20
641.3457946584119
 10
857.0802423229716
 20
641.2040074502376
  0
LWPOLYLINE
  5
ECB
330
1F
100
AcDbEntity
  8
HEWI
100
AcDbPolyline
 90
        3
 70
     0
 43
0.0
 10
944.7896833613695
 20
591.3980477162263
 10
972.182714614405
 20
575.591949951927
 10
973.0609986593472
 20
574.3685104426563
  0
LWPOLYLINE
  5
ECF
330
1F
100
AcDbEntity
  8
HEWI
100
AcDbPolyline
 90
        3
 70
     0
 43
0.0
 10
873.2332187307211
 20
518.4975678896628
 10
875.3535673780707
 20
517.9909235451921
 10
877.4738083661931
 20
518.4975678896628
  0
LINE
  5
ED7
330
1F
100
AcDbEntity
  8
HEWI
100
AcDbLine
 10
972.182714614405
 20
573.1450709333821
 30
0.0
 11
973.0609986593472
 21
574.3685104426563
 31
0.0
  0
LINE
  5
EDB
330
1F
100
AcDbEntity
  8
HEWI
100
AcDbLine
 10
873.2332187307211
 20
518.4975678896628
 30
0.0
 11
778.5246354602159
 21
573.1450709333821
 31
0.0
  0
LINE
  5
EE4
330
1F
100
AcDbEntity
  8
HEWI
100
AcDbLine
 10
972.182714614405
 20
573.1450709333821
 30
0.0
 11
877.4738083661931
 21
518.4975678896628
 31
0.0
  0
LWPOLYLINE
  5
F61
330
1F
100
AcDbEntity
  8
HEWI
100
AcDbPolyline
 90
        3
 70
     0
 43
0.0
 10
159.2366179681776
 20
576.0498825149816
 10
159.2366179681776
 20
576.1979139585921
 10
159.2366179681776
 20
576.2600871649121
  0
LINE
  5
F62
330
1F
100
AcDbEntity
  8
HEWI
100
AcDbLine
 10
159.2366179681776
 20
576.0498825149816
 30
0.0
 11
112.0584030129348
 21
576.0498825149816
 31
0.0
  0
LINE
  5
F63
330
1F
100
AcDbEntity
  8
HEWI
100
AcDbLine
 10
64.88029571691732
 20
574.9510585664231
 30
0.0
 11
64.88029571691732
 21
576.0498825149816
 31
0.0
  0
LWPOLYLINE
  5
F64
330
1F
100
AcDbEntity
  8
HEWI
100
AcDbPolyline
 90
        3
 70
     0
 43
0.0
 10
159.2366179681776
 20
574.9510585664231
 10
159.2366179681776
 20
574.8165921860024
 10
159.2366179681776
 20
574.7615783185913
  0
LWPOLYLINE
  5
F65
330
1F
100
AcDbEntity
  8
HEWI
100
AcDbPolyline
 90
        3
 70
     0
 43
0.0
 10
64.88029571691732
 20
574.9510585664231
 10
64.88029571691732
 20
574.8165921860024
 10
64.88029571691732
 20
574.7615783185913
  0
LWPOLYLINE
  5
F66
330
1F
100
AcDbEntity
  8
HEWI
100
AcDbPolyline
 90
        3
 70
     0
 43
0.0
 10
112.0584030129348
 20
574.9510585664231
 10
112.0584030129348
 20
574.8165921860024
 10
112.0584030129348
 20
574.7615783185913
  0
LINE
  5
F67
330
1F
100
AcDbEntity
  8
HEWI
100
AcDbLine
 10
159.2366179681776
 20
574.9510585664231
 30
0.0
 11
159.2366179681776
 21
576.0498825149816
 31
0.0
  0
LWPOLYLINE
  5
F68
330
1F
100
AcDbEntity
  8
HEWI
100
AcDbPolyline
 90
        3
 70
     0
 43
0.0
 10
159.133103613045
 20
576.3074572268724
 10
158.9669315827232
 20
576.2922772751969
 10
158.8022667816958
 20
576.2600871649121
  0
LWPOLYLINE
  5
F69
330
1F
100
AcDbEntity
  8
HEWI
100
AcDbPolyline
 90
        3
 70
     0
 43
0.0
 10
64.98356783877716
 20
576.3074572268724
 10
65.14984752833334
 20
576.2922772751969
 10
65.31456615897332
 20
576.2600871649121
  0
LWPOLYLINE
  5
F6A
330
1F
100
AcDbEntity
  8
HEWI
100
AcDbPolyline
 90
        3
 70
     0
 43
0.0
 10
112.0584030129348
 20
576.0498825149816
 10
112.0584030129348
 20
576.1979139585921
 10
112.0584030129348
 20
576.2600871649121
  0
LINE
  5
F6D
330
1F
100
AcDbEntity
  8
HEWI
100
AcDbLine
 10
159.7863798553462
 20
920.3958896481319
 30
0.0
 11
159.7863798553462
 21
922.3938296704019
 31
0.0
  0
LWPOLYLINE
  5
F6F
330
1F
100
AcDbEntity
  8
HEWI
100
AcDbPolyline
 90
        3
 70
     0
 43
0.0
 10
162.2242155888089
 20
576.0498825149816
 10
161.3491613209417
 20
576.0498825149816
 10
159.2366179681776
 20
576.0498825149816
  0
LWPOLYLINE
  5
F70
330
1F
100
AcDbEntity
  8
HEWI
100
AcDbPolyline
 90
        3
 70
     0
 43
0.0
 10
64.88029571691732
 20
576.0498825149816
 10
62.7676177901194
 20
576.0498825149816
 10
61.89259043706079
 20
576.0498825149816
  0
LWPOLYLINE
  5
F72
330
1F
100
AcDbEntity
  8
HEWI
100
AcDbPolyline
 90
        3
 70
     0
 43
0.0
 10
64.88029571691732
 20
576.0498825149816
 10
64.88029571691732
 20
576.1979139585921
 10
64.88029571691732
 20
576.2600871649121
  0
LWPOLYLINE
  5
F73
330
1F
100
AcDbEntity
  8
HEWI
100
AcDbPolyline
 90
        3
 70
     0
 43
0.0
 10
159.2366179681776
 20
574.9510585664231
 10
161.3085199594579
 20
574.9510585664231
 10
162.1664564088505
 20
574.9510585664231
  0
LINE
  5
F76
330
1F
100
AcDbEntity
  8
HEWI
100
AcDbLine
 10
64.88029571691732
 20
574.9510585664231
 30
0.0
 11
112.0584030129348
 21
574.9510585664231
 31
0.0
  0
LINE
  5
F77
330
1F
100
AcDbEntity
  8
HEWI
100
AcDbLine
 10
112.0584030129348
 20
574.9510585664231
 30
0.0
 11
159.2366179681776
 21
574.9510585664231
 31
0.0
  0
LWPOLYLINE
  5
F79
330
1F
100
AcDbEntity
  8
HEWI
100
AcDbPolyline
 90
        3
 70
     0
 43
0.0
 10
61.9502150429762
 20
574.9510585664231
 10
62.80831298121575
 20
574.9510585664231
 10
64.88029571691732
 20
574.9510585664231
  0
LINE
  5
F7A
330
1F
100
AcDbEntity
  8
HEWI
100
AcDbLine
 10
149.8408734898803
 20
577.0353412925303
 30
0.0
 11
149.8408734898803
 21
576.2600871649121
 31
0.0
  0
LWPOLYLINE
  5
F7B
330
1F
100
AcDbEntity
  8
HEWI
100
AcDbPolyline
 90
       20
 70
     0
 43
0.0
 10
153.5630430652381
 20
576.256782300537
 10
153.3763070318818
 20
576.3320988841619
 10
153.1881379927072
 20
576.4037602172172
 10
152.9986074892904
 20
576.471739054177
 10
152.8077875808558
 20
576.5360095495768
 10
152.6157508168453
 20
576.5965472678872
 10
152.4225702093517
 20
576.653329192736
 10
152.2283192053473
 20
576.7063337357317
 10
152.033071658785
 20
576.7555407446318
 10
151.8369018024996
 20
576.8009315109916
 10
151.6398842199541
 20
576.8424887773173
 10
151.4420938169642
 20
576.8801967435965
 10
151.243605793139
 20
576.9140410733164
 10
151.0444956133287
 20
576.944008898906
 10
150.8448389789291
 20
576.9700888266616
 10
150.644711799101
 20
576.9922709410068
 10
150.4441901618847
 20
577.0105468083565
 10
150.243350305328
 20
577.0249094802474
 10
150.0422685884368
 20
577.0353534960029
 10
149.8410214621763
 20
577.0418748848372
  0
LINE
  5
F7C
330
1F
100
AcDbEntity
  8
HEWI
100
AcDbLine
 10
112.0584030129348
 20
576.0498825149816
 30
0.0
 11
64.88029571691732
 21
576.0498825149816
 31
0.0
  0
LINE
  5
F7F
330
1F
100
AcDbEntity
  8
HEWI
100
AcDbLine
 10
64.3303723409017
 20
922.3938296704019
 30
0.0
 11
64.3303723409017
 21
920.3958896481319
 31
0.0
  0
LINE
  5
F80
330
1F
100
AcDbEntity
  8
HEWI
100
AcDbLine
 10
112.0584030129348
 20
574.9510585664231
 30
0.0
 11
112.0584030129348
 21
576.0498825149816
 31
0.0
  0
LWPOLYLINE
  5
F8C
330
1F
100
AcDbEntity
  8
HEWI
100
AcDbPolyline
 90
       20
 70
     0
 43
0.0
 10
159.0882835221473
 20
576.1853321567125
 10
158.6182582407773
 20
576.3539373670059
 10
158.1458143173095
 20
576.515641483887
 10
157.6710530701766
 20
576.670409828931
 10
157.1940763148004
 20
576.8182092111417
 10
156.7149863416907
 20
576.9590079340523
 10
156.2338858945768
 20
577.0927758025274
 10
155.7508781483429
 20
577.2194841292466
 10
155.266066686896
 20
577.3391057408568
 10
154.779555480969
 20
577.4516149837674
 10
154.2914488657934
 20
577.5569877297116
 10
153.8018515187977
 20
577.6552013808677
 10
153.3108684370572
 20
577.7462348747222
 10
152.8186049148426
 20
577.830068688597
 10
152.3251665210191
 20
577.9066848438263
 10
151.8306590764141
 20
577.9760669096228
 10
151.3351886311338
 20
578.0382000065762
 10
150.8388614417763
 20
578.0930708098773
 10
150.3417839486937
 20
578.1406675521518
 10
149.8440627531281
 20
578.1809800259916
  0
LWPOLYLINE
  5
F8D
330
1F
100
AcDbEntity
  8
HEWI
100
AcDbPolyline
 90
        6
 70
     0
 43
0.0
 10
74.27590562116711
 20
577.0353412925303
 10
74.27590562116711
 20
577.6671933235011
 10
74.27590562116711
 20
578.1376641661231
 10
149.8408734898803
 20
578.1376641661231
 10
149.8408734898803
 20
577.6671933235011
 10
149.8408734898803
 20
577.0353412925303
  0
LWPOLYLINE
  5
F8E
330
1F
100
AcDbEntity
  8
HEWI
100
AcDbPolyline
 90
       20
 70
     0
 43
0.0
 10
74.2725897441378
 20
578.1836705001714
 10
73.77482216670251
 20
578.1440522953878
 10
73.2777024284278
 20
578.0969977625475
 10
72.78134161702928
 20
578.0425174165757
 10
72.28585065062907
 20
577.9806234318161
 10
71.79134025299936
 20
577.9113296392515
 10
71.29792092876505
 20
577.8346515234622
 10
70.80570293872916
 20
577.7506062191512
 10
70.31479627527551
 20
577.6592125073123
 10
69.82531063772149
 20
577.5604908110219
 10
69.3373554078662
 20
577.4544631909018
 10
68.85103962548419
 20
577.3411533401813
 10
68.36647196404192
 20
577.2205865793726
 10
67.8837607063233
 20
577.0927898506565
 10
67.40301372029626
 20
576.9577917118258
 10
66.92433843498384
 20
576.8156223299522
 10
66.44784181646719
 20
576.6663134745656
 10
65.97363034395676
 20
576.5098985106463
 10
65.50180998604537
 20
576.3464123910964
 10
65.03248617698409
 20
576.1758916489677
  0
LWPOLYLINE
  5
F8F
330
1F
100
AcDbEntity
  8
HEWI
100
AcDbPolyline
 90
       20
 70
     0
 43
0.0
 10
74.27576782854976
 20
577.0415484010479
 10
74.07472656957543
 20
577.0351224872976
 10
73.87384896969343
 20
577.0247750219514
 10
73.67321151619854
 20
577.0105099449731
 10
73.47289060495405
 20
576.9923326880164
 10
73.27296251126518
 20
576.9702501723563
 10
73.07350336089348
 20
576.9442708062522
 10
72.87458910103487
 20
576.9144044817571
 10
72.67629547140677
 20
576.8806625709417
 10
72.47869797542171
 20
576.8430579215666
 10
72.28187185141087
 20
576.8016048521915
 10
72.08589204402051
 20
576.7563191467226
 10
71.8908331756129
 20
576.7072180484022
 10
71.69676951791735
 20
576.6543202532361
 10
71.50377496369492
 20
576.5976459028966
 10
71.31192299867598
 20
576.5372165770267
 10
71.12128667347952
 20
576.4730552850367
 10
70.93193857587357
 20
576.4051864573466
 10
70.74395080311751
 20
576.3336359360821
 10
70.55739493449528
 20
576.2584309652059
  0
LWPOLYLINE
  5
F90
330
1F
100
AcDbEntity
  8
HEWI
100
AcDbPolyline
 90
        3
 70
     0
 43
0.0
 10
159.0954767101639
 20
586.8561240693268
 10
159.0954767101639
 20
586.9688432849373
 10
159.0954767101639
 20
587.0129297403273
  0
LWPOLYLINE
  5
F91
330
1F
100
AcDbEntity
  8
HEWI
100
AcDbPolyline
 90
        3
 70
     0
 43
0.0
 10
162.021224099868
 20
579.2997379133177
 10
162.1672100235
 20
579.250752962881
 10
162.2206628340254
 20
579.1345886518556
  0
LWPOLYLINE
  5
F92
330
1F
100
AcDbEntity
  8
HEWI
100
AcDbPolyline
 90
        3
 70
     0
 43
0.0
 10
61.89611627702652
 20
579.1345886518556
 10
61.94951525793476
 20
579.250752962881
 10
62.09550118156676
 20
579.2998994021568
  0
LINE
  5
F93
330
1F
100
AcDbEntity
  8
HEWI
100
AcDbLine
 10
45.08943299002658
 20
539.7986506915308
 30
0.0
 11
45.08943299002658
 21
533.8050997727927
 31
0.0
  0
LWPOLYLINE
  5
F94
330
1F
100
AcDbEntity
  8
HEWI
100
AcDbPolyline
 90
        3
 70
     0
 43
0.0
 10
61.89329022209313
 20
576.8441384969967
 10
61.94773888054988
 20
576.9838801797718
 10
62.09286353029347
 20
577.0427697795216
  0
LWPOLYLINE
  5
F95
330
1F
100
AcDbEntity
  8
HEWI
100
AcDbPolyline
 90
        3
 70
     0
 43
0.0
 10
162.0043215998621
 20
584.5385437880711
 10
162.1559058037528
 20
584.5125979132328
 10
162.2019839566346
 20
584.4509630030675
  0
LWPOLYLINE
  5
F96
330
1F
100
AcDbEntity
  8
HEWI
100
AcDbPolyline
 90
        3
 70
     0
 43
0.0
 10
61.91479515442643
 20
584.4509630030675
 10
61.96081947768653
 20
584.5125979132328
 10
62.11245751118986
 20
584.5385437880711
  0
LINE
  5
F97
330
1F
100
AcDbEntity
  8
HEWI
100
AcDbLine
 10
159.4365949985158
 20
679.6506841774723
 30
0.0
 11
64.68031868658363
 21
679.6506841774723
 31
0.0
  0
LWPOLYLINE
  5
F98
330
1F
100
AcDbEntity
  8
HEWI
100
AcDbPolyline
 90
        3
 70
     0
 43
0.0
 10
162.0238617511504
 20
577.0427697795216
 10
162.1689864008804
 20
576.9838801797718
 10
162.2235158037674
 20
576.8441384969967
  0
LINE
  5
F99
330
1F
100
AcDbEntity
  8
HEWI
100
AcDbLine
 10
65.08005742878231
 20
920.3958896481319
 30
0.0
 11
65.08005742878231
 21
694.6349113668166
 31
0.0
  0
LINE
  5
F9A
330
1F
100
AcDbEntity
  8
HEWI
100
AcDbLine
 10
74.27590562116711
 20
577.0353412925303
 30
0.0
 11
74.27590562116711
 21
576.2600871649121
 31
0.0
  0
LINE
  5
F9B
330
1F
100
AcDbEntity
  8
HEWI
100
AcDbLine
 10
65.08005742878231
 20
574.7615783185913
 30
0.0
 11
65.08005742878231
 21
539.7986506915308
 31
0.0
  0
LINE
  5
F9C
330
1F
100
AcDbEntity
  8
HEWI
100
AcDbLine
 10
62.08155931053261
 20
589.7458055079377
 30
0.0
 11
64.0805490844341
 21
589.7458055079377
 31
0.0
  0
LINE
  5
F9D
330
1F
100
AcDbEntity
  8
HEWI
100
AcDbLine
 10
160.0362031118138
 20
679.6506841774723
 30
0.0
 11
162.035273630132
 21
679.6506841774723
 31
0.0
  0
LINE
  5
F9E
330
1F
100
AcDbEntity
  8
HEWI
100
AcDbLine
 10
941.5786389970207
 20
891.7314536927326
 30
0.0
 11
941.5786389970207
 21
893.3628140309968
 31
0.0
  0
LINE
  5
F9F
330
1F
100
AcDbEntity
  8
HEWI
100
AcDbLine
 10
914.2267335720307
 20
777.0535936784974
 30
0.0
 11
917.9726290193912
 21
779.2149604145208
 31
0.0
  0
LINE
  5
FA0
330
1F
100
AcDbEntity
  8
HEWI
100
AcDbLine
 10
159.0367485970828
 20
574.7615783185913
 30
0.0
 11
159.0367485970828
 21
539.7986506915308
 31
0.0
  0
LWPOLYLINE
  5
FA1
330
1F
100
AcDbEntity
  8
HEWI
100
AcDbPolyline
 90
        3
 70
     0
 43
0.0
 10
872.8395089057258
 20
564.0189055196517
 10
872.8779432528744
 20
564.1620922978417
 10
872.9805425045114
 20
564.2719047141954
  0
LINE
  5
FA2
330
1F
100
AcDbEntity
  8
HEWI
100
AcDbLine
 10
159.0954767101639
 20
586.8561240693268
 30
0.0
 11
65.02132931570122
 21
586.8561240693268
 31
0.0
  0
LINE
  5
FA3
330
1F
100
AcDbEntity
  8
HEWI
100
AcDbLine
 10
62.08155931053261
 20
679.6506841774723
 30
0.0
 11
64.0805490844341
 21
679.6506841774723
 31
0.0
  0
LINE
  5
FA4
330
1F
100
AcDbEntity
  8
HEWI
100
AcDbLine
 10
872.3143471539252
 20
844.4249106823519
 30
0.0
 11
872.3143471539252
 21
846.0561633613808
 31
0.0
  0
LWPOLYLINE
  5
FA5
330
1F
100
AcDbEntity
  8
HEWI
100
AcDbPolyline
 90
        3
 70
     0
 43
0.0
 10
876.923346693994
 20
564.2719047141954
 10
877.0256229679207
 20
564.1620922978417
 10
877.0644879520105
 20
564.0189055196517
  0
LINE
  5
FA6
330
1F
100
AcDbEntity
  8
HEWI
100
AcDbLine
 10
179.027507609886
 20
533.8050997727927
 30
0.0
 11
179.027507609886
 21
539.7986506915308
 31
0.0
  0
LINE
  5
FA7
330
1F
100
AcDbEntity
  8
HEWI
100
AcDbLine
 10
149.8408734898803
 20
577.0353412925303
 30
0.0
 11
74.27590562116711
 21
577.0353412925303
 31
0.0
  0
LINE
  5
FA8
330
1F
100
AcDbEntity
  8
HEWI
100
AcDbLine
 10
159.0367485970828
 20
920.3958896481319
 30
0.0
 11
159.0367485970828
 21
694.6349113668166
 31
0.0
  0
LINE
  5
FA9
330
1F
100
AcDbEntity
  8
HEWI
100
AcDbLine
 10
160.0362031118138
 20
589.7458055079377
 30
0.0
 11
162.035273630132
 21
589.7458055079377
 31
0.0
  0
LINE
  5
FAA
330
1F
100
AcDbEntity
  8
HEWI
100
AcDbLine
 10
804.8168510280984
 20
885.0024287324961
 30
0.0
 11
804.8168510280984
 21
883.3711760534617
 31
0.0
  0
LINE
  5
FAB
330
1F
100
AcDbEntity
  8
HEWI
100
AcDbLine
 10
944.7593234569021
 20
883.7790968824531
 30
0.0
 11
944.7593234569021
 21
885.4104572207168
 31
0.0
  0
LINE
  5
FAC
330
1F
100
AcDbEntity
  8
HEWI
100
AcDbLine
 10
876.5550444486279
 20
846.0561633613808
 30
0.0
 11
876.5550444486279
 21
844.4249106823519
 31
0.0
  0
LINE
  5
FAD
330
1F
100
AcDbEntity
  8
HEWI
100
AcDbLine
 10
877.0237927609114
 20
563.1451431950053
 30
0.0
 11
877.0644879520105
 21
564.0189055196517
 31
0.0
  0
LINE
  5
FAE
330
1F
100
AcDbEntity
  8
HEWI
100
AcDbLine
 10
872.8800964375942
 20
563.1451431950053
 30
0.0
 11
872.8395089057258
 21
564.0189055196517
 31
0.0
  0
LINE
  5
FAF
330
1F
100
AcDbEntity
  8
HEWI
100
AcDbLine
 10
939.8117356205194
 20
892.3432811066007
 30
0.0
 11
939.8117356205194
 21
890.7120284275663
 31
0.0
  0
LWPOLYLINE
  5
FB0
330
1F
100
AcDbEntity
  8
HEWI
100
AcDbPolyline
 90
       20
 70
     0
 43
0.0
 10
849.9767423506265
 20
628.3491026997708
 10
849.8147919862013
 20
628.3045059542225
 10
849.6534109113772
 20
628.2578911612065
 10
849.4926242717928
 20
628.2092655840224
 10
849.3324571204711
 20
628.1586367992659
 10
849.172934413883
 20
628.1060126956916
 10
849.0140810081094
 20
628.0514014729206
 10
848.8559216549319
 20
627.9948116402309
 10
848.6984809979903
 20
627.9362520151712
 10
848.5417835689359
 20
627.875731722228
 10
848.3858537836377
 20
627.8132601913867
 10
848.2307159383154
 20
627.7488471566678
 10
848.076394205832
 20
627.6825026546023
 10
847.9229126318486
 20
627.6142370226673
 10
847.7702951311503
 20
627.5440608977057
 10
847.6185654838728
 20
627.4719852142155
 10
847.4677473317925
 20
627.3980212027018
 10
847.3178641747098
 20
627.3221803878712
 10
847.1689393666848
 20
627.2444745868952
 10
847.0209961124774
 20
627.1649159075118
  0
LWPOLYLINE
  5
FB1
330
1F
100
AcDbEntity
  8
HEWI
100
AcDbPolyline
 90
       20
 70
     0
 43
0.0
 10
915.2554675540805
 20
587.7937000142266
 10
915.3772911481347
 20
587.8652725704912
 10
915.4978334573852
 20
587.9389826141666
 10
915.617056981936
 20
588.0148072145564
 10
915.7349246321928
 20
588.0927227831661
 10
915.8513997403415
 20
588.1727050810016
 10
915.9664460717786
 20
588.2547292261121
 10
916.0800278364012
 20
588.3387697013701
 10
916.1921096996948
 20
588.4248003623556
 10
916.3026567937823
 20
588.5127944455361
 10
916.4116347282206
 20
588.602724576556
 10
916.5190096007236
 20
588.6945627787772
 10
916.6247480077245
 20
588.7882804819676
 10
916.7288170547498
 20
588.8838485312069
 10
916.8311843666151
 20
588.9812371959307
 10
916.9318180975743
 20
589.0804161792121
 10
917.0306869411605
 20
589.1813546271364
 10
917.1277601399697
 20
589.2840211384716
 10
917.2230074952086
 20
589.3883837743763
 10
917.316399376078
 20
589.4944100683406
  0
LINE
  5
FB2
330
1F
100
AcDbEntity
  8
HEWI
100
AcDbLine
 10
839.6204981121437
 20
583.5208370496913
 30
0.0
 11
872.9805425045114
 21
564.2719047141954
 31
0.0
  0
LWPOLYLINE
  5
FB3
330
1F
100
AcDbEntity
  8
HEWI
100
AcDbPolyline
 90
        3
 70
     0
 43
0.0
 10
915.2568171393204
 20
587.7913557943556
 10
915.0936057379794
 20
587.6944624858063
 10
914.9284564704021
 20
587.5984304511112
  0
LWPOLYLINE
  5
FB4
330
1F
100
AcDbEntity
  8
HEWI
100
AcDbPolyline
 90
        6
 70
     0
 43
0.0
 10
815.2460165099901
 20
600.2875781386367
 10
813.3204234200448
 20
601.8167698659968
 10
812.3077806489446
 20
603.6145713765031
 10
812.3077806489446
 20
605.5050674855172
 10
813.3204234200448
 20
607.3028689960167
 10
815.2460165099901
 20
608.8320607233813
  0
LWPOLYLINE
  5
FB5
330
1F
100
AcDbEntity
  8
HEWI
100
AcDbPolyline
 90
        3
 70
     0
 43
0.0
 10
806.2604537197612
 20
605.0448242699124
 10
805.4438584168847
 20
603.9072968275527
 10
806.2604537197612
 20
602.7696617259564
  0
LINE
  5
FB6
330
1F
100
AcDbEntity
  8
HEWI
100
AcDbLine
 10
914.9284564704021
 20
587.5984304511112
 30
0.0
 11
883.4866843399423
 21
569.4565579954021
 31
0.0
  0
LWPOLYLINE
  5
FB7
330
1F
100
AcDbEntity
  8
HEWI
100
AcDbPolyline
 90
        6
 70
     0
 43
0.0
 10
883.4866843399423
 20
569.4565579954021
 10
880.8365445936534
 20
568.3454070648113
 10
877.7207786529098
 20
567.7612480734924
 10
874.4447081101961
 20
567.7612480734924
 10
871.3289421694563
 20
568.3454070648113
 10
868.6786947639292
 20
569.4565579954021
  0
LWPOLYLINE
  5
FB8
330
1F
100
AcDbEntity
  8
HEWI
100
AcDbPolyline
 90
        3
 70
     0
 43
0.0
 10
846.6873580035144
 20
626.9739331790961
 10
846.8537991819221
 20
627.0692115991667
 10
847.0216399304
 20
627.1637364046162
  0
LINE
  5
FB9
330
1F
100
AcDbEntity
  8
HEWI
100
AcDbLine
 10
806.2604537197612
 20
602.7696617259564
 30
0.0
 11
839.6204981121437
 21
583.5208370496913
 31
0.0
  0
LINE
  5
FBA
330
1F
100
AcDbEntity
  8
HEWI
100
AcDbLine
 10
815.2460165099901
 20
608.8320607233813
 30
0.0
 11
846.6873580035144
 21
626.9739331790961
 31
0.0
  0
LWPOLYLINE
  5
FBB
330
1F
100
AcDbEntity
  8
HEWI
100
AcDbPolyline
 90
       39
 70
     0
 43
0.0
 10
922.3685006642327
 20
590.8117884204309
 10
922.2144509384079
 20
590.6584804580805
 10
922.0583422016815
 20
590.5072696393122
 10
921.9002030007786
 20
590.3581836152059
 10
921.7400622537525
 20
590.2112496482962
 10
921.5779492446372
 20
590.0664946075769
 10
921.4138936181361
 20
589.9239449636016
 10
921.2479253741904
 20
589.7836267836217
 10
921.0800748624851
 20
589.6455657268361
 10
920.910372776917
 20
589.5097870397173
 10
920.7388501499472
 20
589.376315551341
 10
920.5655383469739
 20
589.2451756689015
 10
920.3904690605478
 20
589.1163913732216
 10
920.2136743046311
 20
588.9899862143627
 10
920.0351864086869
 20
588.8659833073304
 10
919.8550380117968
 20
588.7444053278559
 10
919.6732620567045
 20
588.6252745082165
 10
919.4898917837553
 20
588.5086126332011
 10
919.304960724853
 20
588.3944410361212
 10
919.1184726476958
 20
588.2838014334518
 10
919.1177184856087
 20
588.2996763832252
 10
919.1161507024654
 20
588.3154917190315
 10
919.1137734292452
 20
588.3312057688956
 10
919.1105929298638
 20
588.3467771277062
 10
919.1066175846309
 20
588.3621647663167
 10
919.1018578682406
 20
588.377328139692
 10
919.0963263221046
 20
588.3922272937073
 10
919.0900375213558
 20
588.4068229704168
 10
919.0830080364184
 20
588.4210767115304
 10
919.0752563893683
 20
588.4349509597316
 10
919.0668030050719
 20
588.4484091576021
 10
919.0576701574673
 20
588.4614158440117
 10
919.0478819107656
 20
588.4739367475005
 10
919.0374640561268
 20
588.4859388766257
 10
919.0264440436612
 20
588.4973906068366
 10
919.0148509101154
 20
588.5082617638706
 10
919.0027152023494
 20
588.5185237031921
 10
918.9900688968728
 20
588.5281493855123
 10
918.9769453155577
 20
588.5371134480307
  0
LINE
  5
FBC
330
1F
100
AcDbEntity
  8
HEWI
100
AcDbLine
 10
868.6786947639292
 20
569.4565579954021
 30
0.0
 11
815.2460165099901
 21
600.2875781386367
 31
0.0
  0
LINE
  5
FBD
330
1F
100
AcDbEntity
  8
HEWI
100
AcDbLine
 10
917.31440045225
 20
589.4961397286524
 30
0.0
 11
918.9768743701142
 21
588.537003633252
 31
0.0
  0
LINE
  5
FBE
330
1F
100
AcDbEntity
  8
HEWI
100
AcDbLine
 10
848.3138737366417
 20
629.3099231889677
 30
0.0
 11
806.2604537197612
 21
605.0448242699124
 31
0.0
  0
LINE
  5
FBF
330
1F
100
AcDbEntity
  8
HEWI
100
AcDbLine
 10
848.3138737366417
 20
629.3099231889677
 30
0.0
 11
849.9763476545112
 21
628.3505717751054
 31
0.0
  0
LINE
  5
FC0
330
1F
100
AcDbEntity
  8
HEWI
100
AcDbLine
 10
876.923346693994
 20
564.2719047141954
 30
0.0
 11
918.9768743701142
 21
588.537003633252
 31
0.0
  0
LINE
  5
FC1
330
1F
100
AcDbEntity
  8
HEWI
100
AcDbLine
 10
839.5199443859846
 20
582.3939678712704
 30
0.0
 11
839.479141535644
 21
583.2678378551523
 31
0.0
  0
LWPOLYLINE
  5
FC2
330
1F
100
AcDbEntity
  8
HEWI
100
AcDbPolyline
 90
       39
 70
     0
 43
0.0
 10
853.337253674973
 20
611.7178664296525
 10
853.4324244393419
 20
611.7696505201117
 10
853.5322245508496
 20
611.8174512189957
 10
853.5843316209311
 20
611.8400596576568
 10
853.6376229426014
 20
611.8618068224625
 10
853.6920985158749
 20
611.882477394952
 10
853.7474353630305
 20
611.9022866935929
 10
853.8608005382402
 20
611.938460195445
 10
853.9777184682234
 20
611.9698966911121
 10
854.0376846625122
 20
611.9837847320016
 10
854.0987274491589
 20
611.9967038398115
 10
854.129410331344
 20
612.0026250975516
 10
854.1603085319902
 20
612.008331036832
 10
854.1917450288156
 20
612.0136063391876
 10
854.2231815256446
 20
612.0187739823123
 10
854.2865928154743
 20
612.0276020393125
 10
854.3507577199624
 20
612.0349228670707
 10
854.3827325129669
 20
612.0381526440215
 10
854.4150302836815
 20
612.0408441248164
 10
854.4475433728667
 20
612.0433202871472
 10
854.4799488028138
 20
612.0452581533165
 10
854.6097858410858
 20
612.0485955895006
 10
854.7385462869943
 20
612.0445045386921
 10
854.8028188507224
 20
612.0394445548063
 10
854.8666607774967
 20
612.0320160678127
 10
854.8824866851418
 20
612.0296475647173
 10
854.8984202520287
 20
612.0271714023865
 10
854.9141385004395
 20
612.0244799215916
 10
854.929856748854
 20
612.0217884408011
 10
854.9607549495076
 20
612.0158671830566
 10
854.9910071947406
 20
612.009192310692
 10
855.0501121151455
 20
611.9935817220905
 10
855.1065255546609
 20
611.9752796526975
 10
855.1203059368335
 20
611.970219668806
 10
855.1336556820615
 20
611.9648367072161
 10
855.1470054272895
 20
611.9590231087059
 10
855.1601398540469
 20
611.9534248286563
 10
855.1854397744419
 20
611.9410440170113
 10
855.2096631024678
 20
611.927801931512
  0
LWPOLYLINE
  5
FC3
330
1F
100
AcDbEntity
  8
HEWI
100
AcDbPolyline
 90
        3
 70
     0
 43
0.0
 10
816.2455248543475
 20
600.386516972592
 10
815.7870041694469
 20
600.4755511572207
 10
815.2460165099901
 20
600.2875781386367
  0
LINE
  5
FC4
330
1F
100
AcDbEntity
  8
HEWI
100
AcDbLine
 10
839.5199443859846
 20
582.3939678712704
 30
0.0
 11
872.8800964375942
 21
563.1451431950053
 31
0.0
  0
LINE
  5
FC5
330
1F
100
AcDbEntity
  8
HEWI
100
AcDbLine
 10
824.9723825011633
 20
595.3511870457807
 30
0.0
 11
853.337253674973
 21
611.7178664296525
 31
0.0
  0
LWPOLYLINE
  5
FC6
330
1F
100
AcDbEntity
  8
HEWI
100
AcDbPolyline
 90
        4
 70
     0
 43
0.0
 10
919.0772127777918
 20
587.4103497732963
 10
919.0974527141143
 20
587.8472309356211
 10
919.1179079688982
 20
588.2837891202464
 10
877.0644879520105
 20
564.0189055196517
  0
LINE
  5
FC7
330
1F
100
AcDbEntity
  8
HEWI
100
AcDbLine
 10
872.8395089057258
 20
564.0189055196517
 30
0.0
 11
839.479141535644
 21
583.2678378551523
 31
0.0
  0
LWPOLYLINE
  5
FC8
330
1F
100
AcDbEntity
  8
HEWI
100
AcDbPolyline
 90
        3
 70
     0
 43
0.0
 10
839.479141535644
 20
583.2678378551523
 10
839.517898860503
 20
583.4109169741068
 10
839.6204981121437
 20
583.5208370496913
  0
LWPOLYLINE
  5
FC9
330
1F
100
AcDbEntity
  8
HEWI
100
AcDbPolyline
 90
        3
 70
     0
 43
0.0
 10
839.5199443859846
 20
582.3939678712704
 10
839.5321098796149
 20
582.3432603731318
 10
839.5613931917351
 20
582.311070262846
  0
LINE
  5
FCA
330
1F
100
AcDbEntity
  8
HEWI
100
AcDbLine
 10
877.0237927609114
 20
563.1451431950053
 30
0.0
 11
919.0772127777918
 21
587.4103497732963
 31
0.0
  0
LWPOLYLINE
  5
FCB
330
1F
100
AcDbEntity
  8
HEWI
100
AcDbPolyline
 90
       20
 70
     0
 43
0.0
 10
927.7975815229829
 20
600.5758087233166
 10
927.807127315601
 20
600.7719970996313
 10
927.805679394719
 20
600.9684122331466
 10
927.7932422981384
 20
601.1644385573824
 10
927.7698550038067
 20
601.3594617243463
 10
927.7355908076833
 20
601.5528705299962
 10
927.6905570940243
 20
601.744058829677
 10
927.6348949988051
 20
601.9324274378268
 10
927.5687789674693
 20
602.1173860058163
 10
927.4924162081324
 20
602.29835487212
 10
927.4060460422688
 20
602.4747668789464
 10
927.3099391546193
 20
602.6460691497518
 10
927.2043967448908
 20
602.8117248219317
 10
927.0897495837916
 20
602.971214729371
 10
926.9663569763716
 20
603.1240390295127
 10
926.8346056359868
 20
603.2697187698524
 10
926.6949084723265
 20
603.4077973889909
 10
926.5477032973567
 20
603.5378421475061
 10
926.393451453173
 20
603.6594454841522
 10
926.2326363662314
 20
603.7722262931631
  0
LWPOLYLINE
  5
FCC
330
1F
100
AcDbEntity
  8
HEWI
100
AcDbPolyline
 90
        3
 70
     0
 43
0.0
 10
806.1192048025068
 20
602.5167701906459
 10
806.1578544681243
 20
602.6597416503707
 10
806.2604537197612
 20
602.7696617259564
  0
LWPOLYLINE
  5
FCD
330
1F
100
AcDbEntity
  8
HEWI
100
AcDbPolyline
 90
       20
 70
     0
 43
0.0
 10
925.0073837684531
 20
594.5030554053871
 10
925.1945666350867
 20
594.7905083053617
 10
925.3773060920494
 20
595.0808062316675
 10
925.5555589060632
 20
595.3738805043669
 10
925.729282905314
 20
595.6696617867216
 10
925.898436989445
 20
595.9680801015272
 10
926.0629811392618
 20
596.2690648477169
 10
926.2228764262136
 20
596.5725448170316
 10
926.3780850215798
 20
596.8784482108961
 10
926.5285702054635
 20
597.1867026573809
 10
926.6742963754504
 20
597.4972352283421
 10
926.8152290549906
 20
597.8099724566621
 10
926.9513349016587
 20
598.1248403536372
 10
927.082581714948
 20
598.4417644264809
 10
927.2089384439269
 20
598.7606696959519
 10
927.3303751945922
 20
599.0814807140716
 10
927.4468632369053
 20
599.4041215820268
 10
927.558375011641
 20
599.7285159680521
 10
927.664884136865
 20
600.0545871255567
 10
927.7663654142006
 20
600.3822579112275
  0
LINE
  5
FCE
330
1F
100
AcDbEntity
  8
HEWI
100
AcDbLine
 10
806.1601153120783
 20
601.6431155252362
 30
0.0
 11
806.1192048025068
 21
602.5167701906459
 31
0.0
  0
LWPOLYLINE
  5
FCF
330
1F
100
AcDbEntity
  8
HEWI
100
AcDbPolyline
 90
        3
 70
     0
 43
0.0
 10
857.2015742816175
 20
641.3111283857963
 10
857.1615250459316
 20
641.2285537550715
 10
857.1295502529256
 20
641.1393042519708
  0
LWPOLYLINE
  5
FD0
330
1F
100
AcDbEntity
  8
HEWI
100
AcDbPolyline
 90
       20
 70
     0
 43
0.0
 10
922.1799790803334
 20
591.0239029124354
 10
922.3464406603898
 20
591.1917391988415
 10
922.5110526798189
 20
591.3613898978566
 10
922.6737953629626
 20
591.5328346284868
 10
922.8346491586954
 20
591.7060527941921
 10
922.9935947428248
 20
591.8810235853814
 10
923.1506130204062
 20
592.0577259819267
 10
923.3056851280334
 20
592.2361387556625
 10
923.4587924360994
 20
592.4162404729363
 10
923.6099165510305
 20
592.5980094972319
 10
923.7590393175242
 20
592.7814239916759
 10
923.9061428206868
 20
592.9664619217706
 10
924.0512093882307
 20
593.1531010579467
 10
924.1942215925691
 20
593.3413189782961
 10
924.3351622528999
 20
593.5310930712321
 10
924.4740144373091
 20
593.7224005382213
 10
924.6107614647726
 20
593.9152183965123
 10
924.7453869071751
 20
594.1095234819206
 10
924.8778745912487
 20
594.3052924515771
 10
925.0082086005978
 20
594.5025017867513
  0
LINE
  5
FD1
330
1F
100
AcDbEntity
  8
HEWI
100
AcDbLine
 10
855.2096631024678
 20
611.927801931512
 30
0.0
 11
905.5653327405261
 21
582.8722978378075
 31
0.0
  0
LINE
  5
FD2
330
1F
100
AcDbEntity
  8
HEWI
100
AcDbLine
 10
839.479141535644
 20
583.2678378551523
 30
0.0
 11
806.1192048025068
 21
602.5167701906459
 31
0.0
  0
LWPOLYLINE
  5
FD3
330
1F
100
AcDbEntity
  8
HEWI
100
AcDbPolyline
 90
        3
 70
     0
 43
0.0
 10
927.7640211889329
 20
600.3829642179416
 10
927.7864143099568
 20
600.4775966826266
 10
927.799333418242
 20
600.5756742427209
  0
LINE
  5
FD4
330
1F
100
AcDbEntity
  8
HEWI
100
AcDbLine
 10
806.1601153120783
 20
601.6431155252362
 30
0.0
 11
839.5199443859846
 21
582.3939678712704
 31
0.0
  0
LWPOLYLINE
  5
FD5
330
1F
100
AcDbEntity
  8
HEWI
100
AcDbPolyline
 90
       20
 70
     0
 43
0.0
 10
918.9780156354744
 20
588.5350752387014
 10
919.1614456313663
 20
588.6452971372627
 10
919.3433840119951
 20
588.757964150757
 10
919.5237981860691
 20
588.8730560967363
 10
919.70265583534
 20
588.9905523583515
 10
919.8799249203648
 20
589.1104318880709
 10
920.0555736862998
 20
589.2326732114272
 10
920.2295706685355
 20
589.3572544308917
 10
920.4018846983409
 20
589.4841532297723
 10
920.5724849084717
 20
589.6133468762164
 10
920.7413407387058
 20
589.7448122272922
 10
920.9084219412535
 20
589.8785257331374
 10
921.0736985862704
 20
590.0144634411517
 10
921.2371410671321
 20
590.1526010003274
 10
921.3987201057852
 20
590.2929136655566
 10
921.5584067579902
 20
590.4353763021403
 10
921.7161724184906
 20
590.5799633902065
 10
921.871988826143
 20
590.7266490293468
 10
922.0258280689767
 20
590.8754069432213
 10
922.1776625892152
 20
591.0262104842765
  0
LWPOLYLINE
  5
FD6
330
1F
100
AcDbEntity
  8
HEWI
100
AcDbPolyline
 90
       21
 70
     0
 43
0.0
 10
917.7486952933932
 20
590.2096788177121
 10
917.8871691133927
 20
590.6223737378914
 10
917.9975184469832
 20
591.0434617572266
 10
918.0792416462637
 20
591.4710286101811
 10
918.1319671976826
 20
591.9031305784463
 10
918.1554554109652
 20
592.3378033271014
 10
918.1495995087288
 20
592.773070834461
 10
918.1144261118888
 20
593.2069543750517
 10
918.0500951186559
 20
593.6374815149215
 10
917.9568989776443
 20
594.0626950783054
 10
917.8352613583584
 20
594.480662044971
 10
917.6857352252582
 20
594.889482337676
 10
917.5090003239265
 20
595.2872974599565
 10
917.3058600909689
 20
595.6722989448373
 10
917.0772380015941
 20
596.042736576127
 10
916.8241733714921
 20
596.3969263448782
 10
916.5478166321054
 20
596.7332581049062
 10
916.2494241007799
 20
597.0502028925218
 10
915.9303522695253
 20
597.3463198771767
 10
915.5920516384421
 20
597.6202629114768
 10
915.2360601217015
 20
597.8707866507821
  0
LWPOLYLINE
  5
FD7
330
1F
100
AcDbEntity
  8
HEWI
100
AcDbPolyline
 90
       20
 70
     0
 43
0.0
 10
861.8331060240407
 20
628.8241642814173
 10
861.2871502368207
 20
628.9864951428867
 10
860.7357084601563
 20
629.1290819500025
 10
860.1794944731182
 20
629.251740140252
 10
859.619228231887
 20
629.3543109464669
 10
859.0556349378266
 20
629.4366616023117
 10
858.4894440987946
 20
629.4986855141715
 10
857.9213885848776
 20
629.5403023991061
 10
857.3522036797703
 20
629.5614583887461
 10
856.782626129042
 20
629.5621260990563
 10
856.2133931864909
 20
629.5423046657722
 10
855.6452416598686
 20
629.5020197454825
 10
855.0789069571429
 20
629.4413234824778
 10
854.5151221346122
 20
629.360294441208
 10
853.9546169480482
 20
629.2590375046224
 10
853.3981169081007
 20
629.137683738377
 10
852.8463423412222
 20
628.9963902212266
 10
852.3000074572436
 20
628.8353398416566
 10
851.7598194249686
 20
628.6547410612016
 10
851.2264774567984
 20
628.4548276445709
  0
LINE
  5
FEB
330
1F
100
AcDbEntity
  8
HEWI
100
AcDbLine
 10
934.4617175610428
 20
64.2402055674816
 30
0.0
 11
903.0202684082896
 21
46.09811779330612
 31
0.0
  0
LWPOLYLINE
  5
FEC
330
1F
100
AcDbEntity
  8
HEWI
100
AcDbPolyline
 90
       11
 70
     0
 43
0.0
 10
936.5154251414887
 20
66.66770592431731
 10
936.5177936446698
 20
66.63885325021652
 10
936.5190855555001
 20
66.60967759842179
 10
936.4749452688602
 20
66.3361154906218
 10
936.3489839630702
 20
66.04026792185123
 10
936.1836193770205
 20
65.75131054391164
 10
935.9581809374422
 20
65.44297450426171
 10
935.6358491857236
 20
65.09889559968684
 10
935.2316964148531
 20
64.75341712509163
 10
934.8695307459193
 20
64.49449667280674
 10
934.4617175610428
 20
64.2402055674816
  0
LWPOLYLINE
  5
FED
330
1F
100
AcDbEntity
  8
HEWI
100
AcDbPolyline
 90
        3
 70
     0
 43
0.0
 10
903.0213450006513
 20
46.10027097793731
 10
902.8658850642742
 20
46.01371295563722
 10
902.7102098094392
 20
45.92715493333144
  0
LWPOLYLINE
  5
FEE
330
1F
100
AcDbEntity
  8
HEWI
100
AcDbPolyline
 90
        4
 70
     0
 43
0.0
 10
902.5854327552506
 20
42.53007553561615
 10
944.5058936160284
 20
66.71873640015547
 10
944.5351769281469
 20
66.75081885120704
 10
944.5472347625445
 20
66.80163400857651
  0
LWPOLYLINE
  5
FEF
330
1F
100
AcDbEntity
  8
HEWI
100
AcDbPolyline
 90
        7
 70
     0
 43
0.0
 10
902.7043962107191
 20
45.92704727410164
 10
902.1782655257911
 20
45.65133198166249
 10
901.6114396497679
 20
45.39768683173206
 10
900.9408302705114
 20
45.14253445255262
 10
900.2215589167272
 20
44.92344791600117
 10
900.2090704453793
 20
44.92011047981718
 10
900.1966896332769
 20
44.91688070286641
  0
ENDSEC
  0
SECTION
  2
OBJECTS
  0
DICTIONARY
  5
C
330
0
100
AcDbDictionary
281
     1
  3
ACAD_CIP_PREVIOUS_PRODUCT_INFO
350
20C
  3
ACAD_COLOR
350
151
  3
ACAD_DETAILVIEWSTYLE
350
208
  3
ACAD_GROUP
350
D
  3
ACAD_LAYOUT
350
1A
  3
ACAD_MATERIAL
350
13C
  3
ACAD_MLEADERSTYLE
350
204
  3
ACAD_MLINESTYLE
350
17
  3
ACAD_PLOTSETTINGS
350
19
  3
ACAD_PLOTSTYLENAME
350
E
  3
ACAD_SCALELIST
350
1F2
  3
ACAD_SECTIONVIEWSTYLE
350
206
  3
ACAD_TABLESTYLE
350
152
  3
ACAD_VISUALSTYLE
350
140
  3
ACDB_RECOMPOSE_DATA
350
1761
  3
AcDbVariableDictionary
350
17F
  0
DICTIONARY
  5
19A
330
2
100
AcDbDictionary
280
     1
281
     1
  3
ACAD_LAYERFILTERS
360
19E
  3
ACLYDICTIONARY
360
19D
  0
DICTIONARY
  5
20D
330
10
100
AcDbDictionary
280
     1
281
     1
  3
ADSK_XREC_LAYER_RECONCILED
360
20E
  0
DICTIONARY
  5
211
330
197
100
AcDbDictionary
280
     1
281
     1
  3
ADSK_XREC_LAYER_RECONCILED
360
212
  0
DICTIONARY
  5
25E
330
1F
100
AcDbDictionary
280
     1
281
     1
  3
ACAD_SORTENTS
360
25F
  0
XRECORD
  5
20C
102
{ACAD_REACTORS
330
C
102
}
330
C
100
AcDbXrecord
280
     1
300
ACDLT
300
2021
300
ACDLT_F_S
  0
DICTIONARY
  5
151
102
{ACAD_REACTORS
330
C
102
}
330
C
100
AcDbDictionary
281
     1
  0
DICTIONARY
  5
208
102
{ACAD_REACTORS
330
C
102
}
330
C
100
AcDbDictionary
281
     1
  3
Metric50
350
209
  0
DICTIONARY
  5
D
102
{ACAD_REACTORS
330
C
102
}
330
C
100
AcDbDictionary
281
     1
  0
DICTIONARY
  5
1A
102
{ACAD_REACTORS
330
C
102
}
330
C
100
AcDbDictionary
281
     1
  3
Layout1
350
1E
  3
Layout2
350
26
  3
Model
350
22
  0
DICTIONARY
  5
13C
102
{ACAD_REACTORS
330
C
102
}
330
C
100
AcDbDictionary
281
     1
  3
ByBlock
350
13E
  3
ByLayer
350
13D
  3
Global
350
13F
  0
DICTIONARY
  5
204
102
{ACAD_REACTORS
330
C
102
}
330
C
100
AcDbDictionary
281
     1
  3
Standard
350
205
  0
DICTIONARY
  5
17
102
{ACAD_REACTORS
330
C
102
}
330
C
100
AcDbDictionary
281
     1
  3
Standard
350
18
  0
DICTIONARY
  5
19
102
{ACAD_REACTORS
330
C
102
}
330
C
100
AcDbDictionary
281
     1
  0
ACDBDICTIONARYWDFLT
  5
E
102
{ACAD_REACTORS
330
C
102
}
330
C
100
AcDbDictionary
281
     1
  3
Normal
350
F
100
AcDbDictionaryWithDefault
340
F
  0
DICTIONARY
  5
1F2
102
{ACAD_REACTORS
330
C
102
}
330
C
100
AcDbDictionary
281
     1
  3
A0
350
1F3
  3
A1
350
1F4
  3
A2
350
1F5
  3
A3
350
1F6
  3
A4
350
1F7
  3
A5
350
1F8
  3
A6
350
1F9
  3
A7
350
1FA
  3
A8
350
1FB
  3
A9
350
1FC
  3
B0
350
1FD
  3
B1
350
1FE
  3
B2
350
1FF
  3
B3
350
200
  3
B4
350
201
  3
B5
350
202
  3
B6
350
203
  0
DICTIONARY
  5
206
102
{ACAD_REACTORS
330
C
102
}
330
C
100
AcDbDictionary
281
     1
  3
Metric50
350
207
  0
DICTIONARY
  5
152
102
{ACAD_REACTORS
330
C
102
}
330
C
100
AcDbDictionary
281
     1
  3
Standard
350
153
  0
DICTIONARY
  5
140
102
{ACAD_REACTORS
330
C
102
}
330
C
100
AcDbDictionary
281
     1
  3
2dWireframe
350
146
  3
3D Hidden
350
148
  3
3dWireframe
350
147
  3
Basic
350
145
  3
Brighten
350
14C
  3
ColorChange
350
150
  3
Conceptual
350
149
  3
Dim
350
14B
  3
EdgeColorOff
350
1F1
  3
Facepattern
350
14F
  3
Flat
350
141
  3
FlatWithEdges
350
142
  3
Gouraud
350
143
  3
GouraudWithEdges
350
144
  3
Hidden
350
1E9
  3
JitterOff
350
1EF
  3
Linepattern
350
14E
  3
OverhangOff
350
1F0
  3
Realistic
350
14A
  3
Shaded
350
1EE
  3
Shaded with edges
350
1ED
  3
Shades of Gray
350
1EA
  3
Sketchy
350
1EB
  3
Thicken
350
14D
  3
Wireframe
350
1E8
  3
X-Ray
350
1EC
  0
XRECORD
  5
1761
102
{ACAD_REACTORS
330
C
102
}
330
C
100
AcDbXrecord
280
     1
 90
        1
330
153
  0
DICTIONARY
  5
17F
102
{ACAD_REACTORS
330
C
102
}
330
C
100
AcDbDictionary
281
     1
  3
CANNOSCALE
350
265
  3
CMLEADERSTYLE
350
261
  3
CTABLESTYLE
350
180
  3
CVIEWDETAILSTYLE
350
262
  3
CVIEWSECTIONSTYLE
350
263
  3
DIMASSOC
350
183
  3
INDEXCTL
350
182
  3
LAYEREVAL
350
267
  3
LAYERNOTIFY
350
268
  3
LIGHTINGUNITS
350
266
  3
MSLTSCALE
350
264
  3
SORTENTS
350
181
  0
DICTIONARY
  5
19E
102
{ACAD_REACTORS
330
19A
102
}
330
19A
100
AcDbDictionary
281
     1
  0
DICTIONARY
  5
19D
102
{ACAD_REACTORS
330
19A
102
}
330
19A
100
AcDbDictionary
281
     1
1001
ACAD
1000
<All
  0
XRECORD
  5
20E
102
{ACAD_REACTORS
330
20D
102
}
330
20D
100
AcDbXrecord
280
     1
290
     1
  0
XRECORD
  5
212
102
{ACAD_REACTORS
330
211
102
}
330
211
100
AcDbXrecord
280
     1
290
     1
  0
SORTENTSTABLE
  5
25F
102
{ACAD_REACTORS
330
25E
102
}
330
25E
100
AcDbSortentsTable
330
1F
  0
ACDBDETAILVIEWSTYLE
  5
209
102
{ACAD_XDICTIONARY
360
1764
102
}
102
{ACAD_REACTORS
330
208
102
}
330
208
100
AcDbModelDocViewStyle
 70
     0
  3
Metric50
290
     0
100
AcDbDetailViewStyle
 70
     0
 71
     0
 90
        3
 71
     1
340
11
 62
   256
 40
5.0
340
0
 62
   256
 40
5.0
300

 40
0.0
280
     1
 71
     2
340
16
 90
       25
 62
   256
 71
     3
340
11
 62
   256
 40
5.0
 90
        0
 40
15.0
 90
        1
300
%<\AcVar ViewDetailId>% (%<\AcVar ViewScale \f "%sn">%)
 71
     4
340
16
 90
       25
 62
   256
340
16
 90
       25
 62
   256
280
     0
  0
LAYOUT
  5
1E
102
{ACAD_REACTORS
330
1A
102
}
330
1A
100
AcDbPlotSettings
  1

  2

  4

  6

 40
0.0
 41
0.0
 42
0.0
 43
0.0
 44
0.0
 45
0.0
 46
0.0
 47
0.0
 48
0.0
 49
0.0
140
0.0
141
0.0
142
1.0
143
1.0
 70
   688
 72
     0
 73
     0
 74
     5
  7

 75
    16
147
1.0
 76
     0
 77
     2
 78
   300
148
0.0
149
0.0
100
AcDbLayout
  1
Layout1
 70
     1
 71
     1
 10
-0.5
 20
-0.5
 11
5.0
 21
5.0
 12
0.0
 22
0.0
 32
0.0
 14
-0.5
 24
-0.5
 34
-0.5
 15
5.0
 25
5.0
 35
5.0
146
0.0
 13
0.0
 23
0.0
 33
0.0
 16
1.0
 26
0.0
 36
0.0
 17
0.0
 27
1.0
 37
0.0
 76
     0
330
1B
  0
LAYOUT
  5
26
102
{ACAD_REACTORS
330
1A
102
}
330
1A
100
AcDbPlotSettings
  1

  2

  4

  6

 40
0.0
 41
0.0
 42
0.0
 43
0.0
 44
0.0
 45
0.0
 46
0.0
 47
0.0
 48
0.0
 49
0.0
140
0.0
141
0.0
142
1.0
143
1.0
 70
   688
 72
     0
 73
     0
 74
     5
  7

 75
    16
147
1.0
 76
     0
 77
     2
 78
   300
148
0.0
149
0.0
100
AcDbLayout
  1
Layout2
 70
     1
 71
     2
 10
0.0
 20
0.0
 11
0.0
 21
0.0
 12
0.0
 22
0.0
 32
0.0
 14
0.0
 24
0.0
 34
0.0
 15
0.0
 25
0.0
 35
0.0
146
0.0
 13
0.0
 23
0.0
 33
0.0
 16
1.0
 26
0.0
 36
0.0
 17
0.0
 27
1.0
 37
0.0
 76
     0
330
23
  0
LAYOUT
  5
22
102
{ACAD_REACTORS
330
1A
102
}
330
1A
100
AcDbPlotSettings
  1

  2

  4

  6

 40
0.0
 41
0.0
 42
0.0
 43
0.0
 44
0.0
 45
0.0
 46
0.0
 47
0.0
 48
0.0
 49
0.0
140
0.0
141
0.0
142
1.0
143
1.0
 70
  1712
 72
     0
 73
     0
 74
     0
  7

 75
     0
147
1.0
 76
     0
 77
     2
 78
   300
148
0.0
149
0.0
100
AcDbLayout
  1
Model
 70
     1
 71
     0
 10
-0.5
 20
-0.5
 11
5.0
 21
5.0
 12
0.0
 22
0.0
 32
0.0
 14
-0.5
 24
-0.5
 34
-0.5
 15
5.0
 25
5.0
 35
5.0
146
0.0
 13
0.0
 23
0.0
 33
0.0
 16
1.0
 26
0.0
 36
0.0
 17
0.0
 27
1.0
 37
0.0
 76
     0
330
1F
331
12A
  0
MATERIAL
  5
13E
102
{ACAD_XDICTIONARY
360
1C5
102
}
102
{ACAD_REACTORS
330
13C
102
}
330
13C
100
AcDbMaterial
  1
ByBlock
  0
MATERIAL
  5
13D
102
{ACAD_XDICTIONARY
360
1C3
102
}
102
{ACAD_REACTORS
330
13C
102
}
330
13C
100
AcDbMaterial
  1
ByLayer
  0
MATERIAL
  5
13F
102
{ACAD_XDICTIONARY
360
1C7
102
}
102
{ACAD_REACTORS
330
13C
102
}
330
13C
100
AcDbMaterial
  1
Global
  0
MLEADERSTYLE
  5
205
102
{ACAD_REACTORS
330
204
102
}
330
204
100
AcDbMLeaderStyle
179
     2
170
     2
171
     1
172
     0
 90
        2
 40
0.0
 41
0.0
173
     1
 91
-1056964608
340
14
 92
       -2
290
     1
 42
2.0
291
     1
 43
0.36
  3
Standard
 44
4.0
300

342
11
174
     1
178
     6
175
     1
176
     0
 93
-1056964608
 45
4.0
292
     0
297
     0
 46
4.0
 94
-1056964608
 47
1.0
 49
1.0
140
1.0
293
     1
141
0.0
294
     1
177
     0
142
1.0
295
     0
296
     0
143
0.125
271
     0
272
     9
273
     9
298
     0
  0
MLINESTYLE
  5
18
102
{ACAD_REACTORS
330
17
102
}
330
17
100
AcDbMlineStyle
  2
STANDARD
 70
     0
  3

 62
   256
 51
90.0
 52
90.0
 71
     2
 49
0.5
 62
   256
  6
BYLAYER
 49
-0.5
 62
   256
  6
BYLAYER
  0
ACDBPLACEHOLDER
  5
F
102
{ACAD_REACTORS
330
E
102
}
330
E
  0
SCALE
  5
1F3
102
{ACAD_REACTORS
330
1F2
102
}
330
1F2
100
AcDbScale
 70
     0
300
1:1
140
1.0
141
1.0
290
     1
  0
SCALE
  5
1F4
102
{ACAD_REACTORS
330
1F2
102
}
330
1F2
100
AcDbScale
 70
     0
300
1:2
140
1.0
141
2.0
290
     0
  0
SCALE
  5
1F5
102
{ACAD_REACTORS
330
1F2
102
}
330
1F2
100
AcDbScale
 70
     0
300
1:4
140
1.0
141
4.0
290
     0
  0
SCALE
  5
1F6
102
{ACAD_REACTORS
330
1F2
102
}
330
1F2
100
AcDbScale
 70
     0
300
1:5
140
1.0
141
5.0
290
     0
  0
SCALE
  5
1F7
102
{ACAD_REACTORS
330
1F2
102
}
330
1F2
100
AcDbScale
 70
     0
300
1:8
140
1.0
141
8.0
290
     0
  0
SCALE
  5
1F8
102
{ACAD_REACTORS
330
1F2
102
}
330
1F2
100
AcDbScale
 70
     0
300
1:10
140
1.0
141
10.0
290
     0
  0
SCALE
  5
1F9
102
{ACAD_REACTORS
330
1F2
102
}
330
1F2
100
AcDbScale
 70
     0
300
1:16
140
1.0
141
16.0
290
     0
  0
SCALE
  5
1FA
102
{ACAD_REACTORS
330
1F2
102
}
330
1F2
100
AcDbScale
 70
     0
300
1:20
140
1.0
141
20.0
290
     0
  0
SCALE
  5
1FB
102
{ACAD_REACTORS
330
1F2
102
}
330
1F2
100
AcDbScale
 70
     0
300
1:30
140
1.0
141
30.0
290
     0
  0
SCALE
  5
1FC
102
{ACAD_REACTORS
330
1F2
102
}
330
1F2
100
AcDbScale
 70
     0
300
1:40
140
1.0
141
40.0
290
     0
  0
SCALE
  5
1FD
102
{ACAD_REACTORS
330
1F2
102
}
330
1F2
100
AcDbScale
 70
     0
300
1:50
140
1.0
141
50.0
290
     0
  0
SCALE
  5
1FE
102
{ACAD_REACTORS
330
1F2
102
}
330
1F2
100
AcDbScale
 70
     0
300
1:100
140
1.0
141
100.0
290
     0
  0
SCALE
  5
1FF
102
{ACAD_REACTORS
330
1F2
102
}
330
1F2
100
AcDbScale
 70
     0
300
2:1
140
2.0
141
1.0
290
     0
  0
SCALE
  5
200
102
{ACAD_REACTORS
330
1F2
102
}
330
1F2
100
AcDbScale
 70
     0
300
4:1
140
4.0
141
1.0
290
     0
  0
SCALE
  5
201
102
{ACAD_REACTORS
330
1F2
102
}
330
1F2
100
AcDbScale
 70
     0
300
8:1
140
8.0
141
1.0
290
     0
  0
SCALE
  5
202
102
{ACAD_REACTORS
330
1F2
102
}
330
1F2
100
AcDbScale
 70
     0
300
10:1
140
10.0
141
1.0
290
     0
  0
SCALE
  5
203
102
{ACAD_REACTORS
330
1F2
102
}
330
1F2
100
AcDbScale
 70
     0
300
100:1
140
100.0
141
1.0
290
     0
  0
ACDBSECTIONVIEWSTYLE
  5
207
102
{ACAD_XDICTIONARY
360
1762
102
}
102
{ACAD_REACTORS
330
206
102
}
330
206
100
AcDbModelDocViewStyle
 70
     0
  3
Metric50
290
     0
100
AcDbSectionViewStyle
 70
     0
 71
     0
 90
      102
 71
     1
340
11
 62
   256
 40
5.0
340
0
340
0
 62
   256
 40
5.0
300
I, O, Q, S, X, Z
 40
10.0
 90
        0
 40
2.5
 90
        0
 71
     2
340
16
 90
       25
 62
   256
340
16
 90
       50
 62
   256
 40
5.0
 40
2.5
 40
5.0
 71
     3
340
11
 62
   256
 40
5.0
 90
        0
 40
15.0
 90
        1
300
%<\AcVar ViewSectionStartId>%-%<\AcVar ViewSectionEndId>% (%<\AcVar ViewScale \f "%sn">%)
 71
     4
 62
   256
 62
   257
300
ANSI31
 40
1.0
 90
        0
290
     0
290
     0
 90
        6
 40
0.0
 40
1.570796326794896
 40
0.2617993877991494
 40
1.308996938995747
 40
-0.2617993877991494
 40
1.832595714594044
  0
TABLESTYLE
  5
153
102
{ACAD_XDICTIONARY
360
269
102
}
102
{ACAD_REACTORS
330
152
102
}
330
152
100
AcDbTableStyle
280
     0
  3
Standard
 70
     0
 71
     0
 40
1.5
 41
1.5
280
     0
281
     0
  7
Standard
140
4.5
170
     2
 62
     0
 63
     7
283
     0
 90
      512
 91
        0
  1

274
    -2
284
     1
 64
     0
275
    -2
285
     1
 65
     0
276
    -2
286
     1
 66
     0
277
    -2
287
     1
 67
     0
278
    -2
288
     1
 68
     0
279
    -2
289
     1
 69
     0
  7
Standard
140
6.0
170
     5
 62
     0
 63
     7
283
     0
 90
      512
 91
        0
  1

274
    -2
284
     1
 64
     0
275
    -2
285
     1
 65
     0
276
    -2
286
     1
 66
     0
277
    -2
287
     1
 67
     0
278
    -2
288
     1
 68
     0
279
    -2
289
     1
 69
     0
  7
Standard
140
4.5
170
     5
 62
     0
 63
     7
283
     0
 90
      512
 91
        0
  1

274
    -2
284
     1
 64
     0
275
    -2
285
     1
 65
     0
276
    -2
286
     1
 66
     0
277
    -2
287
     1
 67
     0
278
    -2
288
     1
 68
     0
279
    -2
289
     1
 69
     0
  0
VISUALSTYLE
  5
146
102
{ACAD_REACTORS
330
140
102
}
330
140
100
AcDbVisualStyle
  2

 70
     4
177
     3
291
     0
 70
    58
 90
        0
176
     1
 90
        2
176
     1
 90
        0
176
     1
 90
        0
176
     1
 40
0.6
176
     1
 40
30.0
176
     1
 62
     7
176
     1
 90
        1
176
     1
 90
        4
176
     1
 62
     7
176
     1
 62
   257
176
     1
 90
        1
176
     1
 90
        1
176
     1
 40
1.0
176
     1
 90
        0
176
     1
 62
   257
176
     1
 40
1.0
176
     1
 90
        1
176
     1
 90
        6
176
     1
 90
        2
176
     1
 62
     7
176
     1
 90
        5
176
     1
 90
        0
176
     1
 90
        0
176
     1
290
     0
176
     1
 90
        1
176
     1
 40
0.0
176
     1
 90
        0
176
     1
290
     1
176
     1
290
     1
176
     1
290
     0
176
     1
290
     0
176
     1
290
     0
176
     1
290
     0
176
     1
290
     0
176
     1
290
     0
176
     1
290
     0
176
     1
 90
       50
176
     1
 40
0.0
176
     1
 40
1.0
176
     1
 90
        0
176
     1
 62
    18
176
     1
 90
       50
176
     1
 90
        3
176
     1
 62
     5
420
      255
176
     1
290
     0
176
     1
 90
       50
176
     1
 90
       50
176
     1
 90
       50
176
     1
290
     0
176
     1
 90
       50
176
     1
 62
   256
176
     0
 40
1.0
176
     0
 90
        2
176
     1
  1
strokes_ogs.tif
176
     1
290
     0
176
     1
 40
1.0
176
     1
 40
1.0
176
     1
1001
ACAD
1000
AcDbSavedByObjectVersion
1070
     0
  0
VISUALSTYLE
  5
148
102
{ACAD_REACTORS
330
140
102
}
330
140
100
AcDbVisualStyle
  2

 70
     6
177
     3
291
     0
 70
    58
 90
        1
176
     1
 90
        2
176
     1
 90
        2
176
     1
 90
        0
176
     1
 40
0.6
176
     1
 40
30.0
176
     1
 62
     7
176
     1
 90
        2
176
     1
 90
        2
176
     1
 62
     7
176
     1
 62
   257
176
     1
 90
        2
176
     1
 90
        1
176
     1
 40
40.0
176
     1
 90
        0
176
     1
 62
   257
176
     1
 40
1.0
176
     1
 90
        1
176
     1
 90
        6
176
     1
 90
        2
176
     1
 62
     7
176
     1
 90
        3
176
     1
 90
        0
176
     1
 90
        0
176
     1
290
     0
176
     1
 90
        1
176
     1
 40
0.0
176
     1
 90
        0
176
     1
290
     0
176
     1
290
     1
176
     1
290
     1
176
     1
290
     0
176
     1
290
     0
176
     1
290
     0
176
     1
290
     0
176
     1
290
     0
176
     1
290
     0
176
     1
 90
       50
176
     1
 40
0.0
176
     1
 40
1.0
176
     1
 90
        0
176
     1
 62
    18
176
     1
 90
       50
176
     1
 90
        3
176
     1
 62
     5
420
      255
176
     1
290
     0
176
     1
 90
       50
176
     1
 90
       50
176
     1
 90
       50
176
     1
290
     0
176
     1
 90
       50
176
     1
 62
   256
176
     0
 40
1.0
176
     0
 90
        2
176
     1
  1
strokes_ogs.tif
176
     1
290
     0
176
     1
 40
1.0
176
     1
 40
1.0
176
     1
1001
ACAD
1000
AcDbSavedByObjectVersion
1070
     0
  0
VISUALSTYLE
  5
147
102
{ACAD_REACTORS
330
140
102
}
330
140
100
AcDbVisualStyle
  2

 70
     5
177
     3
291
     0
 70
    58
 90
        0
176
     1
 90
        2
176
     1
 90
        0
176
     1
 90
        0
176
     1
 40
0.6
176
     1
 40
30.0
176
     1
 62
     7
176
     1
 90
        1
176
     1
 90
        4
176
     1
 62
     7
176
     1
 62
   257
176
     1
 90
        1
176
     1
 90
        1
176
     1
 40
1.0
176
     1
 90
        0
176
     1
 62
   257
176
     1
 40
1.0
176
     1
 90
        1
176
     1
 90
        6
176
     1
 90
        2
176
     1
 62
     7
176
     1
 90
        5
176
     1
 90
        0
176
     1
 90
        0
176
     1
290
     0
176
     1
 90
        1
176
     1
 40
0.0
176
     1
 90
        0
176
     1
290
     0
176
     1
290
     1
176
     1
290
     1
176
     1
290
     0
176
     1
290
     0
176
     1
290
     0
176
     1
290
     0
176
     1
290
     0
176
     1
290
     0
176
     1
 90
       50
176
     1
 40
0.0
176
     1
 40
1.0
176
     1
 90
        0
176
     1
 62
    18
176
     1
 90
       50
176
     1
 90
        3
176
     1
 62
     5
420
      255
176
     1
290
     0
176
     1
 90
       50
176
     1
 90
       50
176
     1
 90
       50
176
     1
290
     0
176
     1
 90
       50
176
     1
 62
   256
176
     0
 40
1.0
176
     0
 90
        2
176
     1
  1
strokes_ogs.tif
176
     1
290
     0
176
     1
 40
1.0
176
     1
 40
1.0
176
     1
1001
ACAD
1000
AcDbSavedByObjectVersion
1070
     0
  0
VISUALSTYLE
  5
145
102
{ACAD_REACTORS
330
140
102
}
330
140
100
AcDbVisualStyle
  2

 70
     7
177
     3
291
     1
 70
    58
 90
        1
176
     1
 90
        0
176
     1
 90
        1
176
     1
 90
        0
176
     1
 40
0.6
176
     1
 40
30.0
176
     1
 62
     7
176
     1
 90
        0
176
     1
 90
        4
176
     1
 62
     7
176
     1
 62
   257
176
     1
 90
        1
176
     1
 90
        1
176
     1
 40
1.0
176
     1
 90
        8
176
     1
 62
     7
176
     1
 40
1.0
176
     1
 90
        1
176
     1
 90
        6
176
     1
 90
        2
176
     1
 62
     7
176
     1
 90
        5
176
     1
 90
        0
176
     1
 90
        0
176
     1
290
     0
176
     1
 90
        1
176
     1
 40
0.0
176
     1
 90
        0
176
     1
290
     0
176
     1
290
     1
176
     1
290
     1
176
     1
290
     0
176
     1
290
     0
176
     1
290
     0
176
     1
290
     0
176
     1
290
     0
176
     1
290
     0
176
     1
 90
       50
176
     1
 40
0.0
176
     1
 40
1.0
176
     1
 90
        0
176
     1
 62
    18
176
     1
 90
       50
176
     1
 90
        3
176
     1
 62
     5
420
      255
176
     1
290
     0
176
     1
 90
       50
176
     1
 90
       50
176
     1
 90
       50
176
     1
290
     0
176
     1
 90
       50
176
     1
 62
   256
176
     0
 40
1.0
176
     0
 90
        2
176
     1
  1
strokes_ogs.tif
176
     1
290
     0
176
     1
 40
1.0
176
     1
 40
1.0
176
     1
1001
ACAD
1000
AcDbSavedByObjectVersion
1070
     0
  0
VISUALSTYLE
  5
14C
102
{ACAD_REACTORS
330
140
102
}
330
140
100
AcDbVisualStyle
  2

 70
    12
177
     3
291
     1
 70
    58
 90
        2
176
     1
 90
        2
176
     1
 90
        0
176
     1
 90
        0
176
     1
 40
0.6
176
     1
 40
30.0
176
     1
 62
     7
176
     1
 90
        1
176
     1
 90
        4
176
     1
 62
     7
176
     1
 62
   257
176
     1
 90
        1
176
     1
 90
        1
176
     1
 40
1.0
176
     1
 90
        8
176
     1
 62
     7
176
     1
 40
1.0
176
     1
 90
        1
176
     1
 90
        6
176
     1
 90
        2
176
     1
 62
     7
176
     1
 90
        5
176
     1
 90
        0
176
     1
 90
        0
176
     1
290
     0
176
     1
 90
        1
176
     1
 40
50.0
176
     1
 90
        0
176
     1
290
     0
176
     1
290
     1
176
     1
290
     1
176
     1
290
     0
176
     1
290
     0
176
     1
290
     0
176
     1
290
     0
176
     1
290
     0
176
     1
290
     0
176
     1
 90
       50
176
     1
 40
0.0
176
     1
 40
1.0
176
     1
 90
        0
176
     1
 62
    18
176
     1
 90
       50
176
     1
 90
        3
176
     1
 62
     5
420
      255
176
     1
290
     0
176
     1
 90
       50
176
     1
 90
       50
176
     1
 90
       50
176
     1
290
     0
176
     1
 90
       50
176
     1
 62
   256
176
     0
 40
1.0
176
     0
 90
        2
176
     1
  1
strokes_ogs.tif
176
     1
290
     0
176
     1
 40
1.0
176
     1
 40
1.0
176
     1
1001
ACAD
1000
AcDbSavedByObjectVersion
1070
     0
  0
VISUALSTYLE
  5
150
102
{ACAD_REACTORS
330
140
102
}
330
140
100
AcDbVisualStyle
  2

 70
    16
177
     3
291
     1
 70
    58
 90
        2
176
     1
 90
        2
176
     1
 90
        3
176
     1
 90
        0
176
     1
 40
0.6
176
     1
 40
30.0
176
     1
 62
     8
176
     1
 90
        1
176
     1
 90
        4
176
     1
 62
     7
176
     1
 62
   257
176
     1
 90
        1
176
     1
 90
        1
176
     1
 40
1.0
176
     1
 90
        8
176
     1
 62
     8
176
     1
 40
1.0
176
     1
 90
        1
176
     1
 90
        6
176
     1
 90
        2
176
     1
 62
     7
176
     1
 90
        5
176
     1
 90
        0
176
     1
 90
        0
176
     1
290
     0
176
     1
 90
        1
176
     1
 40
0.0
176
     1
 90
        0
176
     1
290
     0
176
     1
290
     1
176
     1
290
     1
176
     1
290
     0
176
     1
290
     0
176
     1
290
     0
176
     1
290
     0
176
     1
290
     0
176
     1
290
     0
176
     1
 90
       50
176
     1
 40
0.0
176
     1
 40
1.0
176
     1
 90
        0
176
     1
 62
    18
176
     1
 90
       50
176
     1
 90
        3
176
     1
 62
     5
420
      255
176
     1
290
     0
176
     1
 90
       50
176
     1
 90
       50
176
     1
 90
       50
176
     1
290
     0
176
     1
 90
       50
176
     1
 62
   256
176
     0
 40
1.0
176
     0
 90
        2
176
     1
  1
strokes_ogs.tif
176
     1
290
     0
176
     1
 40
1.0
176
     1
 40
1.0
176
     1
1001
ACAD
1000
AcDbSavedByObjectVersion
1070
     0
  0
VISUALSTYLE
  5
149
102
{ACAD_REACTORS
330
140
102
}
330
140
100
AcDbVisualStyle
  2

 70
     9
177
     3
291
     0
 70
    58
 90
        3
176
     1
 90
        2
176
     1
 90
        0
176
     1
 90
        0
176
     1
 40
0.6
176
     1
 40
30.0
176
     1
 62
     7
176
     1
 90
        2
176
     1
 90
        2
176
     1
 62
     7
176
     1
 62
   257
176
     1
 90
        1
176
     1
 90
        1
176
     1
 40
40.0
176
     1
 90
        8
176
     1
 62
     7
176
     1
 40
1.0
176
     1
 90
        1
176
     1
 90
        6
176
     1
 90
        2
176
     1
 62
     7
176
     1
 90
        3
176
     1
 90
        0
176
     1
 90
        0
176
     1
290
     0
176
     1
 90
        1
176
     1
 40
0.0
176
     1
 90
        0
176
     1
290
     0
176
     1
290
     1
176
     1
290
     1
176
     1
290
     0
176
     1
290
     0
176
     1
290
     0
176
     1
290
     0
176
     1
290
     0
176
     1
290
     0
176
     1
 90
       50
176
     1
 40
0.0
176
     1
 40
1.0
176
     1
 90
        0
176
     1
 62
    18
176
     1
 90
       50
176
     1
 90
        3
176
     1
 62
     5
420
      255
176
     1
290
     0
176
     1
 90
       50
176
     1
 90
       50
176
     1
 90
       50
176
     1
290
     0
176
     1
 90
       50
176
     1
 62
   256
176
     0
 40
1.0
176
     0
 90
        2
176
     1
  1
strokes_ogs.tif
176
     1
290
     0
176
     1
 40
1.0
176
     1
 40
1.0
176
     1
1001
ACAD
1000
AcDbSavedByObjectVersion
1070
     0
  0
VISUALSTYLE
  5
14B
102
{ACAD_REACTORS
330
140
102
}
330
140
100
AcDbVisualStyle
  2

 70
    11
177
     3
291
     1
 70
    58
 90
        2
176
     1
 90
        2
176
     1
 90
        0
176
     1
 90
        0
176
     1
 40
0.6
176
     1
 40
30.0
176
     1
 62
     7
176
     1
 90
        1
176
     1
 90
        4
176
     1
 62
     7
176
     1
 62
   257
176
     1
 90
        1
176
     1
 90
        1
176
     1
 40
1.0
176
     1
 90
        8
176
     1
 62
     7
176
     1
 40
1.0
176
     1
 90
        1
176
     1
 90
        6
176
     1
 90
        2
176
     1
 62
     7
176
     1
 90
        5
176
     1
 90
        0
176
     1
 90
        0
176
     1
290
     0
176
     1
 90
        1
176
     1
 40
-50.0
176
     1
 90
        0
176
     1
290
     0
176
     1
290
     1
176
     1
290
     1
176
     1
290
     0
176
     1
290
     0
176
     1
290
     0
176
     1
290
     0
176
     1
290
     0
176
     1
290
     0
176
     1
 90
       50
176
     1
 40
0.0
176
     1
 40
1.0
176
     1
 90
        0
176
     1
 62
    18
176
     1
 90
       50
176
     1
 90
        3
176
     1
 62
     5
420
      255
176
     1
290
     0
176
     1
 90
       50
176
     1
 90
       50
176
     1
 90
       50
176
     1
290
     0
176
     1
 90
       50
176
     1
 62
   256
176
     0
 40
1.0
176
     0
 90
        2
176
     1
  1
strokes_ogs.tif
176
     1
290
     0
176
     1
 40
1.0
176
     1
 40
1.0
176
     1
1001
ACAD
1000
AcDbSavedByObjectVersion
1070
     0
  0
VISUALSTYLE
  5
1F1
102
{ACAD_REACTORS
330
140
102
}
330
140
100
AcDbVisualStyle
  2
EdgeColorOff
 70
    22
177
     3
291
     1
 70
    58
 90
        2
176
     0
 90
        2
176
     0
 90
        0
176
     0
 90
        0
176
     0
 40
0.6
176
     0
 40
30.0
176
     0
 62
     7
420
 16777215
176
     0
 90
        1
176
     0
 90
        4
176
     0
 62
     7
176
     0
 62
   257
176
     0
 90
        1
176
     0
 90
        1
176
     0
 40
1.0
176
     0
 90
        8
176
     2
 62
     7
176
     0
 40
1.0
176
     0
 90
        1
176
     0
 90
        6
176
     0
 90
        2
176
     0
 62
     7
176
     0
 90
        5
176
     0
 90
        0
176
     0
 90
        0
176
     0
290
     0
176
     0
 90
        1
176
     0
 40
0.0
176
     0
 90
        0
176
     0
290
     0
176
     1
290
     1
176
     1
290
     1
176
     1
290
     0
176
     1
290
     0
176
     1
290
     0
176
     1
290
     0
176
     1
290
     0
176
     1
290
     0
176
     1
 90
       50
176
     0
 40
0.0
176
     0
 40
1.0
176
     0
 90
        0
176
     0
 62
    18
176
     0
 90
       50
176
     0
 90
        3
176
     0
 62
     5
420
      255
176
     0
290
     0
176
     1
 90
       50
176
     0
 90
       50
176
     0
 90
       50
176
     0
290
     0
176
     1
 90
       50
176
     0
 62
   256
176
     0
 40
1.0
176
     0
 90
        2
176
     0
  1
strokes_ogs.tif
176
     0
290
     0
176
     1
 40
1.0
176
     0
 40
1.0
176
     0
1001
ACAD
1000
AcDbSavedByObjectVersion
1070
     0
  0
VISUALSTYLE
  5
14F
102
{ACAD_REACTORS
330
140
102
}
330
140
100
AcDbVisualStyle
  2

 70
    15
177
     3
291
     1
 70
    58
 90
        2
176
     1
 90
        2
176
     1
 90
        0
176
     1
 90
        0
176
     1
 40
0.6
176
     1
 40
30.0
176
     1
 62
     7
176
     1
 90
        1
176
     1
 90
        4
176
     1
 62
     7
176
     1
 62
   257
176
     1
 90
        1
176
     1
 90
        1
176
     1
 40
1.0
176
     1
 90
        8
176
     1
 62
     7
176
     1
 40
1.0
176
     1
 90
        1
176
     1
 90
        6
176
     1
 90
        2
176
     1
 62
     7
176
     1
 90
        5
176
     1
 90
        0
176
     1
 90
        0
176
     1
290
     0
176
     1
 90
        1
176
     1
 40
0.0
176
     1
 90
        0
176
     1
290
     0
176
     1
290
     1
176
     1
290
     1
176
     1
290
     0
176
     1
290
     0
176
     1
290
     0
176
     1
290
     0
176
     1
290
     0
176
     1
290
     0
176
     1
 90
       50
176
     1
 40
0.0
176
     1
 40
1.0
176
     1
 90
        0
176
     1
 62
    18
176
     1
 90
       50
176
     1
 90
        3
176
     1
 62
     5
420
      255
176
     1
290
     0
176
     1
 90
       50
176
     1
 90
       50
176
     1
 90
       50
176
     1
290
     0
176
     1
 90
       50
176
     1
 62
   256
176
     0
 40
1.0
176
     0
 90
        2
176
     1
  1
strokes_ogs.tif
176
     1
290
     0
176
     1
 40
1.0
176
     1
 40
1.0
176
     1
1001
ACAD
1000
AcDbSavedByObjectVersion
1070
     0
  0
VISUALSTYLE
  5
141
102
{ACAD_REACTORS
330
140
102
}
330
140
100
AcDbVisualStyle
  2

 70
     0
177
     3
291
     1
 70
    58
 90
        2
176
     1
 90
        1
176
     1
 90
        1
176
     1
 90
        2
176
     1
 40
0.6
176
     1
 40
30.0
176
     1
 62
     7
176
     1
 90
        0
176
     1
 90
        4
176
     1
 62
     7
176
     1
 62
   257
176
     1
 90
        1
176
     1
 90
        1
176
     1
 40
1.0
176
     1
 90
        8
176
     1
 62
     7
176
     1
 40
1.0
176
     1
 90
        1
176
     1
 90
        6
176
     1
 90
        2
176
     1
 62
     7
176
     1
 90
        5
176
     1
 90
        0
176
     1
 90
        0
176
     1
290
     0
176
     1
 90
       13
176
     1
 40
0.0
176
     1
 90
        0
176
     1
290
     0
176
     1
290
     1
176
     1
290
     1
176
     1
290
     0
176
     1
290
     0
176
     1
290
     0
176
     1
290
     0
176
     1
290
     0
176
     1
290
     0
176
     1
 90
       50
176
     1
 40
0.0
176
     1
 40
1.0
176
     1
 90
        0
176
     1
 62
    18
176
     1
 90
       50
176
     1
 90
        3
176
     1
 62
     5
420
      255
176
     1
290
     0
176
     1
 90
       50
176
     1
 90
       50
176
     1
 90
       50
176
     1
290
     0
176
     1
 90
       50
176
     1
 62
   256
176
     0
 40
1.0
176
     0
 90
        2
176
     1
  1
strokes_ogs.tif
176
     1
290
     0
176
     1
 40
1.0
176
     1
 40
1.0
176
     1
1001
ACAD
1000
AcDbSavedByObjectVersion
1070
     0
  0
VISUALSTYLE
  5
142
102
{ACAD_REACTORS
330
140
102
}
330
140
100
AcDbVisualStyle
  2

 70
     1
177
     3
291
     1
 70
    58
 90
        2
176
     1
 90
        1
176
     1
 90
        1
176
     1
 90
        2
176
     1
 40
0.6
176
     1
 40
30.0
176
     1
 62
     7
176
     1
 90
        1
176
     1
 90
        4
176
     1
 62
     7
176
     1
 62
   257
176
     1
 90
        1
176
     1
 90
        1
176
     1
 40
1.0
176
     1
 90
        0
176
     1
 62
   257
176
     1
 40
1.0
176
     1
 90
        1
176
     1
 90
        6
176
     1
 90
        2
176
     1
 62
     7
176
     1
 90
        5
176
     1
 90
        0
176
     1
 90
        0
176
     1
290
     0
176
     1
 90
       13
176
     1
 40
0.0
176
     1
 90
        0
176
     1
290
     0
176
     1
290
     1
176
     1
290
     1
176
     1
290
     0
176
     1
290
     0
176
     1
290
     0
176
     1
290
     0
176
     1
290
     0
176
     1
290
     0
176
     1
 90
       50
176
     1
 40
0.0
176
     1
 40
1.0
176
     1
 90
        0
176
     1
 62
    18
176
     1
 90
       50
176
     1
 90
        3
176
     1
 62
     5
420
      255
176
     1
290
     0
176
     1
 90
       50
176
     1
 90
       50
176
     1
 90
       50
176
     1
290
     0
176
     1
 90
       50
176
     1
 62
   256
176
     0
 40
1.0
176
     0
 90
        2
176
     1
  1
strokes_ogs.tif
176
     1
290
     0
176
     1
 40
1.0
176
     1
 40
1.0
176
     1
1001
ACAD
1000
AcDbSavedByObjectVersion
1070
     0
  0
VISUALSTYLE
  5
143
102
{ACAD_REACTORS
330
140
102
}
330
140
100
AcDbVisualStyle
  2

 70
     2
177
     3
291
     1
 70
    58
 90
        2
176
     1
 90
        2
176
     1
 90
        1
176
     1
 90
        2
176
     1
 40
0.6
176
     1
 40
30.0
176
     1
 62
     7
176
     1
 90
        0
176
     1
 90
        4
176
     1
 62
     7
176
     1
 62
   257
176
     1
 90
        1
176
     1
 90
        1
176
     1
 40
1.0
176
     1
 90
        0
176
     1
 62
     7
176
     1
 40
1.0
176
     1
 90
        1
176
     1
 90
        6
176
     1
 90
        2
176
     1
 62
     7
176
     1
 90
        5
176
     1
 90
        0
176
     1
 90
        0
176
     1
290
     0
176
     1
 90
       13
176
     1
 40
0.0
176
     1
 90
        0
176
     1
290
     0
176
     1
290
     1
176
     1
290
     1
176
     1
290
     0
176
     1
290
     0
176
     1
290
     0
176
     1
290
     0
176
     1
290
     0
176
     1
290
     0
176
     1
 90
       50
176
     1
 40
0.0
176
     1
 40
1.0
176
     1
 90
        0
176
     1
 62
    18
176
     1
 90
       50
176
     1
 90
        3
176
     1
 62
     5
420
      255
176
     1
290
     0
176
     1
 90
       50
176
     1
 90
       50
176
     1
 90
       50
176
     1
290
     0
176
     1
 90
       50
176
     1
 62
   256
176
     0
 40
1.0
176
     0
 90
        2
176
     1
  1
strokes_ogs.tif
176
     1
290
     0
176
     1
 40
1.0
176
     1
 40
1.0
176
     1
1001
ACAD
1000
AcDbSavedByObjectVersion
1070
     0
  0
VISUALSTYLE
  5
144
102
{ACAD_REACTORS
330
140
102
}
330
140
100
AcDbVisualStyle
  2

 70
     3
177
     3
291
     1
 70
    58
 90
        2
176
     1
 90
        2
176
     1
 90
        1
176
     1
 90
        2
176
     1
 40
0.6
176
     1
 40
30.0
176
     1
 62
     7
176
     1
 90
        1
176
     1
 90
        4
176
     1
 62
     7
176
     1
 62
   257
176
     1
 90
        1
176
     1
 90
        1
176
     1
 40
1.0
176
     1
 90
        0
176
     1
 62
   257
176
     1
 40
1.0
176
     1
 90
        1
176
     1
 90
        6
176
     1
 90
        2
176
     1
 62
     7
176
     1
 90
        5
176
     1
 90
        0
176
     1
 90
        0
176
     1
290
     0
176
     1
 90
       13
176
     1
 40
0.0
176
     1
 90
        0
176
     1
290
     0
176
     1
290
     1
176
     1
290
     1
176
     1
290
     0
176
     1
290
     0
176
     1
290
     0
176
     1
290
     0
176
     1
290
     0
176
     1
290
     0
176
     1
 90
       50
176
     1
 40
0.0
176
     1
 40
1.0
176
     1
 90
        0
176
     1
 62
    18
176
     1
 90
       50
176
     1
 90
        3
176
     1
 62
     5
420
      255
176
     1
290
     0
176
     1
 90
       50
176
     1
 90
       50
176
     1
 90
       50
176
     1
290
     0
176
     1
 90
       50
176
     1
 62
   256
176
     0
 40
1.0
176
     0
 90
        2
176
     1
  1
strokes_ogs.tif
176
     1
290
     0
176
     1
 40
1.0
176
     1
 40
1.0
176
     1
1001
ACAD
1000
AcDbSavedByObjectVersion
1070
     0
  0
VISUALSTYLE
  5
1E9
102
{ACAD_REACTORS
330
140
102
}
330
140
100
AcDbVisualStyle
  2
Hidden
 70
     6
177
     3
291
     0
 70
    58
 90
        1
176
     1
 90
        2
176
     1
 90
        2
176
     1
 90
        0
176
     1
 40
0.6
176
     1
 40
30.0
176
     1
 62
     7
420
 16777215
176
     1
 90
        2
176
     1
 90
        2
176
     1
 62
     7
176
     1
 62
   257
176
     1
 90
        2
176
     1
 90
        1
176
     1
 40
40.0
176
     1
 90
        0
176
     1
 62
   257
176
     1
 40
1.0
176
     1
 90
        1
176
     1
 90
        6
176
     1
 90
        2
176
     1
 62
     7
176
     1
 90
        3
176
     1
 90
        0
176
     1
 90
        0
176
     1
290
     0
176
     1
 90
        1
176
     1
 40
0.0
176
     1
 90
        0
176
     1
290
     0
176
     1
290
     1
176
     1
290
     1
176
     1
290
     0
176
     1
290
     0
176
     1
290
     0
176
     1
290
     0
176
     1
290
     0
176
     1
290
     0
176
     1
 90
       50
176
     1
 40
0.0
176
     1
 40
1.0
176
     1
 90
        0
176
     1
 62
    18
176
     1
 90
       50
176
     1
 90
        3
176
     1
 62
     5
420
      255
176
     1
290
     0
176
     1
 90
       50
176
     1
 90
       50
176
     1
 90
       50
176
     1
290
     0
176
     1
 90
       50
176
     1
 62
   256
176
     0
 40
1.0
176
     0
 90
        2
176
     1
  1
strokes_ogs.tif
176
     1
290
     0
176
     1
 40
1.0
176
     1
 40
1.0
176
     1
1001
ACAD
1000
AcDbSavedByObjectVersion
1070
     0
  0
VISUALSTYLE
  5
1EF
102
{ACAD_REACTORS
330
140
102
}
330
140
100
AcDbVisualStyle
  2
JitterOff
 70
    20
177
     3
291
     1
 70
    58
 90
        2
176
     0
 90
        2
176
     0
 90
        0
176
     0
 90
        0
176
     0
 40
0.6
176
     0
 40
30.0
176
     0
 62
     7
420
 16777215
176
     0
 90
        1
176
     0
 90
        4
176
     0
 62
     7
176
     0
 62
   257
176
     0
 90
        1
176
     0
 90
        1
176
     0
 40
1.0
176
     0
 90
       10
176
     2
 62
     7
176
     0
 40
1.0
176
     0
 90
        1
176
     0
 90
        6
176
     0
 90
        2
176
     0
 62
     7
176
     0
 90
        5
176
     0
 90
        0
176
     0
 90
        0
176
     0
290
     0
176
     0
 90
        1
176
     0
 40
0.0
176
     0
 90
        0
176
     0
290
     0
176
     1
290
     1
176
     1
290
     1
176
     1
290
     0
176
     1
290
     0
176
     1
290
     0
176
     1
290
     0
176
     1
290
     0
176
     1
290
     0
176
     1
 90
       50
176
     0
 40
0.0
176
     0
 40
1.0
176
     0
 90
        0
176
     0
 62
    18
176
     0
 90
       50
176
     0
 90
        3
176
     0
 62
     5
420
      255
176
     0
290
     0
176
     1
 90
       50
176
     0
 90
       50
176
     0
 90
       50
176
     0
290
     0
176
     1
 90
       50
176
     0
 62
   256
176
     0
 40
1.0
176
     0
 90
        2
176
     0
  1
strokes_ogs.tif
176
     0
290
     0
176
     1
 40
1.0
176
     0
 40
1.0
176
     0
1001
ACAD
1000
AcDbSavedByObjectVersion
1070
     0
  0
VISUALSTYLE
  5
14E
102
{ACAD_REACTORS
330
140
102
}
330
140
100
AcDbVisualStyle
  2

 70
    14
177
     3
291
     1
 70
    58
 90
        2
176
     1
 90
        2
176
     1
 90
        0
176
     1
 90
        0
176
     1
 40
0.6
176
     1
 40
30.0
176
     1
 62
     7
176
     1
 90
        1
176
     1
 90
        4
176
     1
 62
     7
176
     1
 62
   257
176
     1
 90
        7
176
     1
 90
        7
176
     1
 40
1.0
176
     1
 90
        8
176
     1
 62
     7
176
     1
 40
1.0
176
     1
 90
        1
176
     1
 90
        6
176
     1
 90
        2
176
     1
 62
     7
176
     1
 90
        5
176
     1
 90
        0
176
     1
 90
        0
176
     1
290
     0
176
     1
 90
        1
176
     1
 40
0.0
176
     1
 90
        0
176
     1
290
     0
176
     1
290
     1
176
     1
290
     1
176
     1
290
     0
176
     1
290
     0
176
     1
290
     0
176
     1
290
     0
176
     1
290
     0
176
     1
290
     0
176
     1
 90
       50
176
     1
 40
0.0
176
     1
 40
1.0
176
     1
 90
        0
176
     1
 62
    18
176
     1
 90
       50
176
     1
 90
        3
176
     1
 62
     5
420
      255
176
     1
290
     0
176
     1
 90
       50
176
     1
 90
       50
176
     1
 90
       50
176
     1
290
     0
176
     1
 90
       50
176
     1
 62
   256
176
     0
 40
1.0
176
     0
 90
        2
176
     1
  1
strokes_ogs.tif
176
     1
290
     0
176
     1
 40
1.0
176
     1
 40
1.0
176
     1
1001
ACAD
1000
AcDbSavedByObjectVersion
1070
     0
  0
VISUALSTYLE
  5
1F0
102
{ACAD_REACTORS
330
140
102
}
330
140
100
AcDbVisualStyle
  2
OverhangOff
 70
    21
177
     3
291
     1
 70
    58
 90
        2
176
     0
 90
        2
176
     0
 90
        0
176
     0
 90
        0
176
     0
 40
0.6
176
     0
 40
30.0
176
     0
 62
     7
420
 16777215
176
     0
 90
        1
176
     0
 90
        4
176
     0
 62
     7
176
     0
 62
   257
176
     0
 90
        1
176
     0
 90
        1
176
     0
 40
1.0
176
     0
 90
        9
176
     2
 62
     7
176
     0
 40
1.0
176
     0
 90
        1
176
     0
 90
        6
176
     0
 90
        2
176
     0
 62
     7
176
     0
 90
        5
176
     0
 90
        0
176
     0
 90
        0
176
     0
290
     0
176
     0
 90
        1
176
     0
 40
0.0
176
     0
 90
        0
176
     0
290
     0
176
     1
290
     1
176
     1
290
     1
176
     1
290
     0
176
     1
290
     0
176
     1
290
     0
176
     1
290
     0
176
     1
290
     0
176
     1
290
     0
176
     1
 90
       50
176
     0
 40
0.0
176
     0
 40
1.0
176
     0
 90
        0
176
     0
 62
    18
176
     0
 90
       50
176
     0
 90
        3
176
     0
 62
     5
420
      255
176
     0
290
     0
176
     1
 90
       50
176
     0
 90
       50
176
     0
 90
       50
176
     0
290
     0
176
     1
 90
       50
176
     0
 62
   256
176
     0
 40
1.0
176
     0
 90
        2
176
     0
  1
strokes_ogs.tif
176
     0
290
     0
176
     1
 40
1.0
176
     0
 40
1.0
176
     0
1001
ACAD
1000
AcDbSavedByObjectVersion
1070
     0
  0
VISUALSTYLE
  5
14A
102
{ACAD_REACTORS
330
140
102
}
330
140
100
AcDbVisualStyle
  2

 70
     8
177
     3
291
     0
 70
    58
 90
        2
176
     1
 90
        2
176
     1
 90
        0
176
     1
 90
        0
176
     1
 40
0.6
176
     1
 40
30.0
176
     1
 62
     7
176
     1
 90
        1
176
     1
 90
        0
176
     1
 62
     7
176
     1
 62
   257
176
     1
 90
        1
176
     1
 90
        1
176
     1
 40
1.0
176
     1
 90
        8
176
     1
 62
     8
176
     1
 40
1.0
176
     1
 90
        1
176
     1
 90
        6
176
     1
 90
        2
176
     1
 62
     7
176
     1
 90
        5
176
     1
 90
        0
176
     1
 90
        0
176
     1
290
     0
176
     1
 90
       13
176
     1
 40
0.0
176
     1
 90
        0
176
     1
290
     0
176
     1
290
     1
176
     1
290
     1
176
     1
290
     0
176
     1
290
     0
176
     1
290
     0
176
     1
290
     0
176
     1
290
     0
176
     1
290
     0
176
     1
 90
       50
176
     1
 40
0.0
176
     1
 40
1.0
176
     1
 90
        0
176
     1
 62
    18
176
     1
 90
       50
176
     1
 90
        3
176
     1
 62
     5
420
      255
176
     1
290
     0
176
     1
 90
       50
176
     1
 90
       50
176
     1
 90
       50
176
     1
290
     0
176
     1
 90
       50
176
     1
 62
   256
176
     0
 40
1.0
176
     0
 90
        2
176
     1
  1
strokes_ogs.tif
176
     1
290
     0
176
     1
 40
1.0
176
     1
 40
1.0
176
     1
1001
ACAD
1000
AcDbSavedByObjectVersion
1070
     0
  0
VISUALSTYLE
  5
1EE
102
{ACAD_REACTORS
330
140
102
}
330
140
100
AcDbVisualStyle
  2
Shaded
 70
    27
177
     3
291
     0
 70
    58
 90
        2
176
     1
 90
        2
176
     1
 90
        1
176
     1
 90
        2
176
     1
 40
0.6
176
     1
 40
30.0
176
     1
 62
     7
420
 16777215
176
     1
 90
        0
176
     1
 90
        4
176
     1
 62
     7
176
     1
 62
   257
176
     1
 90
        1
176
     1
 90
        1
176
     1
 40
1.0
176
     1
 90
        8
176
     1
 62
   257
176
     1
 40
1.0
176
     1
 90
        1
176
     1
 90
        6
176
     1
 90
        2
176
     1
 62
     8
420
  7895160
176
     1
 90
        3
176
     1
 90
        0
176
     1
 90
        0
176
     1
290
     0
176
     1
 90
        5
176
     1
 40
0.0
176
     1
 90
        0
176
     1
290
     0
176
     1
290
     1
176
     1
290
     1
176
     1
290
     0
176
     1
290
     0
176
     1
290
     0
176
     1
290
     0
176
     1
290
     0
176
     1
290
     0
176
     1
 90
       50
176
     1
 40
0.0
176
     1
 40
1.0
176
     1
 90
        0
176
     1
 62
    18
176
     1
 90
       50
176
     1
 90
        3
176
     1
 62
     5
420
      255
176
     1
290
     0
176
     1
 90
       50
176
     1
 90
       50
176
     1
 90
       50
176
     1
290
     0
176
     1
 90
       50
176
     1
 62
   256
176
     0
 40
1.0
176
     0
 90
        2
176
     1
  1
strokes_ogs.tif
176
     1
290
     0
176
     1
 40
1.0
176
     1
 40
1.0
176
     1
1001
ACAD
1000
AcDbSavedByObjectVersion
1070
     0
  0
VISUALSTYLE
  5
1ED
102
{ACAD_REACTORS
330
140
102
}
330
140
100
AcDbVisualStyle
  2
Shaded with edges
 70
    26
177
     3
291
     0
 70
    58
 90
        2
176
     1
 90
        2
176
     1
 90
        1
176
     1
 90
        2
176
     1
 40
0.6
176
     1
 40
30.0
176
     1
 62
     7
420
 16777215
176
     1
 90
        1
176
     1
 90
        2
176
     1
 62
     7
176
     1
 62
   257
176
     1
 90
        2
176
     1
 90
        1
176
     1
 40
1.0
176
     1
 90
        8
176
     1
 62
   257
176
     1
 40
1.0
176
     1
 90
        1
176
     1
 90
        6
176
     1
 90
        2
176
     1
 62
     7
176
     1
 90
        3
176
     1
 90
        0
176
     1
 90
        0
176
     1
290
     0
176
     1
 90
        5
176
     1
 40
0.0
176
     1
 90
        0
176
     1
290
     0
176
     1
290
     1
176
     1
290
     1
176
     1
290
     0
176
     1
290
     0
176
     1
290
     0
176
     1
290
     0
176
     1
290
     0
176
     1
290
     0
176
     1
 90
       50
176
     1
 40
0.0
176
     1
 40
1.0
176
     1
 90
        0
176
     1
 62
    18
176
     1
 90
       50
176
     1
 90
        3
176
     1
 62
     5
420
      255
176
     1
290
     0
176
     1
 90
       50
176
     1
 90
       50
176
     1
 90
       50
176
     1
290
     0
176
     1
 90
       50
176
     1
 62
   256
176
     0
 40
1.0
176
     0
 90
        2
176
     1
  1
strokes_ogs.tif
176
     1
290
     0
176
     1
 40
1.0
176
     1
 40
1.0
176
     1
1001
ACAD
1000
AcDbSavedByObjectVersion
1070
     0
  0
VISUALSTYLE
  5
1EA
102
{ACAD_REACTORS
330
140
102
}
330
140
100
AcDbVisualStyle
  2
Shades of Gray
 70
    23
177
     3
291
     0
 70
    58
 90
        2
176
     1
 90
        2
176
     1
 90
        3
176
     1
 90
        0
176
     1
 40
0.6
176
     1
 40
30.0
176
     1
 62
     7
420
 16777215
176
     1
 90
        2
176
     1
 90
        2
176
     1
 62
     7
176
     1
 62
     7
176
     1
 90
        1
176
     1
 90
        1
176
     1
 40
40.0
176
     1
 90
        8
176
     1
 62
     7
176
     1
 40
1.0
176
     1
 90
        1
176
     1
 90
        6
176
     1
 90
        2
176
     1
 62
     7
176
     1
 90
        3
176
     1
 90
        0
176
     1
 90
        0
176
     1
290
     0
176
     1
 90
        1
176
     1
 40
0.0
176
     1
 90
        0
176
     1
290
     0
176
     1
290
     1
176
     1
290
     1
176
     1
290
     0
176
     1
290
     0
176
     1
290
     0
176
     1
290
     0
176
     1
290
     0
176
     1
290
     0
176
     1
 90
       50
176
     1
 40
0.0
176
     1
 40
1.0
176
     1
 90
        0
176
     1
 62
    18
176
     1
 90
       50
176
     1
 90
        3
176
     1
 62
     5
420
      255
176
     1
290
     0
176
     1
 90
       50
176
     1
 90
       50
176
     1
 90
       50
176
     1
290
     0
176
     1
 90
       50
176
     1
 62
   256
176
     0
 40
1.0
176
     0
 90
        2
176
     1
  1
strokes_ogs.tif
176
     1
290
     0
176
     1
 40
1.0
176
     1
 40
1.0
176
     1
1001
ACAD
1000
AcDbSavedByObjectVersion
1070
     0
  0
VISUALSTYLE
  5
1EB
102
{ACAD_REACTORS
330
140
102
}
330
140
100
AcDbVisualStyle
  2
Sketchy
 70
    24
177
     3
291
     0
 70
    58
 90
        1
176
     1
 90
        2
176
     1
 90
        2
176
     1
 90
        0
176
     1
 40
0.6
176
     1
 40
30.0
176
     1
 62
     7
420
 16777215
176
     1
 90
        2
176
     1
 90
        2
176
     1
 62
     7
176
     1
 62
     7
176
     1
 90
        1
176
     1
 90
        1
176
     1
 40
40.0
176
     1
 90
       11
176
     1
 62
     7
176
     1
 40
1.0
176
     1
 90
        1
176
     1
 90
        6
176
     1
 90
        2
176
     1
 62
     7
176
     1
 90
        6
176
     1
 90
        0
176
     1
 90
        0
176
     1
290
     0
176
     1
 90
        1
176
     1
 40
0.0
176
     1
 90
        0
176
     1
290
     0
176
     1
290
     1
176
     1
290
     1
176
     1
290
     0
176
     1
290
     0
176
     1
290
     0
176
     1
290
     0
176
     1
290
     0
176
     1
290
     0
176
     1
 90
       50
176
     1
 40
0.0
176
     1
 40
1.0
176
     1
 90
        0
176
     1
 62
    18
176
     1
 90
       50
176
     1
 90
        3
176
     1
 62
     5
420
      255
176
     1
290
     0
176
     1
 90
       50
176
     1
 90
       50
176
     1
 90
       50
176
     1
290
     0
176
     1
 90
       50
176
     1
 62
   256
176
     0
 40
1.0
176
     0
 90
        2
176
     1
  1
strokes_ogs.tif
176
     1
290
     0
176
     1
 40
1.0
176
     1
 40
1.0
176
     1
1001
ACAD
1000
AcDbSavedByObjectVersion
1070
     0
  0
VISUALSTYLE
  5
14D
102
{ACAD_REACTORS
330
140
102
}
330
140
100
AcDbVisualStyle
  2

 70
    13
177
     3
291
     1
 70
    58
 90
        2
176
     1
 90
        2
176
     1
 90
        0
176
     1
 90
        0
176
     1
 40
0.6
176
     1
 40
30.0
176
     1
 62
     7
176
     1
 90
        1
176
     1
 90
        4
176
     1
 62
     7
176
     1
 62
   257
176
     1
 90
        1
176
     1
 90
        1
176
     1
 40
1.0
176
     1
 90
       12
176
     1
 62
     7
176
     1
 40
1.0
176
     1
 90
        1
176
     1
 90
        6
176
     1
 90
        2
176
     1
 62
     7
176
     1
 90
        5
176
     1
 90
        0
176
     1
 90
        0
176
     1
290
     0
176
     1
 90
        1
176
     1
 40
0.0
176
     1
 90
        0
176
     1
290
     0
176
     1
290
     1
176
     1
290
     1
176
     1
290
     0
176
     1
290
     0
176
     1
290
     0
176
     1
290
     0
176
     1
290
     0
176
     1
290
     0
176
     1
 90
       50
176
     1
 40
0.0
176
     1
 40
1.0
176
     1
 90
        0
176
     1
 62
    18
176
     1
 90
       50
176
     1
 90
        3
176
     1
 62
     5
420
      255
176
     1
290
     0
176
     1
 90
       50
176
     1
 90
       50
176
     1
 90
       50
176
     1
290
     0
176
     1
 90
       50
176
     1
 62
   256
176
     0
 40
1.0
176
     0
 90
        2
176
     1
  1
strokes_ogs.tif
176
     1
290
     0
176
     1
 40
1.0
176
     1
 40
1.0
176
     1
1001
ACAD
1000
AcDbSavedByObjectVersion
1070
     0
  0
VISUALSTYLE
  5
1E8
102
{ACAD_REACTORS
330
140
102
}
330
140
100
AcDbVisualStyle
  2
Wireframe
 70
     5
177
     3
291
     0
 70
    58
 90
        0
176
     1
 90
        2
176
     1
 90
        0
176
     1
 90
        0
176
     1
 40
0.6
176
     1
 40
30.0
176
     1
 62
     7
420
 16777215
176
     1
 90
        1
176
     1
 90
        4
176
     1
 62
     7
176
     1
 62
   257
176
     1
 90
        1
176
     1
 90
        1
176
     1
 40
1.0
176
     1
 90
        0
176
     1
 62
   257
176
     1
 40
1.0
176
     1
 90
        1
176
     1
 90
        6
176
     1
 90
        2
176
     1
 62
     7
176
     1
 90
        3
176
     1
 90
        0
176
     1
 90
        0
176
     1
290
     0
176
     1
 90
        1
176
     1
 40
0.0
176
     1
 90
        0
176
     1
290
     0
176
     1
290
     1
176
     1
290
     1
176
     1
290
     0
176
     1
290
     0
176
     1
290
     0
176
     1
290
     0
176
     1
290
     0
176
     1
290
     0
176
     1
 90
       50
176
     1
 40
0.0
176
     1
 40
1.0
176
     1
 90
        0
176
     1
 62
    18
176
     1
 90
       50
176
     1
 90
        3
176
     1
 62
     5
420
      255
176
     1
290
     0
176
     1
 90
       50
176
     1
 90
       50
176
     1
 90
       50
176
     1
290
     0
176
     1
 90
       50
176
     1
 62
   256
176
     0
 40
1.0
176
     0
 90
        2
176
     1
  1
strokes_ogs.tif
176
     1
290
     0
176
     1
 40
1.0
176
     1
 40
1.0
176
     1
1001
ACAD
1000
AcDbSavedByObjectVersion
1070
     0
  0
VISUALSTYLE
  5
1EC
102
{ACAD_REACTORS
330
140
102
}
330
140
100
AcDbVisualStyle
  2
X-Ray
 70
    25
177
     3
291
     0
 70
    58
 90
        2
176
     1
 90
        2
176
     1
 90
        1
176
     1
 90
        1
176
     1
 40
0.5
176
     1
 40
30.0
176
     1
 62
     7
420
 16777215
176
     1
 90
        1
176
     1
 90
        0
176
     1
 62
     7
176
     1
 62
   257
176
     1
 90
        1
176
     1
 90
        1
176
     1
 40
1.0
176
     1
 90
        8
176
     1
 62
     7
176
     1
 40
1.0
176
     1
 90
        1
176
     1
 90
        6
176
     1
 90
        2
176
     1
 62
     7
176
     1
 90
        3
176
     1
 90
        0
176
     1
 90
        0
176
     1
290
     0
176
     1
 90
       13
176
     1
 40
0.0
176
     1
 90
        0
176
     1
290
     0
176
     1
290
     1
176
     1
290
     1
176
     1
290
     0
176
     1
290
     0
176
     1
290
     0
176
     1
290
     0
176
     1
290
     0
176
     1
290
     0
176
     1
 90
       50
176
     1
 40
0.0
176
     1
 40
1.0
176
     1
 90
        0
176
     1
 62
    18
176
     1
 90
       50
176
     1
 90
        3
176
     1
 62
     5
420
      255
176
     1
290
     0
176
     1
 90
       50
176
     1
 90
       50
176
     1
 90
       50
176
     1
290
     0
176
     1
 90
       50
176
     1
 62
   256
176
     0
 40
1.0
176
     0
 90
        2
176
     1
  1
strokes_ogs.tif
176
     1
290
     0
176
     1
 40
1.0
176
     1
 40
1.0
176
     1
1001
ACAD
1000
AcDbSavedByObjectVersion
1070
     0
  0
DICTIONARYVAR
  5
265
102
{ACAD_REACTORS
330
17F
102
}
330
17F
100
DictionaryVariables
280
     0
  1
1:1
  0
DICTIONARYVAR
  5
261
102
{ACAD_REACTORS
330
17F
102
}
330
17F
100
DictionaryVariables
280
     0
  1
STANDARD
  0
DICTIONARYVAR
  5
180
102
{ACAD_REACTORS
330
17F
102
}
330
17F
100
DictionaryVariables
280
     0
  1
STANDARD
  0
DICTIONARYVAR
  5
262
102
{ACAD_REACTORS
330
17F
102
}
330
17F
100
DictionaryVariables
280
     0
  1
Metric50
  0
DICTIONARYVAR
  5
263
102
{ACAD_REACTORS
330
17F
102
}
330
17F
100
DictionaryVariables
280
     0
  1
Metric50
  0
DICTIONARYVAR
  5
183
102
{ACAD_REACTORS
330
17F
102
}
330
17F
100
DictionaryVariables
280
     0
  1
1
  0
DICTIONARYVAR
  5
182
102
{ACAD_REACTORS
330
17F
102
}
330
17F
100
DictionaryVariables
280
     0
  1
0
  0
DICTIONARYVAR
  5
267
102
{ACAD_REACTORS
330
17F
102
}
330
17F
100
DictionaryVariables
280
     0
  1
1
  0
DICTIONARYVAR
  5
268
102
{ACAD_REACTORS
330
17F
102
}
330
17F
100
DictionaryVariables
280
     0
  1
15
  0
DICTIONARYVAR
  5
266
102
{ACAD_REACTORS
330
17F
102
}
330
17F
100
DictionaryVariables
280
     0
  1
0
  0
DICTIONARYVAR
  5
264
102
{ACAD_REACTORS
330
17F
102
}
330
17F
100
DictionaryVariables
280
     0
  1
0
  0
DICTIONARYVAR
  5
181
102
{ACAD_REACTORS
330
17F
102
}
330
17F
100
DictionaryVariables
280
     0
  1
127
  0
DICTIONARY
  5
1764
330
209
100
AcDbDictionary
280
     1
281
     1
  3
ACAD_XREC_ROUNDTRIP
360
1765
  0
DICTIONARY
  5
1C5
330
13E
100
AcDbDictionary
280
     1
281
     1
  3
ACAD_XREC_ROUNDTRIP
360
1C6
  0
DICTIONARY
  5
1C3
330
13D
100
AcDbDictionary
280
     1
281
     1
  3
ACAD_XREC_ROUNDTRIP
360
1C4
  0
DICTIONARY
  5
1C7
330
13F
100
AcDbDictionary
280
     1
281
     1
  3
ACAD_XREC_ROUNDTRIP
360
1C8
  0
DICTIONARY
  5
1762
330
207
100
AcDbDictionary
280
     1
281
     1
  3
ACAD_XREC_ROUNDTRIP
360
1763
  0
DICTIONARY
  5
269
330
153
100
AcDbDictionary
280
     1
281
     1
  3
ACAD_ROUNDTRIP_2008_TABLESTYLE_CELLSTYLEMAP
360
1760
  0
XRECORD
  5
1765
102
{ACAD_REACTORS
330
1764
102
}
330
1764
100
AcDbXrecord
280
     1
102
DISPLAYNAME
  1
Metric50
102
FLAGS
 90
        0
  0
XRECORD
  5
1C6
102
{ACAD_REACTORS
330
1C5
102
}
330
1C5
100
AcDbXrecord
280
     1
102
MATERIAL
148
0.0
149
0.0
149
0.0
 93
        0
 94
       63
282
     0
 72
     1
 77
     1
171
     1
175
     1
179
     1
273
     0
  0
XRECORD
  5
1C4
102
{ACAD_REACTORS
330
1C3
102
}
330
1C3
100
AcDbXrecord
280
     1
102
MATERIAL
148
0.0
149
0.0
149
0.0
 93
        0
 94
       63
282
     0
 72
     1
 77
     1
171
     1
175
     1
179
     1
273
     0
  0
XRECORD
  5
1C8
102
{ACAD_REACTORS
330
1C7
102
}
330
1C7
100
AcDbXrecord
280
     1
102
MATERIAL
148
0.0
149
0.0
149
0.0
 93
        0
 94
       63
282
     0
 72
     1
 77
     1
171
     1
175
     1
179
     1
273
     0
  0
XRECORD
  5
1763
102
{ACAD_REACTORS
330
1762
102
}
330
1762
100
AcDbXrecord
280
     1
102
DISPLAYNAME
  1
Metric50
102
FLAGS
 90
        0
  0
CELLSTYLEMAP
  5
1760
102
{ACAD_REACTORS
330
269
102
}
330
269
100
AcDbCellStyleMap
 90
        3
300
CELLSTYLE
  1
TABLEFORMAT_BEGIN
 90
        5
170
     1
 91
        0
 92
    32768
 62
   257
 93
        1
300
CONTENTFORMAT
  1
CONTENTFORMAT_BEGIN
 90
        0
 91
        0
 92
      512
 93
        0
300

 40
0.0
140
1.0
 94
        5
 62
     0
340
11
144
6.0
309
CONTENTFORMAT_END
171
     1
301
MARGIN
  1
CELLMARGIN_BEGIN
 40
1.5
 40
1.5
 40
1.5
 40
1.5
 40
0.18
 40
0.18
309
CELLMARGIN_END
 94
        6
 95
        1
302
GRIDFORMAT
  1
GRIDFORMAT_BEGIN
 90
        0
 91
        1
 62
     0
 92
       -2
340
0
 93
        0
 40
0.045
309
GRIDFORMAT_END
 95
        2
302
GRIDFORMAT
  1
GRIDFORMAT_BEGIN
 90
        0
 91
        1
 62
     0
 92
       -2
340
0
 93
        0
 40
0.045
309
GRIDFORMAT_END
 95
        4
302
GRIDFORMAT
  1
GRIDFORMAT_BEGIN
 90
        0
 91
        1
 62
     0
 92
       -2
340
0
 93
        0
 40
0.045
309
GRIDFORMAT_END
 95
        8
302
GRIDFORMAT
  1
GRIDFORMAT_BEGIN
 90
        0
 91
        1
 62
     0
 92
       -2
340
0
 93
        0
 40
0.045
309
GRIDFORMAT_END
 95
       16
302
GRIDFORMAT
  1
GRIDFORMAT_BEGIN
 90
        0
 91
        1
 62
     0
 92
       -2
340
0
 93
        0
 40
0.045
309
GRIDFORMAT_END
 95
       32
302
GRIDFORMAT
  1
GRIDFORMAT_BEGIN
 90
        0
 91
        1
 62
     0
 92
       -2
340
0
 93
        0
 40
0.045
309
GRIDFORMAT_END
309
TABLEFORMAT_END
  1
CELLSTYLE_BEGIN
 90
        1
 91
        1
300
_TITLE
309
CELLSTYLE_END
300
CELLSTYLE
  1
TABLEFORMAT_BEGIN
 90
        5
170
     1
 91
        0
 92
        0
 62
   257
 93
        1
300
CONTENTFORMAT
  1
CONTENTFORMAT_BEGIN
 90
        0
 91
        0
 92
      512
 93
        0
300

 40
0.0
140
1.0
 94
        5
 62
     0
340
11
144
4.5
309
CONTENTFORMAT_END
171
     1
301
MARGIN
  1
CELLMARGIN_BEGIN
 40
1.5
 40
1.5
 40
1.5
 40
1.5
 40
0.18
 40
0.18
309
CELLMARGIN_END
 94
        6
 95
        1
302
GRIDFORMAT
  1
GRIDFORMAT_BEGIN
 90
        0
 91
        1
 62
     0
 92
       -2
340
0
 93
        0
 40
0.045
309
GRIDFORMAT_END
 95
        2
302
GRIDFORMAT
  1
GRIDFORMAT_BEGIN
 90
        0
 91
        1
 62
     0
 92
       -2
340
0
 93
        0
 40
0.045
309
GRIDFORMAT_END
 95
        4
302
GRIDFORMAT
  1
GRIDFORMAT_BEGIN
 90
        0
 91
        1
 62
     0
 92
       -2
340
0
 93
        0
 40
0.045
309
GRIDFORMAT_END
 95
        8
302
GRIDFORMAT
  1
GRIDFORMAT_BEGIN
 90
        0
 91
        1
 62
     0
 92
       -2
340
0
 93
        0
 40
0.045
309
GRIDFORMAT_END
 95
       16
302
GRIDFORMAT
  1
GRIDFORMAT_BEGIN
 90
        0
 91
        1
 62
     0
 92
       -2
340
0
 93
        0
 40
0.045
309
GRIDFORMAT_END
 95
       32
302
GRIDFORMAT
  1
GRIDFORMAT_BEGIN
 90
        0
 91
        1
 62
     0
 92
       -2
340
0
 93
        0
 40
0.045
309
GRIDFORMAT_END
309
TABLEFORMAT_END
  1
CELLSTYLE_BEGIN
 90
        2
 91
        1
300
_HEADER
309
CELLSTYLE_END
300
CELLSTYLE
  1
TABLEFORMAT_BEGIN
 90
        5
170
     1
 91
        0
 92
        0
 62
   257
 93
        1
300
CONTENTFORMAT
  1
CONTENTFORMAT_BEGIN
 90
        0
 91
        0
 92
      512
 93
        0
300

 40
0.0
140
1.0
 94
        2
 62
     0
340
11
144
4.5
309
CONTENTFORMAT_END
171
     1
301
MARGIN
  1
CELLMARGIN_BEGIN
 40
1.5
 40
1.5
 40
1.5
 40
1.5
 40
0.18
 40
0.18
309
CELLMARGIN_END
 94
        6
 95
        1
302
GRIDFORMAT
  1
GRIDFORMAT_BEGIN
 90
        0
 91
        1
 62
     0
 92
       -2
340
0
 93
        0
 40
0.045
309
GRIDFORMAT_END
 95
        2
302
GRIDFORMAT
  1
GRIDFORMAT_BEGIN
 90
        0
 91
        1
 62
     0
 92
       -2
340
0
 93
        0
 40
0.045
309
GRIDFORMAT_END
 95
        4
302
GRIDFORMAT
  1
GRIDFORMAT_BEGIN
 90
        0
 91
        1
 62
     0
 92
       -2
340
0
 93
        0
 40
0.045
309
GRIDFORMAT_END
 95
        8
302
GRIDFORMAT
  1
GRIDFORMAT_BEGIN
 90
        0
 91
        1
 62
     0
 92
       -2
340
0
 93
        0
 40
0.045
309
GRIDFORMAT_END
 95
       16
302
GRIDFORMAT
  1
GRIDFORMAT_BEGIN
 90
        0
 91
        1
 62
     0
 92
       -2
340
0
 93
        0
 40
0.045
309
GRIDFORMAT_END
 95
       32
302
GRIDFORMAT
  1
GRIDFORMAT_BEGIN
 90
        0
 91
        1
 62
     0
 92
       -2
340
0
 93
        0
 40
0.045
309
GRIDFORMAT_END
309
TABLEFORMAT_END
  1
CELLSTYLE_BEGIN
 90
        3
 91
        2
300
_DATA
309
CELLSTYLE_END
  0
ENDSEC
  0
EOF
