  0
SECTION
  2
HEADER
  9
$ACADVER
  1
AC1027
  9
$ACADMAINTVER
 70
   125
  9
$DWGCODEPAGE
  3
ANSI_1252
  9
$LASTSAVEDBY
  1
kaschu
  9
$REQUIREDVERSIONS
160
                 0
  9
$INSBASE
 10
0.0
 20
0.0
 30
0.0
  9
$EXTMIN
 10
242.9535389364084
 20
132.1099958923745
 30
0.0
  9
$EXTMAX
 10
1136.634538414337
 20
1043.163852411602
 30
0.0
  9
$LIMMIN
 10
0.0
 20
0.0
  9
$LIMMAX
 10
12.0
 20
9.0
  9
$ORTHOMODE
 70
     1
  9
$REGENMODE
 70
     1
  9
$FILLMODE
 70
     1
  9
$QTEXTMODE
 70
     0
  9
$MIRRTEXT
 70
     1
  9
$LTSCALE
 40
1.0
  9
$ATTMODE
 70
     1
  9
$TEXTSIZE
 40
0.2
  9
$TRACEWID
 40
0.05
  9
$TEXTSTYLE
  7
STANDARD
  9
$CLAYER
  8
0
  9
$CELTYPE
  6
BYLAYER
  9
$CECOLOR
 62
   256
  9
$CELTSCALE
 40
1.0
  9
$DISPSILH
 70
     0
  9
$DIMSCALE
 40
1.0
  9
$DIMASZ
 40
0.18
  9
$DIMEXO
 40
0.0625
  9
$DIMDLI
 40
0.38
  9
$DIMRND
 40
0.0
  9
$DIMDLE
 40
0.0
  9
$DIMEXE
 40
0.18
  9
$DIMTP
 40
0.0
  9
$DIMTM
 40
0.0
  9
$DIMTXT
 40
0.18
  9
$DIMCEN
 40
0.09
  9
$DIMTSZ
 40
0.0
  9
$DIMTOL
 70
     0
  9
$DIMLIM
 70
     0
  9
$DIMTIH
 70
     1
  9
$DIMTOH
 70
     1
  9
$DIMSE1
 70
     0
  9
$DIMSE2
 70
     0
  9
$DIMTAD
 70
     0
  9
$DIMZIN
 70
     0
  9
$DIMBLK
  1

  9
$DIMASO
 70
     1
  9
$DIMSHO
 70
     1
  9
$DIMPOST
  1

  9
$DIMAPOST
  1

  9
$DIMALT
 70
     0
  9
$DIMALTD
 70
     2
  9
$DIMALTF
 40
25.4
  9
$DIMLFAC
 40
1.0
  9
$DIMTOFL
 70
     0
  9
$DIMTVP
 40
0.0
  9
$DIMTIX
 70
     0
  9
$DIMSOXD
 70
     0
  9
$DIMSAH
 70
     0
  9
$DIMBLK1
  1

  9
$DIMBLK2
  1

  9
$DIMSTYLE
  2
STANDARD
  9
$DIMCLRD
 70
     0
  9
$DIMCLRE
 70
     0
  9
$DIMCLRT
 70
     0
  9
$DIMTFAC
 40
1.0
  9
$DIMGAP
 40
0.09
  9
$DIMJUST
 70
     0
  9
$DIMSD1
 70
     0
  9
$DIMSD2
 70
     0
  9
$DIMTOLJ
 70
     1
  9
$DIMTZIN
 70
     0
  9
$DIMALTZ
 70
     0
  9
$DIMALTTZ
 70
     0
  9
$DIMUPT
 70
     0
  9
$DIMDEC
 70
     4
  9
$DIMTDEC
 70
     4
  9
$DIMALTU
 70
     2
  9
$DIMALTTD
 70
     2
  9
$DIMTXSTY
  7
STANDARD
  9
$DIMAUNIT
 70
     0
  9
$DIMADEC
 70
     0
  9
$DIMALTRND
 40
0.0
  9
$DIMAZIN
 70
     0
  9
$DIMDSEP
 70
    46
  9
$DIMATFIT
 70
     3
  9
$DIMFRAC
 70
     0
  9
$DIMLDRBLK
  1

  9
$DIMLUNIT
 70
     2
  9
$DIMLWD
 70
    -2
  9
$DIMLWE
 70
    -2
  9
$DIMTMOVE
 70
     0
  9
$DIMFXL
 40
1.0
  9
$DIMFXLON
 70
     0
  9
$DIMJOGANG
 40
0.7853981633974483
  9
$DIMTFILL
 70
     0
  9
$DIMTFILLCLR
 70
     0
  9
$DIMARCSYM
 70
     0
  9
$DIMLTYPE
  6

  9
$DIMLTEX1
  6

  9
$DIMLTEX2
  6

  9
$DIMTXTDIRECTION
 70
     0
  9
$LUNITS
 70
     2
  9
$LUPREC
 70
     4
  9
$SKETCHINC
 40
0.1
  9
$FILLETRAD
 40
0.5
  9
$AUNITS
 70
     0
  9
$AUPREC
 70
     0
  9
$MENU
  1
.
  9
$ELEVATION
 40
0.0
  9
$PELEVATION
 40
0.0
  9
$THICKNESS
 40
0.0
  9
$LIMCHECK
 70
     0
  9
$CHAMFERA
 40
0.5
  9
$CHAMFERB
 40
0.5
  9
$CHAMFERC
 40
1.0
  9
$CHAMFERD
 40
0.0
  9
$SKPOLY
 70
     0
  9
$TDCREATE
 40
2451762.456724537
  9
$TDUCREATE
 40
2451762.373400000
  9
$TDUPDATE
 40
2459914.527233796
  9
$TDUUPDATE
 40
2459914.485567130
  9
$TDINDWG
 40
0.0576381829
  9
$TDUSRTIMER
 40
0.0576381481
  9
$USRTIMER
 70
     1
  9
$ANGBASE
 50
0.0
  9
$ANGDIR
 70
     0
  9
$PDMODE
 70
     0
  9
$PDSIZE
 40
0.0
  9
$PLINEWID
 40
0.0
  9
$SPLFRAME
 70
     0
  9
$SPLINETYPE
 70
     6
  9
$SPLINESEGS
 70
     8
  9
$HANDSEED
  5
5A0
  9
$SURFTAB1
 70
     6
  9
$SURFTAB2
 70
     6
  9
$SURFTYPE
 70
     6
  9
$SURFU
 70
     6
  9
$SURFV
 70
     6
  9
$UCSBASE
  2

  9
$UCSNAME
  2

  9
$UCSORG
 10
0.0
 20
0.0
 30
0.0
  9
$UCSXDIR
 10
1.0
 20
0.0
 30
0.0
  9
$UCSYDIR
 10
0.0
 20
1.0
 30
0.0
  9
$UCSORTHOREF
  2

  9
$UCSORTHOVIEW
 70
     0
  9
$UCSORGTOP
 10
0.0
 20
0.0
 30
0.0
  9
$UCSORGBOTTOM
 10
0.0
 20
0.0
 30
0.0
  9
$UCSORGLEFT
 10
0.0
 20
0.0
 30
0.0
  9
$UCSORGRIGHT
 10
0.0
 20
0.0
 30
0.0
  9
$UCSORGFRONT
 10
0.0
 20
0.0
 30
0.0
  9
$UCSORGBACK
 10
0.0
 20
0.0
 30
0.0
  9
$PUCSBASE
  2

  9
$PUCSNAME
  2

  9
$PUCSORG
 10
0.0
 20
0.0
 30
0.0
  9
$PUCSXDIR
 10
1.0
 20
0.0
 30
0.0
  9
$PUCSYDIR
 10
0.0
 20
1.0
 30
0.0
  9
$PUCSORTHOREF
  2

  9
$PUCSORTHOVIEW
 70
     0
  9
$PUCSORGTOP
 10
0.0
 20
0.0
 30
0.0
  9
$PUCSORGBOTTOM
 10
0.0
 20
0.0
 30
0.0
  9
$PUCSORGLEFT
 10
0.0
 20
0.0
 30
0.0
  9
$PUCSORGRIGHT
 10
0.0
 20
0.0
 30
0.0
  9
$PUCSORGFRONT
 10
0.0
 20
0.0
 30
0.0
  9
$PUCSORGBACK
 10
0.0
 20
0.0
 30
0.0
  9
$USERI1
 70
     0
  9
$USERI2
 70
     0
  9
$USERI3
 70
     0
  9
$USERI4
 70
     0
  9
$USERI5
 70
     0
  9
$USERR1
 40
0.0
  9
$USERR2
 40
0.0
  9
$USERR3
 40
0.0
  9
$USERR4
 40
0.0
  9
$USERR5
 40
0.0
  9
$WORLDVIEW
 70
     1
  9
$SHADEDGE
 70
     3
  9
$SHADEDIF
 70
    70
  9
$TILEMODE
 70
     1
  9
$MAXACTVP
 70
    64
  9
$PINSBASE
 10
0.0
 20
0.0
 30
0.0
  9
$PLIMCHECK
 70
     0
  9
$PEXTMIN
 10
1.000000000000000E+20
 20
1.000000000000000E+20
 30
1.000000000000000E+20
  9
$PEXTMAX
 10
-1.000000000000000E+20
 20
-1.000000000000000E+20
 30
-1.000000000000000E+20
  9
$PLIMMIN
 10
0.0
 20
0.0
  9
$PLIMMAX
 10
12.0
 20
9.0
  9
$UNITMODE
 70
     0
  9
$VISRETAIN
 70
     1
  9
$PLINEGEN
 70
     0
  9
$PSLTSCALE
 70
     1
  9
$TREEDEPTH
 70
  3020
  9
$CMLSTYLE
  2
STANDARD
  9
$CMLJUST
 70
     0
  9
$CMLSCALE
 40
1.0
  9
$PROXYGRAPHICS
 70
     1
  9
$MEASUREMENT
 70
     0
  9
$CELWEIGHT
370
    -1
  9
$ENDCAPS
280
     0
  9
$JOINSTYLE
280
     0
  9
$LWDISPLAY
290
     0
  9
$INSUNITS
 70
     0
  9
$HYPERLINKBASE
  1

  9
$STYLESHEET
  1

  9
$XEDIT
290
     1
  9
$CEPSNTYPE
380
     0
  9
$PSTYLEMODE
290
     1
  9
$FINGERPRINTGUID
  2
{A42321FD-4D3B-470A-B3BE-A3689E04D828}
  9
$VERSIONGUID
  2
{CFAFC467-2133-0E41-9B64-330BC2A249DD}
  9
$EXTNAMES
290
     1
  9
$PSVPSCALE
 40
0.0
  9
$OLESTARTUP
290
     0
  9
$SORTENTS
280
   127
  9
$INDEXCTL
280
     0
  9
$HIDETEXT
280
     0
  9
$XCLIPFRAME
280
     2
  9
$HALOGAP
280
     0
  9
$OBSCOLOR
 70
   257
  9
$OBSLTYPE
280
     0
  9
$INTERSECTIONDISPLAY
280
     0
  9
$INTERSECTIONCOLOR
 70
   257
  9
$DIMASSOC
280
     1
  9
$PROJECTNAME
  1

  9
$CAMERADISPLAY
290
     0
  9
$LENSLENGTH
 40
50.0
  9
$CAMERAHEIGHT
 40
0.0
  9
$STEPSPERSEC
 40
2.0
  9
$STEPSIZE
 40
6.0
  9
$3DDWFPREC
 40
2.0
  9
$PSOLWIDTH
 40
0.25
  9
$PSOLHEIGHT
 40
4.0
  9
$LOFTANG1
 40
1.570796326794896
  9
$LOFTANG2
 40
1.570796326794896
  9
$LOFTMAG1
 40
0.0
  9
$LOFTMAG2
 40
0.0
  9
$LOFTPARAM
 70
     7
  9
$LOFTNORMALS
280
     1
  9
$LATITUDE
 40
37.795
  9
$LONGITUDE
 40
-122.394
  9
$NORTHDIRECTION
 40
0.0
  9
$TIMEZONE
 70
 -8000
  9
$LIGHTGLYPHDISPLAY
280
     1
  9
$TILEMODELIGHTSYNCH
280
     1
  9
$CMATERIAL
347
17B
  9
$SOLIDHIST
280
     0
  9
$SHOWHIST
280
     1
  9
$DWFFRAME
280
     2
  9
$DGNFRAME
280
     0
  9
$REALWORLDSCALE
290
     1
  9
$INTERFERECOLOR
 62
     1
  9
$INTERFEREOBJVS
345
19D
  9
$INTERFEREVPVS
346
19A
  9
$CSHADOW
280
     0
  9
$SHADOWPLANELOCATION
 40
0.0
  0
ENDSEC
  0
SECTION
  2
CLASSES
  0
CLASS
  1
ACDBDICTIONARYWDFLT
  2
AcDbDictionaryWithDefault
  3
ObjectDBX Classes
 90
        0
 91
        1
280
     0
281
     0
  0
CLASS
  1
MATERIAL
  2
AcDbMaterial
  3
ObjectDBX Classes
 90
     1153
 91
        3
280
     0
281
     0
  0
CLASS
  1
VISUALSTYLE
  2
AcDbVisualStyle
  3
ObjectDBX Classes
 90
     4095
 91
       24
280
     0
281
     0
  0
CLASS
  1
TABLESTYLE
  2
AcDbTableStyle
  3
ObjectDBX Classes
 90
     4095
 91
        1
280
     0
281
     0
  0
CLASS
  1
SCALE
  2
AcDbScale
  3
ObjectDBX Classes
 90
     1153
 91
       17
280
     0
281
     0
  0
CLASS
  1
MLEADERSTYLE
  2
AcDbMLeaderStyle
  3
ACDB_MLEADERSTYLE_CLASS
 90
     4095
 91
        1
280
     0
281
     0
  0
CLASS
  1
ACDBSECTIONVIEWSTYLE
  2
AcDbSectionViewStyle
  3
ObjectDBX Classes
 90
     1025
 91
        1
280
     0
281
     0
  0
CLASS
  1
ACDBDETAILVIEWSTYLE
  2
AcDbDetailViewStyle
  3
ObjectDBX Classes
 90
     1025
 91
        1
280
     0
281
     0
  0
CLASS
  1
DICTIONARYVAR
  2
AcDbDictionaryVar
  3
ObjectDBX Classes
 90
        0
 91
        9
280
     0
281
     0
  0
CLASS
  1
SORTENTSTABLE
  2
AcDbSortentsTable
  3
ObjectDBX Classes
 90
        0
 91
        1
280
     0
281
     0
  0
CLASS
  1
CELLSTYLEMAP
  2
AcDbCellStyleMap
  3
ObjectDBX Classes
 90
     1152
 91
        2
280
     0
281
     0
  0
ENDSEC
  0
SECTION
  2
TABLES
  0
TABLE
  2
VPORT
  5
8
330
0
100
AcDbSymbolTable
 70
     1
1001
ACAD
1000
DbSaveVer
1071
      224
  0
VPORT
  5
155
330
8
100
AcDbSymbolTableRecord
100
AcDbViewportTableRecord
  2
*ACTIVE
 70
     0
 10
0.0
 20
0.0
 11
1.0
 21
1.0
 12
781.1823936476403
 22
472.9023187711391
 13
0.0
 23
0.0
 14
0.5
 24
0.5
 15
0.5
 25
0.5
 16
0.0
 26
0.0
 36
1.0
 17
0.0
 27
0.0
 37
0.0
 40
1879.807697487475
 41
2.209601873536299
 42
50.0
 43
0.0
 44
0.0
 50
0.0
 51
0.0
 71
     0
 72
 10000
 73
     1
 74
     3
 75
     0
 76
     0
 77
     0
 78
     0
281
     0
 65
     1
110
0.0
120
0.0
130
0.0
111
1.0
121
0.0
131
0.0
112
0.0
122
1.0
132
0.0
 79
     0
146
0.0
348
199
 60
     3
 61
     5
292
     1
282
     1
141
0.0
142
0.0
 63
   250
421
  3355443
1001
ACAD_NAV_VCDISPLAY
1070
     3
  0
ENDTAB
  0
TABLE
  2
LTYPE
  5
5
330
0
100
AcDbSymbolTable
 70
     2
  0
LTYPE
  5
14
330
5
100
AcDbSymbolTableRecord
100
AcDbLinetypeTableRecord
  2
BYBLOCK
 70
     0
  3

 72
    65
 73
     0
 40
0.0
  0
LTYPE
  5
15
330
5
100
AcDbSymbolTableRecord
100
AcDbLinetypeTableRecord
  2
BYLAYER
 70
     0
  3

 72
    65
 73
     0
 40
0.0
  0
LTYPE
  5
16
330
5
100
AcDbSymbolTableRecord
100
AcDbLinetypeTableRecord
  2
CONTINUOUS
 70
     0
  3
Solid line
 72
    65
 73
     0
 40
0.0
  0
LTYPE
  5
1C4
330
5
100
AcDbSymbolTableRecord
100
AcDbLinetypeTableRecord
  2
PHANTOM2
 70
     0
  3
___ _ _ ___ _ _ ___ _ _ ___ _ _
 72
    65
 73
     6
 40
1.25
 49
0.625
 74
     0
 49
-0.125
 74
     0
 49
0.125
 74
     0
 49
-0.125
 74
     0
 49
0.125
 74
     0
 49
-0.125
 74
     0
  0
ENDTAB
  0
TABLE
  2
LAYER
  5
2
102
{ACAD_XDICTIONARY
360
1E1
102
}
330
0
100
AcDbSymbolTable
 70
     3
  0
LAYER
  5
10
102
{ACAD_XDICTIONARY
360
1CD
102
}
330
2
100
AcDbSymbolTableRecord
100
AcDbLayerTableRecord
  2
0
 70
     0
 62
     7
  6
CONTINUOUS
370
    -3
390
E0
347
18B
348
0
  0
LAYER
  5
296
330
2
100
AcDbSymbolTableRecord
100
AcDbLayerTableRecord
  2
HEWI
 70
     0
 62
     7
  6
CONTINUOUS
370
     9
390
E0
347
18B
348
0
1001
AcAecLayerStandard
1000

1000

1001
AcCmTransparency
1071
        0
  0
LAYER
  5
309
330
2
100
AcDbSymbolTableRecord
100
AcDbLayerTableRecord
  2
Defpoints
 70
     0
 62
     7
  6
CONTINUOUS
290
     0
370
    -3
390
E0
347
18B
348
0
  0
ENDTAB
  0
TABLE
  2
STYLE
  5
3
330
0
100
AcDbSymbolTable
 70
     1
  0
STYLE
  5
11
330
3
100
AcDbSymbolTableRecord
100
AcDbTextStyleTableRecord
  2
STANDARD
 70
     0
 40
0.0
 41
1.0
 50
0.0
 71
     0
 42
0.2
  3
txt
  4

  0
ENDTAB
  0
TABLE
  2
VIEW
  5
6
330
0
100
AcDbSymbolTable
 70
     0
  0
ENDTAB
  0
TABLE
  2
UCS
  5
7
330
0
100
AcDbSymbolTable
 70
     0
  0
ENDTAB
  0
TABLE
  2
APPID
  5
9
330
0
100
AcDbSymbolTable
 70
     6
  0
APPID
  5
12
330
9
100
AcDbSymbolTableRecord
100
AcDbRegAppTableRecord
  2
ACAD
 70
     0
  0
APPID
  5
1D1
330
9
100
AcDbSymbolTableRecord
100
AcDbRegAppTableRecord
  2
ACAD_NAV_VCDISPLAY
 70
     0
  0
APPID
  5
297
330
9
100
AcDbSymbolTableRecord
100
AcDbRegAppTableRecord
  2
AcAecLayerStandard
 70
     0
  0
APPID
  5
298
330
9
100
AcDbSymbolTableRecord
100
AcDbRegAppTableRecord
  2
AcCmTransparency
 70
     0
  0
APPID
  5
2AA
330
9
100
AcDbSymbolTableRecord
100
AcDbRegAppTableRecord
  2
ACAD_PSEXT
 70
     0
  0
APPID
  5
483
330
9
100
AcDbSymbolTableRecord
100
AcDbRegAppTableRecord
  2
ACAD_EXEMPT_FROM_CAD_STANDARDS
 70
     0
  0
ENDTAB
  0
TABLE
  2
DIMSTYLE
  5
A
330
0
100
AcDbSymbolTable
 70
     1
100
AcDbDimStyleTable
 71
     1
340
27
  0
DIMSTYLE
105
27
330
A
100
AcDbSymbolTableRecord
100
AcDbDimStyleTableRecord
  2
STANDARD
 70
     0
340
11
  0
ENDTAB
  0
TABLE
  2
BLOCK_RECORD
  5
1
330
0
100
AcDbSymbolTable
 70
     9
  0
BLOCK_RECORD
  5
1F
102
{ACAD_XDICTIONARY
360
D9
102
}
330
1
100
AcDbSymbolTableRecord
100
AcDbBlockTableRecord
  2
*MODEL_SPACE
340
1C8
 70
     0
280
     1
281
     0
  0
BLOCK_RECORD
  5
1B
102
{ACAD_XDICTIONARY
360
D7
102
}
330
1
100
AcDbSymbolTableRecord
100
AcDbBlockTableRecord
  2
*PAPER_SPACE
340
1C9
 70
     0
280
     1
281
     0
  0
BLOCK_RECORD
  5
3A3
330
1
100
AcDbSymbolTableRecord
100
AcDbBlockTableRecord
  2
*D0
340
0
 70
     0
280
     1
281
     0
  0
BLOCK_RECORD
  5
3B1
330
1
100
AcDbSymbolTableRecord
100
AcDbBlockTableRecord
  2
*D1
340
0
 70
     0
280
     1
281
     0
  0
BLOCK_RECORD
  5
3BF
330
1
100
AcDbSymbolTableRecord
100
AcDbBlockTableRecord
  2
*D2
340
0
 70
     0
280
     1
281
     0
  0
BLOCK_RECORD
  5
3CD
330
1
100
AcDbSymbolTableRecord
100
AcDbBlockTableRecord
  2
*D3
340
0
 70
     0
280
     1
281
     0
  0
BLOCK_RECORD
  5
3DD
330
1
100
AcDbSymbolTableRecord
100
AcDbBlockTableRecord
  2
*D4
340
0
 70
     0
280
     1
281
     0
  0
BLOCK_RECORD
  5
427
330
1
100
AcDbSymbolTableRecord
100
AcDbBlockTableRecord
  2
*D5
340
0
 70
     0
280
     1
281
     0
  0
BLOCK_RECORD
  5
49F
330
1
100
AcDbSymbolTableRecord
100
AcDbBlockTableRecord
  2
*D6
340
0
 70
     0
280
     1
281
     0
  0
BLOCK_RECORD
  5
4FF
330
1
100
AcDbSymbolTableRecord
100
AcDbBlockTableRecord
  2
*D7
340
0
 70
     0
280
     1
281
     0
  0
BLOCK_RECORD
  5
58D
330
1
100
AcDbSymbolTableRecord
100
AcDbBlockTableRecord
  2
*D8
340
0
 70
     0
280
     1
281
     0
  0
ENDTAB
  0
ENDSEC
  0
SECTION
  2
BLOCKS
  0
BLOCK
  5
20
330
1F
100
AcDbEntity
  8
0
100
AcDbBlockBegin
  2
*MODEL_SPACE
 70
     0
 10
0.0
 20
0.0
 30
0.0
  3
*MODEL_SPACE
  1

  0
ENDBLK
  5
21
330
1F
100
AcDbEntity
  8
0
100
AcDbBlockEnd
  0
BLOCK
  5
1C
330
1B
100
AcDbEntity
 67
     1
  8
0
100
AcDbBlockBegin
  2
*PAPER_SPACE
 70
     0
 10
0.0
 20
0.0
 30
0.0
  3
*PAPER_SPACE
  1

  0
ENDBLK
  5
1D
330
1B
100
AcDbEntity
 67
     1
  8
0
100
AcDbBlockEnd
  0
BLOCK
  5
3A4
330
3A3
100
AcDbEntity
  8
0
100
AcDbBlockBegin
  2
*D0
 70
     1
 10
0.0
 20
0.0
 30
0.0
  3
*D0
  1

  0
LINE
  5
3A6
330
3A3
100
AcDbEntity
  8
0
 62
     0
440
 16777216
370
    -2
100
AcDbLine
 10
162.7999304362201
 20
320.0712994837768
 30
0.0
 11
162.7999304362201
 21
272.7421345327825
 31
0.0
  0
LINE
  5
3A7
330
3A3
100
AcDbEntity
  8
0
 62
     0
440
 16777216
370
    -2
100
AcDbLine
 10
456.7999304362201
 20
320.0712994837768
 30
0.0
 11
456.7999304362201
 21
272.7421345327825
 31
0.0
  0
LINE
  5
3A8
330
3A3
100
AcDbEntity
  8
0
 62
     0
440
 16777216
370
    -2
100
AcDbLine
 10
162.9799304362201
 20
272.9221345327825
 30
0.0
 11
309.1399304362202
 21
272.9221345327825
 31
0.0
  0
LINE
  5
3A9
330
3A3
100
AcDbEntity
  8
0
 62
     0
440
 16777216
370
    -2
100
AcDbLine
 10
456.6199304362201
 20
272.9221345327825
 30
0.0
 11
310.4599304362201
 21
272.9221345327825
 31
0.0
  0
SOLID
  5
3AA
330
3A3
100
AcDbEntity
  8
0
 62
     0
440
 16777216
100
AcDbTrace
 10
162.9799304362201
 20
272.9521345327825
 30
0.0
 11
162.9799304362201
 21
272.8921345327825
 31
0.0
 12
162.7999304362201
 22
272.9221345327825
 32
0.0
 13
162.7999304362201
 23
272.9221345327825
 33
0.0
  0
SOLID
  5
3AB
330
3A3
100
AcDbEntity
  8
0
 62
     0
440
 16777216
100
AcDbTrace
 10
456.6199304362201
 20
272.9521345327825
 30
0.0
 11
456.6199304362201
 21
272.8921345327825
 31
0.0
 12
456.7999304362201
 22
272.9221345327825
 32
0.0
 13
456.7999304362201
 23
272.9221345327825
 33
0.0
  0
MTEXT
  5
3AC
330
3A3
100
AcDbEntity
  8
0
 62
     0
440
 16777216
100
AcDbMText
 10
309.7999304362201
 20
272.9221345327825
 30
0.0
 40
0.18
 41
0.0
 46
0.0
 71
     5
 72
     1
  1
\A1;294.0000
 73
     1
 44
1.0
  0
POINT
  5
3AD
330
3A3
100
AcDbEntity
  8
Defpoints
 62
     0
440
 16777216
100
AcDbPoint
 10
162.7999304362201
 20
320.1337994837768
 30
0.0
  0
POINT
  5
3AE
330
3A3
100
AcDbEntity
  8
Defpoints
 62
     0
440
 16777216
100
AcDbPoint
 10
456.7999304362201
 20
320.1337994837768
 30
0.0
  0
POINT
  5
3AF
330
3A3
100
AcDbEntity
  8
Defpoints
 62
     0
440
 16777216
100
AcDbPoint
 10
456.7999304362201
 20
272.9221345327825
 30
0.0
  0
ENDBLK
  5
3A5
330
3A3
100
AcDbEntity
  8
0
100
AcDbBlockEnd
  0
BLOCK
  5
3B2
330
3B1
100
AcDbEntity
  8
0
100
AcDbBlockBegin
  2
*D1
 70
     1
 10
0.0
 20
0.0
 30
0.0
  3
*D1
  1

  0
LINE
  5
3B4
330
3B1
100
AcDbEntity
  8
0
 62
     0
440
 16777216
370
    -2
100
AcDbLine
 10
156.7999304362201
 20
320.0712994837768
 30
0.0
 11
156.7999304362201
 21
264.6018721529912
 31
0.0
  0
LINE
  5
3B5
330
3B1
100
AcDbEntity
  8
0
 62
     0
440
 16777216
370
    -2
100
AcDbLine
 10
462.7999304362202
 20
320.0712994837768
 30
0.0
 11
462.7999304362202
 21
264.6018721529912
 31
0.0
  0
LINE
  5
3B6
330
3B1
100
AcDbEntity
  8
0
 62
     0
440
 16777216
370
    -2
100
AcDbLine
 10
156.9799304362201
 20
264.7818721529912
 30
0.0
 11
309.1549304362201
 21
264.7818721529912
 31
0.0
  0
LINE
  5
3B7
330
3B1
100
AcDbEntity
  8
0
 62
     0
440
 16777216
370
    -2
100
AcDbLine
 10
462.61993043622
 20
264.7818721529912
 30
0.0
 11
310.4449304362201
 21
264.7818721529912
 31
0.0
  0
SOLID
  5
3B8
330
3B1
100
AcDbEntity
  8
0
 62
     0
440
 16777216
100
AcDbTrace
 10
156.9799304362201
 20
264.8118721529912
 30
0.0
 11
156.9799304362201
 21
264.7518721529912
 31
0.0
 12
156.7999304362201
 22
264.7818721529912
 32
0.0
 13
156.7999304362201
 23
264.7818721529912
 33
0.0
  0
SOLID
  5
3B9
330
3B1
100
AcDbEntity
  8
0
 62
     0
440
 16777216
100
AcDbTrace
 10
462.61993043622
 20
264.8118721529912
 30
0.0
 11
462.61993043622
 21
264.7518721529912
 31
0.0
 12
462.7999304362202
 22
264.7818721529912
 32
0.0
 13
462.7999304362202
 23
264.7818721529912
 33
0.0
  0
MTEXT
  5
3BA
330
3B1
100
AcDbEntity
  8
0
 62
     0
440
 16777216
100
AcDbMText
 10
309.7999304362201
 20
264.7818721529912
 30
0.0
 40
0.18
 41
0.0
 46
0.0
 71
     5
 72
     1
  1
\A1;306.0000
 73
     1
 44
1.0
  0
POINT
  5
3BB
330
3B1
100
AcDbEntity
  8
Defpoints
 62
     0
440
 16777216
100
AcDbPoint
 10
156.7999304362201
 20
320.1337994837768
 30
0.0
  0
POINT
  5
3BC
330
3B1
100
AcDbEntity
  8
Defpoints
 62
     0
440
 16777216
100
AcDbPoint
 10
462.7999304362202
 20
320.1337994837768
 30
0.0
  0
POINT
  5
3BD
330
3B1
100
AcDbEntity
  8
Defpoints
 62
     0
440
 16777216
100
AcDbPoint
 10
462.7999304362202
 20
264.7818721529912
 30
0.0
  0
ENDBLK
  5
3B3
330
3B1
100
AcDbEntity
  8
0
100
AcDbBlockEnd
  0
BLOCK
  5
3C0
330
3BF
100
AcDbEntity
  8
0
100
AcDbBlockBegin
  2
*D2
 70
     1
 10
0.0
 20
0.0
 30
0.0
  3
*D2
  1

  0
LINE
  5
3C2
330
3BF
100
AcDbEntity
  8
0
 62
     0
440
 16777216
370
    -2
100
AcDbLine
 10
156.7999304362201
 20
320.0712994837768
 30
0.0
 11
156.7999304362201
 21
256.4616106061355
 31
0.0
  0
LINE
  5
3C3
330
3BF
100
AcDbEntity
  8
0
 62
     0
440
 16777216
370
    -2
100
AcDbLine
 10
462.7999304362202
 20
320.0712994837768
 30
0.0
 11
462.7999304362202
 21
256.4616106061355
 31
0.0
  0
LINE
  5
3C4
330
3BF
100
AcDbEntity
  8
0
 62
     0
440
 16777216
370
    -2
100
AcDbLine
 10
156.9799304362201
 20
256.6416106061355
 30
0.0
 11
309.1549304362201
 21
256.6416106061355
 31
0.0
  0
LINE
  5
3C5
330
3BF
100
AcDbEntity
  8
0
 62
     0
440
 16777216
370
    -2
100
AcDbLine
 10
462.61993043622
 20
256.6416106061355
 30
0.0
 11
310.4449304362201
 21
256.6416106061355
 31
0.0
  0
SOLID
  5
3C6
330
3BF
100
AcDbEntity
  8
0
 62
     0
440
 16777216
100
AcDbTrace
 10
156.9799304362201
 20
256.6716106061355
 30
0.0
 11
156.9799304362201
 21
256.6116106061354
 31
0.0
 12
156.7999304362201
 22
256.6416106061355
 32
0.0
 13
156.7999304362201
 23
256.6416106061355
 33
0.0
  0
SOLID
  5
3C7
330
3BF
100
AcDbEntity
  8
0
 62
     0
440
 16777216
100
AcDbTrace
 10
462.61993043622
 20
256.6716106061355
 30
0.0
 11
462.61993043622
 21
256.6116106061354
 31
0.0
 12
462.7999304362202
 22
256.6416106061355
 32
0.0
 13
462.7999304362202
 23
256.6416106061355
 33
0.0
  0
MTEXT
  5
3C8
330
3BF
100
AcDbEntity
  8
0
 62
     0
440
 16777216
100
AcDbMText
 10
309.7999304362201
 20
256.6416106061355
 30
0.0
 40
0.18
 41
0.0
 46
0.0
 71
     5
 72
     1
  1
\A1;306.0000
 73
     1
 44
1.0
  0
POINT
  5
3C9
330
3BF
100
AcDbEntity
  8
Defpoints
 62
     0
440
 16777216
100
AcDbPoint
 10
156.7999304362201
 20
320.1337994837768
 30
0.0
  0
POINT
  5
3CA
330
3BF
100
AcDbEntity
  8
Defpoints
 62
     0
440
 16777216
100
AcDbPoint
 10
462.7999304362202
 20
320.1337994837768
 30
0.0
  0
POINT
  5
3CB
330
3BF
100
AcDbEntity
  8
Defpoints
 62
     0
440
 16777216
100
AcDbPoint
 10
462.7999304362202
 20
256.6416106061355
 30
0.0
  0
ENDBLK
  5
3C1
330
3BF
100
AcDbEntity
  8
0
100
AcDbBlockEnd
  0
BLOCK
  5
3CE
330
3CD
100
AcDbEntity
  8
0
100
AcDbBlockBegin
  2
*D3
 70
     1
 10
0.0
 20
0.0
 30
0.0
  3
*D3
  1

  0
LINE
  5
3D0
330
3CD
100
AcDbEntity
  8
0
 62
     0
440
 16777216
370
    -2
100
AcDbLine
 10
159.7999304362199
 20
108.0474958923746
 30
0.0
 11
159.7999304362199
 21
61.52375887453111
 31
0.0
  0
LINE
  5
3D1
330
3CD
100
AcDbEntity
  8
0
 62
     0
440
 16777216
370
    -2
100
AcDbLine
 10
459.7999304362199
 20
108.0474958923746
 30
0.0
 11
459.7999304362199
 21
61.52375887453111
 31
0.0
  0
LINE
  5
3D2
330
3CD
100
AcDbEntity
  8
0
 62
     0
440
 16777216
370
    -2
100
AcDbLine
 10
159.9799304362199
 20
61.7037588745311
 30
0.0
 11
309.1699304362199
 21
61.7037588745311
 31
0.0
  0
LINE
  5
3D3
330
3CD
100
AcDbEntity
  8
0
 62
     0
440
 16777216
370
    -2
100
AcDbLine
 10
459.6199304362198
 20
61.7037588745311
 30
0.0
 11
310.4299304362199
 21
61.7037588745311
 31
0.0
  0
SOLID
  5
3D4
330
3CD
100
AcDbEntity
  8
0
 62
     0
440
 16777216
100
AcDbTrace
 10
159.9799304362199
 20
61.73375887453111
 30
0.0
 11
159.9799304362199
 21
61.67375887453109
 31
0.0
 12
159.7999304362199
 22
61.7037588745311
 32
0.0
 13
159.7999304362199
 23
61.7037588745311
 33
0.0
  0
SOLID
  5
3D5
330
3CD
100
AcDbEntity
  8
0
 62
     0
440
 16777216
100
AcDbTrace
 10
459.6199304362198
 20
61.73375887453111
 30
0.0
 11
459.6199304362198
 21
61.67375887453109
 31
0.0
 12
459.7999304362199
 22
61.7037588745311
 32
0.0
 13
459.7999304362199
 23
61.7037588745311
 33
0.0
  0
MTEXT
  5
3D6
330
3CD
100
AcDbEntity
  8
0
 62
     0
440
 16777216
100
AcDbMText
 10
309.7999304362199
 20
61.7037588745311
 30
0.0
 40
0.18
 41
0.0
 46
0.0
 71
     5
 72
     1
  1
\A1;300.0000
 73
     1
 44
1.0
  0
POINT
  5
3D7
330
3CD
100
AcDbEntity
  8
Defpoints
 62
     0
440
 16777216
100
AcDbPoint
 10
159.7999304362199
 20
108.1099958923746
 30
0.0
  0
POINT
  5
3D8
330
3CD
100
AcDbEntity
  8
Defpoints
 62
     0
440
 16777216
100
AcDbPoint
 10
459.7999304362199
 20
108.1099958923746
 30
0.0
  0
POINT
  5
3D9
330
3CD
100
AcDbEntity
  8
Defpoints
 62
     0
440
 16777216
100
AcDbPoint
 10
459.7999304362199
 20
61.7037588745311
 30
0.0
  0
ENDBLK
  5
3CF
330
3CD
100
AcDbEntity
  8
0
100
AcDbBlockEnd
  0
BLOCK
  5
3DE
330
3DD
100
AcDbEntity
  8
0
100
AcDbBlockBegin
  2
*D4
 70
     1
 10
0.0
 20
0.0
 30
0.0
  3
*D4
  1

  0
LINE
  5
3E0
330
3DD
100
AcDbEntity
  8
0
 62
     0
440
 16777216
370
    -2
100
AcDbLine
 10
159.7999304362199
 20
268.1468510935842
 30
0.0
 11
159.7999304362199
 21
241.0379566228707
 31
0.0
  0
LINE
  5
3E1
330
3DD
100
AcDbEntity
  8
0
 62
     0
440
 16777216
370
    -2
100
AcDbLine
 10
459.7999304362199
 20
268.1468510935842
 30
0.0
 11
459.7999304362199
 21
241.0379566228707
 31
0.0
  0
LINE
  5
3E2
330
3DD
100
AcDbEntity
  8
0
 62
     0
440
 16777216
370
    -2
100
AcDbLine
 10
159.9799304362199
 20
241.2179566228707
 30
0.0
 11
309.16993043622
 21
241.2179566228707
 31
0.0
  0
LINE
  5
3E3
330
3DD
100
AcDbEntity
  8
0
 62
     0
440
 16777216
370
    -2
100
AcDbLine
 10
459.6199304362198
 20
241.2179566228707
 30
0.0
 11
310.42993043622
 21
241.2179566228707
 31
0.0
  0
SOLID
  5
3E4
330
3DD
100
AcDbEntity
  8
0
 62
     0
440
 16777216
100
AcDbTrace
 10
159.9799304362199
 20
241.2479566228707
 30
0.0
 11
159.9799304362199
 21
241.1879566228707
 31
0.0
 12
159.7999304362199
 22
241.2179566228707
 32
0.0
 13
159.7999304362199
 23
241.2179566228707
 33
0.0
  0
SOLID
  5
3E5
330
3DD
100
AcDbEntity
  8
0
 62
     0
440
 16777216
100
AcDbTrace
 10
459.6199304362198
 20
241.2479566228707
 30
0.0
 11
459.6199304362198
 21
241.1879566228707
 31
0.0
 12
459.7999304362199
 22
241.2179566228707
 32
0.0
 13
459.7999304362199
 23
241.2179566228707
 33
0.0
  0
MTEXT
  5
3E6
330
3DD
100
AcDbEntity
  8
0
 62
     0
440
 16777216
100
AcDbMText
 10
309.79993043622
 20
241.2179566228707
 30
0.0
 40
0.18
 41
0.0
 46
0.0
 71
     5
 72
     1
  1
\A1;300.0000
 73
     1
 44
1.0
  0
POINT
  5
3E7
330
3DD
100
AcDbEntity
  8
Defpoints
 62
     0
440
 16777216
100
AcDbPoint
 10
159.7999304362199
 20
268.2093510935842
 30
0.0
  0
POINT
  5
3E8
330
3DD
100
AcDbEntity
  8
Defpoints
 62
     0
440
 16777216
100
AcDbPoint
 10
459.7999304362199
 20
268.2093510935842
 30
0.0
  0
POINT
  5
3E9
330
3DD
100
AcDbEntity
  8
Defpoints
 62
     0
440
 16777216
100
AcDbPoint
 10
459.7999304362199
 20
241.2179566228707
 30
0.0
  0
ENDBLK
  5
3DF
330
3DD
100
AcDbEntity
  8
0
100
AcDbBlockEnd
  0
BLOCK
  5
428
330
427
100
AcDbEntity
  8
0
100
AcDbBlockBegin
  2
*D5
 70
     1
 10
0.0
 20
0.0
 30
0.0
  3
*D5
  1

  0
LINE
  5
42A
330
427
100
AcDbEntity
  8
0
 62
     0
440
 16777216
370
    -2
100
AcDbLine
 10
159.7999304362201
 20
336.1962994837768
 30
0.0
 11
159.7999304362201
 21
388.3783131516943
 31
0.0
  0
LINE
  5
42B
330
427
100
AcDbEntity
  8
0
 62
     0
440
 16777216
370
    -2
100
AcDbLine
 10
459.79993043622
 20
336.1962994837768
 30
0.0
 11
459.79993043622
 21
388.3783131516943
 31
0.0
  0
LINE
  5
42C
330
427
100
AcDbEntity
  8
0
 62
     0
440
 16777216
370
    -2
100
AcDbLine
 10
159.9799304362201
 20
388.1983131516943
 30
0.0
 11
309.1699304362201
 21
388.1983131516943
 31
0.0
  0
LINE
  5
42D
330
427
100
AcDbEntity
  8
0
 62
     0
440
 16777216
370
    -2
100
AcDbLine
 10
459.6199304362198
 20
388.1983131516943
 30
0.0
 11
310.4299304362201
 21
388.1983131516943
 31
0.0
  0
SOLID
  5
42E
330
427
100
AcDbEntity
  8
0
 62
     0
440
 16777216
100
AcDbTrace
 10
159.9799304362201
 20
388.2283131516942
 30
0.0
 11
159.9799304362201
 21
388.1683131516944
 31
0.0
 12
159.7999304362201
 22
388.1983131516943
 32
0.0
 13
159.7999304362201
 23
388.1983131516943
 33
0.0
  0
SOLID
  5
42F
330
427
100
AcDbEntity
  8
0
 62
     0
440
 16777216
100
AcDbTrace
 10
459.6199304362198
 20
388.2283131516942
 30
0.0
 11
459.6199304362198
 21
388.1683131516944
 31
0.0
 12
459.79993043622
 22
388.1983131516943
 32
0.0
 13
459.79993043622
 23
388.1983131516943
 33
0.0
  0
MTEXT
  5
430
330
427
100
AcDbEntity
  8
0
 62
     0
440
 16777216
100
AcDbMText
 10
309.7999304362201
 20
388.1983131516943
 30
0.0
 40
0.18
 41
0.0
 46
0.0
 71
     5
 72
     1
  1
\A1;300.0000
 73
     1
 44
1.0
  0
POINT
  5
431
330
427
100
AcDbEntity
  8
Defpoints
 62
     0
440
 16777216
100
AcDbPoint
 10
159.7999304362201
 20
336.1337994837768
 30
0.0
  0
POINT
  5
432
330
427
100
AcDbEntity
  8
Defpoints
 62
     0
440
 16777216
100
AcDbPoint
 10
459.79993043622
 20
336.1337994837768
 30
0.0
  0
POINT
  5
433
330
427
100
AcDbEntity
  8
Defpoints
 62
     0
440
 16777216
100
AcDbPoint
 10
459.79993043622
 20
388.1983131516943
 30
0.0
  0
ENDBLK
  5
429
330
427
100
AcDbEntity
  8
0
100
AcDbBlockEnd
  0
BLOCK
  5
4A0
330
49F
100
AcDbEntity
  8
0
100
AcDbBlockBegin
  2
*D6
 70
     1
 10
0.0
 20
0.0
 30
0.0
  3
*D6
  1

  0
LINE
  5
4A2
330
49F
100
AcDbEntity
  8
0
 62
     0
440
 16777216
370
    -2
100
AcDbLine
 10
159.7374304362199
 20
108.1099958923746
 30
0.0
 11
-70.13409692068553
 21
108.1099958923746
 31
0.0
  0
LINE
  5
4A3
330
49F
100
AcDbEntity
  8
0
 62
     0
440
 16777216
370
    -2
100
AcDbLine
 10
162.7374304362201
 20
196.1099958923746
 30
0.0
 11
-70.13409692068558
 21
196.1099958923746
 31
0.0
  0
LINE
  5
4A4
330
49F
100
AcDbEntity
  8
0
 62
     0
440
 16777216
370
    -2
100
AcDbLine
 10
-69.95409692068554
 20
108.2899958923746
 30
0.0
 11
-69.95409692068554
 21
151.9299958923746
 31
0.0
  0
LINE
  5
4A5
330
49F
100
AcDbEntity
  8
0
 62
     0
440
 16777216
370
    -2
100
AcDbLine
 10
-69.95409692068554
 20
195.9299958923747
 30
0.0
 11
-69.95409692068554
 21
152.2899958923746
 31
0.0
  0
SOLID
  5
4A6
330
49F
100
AcDbEntity
  8
0
 62
     0
440
 16777216
100
AcDbTrace
 10
-69.98409692068555
 20
108.2899958923746
 30
0.0
 11
-69.92409692068554
 21
108.2899958923746
 31
0.0
 12
-69.95409692068554
 22
108.1099958923746
 32
0.0
 13
-69.95409692068554
 23
108.1099958923746
 33
0.0
  0
SOLID
  5
4A7
330
49F
100
AcDbEntity
  8
0
 62
     0
440
 16777216
100
AcDbTrace
 10
-69.98409692068555
 20
195.9299958923747
 30
0.0
 11
-69.92409692068554
 21
195.9299958923747
 31
0.0
 12
-69.95409692068554
 22
196.1099958923746
 32
0.0
 13
-69.95409692068554
 23
196.1099958923746
 33
0.0
  0
MTEXT
  5
4A8
330
49F
100
AcDbEntity
  8
0
 62
     0
440
 16777216
100
AcDbMText
 10
-69.95409692068547
 20
152.1099958923746
 30
0.0
 40
0.18
 41
0.0
 46
0.0
 71
     5
 72
     1
  1
\A1;88.0000
 73
     1
 44
1.0
  0
POINT
  5
4A9
330
49F
100
AcDbEntity
  8
Defpoints
 62
     0
440
 16777216
100
AcDbPoint
 10
159.7999304362199
 20
108.1099958923746
 30
0.0
  0
POINT
  5
4AA
330
49F
100
AcDbEntity
  8
Defpoints
 62
     0
440
 16777216
100
AcDbPoint
 10
162.7999304362201
 20
196.1099958923746
 30
0.0
  0
POINT
  5
4AB
330
49F
100
AcDbEntity
  8
Defpoints
 62
     0
440
 16777216
100
AcDbPoint
 10
-69.95409692068554
 20
196.1099958923746
 30
0.0
  0
ENDBLK
  5
4A1
330
49F
100
AcDbEntity
  8
0
100
AcDbBlockEnd
  0
BLOCK
  5
500
330
4FF
100
AcDbEntity
  8
0
100
AcDbBlockBegin
  2
*D7
 70
     1
 10
0.0
 20
0.0
 30
0.0
  3
*D7
  1

  0
LINE
  5
502
330
4FF
100
AcDbEntity
  8
0
 62
     0
440
 16777216
370
    -2
100
AcDbLine
 10
809.6927815029017
 20
542.2171235701521
 30
0.0
 11
809.6927815029017
 21
836.6322062847482
 31
0.0
  0
LINE
  5
503
330
4FF
100
AcDbEntity
  8
0
 62
     0
440
 16777216
370
    -2
100
AcDbLine
 10
841.5541626611178
 20
542.2171235701521
 30
0.0
 11
841.5541626611178
 21
836.6322062847482
 31
0.0
  0
LINE
  5
504
330
4FF
100
AcDbEntity
  8
0
 62
     0
440
 16777216
370
    -2
100
AcDbLine
 10
809.8727815029016
 20
836.4522062847481
 30
0.0
 11
825.0534720820095
 21
836.4522062847481
 31
0.0
  0
LINE
  5
505
330
4FF
100
AcDbEntity
  8
0
 62
     0
440
 16777216
370
    -2
100
AcDbLine
 10
841.3741626611177
 20
836.4522062847481
 30
0.0
 11
826.1934720820097
 21
836.4522062847481
 31
0.0
  0
SOLID
  5
506
330
4FF
100
AcDbEntity
  8
0
 62
     0
440
 16777216
100
AcDbTrace
 10
809.8727815029016
 20
836.4822062847482
 30
0.0
 11
809.8727815029016
 21
836.4222062847481
 31
0.0
 12
809.6927815029017
 22
836.4522062847481
 32
0.0
 13
809.6927815029017
 23
836.4522062847481
 33
0.0
  0
SOLID
  5
507
330
4FF
100
AcDbEntity
  8
0
 62
     0
440
 16777216
100
AcDbTrace
 10
841.3741626611177
 20
836.4822062847482
 30
0.0
 11
841.3741626611177
 21
836.4222062847481
 31
0.0
 12
841.5541626611178
 22
836.4522062847481
 32
0.0
 13
841.5541626611178
 23
836.4522062847481
 33
0.0
  0
MTEXT
  5
508
330
4FF
100
AcDbEntity
  8
0
 62
     0
440
 16777216
100
AcDbMText
 10
825.6234720820097
 20
836.4522062847481
 30
0.0
 40
0.18
 41
0.0
 46
0.0
 71
     5
 72
     1
  1
\A1;31.8614
 73
     1
 44
1.0
  0
POINT
  5
509
330
4FF
100
AcDbEntity
  8
Defpoints
 62
     0
440
 16777216
100
AcDbPoint
 10
809.6927815029017
 20
542.1546235701521
 30
0.0
  0
POINT
  5
50A
330
4FF
100
AcDbEntity
  8
Defpoints
 62
     0
440
 16777216
100
AcDbPoint
 10
841.5541626611178
 20
542.1546235701521
 30
0.0
  0
POINT
  5
50B
330
4FF
100
AcDbEntity
  8
Defpoints
 62
     0
440
 16777216
100
AcDbPoint
 10
841.5541626611178
 20
836.4522062847481
 30
0.0
  0
ENDBLK
  5
501
330
4FF
100
AcDbEntity
  8
0
100
AcDbBlockEnd
  0
BLOCK
  5
58E
330
58D
100
AcDbEntity
  8
0
100
AcDbBlockBegin
  2
*D8
 70
     1
 10
0.0
 20
0.0
 30
0.0
  3
*D8
  1

  0
LINE
  5
590
330
58D
100
AcDbEntity
  8
0
 62
     0
440
 16777216
370
    -2
100
AcDbLine
 10
526.8335084746841
 20
220.1724958923746
 30
0.0
 11
526.8335084746841
 21
280.776595668846
 31
0.0
  0
LINE
  5
591
330
58D
100
AcDbEntity
  8
0
 62
     0
440
 16777216
370
    -2
100
AcDbLine
 10
826.8335084746835
 20
220.1724958923746
 30
0.0
 11
826.8335084746835
 21
280.776595668846
 31
0.0
  0
LINE
  5
592
330
58D
100
AcDbEntity
  8
0
 62
     0
440
 16777216
370
    -2
100
AcDbLine
 10
527.013508474684
 20
280.596595668846
 30
0.0
 11
676.2035084746838
 21
280.596595668846
 31
0.0
  0
LINE
  5
593
330
58D
100
AcDbEntity
  8
0
 62
     0
440
 16777216
370
    -2
100
AcDbLine
 10
826.6535084746836
 20
280.596595668846
 30
0.0
 11
677.4635084746838
 21
280.596595668846
 31
0.0
  0
SOLID
  5
594
330
58D
100
AcDbEntity
  8
0
 62
     0
440
 16777216
100
AcDbTrace
 10
527.013508474684
 20
280.626595668846
 30
0.0
 11
527.013508474684
 21
280.5665956688461
 31
0.0
 12
526.8335084746841
 22
280.596595668846
 32
0.0
 13
526.8335084746841
 23
280.596595668846
 33
0.0
  0
SOLID
  5
595
330
58D
100
AcDbEntity
  8
0
 62
     0
440
 16777216
100
AcDbTrace
 10
826.6535084746836
 20
280.626595668846
 30
0.0
 11
826.6535084746836
 21
280.5665956688461
 31
0.0
 12
826.8335084746835
 22
280.596595668846
 32
0.0
 13
826.8335084746835
 23
280.596595668846
 33
0.0
  0
MTEXT
  5
596
330
58D
100
AcDbEntity
  8
0
 62
     0
440
 16777216
100
AcDbMText
 10
676.8335084746838
 20
280.596595668846
 30
0.0
 40
0.18
 41
0.0
 46
0.0
 71
     5
 72
     1
  1
\A1;300.0000
 73
     1
 44
1.0
  0
POINT
  5
597
330
58D
100
AcDbEntity
  8
Defpoints
 62
     0
440
 16777216
100
AcDbPoint
 10
526.8335084746841
 20
220.1099958923746
 30
0.0
  0
POINT
  5
598
330
58D
100
AcDbEntity
  8
Defpoints
 62
     0
440
 16777216
100
AcDbPoint
 10
826.8335084746835
 20
220.1099958923746
 30
0.0
  0
POINT
  5
599
330
58D
100
AcDbEntity
  8
Defpoints
 62
     0
440
 16777216
100
AcDbPoint
 10
826.8335084746835
 20
280.596595668846
 30
0.0
  0
ENDBLK
  5
58F
330
58D
100
AcDbEntity
  8
0
100
AcDbBlockEnd
  0
ENDSEC
  0
SECTION
  2
ENTITIES
  0
LWPOLYLINE
  5
338
330
1F
100
AcDbEntity
  8
HEWI
100
AcDbPolyline
 90
        4
 70
     0
 43
0.0
 10
783.5673293848648
 20
392.163852411602
 10
529.567329384865
 20
392.163852411602
 10
529.567329384865
 20
424.1638524116018
 10
783.5673293848648
 20
424.1638524116018
  0
ARC
  5
339
330
1F
100
AcDbEntity
  8
HEWI
100
AcDbCircle
 10
826.5673293848648
 20
1008.163852411602
 30
0.0
 40
35.0
100
AcDbArc
 50
297.2028944122115
 51
242.7971055877886
  0
LINE
  5
33B
330
1F
100
AcDbEntity
  8
HEWI
100
AcDbLine
 10
529.8335084746839
 20
164.1099958923746
 30
0.0
 11
810.9039761526101
 21
164.1099958923746
 31
0.0
  0
LINE
  5
33D
330
1F
100
AcDbEntity
  8
HEWI
100
AcDbLine
 10
826.5673293848648
 20
132.1122101489618
 30
0.0
 11
523.8335084746842
 21
132.1101894615464
 31
0.0
  0
LWPOLYLINE
  5
33E
330
1F
100
AcDbEntity
  8
HEWI
100
AcDbPolyline
 90
        4
 70
     0
 43
0.0
 10
791.8335084746837
 20
209.1099958923746
 10
791.8335084746837
 20
220.1099958923746
 10
861.8335084746837
 20
220.1099958923746
 10
861.8335084746837
 20
209.1099958923746
  0
LWPOLYLINE
  5
33F
330
1F
100
AcDbEntity
  8
HEWI
100
AcDbPolyline
 90
        2
 70
     0
 43
0.0
 10
860.8335084746839
 20
208.1099958923746
 10
792.8335084746841
 20
208.1099958923746
  0
ARC
  5
340
330
1F
100
AcDbEntity
  8
HEWI
100
AcDbCircle
 10
792.8335084746841
 20
209.1099958923746
 30
0.0
 40
1.0
100
AcDbArc
 50
180.0
 51
270.0
  0
ARC
  5
341
330
1F
100
AcDbEntity
  8
HEWI
100
AcDbCircle
 10
860.8335084746839
 20
209.1099958923746
 30
0.0
 40
1.0
100
AcDbArc
 50
270.0
 51
0.000000000000007
  0
LINE
  5
342
330
1F
100
AcDbEntity
  8
HEWI
100
AcDbLine
 10
823.8335084746841
 20
208.1099958923746
 30
0.0
 11
826.8335084746841
 21
208.1099958923746
 31
0.0
  0
LINE
  5
344
330
1F
100
AcDbEntity
  8
HEWI
100
AcDbLine
 10
810.9039761526101
 20
149.6099958923746
 30
0.0
 11
810.9039761526101
 21
208.1099958923746
 31
0.0
  0
LINE
  5
345
330
1F
100
AcDbEntity
  8
HEWI
100
AcDbLine
 10
826.8335084746841
 20
208.1099958923746
 30
0.0
 11
829.8335084746836
 21
208.1099958923746
 31
0.0
  0
LINE
  5
346
330
1F
100
AcDbEntity
  8
HEWI
100
AcDbLine
 10
842.7630407967578
 20
208.1099958923746
 30
0.0
 11
842.7630407967578
 21
149.3262295378763
 31
0.0
  0
LWPOLYLINE
  5
348
330
1F
100
AcDbEntity
  8
HEWI
100
AcDbPolyline
 90
        4
 70
     0
 43
0.0
 10
491.8335084746839
 20
209.1099958923746
 10
491.8335084746839
 20
220.1099958923746
 10
561.833508474684
 20
220.1099958923746
 10
561.833508474684
 20
209.1099958923746
  0
LWPOLYLINE
  5
349
330
1F
100
AcDbEntity
  8
HEWI
100
AcDbPolyline
 90
        2
 70
     0
 43
0.0
 10
560.833508474684
 20
208.1099958923746
 10
492.833508474684
 20
208.1099958923746
  0
ARC
  5
34A
330
1F
100
AcDbEntity
  8
HEWI
100
AcDbCircle
 10
492.833508474684
 20
209.1099958923746
 30
0.0
 40
1.0
100
AcDbArc
 50
180.0
 51
270.0
  0
ARC
  5
34B
330
1F
100
AcDbEntity
  8
HEWI
100
AcDbCircle
 10
560.833508474684
 20
209.1099958923746
 30
0.0
 40
1.0
100
AcDbArc
 50
270.0
 51
0.000000000000007
  0
LINE
  5
34C
330
1F
100
AcDbEntity
  8
HEWI
100
AcDbLine
 10
523.8335084746842
 20
208.1099958923746
 30
0.0
 11
526.8335084746841
 21
208.1099958923746
 31
0.0
  0
LINE
  5
34D
330
1F
100
AcDbEntity
  8
HEWI
100
AcDbLine
 10
526.8335084746841
 20
132.1099958923745
 30
0.0
 11
523.8335084746842
 21
132.1099958923745
 31
0.0
  0
LINE
  5
34E
330
1F
100
AcDbEntity
  8
HEWI
100
AcDbLine
 10
523.8335084746842
 20
132.1099958923745
 30
0.0
 11
523.8335084746842
 21
208.1099958923746
 31
0.0
  0
LINE
  5
34F
330
1F
100
AcDbEntity
  8
HEWI
100
AcDbLine
 10
526.8335084746841
 20
208.1099958923746
 30
0.0
 11
529.8335084746839
 21
208.1099958923746
 31
0.0
  0
LINE
  5
350
330
1F
100
AcDbEntity
  8
HEWI
100
AcDbLine
 10
529.8335084746839
 20
208.1099958923746
 30
0.0
 11
529.8335084746839
 21
132.1099958923745
 31
0.0
  0
LINE
  5
351
330
1F
100
AcDbEntity
  8
HEWI
100
AcDbLine
 10
529.8335084746839
 20
132.1099958923745
 30
0.0
 11
526.8335084746841
 21
132.1099958923745
 31
0.0
  0
LWPOLYLINE
  5
352
330
1F
100
AcDbEntity
  8
HEWI
100
AcDbPolyline
 90
        4
 70
     1
 43
0.0
 10
842.567329384865
 20
1011.163852411602
 10
842.567329384865
 20
1005.163852411601
 10
810.5673293848647
 20
1005.163852411601
 10
810.5673293848647
 20
1011.163852411602
  0
ARC
  5
353
330
1F
100
AcDbEntity
  8
HEWI
100
AcDbCircle
 10
526.5673293848648
 20
408.1638524116018
 30
0.0
 40
35.0
100
AcDbArc
 50
27.20289441221221
 51
332.7971055877879
  0
LWPOLYLINE
  5
355
330
1F
100
AcDbEntity
  8
HEWI
100
AcDbPolyline
 90
        4
 70
     1
 43
0.0
 10
523.5673293848646
 20
392.163852411602
 10
529.567329384865
 20
392.163852411602
 10
529.567329384865
 20
424.1638524116018
 10
523.5673293848646
 20
424.1638524116018
  0
LWPOLYLINE
  5
356
330
1F
100
AcDbEntity
  8
HEWI
100
AcDbPolyline
 90
        4
 70
     0
 43
0.0
 10
253.9535389364086
 20
443.1638524116017
 10
242.9535389364084
 20
443.1638524116017
 10
242.9535389364084
 20
373.163852411602
 10
253.9535389364086
 20
373.163852411602
  0
LWPOLYLINE
  5
357
330
1F
100
AcDbEntity
  8
HEWI
100
AcDbPolyline
 90
        2
 70
     0
 43
0.0
 10
254.9535389364085
 20
374.163852411602
 10
254.9535389364085
 20
442.1638524116017
  0
ARC
  5
358
330
1F
100
AcDbEntity
  8
HEWI
100
AcDbCircle
 10
253.9535389364086
 20
442.1638524116017
 30
0.0
 40
1.0
100
AcDbArc
 50
0.000000000000007
 51
90.0
  0
ARC
  5
359
330
1F
100
AcDbEntity
  8
HEWI
100
AcDbCircle
 10
253.9535389364086
 20
374.163852411602
 30
0.0
 40
1.0
100
AcDbArc
 50
270.0
 51
0.000000000000007
  0
LINE
  5
35A
330
1F
100
AcDbEntity
  8
HEWI
100
AcDbLine
 10
254.9535389364085
 20
411.163852411602
 30
0.0
 11
254.9535389364085
 21
408.1638524116018
 31
0.0
  0
LINE
  5
35B
330
1F
100
AcDbEntity
  8
HEWI
100
AcDbLine
 10
254.9535389364085
 20
408.1638524116018
 30
0.0
 11
254.9535389364085
 21
405.1638524116017
 31
0.0
  0
ARC
  5
35C
330
1F
100
AcDbEntity
  8
HEWI
100
AcDbCircle
 10
314.9535396870336
 20
408.1638523409193
 30
0.0
 40
16.0
100
AcDbArc
 50
264.6206210088879
 51
95.37937899111208
  0
LINE
  5
35D
330
1F
100
AcDbEntity
  8
HEWI
100
AcDbLine
 10
314.9347453947551
 20
424.1638413026214
 30
0.0
 11
254.9535389364085
 21
424.0933847336759
 31
0.0
  0
LINE
  5
35E
330
1F
100
AcDbEntity
  8
HEWI
100
AcDbLine
 10
313.4535389364085
 20
392.2343200895281
 30
0.0
 11
254.9535389364085
 21
392.2343200895281
 31
0.0
  0
ARC
  5
3EA
330
1F
100
AcDbEntity
  8
HEWI
100
AcDbCircle
 10
826.5673293848648
 20
1008.163852411602
 30
0.0
 40
17.5
100
AcDbArc
 50
336.1044918138346
 51
203.8955081861655
  0
ARC
  5
3EB
330
1F
100
AcDbEntity
  8
HEWI
100
AcDbCircle
 10
526.5673293848648
 20
408.1638524116018
 30
0.0
 40
17.5
100
AcDbArc
 50
66.10449181384272
 51
293.8955081861692
  0
LWPOLYLINE
  5
474
330
1F
100
AcDbEntity
  8
HEWI
100
AcDbPolyline
 90
        4
 70
     0
 43
0.0
 10
810.5673293848647
 20
451.1638524116017
 10
810.5673293848647
 20
1005.163852411601
 10
842.567329384865
 20
1005.163852411601
 10
842.567329384865
 20
451.1638524116017
  0
LINE
  5
482
330
1F
100
AcDbEntity
  8
HEWI
100
AcDbLine
 10
783.5673293848648
 20
392.163852411602
 30
0.0
 11
783.5673293848648
 21
424.1638524116018
 31
0.0
  0
LINE
  5
48A
330
1F
100
AcDbEntity
  8
HEWI
100
AcDbLine
 10
810.5673293848647
 20
451.1638524116017
 30
0.0
 11
842.567329384865
 21
451.1638524116017
 31
0.0
  0
ARC
  5
48C
330
1F
100
AcDbEntity
  8
HEWI
100
AcDbCircle
 10
786.5379073971768
 20
448.19327439929
 30
0.0
 40
56.10811404780645
100
AcDbArc
 50
266.9651234932749
 51
3.034876506727143
  0
LINE
  5
48E
330
1F
100
AcDbEntity
  8
HEWI
100
AcDbLine
 10
810.5673293848647
 20
451.1638524116017
 30
0.0
 11
810.5673293848647
 21
446.2469851403018
 31
0.0
  0
LINE
  5
48F
330
1F
100
AcDbEntity
  8
HEWI
100
AcDbLine
 10
783.5673293848648
 20
424.1638524116018
 30
0.0
 11
788.4841966561659
 21
424.1638524116018
 31
0.0
  0
ARC
  5
491
330
1F
100
AcDbEntity
  8
HEWI
100
AcDbCircle
 10
786.5379073971768
 20
448.19327439929
 30
0.0
 40
24.10811404780645
100
AcDbArc
 50
266.9651234932749
 51
3.034876506727143
  0
LINE
  5
4AF
330
1F
100
AcDbEntity
  8
HEWI
100
AcDbLine
 10
330.9535389364086
 20
408.1638524116018
 30
0.0
 11
330.9535389364086
 21
1005.163852411602
 31
0.0
  0
LINE
  5
4B0
330
1F
100
AcDbEntity
  8
HEWI
100
AcDbLine
 10
298.9535389364085
 20
1011.163852411601
 30
0.0
 11
330.9535389364086
 21
1011.163852411601
 31
0.0
  0
LWPOLYLINE
  5
4B1
330
1F
100
AcDbEntity
  8
HEWI
100
AcDbPolyline
 90
        4
 70
     0
 43
0.0
 10
253.9535389364086
 20
1043.163852411602
 10
242.9535389364084
 20
1043.163852411602
 10
242.9535389364084
 20
973.163852411602
 10
253.9535389364086
 20
973.163852411602
  0
LWPOLYLINE
  5
4B2
330
1F
100
AcDbEntity
  8
HEWI
100
AcDbPolyline
 90
        2
 70
     0
 43
0.0
 10
254.9535389364085
 20
974.1638524116018
 10
254.9535389364085
 20
1042.163852411602
  0
ARC
  5
4B3
330
1F
100
AcDbEntity
  8
HEWI
100
AcDbCircle
 10
253.9535389364086
 20
1042.163852411602
 30
0.0
 40
1.0
100
AcDbArc
 50
0.000000000000007
 51
90.0
  0
ARC
  5
4B4
330
1F
100
AcDbEntity
  8
HEWI
100
AcDbCircle
 10
253.9535389364086
 20
974.1638524116018
 30
0.0
 40
1.0
100
AcDbArc
 50
270.0
 51
0.000000000000007
  0
LINE
  5
4B5
330
1F
100
AcDbEntity
  8
HEWI
100
AcDbLine
 10
254.9535389364085
 20
1011.163852411601
 30
0.0
 11
254.9535389364085
 21
1008.163852411602
 31
0.0
  0
LINE
  5
4B6
330
1F
100
AcDbEntity
  8
HEWI
100
AcDbLine
 10
330.9535389364086
 20
1008.163852411602
 30
0.0
 11
330.9535389364086
 21
1011.163852411601
 31
0.0
  0
LINE
  5
4B7
330
1F
100
AcDbEntity
  8
HEWI
100
AcDbLine
 10
330.9535389364086
 20
1011.163852411601
 30
0.0
 11
254.9535389364085
 21
1011.163852411601
 31
0.0
  0
LINE
  5
4B8
330
1F
100
AcDbEntity
  8
HEWI
100
AcDbLine
 10
254.9535389364085
 20
1008.163852411602
 30
0.0
 11
254.9535389364085
 21
1005.163852411602
 31
0.0
  0
LINE
  5
4B9
330
1F
100
AcDbEntity
  8
HEWI
100
AcDbLine
 10
254.9535389364085
 20
1005.163852411602
 30
0.0
 11
330.9535389364086
 21
1005.163852411602
 31
0.0
  0
LINE
  5
4BA
330
1F
100
AcDbEntity
  8
HEWI
100
AcDbLine
 10
330.9535389364086
 20
1005.163852411602
 30
0.0
 11
330.9535389364086
 21
1008.163852411602
 31
0.0
  0
LINE
  5
4BB
330
1F
100
AcDbEntity
  8
HEWI
100
AcDbLine
 10
299.2307766199767
 20
424.1453947287022
 30
0.0
 11
298.5482867295687
 21
1005.163852411602
 31
0.0
  0
LWPOLYLINE
  5
4C8
330
1F
100
AcDbEntity
  8
HEWI
100
AcDbPolyline
 90
        4
 70
     0
 43
0.0
 10
1125.634538414337
 20
443.1638524116017
 10
1136.634538414337
 20
443.1638524116017
 10
1136.634538414337
 20
373.163852411602
 10
1125.634538414337
 20
373.163852411602
  0
LWPOLYLINE
  5
4C9
330
1F
100
AcDbEntity
  8
HEWI
100
AcDbPolyline
 90
        2
 70
     0
 43
0.0
 10
1124.634538414337
 20
374.163852411602
 10
1124.634538414337
 20
442.1638524116017
  0
ARC
  5
4CA
330
1F
100
AcDbEntity
  8
HEWI
100
AcDbCircle
 10
1125.634538414337
 20
442.1638524116017
 30
0.0
 40
1.0
100
AcDbArc
 50
90.0
 51
180.0
  0
ARC
  5
4CB
330
1F
100
AcDbEntity
  8
HEWI
100
AcDbCircle
 10
1125.634538414337
 20
374.163852411602
 30
0.0
 40
1.0
100
AcDbArc
 50
180.0
 51
270.0
  0
LINE
  5
4CC
330
1F
100
AcDbEntity
  8
HEWI
100
AcDbLine
 10
1124.634538414337
 20
411.163852411602
 30
0.0
 11
1124.634538414337
 21
408.1638524116018
 31
0.0
  0
LINE
  5
4CD
330
1F
100
AcDbEntity
  8
HEWI
100
AcDbLine
 10
1124.634538414337
 20
408.1638524116018
 30
0.0
 11
1124.634538414337
 21
405.1638524116017
 31
0.0
  0
ARC
  5
4CE
330
1F
100
AcDbEntity
  8
HEWI
100
AcDbCircle
 10
1064.634538414337
 20
408.163852411602
 30
0.0
 40
16.0
100
AcDbArc
 50
174.6206210088873
 51
5.379378991112724
  0
LINE
  5
4CF
330
1F
100
AcDbEntity
  8
HEWI
100
AcDbLine
 10
1080.634538414337
 20
424.0933847336759
 30
0.0
 11
1124.634538414337
 21
424.0933847336759
 31
0.0
  0
LINE
  5
4D0
330
1F
100
AcDbEntity
  8
HEWI
100
AcDbLine
 10
1066.134538414337
 20
392.2343200895281
 30
0.0
 11
1124.634538414337
 21
392.2343200895281
 31
0.0
  0
LINE
  5
4D1
330
1F
100
AcDbEntity
  8
HEWI
100
AcDbLine
 10
1048.634538414337
 20
408.1638524116018
 30
0.0
 11
1048.634538414337
 21
1005.163852411602
 31
0.0
  0
LINE
  5
4D2
330
1F
100
AcDbEntity
  8
HEWI
100
AcDbLine
 10
1080.634538414337
 20
408.1638524116018
 30
0.0
 11
1080.634538414337
 21
1005.163852411602
 31
0.0
  0
LINE
  5
4D3
330
1F
100
AcDbEntity
  8
HEWI
100
AcDbLine
 10
1080.634538414337
 20
1011.163852411601
 30
0.0
 11
1048.634538414337
 21
1011.163852411601
 31
0.0
  0
LWPOLYLINE
  5
4D4
330
1F
100
AcDbEntity
  8
HEWI
100
AcDbPolyline
 90
        4
 70
     0
 43
0.0
 10
1125.634538414337
 20
1043.163852411602
 10
1136.634538414337
 20
1043.163852411602
 10
1136.634538414337
 20
973.163852411602
 10
1125.634538414337
 20
973.163852411602
  0
LWPOLYLINE
  5
4D5
330
1F
100
AcDbEntity
  8
HEWI
100
AcDbPolyline
 90
        2
 70
     0
 43
0.0
 10
1124.634538414337
 20
974.1638524116018
 10
1124.634538414337
 20
1042.163852411602
  0
ARC
  5
4D6
330
1F
100
AcDbEntity
  8
HEWI
100
AcDbCircle
 10
1125.634538414337
 20
1042.163852411602
 30
0.0
 40
1.0
100
AcDbArc
 50
90.0
 51
180.0
  0
ARC
  5
4D7
330
1F
100
AcDbEntity
  8
HEWI
100
AcDbCircle
 10
1125.634538414337
 20
974.1638524116018
 30
0.0
 40
1.0
100
AcDbArc
 50
180.0
 51
270.0
  0
LINE
  5
4D8
330
1F
100
AcDbEntity
  8
HEWI
100
AcDbLine
 10
1124.634538414337
 20
1011.163852411601
 30
0.0
 11
1124.634538414337
 21
1008.163852411602
 31
0.0
  0
LINE
  5
4D9
330
1F
100
AcDbEntity
  8
HEWI
100
AcDbLine
 10
1048.634538414337
 20
1008.163852411602
 30
0.0
 11
1048.634538414337
 21
1011.163852411601
 31
0.0
  0
LINE
  5
4DA
330
1F
100
AcDbEntity
  8
HEWI
100
AcDbLine
 10
1048.634538414337
 20
1011.163852411601
 30
0.0
 11
1124.634538414337
 21
1011.163852411601
 31
0.0
  0
LINE
  5
4DB
330
1F
100
AcDbEntity
  8
HEWI
100
AcDbLine
 10
1124.634538414337
 20
1008.163852411602
 30
0.0
 11
1124.634538414337
 21
1005.163852411602
 31
0.0
  0
LINE
  5
4DC
330
1F
100
AcDbEntity
  8
HEWI
100
AcDbLine
 10
1124.634538414337
 20
1005.163852411602
 30
0.0
 11
1048.634538414337
 21
1005.163852411602
 31
0.0
  0
LINE
  5
4DD
330
1F
100
AcDbEntity
  8
HEWI
100
AcDbLine
 10
1048.634538414337
 20
1005.163852411602
 30
0.0
 11
1048.634538414337
 21
1008.163852411602
 31
0.0
  0
ARC
  5
4DE
330
1F
100
AcDbEntity
  8
HEWI
100
AcDbCircle
 10
826.8335084746841
 20
148.1099958923746
 30
0.0
 40
16.0
100
AcDbArc
 50
174.6206210088873
 51
5.379378991112724
  0
LINE
  5
4EB
330
1F
100
AcDbEntity
  8
HEWI
100
AcDbLine
 10
826.5673293848648
 20
451.1638524116017
 30
0.0
 11
810.5673293848647
 21
451.1638524116017
 31
0.0
  0
LINE
  5
4EC
330
1F
100
AcDbEntity
  8
HEWI
100
AcDbLine
 10
330.9535389364086
 20
451.1638524116015
 30
0.0
 11
299.1990395486681
 21
451.1638524116015
 31
0.0
  0
LINE
  5
4EE
330
1F
100
AcDbEntity
  8
HEWI
100
AcDbLine
 10
783.5673293848648
 20
164.1099958923746
 30
0.0
 11
783.5673293848648
 21
132.1099958923746
 31
0.0
  0
LINE
  5
4EF
330
1F
100
AcDbEntity
  8
HEWI
100
AcDbLine
 10
299.1990395486681
 20
451.1638524116017
 30
0.0
 11
330.9535389364086
 21
451.1638524116017
 31
0.0
  0
LINE
  5
4F0
330
1F
100
AcDbEntity
  8
HEWI
100
AcDbLine
 10
810.5673293848647
 20
451.1638524116015
 30
0.0
 11
842.567329384865
 21
451.1638524116015
 31
0.0
  0
LINE
  5
4F1
330
1F
100
AcDbEntity
  8
HEWI
100
AcDbLine
 10
1048.634538414337
 20
451.1638524116017
 30
0.0
 11
1080.634538414337
 21
451.1638524116017
 31
0.0
  0
ENDSEC
  0
SECTION
  2
OBJECTS
  0
DICTIONARY
  5
C
330
0
100
AcDbDictionary
281
     1
  3
ACAD_CIP_PREVIOUS_PRODUCT_INFO
350
1CC
  3
ACAD_COLOR
350
1AC
  3
ACAD_DETAILVIEWSTYLE
350
1C6
  3
ACAD_GROUP
350
D
  3
ACAD_LAYOUT
350
1A
  3
ACAD_MATERIAL
350
17A
  3
ACAD_MLEADERSTYLE
350
1C1
  3
ACAD_MLINESTYLE
350
17
  3
ACAD_PLOTSETTINGS
350
19
  3
ACAD_PLOTSTYLENAME
350
DF
  3
ACAD_SCALELIST
350
1AF
  3
ACAD_SECTIONVIEWSTYLE
350
1C3
  3
ACAD_TABLESTYLE
350
1AD
  3
ACAD_VISUALSTYLE
350
193
  3
ACDB_RECOMPOSE_DATA
350
59B
  3
AcDbVariableDictionary
350
2CB
  0
DICTIONARY
  5
1E1
330
2
100
AcDbDictionary
280
     1
281
     1
  3
ACAD_LAYERSTATES
360
1E2
  0
DICTIONARY
  5
1CD
330
10
100
AcDbDictionary
280
     1
281
     1
  3
ADSK_XREC_LAYER_RECONCILED
360
1CE
  0
DICTIONARY
  5
D9
330
1F
100
AcDbDictionary
280
     1
281
     1
  3
ACAD_LAYOUTSELFREF
360
177
  3
ACAD_SORTENTS
360
292
  0
DICTIONARY
  5
D7
330
1B
100
AcDbDictionary
280
     1
281
     1
  3
ACAD_LAYOUTSELFREF
360
176
  0
XRECORD
  5
1CC
102
{ACAD_REACTORS
330
C
102
}
330
C
100
AcDbXrecord
280
     1
300
ACDLT
300
2021
300
ACDLT_F_S
  0
DICTIONARY
  5
1AC
102
{ACAD_REACTORS
330
C
102
}
330
C
100
AcDbDictionary
281
     1
  0
DICTIONARY
  5
1C6
102
{ACAD_REACTORS
330
C
102
}
330
C
100
AcDbDictionary
281
     1
  3
Imperial24
350
1C7
  0
DICTIONARY
  5
D
102
{ACAD_REACTORS
330
C
102
}
330
C
100
AcDbDictionary
281
     1
  0
DICTIONARY
  5
1A
102
{ACAD_REACTORS
330
C
102
}
330
C
100
AcDbDictionary
281
     1
  3
Layout1
350
1C9
  3
Model
350
1C8
  0
DICTIONARY
  5
17A
102
{ACAD_REACTORS
330
C
102
}
330
C
100
AcDbDictionary
281
     1
  3
ByBlock
350
183
  3
ByLayer
350
17B
  3
Global
350
18B
  0
DICTIONARY
  5
1C1
102
{ACAD_REACTORS
330
C
102
}
330
C
100
AcDbDictionary
281
     1
  3
Standard
350
1C2
  0
DICTIONARY
  5
17
102
{ACAD_REACTORS
330
C
102
}
330
C
100
AcDbDictionary
281
     1
  3
STANDARD
350
18
  0
DICTIONARY
  5
19
102
{ACAD_REACTORS
330
C
102
}
330
C
100
AcDbDictionary
281
     1
  0
ACDBDICTIONARYWDFLT
  5
DF
102
{ACAD_REACTORS
330
C
102
}
330
C
100
AcDbDictionary
281
     1
  3
Normal
350
E0
100
AcDbDictionaryWithDefault
340
E0
  0
DICTIONARY
  5
1AF
102
{ACAD_REACTORS
330
C
102
}
330
C
100
AcDbDictionary
281
     1
  3
A0
350
1B0
  3
A1
350
1B1
  3
A2
350
1B2
  3
A3
350
1B3
  3
A4
350
1B4
  3
A5
350
1B5
  3
A6
350
1B6
  3
A7
350
1B7
  3
A8
350
1B8
  3
A9
350
1B9
  3
B0
350
1BA
  3
B1
350
1BB
  3
B2
350
1BC
  3
B3
350
1BD
  3
B4
350
1BE
  3
B5
350
1BF
  3
B6
350
1C0
  0
DICTIONARY
  5
1C3
102
{ACAD_REACTORS
330
C
102
}
330
C
100
AcDbDictionary
281
     1
  3
Imperial24
350
1C5
  0
DICTIONARY
  5
1AD
102
{ACAD_REACTORS
330
C
102
}
330
C
100
AcDbDictionary
281
     1
  3
Standard
350
1AE
  0
DICTIONARY
  5
193
102
{ACAD_REACTORS
330
C
102
}
330
C
100
AcDbDictionary
281
     1
  3
2dWireframe
350
199
  3
Basic
350
198
  3
Brighten
350
19F
  3
ColorChange
350
1A3
  3
Conceptual
350
19C
  3
Dim
350
19E
  3
EdgeColorOff
350
1AB
  3
Facepattern
350
1A2
  3
Flat
350
194
  3
FlatWithEdges
350
195
  3
Gouraud
350
196
  3
GouraudWithEdges
350
197
  3
Hidden
350
19B
  3
JitterOff
350
1A9
  3
Linepattern
350
1A1
  3
OverhangOff
350
1AA
  3
Realistic
350
19D
  3
Shaded
350
1A8
  3
Shaded with edges
350
1A7
  3
Shades of Gray
350
1A4
  3
Sketchy
350
1A5
  3
Thicken
350
1A0
  3
Wireframe
350
19A
  3
X-Ray
350
1A6
  0
XRECORD
  5
59B
102
{ACAD_REACTORS
330
C
102
}
330
C
100
AcDbXrecord
280
     1
 90
        1
330
1AE
  0
DICTIONARY
  5
2CB
102
{ACAD_REACTORS
330
C
102
}
330
C
100
AcDbDictionary
281
     1
  3
CANNOSCALE
350
2D1
  3
CMLEADERSTYLE
350
2CD
  3
CTABLESTYLE
350
2CC
  3
CVIEWDETAILSTYLE
350
2CE
  3
CVIEWSECTIONSTYLE
350
2CF
  3
LAYEREVAL
350
2D3
  3
LAYERNOTIFY
350
2D4
  3
LIGHTINGUNITS
350
2D2
  3
MSLTSCALE
350
2D0
  0
DICTIONARY
  5
1E2
102
{ACAD_REACTORS
330
1E1
102
}
330
1E1
100
AcDbDictionary
281
     1
  0
XRECORD
  5
1CE
102
{ACAD_REACTORS
330
1CD
102
}
330
1CD
100
AcDbXrecord
280
     1
290
     1
  0
XRECORD
  5
177
102
{ACAD_REACTORS
330
D9
102
}
330
D9
100
AcDbXrecord
280
     1
340
1F
  0
SORTENTSTABLE
  5
292
102
{ACAD_REACTORS
330
D9
102
}
330
D9
100
AcDbSortentsTable
330
1F
331
482
  5
48A
331
48A
  5
482
331
48E
  5
48F
331
48F
  5
491
331
491
  5
48E
331
4B0
  5
4B1
331
4B1
  5
4B2
331
4B2
  5
4B3
331
4B3
  5
4B4
331
4B4
  5
4B5
331
4B5
  5
4B6
331
4B6
  5
4B7
331
4B7
  5
4B8
331
4B8
  5
4B9
331
4B9
  5
4BA
331
4BA
  5
4BB
331
4BB
  5
4B0
331
4EC
  5
4ED
331
4EE
  5
4F1
331
4EF
  5
4EC
331
4F0
  5
4EE
331
4F1
  5
4EF
  0
XRECORD
  5
176
102
{ACAD_REACTORS
330
D7
102
}
330
D7
100
AcDbXrecord
280
     1
340
1B
  0
ACDBDETAILVIEWSTYLE
  5
1C7
102
{ACAD_XDICTIONARY
360
59E
102
}
102
{ACAD_REACTORS
330
1C6
102
}
330
1C6
100
AcDbModelDocViewStyle
 70
     0
  3
Imperial24
290
     0
100
AcDbDetailViewStyle
 70
     0
 71
     0
 90
        3
 71
     1
340
11
 62
   256
 40
0.24
340
0
 62
   256
 40
0.24
300

 40
0.36
280
     3
 71
     2
340
16
 90
       25
 62
   256
 71
     3
340
11
 62
   256
 40
0.24
 90
        1
 40
0.75
 90
        1
300
%<\AcVar ViewType \f "%tc1">% %<\AcVar ViewDetailId>%\PVARIA %<\AcVar ViewScale \f "%sn">%
 71
     4
340
16
 90
       25
 62
   256
340
16
 90
       25
 62
   256
280
     0
  0
LAYOUT
  5
1C9
102
{ACAD_REACTORS
330
1A
102
}
330
1A
100
AcDbPlotSettings
  1

  2
\\srvadruck01\MFSA15
  4

  6

 40
0.0
 41
0.0
 42
0.0
 43
0.0
 44
0.0
 45
0.0
 46
0.0
 47
0.0
 48
0.0
 49
0.0
140
0.0
141
0.0
142
1.0
143
1.0
 70
   688
 72
     0
 73
     0
 74
     5
  7

 75
    16
147
1.0
 76
     0
 77
     2
 78
   300
148
0.0
149
0.0
100
AcDbLayout
  1
Layout1
 70
     1
 71
     1
 10
0.0
 20
0.0
 11
12.0
 21
9.0
 12
0.0
 22
0.0
 32
0.0
 14
1.000000000000000E+20
 24
1.000000000000000E+20
 34
1.000000000000000E+20
 15
-1.000000000000000E+20
 25
-1.000000000000000E+20
 35
-1.000000000000000E+20
146
0.0
 13
0.0
 23
0.0
 33
0.0
 16
1.0
 26
0.0
 36
0.0
 17
0.0
 27
1.0
 37
0.0
 76
     0
330
1B
  0
LAYOUT
  5
1C8
102
{ACAD_REACTORS
330
1A
102
}
330
1A
100
AcDbPlotSettings
  1

  2
\\srvadruck01\MFSA15
  4
A4
  6

 40
5.027082920074462
 41
5.027099609375
 42
5.027069091796875
 43
5.027069091796875
 44
209.9733276367186
 45
296.9259948730469
 46
0.0
 47
0.0
 48
0.0
 49
0.0
140
0.0
141
0.0
142
1.0
143
250.9557649309207
 70
 11952
 72
     0
 73
     1
 74
     0
  7

 75
     0
147
0.003984766001591
 76
     0
 77
     2
 78
   300
148
18758.74732672532
149
6385.478578639141
100
AcDbLayout
  1
Model
 70
     1
 71
     0
 10
0.0
 20
0.0
 11
12.0
 21
9.0
 12
0.0
 22
0.0
 32
0.0
 14
0.0
 24
0.0
 34
0.0
 15
0.0
 25
0.0
 35
0.0
146
0.0
 13
0.0
 23
0.0
 33
0.0
 16
1.0
 26
0.0
 36
0.0
 17
0.0
 27
1.0
 37
0.0
 76
     0
330
1F
331
155
1001
ACAD_PSEXT
1000
\\srvadruck01\MFSA15
1000
KONICA MINOLTA C754SeriesPCL
1000
Marketing
1000

1070
     0
  0
MATERIAL
  5
183
102
{ACAD_XDICTIONARY
360
184
102
}
102
{ACAD_REACTORS
330
17A
102
}
330
17A
100
AcDbMaterial
  1
ByBlock
 72
     0
 43
0.0208333333333333
 43
0.0
 43
0.0
 43
0.0
 43
0.0
 43
0.0208333333333333
 43
0.0
 43
0.0
 43
0.0
 43
0.0
 43
1.0
 43
0.0
 43
0.0
 43
0.0
 43
0.0
 43
1.0
 77
     0
 47
0.0208333333333333
 47
0.0
 47
0.0
 47
0.0
 47
0.0
 47
0.0208333333333333
 47
0.0
 47
0.0
 47
0.0
 47
0.0
 47
1.0
 47
0.0
 47
0.0
 47
0.0
 47
0.0
 47
1.0
171
     0
 49
0.0208333333333333
 49
0.0
 49
0.0
 49
0.0
 49
0.0
 49
0.0208333333333333
 49
0.0
 49
0.0
 49
0.0
 49
0.0
 49
1.0
 49
0.0
 49
0.0
 49
0.0
 49
0.0
 49
1.0
175
     0
142
0.0208333333333333
142
0.0
142
0.0
142
0.0
142
0.0
142
0.0208333333333333
142
0.0
142
0.0
142
0.0
142
0.0
142
1.0
142
0.0
142
0.0
142
0.0
142
0.0
142
1.0
179
     0
144
0.0208333333333333
144
0.0
144
0.0
144
0.0
144
0.0
144
0.0208333333333333
144
0.0
144
0.0
144
0.0
144
0.0
144
1.0
144
0.0
144
0.0
144
0.0
144
0.0
144
1.0
147
0.0208333333333333
147
0.0
147
0.0
147
0.0
147
0.0
147
0.0208333333333333
147
0.0
147
0.0
147
0.0
147
0.0
147
1.0
147
0.0
147
0.0
147
0.0
147
0.0
147
1.0
  0
MATERIAL
  5
17B
102
{ACAD_XDICTIONARY
360
17C
102
}
102
{ACAD_REACTORS
330
17A
102
}
330
17A
100
AcDbMaterial
  1
ByLayer
 72
     0
 43
0.0208333333333333
 43
0.0
 43
0.0
 43
0.0
 43
0.0
 43
0.0208333333333333
 43
0.0
 43
0.0
 43
0.0
 43
0.0
 43
1.0
 43
0.0
 43
0.0
 43
0.0
 43
0.0
 43
1.0
 77
     0
 47
0.0208333333333333
 47
0.0
 47
0.0
 47
0.0
 47
0.0
 47
0.0208333333333333
 47
0.0
 47
0.0
 47
0.0
 47
0.0
 47
1.0
 47
0.0
 47
0.0
 47
0.0
 47
0.0
 47
1.0
171
     0
 49
0.0208333333333333
 49
0.0
 49
0.0
 49
0.0
 49
0.0
 49
0.0208333333333333
 49
0.0
 49
0.0
 49
0.0
 49
0.0
 49
1.0
 49
0.0
 49
0.0
 49
0.0
 49
0.0
 49
1.0
175
     0
142
0.0208333333333333
142
0.0
142
0.0
142
0.0
142
0.0
142
0.0208333333333333
142
0.0
142
0.0
142
0.0
142
0.0
142
1.0
142
0.0
142
0.0
142
0.0
142
0.0
142
1.0
179
     0
144
0.0208333333333333
144
0.0
144
0.0
144
0.0
144
0.0
144
0.0208333333333333
144
0.0
144
0.0
144
0.0
144
0.0
144
1.0
144
0.0
144
0.0
144
0.0
144
0.0
144
1.0
147
0.0208333333333333
147
0.0
147
0.0
147
0.0
147
0.0
147
0.0208333333333333
147
0.0
147
0.0
147
0.0
147
0.0
147
1.0
147
0.0
147
0.0
147
0.0
147
0.0
147
1.0
  0
MATERIAL
  5
18B
102
{ACAD_XDICTIONARY
360
18C
102
}
102
{ACAD_REACTORS
330
17A
102
}
330
17A
100
AcDbMaterial
  1
Global
 72
     0
 43
0.0208333333333333
 43
0.0
 43
0.0
 43
0.0
 43
0.0
 43
0.0208333333333333
 43
0.0
 43
0.0
 43
0.0
 43
0.0
 43
1.0
 43
0.0
 43
0.0
 43
0.0
 43
0.0
 43
1.0
 77
     0
 47
0.0208333333333333
 47
0.0
 47
0.0
 47
0.0
 47
0.0
 47
0.0208333333333333
 47
0.0
 47
0.0
 47
0.0
 47
0.0
 47
1.0
 47
0.0
 47
0.0
 47
0.0
 47
0.0
 47
1.0
171
     0
 49
0.0208333333333333
 49
0.0
 49
0.0
 49
0.0
 49
0.0
 49
0.0208333333333333
 49
0.0
 49
0.0
 49
0.0
 49
0.0
 49
1.0
 49
0.0
 49
0.0
 49
0.0
 49
0.0
 49
1.0
175
     0
142
0.0208333333333333
142
0.0
142
0.0
142
0.0
142
0.0
142
0.0208333333333333
142
0.0
142
0.0
142
0.0
142
0.0
142
1.0
142
0.0
142
0.0
142
0.0
142
0.0
142
1.0
179
     0
144
0.0208333333333333
144
0.0
144
0.0
144
0.0
144
0.0
144
0.0208333333333333
144
0.0
144
0.0
144
0.0
144
0.0
144
1.0
144
0.0
144
0.0
144
0.0
144
0.0
144
1.0
147
0.0208333333333333
147
0.0
147
0.0
147
0.0
147
0.0
147
0.0208333333333333
147
0.0
147
0.0
147
0.0
147
0.0
147
1.0
147
0.0
147
0.0
147
0.0
147
0.0
147
1.0
  0
MLEADERSTYLE
  5
1C2
102
{ACAD_REACTORS
330
1C1
102
}
330
1C1
100
AcDbMLeaderStyle
179
     2
170
     2
171
     1
172
     0
 90
        2
 40
0.0
 41
0.0
173
     1
 91
-1056964608
340
14
 92
       -2
290
     1
 42
0.09
291
     1
 43
0.36
  3
Standard
 44
0.18
300

342
11
174
     1
178
     6
175
     1
176
     0
 93
-1056964608
 45
0.18
292
     0
297
     0
 46
0.18
 94
-1056964608
 47
1.0
 49
1.0
140
1.0
293
     1
141
0.0
294
     1
177
     0
142
1.0
295
     0
296
     0
143
0.125
271
     0
272
     9
273
     9
298
     0
  0
MLINESTYLE
  5
18
102
{ACAD_REACTORS
330
17
102
}
330
17
100
AcDbMlineStyle
  2
STANDARD
 70
     0
  3

 62
   256
 51
90.0
 52
90.0
 71
     2
 49
0.5
 62
   256
  6
BYLAYER
 49
-0.5
 62
   256
  6
BYLAYER
  0
ACDBPLACEHOLDER
  5
E0
102
{ACAD_REACTORS
330
DF
102
}
330
DF
  0
SCALE
  5
1B0
102
{ACAD_REACTORS
330
1AF
102
}
330
1AF
100
AcDbScale
 70
     0
300
1:1
140
1.0
141
1.0
290
     1
  0
SCALE
  5
1B1
102
{ACAD_REACTORS
330
1AF
102
}
330
1AF
100
AcDbScale
 70
     0
300
1/128" = 1'-0"
140
0.0078125
141
12.0
290
     0
  0
SCALE
  5
1B2
102
{ACAD_REACTORS
330
1AF
102
}
330
1AF
100
AcDbScale
 70
     0
300
1/64" = 1'-0"
140
0.015625
141
12.0
290
     0
  0
SCALE
  5
1B3
102
{ACAD_REACTORS
330
1AF
102
}
330
1AF
100
AcDbScale
 70
     0
300
1/32" = 1'-0"
140
0.03125
141
12.0
290
     0
  0
SCALE
  5
1B4
102
{ACAD_REACTORS
330
1AF
102
}
330
1AF
100
AcDbScale
 70
     0
300
1/16" = 1'-0"
140
0.0625
141
12.0
290
     0
  0
SCALE
  5
1B5
102
{ACAD_REACTORS
330
1AF
102
}
330
1AF
100
AcDbScale
 70
     0
300
3/32" = 1'-0"
140
0.09375
141
12.0
290
     0
  0
SCALE
  5
1B6
102
{ACAD_REACTORS
330
1AF
102
}
330
1AF
100
AcDbScale
 70
     0
300
1/8" = 1'-0"
140
0.125
141
12.0
290
     0
  0
SCALE
  5
1B7
102
{ACAD_REACTORS
330
1AF
102
}
330
1AF
100
AcDbScale
 70
     0
300
3/16" = 1'-0"
140
0.1875
141
12.0
290
     0
  0
SCALE
  5
1B8
102
{ACAD_REACTORS
330
1AF
102
}
330
1AF
100
AcDbScale
 70
     0
300
1/4" = 1'-0"
140
0.25
141
12.0
290
     0
  0
SCALE
  5
1B9
102
{ACAD_REACTORS
330
1AF
102
}
330
1AF
100
AcDbScale
 70
     0
300
3/8" = 1'-0"
140
0.375
141
12.0
290
     0
  0
SCALE
  5
1BA
102
{ACAD_REACTORS
330
1AF
102
}
330
1AF
100
AcDbScale
 70
     0
300
1/2" = 1'-0"
140
0.5
141
12.0
290
     0
  0
SCALE
  5
1BB
102
{ACAD_REACTORS
330
1AF
102
}
330
1AF
100
AcDbScale
 70
     0
300
3/4" = 1'-0"
140
0.75
141
12.0
290
     0
  0
SCALE
  5
1BC
102
{ACAD_REACTORS
330
1AF
102
}
330
1AF
100
AcDbScale
 70
     0
300
1" = 1'-0"
140
1.0
141
12.0
290
     0
  0
SCALE
  5
1BD
102
{ACAD_REACTORS
330
1AF
102
}
330
1AF
100
AcDbScale
 70
     0
300
1-1/2" = 1'-0"
140
1.5
141
12.0
290
     0
  0
SCALE
  5
1BE
102
{ACAD_REACTORS
330
1AF
102
}
330
1AF
100
AcDbScale
 70
     0
300
3" = 1'-0"
140
3.0
141
12.0
290
     0
  0
SCALE
  5
1BF
102
{ACAD_REACTORS
330
1AF
102
}
330
1AF
100
AcDbScale
 70
     0
300
6" = 1'-0"
140
6.0
141
12.0
290
     0
  0
SCALE
  5
1C0
102
{ACAD_REACTORS
330
1AF
102
}
330
1AF
100
AcDbScale
 70
     0
300
1'-0" = 1'-0"
140
12.0
141
12.0
290
     0
  0
ACDBSECTIONVIEWSTYLE
  5
1C5
102
{ACAD_XDICTIONARY
360
59C
102
}
102
{ACAD_REACTORS
330
1C3
102
}
330
1C3
100
AcDbModelDocViewStyle
 70
     0
  3
Imperial24
290
     0
100
AcDbSectionViewStyle
 70
     0
 71
     0
 90
       78
 71
     1
340
11
 62
   256
 40
0.24
340
0
340
0
 62
   256
 40
0.24
300
I, O, Q, S, X, Z
 40
0.48
 90
        3
 40
0.18
 90
        1
 71
     2
340
1C4
 90
       25
 62
   256
340
16
 90
       50
 62
   256
 40
0.24
 40
0.0
 40
0.24
 71
     3
340
11
 62
   256
 40
0.24
 90
        1
 40
0.75
 90
        1
300
%<\AcVar ViewType \f "%tc1">% %<\AcVar ViewSectionStartId>%-%<\AcVar ViewSectionEndId>%\PVARIA %<\AcVar ViewScale \f "%sn">%
 71
     4
 62
   256
 62
   257
300
ANSI31
 40
1.0
 90
        0
290
     0
290
     0
 90
        6
 40
0.0
 40
1.570796326794896
 40
0.2617993877991494
 40
1.308996938995747
 40
-0.2617993877991494
 40
1.832595714594044
  0
TABLESTYLE
  5
1AE
102
{ACAD_XDICTIONARY
360
35F
102
}
102
{ACAD_REACTORS
330
1AD
102
}
330
1AD
100
AcDbTableStyle
280
     0
  3
Standard
 70
     0
 71
     0
 40
0.06
 41
0.06
280
     0
281
     0
  7
STANDARD
140
0.18
170
     2
 62
     0
 63
     7
283
     0
 90
      512
 91
        0
  1

274
    -2
284
     1
 64
     0
275
    -2
285
     1
 65
     0
276
    -2
286
     1
 66
     0
277
    -2
287
     1
 67
     0
278
    -2
288
     1
 68
     0
279
    -2
289
     1
 69
     0
  7
STANDARD
140
0.25
170
     5
 62
     0
 63
     7
283
     0
 90
      512
 91
        0
  1

274
    -2
284
     1
 64
     0
275
    -2
285
     1
 65
     0
276
    -2
286
     1
 66
     0
277
    -2
287
     1
 67
     0
278
    -2
288
     1
 68
     0
279
    -2
289
     1
 69
     0
  7
STANDARD
140
0.18
170
     5
 62
     0
 63
     7
283
     0
 90
      512
 91
        0
  1

274
    -2
284
     1
 64
     0
275
    -2
285
     1
 65
     0
276
    -2
286
     1
 66
     0
277
    -2
287
     1
 67
     0
278
    -2
288
     1
 68
     0
279
    -2
289
     1
 69
     0
  0
VISUALSTYLE
  5
199
102
{ACAD_REACTORS
330
193
102
}
330
193
100
AcDbVisualStyle
  2
2dWireframe
 70
     4
177
     3
291
     0
 70
    58
 90
        0
176
     1
 90
        2
176
     1
 90
        0
176
     1
 90
        0
176
     1
 40
0.6
176
     1
 40
30.0
176
     1
 62
     7
420
 16777215
176
     1
 90
        1
176
     1
 90
        4
176
     1
 62
     7
176
     1
 62
   257
176
     1
 90
        1
176
     1
 90
        1
176
     1
 40
1.0
176
     1
 90
        0
176
     1
 62
   257
176
     1
 40
1.0
176
     1
 90
        1
176
     1
 90
        6
176
     1
 90
        2
176
     1
 62
     7
176
     1
 90
        5
176
     1
 90
        0
176
     1
 90
        0
176
     1
290
     0
176
     1
 90
        1
176
     1
 40
0.0
176
     1
 90
        0
176
     1
290
     1
176
     1
290
     1
176
     1
290
     0
176
     1
290
     0
176
     1
290
     0
176
     1
290
     0
176
     1
290
     0
176
     1
290
     0
176
     1
290
     0
176
     1
 90
       50
176
     1
 40
0.0
176
     1
 40
1.0
176
     1
 90
        0
176
     1
 62
    18
420
        0
176
     1
 90
       50
176
     1
 90
        3
176
     1
 62
     5
420
      255
176
     1
290
     0
176
     1
 90
       50
176
     1
 90
       50
176
     1
 90
       50
176
     1
290
     0
176
     1
 90
       50
176
     1
 62
   256
176
     0
 40
1.0
176
     0
 90
        2
176
     1
  1
strokes_ogs.tif
176
     1
290
     0
176
     1
 40
1.0
176
     1
 40
1.0
176
     1
1001
ACAD
1000
AcDbSavedByObjectVersion
1070
     0
  0
VISUALSTYLE
  5
198
102
{ACAD_REACTORS
330
193
102
}
330
193
100
AcDbVisualStyle
  2
Basic
 70
     7
177
     3
291
     1
 70
    58
 90
        1
176
     1
 90
        0
176
     1
 90
        1
176
     1
 90
        0
176
     1
 40
0.6
176
     1
 40
30.0
176
     1
 62
     7
420
 16777215
176
     1
 90
        0
176
     1
 90
        4
176
     1
 62
     7
176
     1
 62
   257
176
     1
 90
        1
176
     1
 90
        1
176
     1
 40
1.0
176
     1
 90
        8
176
     1
 62
     7
176
     1
 40
1.0
176
     1
 90
        1
176
     1
 90
        6
176
     1
 90
        2
176
     1
 62
     7
176
     1
 90
        5
176
     1
 90
        0
176
     1
 90
        0
176
     1
290
     0
176
     1
 90
        1
176
     1
 40
0.0
176
     1
 90
        0
176
     1
290
     0
176
     1
290
     1
176
     1
290
     1
176
     1
290
     0
176
     1
290
     0
176
     1
290
     0
176
     1
290
     0
176
     1
290
     0
176
     1
290
     0
176
     1
 90
       50
176
     1
 40
0.0
176
     1
 40
1.0
176
     1
 90
        0
176
     1
 62
    18
420
        0
176
     1
 90
       50
176
     1
 90
        3
176
     1
 62
     5
420
      255
176
     1
290
     0
176
     1
 90
       50
176
     1
 90
       50
176
     1
 90
       50
176
     1
290
     0
176
     1
 90
       50
176
     1
 62
   256
176
     0
 40
1.0
176
     0
 90
        2
176
     1
  1
strokes_ogs.tif
176
     1
290
     0
176
     1
 40
1.0
176
     1
 40
1.0
176
     1
1001
ACAD
1000
AcDbSavedByObjectVersion
1070
     0
  0
VISUALSTYLE
  5
19F
102
{ACAD_REACTORS
330
193
102
}
330
193
100
AcDbVisualStyle
  2
Brighten
 70
    12
177
     3
291
     1
 70
    58
 90
        2
176
     1
 90
        2
176
     1
 90
        0
176
     1
 90
        0
176
     1
 40
0.6
176
     1
 40
30.0
176
     1
 62
     7
420
 16777215
176
     1
 90
        1
176
     1
 90
        4
176
     1
 62
     7
176
     1
 62
   257
176
     1
 90
        1
176
     1
 90
        1
176
     1
 40
1.0
176
     1
 90
        8
176
     1
 62
     7
176
     1
 40
1.0
176
     1
 90
        1
176
     1
 90
        6
176
     1
 90
        2
176
     1
 62
     7
176
     1
 90
        5
176
     1
 90
        0
176
     1
 90
        0
176
     1
290
     0
176
     1
 90
        1
176
     1
 40
50.0
176
     1
 90
        0
176
     1
290
     0
176
     1
290
     1
176
     1
290
     1
176
     1
290
     0
176
     1
290
     0
176
     1
290
     0
176
     1
290
     0
176
     1
290
     0
176
     1
290
     0
176
     1
 90
       50
176
     1
 40
0.0
176
     1
 40
1.0
176
     1
 90
        0
176
     1
 62
    18
420
        0
176
     1
 90
       50
176
     1
 90
        3
176
     1
 62
     5
420
      255
176
     1
290
     0
176
     1
 90
       50
176
     1
 90
       50
176
     1
 90
       50
176
     1
290
     0
176
     1
 90
       50
176
     1
 62
   256
176
     0
 40
1.0
176
     0
 90
        2
176
     1
  1
strokes_ogs.tif
176
     1
290
     0
176
     1
 40
1.0
176
     1
 40
1.0
176
     1
1001
ACAD
1000
AcDbSavedByObjectVersion
1070
     0
  0
VISUALSTYLE
  5
1A3
102
{ACAD_REACTORS
330
193
102
}
330
193
100
AcDbVisualStyle
  2
ColorChange
 70
    16
177
     3
291
     1
 70
    58
 90
        2
176
     1
 90
        2
176
     1
 90
        3
176
     1
 90
        0
176
     1
 40
0.6
176
     1
 40
30.0
176
     1
 62
     8
420
  8421504
176
     1
 90
        1
176
     1
 90
        4
176
     1
 62
     7
176
     1
 62
   257
176
     1
 90
        1
176
     1
 90
        1
176
     1
 40
1.0
176
     1
 90
        8
176
     1
 62
     8
420
  8421504
176
     1
 40
1.0
176
     1
 90
        1
176
     1
 90
        6
176
     1
 90
        2
176
     1
 62
     7
176
     1
 90
        5
176
     1
 90
        0
176
     1
 90
        0
176
     1
290
     0
176
     1
 90
        1
176
     1
 40
0.0
176
     1
 90
        0
176
     1
290
     0
176
     1
290
     1
176
     1
290
     1
176
     1
290
     0
176
     1
290
     0
176
     1
290
     0
176
     1
290
     0
176
     1
290
     0
176
     1
290
     0
176
     1
 90
       50
176
     1
 40
0.0
176
     1
 40
1.0
176
     1
 90
        0
176
     1
 62
    18
420
        0
176
     1
 90
       50
176
     1
 90
        3
176
     1
 62
     5
420
      255
176
     1
290
     0
176
     1
 90
       50
176
     1
 90
       50
176
     1
 90
       50
176
     1
290
     0
176
     1
 90
       50
176
     1
 62
   256
176
     0
 40
1.0
176
     0
 90
        2
176
     1
  1
strokes_ogs.tif
176
     1
290
     0
176
     1
 40
1.0
176
     1
 40
1.0
176
     1
1001
ACAD
1000
AcDbSavedByObjectVersion
1070
     0
  0
VISUALSTYLE
  5
19C
102
{ACAD_REACTORS
330
193
102
}
330
193
100
AcDbVisualStyle
  2
Conceptual
 70
     9
177
     3
291
     0
 70
    58
 90
        3
176
     1
 90
        2
176
     1
 90
        0
176
     1
 90
        0
176
     1
 40
0.6
176
     1
 40
30.0
176
     1
 62
     7
420
 16777215
176
     1
 90
        2
176
     1
 90
        2
176
     1
 62
     7
176
     1
 62
   257
176
     1
 90
        1
176
     1
 90
        1
176
     1
 40
179.0
176
     1
 90
        8
176
     1
 62
     7
176
     1
 40
1.0
176
     1
 90
        1
176
     1
 90
        6
176
     1
 90
        2
176
     1
 62
     7
176
     1
 90
        3
176
     1
 90
        0
176
     1
 90
        0
176
     1
290
     0
176
     1
 90
        1
176
     1
 40
0.0
176
     1
 90
        0
176
     1
290
     0
176
     1
290
     1
176
     1
290
     1
176
     1
290
     0
176
     1
290
     0
176
     1
290
     0
176
     1
290
     0
176
     1
290
     0
176
     1
290
     0
176
     1
 90
       50
176
     1
 40
0.0
176
     1
 40
1.0
176
     1
 90
        0
176
     1
 62
    18
420
        0
176
     1
 90
       50
176
     1
 90
        3
176
     1
 62
     5
420
      255
176
     1
290
     0
176
     1
 90
       50
176
     1
 90
       50
176
     1
 90
       50
176
     1
290
     0
176
     1
 90
       50
176
     1
 62
   256
176
     0
 40
1.0
176
     0
 90
        2
176
     1
  1
strokes_ogs.tif
176
     1
290
     0
176
     1
 40
1.0
176
     1
 40
1.0
176
     1
1001
ACAD
1000
AcDbSavedByObjectVersion
1070
     0
  0
VISUALSTYLE
  5
19E
102
{ACAD_REACTORS
330
193
102
}
330
193
100
AcDbVisualStyle
  2
Dim
 70
    11
177
     3
291
     1
 70
    58
 90
        2
176
     1
 90
        2
176
     1
 90
        0
176
     1
 90
        0
176
     1
 40
0.6
176
     1
 40
30.0
176
     1
 62
     7
420
 16777215
176
     1
 90
        1
176
     1
 90
        4
176
     1
 62
     7
176
     1
 62
   257
176
     1
 90
        1
176
     1
 90
        1
176
     1
 40
1.0
176
     1
 90
        8
176
     1
 62
     7
176
     1
 40
1.0
176
     1
 90
        1
176
     1
 90
        6
176
     1
 90
        2
176
     1
 62
     7
176
     1
 90
        5
176
     1
 90
        0
176
     1
 90
        0
176
     1
290
     0
176
     1
 90
        1
176
     1
 40
-50.0
176
     1
 90
        0
176
     1
290
     0
176
     1
290
     1
176
     1
290
     1
176
     1
290
     0
176
     1
290
     0
176
     1
290
     0
176
     1
290
     0
176
     1
290
     0
176
     1
290
     0
176
     1
 90
       50
176
     1
 40
0.0
176
     1
 40
1.0
176
     1
 90
        0
176
     1
 62
    18
420
        0
176
     1
 90
       50
176
     1
 90
        3
176
     1
 62
     5
420
      255
176
     1
290
     0
176
     1
 90
       50
176
     1
 90
       50
176
     1
 90
       50
176
     1
290
     0
176
     1
 90
       50
176
     1
 62
   256
176
     0
 40
1.0
176
     0
 90
        2
176
     1
  1
strokes_ogs.tif
176
     1
290
     0
176
     1
 40
1.0
176
     1
 40
1.0
176
     1
1001
ACAD
1000
AcDbSavedByObjectVersion
1070
     0
  0
VISUALSTYLE
  5
1AB
102
{ACAD_REACTORS
330
193
102
}
330
193
100
AcDbVisualStyle
  2
EdgeColorOff
 70
    22
177
     3
291
     1
 70
    58
 90
        2
176
     0
 90
        2
176
     0
 90
        0
176
     0
 90
        0
176
     0
 40
0.6
176
     0
 40
30.0
176
     0
 62
     7
420
 16777215
176
     0
 90
        1
176
     0
 90
        4
176
     0
 62
     7
176
     0
 62
   257
176
     0
 90
        1
176
     0
 90
        1
176
     0
 40
1.0
176
     0
 90
        8
176
     2
 62
     7
176
     0
 40
1.0
176
     0
 90
        1
176
     0
 90
        6
176
     0
 90
        2
176
     0
 62
     7
176
     0
 90
        5
176
     0
 90
        0
176
     0
 90
        0
176
     0
290
     0
176
     0
 90
        1
176
     0
 40
0.0
176
     0
 90
        0
176
     0
290
     0
176
     1
290
     1
176
     1
290
     1
176
     1
290
     0
176
     1
290
     0
176
     1
290
     0
176
     1
290
     0
176
     1
290
     0
176
     1
290
     0
176
     1
 90
       50
176
     0
 40
0.0
176
     0
 40
1.0
176
     0
 90
        0
176
     0
 62
    18
420
        0
176
     0
 90
       50
176
     0
 90
        3
176
     0
 62
     5
420
      255
176
     0
290
     0
176
     1
 90
       50
176
     0
 90
       50
176
     0
 90
       50
176
     0
290
     0
176
     1
 90
       50
176
     0
 62
   256
176
     0
 40
1.0
176
     0
 90
        2
176
     0
  1
strokes_ogs.tif
176
     0
290
     0
176
     1
 40
1.0
176
     0
 40
1.0
176
     0
1001
ACAD
1000
AcDbSavedByObjectVersion
1070
     0
  0
VISUALSTYLE
  5
1A2
102
{ACAD_REACTORS
330
193
102
}
330
193
100
AcDbVisualStyle
  2
Facepattern
 70
    15
177
     3
291
     1
 70
    58
 90
        2
176
     1
 90
        2
176
     1
 90
        0
176
     1
 90
        0
176
     1
 40
0.6
176
     1
 40
30.0
176
     1
 62
     7
420
 16777215
176
     1
 90
        1
176
     1
 90
        4
176
     1
 62
     7
176
     1
 62
   257
176
     1
 90
        1
176
     1
 90
        1
176
     1
 40
1.0
176
     1
 90
        8
176
     1
 62
     7
176
     1
 40
1.0
176
     1
 90
        1
176
     1
 90
        6
176
     1
 90
        2
176
     1
 62
     7
176
     1
 90
        5
176
     1
 90
        0
176
     1
 90
        0
176
     1
290
     0
176
     1
 90
        1
176
     1
 40
0.0
176
     1
 90
        0
176
     1
290
     0
176
     1
290
     1
176
     1
290
     1
176
     1
290
     0
176
     1
290
     0
176
     1
290
     0
176
     1
290
     0
176
     1
290
     0
176
     1
290
     0
176
     1
 90
       50
176
     1
 40
0.0
176
     1
 40
1.0
176
     1
 90
        0
176
     1
 62
    18
420
        0
176
     1
 90
       50
176
     1
 90
        3
176
     1
 62
     5
420
      255
176
     1
290
     0
176
     1
 90
       50
176
     1
 90
       50
176
     1
 90
       50
176
     1
290
     0
176
     1
 90
       50
176
     1
 62
   256
176
     0
 40
1.0
176
     0
 90
        2
176
     1
  1
strokes_ogs.tif
176
     1
290
     0
176
     1
 40
1.0
176
     1
 40
1.0
176
     1
1001
ACAD
1000
AcDbSavedByObjectVersion
1070
     0
  0
VISUALSTYLE
  5
194
102
{ACAD_REACTORS
330
193
102
}
330
193
100
AcDbVisualStyle
  2
Flat
 70
     0
177
     3
291
     1
 70
    58
 90
        2
176
     1
 90
        1
176
     1
 90
        1
176
     1
 90
        2
176
     1
 40
0.6
176
     1
 40
30.0
176
     1
 62
     7
420
 16777215
176
     1
 90
        0
176
     1
 90
        0
176
     1
 62
     7
176
     1
 62
   257
176
     1
 90
        1
176
     1
 90
        1
176
     1
 40
1.0
176
     1
 90
        8
176
     1
 62
     7
176
     1
 40
1.0
176
     1
 90
        1
176
     1
 90
        6
176
     1
 90
        2
176
     1
 62
     7
176
     1
 90
        5
176
     1
 90
        0
176
     1
 90
        0
176
     1
290
     0
176
     1
 90
       13
176
     1
 40
0.0
176
     1
 90
        0
176
     1
290
     0
176
     1
290
     1
176
     1
290
     1
176
     1
290
     0
176
     1
290
     0
176
     1
290
     0
176
     1
290
     0
176
     1
290
     0
176
     1
290
     0
176
     1
 90
       50
176
     1
 40
0.0
176
     1
 40
1.0
176
     1
 90
        0
176
     1
 62
    18
420
        0
176
     1
 90
       50
176
     1
 90
        3
176
     1
 62
     5
420
      255
176
     1
290
     0
176
     1
 90
       50
176
     1
 90
       50
176
     1
 90
       50
176
     1
290
     0
176
     1
 90
       50
176
     1
 62
   256
176
     0
 40
1.0
176
     0
 90
        2
176
     1
  1
strokes_ogs.tif
176
     1
290
     0
176
     1
 40
1.0
176
     1
 40
1.0
176
     1
1001
ACAD
1000
AcDbSavedByObjectVersion
1070
     0
  0
VISUALSTYLE
  5
195
102
{ACAD_REACTORS
330
193
102
}
330
193
100
AcDbVisualStyle
  2
FlatWithEdges
 70
     1
177
     3
291
     1
 70
    58
 90
        2
176
     1
 90
        1
176
     1
 90
        1
176
     1
 90
        2
176
     1
 40
0.6
176
     1
 40
30.0
176
     1
 62
     7
420
 16777215
176
     1
 90
        1
176
     1
 90
        0
176
     1
 62
     7
176
     1
 62
   257
176
     1
 90
        1
176
     1
 90
        1
176
     1
 40
1.0
176
     1
 90
        0
176
     1
 62
   257
176
     1
 40
1.0
176
     1
 90
        1
176
     1
 90
        6
176
     1
 90
        2
176
     1
 62
     7
176
     1
 90
        5
176
     1
 90
        0
176
     1
 90
        0
176
     1
290
     0
176
     1
 90
       13
176
     1
 40
0.0
176
     1
 90
        0
176
     1
290
     0
176
     1
290
     1
176
     1
290
     1
176
     1
290
     0
176
     1
290
     0
176
     1
290
     0
176
     1
290
     0
176
     1
290
     0
176
     1
290
     0
176
     1
 90
       50
176
     1
 40
0.0
176
     1
 40
1.0
176
     1
 90
        0
176
     1
 62
    18
420
        0
176
     1
 90
       50
176
     1
 90
        3
176
     1
 62
     5
420
      255
176
     1
290
     0
176
     1
 90
       50
176
     1
 90
       50
176
     1
 90
       50
176
     1
290
     0
176
     1
 90
       50
176
     1
 62
   256
176
     0
 40
1.0
176
     0
 90
        2
176
     1
  1
strokes_ogs.tif
176
     1
290
     0
176
     1
 40
1.0
176
     1
 40
1.0
176
     1
1001
ACAD
1000
AcDbSavedByObjectVersion
1070
     0
  0
VISUALSTYLE
  5
196
102
{ACAD_REACTORS
330
193
102
}
330
193
100
AcDbVisualStyle
  2
Gouraud
 70
     2
177
     3
291
     1
 70
    58
 90
        2
176
     1
 90
        2
176
     1
 90
        1
176
     1
 90
        2
176
     1
 40
0.6
176
     1
 40
30.0
176
     1
 62
     7
420
 16777215
176
     1
 90
        0
176
     1
 90
        0
176
     1
 62
     7
176
     1
 62
   257
176
     1
 90
        1
176
     1
 90
        1
176
     1
 40
1.0
176
     1
 90
        0
176
     1
 62
     7
176
     1
 40
1.0
176
     1
 90
        1
176
     1
 90
        6
176
     1
 90
        2
176
     1
 62
     7
176
     1
 90
        5
176
     1
 90
        0
176
     1
 90
        0
176
     1
290
     0
176
     1
 90
       13
176
     1
 40
0.0
176
     1
 90
        0
176
     1
290
     0
176
     1
290
     1
176
     1
290
     1
176
     1
290
     0
176
     1
290
     0
176
     1
290
     0
176
     1
290
     0
176
     1
290
     0
176
     1
290
     0
176
     1
 90
       50
176
     1
 40
0.0
176
     1
 40
1.0
176
     1
 90
        0
176
     1
 62
    18
420
        0
176
     1
 90
       50
176
     1
 90
        3
176
     1
 62
     5
420
      255
176
     1
290
     0
176
     1
 90
       50
176
     1
 90
       50
176
     1
 90
       50
176
     1
290
     0
176
     1
 90
       50
176
     1
 62
   256
176
     0
 40
1.0
176
     0
 90
        2
176
     1
  1
strokes_ogs.tif
176
     1
290
     0
176
     1
 40
1.0
176
     1
 40
1.0
176
     1
1001
ACAD
1000
AcDbSavedByObjectVersion
1070
     0
  0
VISUALSTYLE
  5
197
102
{ACAD_REACTORS
330
193
102
}
330
193
100
AcDbVisualStyle
  2
GouraudWithEdges
 70
     3
177
     3
291
     1
 70
    58
 90
        2
176
     1
 90
        2
176
     1
 90
        1
176
     1
 90
        2
176
     1
 40
0.6
176
     1
 40
30.0
176
     1
 62
     7
420
 16777215
176
     1
 90
        1
176
     1
 90
        0
176
     1
 62
     7
176
     1
 62
   257
176
     1
 90
        1
176
     1
 90
        1
176
     1
 40
1.0
176
     1
 90
        0
176
     1
 62
   257
176
     1
 40
1.0
176
     1
 90
        1
176
     1
 90
        6
176
     1
 90
        2
176
     1
 62
     7
176
     1
 90
        5
176
     1
 90
        0
176
     1
 90
        0
176
     1
290
     0
176
     1
 90
       13
176
     1
 40
0.0
176
     1
 90
        0
176
     1
290
     0
176
     1
290
     1
176
     1
290
     1
176
     1
290
     0
176
     1
290
     0
176
     1
290
     0
176
     1
290
     0
176
     1
290
     0
176
     1
290
     0
176
     1
 90
       50
176
     1
 40
0.0
176
     1
 40
1.0
176
     1
 90
        0
176
     1
 62
    18
420
        0
176
     1
 90
       50
176
     1
 90
        3
176
     1
 62
     5
420
      255
176
     1
290
     0
176
     1
 90
       50
176
     1
 90
       50
176
     1
 90
       50
176
     1
290
     0
176
     1
 90
       50
176
     1
 62
   256
176
     0
 40
1.0
176
     0
 90
        2
176
     1
  1
strokes_ogs.tif
176
     1
290
     0
176
     1
 40
1.0
176
     1
 40
1.0
176
     1
1001
ACAD
1000
AcDbSavedByObjectVersion
1070
     0
  0
VISUALSTYLE
  5
19B
102
{ACAD_REACTORS
330
193
102
}
330
193
100
AcDbVisualStyle
  2
Hidden
 70
     6
177
     3
291
     0
 70
    58
 90
        1
176
     1
 90
        2
176
     1
 90
        2
176
     1
 90
        0
176
     1
 40
0.6
176
     1
 40
30.0
176
     1
 62
     7
420
 16777215
176
     1
 90
        2
176
     1
 90
        2
176
     1
 62
     7
176
     1
 62
   257
176
     1
 90
        2
176
     1
 90
        1
176
     1
 40
40.0
176
     1
 90
        0
176
     1
 62
   257
176
     1
 40
1.0
176
     1
 90
        1
176
     1
 90
        6
176
     1
 90
        2
176
     1
 62
     7
176
     1
 90
        3
176
     1
 90
        0
176
     1
 90
        0
176
     1
290
     0
176
     1
 90
        1
176
     1
 40
0.0
176
     1
 90
        0
176
     1
290
     0
176
     1
290
     1
176
     1
290
     1
176
     1
290
     0
176
     1
290
     0
176
     1
290
     0
176
     1
290
     0
176
     1
290
     0
176
     1
290
     0
176
     1
 90
       50
176
     1
 40
0.0
176
     1
 40
1.0
176
     1
 90
        0
176
     1
 62
    18
420
        0
176
     1
 90
       50
176
     1
 90
        3
176
     1
 62
     5
420
      255
176
     1
290
     0
176
     1
 90
       50
176
     1
 90
       50
176
     1
 90
       50
176
     1
290
     0
176
     1
 90
       50
176
     1
 62
   256
176
     0
 40
1.0
176
     0
 90
        2
176
     1
  1
strokes_ogs.tif
176
     1
290
     0
176
     1
 40
1.0
176
     1
 40
1.0
176
     1
1001
ACAD
1000
AcDbSavedByObjectVersion
1070
     0
  0
VISUALSTYLE
  5
1A9
102
{ACAD_REACTORS
330
193
102
}
330
193
100
AcDbVisualStyle
  2
JitterOff
 70
    20
177
     3
291
     1
 70
    58
 90
        2
176
     0
 90
        2
176
     0
 90
        0
176
     0
 90
        0
176
     0
 40
0.6
176
     0
 40
30.0
176
     0
 62
     7
420
 16777215
176
     0
 90
        1
176
     0
 90
        4
176
     0
 62
     7
176
     0
 62
   257
176
     0
 90
        1
176
     0
 90
        1
176
     0
 40
1.0
176
     0
 90
       10
176
     2
 62
     7
176
     0
 40
1.0
176
     0
 90
        1
176
     0
 90
        6
176
     0
 90
        2
176
     0
 62
     7
176
     0
 90
        5
176
     0
 90
        0
176
     0
 90
        0
176
     0
290
     0
176
     0
 90
        1
176
     0
 40
0.0
176
     0
 90
        0
176
     0
290
     0
176
     1
290
     1
176
     1
290
     1
176
     1
290
     0
176
     1
290
     0
176
     1
290
     0
176
     1
290
     0
176
     1
290
     0
176
     1
290
     0
176
     1
 90
       50
176
     0
 40
0.0
176
     0
 40
1.0
176
     0
 90
        0
176
     0
 62
    18
420
        0
176
     0
 90
       50
176
     0
 90
        3
176
     0
 62
     5
420
      255
176
     0
290
     0
176
     1
 90
       50
176
     0
 90
       50
176
     0
 90
       50
176
     0
290
     0
176
     1
 90
       50
176
     0
 62
   256
176
     0
 40
1.0
176
     0
 90
        2
176
     0
  1
strokes_ogs.tif
176
     0
290
     0
176
     1
 40
1.0
176
     0
 40
1.0
176
     0
1001
ACAD
1000
AcDbSavedByObjectVersion
1070
     0
  0
VISUALSTYLE
  5
1A1
102
{ACAD_REACTORS
330
193
102
}
330
193
100
AcDbVisualStyle
  2
Linepattern
 70
    14
177
     3
291
     1
 70
    58
 90
        2
176
     1
 90
        2
176
     1
 90
        0
176
     1
 90
        0
176
     1
 40
0.6
176
     1
 40
30.0
176
     1
 62
     7
420
 16777215
176
     1
 90
        1
176
     1
 90
        4
176
     1
 62
     7
176
     1
 62
   257
176
     1
 90
        7
176
     1
 90
        7
176
     1
 40
1.0
176
     1
 90
        8
176
     1
 62
     7
176
     1
 40
1.0
176
     1
 90
        1
176
     1
 90
        6
176
     1
 90
        2
176
     1
 62
     7
176
     1
 90
        5
176
     1
 90
        0
176
     1
 90
        0
176
     1
290
     0
176
     1
 90
        1
176
     1
 40
0.0
176
     1
 90
        0
176
     1
290
     0
176
     1
290
     1
176
     1
290
     1
176
     1
290
     0
176
     1
290
     0
176
     1
290
     0
176
     1
290
     0
176
     1
290
     0
176
     1
290
     0
176
     1
 90
       50
176
     1
 40
0.0
176
     1
 40
1.0
176
     1
 90
        0
176
     1
 62
    18
420
        0
176
     1
 90
       50
176
     1
 90
        3
176
     1
 62
     5
420
      255
176
     1
290
     0
176
     1
 90
       50
176
     1
 90
       50
176
     1
 90
       50
176
     1
290
     0
176
     1
 90
       50
176
     1
 62
   256
176
     0
 40
1.0
176
     0
 90
        2
176
     1
  1
strokes_ogs.tif
176
     1
290
     0
176
     1
 40
1.0
176
     1
 40
1.0
176
     1
1001
ACAD
1000
AcDbSavedByObjectVersion
1070
     0
  0
VISUALSTYLE
  5
1AA
102
{ACAD_REACTORS
330
193
102
}
330
193
100
AcDbVisualStyle
  2
OverhangOff
 70
    21
177
     3
291
     1
 70
    58
 90
        2
176
     0
 90
        2
176
     0
 90
        0
176
     0
 90
        0
176
     0
 40
0.6
176
     0
 40
30.0
176
     0
 62
     7
420
 16777215
176
     0
 90
        1
176
     0
 90
        4
176
     0
 62
     7
176
     0
 62
   257
176
     0
 90
        1
176
     0
 90
        1
176
     0
 40
1.0
176
     0
 90
        9
176
     2
 62
     7
176
     0
 40
1.0
176
     0
 90
        1
176
     0
 90
        6
176
     0
 90
        2
176
     0
 62
     7
176
     0
 90
        5
176
     0
 90
        0
176
     0
 90
        0
176
     0
290
     0
176
     0
 90
        1
176
     0
 40
0.0
176
     0
 90
        0
176
     0
290
     0
176
     1
290
     1
176
     1
290
     1
176
     1
290
     0
176
     1
290
     0
176
     1
290
     0
176
     1
290
     0
176
     1
290
     0
176
     1
290
     0
176
     1
 90
       50
176
     0
 40
0.0
176
     0
 40
1.0
176
     0
 90
        0
176
     0
 62
    18
420
        0
176
     0
 90
       50
176
     0
 90
        3
176
     0
 62
     5
420
      255
176
     0
290
     0
176
     1
 90
       50
176
     0
 90
       50
176
     0
 90
       50
176
     0
290
     0
176
     1
 90
       50
176
     0
 62
   256
176
     0
 40
1.0
176
     0
 90
        2
176
     0
  1
strokes_ogs.tif
176
     0
290
     0
176
     1
 40
1.0
176
     0
 40
1.0
176
     0
1001
ACAD
1000
AcDbSavedByObjectVersion
1070
     0
  0
VISUALSTYLE
  5
19D
102
{ACAD_REACTORS
330
193
102
}
330
193
100
AcDbVisualStyle
  2
Realistic
 70
     8
177
     3
291
     0
 70
    58
 90
        2
176
     1
 90
        3
176
     1
 90
        0
176
     1
 90
        2
176
     1
 40
0.6
176
     1
 40
30.0
176
     1
 62
     7
420
 16777215
176
     1
 90
        0
176
     1
 90
        0
176
     1
 62
     7
176
     1
 62
   257
176
     1
 90
        1
176
     1
 90
        1
176
     1
 40
1.0
176
     1
 90
        8
176
     1
 62
   257
176
     1
 40
1.0
176
     1
 90
        1
176
     1
 90
        6
176
     1
 90
        2
176
     1
 62
     7
176
     1
 90
        3
176
     1
 90
        0
176
     1
 90
        0
176
     1
290
     0
176
     1
 90
       13
176
     1
 40
0.0
176
     1
 90
        0
176
     1
290
     0
176
     1
290
     1
176
     1
290
     1
176
     1
290
     0
176
     1
290
     0
176
     1
290
     0
176
     1
290
     0
176
     1
290
     0
176
     1
290
     0
176
     1
 90
       50
176
     1
 40
0.0
176
     1
 40
1.0
176
     1
 90
        0
176
     1
 62
    18
420
        0
176
     1
 90
       50
176
     1
 90
        3
176
     1
 62
     5
420
      255
176
     1
290
     0
176
     1
 90
       50
176
     1
 90
       50
176
     1
 90
       50
176
     1
290
     0
176
     1
 90
       50
176
     1
 62
   256
176
     0
 40
1.0
176
     0
 90
        2
176
     1
  1
strokes_ogs.tif
176
     1
290
     0
176
     1
 40
1.0
176
     1
 40
1.0
176
     1
1001
ACAD
1000
AcDbSavedByObjectVersion
1070
     0
  0
VISUALSTYLE
  5
1A8
102
{ACAD_REACTORS
330
193
102
}
330
193
100
AcDbVisualStyle
  2
Shaded
 70
    27
177
     3
291
     0
 70
    58
 90
        2
176
     1
 90
        2
176
     1
 90
        1
176
     1
 90
        2
176
     1
 40
0.6
176
     1
 40
30.0
176
     1
 62
     7
420
 16777215
176
     1
 90
        0
176
     1
 90
        4
176
     1
 62
     7
176
     1
 62
   257
176
     1
 90
        1
176
     1
 90
        1
176
     1
 40
1.0
176
     1
 90
        8
176
     1
 62
   257
176
     1
 40
1.0
176
     1
 90
        1
176
     1
 90
        6
176
     1
 90
        2
176
     1
 62
     8
420
  7895160
176
     1
 90
        3
176
     1
 90
        0
176
     1
 90
        0
176
     1
290
     0
176
     1
 90
        5
176
     1
 40
0.0
176
     1
 90
        0
176
     1
290
     0
176
     1
290
     1
176
     1
290
     1
176
     1
290
     0
176
     1
290
     0
176
     1
290
     0
176
     1
290
     0
176
     1
290
     0
176
     1
290
     0
176
     1
 90
       50
176
     1
 40
0.0
176
     1
 40
1.0
176
     1
 90
        0
176
     1
 62
    18
420
        0
176
     1
 90
       50
176
     1
 90
        3
176
     1
 62
     5
420
      255
176
     1
290
     0
176
     1
 90
       50
176
     1
 90
       50
176
     1
 90
       50
176
     1
290
     0
176
     1
 90
       50
176
     1
 62
   256
176
     0
 40
1.0
176
     0
 90
        2
176
     1
  1
strokes_ogs.tif
176
     1
290
     0
176
     1
 40
1.0
176
     1
 40
1.0
176
     1
1001
ACAD
1000
AcDbSavedByObjectVersion
1070
     0
  0
VISUALSTYLE
  5
1A7
102
{ACAD_REACTORS
330
193
102
}
330
193
100
AcDbVisualStyle
  2
Shaded with edges
 70
    26
177
     3
291
     0
 70
    58
 90
        2
176
     1
 90
        2
176
     1
 90
        1
176
     1
 90
        2
176
     1
 40
0.6
176
     1
 40
30.0
176
     1
 62
     7
420
 16777215
176
     1
 90
        1
176
     1
 90
        2
176
     1
 62
     7
176
     1
 62
   257
176
     1
 90
        2
176
     1
 90
        1
176
     1
 40
1.0
176
     1
 90
        8
176
     1
 62
   257
176
     1
 40
1.0
176
     1
 90
        1
176
     1
 90
        6
176
     1
 90
        2
176
     1
 62
     7
176
     1
 90
        3
176
     1
 90
        0
176
     1
 90
        0
176
     1
290
     0
176
     1
 90
        5
176
     1
 40
0.0
176
     1
 90
        0
176
     1
290
     0
176
     1
290
     1
176
     1
290
     1
176
     1
290
     0
176
     1
290
     0
176
     1
290
     0
176
     1
290
     0
176
     1
290
     0
176
     1
290
     0
176
     1
 90
       50
176
     1
 40
0.0
176
     1
 40
1.0
176
     1
 90
        0
176
     1
 62
    18
420
        0
176
     1
 90
       50
176
     1
 90
        3
176
     1
 62
     5
420
      255
176
     1
290
     0
176
     1
 90
       50
176
     1
 90
       50
176
     1
 90
       50
176
     1
290
     0
176
     1
 90
       50
176
     1
 62
   256
176
     0
 40
1.0
176
     0
 90
        2
176
     1
  1
strokes_ogs.tif
176
     1
290
     0
176
     1
 40
1.0
176
     1
 40
1.0
176
     1
1001
ACAD
1000
AcDbSavedByObjectVersion
1070
     0
  0
VISUALSTYLE
  5
1A4
102
{ACAD_REACTORS
330
193
102
}
330
193
100
AcDbVisualStyle
  2
Shades of Gray
 70
    23
177
     3
291
     0
 70
    58
 90
        2
176
     1
 90
        2
176
     1
 90
        3
176
     1
 90
        0
176
     1
 40
0.6
176
     1
 40
30.0
176
     1
 62
     7
420
 16777215
176
     1
 90
        2
176
     1
 90
        2
176
     1
 62
     7
176
     1
 62
     7
176
     1
 90
        1
176
     1
 90
        1
176
     1
 40
40.0
176
     1
 90
        8
176
     1
 62
     7
176
     1
 40
1.0
176
     1
 90
        1
176
     1
 90
        6
176
     1
 90
        2
176
     1
 62
     7
176
     1
 90
        3
176
     1
 90
        0
176
     1
 90
        0
176
     1
290
     0
176
     1
 90
        1
176
     1
 40
0.0
176
     1
 90
        0
176
     1
290
     0
176
     1
290
     1
176
     1
290
     1
176
     1
290
     0
176
     1
290
     0
176
     1
290
     0
176
     1
290
     0
176
     1
290
     0
176
     1
290
     0
176
     1
 90
       50
176
     1
 40
0.0
176
     1
 40
1.0
176
     1
 90
        0
176
     1
 62
    18
420
        0
176
     1
 90
       50
176
     1
 90
        3
176
     1
 62
     5
420
      255
176
     1
290
     0
176
     1
 90
       50
176
     1
 90
       50
176
     1
 90
       50
176
     1
290
     0
176
     1
 90
       50
176
     1
 62
   256
176
     0
 40
1.0
176
     0
 90
        2
176
     1
  1
strokes_ogs.tif
176
     1
290
     0
176
     1
 40
1.0
176
     1
 40
1.0
176
     1
1001
ACAD
1000
AcDbSavedByObjectVersion
1070
     0
  0
VISUALSTYLE
  5
1A5
102
{ACAD_REACTORS
330
193
102
}
330
193
100
AcDbVisualStyle
  2
Sketchy
 70
    24
177
     3
291
     0
 70
    58
 90
        1
176
     1
 90
        2
176
     1
 90
        2
176
     1
 90
        0
176
     1
 40
0.6
176
     1
 40
30.0
176
     1
 62
     7
420
 16777215
176
     1
 90
        2
176
     1
 90
        2
176
     1
 62
     7
176
     1
 62
     7
176
     1
 90
        1
176
     1
 90
        1
176
     1
 40
40.0
176
     1
 90
       11
176
     1
 62
     7
176
     1
 40
1.0
176
     1
 90
        1
176
     1
 90
        6
176
     1
 90
        2
176
     1
 62
     7
176
     1
 90
        6
176
     1
 90
        0
176
     1
 90
        0
176
     1
290
     0
176
     1
 90
        1
176
     1
 40
0.0
176
     1
 90
        0
176
     1
290
     0
176
     1
290
     1
176
     1
290
     1
176
     1
290
     0
176
     1
290
     0
176
     1
290
     0
176
     1
290
     0
176
     1
290
     0
176
     1
290
     0
176
     1
 90
       50
176
     1
 40
0.0
176
     1
 40
1.0
176
     1
 90
        0
176
     1
 62
    18
420
        0
176
     1
 90
       50
176
     1
 90
        3
176
     1
 62
     5
420
      255
176
     1
290
     0
176
     1
 90
       50
176
     1
 90
       50
176
     1
 90
       50
176
     1
290
     0
176
     1
 90
       50
176
     1
 62
   256
176
     0
 40
1.0
176
     0
 90
        2
176
     1
  1
strokes_ogs.tif
176
     1
290
     0
176
     1
 40
1.0
176
     1
 40
1.0
176
     1
1001
ACAD
1000
AcDbSavedByObjectVersion
1070
     0
  0
VISUALSTYLE
  5
1A0
102
{ACAD_REACTORS
330
193
102
}
330
193
100
AcDbVisualStyle
  2
Thicken
 70
    13
177
     3
291
     1
 70
    58
 90
        2
176
     1
 90
        2
176
     1
 90
        0
176
     1
 90
        0
176
     1
 40
0.6
176
     1
 40
30.0
176
     1
 62
     7
420
 16777215
176
     1
 90
        1
176
     1
 90
        4
176
     1
 62
     7
176
     1
 62
   257
176
     1
 90
        1
176
     1
 90
        1
176
     1
 40
1.0
176
     1
 90
       12
176
     1
 62
     7
176
     1
 40
1.0
176
     1
 90
        1
176
     1
 90
        6
176
     1
 90
        2
176
     1
 62
     7
176
     1
 90
        5
176
     1
 90
        0
176
     1
 90
        0
176
     1
290
     0
176
     1
 90
        1
176
     1
 40
0.0
176
     1
 90
        0
176
     1
290
     0
176
     1
290
     1
176
     1
290
     1
176
     1
290
     0
176
     1
290
     0
176
     1
290
     0
176
     1
290
     0
176
     1
290
     0
176
     1
290
     0
176
     1
 90
       50
176
     1
 40
0.0
176
     1
 40
1.0
176
     1
 90
        0
176
     1
 62
    18
420
        0
176
     1
 90
       50
176
     1
 90
        3
176
     1
 62
     5
420
      255
176
     1
290
     0
176
     1
 90
       50
176
     1
 90
       50
176
     1
 90
       50
176
     1
290
     0
176
     1
 90
       50
176
     1
 62
   256
176
     0
 40
1.0
176
     0
 90
        2
176
     1
  1
strokes_ogs.tif
176
     1
290
     0
176
     1
 40
1.0
176
     1
 40
1.0
176
     1
1001
ACAD
1000
AcDbSavedByObjectVersion
1070
     0
  0
VISUALSTYLE
  5
19A
102
{ACAD_REACTORS
330
193
102
}
330
193
100
AcDbVisualStyle
  2
Wireframe
 70
     5
177
     3
291
     0
 70
    58
 90
        0
176
     1
 90
        2
176
     1
 90
        0
176
     1
 90
        0
176
     1
 40
0.6
176
     1
 40
30.0
176
     1
 62
     7
420
 16777215
176
     1
 90
        1
176
     1
 90
        4
176
     1
 62
     7
176
     1
 62
   257
176
     1
 90
        1
176
     1
 90
        1
176
     1
 40
1.0
176
     1
 90
        0
176
     1
 62
   257
176
     1
 40
1.0
176
     1
 90
        1
176
     1
 90
        6
176
     1
 90
        2
176
     1
 62
     7
176
     1
 90
        3
176
     1
 90
        0
176
     1
 90
        0
176
     1
290
     0
176
     1
 90
        1
176
     1
 40
0.0
176
     1
 90
        0
176
     1
290
     0
176
     1
290
     1
176
     1
290
     1
176
     1
290
     0
176
     1
290
     0
176
     1
290
     0
176
     1
290
     0
176
     1
290
     0
176
     1
290
     0
176
     1
 90
       50
176
     1
 40
0.0
176
     1
 40
1.0
176
     1
 90
        0
176
     1
 62
    18
420
        0
176
     1
 90
       50
176
     1
 90
        3
176
     1
 62
     5
420
      255
176
     1
290
     0
176
     1
 90
       50
176
     1
 90
       50
176
     1
 90
       50
176
     1
290
     0
176
     1
 90
       50
176
     1
 62
   256
176
     0
 40
1.0
176
     0
 90
        2
176
     1
  1
strokes_ogs.tif
176
     1
290
     0
176
     1
 40
1.0
176
     1
 40
1.0
176
     1
1001
ACAD
1000
AcDbSavedByObjectVersion
1070
     0
  0
VISUALSTYLE
  5
1A6
102
{ACAD_REACTORS
330
193
102
}
330
193
100
AcDbVisualStyle
  2
X-Ray
 70
    25
177
     3
291
     0
 70
    58
 90
        2
176
     1
 90
        2
176
     1
 90
        1
176
     1
 90
        1
176
     1
 40
0.5
176
     1
 40
30.0
176
     1
 62
     7
420
 16777215
176
     1
 90
        1
176
     1
 90
        0
176
     1
 62
     7
176
     1
 62
   257
176
     1
 90
        1
176
     1
 90
        1
176
     1
 40
1.0
176
     1
 90
        8
176
     1
 62
     7
176
     1
 40
1.0
176
     1
 90
        1
176
     1
 90
        6
176
     1
 90
        2
176
     1
 62
     7
176
     1
 90
        3
176
     1
 90
        0
176
     1
 90
        0
176
     1
290
     0
176
     1
 90
       13
176
     1
 40
0.0
176
     1
 90
        0
176
     1
290
     0
176
     1
290
     1
176
     1
290
     1
176
     1
290
     0
176
     1
290
     0
176
     1
290
     0
176
     1
290
     0
176
     1
290
     0
176
     1
290
     0
176
     1
 90
       50
176
     1
 40
0.0
176
     1
 40
1.0
176
     1
 90
        0
176
     1
 62
    18
420
        0
176
     1
 90
       50
176
     1
 90
        3
176
     1
 62
     5
420
      255
176
     1
290
     0
176
     1
 90
       50
176
     1
 90
       50
176
     1
 90
       50
176
     1
290
     0
176
     1
 90
       50
176
     1
 62
   256
176
     0
 40
1.0
176
     0
 90
        2
176
     1
  1
strokes_ogs.tif
176
     1
290
     0
176
     1
 40
1.0
176
     1
 40
1.0
176
     1
1001
ACAD
1000
AcDbSavedByObjectVersion
1070
     0
  0
DICTIONARYVAR
  5
2D1
102
{ACAD_REACTORS
330
2CB
102
}
330
2CB
100
DictionaryVariables
280
     0
  1
1:1
  0
DICTIONARYVAR
  5
2CD
102
{ACAD_REACTORS
330
2CB
102
}
330
2CB
100
DictionaryVariables
280
     0
  1
STANDARD
  0
DICTIONARYVAR
  5
2CC
102
{ACAD_REACTORS
330
2CB
102
}
330
2CB
100
DictionaryVariables
280
     0
  1
STANDARD
  0
DICTIONARYVAR
  5
2CE
102
{ACAD_REACTORS
330
2CB
102
}
330
2CB
100
DictionaryVariables
280
     0
  1
Imperial24
  0
DICTIONARYVAR
  5
2CF
102
{ACAD_REACTORS
330
2CB
102
}
330
2CB
100
DictionaryVariables
280
     0
  1
Imperial24
  0
DICTIONARYVAR
  5
2D3
102
{ACAD_REACTORS
330
2CB
102
}
330
2CB
100
DictionaryVariables
280
     0
  1
1
  0
DICTIONARYVAR
  5
2D4
102
{ACAD_REACTORS
330
2CB
102
}
330
2CB
100
DictionaryVariables
280
     0
  1
15
  0
DICTIONARYVAR
  5
2D2
102
{ACAD_REACTORS
330
2CB
102
}
330
2CB
100
DictionaryVariables
280
     0
  1
0
  0
DICTIONARYVAR
  5
2D0
102
{ACAD_REACTORS
330
2CB
102
}
330
2CB
100
DictionaryVariables
280
     0
  1
0
  0
DICTIONARY
  5
59E
330
1C7
100
AcDbDictionary
280
     1
281
     1
  3
ACAD_XREC_ROUNDTRIP
360
59F
  0
DICTIONARY
  5
184
330
183
100
AcDbDictionary
280
     1
281
     1
  3
BUMPTILE
360
186
  3
DIFFUSETILE
360
185
  3
OPACITYTILE
360
189
  3
REFLECTIONTILE
360
188
  3
REFRACTIONTILE
360
18A
  3
SPECULARTILE
360
187
  0
DICTIONARY
  5
17C
330
17B
100
AcDbDictionary
280
     1
281
     1
  3
BUMPTILE
360
17E
  3
DIFFUSETILE
360
17D
  3
OPACITYTILE
360
181
  3
REFLECTIONTILE
360
180
  3
REFRACTIONTILE
360
182
  3
SPECULARTILE
360
17F
  0
DICTIONARY
  5
18C
330
18B
100
AcDbDictionary
280
     1
281
     1
  3
BUMPTILE
360
18E
  3
DIFFUSETILE
360
18D
  3
OPACITYTILE
360
191
  3
REFLECTIONTILE
360
190
  3
REFRACTIONTILE
360
192
  3
SPECULARTILE
360
18F
  0
DICTIONARY
  5
59C
330
1C5
100
AcDbDictionary
280
     1
281
     1
  3
ACAD_XREC_ROUNDTRIP
360
59D
  0
DICTIONARY
  5
35F
330
1AE
100
AcDbDictionary
280
     1
281
     1
  3
ACAD_ROUNDTRIP_2008_TABLESTYLE_CELLSTYLEMAP
360
59A
  0
XRECORD
  5
59F
102
{ACAD_REACTORS
330
59E
102
}
330
59E
100
AcDbXrecord
280
     1
102
DISPLAYNAME
  1
Imperial24
102
FLAGS
 90
        0
  0
XRECORD
  5
186
102
{ACAD_REACTORS
330
184
102
}
330
184
100
AcDbXrecord
280
     1
270
     1
271
     1
  0
XRECORD
  5
185
102
{ACAD_REACTORS
330
184
102
}
330
184
100
AcDbXrecord
280
     1
270
     1
271
     1
  0
XRECORD
  5
189
102
{ACAD_REACTORS
330
184
102
}
330
184
100
AcDbXrecord
280
     1
270
     1
271
     1
  0
XRECORD
  5
188
102
{ACAD_REACTORS
330
184
102
}
330
184
100
AcDbXrecord
280
     1
270
     1
271
     1
  0
XRECORD
  5
18A
102
{ACAD_REACTORS
330
184
102
}
330
184
100
AcDbXrecord
280
     1
270
     1
271
     1
  0
XRECORD
  5
187
102
{ACAD_REACTORS
330
184
102
}
330
184
100
AcDbXrecord
280
     1
270
     1
271
     1
  0
XRECORD
  5
17E
102
{ACAD_REACTORS
330
17C
102
}
330
17C
100
AcDbXrecord
280
     1
270
     1
271
     1
  0
XRECORD
  5
17D
102
{ACAD_REACTORS
330
17C
102
}
330
17C
100
AcDbXrecord
280
     1
270
     1
271
     1
  0
XRECORD
  5
181
102
{ACAD_REACTORS
330
17C
102
}
330
17C
100
AcDbXrecord
280
     1
270
     1
271
     1
  0
XRECORD
  5
180
102
{ACAD_REACTORS
330
17C
102
}
330
17C
100
AcDbXrecord
280
     1
270
     1
271
     1
  0
XRECORD
  5
182
102
{ACAD_REACTORS
330
17C
102
}
330
17C
100
AcDbXrecord
280
     1
270
     1
271
     1
  0
XRECORD
  5
17F
102
{ACAD_REACTORS
330
17C
102
}
330
17C
100
AcDbXrecord
280
     1
270
     1
271
     1
  0
XRECORD
  5
18E
102
{ACAD_REACTORS
330
18C
102
}
330
18C
100
AcDbXrecord
280
     1
270
     1
271
     1
  0
XRECORD
  5
18D
102
{ACAD_REACTORS
330
18C
102
}
330
18C
100
AcDbXrecord
280
     1
270
     1
271
     1
  0
XRECORD
  5
191
102
{ACAD_REACTORS
330
18C
102
}
330
18C
100
AcDbXrecord
280
     1
270
     1
271
     1
  0
XRECORD
  5
190
102
{ACAD_REACTORS
330
18C
102
}
330
18C
100
AcDbXrecord
280
     1
270
     1
271
     1
  0
XRECORD
  5
192
102
{ACAD_REACTORS
330
18C
102
}
330
18C
100
AcDbXrecord
280
     1
270
     1
271
     1
  0
XRECORD
  5
18F
102
{ACAD_REACTORS
330
18C
102
}
330
18C
100
AcDbXrecord
280
     1
270
     1
271
     1
  0
XRECORD
  5
59D
102
{ACAD_REACTORS
330
59C
102
}
330
59C
100
AcDbXrecord
280
     1
102
DISPLAYNAME
  1
Imperial24
102
FLAGS
 90
        0
  0
CELLSTYLEMAP
  5
59A
102
{ACAD_REACTORS
330
35F
102
}
330
35F
100
AcDbCellStyleMap
 90
        3
300
CELLSTYLE
  1
TABLEFORMAT_BEGIN
 90
        5
170
     1
 91
        0
 92
    32768
 62
   257
 93
        1
300
CONTENTFORMAT
  1
CONTENTFORMAT_BEGIN
 90
        0
 91
        0
 92
      512
 93
        0
300

 40
0.0
140
1.0
 94
        5
 62
     0
340
11
144
0.25
309
CONTENTFORMAT_END
171
     1
301
MARGIN
  1
CELLMARGIN_BEGIN
 40
0.06
 40
0.06
 40
0.06
 40
0.06
 40
0.18
 40
0.18
309
CELLMARGIN_END
 94
        6
 95
        1
302
GRIDFORMAT
  1
GRIDFORMAT_BEGIN
 90
        0
 91
        1
 62
     0
 92
       -2
340
0
 93
        0
 40
0.045
309
GRIDFORMAT_END
 95
        2
302
GRIDFORMAT
  1
GRIDFORMAT_BEGIN
 90
        0
 91
        1
 62
     0
 92
       -2
340
0
 93
        0
 40
0.045
309
GRIDFORMAT_END
 95
        4
302
GRIDFORMAT
  1
GRIDFORMAT_BEGIN
 90
        0
 91
        1
 62
     0
 92
       -2
340
0
 93
        0
 40
0.045
309
GRIDFORMAT_END
 95
        8
302
GRIDFORMAT
  1
GRIDFORMAT_BEGIN
 90
        0
 91
        1
 62
     0
 92
       -2
340
0
 93
        0
 40
0.045
309
GRIDFORMAT_END
 95
       16
302
GRIDFORMAT
  1
GRIDFORMAT_BEGIN
 90
        0
 91
        1
 62
     0
 92
       -2
340
0
 93
        0
 40
0.045
309
GRIDFORMAT_END
 95
       32
302
GRIDFORMAT
  1
GRIDFORMAT_BEGIN
 90
        0
 91
        1
 62
     0
 92
       -2
340
0
 93
        0
 40
0.045
309
GRIDFORMAT_END
309
TABLEFORMAT_END
  1
CELLSTYLE_BEGIN
 90
        1
 91
        1
300
_TITLE
309
CELLSTYLE_END
300
CELLSTYLE
  1
TABLEFORMAT_BEGIN
 90
        5
170
     1
 91
        0
 92
        0
 62
   257
 93
        1
300
CONTENTFORMAT
  1
CONTENTFORMAT_BEGIN
 90
        0
 91
        0
 92
      512
 93
        0
300

 40
0.0
140
1.0
 94
        5
 62
     0
340
11
144
0.18
309
CONTENTFORMAT_END
171
     1
301
MARGIN
  1
CELLMARGIN_BEGIN
 40
0.06
 40
0.06
 40
0.06
 40
0.06
 40
0.18
 40
0.18
309
CELLMARGIN_END
 94
        6
 95
        1
302
GRIDFORMAT
  1
GRIDFORMAT_BEGIN
 90
        0
 91
        1
 62
     0
 92
       -2
340
0
 93
        0
 40
0.045
309
GRIDFORMAT_END
 95
        2
302
GRIDFORMAT
  1
GRIDFORMAT_BEGIN
 90
        0
 91
        1
 62
     0
 92
       -2
340
0
 93
        0
 40
0.045
309
GRIDFORMAT_END
 95
        4
302
GRIDFORMAT
  1
GRIDFORMAT_BEGIN
 90
        0
 91
        1
 62
     0
 92
       -2
340
0
 93
        0
 40
0.045
309
GRIDFORMAT_END
 95
        8
302
GRIDFORMAT
  1
GRIDFORMAT_BEGIN
 90
        0
 91
        1
 62
     0
 92
       -2
340
0
 93
        0
 40
0.045
309
GRIDFORMAT_END
 95
       16
302
GRIDFORMAT
  1
GRIDFORMAT_BEGIN
 90
        0
 91
        1
 62
     0
 92
       -2
340
0
 93
        0
 40
0.045
309
GRIDFORMAT_END
 95
       32
302
GRIDFORMAT
  1
GRIDFORMAT_BEGIN
 90
        0
 91
        1
 62
     0
 92
       -2
340
0
 93
        0
 40
0.045
309
GRIDFORMAT_END
309
TABLEFORMAT_END
  1
CELLSTYLE_BEGIN
 90
        2
 91
        1
300
_HEADER
309
CELLSTYLE_END
300
CELLSTYLE
  1
TABLEFORMAT_BEGIN
 90
        5
170
     1
 91
        0
 92
        0
 62
   257
 93
        1
300
CONTENTFORMAT
  1
CONTENTFORMAT_BEGIN
 90
        0
 91
        0
 92
      512
 93
        0
300

 40
0.0
140
1.0
 94
        2
 62
     0
340
11
144
0.18
309
CONTENTFORMAT_END
171
     1
301
MARGIN
  1
CELLMARGIN_BEGIN
 40
0.06
 40
0.06
 40
0.06
 40
0.06
 40
0.18
 40
0.18
309
CELLMARGIN_END
 94
        6
 95
        1
302
GRIDFORMAT
  1
GRIDFORMAT_BEGIN
 90
        0
 91
        1
 62
     0
 92
       -2
340
0
 93
        0
 40
0.045
309
GRIDFORMAT_END
 95
        2
302
GRIDFORMAT
  1
GRIDFORMAT_BEGIN
 90
        0
 91
        1
 62
     0
 92
       -2
340
0
 93
        0
 40
0.045
309
GRIDFORMAT_END
 95
        4
302
GRIDFORMAT
  1
GRIDFORMAT_BEGIN
 90
        0
 91
        1
 62
     0
 92
       -2
340
0
 93
        0
 40
0.045
309
GRIDFORMAT_END
 95
        8
302
GRIDFORMAT
  1
GRIDFORMAT_BEGIN
 90
        0
 91
        1
 62
     0
 92
       -2
340
0
 93
        0
 40
0.045
309
GRIDFORMAT_END
 95
       16
302
GRIDFORMAT
  1
GRIDFORMAT_BEGIN
 90
        0
 91
        1
 62
     0
 92
       -2
340
0
 93
        0
 40
0.045
309
GRIDFORMAT_END
 95
       32
302
GRIDFORMAT
  1
GRIDFORMAT_BEGIN
 90
        0
 91
        1
 62
     0
 92
       -2
340
0
 93
        0
 40
0.045
309
GRIDFORMAT_END
309
TABLEFORMAT_END
  1
CELLSTYLE_BEGIN
 90
        3
 91
        2
300
_DATA
309
CELLSTYLE_END
  0
ENDSEC
  0
EOF
