  0
SECTION
  2
HEADER
  9
$ACADVER
  1
AC1024
  9
$ACADMAINTVER
 70
   205
  9
$DWGCODEPAGE
  3
ANSI_1252
  9
$LASTSAVEDBY
  1
kaschu
  9
$INSBASE
 10
0.0
 20
0.0
 30
0.0
  9
$EXTMIN
 10
-5.602445914561824
 20
28.97023914750784
 30
-0.0000000000000004
  9
$EXTMAX
 10
1260.115682985189
 20
1343.163852411602
 30
0.0000000000000003
  9
$LIMMIN
 10
0.0
 20
0.0
  9
$LIMMAX
 10
12.0
 20
9.0
  9
$ORTHOMODE
 70
     1
  9
$REGENMODE
 70
     1
  9
$FILLMODE
 70
     1
  9
$QTEXTMODE
 70
     0
  9
$MIRRTEXT
 70
     1
  9
$LTSCALE
 40
1.0
  9
$ATTMODE
 70
     1
  9
$TEXTSIZE
 40
0.2
  9
$TRACEWID
 40
0.05
  9
$TEXTSTYLE
  7
STANDARD
  9
$CLAYER
  8
0
  9
$CELTYPE
  6
BYLAYER
  9
$CECOLOR
 62
   256
  9
$CELTSCALE
 40
1.0
  9
$DISPSILH
 70
     0
  9
$DIMSCALE
 40
1.0
  9
$DIMASZ
 40
0.18
  9
$DIMEXO
 40
0.0625
  9
$DIMDLI
 40
0.38
  9
$DIMRND
 40
0.0
  9
$DIMDLE
 40
0.0
  9
$DIMEXE
 40
0.18
  9
$DIMTP
 40
0.0
  9
$DIMTM
 40
0.0
  9
$DIMTXT
 40
0.18
  9
$DIMCEN
 40
0.09
  9
$DIMTSZ
 40
0.0
  9
$DIMTOL
 70
     0
  9
$DIMLIM
 70
     0
  9
$DIMTIH
 70
     1
  9
$DIMTOH
 70
     1
  9
$DIMSE1
 70
     0
  9
$DIMSE2
 70
     0
  9
$DIMTAD
 70
     0
  9
$DIMZIN
 70
     0
  9
$DIMBLK
  1

  9
$DIMASO
 70
     1
  9
$DIMSHO
 70
     1
  9
$DIMPOST
  1

  9
$DIMAPOST
  1

  9
$DIMALT
 70
     0
  9
$DIMALTD
 70
     2
  9
$DIMALTF
 40
25.4
  9
$DIMLFAC
 40
1.0
  9
$DIMTOFL
 70
     0
  9
$DIMTVP
 40
0.0
  9
$DIMTIX
 70
     0
  9
$DIMSOXD
 70
     0
  9
$DIMSAH
 70
     0
  9
$DIMBLK1
  1

  9
$DIMBLK2
  1

  9
$DIMSTYLE
  2
STANDARD
  9
$DIMCLRD
 70
     0
  9
$DIMCLRE
 70
     0
  9
$DIMCLRT
 70
     0
  9
$DIMTFAC
 40
1.0
  9
$DIMGAP
 40
0.09
  9
$DIMJUST
 70
     0
  9
$DIMSD1
 70
     0
  9
$DIMSD2
 70
     0
  9
$DIMTOLJ
 70
     1
  9
$DIMTZIN
 70
     0
  9
$DIMALTZ
 70
     0
  9
$DIMALTTZ
 70
     0
  9
$DIMUPT
 70
     0
  9
$DIMDEC
 70
     4
  9
$DIMTDEC
 70
     4
  9
$DIMALTU
 70
     2
  9
$DIMALTTD
 70
     2
  9
$DIMTXSTY
  7
STANDARD
  9
$DIMAUNIT
 70
     0
  9
$DIMADEC
 70
     0
  9
$DIMALTRND
 40
0.0
  9
$DIMAZIN
 70
     0
  9
$DIMDSEP
 70
    46
  9
$DIMATFIT
 70
     3
  9
$DIMFRAC
 70
     0
  9
$DIMLDRBLK
  1

  9
$DIMLUNIT
 70
     2
  9
$DIMLWD
 70
    -2
  9
$DIMLWE
 70
    -2
  9
$DIMTMOVE
 70
     0
  9
$DIMFXL
 40
1.0
  9
$DIMFXLON
 70
     0
  9
$DIMJOGANG
 40
0.7853981633974483
  9
$DIMTFILL
 70
     0
  9
$DIMTFILLCLR
 70
     0
  9
$DIMARCSYM
 70
     0
  9
$DIMLTYPE
  6

  9
$DIMLTEX1
  6

  9
$DIMLTEX2
  6

  9
$DIMTXTDIRECTION
 70
     0
  9
$LUNITS
 70
     2
  9
$LUPREC
 70
     4
  9
$SKETCHINC
 40
0.1
  9
$FILLETRAD
 40
0.5
  9
$AUNITS
 70
     0
  9
$AUPREC
 70
     0
  9
$MENU
  1
.
  9
$ELEVATION
 40
0.0
  9
$PELEVATION
 40
0.0
  9
$THICKNESS
 40
0.0
  9
$LIMCHECK
 70
     0
  9
$CHAMFERA
 40
0.5
  9
$CHAMFERB
 40
0.5
  9
$CHAMFERC
 40
1.0
  9
$CHAMFERD
 40
0.0
  9
$SKPOLY
 70
     0
  9
$TDCREATE
 40
2451762.456733333
  9
$TDUCREATE
 40
2451762.373400000
  9
$TDUPDATE
 40
2458687.421096528
  9
$TDUUPDATE
 40
2458687.337763195
  9
$TDINDWG
 40
0.0659215856
  9
$TDUSRTIMER
 40
0.0659215278
  9
$USRTIMER
 70
     1
  9
$ANGBASE
 50
0.0
  9
$ANGDIR
 70
     0
  9
$PDMODE
 70
     0
  9
$PDSIZE
 40
0.0
  9
$PLINEWID
 40
0.0
  9
$SPLFRAME
 70
     0
  9
$SPLINETYPE
 70
     6
  9
$SPLINESEGS
 70
     8
  9
$HANDSEED
  5
847
  9
$SURFTAB1
 70
     6
  9
$SURFTAB2
 70
     6
  9
$SURFTYPE
 70
     6
  9
$SURFU
 70
     6
  9
$SURFV
 70
     6
  9
$UCSBASE
  2

  9
$UCSNAME
  2

  9
$UCSORG
 10
0.0
 20
0.0
 30
0.0
  9
$UCSXDIR
 10
1.0
 20
0.0
 30
0.0
  9
$UCSYDIR
 10
0.0
 20
1.0
 30
0.0
  9
$UCSORTHOREF
  2

  9
$UCSORTHOVIEW
 70
     0
  9
$UCSORGTOP
 10
0.0
 20
0.0
 30
0.0
  9
$UCSORGBOTTOM
 10
0.0
 20
0.0
 30
0.0
  9
$UCSORGLEFT
 10
0.0
 20
0.0
 30
0.0
  9
$UCSORGRIGHT
 10
0.0
 20
0.0
 30
0.0
  9
$UCSORGFRONT
 10
0.0
 20
0.0
 30
0.0
  9
$UCSORGBACK
 10
0.0
 20
0.0
 30
0.0
  9
$PUCSBASE
  2

  9
$PUCSNAME
  2

  9
$PUCSORG
 10
0.0
 20
0.0
 30
0.0
  9
$PUCSXDIR
 10
1.0
 20
0.0
 30
0.0
  9
$PUCSYDIR
 10
0.0
 20
1.0
 30
0.0
  9
$PUCSORTHOREF
  2

  9
$PUCSORTHOVIEW
 70
     0
  9
$PUCSORGTOP
 10
0.0
 20
0.0
 30
0.0
  9
$PUCSORGBOTTOM
 10
0.0
 20
0.0
 30
0.0
  9
$PUCSORGLEFT
 10
0.0
 20
0.0
 30
0.0
  9
$PUCSORGRIGHT
 10
0.0
 20
0.0
 30
0.0
  9
$PUCSORGFRONT
 10
0.0
 20
0.0
 30
0.0
  9
$PUCSORGBACK
 10
0.0
 20
0.0
 30
0.0
  9
$USERI1
 70
     0
  9
$USERI2
 70
     0
  9
$USERI3
 70
     0
  9
$USERI4
 70
     0
  9
$USERI5
 70
     0
  9
$USERR1
 40
0.0
  9
$USERR2
 40
0.0
  9
$USERR3
 40
0.0
  9
$USERR4
 40
0.0
  9
$USERR5
 40
0.0
  9
$WORLDVIEW
 70
     1
  9
$SHADEDGE
 70
     3
  9
$SHADEDIF
 70
    70
  9
$TILEMODE
 70
     1
  9
$MAXACTVP
 70
    64
  9
$PINSBASE
 10
0.0
 20
0.0
 30
0.0
  9
$PLIMCHECK
 70
     0
  9
$PEXTMIN
 10
1.000000000000000E+20
 20
1.000000000000000E+20
 30
1.000000000000000E+20
  9
$PEXTMAX
 10
-1.000000000000000E+20
 20
-1.000000000000000E+20
 30
-1.000000000000000E+20
  9
$PLIMMIN
 10
0.0
 20
0.0
  9
$PLIMMAX
 10
12.0
 20
9.0
  9
$UNITMODE
 70
     0
  9
$VISRETAIN
 70
     1
  9
$PLINEGEN
 70
     0
  9
$PSLTSCALE
 70
     1
  9
$TREEDEPTH
 70
  3020
  9
$CMLSTYLE
  2
STANDARD
  9
$CMLJUST
 70
     0
  9
$CMLSCALE
 40
1.0
  9
$PROXYGRAPHICS
 70
     1
  9
$MEASUREMENT
 70
     0
  9
$CELWEIGHT
370
    -1
  9
$ENDCAPS
280
     0
  9
$JOINSTYLE
280
     0
  9
$LWDISPLAY
290
     0
  9
$INSUNITS
 70
     0
  9
$HYPERLINKBASE
  1

  9
$STYLESHEET
  1

  9
$XEDIT
290
     1
  9
$CEPSNTYPE
380
     0
  9
$PSTYLEMODE
290
     1
  9
$FINGERPRINTGUID
  2
{A42321FD-4D3B-470A-B3BE-A3689E04D828}
  9
$VERSIONGUID
  2
{9198BE8F-F43D-4D22-8144-3A023A0087E4}
  9
$EXTNAMES
290
     1
  9
$PSVPSCALE
 40
0.0
  9
$OLESTARTUP
290
     0
  9
$SORTENTS
280
   127
  9
$INDEXCTL
280
     0
  9
$HIDETEXT
280
     0
  9
$XCLIPFRAME
280
     2
  9
$HALOGAP
280
     0
  9
$OBSCOLOR
 70
   257
  9
$OBSLTYPE
280
     0
  9
$INTERSECTIONDISPLAY
280
     0
  9
$INTERSECTIONCOLOR
 70
   257
  9
$DIMASSOC
280
     1
  9
$PROJECTNAME
  1

  9
$CAMERADISPLAY
290
     0
  9
$LENSLENGTH
 40
50.0
  9
$CAMERAHEIGHT
 40
0.0
  9
$STEPSPERSEC
 40
2.0
  9
$STEPSIZE
 40
6.0
  9
$3DDWFPREC
 40
2.0
  9
$PSOLWIDTH
 40
0.25
  9
$PSOLHEIGHT
 40
4.0
  9
$LOFTANG1
 40
1.570796326794896
  9
$LOFTANG2
 40
1.570796326794896
  9
$LOFTMAG1
 40
0.0
  9
$LOFTMAG2
 40
0.0
  9
$LOFTPARAM
 70
     7
  9
$LOFTNORMALS
280
     1
  9
$LATITUDE
 40
37.795
  9
$LONGITUDE
 40
-122.394
  9
$NORTHDIRECTION
 40
0.0
  9
$TIMEZONE
 70
 -8000
  9
$LIGHTGLYPHDISPLAY
280
     1
  9
$TILEMODELIGHTSYNCH
280
     1
  9
$CMATERIAL
347
17B
  9
$SOLIDHIST
280
     0
  9
$SHOWHIST
280
     1
  9
$DWFFRAME
280
     2
  9
$DGNFRAME
280
     0
  9
$REALWORLDSCALE
290
     1
  9
$INTERFERECOLOR
 62
     1
  9
$INTERFEREOBJVS
345
19D
  9
$INTERFEREVPVS
346
19A
  9
$CSHADOW
280
     0
  9
$SHADOWPLANELOCATION
 40
0.0
  0
ENDSEC
  0
SECTION
  2
CLASSES
  0
CLASS
  1
ACDBDICTIONARYWDFLT
  2
AcDbDictionaryWithDefault
  3
ObjectDBX Classes
 90
        0
 91
        1
280
     0
281
     0
  0
CLASS
  1
MATERIAL
  2
AcDbMaterial
  3
ObjectDBX Classes
 90
     1153
 91
        3
280
     0
281
     0
  0
CLASS
  1
VISUALSTYLE
  2
AcDbVisualStyle
  3
ObjectDBX Classes
 90
     4095
 91
       25
280
     0
281
     0
  0
CLASS
  1
TABLESTYLE
  2
AcDbTableStyle
  3
ObjectDBX Classes
 90
     4095
 91
        1
280
     0
281
     0
  0
CLASS
  1
SCALE
  2
AcDbScale
  3
ObjectDBX Classes
 90
     1153
 91
       17
280
     0
281
     0
  0
CLASS
  1
MLEADERSTYLE
  2
AcDbMLeaderStyle
  3
ACDB_MLEADERSTYLE_CLASS
 90
     4095
 91
        1
280
     0
281
     0
  0
CLASS
  1
ACDBSECTIONVIEWSTYLE
  2
AcDbSectionViewStyle
  3
ObjectDBX Classes
 90
     1025
 91
        1
280
     0
281
     0
  0
CLASS
  1
ACDBDETAILVIEWSTYLE
  2
AcDbDetailViewStyle
  3
ObjectDBX Classes
 90
     1025
 91
        1
280
     0
281
     0
  0
CLASS
  1
DICTIONARYVAR
  2
AcDbDictionaryVar
  3
ObjectDBX Classes
 90
        0
 91
        9
280
     0
281
     0
  0
CLASS
  1
SORTENTSTABLE
  2
AcDbSortentsTable
  3
ObjectDBX Classes
 90
        0
 91
        1
280
     0
281
     0
  0
CLASS
  1
CELLSTYLEMAP
  2
AcDbCellStyleMap
  3
ObjectDBX Classes
 90
     1152
 91
        2
280
     0
281
     0
  0
ENDSEC
  0
SECTION
  2
TABLES
  0
TABLE
  2
VPORT
  5
8
330
0
100
AcDbSymbolTable
 70
     1
  0
VPORT
  5
155
330
8
100
AcDbSymbolTableRecord
100
AcDbViewportTableRecord
  2
*ACTIVE
 70
     0
 10
0.0
 20
0.0
 11
1.0
 21
1.0
 12
440.9703971009994
 22
611.0577043194673
 13
0.0
 23
0.0
 14
0.5
 24
0.5
 15
0.5
 25
0.5
 16
0.0
 26
0.0
 36
1.0
 17
0.0
 27
0.0
 37
0.0
 40
2253.26484376668
 41
2.170603674540682
 42
50.0
 43
0.0
 44
0.0
 50
0.0
 51
0.0
 71
     0
 72
 10000
 73
     1
 74
     3
 75
     0
 76
     0
 77
     0
 78
     0
281
     0
 65
     1
110
0.0
120
0.0
130
0.0
111
1.0
121
0.0
131
0.0
112
0.0
122
1.0
132
0.0
 79
     0
146
0.0
348
199
 60
     3
 61
     5
292
     1
282
     1
141
0.0
142
0.0
 63
   250
421
  3355443
1001
ACAD_NAV_VCDISPLAY
1070
     3
  0
ENDTAB
  0
TABLE
  2
LTYPE
  5
5
330
0
100
AcDbSymbolTable
 70
     4
  0
LTYPE
  5
14
330
5
100
AcDbSymbolTableRecord
100
AcDbLinetypeTableRecord
  2
BYBLOCK
 70
     0
  3

 72
    65
 73
     0
 40
0.0
  0
LTYPE
  5
15
330
5
100
AcDbSymbolTableRecord
100
AcDbLinetypeTableRecord
  2
BYLAYER
 70
     0
  3

 72
    65
 73
     0
 40
0.0
  0
LTYPE
  5
16
330
5
100
AcDbSymbolTableRecord
100
AcDbLinetypeTableRecord
  2
CONTINUOUS
 70
     0
  3
Solid line
 72
    65
 73
     0
 40
0.0
  0
LTYPE
  5
1C4
330
5
100
AcDbSymbolTableRecord
100
AcDbLinetypeTableRecord
  2
PHANTOM2
 70
     0
  3
___ _ _ ___ _ _ ___ _ _ ___ _ _
 72
    65
 73
     6
 40
1.25
 49
0.625
 74
     0
 49
-0.125
 74
     0
 49
0.125
 74
     0
 49
-0.125
 74
     0
 49
0.125
 74
     0
 49
-0.125
 74
     0
  0
LTYPE
  5
725
330
5
100
AcDbSymbolTableRecord
100
AcDbLinetypeTableRecord
  2
STANDARD
 70
     0
  3

 72
    65
 73
     0
 40
0.0
  0
ENDTAB
  0
TABLE
  2
LAYER
  5
2
102
{ACAD_XDICTIONARY
360
1E1
102
}
330
0
100
AcDbSymbolTable
 70
     4
  0
LAYER
  5
10
102
{ACAD_XDICTIONARY
360
1CD
102
}
330
2
100
AcDbSymbolTableRecord
100
AcDbLayerTableRecord
  2
0
 70
     0
 62
     7
  6
CONTINUOUS
370
    -3
390
E0
347
18B
  0
LAYER
  5
296
330
2
100
AcDbSymbolTableRecord
100
AcDbLayerTableRecord
  2
HEWI
 70
     0
 62
     7
  6
CONTINUOUS
370
     9
390
E0
347
18B
1001
AcAecLayerStandard
1000

1000

1001
AcCmTransparency
1071
        0
  0
LAYER
  5
309
330
2
100
AcDbSymbolTableRecord
100
AcDbLayerTableRecord
  2
Defpoints
 70
     0
 62
     7
  6
CONTINUOUS
290
     0
370
    -3
390
E0
347
18B
  0
LAYER
  5
5CF
102
{ACAD_XDICTIONARY
360
5D0
102
}
330
2
100
AcDbSymbolTableRecord
100
AcDbLayerTableRecord
  2
BEMASS
 70
     0
 62
     7
  6
CONTINUOUS
370
    -3
390
E0
347
18B
  0
ENDTAB
  0
TABLE
  2
STYLE
  5
3
330
0
100
AcDbSymbolTable
 70
     3
  0
STYLE
  5
11
330
3
100
AcDbSymbolTableRecord
100
AcDbTextStyleTableRecord
  2
STANDARD
 70
     0
 40
0.0
 41
1.0
 50
0.0
 71
     0
 42
0.2
  3
txt
  4

  0
STYLE
  5
5D1
330
3
100
AcDbSymbolTableRecord
100
AcDbTextStyleTableRecord
  2
ARIAL
 70
     0
 40
0.0
 41
1.0
 50
0.0
 71
     0
 42
0.0
  3
Arial
  4

  0
STYLE
  5
5D2
330
3
100
AcDbSymbolTableRecord
100
AcDbTextStyleTableRecord
  2
ROMANS
 70
     0
 40
0.0
 41
0.8
 50
0.0
 71
     0
 42
4.0
  3
romans.shx
  4

  0
ENDTAB
  0
TABLE
  2
VIEW
  5
6
330
0
100
AcDbSymbolTable
 70
     0
  0
ENDTAB
  0
TABLE
  2
UCS
  5
7
330
0
100
AcDbSymbolTable
 70
     0
  0
ENDTAB
  0
TABLE
  2
APPID
  5
9
330
0
100
AcDbSymbolTable
 70
     8
  0
APPID
  5
12
330
9
100
AcDbSymbolTableRecord
100
AcDbRegAppTableRecord
  2
ACAD
 70
     0
  0
APPID
  5
1D1
330
9
100
AcDbSymbolTableRecord
100
AcDbRegAppTableRecord
  2
ACAD_NAV_VCDISPLAY
 70
     0
  0
APPID
  5
297
330
9
100
AcDbSymbolTableRecord
100
AcDbRegAppTableRecord
  2
AcAecLayerStandard
 70
     0
  0
APPID
  5
298
330
9
100
AcDbSymbolTableRecord
100
AcDbRegAppTableRecord
  2
AcCmTransparency
 70
     0
  0
APPID
  5
2AA
330
9
100
AcDbSymbolTableRecord
100
AcDbRegAppTableRecord
  2
ACAD_PSEXT
 70
     0
  0
APPID
  5
483
330
9
100
AcDbSymbolTableRecord
100
AcDbRegAppTableRecord
  2
ACAD_EXEMPT_FROM_CAD_STANDARDS
 70
     0
  0
APPID
  5
5D4
330
9
100
AcDbSymbolTableRecord
100
AcDbRegAppTableRecord
  2
GradientColor1ACI
 70
     0
  0
APPID
  5
5D5
330
9
100
AcDbSymbolTableRecord
100
AcDbRegAppTableRecord
  2
GradientColor2ACI
 70
     0
  0
ENDTAB
  0
TABLE
  2
DIMSTYLE
  5
A
330
0
100
AcDbSymbolTable
 70
     3
100
AcDbDimStyleTable
 71
     1
340
27
  0
DIMSTYLE
105
27
330
A
100
AcDbSymbolTableRecord
100
AcDbDimStyleTableRecord
  2
STANDARD
 70
     0
340
11
  0
DIMSTYLE
105
5D3
330
A
100
AcDbSymbolTableRecord
100
AcDbDimStyleTableRecord
  2
ISO-25
 70
     0
 41
2.5
 42
0.625
 43
3.75
 44
1.25
 73
     0
 74
     0
 77
     1
 78
     8
140
2.5
141
2.5
143
0.03937007874016
147
0.625
171
     3
172
     1
271
     2
272
     2
274
     3
278
    44
283
     0
284
     8
340
11
  0
ENDTAB
  0
TABLE
  2
BLOCK_RECORD
  5
1
330
0
100
AcDbSymbolTable
 70
    11
  0
BLOCK_RECORD
  5
1F
102
{ACAD_XDICTIONARY
360
D9
102
}
330
1
100
AcDbSymbolTableRecord
100
AcDbBlockTableRecord
  2
*MODEL_SPACE
340
1C8
 70
     0
280
     1
281
     0
  0
BLOCK_RECORD
  5
1B
102
{ACAD_XDICTIONARY
360
D7
102
}
330
1
100
AcDbSymbolTableRecord
100
AcDbBlockTableRecord
  2
*PAPER_SPACE
340
1C9
 70
     0
280
     1
281
     0
  0
BLOCK_RECORD
  5
5BE
330
1
100
AcDbSymbolTableRecord
100
AcDbBlockTableRecord
  2
_Dot
340
0
102
{BLKREFS
331
5C8
331
5C9
331
6AD
331
6AE
102
}
 70
     0
280
     1
281
     0
  0
BLOCK_RECORD
  5
5C3
330
1
100
AcDbSymbolTableRecord
100
AcDbBlockTableRecord
  2
*D1
340
0
 70
     0
280
     1
281
     0
  0
BLOCK_RECORD
  5
69E
330
1
100
AcDbSymbolTableRecord
100
AcDbBlockTableRecord
  2
*D2
340
0
 70
     0
280
     1
281
     0
  0
BLOCK_RECORD
  5
6ED
330
1
100
AcDbSymbolTableRecord
100
AcDbBlockTableRecord
  2
*D3
340
0
 70
     0
280
     1
281
     0
  0
BLOCK_RECORD
  5
6FB
330
1
100
AcDbSymbolTableRecord
100
AcDbBlockTableRecord
  2
*D4
340
0
 70
     0
280
     1
281
     0
  0
BLOCK_RECORD
  5
709
330
1
100
AcDbSymbolTableRecord
100
AcDbBlockTableRecord
  2
*D5
340
0
 70
     0
280
     1
281
     0
  0
BLOCK_RECORD
  5
718
330
1
100
AcDbSymbolTableRecord
100
AcDbBlockTableRecord
  2
*D6
340
0
 70
     0
280
     1
281
     0
  0
BLOCK_RECORD
  5
7E0
330
1
100
AcDbSymbolTableRecord
100
AcDbBlockTableRecord
  2
*D7
340
0
 70
     0
280
     1
281
     0
  0
BLOCK_RECORD
  5
7F4
330
1
100
AcDbSymbolTableRecord
100
AcDbBlockTableRecord
  2
*D9
340
0
 70
     0
280
     1
281
     0
  0
BLOCK_RECORD
  5
802
330
1
100
AcDbSymbolTableRecord
100
AcDbBlockTableRecord
  2
*D10
340
0
 70
     0
280
     1
281
     0
  0
ENDTAB
  0
ENDSEC
  0
SECTION
  2
BLOCKS
  0
BLOCK
  5
20
330
1F
100
AcDbEntity
  8
0
100
AcDbBlockBegin
  2
*MODEL_SPACE
 70
     0
 10
0.0
 20
0.0
 30
0.0
  3
*MODEL_SPACE
  1

  0
ENDBLK
  5
21
330
1F
100
AcDbEntity
  8
0
100
AcDbBlockEnd
  0
BLOCK
  5
1C
330
1B
100
AcDbEntity
 67
     1
  8
0
100
AcDbBlockBegin
  2
*PAPER_SPACE
 70
     0
 10
0.0
 20
0.0
 30
0.0
  3
*PAPER_SPACE
  1

  0
ENDBLK
  5
1D
330
1B
100
AcDbEntity
 67
     1
  8
0
100
AcDbBlockEnd
  0
BLOCK
  5
5BF
330
5BE
100
AcDbEntity
  8
0
100
AcDbBlockBegin
  2
_Dot
 70
     0
 10
0.0
 20
0.0
 30
0.0
  3
_Dot
  1

  0
LWPOLYLINE
  5
5C0
330
5BE
100
AcDbEntity
  8
0
  6
ByBlock
 62
     0
100
AcDbPolyline
 90
        2
 70
     1
 43
0.5
 10
-0.25
 20
0.0
 42
1.0
 10
0.25
 20
0.0
 42
1.0
  0
LINE
  5
5C1
330
5BE
100
AcDbEntity
  8
0
  6
ByBlock
 62
     0
370
    -2
100
AcDbLine
 10
-0.5
 20
0.0
 30
0.0
 11
-1.0
 21
0.0
 31
0.0
  0
ENDBLK
  5
5C2
330
5BE
100
AcDbEntity
  8
0
100
AcDbBlockEnd
  0
BLOCK
  5
5C4
330
5C3
100
AcDbEntity
  8
0
100
AcDbBlockBegin
  2
*D1
 70
     1
 10
0.0
 20
0.0
 30
0.0
  3
*D1
  1

  0
LINE
  5
5C5
330
5C3
100
AcDbEntity
  8
BEMASS
 62
     0
440
 16777216
370
    -2
100
AcDbLine
 10
208963.2375305827
 20
-16657.36978683955
 30
0.0
 11
208963.2375305827
 21
-16613.06655068401
 31
0.0
  0
LINE
  5
5C6
330
5C3
100
AcDbEntity
  8
BEMASS
 62
     0
440
 16777216
370
    -2
100
AcDbLine
 10
209147.2375305827
 20
-16684.36978683955
 30
0.0
 11
209147.2375305827
 21
-16613.06655068401
 31
0.0
  0
LINE
  5
5C7
330
5C3
100
AcDbEntity
  8
BEMASS
 62
     0
440
 16777216
370
    -2
100
AcDbLine
 10
208978.2375305827
 20
-16614.31655068401
 30
0.0
 11
209132.2375305827
 21
-16614.31655068401
 31
0.0
  0
INSERT
  5
5C8
330
5C3
100
AcDbEntity
  8
BEMASS
 62
     0
440
 16777216
370
    -2
100
AcDbBlockReference
  2
_Dot
 10
208963.2375305827
 20
-16614.31655068401
 30
0.0
 41
15.0
 42
15.0
 43
15.0
 50
180.0
  0
INSERT
  5
5C9
330
5C3
100
AcDbEntity
  8
BEMASS
 62
     0
440
 16777216
370
    -2
100
AcDbBlockReference
  2
_Dot
 10
209147.2375305827
 20
-16614.31655068401
 30
0.0
 41
15.0
 42
15.0
 43
15.0
  0
MTEXT
  5
5CA
330
5C3
100
AcDbEntity
  8
BEMASS
 62
     0
440
 16777216
100
AcDbMText
 10
209055.2375305827
 20
-16586.44649611375
 30
0.0
 40
35.0
 41
0.0
 46
0.0
 71
     5
 72
     1
  1
185
  7
ARIAL
 73
     1
 44
1.0
  0
POINT
  5
5CB
330
5C3
100
AcDbEntity
  8
Defpoints
 62
     0
440
 16777216
100
AcDbPoint
 10
208963.2375305827
 20
-16687.36978683955
 30
0.0
  0
POINT
  5
5CC
330
5C3
100
AcDbEntity
  8
Defpoints
 62
     0
440
 16777216
100
AcDbPoint
 10
209147.2375305827
 20
-16714.36978683955
 30
0.0
  0
POINT
  5
5CD
330
5C3
100
AcDbEntity
  8
Defpoints
 62
     0
440
 16777216
100
AcDbPoint
 10
209147.2375305827
 20
-16614.31655068401
 30
0.0
  0
ENDBLK
  5
5CE
330
5C3
100
AcDbEntity
  8
0
100
AcDbBlockEnd
  0
BLOCK
  5
69F
330
69E
100
AcDbEntity
  8
0
100
AcDbBlockBegin
  2
*D2
 70
     1
 10
0.0
 20
0.0
 30
0.0
  3
*D2
  1

  0
LINE
  5
6AA
330
69E
100
AcDbEntity
  8
BEMASS
 62
     0
440
 16777216
370
    -2
100
AcDbLine
 10
1551.742678598613
 20
340.6149050185431
 30
0.0
 11
1551.742678598613
 21
384.9181411740847
 31
0.0
  0
LINE
  5
6AB
330
69E
100
AcDbEntity
  8
BEMASS
 62
     0
440
 16777216
370
    -2
100
AcDbLine
 10
1735.742678598613
 20
313.6149050185431
 30
0.0
 11
1735.742678598613
 21
384.9181411740847
 31
0.0
  0
LINE
  5
6AC
330
69E
100
AcDbEntity
  8
BEMASS
 62
     0
440
 16777216
370
    -2
100
AcDbLine
 10
1566.742678598613
 20
383.6681411740847
 30
0.0
 11
1720.742678598614
 21
383.6681411740847
 31
0.0
  0
INSERT
  5
6AD
330
69E
100
AcDbEntity
  8
BEMASS
 62
     0
440
 16777216
370
    -2
100
AcDbBlockReference
  2
_Dot
 10
1551.742678598613
 20
383.6681411740847
 30
0.0
 41
15.0
 42
15.0
 43
15.0
 50
180.0
  0
INSERT
  5
6AE
330
69E
100
AcDbEntity
  8
BEMASS
 62
     0
440
 16777216
370
    -2
100
AcDbBlockReference
  2
_Dot
 10
1735.742678598613
 20
383.6681411740847
 30
0.0
 41
15.0
 42
15.0
 43
15.0
  0
MTEXT
  5
6AF
330
69E
100
AcDbEntity
  8
BEMASS
 62
     0
440
 16777216
100
AcDbMText
 10
1643.742678598614
 20
411.5381957443437
 30
0.0
 40
35.0
 41
0.0
 46
0.0
 71
     5
 72
     1
  1
185
  7
ARIAL
 73
     1
 44
1.0
  0
POINT
  5
6B0
330
69E
100
AcDbEntity
  8
Defpoints
 62
     0
440
 16777216
100
AcDbPoint
 10
1551.742678598613
 20
310.6149050185432
 30
0.0
  0
POINT
  5
6B1
330
69E
100
AcDbEntity
  8
Defpoints
 62
     0
440
 16777216
100
AcDbPoint
 10
1735.742678598613
 20
283.6149050185431
 30
0.0
  0
POINT
  5
6B2
330
69E
100
AcDbEntity
  8
Defpoints
 62
     0
440
 16777216
100
AcDbPoint
 10
1735.742678598613
 20
383.6681411740847
 30
0.0
  0
ENDBLK
  5
6A0
330
69E
100
AcDbEntity
  8
0
100
AcDbBlockEnd
  0
BLOCK
  5
6EE
330
6ED
100
AcDbEntity
  8
0
100
AcDbBlockBegin
  2
*D3
 70
     1
 10
0.0
 20
0.0
 30
0.0
  3
*D3
  1

  0
LINE
  5
6F0
330
6ED
100
AcDbEntity
  8
0
 62
     0
440
 16777216
370
    -2
100
AcDbLine
 10
412.6268156383287
 20
391.2514924115994
 30
0.0
 11
505.5749002359259
 21
391.2514924115994
 31
0.0
  0
LINE
  5
6F1
330
6ED
100
AcDbEntity
  8
0
 62
     0
440
 16777216
370
    -2
100
AcDbLine
 10
412.6268158197038
 20
316.4693187689363
 30
0.0
 11
505.5749002359259
 21
316.4693187689363
 31
0.0
  0
LINE
  5
6F2
330
6ED
100
AcDbEntity
  8
0
 62
     0
440
 16777216
370
    -2
100
AcDbLine
 10
505.3949002359258
 20
391.0714924115993
 30
0.0
 11
505.3949002359258
 21
354.0404055902679
 31
0.0
  0
LINE
  5
6F3
330
6ED
100
AcDbEntity
  8
0
 62
     0
440
 16777216
370
    -2
100
AcDbLine
 10
505.3949002359258
 20
316.6493187689363
 30
0.0
 11
505.3949002359258
 21
353.6804055902678
 31
0.0
  0
SOLID
  5
6F4
330
6ED
100
AcDbEntity
  8
0
 62
     0
440
 16777216
100
AcDbTrace
 10
505.3649002359259
 20
391.0714924115993
 30
0.0
 11
505.4249002359259
 21
391.0714924115993
 31
0.0
 12
505.3949002359258
 22
391.2514924115994
 32
0.0
 13
505.3949002359258
 23
391.2514924115994
 33
0.0
  0
SOLID
  5
6F5
330
6ED
100
AcDbEntity
  8
0
 62
     0
440
 16777216
100
AcDbTrace
 10
505.3649002359259
 20
316.6493187689363
 30
0.0
 11
505.4249002359259
 21
316.6493187689363
 31
0.0
 12
505.3949002359258
 22
316.4693187689363
 32
0.0
 13
505.3949002359258
 23
316.4693187689363
 33
0.0
  0
MTEXT
  5
6F6
330
6ED
100
AcDbEntity
  8
0
 62
     0
440
 16777216
100
AcDbMText
 10
505.3949002359258
 20
353.8604055902679
 30
0.0
 40
0.18
 41
0.0
 46
0.0
 71
     5
 72
     1
  1
\A1;74.7822
 73
     1
 44
1.0
  0
POINT
  5
6F7
330
6ED
100
AcDbEntity
  8
Defpoints
 62
     0
440
 16777216
100
AcDbPoint
 10
412.5643156383286
 20
391.2514924115994
 30
0.0
  0
POINT
  5
6F8
330
6ED
100
AcDbEntity
  8
Defpoints
 62
     0
440
 16777216
100
AcDbPoint
 10
412.5643158197036
 20
316.4693187689363
 30
0.0
  0
POINT
  5
6F9
330
6ED
100
AcDbEntity
  8
Defpoints
 62
     0
440
 16777216
100
AcDbPoint
 10
505.3949002359258
 20
316.4693187689363
 30
0.0
  0
ENDBLK
  5
6EF
330
6ED
100
AcDbEntity
  8
0
100
AcDbBlockEnd
  0
BLOCK
  5
6FC
330
6FB
100
AcDbEntity
  8
0
100
AcDbBlockBegin
  2
*D4
 70
     1
 10
0.0
 20
0.0
 30
0.0
  3
*D4
  1

  0
LINE
  5
6FE
330
6FB
100
AcDbEntity
  8
0
 62
     0
440
 16777216
370
    -2
100
AcDbLine
 10
366.3677946383233
 20
292.5220484116025
 30
0.0
 11
545.8091147948631
 21
292.5220484116025
 31
0.0
  0
LINE
  5
6FF
330
6FB
100
AcDbEntity
  8
0
 62
     0
440
 16777216
370
    -2
100
AcDbLine
 10
374.6268156383287
 20
391.9638524116044
 30
0.0
 11
545.8091147948631
 21
391.9638524116044
 31
0.0
  0
LINE
  5
700
330
6FB
100
AcDbEntity
  8
0
 62
     0
440
 16777216
370
    -2
100
AcDbLine
 10
545.6291147948632
 20
292.7020484116025
 30
0.0
 11
545.6291147948632
 21
342.0629504116034
 31
0.0
  0
LINE
  5
701
330
6FB
100
AcDbEntity
  8
0
 62
     0
440
 16777216
370
    -2
100
AcDbLine
 10
545.6291147948632
 20
391.7838524116044
 30
0.0
 11
545.6291147948632
 21
342.4229504116035
 31
0.0
  0
SOLID
  5
702
330
6FB
100
AcDbEntity
  8
0
 62
     0
440
 16777216
100
AcDbTrace
 10
545.5991147948632
 20
292.7020484116025
 30
0.0
 11
545.6591147948631
 21
292.7020484116025
 31
0.0
 12
545.6291147948632
 22
292.5220484116025
 32
0.0
 13
545.6291147948632
 23
292.5220484116025
 33
0.0
  0
SOLID
  5
703
330
6FB
100
AcDbEntity
  8
0
 62
     0
440
 16777216
100
AcDbTrace
 10
545.5991147948632
 20
391.7838524116044
 30
0.0
 11
545.6591147948631
 21
391.7838524116044
 31
0.0
 12
545.6291147948632
 22
391.9638524116044
 32
0.0
 13
545.6291147948632
 23
391.9638524116044
 33
0.0
  0
MTEXT
  5
704
330
6FB
100
AcDbEntity
  8
0
 62
     0
440
 16777216
100
AcDbMText
 10
545.6291147948631
 20
342.2429504116035
 30
0.0
 40
0.18
 41
0.0
 46
0.0
 71
     5
 72
     1
  1
\A1;99.4418
 73
     1
 44
1.0
  0
POINT
  5
705
330
6FB
100
AcDbEntity
  8
Defpoints
 62
     0
440
 16777216
100
AcDbPoint
 10
366.3052946383233
 20
292.5220484116025
 30
0.0
  0
POINT
  5
706
330
6FB
100
AcDbEntity
  8
Defpoints
 62
     0
440
 16777216
100
AcDbPoint
 10
374.5643156383287
 20
391.9638524116044
 30
0.0
  0
POINT
  5
707
330
6FB
100
AcDbEntity
  8
Defpoints
 62
     0
440
 16777216
100
AcDbPoint
 10
545.6291147948632
 20
391.9638524116044
 30
0.0
  0
ENDBLK
  5
6FD
330
6FB
100
AcDbEntity
  8
0
100
AcDbBlockEnd
  0
BLOCK
  5
70A
330
709
100
AcDbEntity
  8
0
100
AcDbBlockBegin
  2
*D5
 70
     1
 10
0.0
 20
0.0
 30
0.0
  3
*D5
  1

  0
LINE
  5
70C
330
709
100
AcDbEntity
  8
0
 62
     0
440
 16777216
370
    -2
100
AcDbLine
 10
366.3677946383233
 20
292.5220484116025
 30
0.0
 11
538.9869717257294
 21
292.5220484116025
 31
0.0
  0
LINE
  5
70D
330
709
100
AcDbEntity
  8
0
 62
     0
440
 16777216
370
    -2
100
AcDbLine
 10
372.6268156383287
 20
391.2335084116012
 30
0.0
 11
538.9869717257294
 21
391.2335084116011
 31
0.0
  0
LINE
  5
70E
330
709
100
AcDbEntity
  8
0
 62
     0
440
 16777216
370
    -2
100
AcDbLine
 10
538.8069717257293
 20
292.7020484116025
 30
0.0
 11
538.8069717257293
 21
341.6977784116018
 31
0.0
  0
LINE
  5
70F
330
709
100
AcDbEntity
  8
0
 62
     0
440
 16777216
370
    -2
100
AcDbLine
 10
538.8069717257293
 20
391.0535084116011
 30
0.0
 11
538.8069717257293
 21
342.0577784116018
 31
0.0
  0
SOLID
  5
710
330
709
100
AcDbEntity
  8
0
 62
     0
440
 16777216
100
AcDbTrace
 10
538.7769717257294
 20
292.7020484116025
 30
0.0
 11
538.8369717257294
 21
292.7020484116025
 31
0.0
 12
538.8069717257293
 22
292.5220484116025
 32
0.0
 13
538.8069717257293
 23
292.5220484116025
 33
0.0
  0
SOLID
  5
711
330
709
100
AcDbEntity
  8
0
 62
     0
440
 16777216
100
AcDbTrace
 10
538.7769717257294
 20
391.0535084116011
 30
0.0
 11
538.8369717257294
 21
391.0535084116011
 31
0.0
 12
538.8069717257293
 22
391.2335084116011
 32
0.0
 13
538.8069717257293
 23
391.2335084116011
 33
0.0
  0
MTEXT
  5
712
330
709
100
AcDbEntity
  8
0
 62
     0
440
 16777216
100
AcDbMText
 10
538.8069717257293
 20
341.8777784116019
 30
0.0
 40
0.18
 41
0.0
 46
0.0
 71
     5
 72
     1
  1
\A1;98.7115
 73
     1
 44
1.0
  0
POINT
  5
713
330
709
100
AcDbEntity
  8
Defpoints
 62
     0
440
 16777216
100
AcDbPoint
 10
366.3052946383233
 20
292.5220484116025
 30
0.0
  0
POINT
  5
714
330
709
100
AcDbEntity
  8
Defpoints
 62
     0
440
 16777216
100
AcDbPoint
 10
372.5643156383287
 20
391.2335084116012
 30
0.0
  0
POINT
  5
715
330
709
100
AcDbEntity
  8
Defpoints
 62
     0
440
 16777216
100
AcDbPoint
 10
538.8069717257293
 20
391.2335084116011
 30
0.0
  0
ENDBLK
  5
70B
330
709
100
AcDbEntity
  8
0
100
AcDbBlockEnd
  0
BLOCK
  5
719
330
718
100
AcDbEntity
  8
0
100
AcDbBlockBegin
  2
*D6
 70
     1
 10
0.0
 20
0.0
 30
0.0
  3
*D6
  1

  0
LINE
  5
71B
330
718
100
AcDbEntity
  8
0
 62
     0
440
 16777216
370
    -2
100
AcDbLine
 10
392.3301333076342
 20
392.226352411602
 30
0.0
 11
392.3301333076342
 21
580.4233838256575
 31
0.0
  0
LINE
  5
71C
330
718
100
AcDbEntity
  8
0
 62
     0
440
 16777216
370
    -2
100
AcDbLine
 10
208.5643156383286
 20
451.2263524116017
 30
0.0
 11
208.5643156383286
 21
580.4233838256575
 31
0.0
  0
LINE
  5
71D
330
718
100
AcDbEntity
  8
0
 62
     0
440
 16777216
370
    -2
100
AcDbLine
 10
392.1501333076342
 20
580.2433838256574
 30
0.0
 11
301.1372244729813
 21
580.2433838256574
 31
0.0
  0
LINE
  5
71E
330
718
100
AcDbEntity
  8
0
 62
     0
440
 16777216
370
    -2
100
AcDbLine
 10
208.7443156383286
 20
580.2433838256574
 30
0.0
 11
299.7572244729814
 21
580.2433838256574
 31
0.0
  0
SOLID
  5
71F
330
718
100
AcDbEntity
  8
0
 62
     0
440
 16777216
100
AcDbTrace
 10
392.1501333076342
 20
580.2733838256573
 30
0.0
 11
392.1501333076342
 21
580.2133838256573
 31
0.0
 12
392.3301333076342
 22
580.2433838256574
 32
0.0
 13
392.3301333076342
 23
580.2433838256574
 33
0.0
  0
SOLID
  5
720
330
718
100
AcDbEntity
  8
0
 62
     0
440
 16777216
100
AcDbTrace
 10
208.7443156383286
 20
580.2733838256573
 30
0.0
 11
208.7443156383286
 21
580.2133838256573
 31
0.0
 12
208.5643156383286
 22
580.2433838256574
 32
0.0
 13
208.5643156383286
 23
580.2433838256574
 33
0.0
  0
MTEXT
  5
721
330
718
100
AcDbEntity
  8
0
 62
     0
440
 16777216
100
AcDbMText
 10
300.4472244729814
 20
580.2433838256574
 30
0.0
 40
0.18
 41
0.0
 46
0.0
 71
     5
 72
     1
  1
\A1;183.7658
 73
     1
 44
1.0
  0
POINT
  5
722
330
718
100
AcDbEntity
  8
Defpoints
 62
     0
440
 16777216
100
AcDbPoint
 10
392.3301333076342
 20
392.163852411602
 30
0.0
  0
POINT
  5
723
330
718
100
AcDbEntity
  8
Defpoints
 62
     0
440
 16777216
100
AcDbPoint
 10
208.5643156383286
 20
451.1638524116017
 30
0.0
  0
POINT
  5
724
330
718
100
AcDbEntity
  8
Defpoints
 62
     0
440
 16777216
100
AcDbPoint
 10
208.5643156383286
 20
580.2433838256574
 30
0.0
  0
ENDBLK
  5
71A
330
718
100
AcDbEntity
  8
0
100
AcDbBlockEnd
  0
BLOCK
  5
7E1
330
7E0
100
AcDbEntity
  8
0
100
AcDbBlockBegin
  2
*D7
 70
     1
 10
0.0
 20
0.0
 30
0.0
  3
*D7
  1

  0
LINE
  5
7E3
330
7E0
100
AcDbEntity
  8
0
 62
     0
440
 16777216
370
    -2
100
AcDbLine
 10
208.5643156383286
 20
451.2263524116017
 30
0.0
 11
208.5643156383286
 21
540.4552811503779
 31
0.0
  0
LINE
  5
7E4
330
7E0
100
AcDbEntity
  8
0
 62
     0
440
 16777216
370
    -2
100
AcDbLine
 10
392.5643156383287
 20
313.1186564116052
 30
0.0
 11
392.5643156383287
 21
540.4552811503779
 31
0.0
  0
LINE
  5
7E5
330
7E0
100
AcDbEntity
  8
0
 62
     0
440
 16777216
370
    -2
100
AcDbLine
 10
208.7443156383286
 20
540.2752811503778
 30
0.0
 11
299.9343156383286
 21
540.2752811503778
 31
0.0
  0
LINE
  5
7E6
330
7E0
100
AcDbEntity
  8
0
 62
     0
440
 16777216
370
    -2
100
AcDbLine
 10
392.3843156383287
 20
540.2752811503778
 30
0.0
 11
301.1943156383286
 21
540.2752811503778
 31
0.0
  0
SOLID
  5
7E7
330
7E0
100
AcDbEntity
  8
0
 62
     0
440
 16777216
100
AcDbTrace
 10
208.7443156383286
 20
540.3052811503778
 30
0.0
 11
208.7443156383286
 21
540.2452811503779
 31
0.0
 12
208.5643156383286
 22
540.2752811503778
 32
0.0
 13
208.5643156383286
 23
540.2752811503778
 33
0.0
  0
SOLID
  5
7E8
330
7E0
100
AcDbEntity
  8
0
 62
     0
440
 16777216
100
AcDbTrace
 10
392.3843156383287
 20
540.3052811503778
 30
0.0
 11
392.3843156383287
 21
540.2452811503779
 31
0.0
 12
392.5643156383287
 22
540.2752811503778
 32
0.0
 13
392.5643156383287
 23
540.2752811503778
 33
0.0
  0
MTEXT
  5
7E9
330
7E0
100
AcDbEntity
  8
0
 62
     0
440
 16777216
100
AcDbMText
 10
300.5643156383286
 20
540.2752811503778
 30
0.0
 40
0.18
 41
0.0
 46
0.0
 71
     5
 72
     1
  1
\A1;184.0000
 73
     1
 44
1.0
  0
POINT
  5
7EA
330
7E0
100
AcDbEntity
  8
Defpoints
 62
     0
440
 16777216
100
AcDbPoint
 10
208.5643156383286
 20
451.1638524116017
 30
0.0
  0
POINT
  5
7EB
330
7E0
100
AcDbEntity
  8
Defpoints
 62
     0
440
 16777216
100
AcDbPoint
 10
392.5643156383287
 20
313.0561564116052
 30
0.0
  0
POINT
  5
7EC
330
7E0
100
AcDbEntity
  8
Defpoints
 62
     0
440
 16777216
100
AcDbPoint
 10
392.5643156383287
 20
540.2752811503778
 30
0.0
  0
ENDBLK
  5
7E2
330
7E0
100
AcDbEntity
  8
0
100
AcDbBlockEnd
  0
BLOCK
  5
7F5
330
7F4
100
AcDbEntity
  8
0
100
AcDbBlockBegin
  2
*D9
 70
     1
 10
0.0
 20
0.0
 30
0.0
  3
*D9
  1

  0
LINE
  5
7F7
330
7F4
100
AcDbEntity
  8
0
 62
     0
440
 16777216
370
    -2
100
AcDbLine
 10
208.5643156383286
 20
451.2263524116015
 30
0.0
 11
208.5643156383286
 21
649.6288473647821
 31
0.0
  0
LINE
  5
7F8
330
7F4
100
AcDbEntity
  8
0
 62
     0
440
 16777216
370
    -2
100
AcDbLine
 10
626.0643156383285
 20
408.2263524116018
 30
0.0
 11
626.0643156383285
 21
649.6288473647821
 31
0.0
  0
LINE
  5
7F9
330
7F4
100
AcDbEntity
  8
0
 62
     0
440
 16777216
370
    -2
100
AcDbLine
 10
208.7443156383287
 20
649.4488473647821
 30
0.0
 11
416.6693156383287
 21
649.4488473647821
 31
0.0
  0
LINE
  5
7FA
330
7F4
100
AcDbEntity
  8
0
 62
     0
440
 16777216
370
    -2
100
AcDbLine
 10
625.8843156383286
 20
649.4488473647821
 30
0.0
 11
417.9593156383286
 21
649.4488473647821
 31
0.0
  0
SOLID
  5
7FB
330
7F4
100
AcDbEntity
  8
0
 62
     0
440
 16777216
100
AcDbTrace
 10
208.7443156383287
 20
649.478847364782
 30
0.0
 11
208.7443156383287
 21
649.418847364782
 31
0.0
 12
208.5643156383286
 22
649.4488473647821
 32
0.0
 13
208.5643156383286
 23
649.4488473647821
 33
0.0
  0
SOLID
  5
7FC
330
7F4
100
AcDbEntity
  8
0
 62
     0
440
 16777216
100
AcDbTrace
 10
625.8843156383286
 20
649.478847364782
 30
0.0
 11
625.8843156383286
 21
649.418847364782
 31
0.0
 12
626.0643156383285
 22
649.4488473647821
 32
0.0
 13
626.0643156383285
 23
649.4488473647821
 33
0.0
  0
MTEXT
  5
7FD
330
7F4
100
AcDbEntity
  8
0
 62
     0
440
 16777216
100
AcDbMText
 10
417.3143156383286
 20
649.4488473647821
 30
0.0
 40
0.18
 41
0.0
 46
0.0
 71
     5
 72
     1
  1
\A1;417.5000
 73
     1
 44
1.0
  0
POINT
  5
7FE
330
7F4
100
AcDbEntity
  8
Defpoints
 62
     0
440
 16777216
100
AcDbPoint
 10
208.5643156383286
 20
451.1638524116015
 30
0.0
  0
POINT
  5
7FF
330
7F4
100
AcDbEntity
  8
Defpoints
 62
     0
440
 16777216
100
AcDbPoint
 10
626.0643156383285
 20
408.1638524116018
 30
0.0
  0
POINT
  5
800
330
7F4
100
AcDbEntity
  8
Defpoints
 62
     0
440
 16777216
100
AcDbPoint
 10
626.0643156383285
 20
649.4488473647821
 30
0.0
  0
ENDBLK
  5
7F6
330
7F4
100
AcDbEntity
  8
0
100
AcDbBlockEnd
  0
BLOCK
  5
803
330
802
100
AcDbEntity
  8
0
100
AcDbBlockBegin
  2
*D10
 70
     1
 10
0.0
 20
0.0
 30
0.0
  3
*D10
  1

  0
LINE
  5
805
330
802
100
AcDbEntity
  8
0
 62
     0
440
 16777216
370
    -2
100
AcDbLine
 10
208.6268156383286
 20
1308.163852411602
 30
0.0
 11
1259.755682985191
 21
1308.163852411602
 31
0.0
  0
LINE
  5
806
330
802
100
AcDbEntity
  8
0
 62
     0
440
 16777216
370
    -2
100
AcDbLine
 10
608.6268156383286
 20
408.1638524116018
 30
0.0
 11
1259.75568298519
 21
408.1638524116015
 31
0.0
  0
LINE
  5
807
330
802
100
AcDbEntity
  8
0
 62
     0
440
 16777216
370
    -2
100
AcDbLine
 10
1259.575682985191
 20
1307.983852411602
 30
0.0
 11
1259.575682985191
 21
858.3438524116015
 31
0.0
  0
LINE
  5
808
330
802
100
AcDbEntity
  8
0
 62
     0
440
 16777216
370
    -2
100
AcDbLine
 10
1259.57568298519
 20
408.3438524116015
 30
0.0
 11
1259.575682985191
 21
857.9838524116016
 31
0.0
  0
SOLID
  5
809
330
802
100
AcDbEntity
  8
0
 62
     0
440
 16777216
100
AcDbTrace
 10
1259.545682985191
 20
1307.983852411602
 30
0.0
 11
1259.60568298519
 21
1307.983852411602
 31
0.0
 12
1259.575682985191
 22
1308.163852411602
 32
0.0
 13
1259.575682985191
 23
1308.163852411602
 33
0.0
  0
SOLID
  5
80A
330
802
100
AcDbEntity
  8
0
 62
     0
440
 16777216
100
AcDbTrace
 10
1259.54568298519
 20
408.3438524116015
 30
0.0
 11
1259.60568298519
 21
408.3438524116015
 31
0.0
 12
1259.57568298519
 22
408.1638524116015
 32
0.0
 13
1259.57568298519
 23
408.1638524116015
 33
0.0
  0
MTEXT
  5
80B
330
802
100
AcDbEntity
  8
0
 62
     0
440
 16777216
100
AcDbMText
 10
1259.57568298519
 20
858.1638524116018
 30
0.0
 40
0.18
 41
0.0
 46
0.0
 71
     5
 72
     1
  1
\A1;900.0000
 73
     1
 44
1.0
  0
POINT
  5
80C
330
802
100
AcDbEntity
  8
Defpoints
 62
     0
440
 16777216
100
AcDbPoint
 10
208.5643156383286
 20
1308.163852411602
 30
0.0
  0
POINT
  5
80D
330
802
100
AcDbEntity
  8
Defpoints
 62
     0
440
 16777216
100
AcDbPoint
 10
608.5643156383286
 20
408.1638524116018
 30
0.0
  0
POINT
  5
80E
330
802
100
AcDbEntity
  8
Defpoints
 62
     0
440
 16777216
100
AcDbPoint
 10
1259.57568298519
 20
408.1638524116015
 30
0.0
  0
ENDBLK
  5
804
330
802
100
AcDbEntity
  8
0
100
AcDbBlockEnd
  0
ENDSEC
  0
SECTION
  2
ENTITIES
  0
LWPOLYLINE
  5
338
330
1F
100
AcDbEntity
  8
HEWI
100
AcDbPolyline
 90
        4
 70
     0
 43
0.0
 10
251.5643156383286
 20
392.163852411602
 10
605.5643156383283
 20
392.163852411602
 10
605.5643156383283
 20
424.1638524116018
 10
251.5643156383287
 20
424.1638524116018
  0
ARC
  5
339
330
1F
100
AcDbEntity
  8
HEWI
100
AcDbCircle
 10
208.5643156383286
 20
1308.163852411602
 30
0.0
 40
35.0
100
AcDbArc
 50
297.2028944122143
 51
242.7971055877856
  0
LINE
  5
33B
330
1F
100
AcDbEntity
  8
HEWI
100
AcDbLine
 10
605.2981365485091
 20
60.97023914750796
 30
0.0
 11
334.2981365485093
 21
60.97023914750796
 31
0.0
  0
LINE
  5
33D
330
1F
100
AcDbEntity
  8
HEWI
100
AcDbLine
 10
208.8899206502178
 20
28.97355257258766
 30
0.0
 11
605.2981365485091
 21
28.97090662741121
 31
0.0
  0
LWPOLYLINE
  5
33E
330
1F
100
AcDbEntity
  8
HEWI
100
AcDbPolyline
 90
        4
 70
     0
 43
0.0
 10
243.5643156383286
 20
105.9702391475079
 10
243.5643156383286
 20
116.9702391475079
 10
173.5643156383285
 20
116.9702391475079
 10
173.5643156383285
 20
105.9702391475079
  0
LWPOLYLINE
  5
33F
330
1F
100
AcDbEntity
  8
HEWI
100
AcDbPolyline
 90
        2
 70
     0
 43
0.0
 10
174.5643156383285
 20
104.9702391475079
 10
242.5643156383283
 20
104.9702391475079
  0
ARC
  5
340
330
1F
100
AcDbEntity
  8
HEWI
100
AcDbCircle
 10
242.5643156383283
 20
105.9702391475079
 30
0.0
 40
1.0
100
AcDbArc
 50
270.0
 51
0.0
  0
ARC
  5
341
330
1F
100
AcDbEntity
  8
HEWI
100
AcDbCircle
 10
174.5643156383285
 20
105.9702391475079
 30
0.0
 40
1.0
100
AcDbArc
 50
180.0
 51
270.0
  0
LINE
  5
342
330
1F
100
AcDbEntity
  8
HEWI
100
AcDbLine
 10
211.5643156383281
 20
104.9702391475079
 30
0.0
 11
208.5643156383283
 21
104.9702391475079
 31
0.0
  0
LINE
  5
344
330
1F
100
AcDbEntity
  8
HEWI
100
AcDbLine
 10
224.4938479604023
 20
46.47023914750784
 30
0.0
 11
224.4938479604023
 21
104.9702391475079
 31
0.0
  0
LINE
  5
345
330
1F
100
AcDbEntity
  8
HEWI
100
AcDbLine
 10
208.5643156383283
 20
104.9702391475079
 30
0.0
 11
205.5643156383285
 21
104.9702391475079
 31
0.0
  0
LINE
  5
346
330
1F
100
AcDbEntity
  8
HEWI
100
AcDbLine
 10
192.6347833162544
 20
104.9702391475079
 30
0.0
 11
192.6347833162544
 21
46.18647279300967
 31
0.0
  0
LWPOLYLINE
  5
348
330
1F
100
AcDbEntity
  8
HEWI
100
AcDbPolyline
 90
        4
 70
     0
 43
0.0
 10
643.298136548509
 20
105.9702391475079
 10
643.298136548509
 20
116.9702391475079
 10
573.2981365485092
 20
116.9702391475079
 10
573.2981365485092
 20
105.9702391475079
  0
LWPOLYLINE
  5
349
330
1F
100
AcDbEntity
  8
HEWI
100
AcDbPolyline
 90
        2
 70
     0
 43
0.0
 10
574.2981365485092
 20
104.9702391475079
 10
642.2981365485092
 20
104.9702391475079
  0
ARC
  5
34A
330
1F
100
AcDbEntity
  8
HEWI
100
AcDbCircle
 10
642.2981365485092
 20
105.9702391475079
 30
0.0
 40
1.0
100
AcDbArc
 50
270.0
 51
0.0
  0
ARC
  5
34B
330
1F
100
AcDbEntity
  8
HEWI
100
AcDbCircle
 10
574.2981365485092
 20
105.9702391475079
 30
0.0
 40
1.0
100
AcDbArc
 50
180.0
 51
270.0
  0
LINE
  5
34C
330
1F
100
AcDbEntity
  8
HEWI
100
AcDbLine
 10
611.2981365485092
 20
104.9702391475079
 30
0.0
 11
608.2981365485092
 21
104.9702391475079
 31
0.0
  0
LINE
  5
34D
330
1F
100
AcDbEntity
  8
HEWI
100
AcDbLine
 10
608.2981365485092
 20
28.97023914750784
 30
0.0
 11
611.2981365485092
 21
28.97023914750784
 31
0.0
  0
LINE
  5
34E
330
1F
100
AcDbEntity
  8
HEWI
100
AcDbLine
 10
611.2981365485092
 20
28.97023914750784
 30
0.0
 11
611.2981365485092
 21
104.9702391475079
 31
0.0
  0
LINE
  5
34F
330
1F
100
AcDbEntity
  8
HEWI
100
AcDbLine
 10
608.2981365485092
 20
104.9702391475079
 30
0.0
 11
605.2981365485091
 21
104.9702391475079
 31
0.0
  0
LINE
  5
350
330
1F
100
AcDbEntity
  8
HEWI
100
AcDbLine
 10
605.2981365485091
 20
104.9702391475079
 30
0.0
 11
605.2981365485091
 21
28.97023914750784
 31
0.0
  0
LINE
  5
351
330
1F
100
AcDbEntity
  8
HEWI
100
AcDbLine
 10
605.2981365485091
 20
28.97023914750784
 30
0.0
 11
608.2981365485092
 21
28.97023914750784
 31
0.0
  0
LWPOLYLINE
  5
352
330
1F
100
AcDbEntity
  8
HEWI
100
AcDbPolyline
 90
        4
 70
     1
 43
0.0
 10
192.5643156383286
 20
1311.163852411602
 10
192.5643156383286
 20
1305.163852411601
 10
224.5643156383286
 20
1305.163852411601
 10
224.5643156383286
 20
1311.163852411602
  0
ARC
  5
353
330
1F
100
AcDbEntity
  8
HEWI
100
AcDbCircle
 10
608.5643156383286
 20
408.1638524116018
 30
0.0
 40
35.0
100
AcDbArc
 50
207.2028944122106
 51
152.7971055877893
  0
LWPOLYLINE
  5
355
330
1F
100
AcDbEntity
  8
HEWI
100
AcDbPolyline
 90
        4
 70
     1
 43
0.0
 10
611.5643156383286
 20
392.163852411602
 10
605.5643156383283
 20
392.163852411602
 10
605.5643156383283
 20
424.1638524116018
 10
611.5643156383286
 20
424.1638524116018
  0
LWPOLYLINE
  5
356
330
1F
100
AcDbEntity
  8
HEWI
100
AcDbPolyline
 90
        4
 70
     0
 43
0.0
 10
881.1781060867849
 20
443.1638524116017
 10
892.178106086785
 20
443.1638524116017
 10
892.178106086785
 20
373.163852411602
 10
881.1781060867849
 20
373.163852411602
  0
LWPOLYLINE
  5
357
330
1F
100
AcDbEntity
  8
HEWI
100
AcDbPolyline
 90
        2
 70
     0
 43
0.0
 10
880.1781060867849
 20
374.163852411602
 10
880.1781060867849
 20
442.1638524116017
  0
ARC
  5
358
330
1F
100
AcDbEntity
  8
HEWI
100
AcDbCircle
 10
881.1781060867849
 20
442.1638524116017
 30
0.0
 40
1.0
100
AcDbArc
 50
90.0
 51
180.0
  0
ARC
  5
359
330
1F
100
AcDbEntity
  8
HEWI
100
AcDbCircle
 10
881.1781060867849
 20
374.163852411602
 30
0.0
 40
1.0
100
AcDbArc
 50
180.0
 51
270.0
  0
LINE
  5
35A
330
1F
100
AcDbEntity
  8
HEWI
100
AcDbLine
 10
880.1781060867849
 20
411.163852411602
 30
0.0
 11
880.1781060867849
 21
408.1638524116018
 31
0.0
  0
LINE
  5
35B
330
1F
100
AcDbEntity
  8
HEWI
100
AcDbLine
 10
880.1781060867849
 20
408.1638524116018
 30
0.0
 11
880.1781060867849
 21
405.1638524116017
 31
0.0
  0
ARC
  5
35C
330
1F
100
AcDbEntity
  8
HEWI
100
AcDbCircle
 10
820.1781053361598
 20
408.1638523409193
 30
0.0
 40
16.0
100
AcDbArc
 50
84.62062100888791
 51
275.3793789911121
  0
LINE
  5
35D
330
1F
100
AcDbEntity
  8
HEWI
100
AcDbLine
 10
820.1968996284383
 20
424.1638413026214
 30
0.0
 11
880.1781060867849
 21
424.0933847336759
 31
0.0
  0
LINE
  5
35E
330
1F
100
AcDbEntity
  8
HEWI
100
AcDbLine
 10
821.678106086785
 20
392.2343200895281
 30
0.0
 11
880.1781060867849
 21
392.2343200895281
 31
0.0
  0
ARC
  5
3EA
330
1F
100
AcDbEntity
  8
HEWI
100
AcDbCircle
 10
208.5643156383286
 20
1308.163852411602
 30
0.0
 40
17.5
100
AcDbArc
 50
336.1044918138368
 51
203.8955081861632
  0
ARC
  5
3EB
330
1F
100
AcDbEntity
  8
HEWI
100
AcDbCircle
 10
608.5643156383286
 20
408.1638524116018
 30
0.0
 40
17.5
100
AcDbArc
 50
246.1044918138367
 51
113.8955081861632
  0
LWPOLYLINE
  5
474
330
1F
100
AcDbEntity
  8
HEWI
100
AcDbPolyline
 90
        4
 70
     0
 43
0.0
 10
224.5643156383286
 20
451.1638524116017
 10
224.5643156383286
 20
1305.163852411601
 10
192.5643156383286
 20
1305.163852411601
 10
192.5643156383286
 20
451.1638524116017
  0
LINE
  5
482
330
1F
100
AcDbEntity
  8
HEWI
100
AcDbLine
 10
251.5643156383286
 20
392.163852411602
 30
0.0
 11
251.5643156383286
 21
424.1638524116018
 31
0.0
  0
LINE
  5
48A
330
1F
100
AcDbEntity
  8
HEWI
100
AcDbLine
 10
224.5643156383286
 20
451.1638524116017
 30
0.0
 11
192.5643156383286
 21
451.1638524116017
 31
0.0
  0
ARC
  5
48C
330
1F
100
AcDbEntity
  8
HEWI
100
AcDbCircle
 10
248.5937376260166
 20
448.19327439929
 30
0.0
 40
56.10811404780645
100
AcDbArc
 50
176.9651234932732
 51
273.0348765067266
  0
LINE
  5
48E
330
1F
100
AcDbEntity
  8
HEWI
100
AcDbLine
 10
224.5643156383286
 20
451.1638524116017
 30
0.0
 11
224.5643156383286
 21
446.2469851403018
 31
0.0
  0
LINE
  5
48F
330
1F
100
AcDbEntity
  8
HEWI
100
AcDbLine
 10
251.5643156383286
 20
424.1638524116018
 30
0.0
 11
246.6474483670276
 21
424.1638524116018
 31
0.0
  0
ARC
  5
491
330
1F
100
AcDbEntity
  8
HEWI
100
AcDbCircle
 10
248.5937376260166
 20
448.19327439929
 30
0.0
 40
24.10811404780645
100
AcDbArc
 50
176.9651234932732
 51
273.0348765067266
  0
LINE
  5
4AF
330
1F
100
AcDbEntity
  8
HEWI
100
AcDbLine
 10
804.1781060867847
 20
408.1638524116018
 30
0.0
 11
804.1781060867847
 21
1305.163852411602
 31
0.0
  0
LWPOLYLINE
  5
4B1
330
1F
100
AcDbEntity
  8
HEWI
100
AcDbPolyline
 90
        4
 70
     0
 43
0.0
 10
881.1781060867849
 20
1343.163852411602
 10
892.178106086785
 20
1343.163852411602
 10
892.178106086785
 20
1273.163852411602
 10
881.1781060867849
 20
1273.163852411602
  0
LWPOLYLINE
  5
4B2
330
1F
100
AcDbEntity
  8
HEWI
100
AcDbPolyline
 90
        2
 70
     0
 43
0.0
 10
880.1781060867849
 20
1274.163852411601
 10
880.1781060867849
 20
1342.163852411602
  0
ARC
  5
4B3
330
1F
100
AcDbEntity
  8
HEWI
100
AcDbCircle
 10
881.1781060867849
 20
1342.163852411602
 30
0.0
 40
1.0
100
AcDbArc
 50
90.0
 51
180.0
  0
ARC
  5
4B4
330
1F
100
AcDbEntity
  8
HEWI
100
AcDbCircle
 10
881.1781060867849
 20
1274.163852411601
 30
0.0
 40
1.0
100
AcDbArc
 50
180.0
 51
270.0
  0
LINE
  5
4B5
330
1F
100
AcDbEntity
  8
HEWI
100
AcDbLine
 10
880.1781060867849
 20
1311.163852411601
 30
0.0
 11
880.1781060867849
 21
1308.163852411602
 31
0.0
  0
LINE
  5
4B7
330
1F
100
AcDbEntity
  8
HEWI
100
AcDbLine
 10
804.1781060867847
 20
1311.163852411601
 30
0.0
 11
880.1781060867849
 21
1311.163852411601
 31
0.0
  0
LINE
  5
4B8
330
1F
100
AcDbEntity
  8
HEWI
100
AcDbLine
 10
880.1781060867849
 20
1308.163852411602
 30
0.0
 11
880.1781060867849
 21
1305.163852411602
 31
0.0
  0
LINE
  5
4B9
330
1F
100
AcDbEntity
  8
HEWI
100
AcDbLine
 10
880.1781060867849
 20
1305.163852411602
 30
0.0
 11
804.1781060867847
 21
1305.163852411602
 31
0.0
  0
LINE
  5
4BA
330
1F
100
AcDbEntity
  8
HEWI
100
AcDbLine
 10
804.1781060867847
 20
1305.163852411602
 30
0.0
 11
804.1781060867847
 21
1308.163852411602
 31
0.0
  0
LINE
  5
4BB
330
1F
100
AcDbEntity
  8
HEWI
100
AcDbLine
 10
835.9008684032167
 20
424.1453947287022
 30
0.0
 11
836.9357515169639
 21
1305.163852411602
 31
0.0
  0
LWPOLYLINE
  5
4C8
330
1F
100
AcDbEntity
  8
HEWI
100
AcDbPolyline
 90
        4
 70
     0
 43
0.0
 10
5.397554085438171
 20
443.1638524116017
 10
-5.602445914561824
 20
443.1638524116017
 10
-5.602445914561824
 20
373.163852411602
 10
5.397554085438171
 20
373.163852411602
  0
LWPOLYLINE
  5
4C9
330
1F
100
AcDbEntity
  8
HEWI
100
AcDbPolyline
 90
        2
 70
     0
 43
0.0
 10
6.397554085438172
 20
374.163852411602
 10
6.397554085438172
 20
442.1638524116017
  0
ARC
  5
4CA
330
1F
100
AcDbEntity
  8
HEWI
100
AcDbCircle
 10
5.397554085438171
 20
442.1638524116017
 30
0.0
 40
1.0
100
AcDbArc
 50
0.000000000000007
 51
90.0
  0
ARC
  5
4CB
330
1F
100
AcDbEntity
  8
HEWI
100
AcDbCircle
 10
5.397554085438171
 20
374.163852411602
 30
0.0
 40
1.0
100
AcDbArc
 50
270.0
 51
0.000000000000007
  0
LINE
  5
4CC
330
1F
100
AcDbEntity
  8
HEWI
100
AcDbLine
 10
6.397554085438172
 20
411.163852411602
 30
0.0
 11
6.397554085438172
 21
408.1638524116018
 31
0.0
  0
LINE
  5
4CD
330
1F
100
AcDbEntity
  8
HEWI
100
AcDbLine
 10
6.397554085438172
 20
408.1638524116018
 30
0.0
 11
6.397554085438172
 21
405.1638524116017
 31
0.0
  0
ARC
  5
4CE
330
1F
100
AcDbEntity
  8
HEWI
100
AcDbCircle
 10
66.3975540854382
 20
408.163852411602
 30
0.0
 40
16.0
100
AcDbArc
 50
174.6206210088879
 51
5.379378991112043
  0
LINE
  5
4CF
330
1F
100
AcDbEntity
  8
HEWI
100
AcDbLine
 10
50.3975540854382
 20
424.0933847336759
 30
0.0
 11
6.397554085438172
 21
424.0933847336759
 31
0.0
  0
LINE
  5
4D0
330
1F
100
AcDbEntity
  8
HEWI
100
AcDbLine
 10
64.8975540854382
 20
392.2343200895281
 30
0.0
 11
6.397554085438172
 21
392.2343200895281
 31
0.0
  0
LINE
  5
4D1
330
1F
100
AcDbEntity
  8
HEWI
100
AcDbLine
 10
82.39755408543819
 20
408.1638524116018
 30
0.0
 11
82.39755408543819
 21
1305.163852411602
 31
0.0
  0
LINE
  5
4D2
330
1F
100
AcDbEntity
  8
HEWI
100
AcDbLine
 10
50.3975540854382
 20
408.1638524116018
 30
0.0
 11
50.39755408543817
 21
1305.163852411602
 31
0.0
  0
LWPOLYLINE
  5
4D4
330
1F
100
AcDbEntity
  8
HEWI
100
AcDbPolyline
 90
        4
 70
     0
 43
0.0
 10
5.397554085438171
 20
1343.163852411602
 10
-5.602445914561824
 20
1343.163852411602
 10
-5.602445914561824
 20
1273.163852411602
 10
5.397554085438171
 20
1273.163852411602
  0
LWPOLYLINE
  5
4D5
330
1F
100
AcDbEntity
  8
HEWI
100
AcDbPolyline
 90
        2
 70
     0
 43
0.0
 10
6.397554085438172
 20
1274.163852411601
 10
6.397554085438172
 20
1342.163852411602
  0
ARC
  5
4D6
330
1F
100
AcDbEntity
  8
HEWI
100
AcDbCircle
 10
5.397554085438171
 20
1342.163852411602
 30
0.0
 40
1.0
100
AcDbArc
 50
0.0
 51
90.0
  0
ARC
  5
4D7
330
1F
100
AcDbEntity
  8
HEWI
100
AcDbCircle
 10
5.397554085438171
 20
1274.163852411601
 30
0.0
 40
1.0
100
AcDbArc
 50
270.0
 51
0.0
  0
LINE
  5
4D8
330
1F
100
AcDbEntity
  8
HEWI
100
AcDbLine
 10
6.397554085438172
 20
1311.163852411601
 30
0.0
 11
6.397554085438172
 21
1308.163852411602
 31
0.0
  0
LINE
  5
4DA
330
1F
100
AcDbEntity
  8
HEWI
100
AcDbLine
 10
82.39755408543819
 20
1311.163852411601
 30
0.0
 11
6.397554085438172
 21
1311.163852411601
 31
0.0
  0
LINE
  5
4DB
330
1F
100
AcDbEntity
  8
HEWI
100
AcDbLine
 10
6.397554085438172
 20
1308.163852411602
 30
0.0
 11
6.397554085438172
 21
1305.163852411602
 31
0.0
  0
LINE
  5
4DC
330
1F
100
AcDbEntity
  8
HEWI
100
AcDbLine
 10
6.397554085438172
 20
1305.163852411602
 30
0.0
 11
82.39755408543819
 21
1305.163852411602
 31
0.0
  0
LINE
  5
4DD
330
1F
100
AcDbEntity
  8
HEWI
100
AcDbLine
 10
82.39755408543819
 20
1305.163852411602
 30
0.0
 11
82.39755408543819
 21
1308.163852411602
 31
0.0
  0
ARC
  5
4DE
330
1F
100
AcDbEntity
  8
HEWI
100
AcDbCircle
 10
208.5643156383283
 20
44.97023914750784
 30
0.0
 40
16.0
100
AcDbArc
 50
174.6206210088879
 51
5.379378991112073
  0
LINE
  5
4EB
330
1F
100
AcDbEntity
  8
HEWI
100
AcDbLine
 10
208.5643156383286
 20
451.1638524116017
 30
0.0
 11
224.5643156383286
 21
451.1638524116017
 31
0.0
  0
LINE
  5
4EC
330
1F
100
AcDbEntity
  8
HEWI
100
AcDbLine
 10
804.1781060867847
 20
451.1638524116015
 30
0.0
 11
835.9326054745253
 21
451.1638524116015
 31
0.0
  0
LINE
  5
4EE
330
1F
100
AcDbEntity
  8
HEWI
100
AcDbLine
 10
251.8304947281474
 20
60.97023914750796
 30
0.0
 11
251.8304947281474
 21
28.97023914750784
 31
0.0
  0
LINE
  5
4EF
330
1F
100
AcDbEntity
  8
HEWI
100
AcDbLine
 10
835.9326054745253
 20
451.1638524116017
 30
0.0
 11
804.1781060867847
 21
451.1638524116017
 31
0.0
  0
LINE
  5
4F0
330
1F
100
AcDbEntity
  8
HEWI
100
AcDbLine
 10
224.5643156383287
 20
451.1638524116015
 30
0.0
 11
192.5643156383286
 21
451.1638524116015
 31
0.0
  0
LINE
  5
4F1
330
1F
100
AcDbEntity
  8
HEWI
100
AcDbLine
 10
82.39755408543819
 20
451.1638524116017
 30
0.0
 11
50.3975540854382
 21
451.1638524116017
 31
0.0
  0
ARC
  5
560
330
1F
100
AcDbEntity
  8
HEWI
100
AcDbCircle
 10
331.5643156383286
 20
408.1638524116018
 30
0.0
 40
35.0
100
AcDbArc
 50
207.2028944122106
 51
332.7971055877859
  0
LWPOLYLINE
  5
561
330
1F
100
AcDbEntity
  8
HEWI
100
AcDbPolyline
 90
        4
 70
     1
 43
0.0
 10
334.5643156383287
 20
392.163852411602
 10
328.5643156383283
 20
392.163852411602
 10
328.5643156383283
 20
424.1638524116018
 10
334.5643156383287
 20
424.1638524116018
  0
ARC
  5
562
330
1F
100
AcDbEntity
  8
HEWI
100
AcDbCircle
 10
331.5643156383286
 20
408.1638524116018
 30
0.0
 40
35.0
100
AcDbArc
 50
27.20289441221443
 51
152.7971055877893
  0
LWPOLYLINE
  5
563
330
1F
100
AcDbEntity
  8
HEWI
100
AcDbPolyline
 90
        4
 70
     0
 43
0.0
 10
366.2981365485093
 20
105.9702391475079
 10
366.2981365485093
 20
116.9702391475079
 10
296.2981365485093
 20
116.9702391475079
 10
296.2981365485093
 20
105.9702391475079
  0
LWPOLYLINE
  5
564
330
1F
100
AcDbEntity
  8
HEWI
100
AcDbPolyline
 90
        2
 70
     0
 43
0.0
 10
297.2981365485093
 20
104.9702391475079
 10
365.2981365485093
 20
104.9702391475079
  0
ARC
  5
565
330
1F
100
AcDbEntity
  8
HEWI
100
AcDbCircle
 10
365.2981365485093
 20
105.9702391475079
 30
0.0
 40
1.0
100
AcDbArc
 50
270.0
 51
0.0
  0
ARC
  5
566
330
1F
100
AcDbEntity
  8
HEWI
100
AcDbCircle
 10
297.2981365485093
 20
105.9702391475079
 30
0.0
 40
1.0
100
AcDbArc
 50
180.0
 51
270.0
  0
LINE
  5
567
330
1F
100
AcDbEntity
  8
HEWI
100
AcDbLine
 10
334.2981365485092
 20
104.9702391475079
 30
0.0
 11
331.2981365485093
 21
104.9702391475079
 31
0.0
  0
LINE
  5
568
330
1F
100
AcDbEntity
  8
HEWI
100
AcDbLine
 10
331.2981365485093
 20
28.97023914750784
 30
0.0
 11
334.2981365485092
 21
28.97023914750784
 31
0.0
  0
LINE
  5
569
330
1F
100
AcDbEntity
  8
HEWI
100
AcDbLine
 10
334.2981365485092
 20
28.97023914750784
 30
0.0
 11
334.2981365485092
 21
104.9702391475079
 31
0.0
  0
LINE
  5
56A
330
1F
100
AcDbEntity
  8
HEWI
100
AcDbLine
 10
331.2981365485093
 20
104.9702391475079
 30
0.0
 11
328.2981365485093
 21
104.9702391475079
 31
0.0
  0
LINE
  5
56B
330
1F
100
AcDbEntity
  8
HEWI
100
AcDbLine
 10
328.2981365485093
 20
104.9702391475079
 30
0.0
 11
328.2981365485093
 21
28.97023914750784
 31
0.0
  0
LINE
  5
56C
330
1F
100
AcDbEntity
  8
HEWI
100
AcDbLine
 10
328.2981365485093
 20
28.97023914750784
 30
0.0
 11
331.2981365485093
 21
28.97023914750784
 31
0.0
  0
LINE
  5
56D
330
1F
100
AcDbEntity
  8
HEWI
100
AcDbLine
 10
328.2981365485093
 20
60.97023914750796
 30
0.0
 11
224.4938479604023
 21
60.97023914750796
 31
0.0
  0
LINE
  5
6B3
330
1F
100
AcDbEntity
  8
HEWI
100
AcDbLine
 10
411.5643156383287
 20
312.8561564116044
 30
0.0
 11
375.5643156383287
 21
312.8561564116044
 31
0.0
  0
LINE
  5
6B4
330
1F
100
AcDbEntity
  8
HEWI
100
AcDbLine
 10
243.3643156383171
 20
319.0638524116057
 30
0.0
 11
243.5643156383287
 21
318.8638524116014
 31
0.0
  0
LINE
  5
6B5
330
1F
100
AcDbEntity
  8
HEWI
100
AcDbLine
 10
243.5643156383287
 20
286.4638524116036
 30
0.0
 11
243.3643156383171
 21
286.2638524116028
 31
0.0
  0
LINE
  5
6B6
330
1F
100
AcDbEntity
  8
HEWI
100
AcDbLine
 10
240.7643156383403
 20
286.2638524116028
 30
0.0
 11
240.5643156383287
 21
286.4638524116036
 31
0.0
  0
LINE
  5
6B7
330
1F
100
AcDbEntity
  8
HEWI
100
AcDbLine
 10
240.5643156383287
 20
318.8638524116014
 30
0.0
 11
240.7643156383403
 21
319.0638524116057
 31
0.0
  0
LINE
  5
6B8
330
1F
100
AcDbEntity
  8
HEWI
100
AcDbLine
 10
243.3643156383171
 20
286.2638524116028
 30
0.0
 11
240.7643156383403
 21
286.2638524116028
 31
0.0
  0
LINE
  5
6B9
330
1F
100
AcDbEntity
  8
HEWI
100
AcDbLine
 10
240.7643156383403
 20
319.0638524116057
 30
0.0
 11
243.3643156383171
 21
319.0638524116057
 31
0.0
  0
LINE
  5
6BA
330
1F
100
AcDbEntity
  8
HEWI
100
AcDbLine
 10
263.5643156383287
 20
290.1638524116043
 30
0.0
 11
243.5643156383287
 21
290.1638524116043
 31
0.0
  0
LINE
  5
6BB
330
1F
100
AcDbEntity
  8
HEWI
100
AcDbLine
 10
386.0462736383181
 20
290.1638524116043
 30
0.0
 11
348.5643156383287
 21
290.1638524116043
 31
0.0
  0
LINE
  5
6BC
330
1F
100
AcDbEntity
  8
HEWI
100
AcDbLine
 10
413.5643156383286
 20
290.1638524116007
 30
0.0
 11
401.114315638317
 21
290.1638524116043
 31
0.0
  0
LINE
  5
6BD
330
1F
100
AcDbEntity
  8
HEWI
100
AcDbLine
 10
243.5643156383287
 20
315.1638524116043
 30
0.0
 11
373.5630516383374
 21
315.1638524116043
 31
0.0
  0
LINE
  5
6BE
330
1F
100
AcDbEntity
  8
HEWI
100
AcDbLine
 10
413.5643156383286
 20
392.163852411602
 30
0.0
 11
413.5643156383286
 21
290.1638524116043
 31
0.0
  0
LINE
  5
6BF
330
1F
100
AcDbEntity
  8
HEWI
100
AcDbLine
 10
375.5643156383287
 20
312.8561564116044
 30
0.0
 11
375.5643156383287
 21
313.0561564116052
 31
0.0
  0
LINE
  5
6C0
330
1F
100
AcDbEntity
  8
HEWI
100
AcDbLine
 10
411.5643156383287
 20
313.0561564116052
 30
0.0
 11
375.5643156383287
 21
313.0561564116052
 31
0.0
  0
LINE
  5
6C1
330
1F
100
AcDbEntity
  8
HEWI
100
AcDbLine
 10
411.5643156383287
 20
312.8561564116044
 30
0.0
 11
411.5643156383287
 21
313.0561564116052
 31
0.0
  0
LINE
  5
6C2
330
1F
100
AcDbEntity
  8
HEWI
100
AcDbLine
 10
411.5643156383287
 20
392.163852411602
 30
0.0
 11
411.5643156383287
 21
313.0561564116052
 31
0.0
  0
LINE
  5
6C3
330
1F
100
AcDbEntity
  8
HEWI
100
AcDbLine
 10
243.3643156383171
 20
286.2638524116028
 30
0.0
 11
243.3643156383171
 21
319.0638524116057
 31
0.0
  0
LINE
  5
6C4
330
1F
100
AcDbEntity
  8
HEWI
100
AcDbLine
 10
243.5643156383287
 20
318.8638524116014
 30
0.0
 11
243.5643156383287
 21
302.6638524116043
 31
0.0
  0
LINE
  5
6C5
330
1F
100
AcDbEntity
  8
HEWI
100
AcDbLine
 10
243.5643156383287
 20
302.6638524116043
 30
0.0
 11
243.5643156383287
 21
286.4638524116036
 31
0.0
  0
LINE
  5
6C6
330
1F
100
AcDbEntity
  8
HEWI
100
AcDbLine
 10
263.814605638325
 20
287.8048584116023
 30
0.0
 11
264.7861396383362
 21
288.0417564116052
 31
0.0
  0
LINE
  5
6C7
330
1F
100
AcDbEntity
  8
HEWI
100
AcDbLine
 10
263.5643156383287
 20
290.4701164116032
 30
0.0
 11
263.5643156383287
 21
289.8638524116014
 31
0.0
  0
LINE
  5
6C8
330
1F
100
AcDbEntity
  8
HEWI
100
AcDbLine
 10
264.5643156383287
 20
289.2887624116029
 30
0.0
 11
264.5643156383287
 21
290.1589344116056
 31
0.0
  0
LINE
  5
6C9
330
1F
100
AcDbEntity
  8
HEWI
100
AcDbLine
 10
348.3140256383324
 20
287.8048584116023
 30
0.0
 11
347.3424916383212
 21
288.0417564116052
 31
0.0
  0
LINE
  5
6CA
330
1F
100
AcDbEntity
  8
HEWI
100
AcDbLine
 10
264.5643156383287
 20
290.1589344116056
 30
0.0
 11
347.5643156383287
 21
290.1589344116056
 31
0.0
  0
LINE
  5
6CB
330
1F
100
AcDbEntity
  8
HEWI
100
AcDbLine
 10
264.7861396383362
 20
288.0417564116052
 30
0.0
 11
347.3424916383212
 21
288.0417564116052
 31
0.0
  0
LINE
  5
6CC
330
1F
100
AcDbEntity
  8
HEWI
100
AcDbLine
 10
348.5643156383287
 20
289.8638524116014
 30
0.0
 11
348.5643156383287
 21
290.4701164116032
 31
0.0
  0
LINE
  5
6CD
330
1F
100
AcDbEntity
  8
HEWI
100
AcDbLine
 10
347.5643156383287
 20
290.1589344116056
 30
0.0
 11
347.5643156383287
 21
289.2887624116029
 31
0.0
  0
LINE
  5
6CE
330
1F
100
AcDbEntity
  8
HEWI
100
AcDbLine
 10
263.5643156383287
 20
290.4701044116064
 30
0.0
 11
348.5643156383287
 21
290.4701044116064
 31
0.0
  0
LINE
  5
6CF
330
1F
100
AcDbEntity
  8
HEWI
100
AcDbLine
 10
263.5643156383287
 20
290.4701044116064
 30
0.0
 11
263.5643156383287
 21
290.1638524116043
 31
0.0
  0
LINE
  5
6D0
330
1F
100
AcDbEntity
  8
HEWI
100
AcDbLine
 10
348.5643156383287
 20
290.1638524116043
 30
0.0
 11
348.5643156383287
 21
290.4701044116064
 31
0.0
  0
LINE
  5
6D1
330
1F
100
AcDbEntity
  8
HEWI
100
AcDbLine
 10
401.1143176383322
 20
290.1638504116036
 30
0.0
 11
401.1143176383322
 21
290.1638504116036
 31
0.0
  0
LINE
  5
6D2
330
1F
100
AcDbEntity
  8
HEWI
100
AcDbLine
 10
389.0887776383299
 20
291.7138524116036
 30
0.0
 11
398.0882076383261
 21
291.7138524116036
 31
0.0
  0
LINE
  5
6D3
330
1F
100
AcDbEntity
  8
HEWI
100
AcDbLine
 10
387.8643156383171
 20
290.9138524116043
 30
0.0
 11
399.2643156383403
 21
290.9138524116043
 31
0.0
  0
LINE
  5
6D4
330
1F
100
AcDbEntity
  8
HEWI
100
AcDbLine
 10
373.5643156383287
 20
392.163852411602
 30
0.0
 11
373.5643156383287
 21
314.1111224116012
 31
0.0
  0
LINE
  5
6D5
330
1F
100
AcDbEntity
  8
HEWI
100
AcDbLine
 10
375.5643156383287
 20
313.0561564116052
 30
0.0
 11
375.5643156383287
 21
392.163852411602
 31
0.0
  0
LINE
  5
6D6
330
1F
100
AcDbEntity
  8
HEWI
100
AcDbLine
 10
240.5643156383287
 20
318.8638524116014
 30
0.0
 11
240.5643156383287
 21
302.6638524116043
 31
0.0
  0
LINE
  5
6D7
330
1F
100
AcDbEntity
  8
HEWI
100
AcDbLine
 10
240.5643156383287
 20
302.6638524116043
 30
0.0
 11
240.5643156383287
 21
286.4638524116036
 31
0.0
  0
LINE
  5
6D8
330
1F
100
AcDbEntity
  8
HEWI
100
AcDbLine
 10
240.7643156383403
 20
302.6638524116043
 30
0.0
 11
240.7643156383403
 21
319.0638524116057
 31
0.0
  0
LINE
  5
6D9
330
1F
100
AcDbEntity
  8
HEWI
100
AcDbLine
 10
240.7643156383403
 20
286.2638524116028
 30
0.0
 11
240.7643156383403
 21
302.6638524116043
 31
0.0
  0
ARC
  5
6DA
330
1F
100
AcDbEntity
  8
HEWI
100
AcDbCircle
 10
399.2643156383403
 20
291.7138524116036
 30
0.0
 40
0.8
100
AcDbArc
 50
270.0
 51
294.9833950007993
  0
ARC
  5
6DB
330
1F
100
AcDbEntity
  8
HEWI
100
AcDbCircle
 10
387.8643156383171
 20
291.7138524116036
 30
0.0
 40
0.8
100
AcDbArc
 50
244.3569869999695
 51
270.0
  0
ELLIPSE
  5
6DC
330
1F
100
AcDbEntity
  8
HEWI
100
AcDbEllipse
 10
373.7643156383404
 20
314.1111224116012
 30
0.0
 11
0.2
 21
0.0
 31
0.0
210
0.0
220
0.0
230
-1.0
 40
0.90136
 41
2.514698896745267
 42
3.141592653589792
  0
ELLIPSE
  5
6DD
330
1F
100
AcDbEntity
  8
HEWI
100
AcDbEllipse
 10
264.5643156383287
 20
289.8638524116014
 30
0.0
 11
-1.0
 21
0.0
 31
0.0
210
0.0
220
0.0
230
-1.0
 40
0.57509
 41
4.71238898038469
 42
6.283185307179563
  0
ELLIPSE
  5
6DE
330
1F
100
AcDbEntity
  8
HEWI
100
AcDbEllipse
 10
347.5643156383287
 20
289.8638524116014
 30
0.0
 11
1.0
 21
0.0000000000000001
 31
0.0
210
0.0
220
0.0
230
-1.0
 40
0.57509
 41
0.0
 42
1.570796326794897
  0
SPLINE
  5
6DF
330
1F
100
AcDbEntity
  8
HEWI
100
AcDbSpline
210
0.0000000000000002
220
0.0000000000000002
230
1.0
 70
     8
 71
     3
 72
    16
 73
    12
 74
     0
 42
0.000000001
 43
0.0000000001
 40
0.0
 40
0.0
 40
0.0
 40
0.0
 40
0.1771404143545236
 40
0.1771404143545236
 40
0.3522186943510297
 40
0.3522186943510297
 40
0.539954319336339
 40
0.539954319336339
 40
0.7594025013289695
 40
0.7594025013289695
 40
1.0
 40
1.0
 40
1.0
 40
1.0
 10
375.5643158197039
 20
313.0561571973504
 30
-0.0000000000000004
 10
375.3679640099565
 20
313.0561571973504
 30
-0.0000000000000004
 10
375.1689954299639
 20
313.0752261919097
 30
-0.0000000000000004
 10
374.800916317645
 20
313.1446620868611
 30
-0.0000000000000004
 10
374.6268096104596
 20
313.1952625517789
 30
-0.0000000000000004
 10
374.3056921734226
 20
313.3199516257792
 30
-0.0000000000000002
 10
374.1575739111851
 20
313.396745518372
 30
-0.0000000000000002
 10
373.8896594712553
 20
313.5732138172335
 30
-0.0000000000000002
 10
373.7751375102655
 20
313.676761734887
 30
-0.0000000000000002
 10
373.610027898538
 20
313.8914804720171
 30
-0.0000000000000002
 10
373.5643158197039
 20
314.0054495369752
 30
-0.0000000000000002
 10
373.5643158197039
 20
314.1111227689381
 30
-0.0000000000000002
  0
SPLINE
  5
6E0
330
1F
100
AcDbEntity
  8
HEWI
100
AcDbSpline
210
0.0000000000000002
220
0.0000000000000003
230
1.0
 70
     8
 71
     3
 72
    16
 73
    12
 74
     0
 42
0.000000001
 43
0.0000000001
 40
0.0
 40
0.0
 40
0.0
 40
0.0
 40
0.012771053008153
 40
0.012771053008153
 40
0.2987140812229396
 40
0.2987140812229396
 40
0.5432081856599547
 40
0.5432081856599547
 40
0.7705827780638374
 40
0.7705827780638374
 40
1.0
 40
1.0
 40
1.0
 40
1.0
 10
373.873775696002
 20
313.6177712410554
 30
-0.0000000000000002
 10
373.8768196234289
 20
313.613264050493
 30
-0.0000000000000002
 10
373.8799243117085
 20
313.6087594102847
 30
-0.0000000000000002
 10
373.9541152336444
 20
313.5032449119154
 30
-0.0000000000000002
 10
374.0571432652344
 20
313.401399768618
 30
-0.0000000000000002
 10
374.2981644715458
 20
313.2277838206847
 30
-0.0000000000000002
 10
374.4313681460319
 20
313.1522181896453
 30
-0.0000000000000002
 10
374.7203259094951
 20
313.0295130763971
 30
-0.0000000000000004
 10
374.8769864953049
 20
312.9796656200797
 30
-0.0000000000000004
 10
375.2083066938779
 20
312.9113130954375
 30
-0.0000000000000004
 10
375.3875128130878
 20
312.8924988533309
 30
-0.0000000000000004
 10
375.5643158197039
 20
312.8924988533309
 30
-0.0000000000000004
  0
SPLINE
  5
6E1
330
1F
100
AcDbEntity
  8
HEWI
100
AcDbSpline
210
0.0
220
0.0
230
1.0
 70
     8
 71
     3
 72
    16
 73
    12
 74
     0
 42
0.000000001
 43
0.0000000001
 40
0.0
 40
0.0
 40
0.0
 40
0.0
 40
0.1053123592843732
 40
0.1053123592843732
 40
0.3301327988397731
 40
0.3301327988397731
 40
0.6504275187068807
 40
0.6504275187068807
 40
0.9722491720568131
 40
0.9722491720568131
 40
1.0
 40
1.0
 40
1.0
 40
1.0
 10
411.5643158197038
 20
312.8924988533309
 30
0.0
 10
411.6470887607412
 20
312.8924988533309
 30
0.0
 10
411.7301375935187
 20
312.8964878464813
 30
0.0
 10
411.9842125199777
 20
312.9207846638073
 30
0.0
 10
412.1535205332604
 20
312.9550298733648
 30
0.0
 10
412.5248443545117
 20
313.0676257560972
 30
0.0
 10
412.7193587340864
 20
313.1603680247045
 30
0.0
 10
413.0318163141184
 20
313.3646777259983
 30
0.0
 10
413.1554316551176
 20
313.4797344321324
 30
0.0
 10
413.2451428360638
 20
313.6035509785125
 30
0.0
 10
413.2519785294408
 20
313.6133993840504
 30
0.0
 10
413.2585234143173
 20
313.6232583989532
 30
0.0
  0
SPLINE
  5
6E2
330
1F
100
AcDbEntity
  8
HEWI
100
AcDbSpline
210
0.0
220
0.0
230
1.0
 70
     8
 71
     3
 72
    16
 73
    12
 74
     0
 42
0.000000001
 43
0.0000000001
 40
0.0
 40
0.0
 40
0.0
 40
0.0
 40
0.2481016251448624
 40
0.2481016251448624
 40
0.4963851440995061
 40
0.4963851440995061
 40
0.7438538839225557
 40
0.7438538839225557
 40
0.9181884979193776
 40
0.9181884979193776
 40
1.0
 40
1.0
 40
1.0
 40
1.0
 10
413.5643158197036
 20
314.1111227689381
 30
0.0
 10
413.5643158197036
 20
314.0021348069259
 30
0.0
 10
413.5156323225221
 20
313.8842567727243
 30
0.0
 10
413.3322974216701
 20
313.6528833464964
 30
0.0
 10
413.1948541408911
 20
313.5358802989704
 30
0.0
 10
412.8474396468647
 20
313.3281585003006
 30
0.0
 10
412.6310620915885
 20
313.2339453718942
 30
0.0
 10
412.2186966037245
 20
313.1196079943166
 30
0.0
 10
412.0306335068582
 20
313.0848751015274
 30
0.0
 10
411.7485327065498
 20
313.0602074323379
 30
0.0
 10
411.6562755549368
 20
313.0561571973504
 30
0.0
 10
411.5643158197038
 20
313.0561571973504
 30
0.0
  0
SPLINE
  5
6E3
330
1F
100
AcDbEntity
  8
HEWI
100
AcDbSpline
210
0.0
220
0.0
230
1.0
 70
     8
 71
     3
 72
    10
 73
     6
 74
     0
 42
0.000000001
 43
0.0000000001
 40
0.0
 40
0.0
 40
0.0
 40
0.0
 40
0.5631963510114814
 40
0.5631963510114814
 40
1.0
 40
1.0
 40
1.0
 40
1.0
 10
263.5643158197038
 20
289.8638523519421
 30
0.0
 10
263.5643158197038
 20
289.5175377448087
 30
0.0
 10
263.5869432926104
 20
289.1294470563244
 30
0.0
 10
263.6800057968342
 20
288.429574942491
 30
0.0
 10
263.7392554476958
 20
288.1138739634317
 30
0.0
 10
263.8146052824144
 20
287.8048584248591
 30
0.0
  0
SPLINE
  5
6E4
330
1F
100
AcDbEntity
  8
HEWI
100
AcDbSpline
210
0.0
220
0.0
230
1.0
 70
     8
 71
     3
 72
    10
 73
     6
 74
     0
 42
0.000000001
 43
0.0000000001
 40
0.0
 40
0.0
 40
0.0
 40
0.0
 40
0.4861134168230314
 40
0.4861134168230314
 40
1.0
 40
1.0
 40
1.0
 40
1.0
 10
264.7861399563828
 20
288.0417558231657
 30
0.0
 10
264.7127943928629
 20
288.2476145077799
 30
0.0
 10
264.6555166718884
 20
288.4626393811323
 30
0.0
 10
264.5806157507743
 20
288.8864880245147
 30
0.0
 10
264.5643158197038
 20
289.1001693806521
 30
0.0
 10
264.5643158197038
 20
289.2887623042134
 30
0.0
  0
SPLINE
  5
6E5
330
1F
100
AcDbEntity
  8
HEWI
100
AcDbSpline
210
-0.0000000000000013
220
-0.0000000000000017
230
1.0
 70
     8
 71
     3
 72
    12
 73
     8
 74
     0
 42
0.000000001
 43
0.0000000001
 40
0.0
 40
0.0
 40
0.0
 40
0.0
 40
0.4202079642026861
 40
0.4202079642026861
 40
0.8401692150779277
 40
0.8401692150779277
 40
1.0
 40
1.0
 40
1.0
 40
1.0
 10
264.5643158197038
 20
290.1589353100263
 30
0.0000000000000002
 10
264.4536147854217
 20
290.1589353100263
 30
0.0000000000000002
 10
264.3413896393015
 20
290.1781721490753
 30
-0.0000000000000002
 10
264.1325831843408
 20
290.251629305114
 30
-0.0000000000000002
 10
264.0331333454799
 20
290.3068045377132
 30
-0.0000000000000002
 10
263.9136290791196
 20
290.4019359574359
 30
-0.0000000000000002
 10
263.8822127939477
 20
290.4304155773626
 30
-0.0000000000000002
 10
263.8526476437967
 20
290.4607740083721
 30
-0.0000000000000002
  0
SPLINE
  5
6E6
330
1F
100
AcDbEntity
  8
HEWI
100
AcDbSpline
210
0.0
220
0.0
230
1.0
 70
     8
 71
     3
 72
    10
 73
     6
 74
     0
 42
0.000000001
 43
0.0000000001
 40
0.0
 40
0.0
 40
0.0
 40
0.0
 40
0.5635302216462811
 40
0.5635302216462811
 40
1.0
 40
1.0
 40
1.0
 40
1.0
 10
348.3140263569934
 20
287.8048584248591
 30
0.0
 10
348.4106865918424
 20
288.2012695733447
 30
0.0
 10
348.4805696750975
 20
288.6101286043395
 30
0.0
 10
348.550928196548
 20
289.2993992977955
 30
0.0
 10
348.5643158197039
 20
289.5939326452408
 30
0.0
 10
348.5643158197039
 20
289.8638523519458
 30
0.0
  0
SPLINE
  5
6E7
330
1F
100
AcDbEntity
  8
HEWI
100
AcDbSpline
210
0.0
220
0.0
230
1.0
 70
     8
 71
     3
 72
    10
 73
     6
 74
     0
 42
0.000000001
 43
0.0000000001
 40
0.0
 40
0.0
 40
0.0
 40
0.0
 40
0.4830490318618912
 40
0.4830490318618912
 40
1.0
 40
1.0
 40
1.0
 40
1.0
 10
347.5643158197038
 20
289.2887623042134
 30
0.0
 10
347.5643158197038
 20
289.1111436844022
 30
0.0
 10
347.5499836469229
 20
288.91151548573
 30
0.0
 10
347.480020559595
 20
288.4893517263754
 30
0.0
 10
347.4203404215789
 20
288.2602535501557
 30
0.0
 10
347.3424916830538
 20
288.0417558231657
 30
0.0
  0
SPLINE
  5
6E8
330
1F
100
AcDbEntity
  8
HEWI
100
AcDbSpline
210
0.0
220
0.0
230
1.0
 70
     8
 71
     3
 72
    12
 73
     8
 74
     0
 42
0.000000001
 43
0.0000000001
 40
0.0
 40
0.0
 40
0.0
 40
0.0
 40
0.3099027414590628
 40
0.3099027414590628
 40
0.7381692089327201
 40
0.7381692089327201
 40
1.0
 40
1.0
 40
1.0
 40
1.0
 10
348.2771056944023
 20
290.4619050276362
 30
0.0
 10
348.2198364991911
 20
290.4030742160013
 30
0.0
 10
348.1551765993629
 20
290.350910372481
 30
0.0
 10
347.9899038122369
 20
290.2484697071105
 30
0.0
 10
347.8822746417411
 20
290.2048766710305
 30
0.0
 10
347.7039349744722
 20
290.1664106674271
 30
0.0
 10
347.6339318343364
 20
290.1589353100263
 30
0.0
 10
347.5643158197038
 20
290.1589353100263
 30
0.0
  0
SPLINE
  5
6E9
330
1F
100
AcDbEntity
  8
HEWI
100
AcDbSpline
210
0.0
220
-0.0000000000000002
230
1.0
 70
     8
 71
     3
 72
    14
 73
    10
 74
     0
 42
0.000000001
 43
0.0000000001
 40
0.0
 40
0.0
 40
0.0
 40
0.0
 40
0.2499087050623483
 40
0.2499087050623483
 40
0.4999391367082322
 40
0.4999391367082322
 40
0.7499695683541161
 40
0.7499695683541161
 40
1.0
 40
1.0
 40
1.0
 40
1.0
 10
386.0143476841024
 20
290.1638716272956
 30
-0.0000000000000002
 10
386.0084486443359
 20
290.1603486762743
 30
-0.0000000000000002
 10
386.860682575438
 20
290.716191524376
 30
-0.0000000000000002
 10
389.5842558182179
 20
292.0033000473614
 30
-0.0000000000000004
 10
391.5201584318113
 20
292.6986250944665
 30
0.0000000000000004
 10
395.5798794169371
 20
292.7044511911718
 30
0.0000000000000002
 10
397.5153233358271
 20
292.0155957623484
 30
0.0
 10
400.2675252844621
 20
290.7178101147092
 30
-0.0000000000000002
 10
401.1143292166508
 20
290.1638436013218
 30
-0.0000000000000002
 10
401.1143184351078
 20
290.1638506409927
 30
-0.0000000000000002
  0
SPLINE
  5
6EA
330
1F
100
AcDbEntity
  8
HEWI
100
AcDbSpline
210
0.0
220
0.0
230
1.0
 70
     8
 71
     3
 72
    26
 73
    22
 74
     0
 42
0.000000001
 43
0.0000000001
 40
0.0
 40
0.0
 40
0.0
 40
0.0
 40
0.0625
 40
0.0625
 40
0.1249999999999999
 40
0.1249999999999999
 40
0.25
 40
0.25
 40
0.3750000000000001
 40
0.3750000000000001
 40
0.5000000000000001
 40
0.5000000000000001
 40
0.6250000000000001
 40
0.6250000000000001
 40
0.7500000000000002
 40
0.7500000000000002
 40
0.8750000000000001
 40
0.8750000000000001
 40
0.9375
 40
0.9375
 40
1.0
 40
1.0
 40
1.0
 40
1.0
 10
348.3140263569934
 20
287.8048584248591
 30
0.0
 10
347.8310325748736
 20
285.8240633212099
 30
0.0
 10
346.7111233890157
 20
284.0849948446685
 30
0.0
 10
343.9520481888305
 20
281.1058991832888
 30
0.0
 10
342.359528326195
 20
279.8921281160638
 30
0.0
 10
337.2438710742557
 20
276.6885954054579
 30
0.0
 10
333.5031711013273
 20
275.2089409474775
 30
0.0
 10
325.8430027132547
 20
272.9211479762799
 30
0.0
 10
321.8892112844899
 20
272.1350773769828
 30
0.0
 10
314.0158564050491
 20
271.1095564229491
 30
0.0
 10
310.0610476386485
 20
270.8649189829503
 30
0.0
 10
302.1184875900783
 20
270.8627925351012
 30
0.0
 10
298.1063833845821
 20
271.1089611795924
 30
0.0
 10
290.1849427707477
 20
272.1436120040144
 30
0.0
 10
286.2773033185788
 20
272.9228218871922
 30
0.0
 10
278.6105860084338
 20
275.2141984735263
 30
0.0
 10
274.8246458152119
 20
276.7195843532991
 30
0.0
 10
269.7440656695383
 20
279.9111896813538
 30
0.0
 10
268.1604974070781
 20
281.1205222478075
 30
0.0
 10
265.4122930287542
 20
284.0933930473566
 30
0.0
 10
264.2963218163625
 20
285.8293014154206
 30
0.0
 10
263.8146052824144
 20
287.8048584248591
 30
0.0
  0
SPLINE
  5
6EB
330
1F
100
AcDbEntity
  8
HEWI
100
AcDbSpline
210
0.0
220
0.0
230
1.0
 70
     8
 71
     3
 72
    24
 73
    20
 74
     0
 42
0.000000001
 43
0.0000000001
 40
0.0
 40
0.0
 40
0.0
 40
0.0
 40
0.0625000000000001
 40
0.0625000000000001
 40
0.1250000000000001
 40
0.1250000000000001
 40
0.2500000000000001
 40
0.2500000000000001
 40
0.3749999999999999
 40
0.3749999999999999
 40
0.5
 40
0.5
 40
0.75
 40
0.75
 40
0.8749999999999998
 40
0.8749999999999998
 40
0.9375
 40
0.9375
 40
1.0
 40
1.0
 40
1.0
 40
1.0
 10
347.3424916830538
 20
288.0417558231657
 30
0.0
 10
346.8714456863511
 20
286.1099595176839
 30
0.0
 10
345.7285296869215
 20
284.4430841415652
 30
0.0
 10
343.019382869212
 20
281.6328516430204
 30
0.0
 10
341.417834226186
 20
280.4530492621762
 30
0.0
 10
336.4274526555657
 20
277.426854527419
 30
0.0
 10
332.7369202363754
 20
275.9996455108213
 30
0.0
 10
325.2959323950912
 20
273.8280333484273
 30
0.0
 10
321.4993047258451
 20
273.0847787290277
 30
0.0
 10
313.7950754342585
 20
272.0975788049746
 30
0.0
 10
309.8908823450313
 20
271.8625294526265
 30
0.0
 10
298.3140341593519
 20
271.8665148726523
 30
0.0
 10
290.6420567647131
 20
272.7186729968508
 30
0.0
 10
279.3733679936542
 20
276.0038130185258
 30
0.0
 10
275.6878350576719
 20
277.4331164330234
 30
0.0
 10
270.7015721571791
 20
280.4595628515072
 30
0.0
 10
269.1080116428186
 20
281.6331572817453
 30
0.0
 10
266.3933256640432
 20
284.4510938104777
 30
0.0000000000000002
 10
265.2560804724619
 20
286.1144931797444
 30
0.0
 10
264.7861399563828
 20
288.0417558231657
 30
0.0
  0
ARC
  5
775
330
1F
100
AcDbEntity
  8
HEWI
100
AcDbCircle
 10
66.39755408543829
 20
408.163852411602
 30
0.0
 40
16.0
100
AcDbArc
 50
174.6206210088873
 51
5.379378991112679
  0
CIRCLE
  5
77B
330
1F
100
AcDbEntity
  8
HEWI
100
AcDbCircle
 10
66.39755408543829
 20
303.0220484116038
 30
0.0
 40
16.3
  0
LINE
  5
77C
330
1F
100
AcDbEntity
  8
HEWI
100
AcDbLine
 10
73.3975540854383
 20
393.7763578416639
 30
0.0
 11
73.3975540854383
 21
317.7424424280695
 31
0.0
  0
LINE
  5
77D
330
1F
100
AcDbEntity
  8
HEWI
100
AcDbLine
 10
58.39755408543829
 20
394.307445951051
 30
0.0
 11
58.39755408543829
 21
317.2238088658573
 31
0.0
  0
LINE
  5
77E
330
1F
100
AcDbEntity
  8
HEWI
  6
STANDARD
 62
     7
370
    15
100
AcDbLine
 10
65.4013455010056
 20
272.2687725668028
 30
0.0
 11
65.4013455010056
 21
286.6552166585999
 31
0.0
  0
LINE
  5
77F
330
1F
100
AcDbEntity
  8
HEWI
  6
STANDARD
 62
     7
370
    15
100
AcDbLine
 10
67.40133405691357
 20
272.2257427816468
 30
0.0
 11
67.40133405691357
 21
286.6561321859436
 31
0.0
  0
LINE
  5
780
330
1F
100
AcDbEntity
  8
HEWI
  6
STANDARD
 62
     7
370
    15
100
AcDbLine
 10
67.02034116750951
 20
271.4357952718809
 30
0.0
 11
67.14334608083959
 21
271.5517620687559
 31
0.0
  0
LINE
  5
781
330
1F
100
AcDbEntity
  8
HEWI
  6
STANDARD
 62
     7
370
    15
100
AcDbLine
 10
65.54535032278271
 20
271.7037396078187
 30
0.0
 11
65.6593334770796
 21
271.5517620687559
 31
0.0
  0
LINE
  5
782
330
1F
100
AcDbEntity
  8
HEWI
  6
STANDARD
 62
     7
370
    15
100
AcDbLine
 10
65.46234251028271
 20
271.878757918366
 30
0.0
 11
65.54535032278271
 21
271.7037396078187
 31
0.0
  0
LINE
  5
783
330
1F
100
AcDbEntity
  8
HEWI
  6
STANDARD
 62
     7
370
    15
100
AcDbLine
 10
65.41633726125929
 20
272.0487408285218
 30
0.0
 11
65.46234251028271
 21
271.878757918366
 31
0.0
  0
LINE
  5
784
330
1F
100
AcDbEntity
  8
HEWI
  6
STANDARD
 62
     7
370
    15
100
AcDbLine
 10
65.4013455010056
 20
272.2257427816468
 30
0.0
 11
65.41633726125929
 21
272.0487408285218
 31
0.0
  0
LINE
  5
785
330
1F
100
AcDbEntity
  8
HEWI
  6
STANDARD
 62
     7
370
    15
100
AcDbLine
 10
66.27834440237257
 20
271.2298016195378
 30
0.0
 11
66.40134931570287
 21
271.2346844320379
 31
0.0
  0
LINE
  5
786
330
1F
100
AcDbEntity
  8
HEWI
  6
STANDARD
 62
     7
370
    15
100
AcDbLine
 10
66.40134931570287
 20
271.2346844320379
 30
0.0
 11
66.5243351555464
 21
271.2298016195378
 31
0.0
  0
LINE
  5
787
330
1F
100
AcDbEntity
  8
HEWI
  6
STANDARD
 62
     7
370
    15
100
AcDbLine
 10
67.38634229665968
 20
272.0487408285218
 30
0.0
 11
67.40133405691357
 21
272.2257427816468
 31
0.0
  0
LINE
  5
788
330
1F
100
AcDbEntity
  8
HEWI
  6
STANDARD
 62
     7
370
    15
100
AcDbLine
 10
67.34033704763646
 20
271.878757918366
 30
0.0
 11
67.38634229665968
 21
272.0487408285218
 31
0.0
  0
LINE
  5
789
330
1F
100
AcDbEntity
  8
HEWI
  6
STANDARD
 62
     7
370
    15
100
AcDbLine
 10
67.25734830862257
 20
271.7037396078187
 30
0.0
 11
67.34033704763646
 21
271.878757918366
 31
0.0
  0
LINE
  5
78A
330
1F
100
AcDbEntity
  8
HEWI
  6
STANDARD
 62
     7
370
    15
100
AcDbLine
 10
67.14334608083959
 20
271.5517620687559
 30
0.0
 11
67.25734830862257
 21
271.7037396078187
 31
0.0
  0
ARC
  5
78B
330
1F
100
AcDbEntity
  8
HEWI
  6
STANDARD
 62
     7
370
    15
100
AcDbCircle
 10
66.4064289457483
 20
272.2138604046319
 30
0.0
 40
0.991097153074158
100
AcDbArc
 50
276.8323931849229
 51
308.2742946123353
  0
ARC
  5
78C
330
1F
100
AcDbEntity
  8
HEWI
  6
STANDARD
 62
     7
370
    15
100
AcDbCircle
 10
66.39709576989663
 20
272.2141614156129
 30
0.0
 40
0.9914968963227718
100
AcDbArc
 50
221.9190584761662
 51
263.1211837411024
  0
CIRCLE
  5
78D
330
1F
100
AcDbEntity
  8
HEWI
100
AcDbCircle
 10
820.1781053361598
 20
303.0220483409213
 30
0.0
 40
12.5
  0
ARC
  5
78E
330
1F
100
AcDbEntity
  8
HEWI
100
AcDbCircle
 10
820.1781053361598
 20
303.0220483409213
 30
0.0
 40
16.3
100
AcDbArc
 50
119.3930154477098
 51
64.5674754027949
  0
LINE
  5
78F
330
1F
100
AcDbEntity
  8
HEWI
  6
STANDARD
 62
     7
370
    15
100
AcDbLine
 10
819.1818967517274
 20
272.2687724961203
 30
0.0
 11
819.1818967517274
 21
286.6552165879174
 31
0.0
  0
LINE
  5
790
330
1F
100
AcDbEntity
  8
HEWI
  6
STANDARD
 62
     7
370
    15
100
AcDbLine
 10
821.1818853076351
 20
272.2257427109643
 30
0.0
 11
821.1818853076351
 21
286.6561321152612
 31
0.0
  0
LINE
  5
791
330
1F
100
AcDbEntity
  8
HEWI
  6
STANDARD
 62
     7
370
    15
100
AcDbLine
 10
820.800892418231
 20
271.4357952011984
 30
0.0
 11
820.923897331561
 21
271.5517619980734
 31
0.0
  0
LINE
  5
792
330
1F
100
AcDbEntity
  8
HEWI
  6
STANDARD
 62
     7
370
    15
100
AcDbLine
 10
819.3259015735042
 20
271.7037395371361
 30
0.0
 11
819.4398847278012
 21
271.5517619980734
 31
0.0
  0
LINE
  5
793
330
1F
100
AcDbEntity
  8
HEWI
  6
STANDARD
 62
     7
370
    15
100
AcDbLine
 10
819.2428937610042
 20
271.8787578476835
 30
0.0
 11
819.3259015735042
 21
271.7037395371361
 31
0.0
  0
LINE
  5
794
330
1F
100
AcDbEntity
  8
HEWI
  6
STANDARD
 62
     7
370
    15
100
AcDbLine
 10
819.1968885119807
 20
272.0487407578393
 30
0.0
 11
819.2428937610042
 21
271.8787578476835
 31
0.0
  0
LINE
  5
795
330
1F
100
AcDbEntity
  8
HEWI
  6
STANDARD
 62
     7
370
    15
100
AcDbLine
 10
819.1818967517274
 20
272.2257427109643
 30
0.0
 11
819.1968885119807
 21
272.0487407578393
 31
0.0
  0
LINE
  5
796
330
1F
100
AcDbEntity
  8
HEWI
  6
STANDARD
 62
     7
370
    15
100
AcDbLine
 10
820.0588956530943
 20
271.2298015488553
 30
0.0
 11
820.1819005664244
 21
271.2346843613553
 31
0.0
  0
LINE
  5
797
330
1F
100
AcDbEntity
  8
HEWI
  6
STANDARD
 62
     7
370
    15
100
AcDbLine
 10
820.1819005664244
 20
271.2346843613553
 30
0.0
 11
820.3048864062679
 21
271.2298015488553
 31
0.0
  0
LINE
  5
798
330
1F
100
AcDbEntity
  8
HEWI
  6
STANDARD
 62
     7
370
    15
100
AcDbLine
 10
821.1668935473813
 20
272.0487407578393
 30
0.0
 11
821.1818853076351
 21
272.2257427109643
 31
0.0
  0
LINE
  5
799
330
1F
100
AcDbEntity
  8
HEWI
  6
STANDARD
 62
     7
370
    15
100
AcDbLine
 10
821.120888298358
 20
271.8787578476835
 30
0.0
 11
821.1668935473813
 21
272.0487407578393
 31
0.0
  0
LINE
  5
79A
330
1F
100
AcDbEntity
  8
HEWI
  6
STANDARD
 62
     7
370
    15
100
AcDbLine
 10
821.037899559344
 20
271.7037395371361
 30
0.0
 11
821.120888298358
 21
271.8787578476835
 31
0.0
  0
LINE
  5
79B
330
1F
100
AcDbEntity
  8
HEWI
  6
STANDARD
 62
     7
370
    15
100
AcDbLine
 10
820.923897331561
 20
271.5517619980734
 30
0.0
 11
821.037899559344
 21
271.7037395371361
 31
0.0
  0
ARC
  5
79C
330
1F
100
AcDbEntity
  8
HEWI
  6
STANDARD
 62
     7
370
    15
100
AcDbCircle
 10
820.1869801964701
 20
272.2138603339494
 30
0.0
 40
0.991097153074158
100
AcDbArc
 50
276.832393184923
 51
308.2742946123352
  0
ARC
  5
79D
330
1F
100
AcDbEntity
  8
HEWI
  6
STANDARD
 62
     7
370
    15
100
AcDbCircle
 10
820.1776470206183
 20
272.2141613449304
 30
0.0
 40
0.9914968963227718
100
AcDbArc
 50
221.9190584761673
 51
263.1211837411022
  0
LINE
  5
79E
330
1F
100
AcDbEntity
  8
HEWI
100
AcDbLine
 10
827.1781053361598
 20
392.2343200895281
 30
0.0
 11
827.1781053361598
 21
313.3782059295253
 31
0.0
  0
LINE
  5
79F
330
1F
100
AcDbEntity
  8
HEWI
100
AcDbLine
 10
812.1781053361596
 20
394.3074458803683
 30
0.0
 11
812.1781053361598
 21
312.6267346970706
 31
0.0
  0
ENDSEC
  0
SECTION
  2
OBJECTS
  0
DICTIONARY
  5
C
330
0
100
AcDbDictionary
281
     1
  3
ACAD_CIP_PREVIOUS_PRODUCT_INFO
350
1CC
  3
ACAD_COLOR
350
1AC
  3
ACAD_DETAILVIEWSTYLE
350
1C6
  3
ACAD_GROUP
350
D
  3
ACAD_LAYOUT
350
1A
  3
ACAD_MATERIAL
350
17A
  3
ACAD_MLEADERSTYLE
350
1C1
  3
ACAD_MLINESTYLE
350
17
  3
ACAD_PLOTSETTINGS
350
19
  3
ACAD_PLOTSTYLENAME
350
DF
  3
ACAD_SCALELIST
350
1AF
  3
ACAD_SECTIONVIEWSTYLE
350
1C3
  3
ACAD_TABLESTYLE
350
1AD
  3
ACAD_VISUALSTYLE
350
193
  3
ACDB_RECOMPOSE_DATA
350
810
  3
AcDbVariableDictionary
350
2CB
  0
DICTIONARY
  5
1E1
330
2
100
AcDbDictionary
280
     1
281
     1
  3
ACAD_LAYERSTATES
360
1E2
  0
DICTIONARY
  5
1CD
330
10
100
AcDbDictionary
280
     1
281
     1
  3
ADSK_XREC_LAYER_RECONCILED
360
1CE
  0
DICTIONARY
  5
5D0
330
5CF
100
AcDbDictionary
280
     1
281
     1
  0
DICTIONARY
  5
D9
330
1F
100
AcDbDictionary
280
     1
281
     1
  3
ACAD_LAYOUTSELFREF
360
177
  3
ACAD_SORTENTS
360
292
  0
DICTIONARY
  5
D7
330
1B
100
AcDbDictionary
280
     1
281
     1
  3
ACAD_LAYOUTSELFREF
360
176
  0
XRECORD
  5
1CC
102
{ACAD_REACTORS
330
C
102
}
330
C
100
AcDbXrecord
280
     1
300
ACDLT
300
2016
300
ACDLT_F_S
  0
DICTIONARY
  5
1AC
102
{ACAD_REACTORS
330
C
102
}
330
C
100
AcDbDictionary
281
     1
  0
DICTIONARY
  5
1C6
102
{ACAD_REACTORS
330
C
102
}
330
C
100
AcDbDictionary
281
     1
  3
Imperial24
350
1C7
  0
DICTIONARY
  5
D
102
{ACAD_REACTORS
330
C
102
}
330
C
100
AcDbDictionary
281
     1
  0
DICTIONARY
  5
1A
102
{ACAD_REACTORS
330
C
102
}
330
C
100
AcDbDictionary
281
     1
  3
Layout1
350
1C9
  3
Model
350
1C8
  0
DICTIONARY
  5
17A
102
{ACAD_REACTORS
330
C
102
}
330
C
100
AcDbDictionary
281
     1
  3
ByBlock
350
183
  3
ByLayer
350
17B
  3
Global
350
18B
  0
DICTIONARY
  5
1C1
102
{ACAD_REACTORS
330
C
102
}
330
C
100
AcDbDictionary
281
     1
  3
Standard
350
1C2
  0
DICTIONARY
  5
17
102
{ACAD_REACTORS
330
C
102
}
330
C
100
AcDbDictionary
281
     1
  3
STANDARD
350
18
  0
DICTIONARY
  5
19
102
{ACAD_REACTORS
330
C
102
}
330
C
100
AcDbDictionary
281
     1
  0
ACDBDICTIONARYWDFLT
  5
DF
102
{ACAD_REACTORS
330
C
102
}
330
C
100
AcDbDictionary
281
     1
  3
Normal
350
E0
100
AcDbDictionaryWithDefault
340
E0
  0
DICTIONARY
  5
1AF
102
{ACAD_REACTORS
330
C
102
}
330
C
100
AcDbDictionary
281
     1
  3
A0
350
1B0
  3
A1
350
1B1
  3
A2
350
1B2
  3
A3
350
1B3
  3
A4
350
1B4
  3
A5
350
1B5
  3
A6
350
1B6
  3
A7
350
1B7
  3
A8
350
1B8
  3
A9
350
1B9
  3
B0
350
1BA
  3
B1
350
1BB
  3
B2
350
1BC
  3
B3
350
1BD
  3
B4
350
1BE
  3
B5
350
1BF
  3
B6
350
1C0
  0
DICTIONARY
  5
1C3
102
{ACAD_REACTORS
330
C
102
}
330
C
100
AcDbDictionary
281
     1
  3
Imperial24
350
1C5
  0
DICTIONARY
  5
1AD
102
{ACAD_REACTORS
330
C
102
}
330
C
100
AcDbDictionary
281
     1
  3
Standard
350
1AE
  0
DICTIONARY
  5
193
102
{ACAD_REACTORS
330
C
102
}
330
C
100
AcDbDictionary
281
     1
  3
2dWireframe
350
199
  3
3dWireframe
350
5D6
  3
Basic
350
198
  3
Brighten
350
19F
  3
ColorChange
350
1A3
  3
Conceptual
350
19C
  3
Dim
350
19E
  3
EdgeColorOff
350
1AB
  3
Facepattern
350
1A2
  3
Flat
350
194
  3
FlatWithEdges
350
195
  3
Gouraud
350
196
  3
GouraudWithEdges
350
197
  3
Hidden
350
19B
  3
JitterOff
350
1A9
  3
Linepattern
350
1A1
  3
OverhangOff
350
1AA
  3
Realistic
350
19D
  3
Shaded
350
1A8
  3
Shaded with edges
350
1A7
  3
Shades of Gray
350
1A4
  3
Sketchy
350
1A5
  3
Thicken
350
1A0
  3
Wireframe
350
19A
  3
X-Ray
350
1A6
  0
XRECORD
  5
810
102
{ACAD_REACTORS
330
C
102
}
330
C
100
AcDbXrecord
280
     1
 90
        1
330
1AE
  0
DICTIONARY
  5
2CB
102
{ACAD_REACTORS
330
C
102
}
330
C
100
AcDbDictionary
281
     1
  3
CANNOSCALE
350
2D1
  3
CMLEADERSTYLE
350
2CD
  3
CTABLESTYLE
350
2CC
  3
CVIEWDETAILSTYLE
350
2CE
  3
CVIEWSECTIONSTYLE
350
2CF
  3
LAYEREVAL
350
2D3
  3
LAYERNOTIFY
350
2D4
  3
LIGHTINGUNITS
350
2D2
  3
MSLTSCALE
350
2D0
  0
DICTIONARY
  5
1E2
102
{ACAD_REACTORS
330
1E1
102
}
330
1E1
100
AcDbDictionary
281
     1
  0
XRECORD
  5
1CE
102
{ACAD_REACTORS
330
1CD
102
}
330
1CD
100
AcDbXrecord
280
     1
290
     1
  0
XRECORD
  5
177
102
{ACAD_REACTORS
330
D9
102
}
330
D9
100
AcDbXrecord
280
     1
340
1F
  0
SORTENTSTABLE
  5
292
102
{ACAD_REACTORS
330
D9
102
}
330
D9
100
AcDbSortentsTable
330
1F
331
4DE
  5
4ED
331
4DA
  5
4DD
331
4D6
  5
4DA
331
6CD
  5
6CF
331
4D2
  5
4D6
331
6C9
  5
6CB
331
794
  5
795
331
790
  5
791
331
78C
  5
78D
331
788
  5
789
331
3EB
  5
48A
331
6C5
  5
6C7
331
4CE
  5
4D1
331
35B
  5
35D
331
4CA
  5
4CD
331
6C1
  5
6C3
331
6BD
  5
6BF
331
6E9
  5
6EB
331
4BA
  5
4CA
331
6B9
  5
6BB
331
784
  5
785
331
780
  5
781
331
77C
  5
77D
331
357
  5
359
331
6B4
  5
6B6
331
353
  5
356
331
56D
  5
33E
331
34F
  5
351
331
34B
  5
34D
331
4B2
  5
4B6
331
569
  5
56C
331
565
  5
568
331
561
  5
565
331
6E4
  5
6E6
331
6E0
  5
6E2
331
33F
  5
341
331
33B
  5
33D
331
4F1
  5
561
331
48E
  5
4B0
331
48A
  5
48E
331
6DC
  5
6DE
331
79F
  5
7A0
331
6D8
  5
6DA
331
6D4
  5
6D6
331
79B
  5
79C
331
6D0
  5
6D2
331
4DD
  5
4EC
331
4D5
  5
4D8
331
6CC
  5
6CE
331
6C8
  5
6CA
331
4D1
  5
4D5
331
797
  5
798
331
793
  5
794
331
78F
  5
790
331
78B
  5
78C
331
3EA
  5
482
331
35E
  5
3EB
331
6C4
  5
6C6
331
4CD
  5
4D0
331
35A
  5
35C
331
4C9
  5
4CC
331
6C0
  5
6C2
331
6BC
  5
6BE
331
6E8
  5
6EA
331
4B9
  5
4C9
331
6B8
  5
6BA
331
787
  5
788
331
783
  5
784
331
77F
  5
780
331
77B
  5
77C
331
6B7
  5
6B9
331
356
  5
358
331
6B3
  5
6B5
331
352
  5
355
331
56C
  5
6B4
331
482
  5
48F
331
4B5
  5
4BA
331
34E
  5
350
331
34A
  5
34C
331
4B1
  5
4B5
331
568
  5
56B
331
564
  5
567
331
560
  5
563
331
6E7
  5
6E9
331
6E3
  5
6E5
331
346
  5
349
331
342
  5
345
331
33E
  5
340
331
491
  5
4AF
331
4F0
  5
55E
331
4EC
  5
4F1
331
6DF
  5
6E1
331
6DB
  5
6DD
331
79E
  5
79F
331
6D7
  5
6D9
331
6D3
  5
6D5
331
79A
  5
79B
331
4DC
  5
4EB
331
4D8
  5
4DC
331
6CF
  5
6D1
331
4D4
  5
4D7
331
6CB
  5
6CD
331
4D0
  5
4D4
331
796
  5
797
331
792
  5
793
331
78E
  5
78F
331
78A
  5
78B
331
6C7
  5
6C9
331
35D
  5
3EA
331
4CC
  5
4CF
331
6C3
  5
6C5
331
359
  5
35B
331
4C8
  5
4CB
331
6BF
  5
6C1
331
6EB
  5
775
331
6BB
  5
6BD
331
4B8
  5
4C8
331
786
  5
787
331
782
  5
783
331
77E
  5
77F
331
6B6
  5
6B8
331
355
  5
357
331
351
  5
353
331
34D
  5
34F
331
56B
  5
63F
331
4B4
  5
4B9
331
349
  5
34B
331
567
  5
56A
331
563
  5
566
331
6E6
  5
6E8
331
6E2
  5
6E4
331
345
  5
348
331
341
  5
344
331
33D
  5
33F
331
339
  5
33B
331
48C
  5
491
331
4EB
  5
4EE
331
6DE
  5
6E0
331
6DA
  5
6DC
331
6D6
  5
6D8
331
79D
  5
79E
331
6D2
  5
6D4
331
799
  5
79A
331
4DB
  5
4DE
331
474
  5
48C
331
4D7
  5
4DB
331
6CE
  5
6D0
331
6CA
  5
6CC
331
795
  5
796
331
791
  5
792
331
78D
  5
78E
331
789
  5
78A
331
6C6
  5
6C8
331
4CF
  5
4D2
331
35C
  5
35E
331
4CB
  5
4CE
331
6C2
  5
6C4
331
358
  5
35A
331
6BE
  5
6C0
331
6EA
  5
716
331
4BB
  5
4B4
331
6BA
  5
6BC
331
785
  5
786
331
781
  5
782
331
77D
  5
77E
331
6B5
  5
6B7
331
4B7
  5
4BB
331
350
  5
352
331
34C
  5
34E
331
4B3
  5
4B8
331
56A
  5
56D
331
348
  5
34A
331
4AF
  5
4B3
331
566
  5
569
331
562
  5
564
331
775
  5
77B
331
6E5
  5
6E7
331
6E1
  5
6E3
331
344
  5
346
331
340
  5
342
331
338
  5
338
331
48F
  5
4B2
331
4EE
  5
562
331
6DD
  5
6DF
331
6D9
  5
6DB
331
6D5
  5
6D7
331
79C
  5
79D
331
6D1
  5
6D3
331
798
  5
799
  0
XRECORD
  5
176
102
{ACAD_REACTORS
330
D7
102
}
330
D7
100
AcDbXrecord
280
     1
340
1B
  0
ACDBDETAILVIEWSTYLE
  5
1C7
102
{ACAD_XDICTIONARY
360
843
102
}
102
{ACAD_REACTORS
330
1C6
102
}
330
1C6
100
AcDbModelDocViewStyle
 70
     0
  3
Imperial24
290
     0
100
AcDbDetailViewStyle
 70
     0
 71
     0
 90
        3
 71
     1
340
11
 62
   256
 40
0.24
340
0
 62
   256
 40
0.24
300

 40
0.36
280
     3
 71
     2
340
16
 90
       25
 62
   256
 71
     3
340
11
 62
   256
 40
0.24
 90
        1
 40
0.75
 90
        1
300
%<\AcVar ViewType \f "%tc1">% %<\AcVar ViewDetailId>%\PVARIA %<\AcVar ViewScale \f "%sn">%
 71
     4
340
16
 90
       25
 62
   256
340
16
 90
       25
 62
   256
280
     0
  0
LAYOUT
  5
1C9
102
{ACAD_REACTORS
330
1A
102
}
330
1A
100
AcDbPlotSettings
  1

  2
\\srvadruck01\MFSA15
  4

  6

 40
0.0
 41
0.0
 42
0.0
 43
0.0
 44
0.0
 45
0.0
 46
0.0
 47
0.0
 48
0.0
 49
0.0
140
0.0
141
0.0
142
1.0
143
1.0
 70
   688
 72
     0
 73
     0
 74
     5
  7

 75
    16
147
1.0
 76
     0
 77
     2
 78
   300
148
0.0
149
0.0
100
AcDbLayout
  1
Layout1
 70
     1
 71
     1
 10
0.0
 20
0.0
 11
12.0
 21
9.0
 12
0.0
 22
0.0
 32
0.0
 14
1.000000000000000E+20
 24
1.000000000000000E+20
 34
1.000000000000000E+20
 15
-1.000000000000000E+20
 25
-1.000000000000000E+20
 35
-1.000000000000000E+20
146
0.0
 13
0.0
 23
0.0
 33
0.0
 16
1.0
 26
0.0
 36
0.0
 17
0.0
 27
1.0
 37
0.0
 76
     0
330
1B
  0
LAYOUT
  5
1C8
102
{ACAD_REACTORS
330
1A
102
}
330
1A
100
AcDbPlotSettings
  1

  2
\\srvadruck01\MFSA15
  4
A4
  6

 40
5.027082920074462
 41
5.027099609375
 42
5.027069091796875
 43
5.027069091796875
 44
209.9733276367186
 45
296.9259948730469
 46
0.0
 47
0.0
 48
0.0
 49
0.0
140
0.0
141
0.0
142
1.0
143
250.9557649309207
 70
 11952
 72
     0
 73
     1
 74
     0
  7

 75
     0
147
0.003984766001591
 76
     0
 77
     2
 78
   300
148
18758.74732672532
149
6385.478578639141
100
AcDbLayout
  1
Model
 70
     1
 71
     0
 10
0.0
 20
0.0
 11
12.0
 21
9.0
 12
0.0
 22
0.0
 32
0.0
 14
0.0
 24
0.0
 34
0.0
 15
0.0
 25
0.0
 35
0.0
146
0.0
 13
0.0
 23
0.0
 33
0.0
 16
1.0
 26
0.0
 36
0.0
 17
0.0
 27
1.0
 37
0.0
 76
     0
330
1F
331
155
1001
ACAD_PSEXT
1000
\\srvadruck01\MFSA15
1000
KONICA MINOLTA C754SeriesPCL
1000
Marketing
1000

1070
     0
  0
MATERIAL
  5
183
102
{ACAD_XDICTIONARY
360
184
102
}
102
{ACAD_REACTORS
330
17A
102
}
330
17A
100
AcDbMaterial
  1
ByBlock
 72
     0
 43
0.0208333333333333
 43
0.0
 43
0.0
 43
0.0
 43
0.0
 43
0.0208333333333333
 43
0.0
 43
0.0
 43
0.0
 43
0.0
 43
1.0
 43
0.0
 43
0.0
 43
0.0
 43
0.0
 43
1.0
 77
     0
 47
0.0208333333333333
 47
0.0
 47
0.0
 47
0.0
 47
0.0
 47
0.0208333333333333
 47
0.0
 47
0.0
 47
0.0
 47
0.0
 47
1.0
 47
0.0
 47
0.0
 47
0.0
 47
0.0
 47
1.0
171
     0
 49
0.0208333333333333
 49
0.0
 49
0.0
 49
0.0
 49
0.0
 49
0.0208333333333333
 49
0.0
 49
0.0
 49
0.0
 49
0.0
 49
1.0
 49
0.0
 49
0.0
 49
0.0
 49
0.0
 49
1.0
175
     0
142
0.0208333333333333
142
0.0
142
0.0
142
0.0
142
0.0
142
0.0208333333333333
142
0.0
142
0.0
142
0.0
142
0.0
142
1.0
142
0.0
142
0.0
142
0.0
142
0.0
142
1.0
179
     0
144
0.0208333333333333
144
0.0
144
0.0
144
0.0
144
0.0
144
0.0208333333333333
144
0.0
144
0.0
144
0.0
144
0.0
144
1.0
144
0.0
144
0.0
144
0.0
144
0.0
144
1.0
147
0.0208333333333333
147
0.0
147
0.0
147
0.0
147
0.0
147
0.0208333333333333
147
0.0
147
0.0
147
0.0
147
0.0
147
1.0
147
0.0
147
0.0
147
0.0
147
0.0
147
1.0
  0
MATERIAL
  5
17B
102
{ACAD_XDICTIONARY
360
17C
102
}
102
{ACAD_REACTORS
330
17A
102
}
330
17A
100
AcDbMaterial
  1
ByLayer
 72
     0
 43
0.0208333333333333
 43
0.0
 43
0.0
 43
0.0
 43
0.0
 43
0.0208333333333333
 43
0.0
 43
0.0
 43
0.0
 43
0.0
 43
1.0
 43
0.0
 43
0.0
 43
0.0
 43
0.0
 43
1.0
 77
     0
 47
0.0208333333333333
 47
0.0
 47
0.0
 47
0.0
 47
0.0
 47
0.0208333333333333
 47
0.0
 47
0.0
 47
0.0
 47
0.0
 47
1.0
 47
0.0
 47
0.0
 47
0.0
 47
0.0
 47
1.0
171
     0
 49
0.0208333333333333
 49
0.0
 49
0.0
 49
0.0
 49
0.0
 49
0.0208333333333333
 49
0.0
 49
0.0
 49
0.0
 49
0.0
 49
1.0
 49
0.0
 49
0.0
 49
0.0
 49
0.0
 49
1.0
175
     0
142
0.0208333333333333
142
0.0
142
0.0
142
0.0
142
0.0
142
0.0208333333333333
142
0.0
142
0.0
142
0.0
142
0.0
142
1.0
142
0.0
142
0.0
142
0.0
142
0.0
142
1.0
179
     0
144
0.0208333333333333
144
0.0
144
0.0
144
0.0
144
0.0
144
0.0208333333333333
144
0.0
144
0.0
144
0.0
144
0.0
144
1.0
144
0.0
144
0.0
144
0.0
144
0.0
144
1.0
147
0.0208333333333333
147
0.0
147
0.0
147
0.0
147
0.0
147
0.0208333333333333
147
0.0
147
0.0
147
0.0
147
0.0
147
1.0
147
0.0
147
0.0
147
0.0
147
0.0
147
1.0
  0
MATERIAL
  5
18B
102
{ACAD_XDICTIONARY
360
18C
102
}
102
{ACAD_REACTORS
330
17A
102
}
330
17A
100
AcDbMaterial
  1
Global
 72
     0
 43
0.0208333333333333
 43
0.0
 43
0.0
 43
0.0
 43
0.0
 43
0.0208333333333333
 43
0.0
 43
0.0
 43
0.0
 43
0.0
 43
1.0
 43
0.0
 43
0.0
 43
0.0
 43
0.0
 43
1.0
 77
     0
 47
0.0208333333333333
 47
0.0
 47
0.0
 47
0.0
 47
0.0
 47
0.0208333333333333
 47
0.0
 47
0.0
 47
0.0
 47
0.0
 47
1.0
 47
0.0
 47
0.0
 47
0.0
 47
0.0
 47
1.0
171
     0
 49
0.0208333333333333
 49
0.0
 49
0.0
 49
0.0
 49
0.0
 49
0.0208333333333333
 49
0.0
 49
0.0
 49
0.0
 49
0.0
 49
1.0
 49
0.0
 49
0.0
 49
0.0
 49
0.0
 49
1.0
175
     0
142
0.0208333333333333
142
0.0
142
0.0
142
0.0
142
0.0
142
0.0208333333333333
142
0.0
142
0.0
142
0.0
142
0.0
142
1.0
142
0.0
142
0.0
142
0.0
142
0.0
142
1.0
179
     0
144
0.0208333333333333
144
0.0
144
0.0
144
0.0
144
0.0
144
0.0208333333333333
144
0.0
144
0.0
144
0.0
144
0.0
144
1.0
144
0.0
144
0.0
144
0.0
144
0.0
144
1.0
147
0.0208333333333333
147
0.0
147
0.0
147
0.0
147
0.0
147
0.0208333333333333
147
0.0
147
0.0
147
0.0
147
0.0
147
1.0
147
0.0
147
0.0
147
0.0
147
0.0
147
1.0
  0
MLEADERSTYLE
  5
1C2
102
{ACAD_REACTORS
330
1C1
102
}
330
1C1
100
AcDbMLeaderStyle
179
     2
170
     2
171
     1
172
     0
 90
        2
 40
0.0
 41
0.0
173
     1
 91
-1056964608
340
14
 92
       -2
290
     1
 42
0.09
291
     1
 43
0.36
  3
Standard
 44
0.18
300

342
11
174
     1
178
     6
175
     1
176
     0
 93
-1056964608
 45
0.18
292
     0
297
     0
 46
0.18
 94
-1056964608
 47
1.0
 49
1.0
140
1.0
293
     1
141
0.0
294
     1
177
     0
142
1.0
295
     0
296
     0
143
0.125
271
     0
272
     9
273
     9
  0
MLINESTYLE
  5
18
102
{ACAD_REACTORS
330
17
102
}
330
17
100
AcDbMlineStyle
  2
STANDARD
 70
     0
  3

 62
   256
 51
90.0
 52
90.0
 71
     2
 49
0.5
 62
   256
  6
BYLAYER
 49
-0.5
 62
   256
  6
BYLAYER
  0
ACDBPLACEHOLDER
  5
E0
102
{ACAD_REACTORS
330
DF
102
}
330
DF
  0
SCALE
  5
1B0
102
{ACAD_REACTORS
330
1AF
102
}
330
1AF
100
AcDbScale
 70
     0
300
1:1
140
1.0
141
1.0
290
     1
  0
SCALE
  5
1B1
102
{ACAD_REACTORS
330
1AF
102
}
330
1AF
100
AcDbScale
 70
     0
300
1/128" = 1'-0"
140
0.0078125
141
12.0
290
     0
  0
SCALE
  5
1B2
102
{ACAD_REACTORS
330
1AF
102
}
330
1AF
100
AcDbScale
 70
     0
300
1/64" = 1'-0"
140
0.015625
141
12.0
290
     0
  0
SCALE
  5
1B3
102
{ACAD_REACTORS
330
1AF
102
}
330
1AF
100
AcDbScale
 70
     0
300
1/32" = 1'-0"
140
0.03125
141
12.0
290
     0
  0
SCALE
  5
1B4
102
{ACAD_REACTORS
330
1AF
102
}
330
1AF
100
AcDbScale
 70
     0
300
1/16" = 1'-0"
140
0.0625
141
12.0
290
     0
  0
SCALE
  5
1B5
102
{ACAD_REACTORS
330
1AF
102
}
330
1AF
100
AcDbScale
 70
     0
300
3/32" = 1'-0"
140
0.09375
141
12.0
290
     0
  0
SCALE
  5
1B6
102
{ACAD_REACTORS
330
1AF
102
}
330
1AF
100
AcDbScale
 70
     0
300
1/8" = 1'-0"
140
0.125
141
12.0
290
     0
  0
SCALE
  5
1B7
102
{ACAD_REACTORS
330
1AF
102
}
330
1AF
100
AcDbScale
 70
     0
300
3/16" = 1'-0"
140
0.1875
141
12.0
290
     0
  0
SCALE
  5
1B8
102
{ACAD_REACTORS
330
1AF
102
}
330
1AF
100
AcDbScale
 70
     0
300
1/4" = 1'-0"
140
0.25
141
12.0
290
     0
  0
SCALE
  5
1B9
102
{ACAD_REACTORS
330
1AF
102
}
330
1AF
100
AcDbScale
 70
     0
300
3/8" = 1'-0"
140
0.375
141
12.0
290
     0
  0
SCALE
  5
1BA
102
{ACAD_REACTORS
330
1AF
102
}
330
1AF
100
AcDbScale
 70
     0
300
1/2" = 1'-0"
140
0.5
141
12.0
290
     0
  0
SCALE
  5
1BB
102
{ACAD_REACTORS
330
1AF
102
}
330
1AF
100
AcDbScale
 70
     0
300
3/4" = 1'-0"
140
0.75
141
12.0
290
     0
  0
SCALE
  5
1BC
102
{ACAD_REACTORS
330
1AF
102
}
330
1AF
100
AcDbScale
 70
     0
300
1" = 1'-0"
140
1.0
141
12.0
290
     0
  0
SCALE
  5
1BD
102
{ACAD_REACTORS
330
1AF
102
}
330
1AF
100
AcDbScale
 70
     0
300
1-1/2" = 1'-0"
140
1.5
141
12.0
290
     0
  0
SCALE
  5
1BE
102
{ACAD_REACTORS
330
1AF
102
}
330
1AF
100
AcDbScale
 70
     0
300
3" = 1'-0"
140
3.0
141
12.0
290
     0
  0
SCALE
  5
1BF
102
{ACAD_REACTORS
330
1AF
102
}
330
1AF
100
AcDbScale
 70
     0
300
6" = 1'-0"
140
6.0
141
12.0
290
     0
  0
SCALE
  5
1C0
102
{ACAD_REACTORS
330
1AF
102
}
330
1AF
100
AcDbScale
 70
     0
300
1'-0" = 1'-0"
140
12.0
141
12.0
290
     0
  0
ACDBSECTIONVIEWSTYLE
  5
1C5
102
{ACAD_XDICTIONARY
360
841
102
}
102
{ACAD_REACTORS
330
1C3
102
}
330
1C3
100
AcDbModelDocViewStyle
 70
     0
  3
Imperial24
290
     0
100
AcDbSectionViewStyle
 70
     0
 71
     0
 90
       78
 71
     1
340
11
 62
   256
 40
0.24
340
0
340
0
 62
   256
 40
0.24
300
I, O, Q, S, X, Z
 40
0.48
 90
        3
 40
0.18
 90
        1
 71
     2
340
1C4
 90
       25
 62
   256
340
16
 90
       50
 62
   256
 40
0.24
 40
0.0
 40
0.24
 71
     3
340
11
 62
   256
 40
0.24
 90
        1
 40
0.75
 90
        1
300
%<\AcVar ViewType \f "%tc1">% %<\AcVar ViewSectionStartId>%-%<\AcVar ViewSectionEndId>%\PVARIA %<\AcVar ViewScale \f "%sn">%
 71
     4
 62
   256
 62
   257
300
ANSI31
 40
1.0
 90
        0
290
     0
290
     0
 90
        6
 40
0.0
 40
1.570796326794896
 40
0.2617993877991494
 40
1.308996938995747
 40
-0.2617993877991494
 40
1.832595714594044
  0
TABLESTYLE
  5
1AE
102
{ACAD_XDICTIONARY
360
35F
102
}
102
{ACAD_REACTORS
330
1AD
102
}
330
1AD
100
AcDbTableStyle
280
     0
  3
Standard
 70
     0
 71
     0
 40
0.06
 41
0.06
280
     0
281
     0
  7
STANDARD
140
0.18
170
     2
 62
     0
 63
     7
283
     0
 90
      512
 91
        0
  1

274
    -2
284
     1
 64
     0
275
    -2
285
     1
 65
     0
276
    -2
286
     1
 66
     0
277
    -2
287
     1
 67
     0
278
    -2
288
     1
 68
     0
279
    -2
289
     1
 69
     0
  7
STANDARD
140
0.25
170
     5
 62
     0
 63
     7
283
     0
 90
      512
 91
        0
  1

274
    -2
284
     1
 64
     0
275
    -2
285
     1
 65
     0
276
    -2
286
     1
 66
     0
277
    -2
287
     1
 67
     0
278
    -2
288
     1
 68
     0
279
    -2
289
     1
 69
     0
  7
STANDARD
140
0.18
170
     5
 62
     0
 63
     7
283
     0
 90
      512
 91
        0
  1

274
    -2
284
     1
 64
     0
275
    -2
285
     1
 65
     0
276
    -2
286
     1
 66
     0
277
    -2
287
     1
 67
     0
278
    -2
288
     1
 68
     0
279
    -2
289
     1
 69
     0
  0
VISUALSTYLE
  5
199
102
{ACAD_XDICTIONARY
360
81B
102
}
102
{ACAD_REACTORS
330
193
102
}
330
193
100
AcDbVisualStyle
  2
2dWireframe
 70
     4
177
     2
291
     0
 71
     0
176
     1
 72
     2
176
     1
 73
     0
176
     1
 90
        0
176
     1
 40
0.6
176
     1
 41
30.0
176
     1
 63
     7
421
 16777215
176
     1
 74
     1
176
     1
 91
        4
176
     1
 64
     7
176
     1
 65
   257
176
     1
 75
     1
176
     1
175
     1
176
     1
 42
1.0
176
     1
 92
        0
176
     1
 66
   257
176
     1
 43
1.0
176
     1
 76
     1
176
     1
 77
     6
176
     1
 78
     2
176
     1
 67
     7
176
     1
 79
     5
176
     1
170
     0
176
     1
171
     0
176
     1
290
     0
176
     1
 93
        1
176
     1
 44
0.0
176
     1
173
     0
176
     1
1001
ACAD
1000
AcDbSavedByObjectVersion
1070
     0
  0
VISUALSTYLE
  5
5D6
102
{ACAD_XDICTIONARY
360
845
102
}
102
{ACAD_REACTORS
330
193
102
}
330
193
100
AcDbVisualStyle
  2
3dWireframe
 70
     5
177
     2
291
     0
 71
     0
176
     1
 72
     2
176
     1
 73
     0
176
     1
 90
        0
176
     1
 40
0.6
176
     1
 41
30.0
176
     1
 63
     7
421
 16777215
176
     1
 74
     1
176
     1
 91
        4
176
     1
 64
     7
176
     1
 65
   257
176
     1
 75
     1
176
     1
175
     1
176
     1
 42
1.0
176
     1
 92
        0
176
     1
 66
   257
176
     1
 43
1.0
176
     1
 76
     1
176
     1
 77
     6
176
     1
 78
     2
176
     1
 67
     7
176
     1
 79
     5
176
     1
170
     0
176
     1
171
     0
176
     1
290
     0
176
     1
 93
        1
176
     1
 44
0.0
176
     1
173
     0
176
     1
1001
ACAD
1000
AcDbSavedByObjectVersion
1070
     0
  0
VISUALSTYLE
  5
198
102
{ACAD_XDICTIONARY
360
819
102
}
102
{ACAD_REACTORS
330
193
102
}
330
193
100
AcDbVisualStyle
  2
Basic
 70
     7
177
     2
291
     1
 71
     1
176
     1
 72
     0
176
     1
 73
     1
176
     1
 90
        0
176
     1
 40
0.6
176
     1
 41
30.0
176
     1
 63
     7
421
 16777215
176
     1
 74
     0
176
     1
 91
        4
176
     1
 64
     7
176
     1
 65
   257
176
     1
 75
     1
176
     1
175
     1
176
     1
 42
1.0
176
     1
 92
        8
176
     1
 66
     7
176
     1
 43
1.0
176
     1
 76
     1
176
     1
 77
     6
176
     1
 78
     2
176
     1
 67
     7
176
     1
 79
     5
176
     1
170
     0
176
     1
171
     0
176
     1
290
     0
176
     1
 93
        1
176
     1
 44
0.0
176
     1
173
     0
176
     1
1001
ACAD
1000
AcDbSavedByObjectVersion
1070
     0
  0
VISUALSTYLE
  5
19F
102
{ACAD_XDICTIONARY
360
827
102
}
102
{ACAD_REACTORS
330
193
102
}
330
193
100
AcDbVisualStyle
  2
Brighten
 70
    12
177
     2
291
     1
 71
     2
176
     1
 72
     2
176
     1
 73
     0
176
     1
 90
        0
176
     1
 40
0.6
176
     1
 41
30.0
176
     1
 63
     7
421
 16777215
176
     1
 74
     1
176
     1
 91
        4
176
     1
 64
     7
176
     1
 65
   257
176
     1
 75
     1
176
     1
175
     1
176
     1
 42
1.0
176
     1
 92
        8
176
     1
 66
     7
176
     1
 43
1.0
176
     1
 76
     1
176
     1
 77
     6
176
     1
 78
     2
176
     1
 67
     7
176
     1
 79
     5
176
     1
170
     0
176
     1
171
     0
176
     1
290
     0
176
     1
 93
        1
176
     1
 44
50.0
176
     1
173
     0
176
     1
1001
ACAD
1000
AcDbSavedByObjectVersion
1070
     0
  0
VISUALSTYLE
  5
1A3
102
{ACAD_XDICTIONARY
360
82F
102
}
102
{ACAD_REACTORS
330
193
102
}
330
193
100
AcDbVisualStyle
  2
ColorChange
 70
    16
177
     2
291
     1
 71
     2
176
     1
 72
     2
176
     1
 73
     3
176
     1
 90
        0
176
     1
 40
0.6
176
     1
 41
30.0
176
     1
 63
     8
421
  8421504
176
     1
 74
     1
176
     1
 91
        4
176
     1
 64
     7
176
     1
 65
   257
176
     1
 75
     1
176
     1
175
     1
176
     1
 42
1.0
176
     1
 92
        8
176
     1
 66
     8
424
  8421504
176
     1
 43
1.0
176
     1
 76
     1
176
     1
 77
     6
176
     1
 78
     2
176
     1
 67
     7
176
     1
 79
     5
176
     1
170
     0
176
     1
171
     0
176
     1
290
     0
176
     1
 93
        1
176
     1
 44
0.0
176
     1
173
     0
176
     1
1001
ACAD
1000
AcDbSavedByObjectVersion
1070
     0
  0
VISUALSTYLE
  5
19C
102
{ACAD_XDICTIONARY
360
821
102
}
102
{ACAD_REACTORS
330
193
102
}
330
193
100
AcDbVisualStyle
  2
Conceptual
 70
     9
177
     2
291
     0
 71
     3
176
     1
 72
     2
176
     1
 73
     0
176
     1
 90
        0
176
     1
 40
0.6
176
     1
 41
30.0
176
     1
 63
     7
421
 16777215
176
     1
 74
     2
176
     1
 91
        2
176
     1
 64
     7
176
     1
 65
   257
176
     1
 75
     1
176
     1
175
     1
176
     1
 42
179.0
176
     1
 92
        8
176
     1
 66
     7
176
     1
 43
1.0
176
     1
 76
     1
176
     1
 77
     6
176
     1
 78
     2
176
     1
 67
     7
176
     1
 79
     3
176
     1
170
     0
176
     1
171
     0
176
     1
290
     0
176
     1
 93
        1
176
     1
 44
0.0
176
     1
173
     0
176
     1
1001
ACAD
1000
AcDbSavedByObjectVersion
1070
     0
  0
VISUALSTYLE
  5
19E
102
{ACAD_XDICTIONARY
360
825
102
}
102
{ACAD_REACTORS
330
193
102
}
330
193
100
AcDbVisualStyle
  2
Dim
 70
    11
177
     2
291
     1
 71
     2
176
     1
 72
     2
176
     1
 73
     0
176
     1
 90
        0
176
     1
 40
0.6
176
     1
 41
30.0
176
     1
 63
     7
421
 16777215
176
     1
 74
     1
176
     1
 91
        4
176
     1
 64
     7
176
     1
 65
   257
176
     1
 75
     1
176
     1
175
     1
176
     1
 42
1.0
176
     1
 92
        8
176
     1
 66
     7
176
     1
 43
1.0
176
     1
 76
     1
176
     1
 77
     6
176
     1
 78
     2
176
     1
 67
     7
176
     1
 79
     5
176
     1
170
     0
176
     1
171
     0
176
     1
290
     0
176
     1
 93
        1
176
     1
 44
-50.0
176
     1
173
     0
176
     1
1001
ACAD
1000
AcDbSavedByObjectVersion
1070
     0
  0
VISUALSTYLE
  5
1AB
102
{ACAD_XDICTIONARY
360
83F
102
}
102
{ACAD_REACTORS
330
193
102
}
330
193
100
AcDbVisualStyle
  2
EdgeColorOff
 70
    22
177
     2
291
     1
 71
     2
176
     0
 72
     2
176
     0
 73
     0
176
     0
 90
        0
176
     0
 40
0.6
176
     0
 41
30.0
176
     0
 63
     7
421
 16777215
176
     0
 74
     1
176
     0
 91
        4
176
     0
 64
     7
176
     0
 65
   257
176
     0
 75
     1
176
     0
175
     1
176
     0
 42
1.0
176
     0
 92
        8
176
     2
 66
     7
176
     0
 43
1.0
176
     0
 76
     1
176
     0
 77
     6
176
     0
 78
     2
176
     0
 67
     7
176
     0
 79
     5
176
     0
170
     0
176
     0
171
     0
176
     0
290
     0
176
     0
 93
        1
176
     0
 44
0.0
176
     0
173
     0
176
     0
1001
ACAD
1000
AcDbSavedByObjectVersion
1070
     0
  0
VISUALSTYLE
  5
1A2
102
{ACAD_XDICTIONARY
360
82D
102
}
102
{ACAD_REACTORS
330
193
102
}
330
193
100
AcDbVisualStyle
  2
Facepattern
 70
    15
177
     2
291
     1
 71
     2
176
     1
 72
     2
176
     1
 73
     0
176
     1
 90
        0
176
     1
 40
0.6
176
     1
 41
30.0
176
     1
 63
     7
421
 16777215
176
     1
 74
     1
176
     1
 91
        4
176
     1
 64
     7
176
     1
 65
   257
176
     1
 75
     1
176
     1
175
     1
176
     1
 42
1.0
176
     1
 92
        8
176
     1
 66
     7
176
     1
 43
1.0
176
     1
 76
     1
176
     1
 77
     6
176
     1
 78
     2
176
     1
 67
     7
176
     1
 79
     5
176
     1
170
     0
176
     1
171
     0
176
     1
290
     0
176
     1
 93
        1
176
     1
 44
0.0
176
     1
173
     0
176
     1
1001
ACAD
1000
AcDbSavedByObjectVersion
1070
     0
  0
VISUALSTYLE
  5
194
102
{ACAD_XDICTIONARY
360
811
102
}
102
{ACAD_REACTORS
330
193
102
}
330
193
100
AcDbVisualStyle
  2
Flat
 70
     0
177
     2
291
     1
 71
     2
176
     1
 72
     1
176
     1
 73
     1
176
     1
 90
        2
176
     1
 40
0.6
176
     1
 41
30.0
176
     1
 63
     7
421
 16777215
176
     1
 74
     0
176
     1
 91
        0
176
     1
 64
     7
176
     1
 65
   257
176
     1
 75
     1
176
     1
175
     1
176
     1
 42
1.0
176
     1
 92
        8
176
     1
 66
     7
176
     1
 43
1.0
176
     1
 76
     1
176
     1
 77
     6
176
     1
 78
     2
176
     1
 67
     7
176
     1
 79
     5
176
     1
170
     0
176
     1
171
     0
176
     1
290
     0
176
     1
 93
       13
176
     1
 44
0.0
176
     1
173
     0
176
     1
1001
ACAD
1000
AcDbSavedByObjectVersion
1070
     0
  0
VISUALSTYLE
  5
195
102
{ACAD_XDICTIONARY
360
813
102
}
102
{ACAD_REACTORS
330
193
102
}
330
193
100
AcDbVisualStyle
  2
FlatWithEdges
 70
     1
177
     2
291
     1
 71
     2
176
     1
 72
     1
176
     1
 73
     1
176
     1
 90
        2
176
     1
 40
0.6
176
     1
 41
30.0
176
     1
 63
     7
421
 16777215
176
     1
 74
     1
176
     1
 91
        0
176
     1
 64
     7
176
     1
 65
   257
176
     1
 75
     1
176
     1
175
     1
176
     1
 42
1.0
176
     1
 92
        0
176
     1
 66
   257
176
     1
 43
1.0
176
     1
 76
     1
176
     1
 77
     6
176
     1
 78
     2
176
     1
 67
     7
176
     1
 79
     5
176
     1
170
     0
176
     1
171
     0
176
     1
290
     0
176
     1
 93
       13
176
     1
 44
0.0
176
     1
173
     0
176
     1
1001
ACAD
1000
AcDbSavedByObjectVersion
1070
     0
  0
VISUALSTYLE
  5
196
102
{ACAD_XDICTIONARY
360
815
102
}
102
{ACAD_REACTORS
330
193
102
}
330
193
100
AcDbVisualStyle
  2
Gouraud
 70
     2
177
     2
291
     1
 71
     2
176
     1
 72
     2
176
     1
 73
     1
176
     1
 90
        2
176
     1
 40
0.6
176
     1
 41
30.0
176
     1
 63
     7
421
 16777215
176
     1
 74
     0
176
     1
 91
        0
176
     1
 64
     7
176
     1
 65
   257
176
     1
 75
     1
176
     1
175
     1
176
     1
 42
1.0
176
     1
 92
        0
176
     1
 66
     7
176
     1
 43
1.0
176
     1
 76
     1
176
     1
 77
     6
176
     1
 78
     2
176
     1
 67
     7
176
     1
 79
     5
176
     1
170
     0
176
     1
171
     0
176
     1
290
     0
176
     1
 93
       13
176
     1
 44
0.0
176
     1
173
     0
176
     1
1001
ACAD
1000
AcDbSavedByObjectVersion
1070
     0
  0
VISUALSTYLE
  5
197
102
{ACAD_XDICTIONARY
360
817
102
}
102
{ACAD_REACTORS
330
193
102
}
330
193
100
AcDbVisualStyle
  2
GouraudWithEdges
 70
     3
177
     2
291
     1
 71
     2
176
     1
 72
     2
176
     1
 73
     1
176
     1
 90
        2
176
     1
 40
0.6
176
     1
 41
30.0
176
     1
 63
     7
421
 16777215
176
     1
 74
     1
176
     1
 91
        0
176
     1
 64
     7
176
     1
 65
   257
176
     1
 75
     1
176
     1
175
     1
176
     1
 42
1.0
176
     1
 92
        0
176
     1
 66
   257
176
     1
 43
1.0
176
     1
 76
     1
176
     1
 77
     6
176
     1
 78
     2
176
     1
 67
     7
176
     1
 79
     5
176
     1
170
     0
176
     1
171
     0
176
     1
290
     0
176
     1
 93
       13
176
     1
 44
0.0
176
     1
173
     0
176
     1
1001
ACAD
1000
AcDbSavedByObjectVersion
1070
     0
  0
VISUALSTYLE
  5
19B
102
{ACAD_XDICTIONARY
360
81F
102
}
102
{ACAD_REACTORS
330
193
102
}
330
193
100
AcDbVisualStyle
  2
Hidden
 70
     6
177
     2
291
     0
 71
     1
176
     1
 72
     2
176
     1
 73
     2
176
     1
 90
        0
176
     1
 40
0.6
176
     1
 41
30.0
176
     1
 63
     7
421
 16777215
176
     1
 74
     2
176
     1
 91
        2
176
     1
 64
     7
176
     1
 65
   257
176
     1
 75
     2
176
     1
175
     1
176
     1
 42
40.0
176
     1
 92
        0
176
     1
 66
   257
176
     1
 43
1.0
176
     1
 76
     1
176
     1
 77
     6
176
     1
 78
     2
176
     1
 67
     7
176
     1
 79
     3
176
     1
170
     0
176
     1
171
     0
176
     1
290
     0
176
     1
 93
        1
176
     1
 44
0.0
176
     1
173
     0
176
     1
1001
ACAD
1000
AcDbSavedByObjectVersion
1070
     0
  0
VISUALSTYLE
  5
1A9
102
{ACAD_XDICTIONARY
360
83B
102
}
102
{ACAD_REACTORS
330
193
102
}
330
193
100
AcDbVisualStyle
  2
JitterOff
 70
    20
177
     2
291
     1
 71
     2
176
     0
 72
     2
176
     0
 73
     0
176
     0
 90
        0
176
     0
 40
0.6
176
     0
 41
30.0
176
     0
 63
     7
421
 16777215
176
     0
 74
     1
176
     0
 91
        4
176
     0
 64
     7
176
     0
 65
   257
176
     0
 75
     1
176
     0
175
     1
176
     0
 42
1.0
176
     0
 92
       10
176
     2
 66
     7
176
     0
 43
1.0
176
     0
 76
     1
176
     0
 77
     6
176
     0
 78
     2
176
     0
 67
     7
176
     0
 79
     5
176
     0
170
     0
176
     0
171
     0
176
     0
290
     0
176
     0
 93
        1
176
     0
 44
0.0
176
     0
173
     0
176
     0
1001
ACAD
1000
AcDbSavedByObjectVersion
1070
     0
  0
VISUALSTYLE
  5
1A1
102
{ACAD_XDICTIONARY
360
82B
102
}
102
{ACAD_REACTORS
330
193
102
}
330
193
100
AcDbVisualStyle
  2
Linepattern
 70
    14
177
     2
291
     1
 71
     2
176
     1
 72
     2
176
     1
 73
     0
176
     1
 90
        0
176
     1
 40
0.6
176
     1
 41
30.0
176
     1
 63
     7
421
 16777215
176
     1
 74
     1
176
     1
 91
        4
176
     1
 64
     7
176
     1
 65
   257
176
     1
 75
     7
176
     1
175
     7
176
     1
 42
1.0
176
     1
 92
        8
176
     1
 66
     7
176
     1
 43
1.0
176
     1
 76
     1
176
     1
 77
     6
176
     1
 78
     2
176
     1
 67
     7
176
     1
 79
     5
176
     1
170
     0
176
     1
171
     0
176
     1
290
     0
176
     1
 93
        1
176
     1
 44
0.0
176
     1
173
     0
176
     1
1001
ACAD
1000
AcDbSavedByObjectVersion
1070
     0
  0
VISUALSTYLE
  5
1AA
102
{ACAD_XDICTIONARY
360
83D
102
}
102
{ACAD_REACTORS
330
193
102
}
330
193
100
AcDbVisualStyle
  2
OverhangOff
 70
    21
177
     2
291
     1
 71
     2
176
     0
 72
     2
176
     0
 73
     0
176
     0
 90
        0
176
     0
 40
0.6
176
     0
 41
30.0
176
     0
 63
     7
421
 16777215
176
     0
 74
     1
176
     0
 91
        4
176
     0
 64
     7
176
     0
 65
   257
176
     0
 75
     1
176
     0
175
     1
176
     0
 42
1.0
176
     0
 92
        9
176
     2
 66
     7
176
     0
 43
1.0
176
     0
 76
     1
176
     0
 77
     6
176
     0
 78
     2
176
     0
 67
     7
176
     0
 79
     5
176
     0
170
     0
176
     0
171
     0
176
     0
290
     0
176
     0
 93
        1
176
     0
 44
0.0
176
     0
173
     0
176
     0
1001
ACAD
1000
AcDbSavedByObjectVersion
1070
     0
  0
VISUALSTYLE
  5
19D
102
{ACAD_XDICTIONARY
360
823
102
}
102
{ACAD_REACTORS
330
193
102
}
330
193
100
AcDbVisualStyle
  2
Realistic
 70
     8
177
     2
291
     0
 71
     2
176
     1
 72
     3
176
     1
 73
     0
176
     1
 90
        2
176
     1
 40
0.6
176
     1
 41
30.0
176
     1
 63
     7
421
 16777215
176
     1
 74
     0
176
     1
 91
        0
176
     1
 64
     7
176
     1
 65
   257
176
     1
 75
     1
176
     1
175
     1
176
     1
 42
1.0
176
     1
 92
        8
176
     1
 66
   257
176
     1
 43
1.0
176
     1
 76
     1
176
     1
 77
     6
176
     1
 78
     2
176
     1
 67
     7
176
     1
 79
     3
176
     1
170
     0
176
     1
171
     0
176
     1
290
     0
176
     1
 93
       13
176
     1
 44
0.0
176
     1
173
     0
176
     1
1001
ACAD
1000
AcDbSavedByObjectVersion
1070
     0
  0
VISUALSTYLE
  5
1A8
102
{ACAD_XDICTIONARY
360
839
102
}
102
{ACAD_REACTORS
330
193
102
}
330
193
100
AcDbVisualStyle
  2
Shaded
 70
    27
177
     2
291
     0
 71
     2
176
     1
 72
     2
176
     1
 73
     1
176
     1
 90
        2
176
     1
 40
0.6
176
     1
 41
30.0
176
     1
 63
     7
421
 16777215
176
     1
 74
     0
176
     1
 91
        4
176
     1
 64
     7
176
     1
 65
   257
176
     1
 75
     1
176
     1
175
     1
176
     1
 42
1.0
176
     1
 92
        8
176
     1
 66
   257
176
     1
 43
1.0
176
     1
 76
     1
176
     1
 77
     6
176
     1
 78
     2
176
     1
 67
     8
425
  7895160
176
     1
 79
     3
176
     1
170
     0
176
     1
171
     0
176
     1
290
     0
176
     1
 93
        5
176
     1
 44
0.0
176
     1
173
     0
176
     1
1001
ACAD
1000
AcDbSavedByObjectVersion
1070
     0
  0
VISUALSTYLE
  5
1A7
102
{ACAD_XDICTIONARY
360
837
102
}
102
{ACAD_REACTORS
330
193
102
}
330
193
100
AcDbVisualStyle
  2
Shaded with edges
 70
    26
177
     2
291
     0
 71
     2
176
     1
 72
     2
176
     1
 73
     1
176
     1
 90
        2
176
     1
 40
0.6
176
     1
 41
30.0
176
     1
 63
     7
421
 16777215
176
     1
 74
     1
176
     1
 91
        2
176
     1
 64
     7
176
     1
 65
   257
176
     1
 75
     2
176
     1
175
     1
176
     1
 42
1.0
176
     1
 92
        8
176
     1
 66
   257
176
     1
 43
1.0
176
     1
 76
     1
176
     1
 77
     6
176
     1
 78
     2
176
     1
 67
     7
176
     1
 79
     3
176
     1
170
     0
176
     1
171
     0
176
     1
290
     0
176
     1
 93
        5
176
     1
 44
0.0
176
     1
173
     0
176
     1
1001
ACAD
1000
AcDbSavedByObjectVersion
1070
     0
  0
VISUALSTYLE
  5
1A4
102
{ACAD_XDICTIONARY
360
831
102
}
102
{ACAD_REACTORS
330
193
102
}
330
193
100
AcDbVisualStyle
  2
Shades of Gray
 70
    23
177
     2
291
     0
 71
     2
176
     1
 72
     2
176
     1
 73
     3
176
     1
 90
        0
176
     1
 40
0.6
176
     1
 41
30.0
176
     1
 63
     7
421
 16777215
176
     1
 74
     2
176
     1
 91
        2
176
     1
 64
     7
176
     1
 65
     7
176
     1
 75
     1
176
     1
175
     1
176
     1
 42
40.0
176
     1
 92
        8
176
     1
 66
     7
176
     1
 43
1.0
176
     1
 76
     1
176
     1
 77
     6
176
     1
 78
     2
176
     1
 67
     7
176
     1
 79
     3
176
     1
170
     0
176
     1
171
     0
176
     1
290
     0
176
     1
 93
        1
176
     1
 44
0.0
176
     1
173
     0
176
     1
1001
ACAD
1000
AcDbSavedByObjectVersion
1070
     0
  0
VISUALSTYLE
  5
1A5
102
{ACAD_XDICTIONARY
360
833
102
}
102
{ACAD_REACTORS
330
193
102
}
330
193
100
AcDbVisualStyle
  2
Sketchy
 70
    24
177
     2
291
     0
 71
     1
176
     1
 72
     2
176
     1
 73
     2
176
     1
 90
        0
176
     1
 40
0.6
176
     1
 41
30.0
176
     1
 63
     7
421
 16777215
176
     1
 74
     2
176
     1
 91
        2
176
     1
 64
     7
176
     1
 65
     7
176
     1
 75
     1
176
     1
175
     1
176
     1
 42
40.0
176
     1
 92
       11
176
     1
 66
     7
176
     1
 43
1.0
176
     1
 76
     1
176
     1
 77
     6
176
     1
 78
     2
176
     1
 67
     7
176
     1
 79
     6
176
     1
170
     0
176
     1
171
     0
176
     1
290
     0
176
     1
 93
        1
176
     1
 44
0.0
176
     1
173
     0
176
     1
1001
ACAD
1000
AcDbSavedByObjectVersion
1070
     0
  0
VISUALSTYLE
  5
1A0
102
{ACAD_XDICTIONARY
360
829
102
}
102
{ACAD_REACTORS
330
193
102
}
330
193
100
AcDbVisualStyle
  2
Thicken
 70
    13
177
     2
291
     1
 71
     2
176
     1
 72
     2
176
     1
 73
     0
176
     1
 90
        0
176
     1
 40
0.6
176
     1
 41
30.0
176
     1
 63
     7
421
 16777215
176
     1
 74
     1
176
     1
 91
        4
176
     1
 64
     7
176
     1
 65
   257
176
     1
 75
     1
176
     1
175
     1
176
     1
 42
1.0
176
     1
 92
       12
176
     1
 66
     7
176
     1
 43
1.0
176
     1
 76
     1
176
     1
 77
     6
176
     1
 78
     2
176
     1
 67
     7
176
     1
 79
     5
176
     1
170
     0
176
     1
171
     0
176
     1
290
     0
176
     1
 93
        1
176
     1
 44
0.0
176
     1
173
     0
176
     1
1001
ACAD
1000
AcDbSavedByObjectVersion
1070
     0
  0
VISUALSTYLE
  5
19A
102
{ACAD_XDICTIONARY
360
81D
102
}
102
{ACAD_REACTORS
330
193
102
}
330
193
100
AcDbVisualStyle
  2
Wireframe
 70
     5
177
     2
291
     0
 71
     0
176
     1
 72
     2
176
     1
 73
     0
176
     1
 90
        0
176
     1
 40
0.6
176
     1
 41
30.0
176
     1
 63
     7
421
 16777215
176
     1
 74
     1
176
     1
 91
        4
176
     1
 64
     7
176
     1
 65
   257
176
     1
 75
     1
176
     1
175
     1
176
     1
 42
1.0
176
     1
 92
        0
176
     1
 66
   257
176
     1
 43
1.0
176
     1
 76
     1
176
     1
 77
     6
176
     1
 78
     2
176
     1
 67
     7
176
     1
 79
     3
176
     1
170
     0
176
     1
171
     0
176
     1
290
     0
176
     1
 93
        1
176
     1
 44
0.0
176
     1
173
     0
176
     1
1001
ACAD
1000
AcDbSavedByObjectVersion
1070
     0
  0
VISUALSTYLE
  5
1A6
102
{ACAD_XDICTIONARY
360
835
102
}
102
{ACAD_REACTORS
330
193
102
}
330
193
100
AcDbVisualStyle
  2
X-Ray
 70
    25
177
     2
291
     0
 71
     2
176
     1
 72
     2
176
     1
 73
     1
176
     1
 90
        1
176
     1
 40
0.5
176
     1
 41
30.0
176
     1
 63
     7
421
 16777215
176
     1
 74
     1
176
     1
 91
        0
176
     1
 64
     7
176
     1
 65
   257
176
     1
 75
     1
176
     1
175
     1
176
     1
 42
1.0
176
     1
 92
        8
176
     1
 66
     7
176
     1
 43
1.0
176
     1
 76
     1
176
     1
 77
     6
176
     1
 78
     2
176
     1
 67
     7
176
     1
 79
     3
176
     1
170
     0
176
     1
171
     0
176
     1
290
     0
176
     1
 93
       13
176
     1
 44
0.0
176
     1
173
     0
176
     1
1001
ACAD
1000
AcDbSavedByObjectVersion
1070
     0
  0
DICTIONARYVAR
  5
2D1
102
{ACAD_REACTORS
330
2CB
102
}
330
2CB
100
DictionaryVariables
280
     0
  1
1:1
  0
DICTIONARYVAR
  5
2CD
102
{ACAD_REACTORS
330
2CB
102
}
330
2CB
100
DictionaryVariables
280
     0
  1
STANDARD
  0
DICTIONARYVAR
  5
2CC
102
{ACAD_REACTORS
330
2CB
102
}
330
2CB
100
DictionaryVariables
280
     0
  1
STANDARD
  0
DICTIONARYVAR
  5
2CE
102
{ACAD_REACTORS
330
2CB
102
}
330
2CB
100
DictionaryVariables
280
     0
  1
Imperial24
  0
DICTIONARYVAR
  5
2CF
102
{ACAD_REACTORS
330
2CB
102
}
330
2CB
100
DictionaryVariables
280
     0
  1
Imperial24
  0
DICTIONARYVAR
  5
2D3
102
{ACAD_REACTORS
330
2CB
102
}
330
2CB
100
DictionaryVariables
280
     0
  1
1
  0
DICTIONARYVAR
  5
2D4
102
{ACAD_REACTORS
330
2CB
102
}
330
2CB
100
DictionaryVariables
280
     0
  1
15
  0
DICTIONARYVAR
  5
2D2
102
{ACAD_REACTORS
330
2CB
102
}
330
2CB
100
DictionaryVariables
280
     0
  1
0
  0
DICTIONARYVAR
  5
2D0
102
{ACAD_REACTORS
330
2CB
102
}
330
2CB
100
DictionaryVariables
280
     0
  1
0
  0
DICTIONARY
  5
843
330
1C7
100
AcDbDictionary
280
     1
281
     1
  3
ACAD_XREC_ROUNDTRIP
360
844
  0
DICTIONARY
  5
184
330
183
100
AcDbDictionary
280
     1
281
     1
  3
BUMPTILE
360
186
  3
DIFFUSETILE
360
185
  3
OPACITYTILE
360
189
  3
REFLECTIONTILE
360
188
  3
REFRACTIONTILE
360
18A
  3
SPECULARTILE
360
187
  0
DICTIONARY
  5
17C
330
17B
100
AcDbDictionary
280
     1
281
     1
  3
BUMPTILE
360
17E
  3
DIFFUSETILE
360
17D
  3
OPACITYTILE
360
181
  3
REFLECTIONTILE
360
180
  3
REFRACTIONTILE
360
182
  3
SPECULARTILE
360
17F
  0
DICTIONARY
  5
18C
330
18B
100
AcDbDictionary
280
     1
281
     1
  3
BUMPTILE
360
18E
  3
DIFFUSETILE
360
18D
  3
OPACITYTILE
360
191
  3
REFLECTIONTILE
360
190
  3
REFRACTIONTILE
360
192
  3
SPECULARTILE
360
18F
  0
DICTIONARY
  5
841
330
1C5
100
AcDbDictionary
280
     1
281
     1
  3
ACAD_XREC_ROUNDTRIP
360
842
  0
DICTIONARY
  5
35F
330
1AE
100
AcDbDictionary
280
     1
281
     1
  3
ACAD_ROUNDTRIP_2008_TABLESTYLE_CELLSTYLEMAP
360
80F
  0
DICTIONARY
  5
81B
330
199
100
AcDbDictionary
280
     1
281
     1
  3
ACAD_XREC_ROUNDTRIP
360
81C
  0
DICTIONARY
  5
845
330
5D6
100
AcDbDictionary
280
     1
281
     1
  3
ACAD_XREC_ROUNDTRIP
360
846
  0
DICTIONARY
  5
819
330
198
100
AcDbDictionary
280
     1
281
     1
  3
ACAD_XREC_ROUNDTRIP
360
81A
  0
DICTIONARY
  5
827
330
19F
100
AcDbDictionary
280
     1
281
     1
  3
ACAD_XREC_ROUNDTRIP
360
828
  0
DICTIONARY
  5
82F
330
1A3
100
AcDbDictionary
280
     1
281
     1
  3
ACAD_XREC_ROUNDTRIP
360
830
  0
DICTIONARY
  5
821
330
19C
100
AcDbDictionary
280
     1
281
     1
  3
ACAD_XREC_ROUNDTRIP
360
822
  0
DICTIONARY
  5
825
330
19E
100
AcDbDictionary
280
     1
281
     1
  3
ACAD_XREC_ROUNDTRIP
360
826
  0
DICTIONARY
  5
83F
330
1AB
100
AcDbDictionary
280
     1
281
     1
  3
ACAD_XREC_ROUNDTRIP
360
840
  0
DICTIONARY
  5
82D
330
1A2
100
AcDbDictionary
280
     1
281
     1
  3
ACAD_XREC_ROUNDTRIP
360
82E
  0
DICTIONARY
  5
811
330
194
100
AcDbDictionary
280
     1
281
     1
  3
ACAD_XREC_ROUNDTRIP
360
812
  0
DICTIONARY
  5
813
330
195
100
AcDbDictionary
280
     1
281
     1
  3
ACAD_XREC_ROUNDTRIP
360
814
  0
DICTIONARY
  5
815
330
196
100
AcDbDictionary
280
     1
281
     1
  3
ACAD_XREC_ROUNDTRIP
360
816
  0
DICTIONARY
  5
817
330
197
100
AcDbDictionary
280
     1
281
     1
  3
ACAD_XREC_ROUNDTRIP
360
818
  0
DICTIONARY
  5
81F
330
19B
100
AcDbDictionary
280
     1
281
     1
  3
ACAD_XREC_ROUNDTRIP
360
820
  0
DICTIONARY
  5
83B
330
1A9
100
AcDbDictionary
280
     1
281
     1
  3
ACAD_XREC_ROUNDTRIP
360
83C
  0
DICTIONARY
  5
82B
330
1A1
100
AcDbDictionary
280
     1
281
     1
  3
ACAD_XREC_ROUNDTRIP
360
82C
  0
DICTIONARY
  5
83D
330
1AA
100
AcDbDictionary
280
     1
281
     1
  3
ACAD_XREC_ROUNDTRIP
360
83E
  0
DICTIONARY
  5
823
330
19D
100
AcDbDictionary
280
     1
281
     1
  3
ACAD_XREC_ROUNDTRIP
360
824
  0
DICTIONARY
  5
839
330
1A8
100
AcDbDictionary
280
     1
281
     1
  3
ACAD_XREC_ROUNDTRIP
360
83A
  0
DICTIONARY
  5
837
330
1A7
100
AcDbDictionary
280
     1
281
     1
  3
ACAD_XREC_ROUNDTRIP
360
838
  0
DICTIONARY
  5
831
330
1A4
100
AcDbDictionary
280
     1
281
     1
  3
ACAD_XREC_ROUNDTRIP
360
832
  0
DICTIONARY
  5
833
330
1A5
100
AcDbDictionary
280
     1
281
     1
  3
ACAD_XREC_ROUNDTRIP
360
834
  0
DICTIONARY
  5
829
330
1A0
100
AcDbDictionary
280
     1
281
     1
  3
ACAD_XREC_ROUNDTRIP
360
82A
  0
DICTIONARY
  5
81D
330
19A
100
AcDbDictionary
280
     1
281
     1
  3
ACAD_XREC_ROUNDTRIP
360
81E
  0
DICTIONARY
  5
835
330
1A6
100
AcDbDictionary
280
     1
281
     1
  3
ACAD_XREC_ROUNDTRIP
360
836
  0
XRECORD
  5
844
102
{ACAD_REACTORS
330
843
102
}
330
843
100
AcDbXrecord
280
     1
102
DISPLAYNAME
  1
Imperial24
102
FLAGS
 90
        0
  0
XRECORD
  5
186
102
{ACAD_REACTORS
330
184
102
}
330
184
100
AcDbXrecord
280
     1
270
     1
271
     1
  0
XRECORD
  5
185
102
{ACAD_REACTORS
330
184
102
}
330
184
100
AcDbXrecord
280
     1
270
     1
271
     1
  0
XRECORD
  5
189
102
{ACAD_REACTORS
330
184
102
}
330
184
100
AcDbXrecord
280
     1
270
     1
271
     1
  0
XRECORD
  5
188
102
{ACAD_REACTORS
330
184
102
}
330
184
100
AcDbXrecord
280
     1
270
     1
271
     1
  0
XRECORD
  5
18A
102
{ACAD_REACTORS
330
184
102
}
330
184
100
AcDbXrecord
280
     1
270
     1
271
     1
  0
XRECORD
  5
187
102
{ACAD_REACTORS
330
184
102
}
330
184
100
AcDbXrecord
280
     1
270
     1
271
     1
  0
XRECORD
  5
17E
102
{ACAD_REACTORS
330
17C
102
}
330
17C
100
AcDbXrecord
280
     1
270
     1
271
     1
  0
XRECORD
  5
17D
102
{ACAD_REACTORS
330
17C
102
}
330
17C
100
AcDbXrecord
280
     1
270
     1
271
     1
  0
XRECORD
  5
181
102
{ACAD_REACTORS
330
17C
102
}
330
17C
100
AcDbXrecord
280
     1
270
     1
271
     1
  0
XRECORD
  5
180
102
{ACAD_REACTORS
330
17C
102
}
330
17C
100
AcDbXrecord
280
     1
270
     1
271
     1
  0
XRECORD
  5
182
102
{ACAD_REACTORS
330
17C
102
}
330
17C
100
AcDbXrecord
280
     1
270
     1
271
     1
  0
XRECORD
  5
17F
102
{ACAD_REACTORS
330
17C
102
}
330
17C
100
AcDbXrecord
280
     1
270
     1
271
     1
  0
XRECORD
  5
18E
102
{ACAD_REACTORS
330
18C
102
}
330
18C
100
AcDbXrecord
280
     1
270
     1
271
     1
  0
XRECORD
  5
18D
102
{ACAD_REACTORS
330
18C
102
}
330
18C
100
AcDbXrecord
280
     1
270
     1
271
     1
  0
XRECORD
  5
191
102
{ACAD_REACTORS
330
18C
102
}
330
18C
100
AcDbXrecord
280
     1
270
     1
271
     1
  0
XRECORD
  5
190
102
{ACAD_REACTORS
330
18C
102
}
330
18C
100
AcDbXrecord
280
     1
270
     1
271
     1
  0
XRECORD
  5
192
102
{ACAD_REACTORS
330
18C
102
}
330
18C
100
AcDbXrecord
280
     1
270
     1
271
     1
  0
XRECORD
  5
18F
102
{ACAD_REACTORS
330
18C
102
}
330
18C
100
AcDbXrecord
280
     1
270
     1
271
     1
  0
XRECORD
  5
842
102
{ACAD_REACTORS
330
841
102
}
330
841
100
AcDbXrecord
280
     1
102
DISPLAYNAME
  1
Imperial24
102
FLAGS
 90
        0
  0
CELLSTYLEMAP
  5
80F
102
{ACAD_REACTORS
330
35F
102
}
330
35F
100
AcDbCellStyleMap
 90
        3
300
CELLSTYLE
  1
TABLEFORMAT_BEGIN
 90
        5
170
     1
 91
        0
 92
    32768
 62
   257
 93
        1
300
CONTENTFORMAT
  1
CONTENTFORMAT_BEGIN
 90
        0
 91
        0
 92
      512
 93
        0
300

 40
0.0
140
1.0
 94
        5
 62
     0
340
11
144
0.25
309
CONTENTFORMAT_END
171
     1
301
MARGIN
  1
CELLMARGIN_BEGIN
 40
0.06
 40
0.06
 40
0.06
 40
0.06
 40
0.18
 40
0.18
309
CELLMARGIN_END
 94
        6
 95
        1
302
GRIDFORMAT
  1
GRIDFORMAT_BEGIN
 90
        0
 91
        1
 62
     0
 92
       -2
340
0
 93
        0
 40
0.045
309
GRIDFORMAT_END
 95
        2
302
GRIDFORMAT
  1
GRIDFORMAT_BEGIN
 90
        0
 91
        1
 62
     0
 92
       -2
340
0
 93
        0
 40
0.045
309
GRIDFORMAT_END
 95
        4
302
GRIDFORMAT
  1
GRIDFORMAT_BEGIN
 90
        0
 91
        1
 62
     0
 92
       -2
340
0
 93
        0
 40
0.045
309
GRIDFORMAT_END
 95
        8
302
GRIDFORMAT
  1
GRIDFORMAT_BEGIN
 90
        0
 91
        1
 62
     0
 92
       -2
340
0
 93
        0
 40
0.045
309
GRIDFORMAT_END
 95
       16
302
GRIDFORMAT
  1
GRIDFORMAT_BEGIN
 90
        0
 91
        1
 62
     0
 92
       -2
340
0
 93
        0
 40
0.045
309
GRIDFORMAT_END
 95
       32
302
GRIDFORMAT
  1
GRIDFORMAT_BEGIN
 90
        0
 91
        1
 62
     0
 92
       -2
340
0
 93
        0
 40
0.045
309
GRIDFORMAT_END
309
TABLEFORMAT_END
  1
CELLSTYLE_BEGIN
 90
        1
 91
        1
300
_TITLE
309
CELLSTYLE_END
300
CELLSTYLE
  1
TABLEFORMAT_BEGIN
 90
        5
170
     1
 91
        0
 92
        0
 62
   257
 93
        1
300
CONTENTFORMAT
  1
CONTENTFORMAT_BEGIN
 90
        0
 91
        0
 92
      512
 93
        0
300

 40
0.0
140
1.0
 94
        5
 62
     0
340
11
144
0.18
309
CONTENTFORMAT_END
171
     1
301
MARGIN
  1
CELLMARGIN_BEGIN
 40
0.06
 40
0.06
 40
0.06
 40
0.06
 40
0.18
 40
0.18
309
CELLMARGIN_END
 94
        6
 95
        1
302
GRIDFORMAT
  1
GRIDFORMAT_BEGIN
 90
        0
 91
        1
 62
     0
 92
       -2
340
0
 93
        0
 40
0.045
309
GRIDFORMAT_END
 95
        2
302
GRIDFORMAT
  1
GRIDFORMAT_BEGIN
 90
        0
 91
        1
 62
     0
 92
       -2
340
0
 93
        0
 40
0.045
309
GRIDFORMAT_END
 95
        4
302
GRIDFORMAT
  1
GRIDFORMAT_BEGIN
 90
        0
 91
        1
 62
     0
 92
       -2
340
0
 93
        0
 40
0.045
309
GRIDFORMAT_END
 95
        8
302
GRIDFORMAT
  1
GRIDFORMAT_BEGIN
 90
        0
 91
        1
 62
     0
 92
       -2
340
0
 93
        0
 40
0.045
309
GRIDFORMAT_END
 95
       16
302
GRIDFORMAT
  1
GRIDFORMAT_BEGIN
 90
        0
 91
        1
 62
     0
 92
       -2
340
0
 93
        0
 40
0.045
309
GRIDFORMAT_END
 95
       32
302
GRIDFORMAT
  1
GRIDFORMAT_BEGIN
 90
        0
 91
        1
 62
     0
 92
       -2
340
0
 93
        0
 40
0.045
309
GRIDFORMAT_END
309
TABLEFORMAT_END
  1
CELLSTYLE_BEGIN
 90
        2
 91
        1
300
_HEADER
309
CELLSTYLE_END
300
CELLSTYLE
  1
TABLEFORMAT_BEGIN
 90
        5
170
     1
 91
        0
 92
        0
 62
   257
 93
        1
300
CONTENTFORMAT
  1
CONTENTFORMAT_BEGIN
 90
        0
 91
        0
 92
      512
 93
        0
300

 40
0.0
140
1.0
 94
        2
 62
     0
340
11
144
0.18
309
CONTENTFORMAT_END
171
     1
301
MARGIN
  1
CELLMARGIN_BEGIN
 40
0.06
 40
0.06
 40
0.06
 40
0.06
 40
0.18
 40
0.18
309
CELLMARGIN_END
 94
        6
 95
        1
302
GRIDFORMAT
  1
GRIDFORMAT_BEGIN
 90
        0
 91
        1
 62
     0
 92
       -2
340
0
 93
        0
 40
0.045
309
GRIDFORMAT_END
 95
        2
302
GRIDFORMAT
  1
GRIDFORMAT_BEGIN
 90
        0
 91
        1
 62
     0
 92
       -2
340
0
 93
        0
 40
0.045
309
GRIDFORMAT_END
 95
        4
302
GRIDFORMAT
  1
GRIDFORMAT_BEGIN
 90
        0
 91
        1
 62
     0
 92
       -2
340
0
 93
        0
 40
0.045
309
GRIDFORMAT_END
 95
        8
302
GRIDFORMAT
  1
GRIDFORMAT_BEGIN
 90
        0
 91
        1
 62
     0
 92
       -2
340
0
 93
        0
 40
0.045
309
GRIDFORMAT_END
 95
       16
302
GRIDFORMAT
  1
GRIDFORMAT_BEGIN
 90
        0
 91
        1
 62
     0
 92
       -2
340
0
 93
        0
 40
0.045
309
GRIDFORMAT_END
 95
       32
302
GRIDFORMAT
  1
GRIDFORMAT_BEGIN
 90
        0
 91
        1
 62
     0
 92
       -2
340
0
 93
        0
 40
0.045
309
GRIDFORMAT_END
309
TABLEFORMAT_END
  1
CELLSTYLE_BEGIN
 90
        3
 91
        2
300
_DATA
309
CELLSTYLE_END
  0
XRECORD
  5
81C
102
{ACAD_REACTORS
330
81B
102
}
330
81B
100
AcDbXrecord
280
     1
102
RTVSPost2010Prop28
280
     1
102
RTVSPost2010PropOp28
 70
     1
102
RTVSPost2010Prop29
280
     1
102
RTVSPost2010PropOp29
 70
     1
102
RTVSPost2010Prop30
280
     0
102
RTVSPost2010PropOp30
 70
     1
102
RTVSPost2010Prop31
280
     0
102
RTVSPost2010PropOp31
 70
     1
102
RTVSPost2010Prop32
280
     0
102
RTVSPost2010PropOp32
 70
     1
102
RTVSPost2010Prop33
280
     0
102
RTVSPost2010PropOp33
 70
     1
102
RTVSPost2010Prop34
280
     0
102
RTVSPost2010PropOp34
 70
     1
102
RTVSPost2010Prop35
280
     0
102
RTVSPost2010PropOp35
 70
     1
102
RTVSPost2010Prop36
280
     0
102
RTVSPost2010PropOp36
 70
     1
102
RTVSPost2010Prop37
 90
       50
102
RTVSPost2010PropOp37
 70
     1
102
RTVSPost2010Prop38
140
0.0
102
RTVSPost2010PropOp38
 70
     1
102
RTVSPost2010Prop39
140
1.0
102
RTVSPost2010PropOp39
 70
     1
102
RTVSPost2010Prop40
 90
        0
102
RTVSPost2010PropOp40
 70
     1
102
RTVSPost2010Prop41ColorIndex
 90
       18
102
RTVSPost2010Prop41ColorRGB
 90
        0
102
RTVSPost2010PropOp41
 70
     1
102
RTVSPost2010Prop42
 90
       50
102
RTVSPost2010PropOp42
 70
     1
102
RTVSPost2010Prop43
 90
        3
102
RTVSPost2010PropOp43
 70
     1
102
RTVSPost2010Prop44ColorIndex
 90
        5
102
RTVSPost2010Prop44ColorRGB
 90
      255
102
RTVSPost2010PropOp44
 70
     1
102
RTVSPost2010Prop45
280
     0
102
RTVSPost2010PropOp45
 70
     1
102
RTVSPost2010Prop46
 90
       50
102
RTVSPost2010PropOp46
 70
     1
102
RTVSPost2010Prop47
 90
       50
102
RTVSPost2010PropOp47
 70
     1
102
RTVSPost2010Prop48
 90
       50
102
RTVSPost2010PropOp48
 70
     1
102
RTVSPost2010Prop49
280
     0
102
RTVSPost2010PropOp49
 70
     1
102
RTVSPost2010Prop50
 90
       50
102
RTVSPost2010PropOp50
 70
     1
102
RTVSPost2010Prop51ColorIndex
 90
      256
102
RTVSPost2010Prop51ColorRGB
 90
-16777216
102
RTVSPost2010PropOp51
 70
     0
102
RTVSPost2010Prop52
140
1.0
102
RTVSPost2010PropOp52
 70
     0
102
RTVSPost2010Prop53
 90
        2
102
RTVSPost2010PropOp53
 70
     1
102
RTVSPost2010Prop54
  1
strokes_ogs.tif
102
RTVSPost2010PropOp54
 70
     1
102
RTVSPost2010Prop55
280
     0
102
RTVSPost2010PropOp55
 70
     1
102
RTVSPost2010Prop56
140
1.0
102
RTVSPost2010PropOp56
 70
     1
102
RTVSPost2010Prop57
140
1.0
102
RTVSPost2010PropOp57
 70
     1
  0
XRECORD
  5
846
102
{ACAD_REACTORS
330
845
102
}
330
845
100
AcDbXrecord
280
     1
102
RTVSPost2010Prop28
280
     0
102
RTVSPost2010PropOp28
 70
     1
102
RTVSPost2010Prop29
280
     1
102
RTVSPost2010PropOp29
 70
     1
102
RTVSPost2010Prop30
280
     1
102
RTVSPost2010PropOp30
 70
     1
102
RTVSPost2010Prop31
280
     0
102
RTVSPost2010PropOp31
 70
     1
102
RTVSPost2010Prop32
280
     0
102
RTVSPost2010PropOp32
 70
     1
102
RTVSPost2010Prop33
280
     0
102
RTVSPost2010PropOp33
 70
     1
102
RTVSPost2010Prop34
280
     0
102
RTVSPost2010PropOp34
 70
     1
102
RTVSPost2010Prop35
280
     0
102
RTVSPost2010PropOp35
 70
     1
102
RTVSPost2010Prop36
280
     0
102
RTVSPost2010PropOp36
 70
     1
102
RTVSPost2010Prop37
 90
       50
102
RTVSPost2010PropOp37
 70
     1
102
RTVSPost2010Prop38
140
0.0
102
RTVSPost2010PropOp38
 70
     1
102
RTVSPost2010Prop39
140
1.0
102
RTVSPost2010PropOp39
 70
     1
102
RTVSPost2010Prop40
 90
        0
102
RTVSPost2010PropOp40
 70
     1
102
RTVSPost2010Prop41ColorIndex
 90
       18
102
RTVSPost2010Prop41ColorRGB
 90
        0
102
RTVSPost2010PropOp41
 70
     1
102
RTVSPost2010Prop42
 90
       50
102
RTVSPost2010PropOp42
 70
     1
102
RTVSPost2010Prop43
 90
        3
102
RTVSPost2010PropOp43
 70
     1
102
RTVSPost2010Prop44ColorIndex
 90
        5
102
RTVSPost2010Prop44ColorRGB
 90
      255
102
RTVSPost2010PropOp44
 70
     1
102
RTVSPost2010Prop45
280
     0
102
RTVSPost2010PropOp45
 70
     1
102
RTVSPost2010Prop46
 90
       50
102
RTVSPost2010PropOp46
 70
     1
102
RTVSPost2010Prop47
 90
       50
102
RTVSPost2010PropOp47
 70
     1
102
RTVSPost2010Prop48
 90
       50
102
RTVSPost2010PropOp48
 70
     1
102
RTVSPost2010Prop49
280
     0
102
RTVSPost2010PropOp49
 70
     1
102
RTVSPost2010Prop50
 90
       50
102
RTVSPost2010PropOp50
 70
     1
102
RTVSPost2010Prop51ColorIndex
 90
      256
102
RTVSPost2010Prop51ColorRGB
 90
-16777216
102
RTVSPost2010PropOp51
 70
     0
102
RTVSPost2010Prop52
140
1.0
102
RTVSPost2010PropOp52
 70
     0
102
RTVSPost2010Prop53
 90
        2
102
RTVSPost2010PropOp53
 70
     1
102
RTVSPost2010Prop54
  1
strokes_ogs.tif
102
RTVSPost2010PropOp54
 70
     1
102
RTVSPost2010Prop55
280
     0
102
RTVSPost2010PropOp55
 70
     1
102
RTVSPost2010Prop56
140
1.0
102
RTVSPost2010PropOp56
 70
     1
102
RTVSPost2010Prop57
140
1.0
102
RTVSPost2010PropOp57
 70
     1
  0
XRECORD
  5
81A
102
{ACAD_REACTORS
330
819
102
}
330
819
100
AcDbXrecord
280
     1
102
RTVSPost2010Prop28
280
     0
102
RTVSPost2010PropOp28
 70
     1
102
RTVSPost2010Prop29
280
     1
102
RTVSPost2010PropOp29
 70
     1
102
RTVSPost2010Prop30
280
     1
102
RTVSPost2010PropOp30
 70
     1
102
RTVSPost2010Prop31
280
     0
102
RTVSPost2010PropOp31
 70
     1
102
RTVSPost2010Prop32
280
     0
102
RTVSPost2010PropOp32
 70
     1
102
RTVSPost2010Prop33
280
     0
102
RTVSPost2010PropOp33
 70
     1
102
RTVSPost2010Prop34
280
     0
102
RTVSPost2010PropOp34
 70
     1
102
RTVSPost2010Prop35
280
     0
102
RTVSPost2010PropOp35
 70
     1
102
RTVSPost2010Prop36
280
     0
102
RTVSPost2010PropOp36
 70
     1
102
RTVSPost2010Prop37
 90
       50
102
RTVSPost2010PropOp37
 70
     1
102
RTVSPost2010Prop38
140
0.0
102
RTVSPost2010PropOp38
 70
     1
102
RTVSPost2010Prop39
140
1.0
102
RTVSPost2010PropOp39
 70
     1
102
RTVSPost2010Prop40
 90
        0
102
RTVSPost2010PropOp40
 70
     1
102
RTVSPost2010Prop41ColorIndex
 90
       18
102
RTVSPost2010Prop41ColorRGB
 90
        0
102
RTVSPost2010PropOp41
 70
     1
102
RTVSPost2010Prop42
 90
       50
102
RTVSPost2010PropOp42
 70
     1
102
RTVSPost2010Prop43
 90
        3
102
RTVSPost2010PropOp43
 70
     1
102
RTVSPost2010Prop44ColorIndex
 90
        5
102
RTVSPost2010Prop44ColorRGB
 90
      255
102
RTVSPost2010PropOp44
 70
     1
102
RTVSPost2010Prop45
280
     0
102
RTVSPost2010PropOp45
 70
     1
102
RTVSPost2010Prop46
 90
       50
102
RTVSPost2010PropOp46
 70
     1
102
RTVSPost2010Prop47
 90
       50
102
RTVSPost2010PropOp47
 70
     1
102
RTVSPost2010Prop48
 90
       50
102
RTVSPost2010PropOp48
 70
     1
102
RTVSPost2010Prop49
280
     0
102
RTVSPost2010PropOp49
 70
     1
102
RTVSPost2010Prop50
 90
       50
102
RTVSPost2010PropOp50
 70
     1
102
RTVSPost2010Prop51ColorIndex
 90
      256
102
RTVSPost2010Prop51ColorRGB
 90
-16777216
102
RTVSPost2010PropOp51
 70
     0
102
RTVSPost2010Prop52
140
1.0
102
RTVSPost2010PropOp52
 70
     0
102
RTVSPost2010Prop53
 90
        2
102
RTVSPost2010PropOp53
 70
     1
102
RTVSPost2010Prop54
  1
strokes_ogs.tif
102
RTVSPost2010PropOp54
 70
     1
102
RTVSPost2010Prop55
280
     0
102
RTVSPost2010PropOp55
 70
     1
102
RTVSPost2010Prop56
140
1.0
102
RTVSPost2010PropOp56
 70
     1
102
RTVSPost2010Prop57
140
1.0
102
RTVSPost2010PropOp57
 70
     1
  0
XRECORD
  5
828
102
{ACAD_REACTORS
330
827
102
}
330
827
100
AcDbXrecord
280
     1
102
RTVSPost2010Prop28
280
     0
102
RTVSPost2010PropOp28
 70
     1
102
RTVSPost2010Prop29
280
     1
102
RTVSPost2010PropOp29
 70
     1
102
RTVSPost2010Prop30
280
     1
102
RTVSPost2010PropOp30
 70
     1
102
RTVSPost2010Prop31
280
     0
102
RTVSPost2010PropOp31
 70
     1
102
RTVSPost2010Prop32
280
     0
102
RTVSPost2010PropOp32
 70
     1
102
RTVSPost2010Prop33
280
     0
102
RTVSPost2010PropOp33
 70
     1
102
RTVSPost2010Prop34
280
     0
102
RTVSPost2010PropOp34
 70
     1
102
RTVSPost2010Prop35
280
     0
102
RTVSPost2010PropOp35
 70
     1
102
RTVSPost2010Prop36
280
     0
102
RTVSPost2010PropOp36
 70
     1
102
RTVSPost2010Prop37
 90
       50
102
RTVSPost2010PropOp37
 70
     1
102
RTVSPost2010Prop38
140
0.0
102
RTVSPost2010PropOp38
 70
     1
102
RTVSPost2010Prop39
140
1.0
102
RTVSPost2010PropOp39
 70
     1
102
RTVSPost2010Prop40
 90
        0
102
RTVSPost2010PropOp40
 70
     1
102
RTVSPost2010Prop41ColorIndex
 90
       18
102
RTVSPost2010Prop41ColorRGB
 90
        0
102
RTVSPost2010PropOp41
 70
     1
102
RTVSPost2010Prop42
 90
       50
102
RTVSPost2010PropOp42
 70
     1
102
RTVSPost2010Prop43
 90
        3
102
RTVSPost2010PropOp43
 70
     1
102
RTVSPost2010Prop44ColorIndex
 90
        5
102
RTVSPost2010Prop44ColorRGB
 90
      255
102
RTVSPost2010PropOp44
 70
     1
102
RTVSPost2010Prop45
280
     0
102
RTVSPost2010PropOp45
 70
     1
102
RTVSPost2010Prop46
 90
       50
102
RTVSPost2010PropOp46
 70
     1
102
RTVSPost2010Prop47
 90
       50
102
RTVSPost2010PropOp47
 70
     1
102
RTVSPost2010Prop48
 90
       50
102
RTVSPost2010PropOp48
 70
     1
102
RTVSPost2010Prop49
280
     0
102
RTVSPost2010PropOp49
 70
     1
102
RTVSPost2010Prop50
 90
       50
102
RTVSPost2010PropOp50
 70
     1
102
RTVSPost2010Prop51ColorIndex
 90
      256
102
RTVSPost2010Prop51ColorRGB
 90
-16777216
102
RTVSPost2010PropOp51
 70
     0
102
RTVSPost2010Prop52
140
1.0
102
RTVSPost2010PropOp52
 70
     0
102
RTVSPost2010Prop53
 90
        2
102
RTVSPost2010PropOp53
 70
     1
102
RTVSPost2010Prop54
  1
strokes_ogs.tif
102
RTVSPost2010PropOp54
 70
     1
102
RTVSPost2010Prop55
280
     0
102
RTVSPost2010PropOp55
 70
     1
102
RTVSPost2010Prop56
140
1.0
102
RTVSPost2010PropOp56
 70
     1
102
RTVSPost2010Prop57
140
1.0
102
RTVSPost2010PropOp57
 70
     1
  0
XRECORD
  5
830
102
{ACAD_REACTORS
330
82F
102
}
330
82F
100
AcDbXrecord
280
     1
102
RTVSPost2010Prop28
280
     0
102
RTVSPost2010PropOp28
 70
     1
102
RTVSPost2010Prop29
280
     1
102
RTVSPost2010PropOp29
 70
     1
102
RTVSPost2010Prop30
280
     1
102
RTVSPost2010PropOp30
 70
     1
102
RTVSPost2010Prop31
280
     0
102
RTVSPost2010PropOp31
 70
     1
102
RTVSPost2010Prop32
280
     0
102
RTVSPost2010PropOp32
 70
     1
102
RTVSPost2010Prop33
280
     0
102
RTVSPost2010PropOp33
 70
     1
102
RTVSPost2010Prop34
280
     0
102
RTVSPost2010PropOp34
 70
     1
102
RTVSPost2010Prop35
280
     0
102
RTVSPost2010PropOp35
 70
     1
102
RTVSPost2010Prop36
280
     0
102
RTVSPost2010PropOp36
 70
     1
102
RTVSPost2010Prop37
 90
       50
102
RTVSPost2010PropOp37
 70
     1
102
RTVSPost2010Prop38
140
0.0
102
RTVSPost2010PropOp38
 70
     1
102
RTVSPost2010Prop39
140
1.0
102
RTVSPost2010PropOp39
 70
     1
102
RTVSPost2010Prop40
 90
        0
102
RTVSPost2010PropOp40
 70
     1
102
RTVSPost2010Prop41ColorIndex
 90
       18
102
RTVSPost2010Prop41ColorRGB
 90
        0
102
RTVSPost2010PropOp41
 70
     1
102
RTVSPost2010Prop42
 90
       50
102
RTVSPost2010PropOp42
 70
     1
102
RTVSPost2010Prop43
 90
        3
102
RTVSPost2010PropOp43
 70
     1
102
RTVSPost2010Prop44ColorIndex
 90
        5
102
RTVSPost2010Prop44ColorRGB
 90
      255
102
RTVSPost2010PropOp44
 70
     1
102
RTVSPost2010Prop45
280
     0
102
RTVSPost2010PropOp45
 70
     1
102
RTVSPost2010Prop46
 90
       50
102
RTVSPost2010PropOp46
 70
     1
102
RTVSPost2010Prop47
 90
       50
102
RTVSPost2010PropOp47
 70
     1
102
RTVSPost2010Prop48
 90
       50
102
RTVSPost2010PropOp48
 70
     1
102
RTVSPost2010Prop49
280
     0
102
RTVSPost2010PropOp49
 70
     1
102
RTVSPost2010Prop50
 90
       50
102
RTVSPost2010PropOp50
 70
     1
102
RTVSPost2010Prop51ColorIndex
 90
      256
102
RTVSPost2010Prop51ColorRGB
 90
-16777216
102
RTVSPost2010PropOp51
 70
     0
102
RTVSPost2010Prop52
140
1.0
102
RTVSPost2010PropOp52
 70
     0
102
RTVSPost2010Prop53
 90
        2
102
RTVSPost2010PropOp53
 70
     1
102
RTVSPost2010Prop54
  1
strokes_ogs.tif
102
RTVSPost2010PropOp54
 70
     1
102
RTVSPost2010Prop55
280
     0
102
RTVSPost2010PropOp55
 70
     1
102
RTVSPost2010Prop56
140
1.0
102
RTVSPost2010PropOp56
 70
     1
102
RTVSPost2010Prop57
140
1.0
102
RTVSPost2010PropOp57
 70
     1
  0
XRECORD
  5
822
102
{ACAD_REACTORS
330
821
102
}
330
821
100
AcDbXrecord
280
     1
102
RTVSPost2010Prop28
280
     0
102
RTVSPost2010PropOp28
 70
     1
102
RTVSPost2010Prop29
280
     1
102
RTVSPost2010PropOp29
 70
     1
102
RTVSPost2010Prop30
280
     1
102
RTVSPost2010PropOp30
 70
     1
102
RTVSPost2010Prop31
280
     0
102
RTVSPost2010PropOp31
 70
     1
102
RTVSPost2010Prop32
280
     0
102
RTVSPost2010PropOp32
 70
     1
102
RTVSPost2010Prop33
280
     0
102
RTVSPost2010PropOp33
 70
     1
102
RTVSPost2010Prop34
280
     0
102
RTVSPost2010PropOp34
 70
     1
102
RTVSPost2010Prop35
280
     0
102
RTVSPost2010PropOp35
 70
     1
102
RTVSPost2010Prop36
280
     0
102
RTVSPost2010PropOp36
 70
     1
102
RTVSPost2010Prop37
 90
       50
102
RTVSPost2010PropOp37
 70
     1
102
RTVSPost2010Prop38
140
0.0
102
RTVSPost2010PropOp38
 70
     1
102
RTVSPost2010Prop39
140
1.0
102
RTVSPost2010PropOp39
 70
     1
102
RTVSPost2010Prop40
 90
        0
102
RTVSPost2010PropOp40
 70
     1
102
RTVSPost2010Prop41ColorIndex
 90
       18
102
RTVSPost2010Prop41ColorRGB
 90
        0
102
RTVSPost2010PropOp41
 70
     1
102
RTVSPost2010Prop42
 90
       50
102
RTVSPost2010PropOp42
 70
     1
102
RTVSPost2010Prop43
 90
        3
102
RTVSPost2010PropOp43
 70
     1
102
RTVSPost2010Prop44ColorIndex
 90
        5
102
RTVSPost2010Prop44ColorRGB
 90
      255
102
RTVSPost2010PropOp44
 70
     1
102
RTVSPost2010Prop45
280
     0
102
RTVSPost2010PropOp45
 70
     1
102
RTVSPost2010Prop46
 90
       50
102
RTVSPost2010PropOp46
 70
     1
102
RTVSPost2010Prop47
 90
       50
102
RTVSPost2010PropOp47
 70
     1
102
RTVSPost2010Prop48
 90
       50
102
RTVSPost2010PropOp48
 70
     1
102
RTVSPost2010Prop49
280
     0
102
RTVSPost2010PropOp49
 70
     1
102
RTVSPost2010Prop50
 90
       50
102
RTVSPost2010PropOp50
 70
     1
102
RTVSPost2010Prop51ColorIndex
 90
      256
102
RTVSPost2010Prop51ColorRGB
 90
-16777216
102
RTVSPost2010PropOp51
 70
     0
102
RTVSPost2010Prop52
140
1.0
102
RTVSPost2010PropOp52
 70
     0
102
RTVSPost2010Prop53
 90
        2
102
RTVSPost2010PropOp53
 70
     1
102
RTVSPost2010Prop54
  1
strokes_ogs.tif
102
RTVSPost2010PropOp54
 70
     1
102
RTVSPost2010Prop55
280
     0
102
RTVSPost2010PropOp55
 70
     1
102
RTVSPost2010Prop56
140
1.0
102
RTVSPost2010PropOp56
 70
     1
102
RTVSPost2010Prop57
140
1.0
102
RTVSPost2010PropOp57
 70
     1
  0
XRECORD
  5
826
102
{ACAD_REACTORS
330
825
102
}
330
825
100
AcDbXrecord
280
     1
102
RTVSPost2010Prop28
280
     0
102
RTVSPost2010PropOp28
 70
     1
102
RTVSPost2010Prop29
280
     1
102
RTVSPost2010PropOp29
 70
     1
102
RTVSPost2010Prop30
280
     1
102
RTVSPost2010PropOp30
 70
     1
102
RTVSPost2010Prop31
280
     0
102
RTVSPost2010PropOp31
 70
     1
102
RTVSPost2010Prop32
280
     0
102
RTVSPost2010PropOp32
 70
     1
102
RTVSPost2010Prop33
280
     0
102
RTVSPost2010PropOp33
 70
     1
102
RTVSPost2010Prop34
280
     0
102
RTVSPost2010PropOp34
 70
     1
102
RTVSPost2010Prop35
280
     0
102
RTVSPost2010PropOp35
 70
     1
102
RTVSPost2010Prop36
280
     0
102
RTVSPost2010PropOp36
 70
     1
102
RTVSPost2010Prop37
 90
       50
102
RTVSPost2010PropOp37
 70
     1
102
RTVSPost2010Prop38
140
0.0
102
RTVSPost2010PropOp38
 70
     1
102
RTVSPost2010Prop39
140
1.0
102
RTVSPost2010PropOp39
 70
     1
102
RTVSPost2010Prop40
 90
        0
102
RTVSPost2010PropOp40
 70
     1
102
RTVSPost2010Prop41ColorIndex
 90
       18
102
RTVSPost2010Prop41ColorRGB
 90
        0
102
RTVSPost2010PropOp41
 70
     1
102
RTVSPost2010Prop42
 90
       50
102
RTVSPost2010PropOp42
 70
     1
102
RTVSPost2010Prop43
 90
        3
102
RTVSPost2010PropOp43
 70
     1
102
RTVSPost2010Prop44ColorIndex
 90
        5
102
RTVSPost2010Prop44ColorRGB
 90
      255
102
RTVSPost2010PropOp44
 70
     1
102
RTVSPost2010Prop45
280
     0
102
RTVSPost2010PropOp45
 70
     1
102
RTVSPost2010Prop46
 90
       50
102
RTVSPost2010PropOp46
 70
     1
102
RTVSPost2010Prop47
 90
       50
102
RTVSPost2010PropOp47
 70
     1
102
RTVSPost2010Prop48
 90
       50
102
RTVSPost2010PropOp48
 70
     1
102
RTVSPost2010Prop49
280
     0
102
RTVSPost2010PropOp49
 70
     1
102
RTVSPost2010Prop50
 90
       50
102
RTVSPost2010PropOp50
 70
     1
102
RTVSPost2010Prop51ColorIndex
 90
      256
102
RTVSPost2010Prop51ColorRGB
 90
-16777216
102
RTVSPost2010PropOp51
 70
     0
102
RTVSPost2010Prop52
140
1.0
102
RTVSPost2010PropOp52
 70
     0
102
RTVSPost2010Prop53
 90
        2
102
RTVSPost2010PropOp53
 70
     1
102
RTVSPost2010Prop54
  1
strokes_ogs.tif
102
RTVSPost2010PropOp54
 70
     1
102
RTVSPost2010Prop55
280
     0
102
RTVSPost2010PropOp55
 70
     1
102
RTVSPost2010Prop56
140
1.0
102
RTVSPost2010PropOp56
 70
     1
102
RTVSPost2010Prop57
140
1.0
102
RTVSPost2010PropOp57
 70
     1
  0
XRECORD
  5
840
102
{ACAD_REACTORS
330
83F
102
}
330
83F
100
AcDbXrecord
280
     1
102
RTVSPost2010Prop28
280
     0
102
RTVSPost2010PropOp28
 70
     1
102
RTVSPost2010Prop29
280
     1
102
RTVSPost2010PropOp29
 70
     1
102
RTVSPost2010Prop30
280
     1
102
RTVSPost2010PropOp30
 70
     1
102
RTVSPost2010Prop31
280
     0
102
RTVSPost2010PropOp31
 70
     1
102
RTVSPost2010Prop32
280
     0
102
RTVSPost2010PropOp32
 70
     1
102
RTVSPost2010Prop33
280
     0
102
RTVSPost2010PropOp33
 70
     1
102
RTVSPost2010Prop34
280
     0
102
RTVSPost2010PropOp34
 70
     1
102
RTVSPost2010Prop35
280
     0
102
RTVSPost2010PropOp35
 70
     1
102
RTVSPost2010Prop36
280
     0
102
RTVSPost2010PropOp36
 70
     1
102
RTVSPost2010Prop37
 90
       50
102
RTVSPost2010PropOp37
 70
     0
102
RTVSPost2010Prop38
140
0.0
102
RTVSPost2010PropOp38
 70
     0
102
RTVSPost2010Prop39
140
1.0
102
RTVSPost2010PropOp39
 70
     0
102
RTVSPost2010Prop40
 90
        0
102
RTVSPost2010PropOp40
 70
     0
102
RTVSPost2010Prop41ColorIndex
 90
       18
102
RTVSPost2010Prop41ColorRGB
 90
        0
102
RTVSPost2010PropOp41
 70
     0
102
RTVSPost2010Prop42
 90
       50
102
RTVSPost2010PropOp42
 70
     0
102
RTVSPost2010Prop43
 90
        3
102
RTVSPost2010PropOp43
 70
     0
102
RTVSPost2010Prop44ColorIndex
 90
        5
102
RTVSPost2010Prop44ColorRGB
 90
      255
102
RTVSPost2010PropOp44
 70
     0
102
RTVSPost2010Prop45
280
     0
102
RTVSPost2010PropOp45
 70
     1
102
RTVSPost2010Prop46
 90
       50
102
RTVSPost2010PropOp46
 70
     0
102
RTVSPost2010Prop47
 90
       50
102
RTVSPost2010PropOp47
 70
     0
102
RTVSPost2010Prop48
 90
       50
102
RTVSPost2010PropOp48
 70
     0
102
RTVSPost2010Prop49
280
     0
102
RTVSPost2010PropOp49
 70
     1
102
RTVSPost2010Prop50
 90
       50
102
RTVSPost2010PropOp50
 70
     0
102
RTVSPost2010Prop51ColorIndex
 90
      256
102
RTVSPost2010Prop51ColorRGB
 90
-16777216
102
RTVSPost2010PropOp51
 70
     0
102
RTVSPost2010Prop52
140
1.0
102
RTVSPost2010PropOp52
 70
     0
102
RTVSPost2010Prop53
 90
        2
102
RTVSPost2010PropOp53
 70
     0
102
RTVSPost2010Prop54
  1
strokes_ogs.tif
102
RTVSPost2010PropOp54
 70
     0
102
RTVSPost2010Prop55
280
     0
102
RTVSPost2010PropOp55
 70
     1
102
RTVSPost2010Prop56
140
1.0
102
RTVSPost2010PropOp56
 70
     0
102
RTVSPost2010Prop57
140
1.0
102
RTVSPost2010PropOp57
 70
     0
  0
XRECORD
  5
82E
102
{ACAD_REACTORS
330
82D
102
}
330
82D
100
AcDbXrecord
280
     1
102
RTVSPost2010Prop28
280
     0
102
RTVSPost2010PropOp28
 70
     1
102
RTVSPost2010Prop29
280
     1
102
RTVSPost2010PropOp29
 70
     1
102
RTVSPost2010Prop30
280
     1
102
RTVSPost2010PropOp30
 70
     1
102
RTVSPost2010Prop31
280
     0
102
RTVSPost2010PropOp31
 70
     1
102
RTVSPost2010Prop32
280
     0
102
RTVSPost2010PropOp32
 70
     1
102
RTVSPost2010Prop33
280
     0
102
RTVSPost2010PropOp33
 70
     1
102
RTVSPost2010Prop34
280
     0
102
RTVSPost2010PropOp34
 70
     1
102
RTVSPost2010Prop35
280
     0
102
RTVSPost2010PropOp35
 70
     1
102
RTVSPost2010Prop36
280
     0
102
RTVSPost2010PropOp36
 70
     1
102
RTVSPost2010Prop37
 90
       50
102
RTVSPost2010PropOp37
 70
     1
102
RTVSPost2010Prop38
140
0.0
102
RTVSPost2010PropOp38
 70
     1
102
RTVSPost2010Prop39
140
1.0
102
RTVSPost2010PropOp39
 70
     1
102
RTVSPost2010Prop40
 90
        0
102
RTVSPost2010PropOp40
 70
     1
102
RTVSPost2010Prop41ColorIndex
 90
       18
102
RTVSPost2010Prop41ColorRGB
 90
        0
102
RTVSPost2010PropOp41
 70
     1
102
RTVSPost2010Prop42
 90
       50
102
RTVSPost2010PropOp42
 70
     1
102
RTVSPost2010Prop43
 90
        3
102
RTVSPost2010PropOp43
 70
     1
102
RTVSPost2010Prop44ColorIndex
 90
        5
102
RTVSPost2010Prop44ColorRGB
 90
      255
102
RTVSPost2010PropOp44
 70
     1
102
RTVSPost2010Prop45
280
     0
102
RTVSPost2010PropOp45
 70
     1
102
RTVSPost2010Prop46
 90
       50
102
RTVSPost2010PropOp46
 70
     1
102
RTVSPost2010Prop47
 90
       50
102
RTVSPost2010PropOp47
 70
     1
102
RTVSPost2010Prop48
 90
       50
102
RTVSPost2010PropOp48
 70
     1
102
RTVSPost2010Prop49
280
     0
102
RTVSPost2010PropOp49
 70
     1
102
RTVSPost2010Prop50
 90
       50
102
RTVSPost2010PropOp50
 70
     1
102
RTVSPost2010Prop51ColorIndex
 90
      256
102
RTVSPost2010Prop51ColorRGB
 90
-16777216
102
RTVSPost2010PropOp51
 70
     0
102
RTVSPost2010Prop52
140
1.0
102
RTVSPost2010PropOp52
 70
     0
102
RTVSPost2010Prop53
 90
        2
102
RTVSPost2010PropOp53
 70
     1
102
RTVSPost2010Prop54
  1
strokes_ogs.tif
102
RTVSPost2010PropOp54
 70
     1
102
RTVSPost2010Prop55
280
     0
102
RTVSPost2010PropOp55
 70
     1
102
RTVSPost2010Prop56
140
1.0
102
RTVSPost2010PropOp56
 70
     1
102
RTVSPost2010Prop57
140
1.0
102
RTVSPost2010PropOp57
 70
     1
  0
XRECORD
  5
812
102
{ACAD_REACTORS
330
811
102
}
330
811
100
AcDbXrecord
280
     1
102
RTVSPost2010Prop28
280
     0
102
RTVSPost2010PropOp28
 70
     1
102
RTVSPost2010Prop29
280
     1
102
RTVSPost2010PropOp29
 70
     1
102
RTVSPost2010Prop30
280
     1
102
RTVSPost2010PropOp30
 70
     1
102
RTVSPost2010Prop31
280
     0
102
RTVSPost2010PropOp31
 70
     1
102
RTVSPost2010Prop32
280
     0
102
RTVSPost2010PropOp32
 70
     1
102
RTVSPost2010Prop33
280
     0
102
RTVSPost2010PropOp33
 70
     1
102
RTVSPost2010Prop34
280
     0
102
RTVSPost2010PropOp34
 70
     1
102
RTVSPost2010Prop35
280
     0
102
RTVSPost2010PropOp35
 70
     1
102
RTVSPost2010Prop36
280
     0
102
RTVSPost2010PropOp36
 70
     1
102
RTVSPost2010Prop37
 90
       50
102
RTVSPost2010PropOp37
 70
     1
102
RTVSPost2010Prop38
140
0.0
102
RTVSPost2010PropOp38
 70
     1
102
RTVSPost2010Prop39
140
1.0
102
RTVSPost2010PropOp39
 70
     1
102
RTVSPost2010Prop40
 90
        0
102
RTVSPost2010PropOp40
 70
     1
102
RTVSPost2010Prop41ColorIndex
 90
       18
102
RTVSPost2010Prop41ColorRGB
 90
        0
102
RTVSPost2010PropOp41
 70
     1
102
RTVSPost2010Prop42
 90
       50
102
RTVSPost2010PropOp42
 70
     1
102
RTVSPost2010Prop43
 90
        3
102
RTVSPost2010PropOp43
 70
     1
102
RTVSPost2010Prop44ColorIndex
 90
        5
102
RTVSPost2010Prop44ColorRGB
 90
      255
102
RTVSPost2010PropOp44
 70
     1
102
RTVSPost2010Prop45
280
     0
102
RTVSPost2010PropOp45
 70
     1
102
RTVSPost2010Prop46
 90
       50
102
RTVSPost2010PropOp46
 70
     1
102
RTVSPost2010Prop47
 90
       50
102
RTVSPost2010PropOp47
 70
     1
102
RTVSPost2010Prop48
 90
       50
102
RTVSPost2010PropOp48
 70
     1
102
RTVSPost2010Prop49
280
     0
102
RTVSPost2010PropOp49
 70
     1
102
RTVSPost2010Prop50
 90
       50
102
RTVSPost2010PropOp50
 70
     1
102
RTVSPost2010Prop51ColorIndex
 90
      256
102
RTVSPost2010Prop51ColorRGB
 90
-16777216
102
RTVSPost2010PropOp51
 70
     0
102
RTVSPost2010Prop52
140
1.0
102
RTVSPost2010PropOp52
 70
     0
102
RTVSPost2010Prop53
 90
        2
102
RTVSPost2010PropOp53
 70
     1
102
RTVSPost2010Prop54
  1
strokes_ogs.tif
102
RTVSPost2010PropOp54
 70
     1
102
RTVSPost2010Prop55
280
     0
102
RTVSPost2010PropOp55
 70
     1
102
RTVSPost2010Prop56
140
1.0
102
RTVSPost2010PropOp56
 70
     1
102
RTVSPost2010Prop57
140
1.0
102
RTVSPost2010PropOp57
 70
     1
  0
XRECORD
  5
814
102
{ACAD_REACTORS
330
813
102
}
330
813
100
AcDbXrecord
280
     1
102
RTVSPost2010Prop28
280
     0
102
RTVSPost2010PropOp28
 70
     1
102
RTVSPost2010Prop29
280
     1
102
RTVSPost2010PropOp29
 70
     1
102
RTVSPost2010Prop30
280
     1
102
RTVSPost2010PropOp30
 70
     1
102
RTVSPost2010Prop31
280
     0
102
RTVSPost2010PropOp31
 70
     1
102
RTVSPost2010Prop32
280
     0
102
RTVSPost2010PropOp32
 70
     1
102
RTVSPost2010Prop33
280
     0
102
RTVSPost2010PropOp33
 70
     1
102
RTVSPost2010Prop34
280
     0
102
RTVSPost2010PropOp34
 70
     1
102
RTVSPost2010Prop35
280
     0
102
RTVSPost2010PropOp35
 70
     1
102
RTVSPost2010Prop36
280
     0
102
RTVSPost2010PropOp36
 70
     1
102
RTVSPost2010Prop37
 90
       50
102
RTVSPost2010PropOp37
 70
     1
102
RTVSPost2010Prop38
140
0.0
102
RTVSPost2010PropOp38
 70
     1
102
RTVSPost2010Prop39
140
1.0
102
RTVSPost2010PropOp39
 70
     1
102
RTVSPost2010Prop40
 90
        0
102
RTVSPost2010PropOp40
 70
     1
102
RTVSPost2010Prop41ColorIndex
 90
       18
102
RTVSPost2010Prop41ColorRGB
 90
        0
102
RTVSPost2010PropOp41
 70
     1
102
RTVSPost2010Prop42
 90
       50
102
RTVSPost2010PropOp42
 70
     1
102
RTVSPost2010Prop43
 90
        3
102
RTVSPost2010PropOp43
 70
     1
102
RTVSPost2010Prop44ColorIndex
 90
        5
102
RTVSPost2010Prop44ColorRGB
 90
      255
102
RTVSPost2010PropOp44
 70
     1
102
RTVSPost2010Prop45
280
     0
102
RTVSPost2010PropOp45
 70
     1
102
RTVSPost2010Prop46
 90
       50
102
RTVSPost2010PropOp46
 70
     1
102
RTVSPost2010Prop47
 90
       50
102
RTVSPost2010PropOp47
 70
     1
102
RTVSPost2010Prop48
 90
       50
102
RTVSPost2010PropOp48
 70
     1
102
RTVSPost2010Prop49
280
     0
102
RTVSPost2010PropOp49
 70
     1
102
RTVSPost2010Prop50
 90
       50
102
RTVSPost2010PropOp50
 70
     1
102
RTVSPost2010Prop51ColorIndex
 90
      256
102
RTVSPost2010Prop51ColorRGB
 90
-16777216
102
RTVSPost2010PropOp51
 70
     0
102
RTVSPost2010Prop52
140
1.0
102
RTVSPost2010PropOp52
 70
     0
102
RTVSPost2010Prop53
 90
        2
102
RTVSPost2010PropOp53
 70
     1
102
RTVSPost2010Prop54
  1
strokes_ogs.tif
102
RTVSPost2010PropOp54
 70
     1
102
RTVSPost2010Prop55
280
     0
102
RTVSPost2010PropOp55
 70
     1
102
RTVSPost2010Prop56
140
1.0
102
RTVSPost2010PropOp56
 70
     1
102
RTVSPost2010Prop57
140
1.0
102
RTVSPost2010PropOp57
 70
     1
  0
XRECORD
  5
816
102
{ACAD_REACTORS
330
815
102
}
330
815
100
AcDbXrecord
280
     1
102
RTVSPost2010Prop28
280
     0
102
RTVSPost2010PropOp28
 70
     1
102
RTVSPost2010Prop29
280
     1
102
RTVSPost2010PropOp29
 70
     1
102
RTVSPost2010Prop30
280
     1
102
RTVSPost2010PropOp30
 70
     1
102
RTVSPost2010Prop31
280
     0
102
RTVSPost2010PropOp31
 70
     1
102
RTVSPost2010Prop32
280
     0
102
RTVSPost2010PropOp32
 70
     1
102
RTVSPost2010Prop33
280
     0
102
RTVSPost2010PropOp33
 70
     1
102
RTVSPost2010Prop34
280
     0
102
RTVSPost2010PropOp34
 70
     1
102
RTVSPost2010Prop35
280
     0
102
RTVSPost2010PropOp35
 70
     1
102
RTVSPost2010Prop36
280
     0
102
RTVSPost2010PropOp36
 70
     1
102
RTVSPost2010Prop37
 90
       50
102
RTVSPost2010PropOp37
 70
     1
102
RTVSPost2010Prop38
140
0.0
102
RTVSPost2010PropOp38
 70
     1
102
RTVSPost2010Prop39
140
1.0
102
RTVSPost2010PropOp39
 70
     1
102
RTVSPost2010Prop40
 90
        0
102
RTVSPost2010PropOp40
 70
     1
102
RTVSPost2010Prop41ColorIndex
 90
       18
102
RTVSPost2010Prop41ColorRGB
 90
        0
102
RTVSPost2010PropOp41
 70
     1
102
RTVSPost2010Prop42
 90
       50
102
RTVSPost2010PropOp42
 70
     1
102
RTVSPost2010Prop43
 90
        3
102
RTVSPost2010PropOp43
 70
     1
102
RTVSPost2010Prop44ColorIndex
 90
        5
102
RTVSPost2010Prop44ColorRGB
 90
      255
102
RTVSPost2010PropOp44
 70
     1
102
RTVSPost2010Prop45
280
     0
102
RTVSPost2010PropOp45
 70
     1
102
RTVSPost2010Prop46
 90
       50
102
RTVSPost2010PropOp46
 70
     1
102
RTVSPost2010Prop47
 90
       50
102
RTVSPost2010PropOp47
 70
     1
102
RTVSPost2010Prop48
 90
       50
102
RTVSPost2010PropOp48
 70
     1
102
RTVSPost2010Prop49
280
     0
102
RTVSPost2010PropOp49
 70
     1
102
RTVSPost2010Prop50
 90
       50
102
RTVSPost2010PropOp50
 70
     1
102
RTVSPost2010Prop51ColorIndex
 90
      256
102
RTVSPost2010Prop51ColorRGB
 90
-16777216
102
RTVSPost2010PropOp51
 70
     0
102
RTVSPost2010Prop52
140
1.0
102
RTVSPost2010PropOp52
 70
     0
102
RTVSPost2010Prop53
 90
        2
102
RTVSPost2010PropOp53
 70
     1
102
RTVSPost2010Prop54
  1
strokes_ogs.tif
102
RTVSPost2010PropOp54
 70
     1
102
RTVSPost2010Prop55
280
     0
102
RTVSPost2010PropOp55
 70
     1
102
RTVSPost2010Prop56
140
1.0
102
RTVSPost2010PropOp56
 70
     1
102
RTVSPost2010Prop57
140
1.0
102
RTVSPost2010PropOp57
 70
     1
  0
XRECORD
  5
818
102
{ACAD_REACTORS
330
817
102
}
330
817
100
AcDbXrecord
280
     1
102
RTVSPost2010Prop28
280
     0
102
RTVSPost2010PropOp28
 70
     1
102
RTVSPost2010Prop29
280
     1
102
RTVSPost2010PropOp29
 70
     1
102
RTVSPost2010Prop30
280
     1
102
RTVSPost2010PropOp30
 70
     1
102
RTVSPost2010Prop31
280
     0
102
RTVSPost2010PropOp31
 70
     1
102
RTVSPost2010Prop32
280
     0
102
RTVSPost2010PropOp32
 70
     1
102
RTVSPost2010Prop33
280
     0
102
RTVSPost2010PropOp33
 70
     1
102
RTVSPost2010Prop34
280
     0
102
RTVSPost2010PropOp34
 70
     1
102
RTVSPost2010Prop35
280
     0
102
RTVSPost2010PropOp35
 70
     1
102
RTVSPost2010Prop36
280
     0
102
RTVSPost2010PropOp36
 70
     1
102
RTVSPost2010Prop37
 90
       50
102
RTVSPost2010PropOp37
 70
     1
102
RTVSPost2010Prop38
140
0.0
102
RTVSPost2010PropOp38
 70
     1
102
RTVSPost2010Prop39
140
1.0
102
RTVSPost2010PropOp39
 70
     1
102
RTVSPost2010Prop40
 90
        0
102
RTVSPost2010PropOp40
 70
     1
102
RTVSPost2010Prop41ColorIndex
 90
       18
102
RTVSPost2010Prop41ColorRGB
 90
        0
102
RTVSPost2010PropOp41
 70
     1
102
RTVSPost2010Prop42
 90
       50
102
RTVSPost2010PropOp42
 70
     1
102
RTVSPost2010Prop43
 90
        3
102
RTVSPost2010PropOp43
 70
     1
102
RTVSPost2010Prop44ColorIndex
 90
        5
102
RTVSPost2010Prop44ColorRGB
 90
      255
102
RTVSPost2010PropOp44
 70
     1
102
RTVSPost2010Prop45
280
     0
102
RTVSPost2010PropOp45
 70
     1
102
RTVSPost2010Prop46
 90
       50
102
RTVSPost2010PropOp46
 70
     1
102
RTVSPost2010Prop47
 90
       50
102
RTVSPost2010PropOp47
 70
     1
102
RTVSPost2010Prop48
 90
       50
102
RTVSPost2010PropOp48
 70
     1
102
RTVSPost2010Prop49
280
     0
102
RTVSPost2010PropOp49
 70
     1
102
RTVSPost2010Prop50
 90
       50
102
RTVSPost2010PropOp50
 70
     1
102
RTVSPost2010Prop51ColorIndex
 90
      256
102
RTVSPost2010Prop51ColorRGB
 90
-16777216
102
RTVSPost2010PropOp51
 70
     0
102
RTVSPost2010Prop52
140
1.0
102
RTVSPost2010PropOp52
 70
     0
102
RTVSPost2010Prop53
 90
        2
102
RTVSPost2010PropOp53
 70
     1
102
RTVSPost2010Prop54
  1
strokes_ogs.tif
102
RTVSPost2010PropOp54
 70
     1
102
RTVSPost2010Prop55
280
     0
102
RTVSPost2010PropOp55
 70
     1
102
RTVSPost2010Prop56
140
1.0
102
RTVSPost2010PropOp56
 70
     1
102
RTVSPost2010Prop57
140
1.0
102
RTVSPost2010PropOp57
 70
     1
  0
XRECORD
  5
820
102
{ACAD_REACTORS
330
81F
102
}
330
81F
100
AcDbXrecord
280
     1
102
RTVSPost2010Prop28
280
     0
102
RTVSPost2010PropOp28
 70
     1
102
RTVSPost2010Prop29
280
     1
102
RTVSPost2010PropOp29
 70
     1
102
RTVSPost2010Prop30
280
     1
102
RTVSPost2010PropOp30
 70
     1
102
RTVSPost2010Prop31
280
     0
102
RTVSPost2010PropOp31
 70
     1
102
RTVSPost2010Prop32
280
     0
102
RTVSPost2010PropOp32
 70
     1
102
RTVSPost2010Prop33
280
     0
102
RTVSPost2010PropOp33
 70
     1
102
RTVSPost2010Prop34
280
     0
102
RTVSPost2010PropOp34
 70
     1
102
RTVSPost2010Prop35
280
     0
102
RTVSPost2010PropOp35
 70
     1
102
RTVSPost2010Prop36
280
     0
102
RTVSPost2010PropOp36
 70
     1
102
RTVSPost2010Prop37
 90
       50
102
RTVSPost2010PropOp37
 70
     1
102
RTVSPost2010Prop38
140
0.0
102
RTVSPost2010PropOp38
 70
     1
102
RTVSPost2010Prop39
140
1.0
102
RTVSPost2010PropOp39
 70
     1
102
RTVSPost2010Prop40
 90
        0
102
RTVSPost2010PropOp40
 70
     1
102
RTVSPost2010Prop41ColorIndex
 90
       18
102
RTVSPost2010Prop41ColorRGB
 90
        0
102
RTVSPost2010PropOp41
 70
     1
102
RTVSPost2010Prop42
 90
       50
102
RTVSPost2010PropOp42
 70
     1
102
RTVSPost2010Prop43
 90
        3
102
RTVSPost2010PropOp43
 70
     1
102
RTVSPost2010Prop44ColorIndex
 90
        5
102
RTVSPost2010Prop44ColorRGB
 90
      255
102
RTVSPost2010PropOp44
 70
     1
102
RTVSPost2010Prop45
280
     0
102
RTVSPost2010PropOp45
 70
     1
102
RTVSPost2010Prop46
 90
       50
102
RTVSPost2010PropOp46
 70
     1
102
RTVSPost2010Prop47
 90
       50
102
RTVSPost2010PropOp47
 70
     1
102
RTVSPost2010Prop48
 90
       50
102
RTVSPost2010PropOp48
 70
     1
102
RTVSPost2010Prop49
280
     0
102
RTVSPost2010PropOp49
 70
     1
102
RTVSPost2010Prop50
 90
       50
102
RTVSPost2010PropOp50
 70
     1
102
RTVSPost2010Prop51ColorIndex
 90
      256
102
RTVSPost2010Prop51ColorRGB
 90
-16777216
102
RTVSPost2010PropOp51
 70
     0
102
RTVSPost2010Prop52
140
1.0
102
RTVSPost2010PropOp52
 70
     0
102
RTVSPost2010Prop53
 90
        2
102
RTVSPost2010PropOp53
 70
     1
102
RTVSPost2010Prop54
  1
strokes_ogs.tif
102
RTVSPost2010PropOp54
 70
     1
102
RTVSPost2010Prop55
280
     0
102
RTVSPost2010PropOp55
 70
     1
102
RTVSPost2010Prop56
140
1.0
102
RTVSPost2010PropOp56
 70
     1
102
RTVSPost2010Prop57
140
1.0
102
RTVSPost2010PropOp57
 70
     1
  0
XRECORD
  5
83C
102
{ACAD_REACTORS
330
83B
102
}
330
83B
100
AcDbXrecord
280
     1
102
RTVSPost2010Prop28
280
     0
102
RTVSPost2010PropOp28
 70
     1
102
RTVSPost2010Prop29
280
     1
102
RTVSPost2010PropOp29
 70
     1
102
RTVSPost2010Prop30
280
     1
102
RTVSPost2010PropOp30
 70
     1
102
RTVSPost2010Prop31
280
     0
102
RTVSPost2010PropOp31
 70
     1
102
RTVSPost2010Prop32
280
     0
102
RTVSPost2010PropOp32
 70
     1
102
RTVSPost2010Prop33
280
     0
102
RTVSPost2010PropOp33
 70
     1
102
RTVSPost2010Prop34
280
     0
102
RTVSPost2010PropOp34
 70
     1
102
RTVSPost2010Prop35
280
     0
102
RTVSPost2010PropOp35
 70
     1
102
RTVSPost2010Prop36
280
     0
102
RTVSPost2010PropOp36
 70
     1
102
RTVSPost2010Prop37
 90
       50
102
RTVSPost2010PropOp37
 70
     0
102
RTVSPost2010Prop38
140
0.0
102
RTVSPost2010PropOp38
 70
     0
102
RTVSPost2010Prop39
140
1.0
102
RTVSPost2010PropOp39
 70
     0
102
RTVSPost2010Prop40
 90
        0
102
RTVSPost2010PropOp40
 70
     0
102
RTVSPost2010Prop41ColorIndex
 90
       18
102
RTVSPost2010Prop41ColorRGB
 90
        0
102
RTVSPost2010PropOp41
 70
     0
102
RTVSPost2010Prop42
 90
       50
102
RTVSPost2010PropOp42
 70
     0
102
RTVSPost2010Prop43
 90
        3
102
RTVSPost2010PropOp43
 70
     0
102
RTVSPost2010Prop44ColorIndex
 90
        5
102
RTVSPost2010Prop44ColorRGB
 90
      255
102
RTVSPost2010PropOp44
 70
     0
102
RTVSPost2010Prop45
280
     0
102
RTVSPost2010PropOp45
 70
     1
102
RTVSPost2010Prop46
 90
       50
102
RTVSPost2010PropOp46
 70
     0
102
RTVSPost2010Prop47
 90
       50
102
RTVSPost2010PropOp47
 70
     0
102
RTVSPost2010Prop48
 90
       50
102
RTVSPost2010PropOp48
 70
     0
102
RTVSPost2010Prop49
280
     0
102
RTVSPost2010PropOp49
 70
     1
102
RTVSPost2010Prop50
 90
       50
102
RTVSPost2010PropOp50
 70
     0
102
RTVSPost2010Prop51ColorIndex
 90
      256
102
RTVSPost2010Prop51ColorRGB
 90
-16777216
102
RTVSPost2010PropOp51
 70
     0
102
RTVSPost2010Prop52
140
1.0
102
RTVSPost2010PropOp52
 70
     0
102
RTVSPost2010Prop53
 90
        2
102
RTVSPost2010PropOp53
 70
     0
102
RTVSPost2010Prop54
  1
strokes_ogs.tif
102
RTVSPost2010PropOp54
 70
     0
102
RTVSPost2010Prop55
280
     0
102
RTVSPost2010PropOp55
 70
     1
102
RTVSPost2010Prop56
140
1.0
102
RTVSPost2010PropOp56
 70
     0
102
RTVSPost2010Prop57
140
1.0
102
RTVSPost2010PropOp57
 70
     0
  0
XRECORD
  5
82C
102
{ACAD_REACTORS
330
82B
102
}
330
82B
100
AcDbXrecord
280
     1
102
RTVSPost2010Prop28
280
     0
102
RTVSPost2010PropOp28
 70
     1
102
RTVSPost2010Prop29
280
     1
102
RTVSPost2010PropOp29
 70
     1
102
RTVSPost2010Prop30
280
     1
102
RTVSPost2010PropOp30
 70
     1
102
RTVSPost2010Prop31
280
     0
102
RTVSPost2010PropOp31
 70
     1
102
RTVSPost2010Prop32
280
     0
102
RTVSPost2010PropOp32
 70
     1
102
RTVSPost2010Prop33
280
     0
102
RTVSPost2010PropOp33
 70
     1
102
RTVSPost2010Prop34
280
     0
102
RTVSPost2010PropOp34
 70
     1
102
RTVSPost2010Prop35
280
     0
102
RTVSPost2010PropOp35
 70
     1
102
RTVSPost2010Prop36
280
     0
102
RTVSPost2010PropOp36
 70
     1
102
RTVSPost2010Prop37
 90
       50
102
RTVSPost2010PropOp37
 70
     1
102
RTVSPost2010Prop38
140
0.0
102
RTVSPost2010PropOp38
 70
     1
102
RTVSPost2010Prop39
140
1.0
102
RTVSPost2010PropOp39
 70
     1
102
RTVSPost2010Prop40
 90
        0
102
RTVSPost2010PropOp40
 70
     1
102
RTVSPost2010Prop41ColorIndex
 90
       18
102
RTVSPost2010Prop41ColorRGB
 90
        0
102
RTVSPost2010PropOp41
 70
     1
102
RTVSPost2010Prop42
 90
       50
102
RTVSPost2010PropOp42
 70
     1
102
RTVSPost2010Prop43
 90
        3
102
RTVSPost2010PropOp43
 70
     1
102
RTVSPost2010Prop44ColorIndex
 90
        5
102
RTVSPost2010Prop44ColorRGB
 90
      255
102
RTVSPost2010PropOp44
 70
     1
102
RTVSPost2010Prop45
280
     0
102
RTVSPost2010PropOp45
 70
     1
102
RTVSPost2010Prop46
 90
       50
102
RTVSPost2010PropOp46
 70
     1
102
RTVSPost2010Prop47
 90
       50
102
RTVSPost2010PropOp47
 70
     1
102
RTVSPost2010Prop48
 90
       50
102
RTVSPost2010PropOp48
 70
     1
102
RTVSPost2010Prop49
280
     0
102
RTVSPost2010PropOp49
 70
     1
102
RTVSPost2010Prop50
 90
       50
102
RTVSPost2010PropOp50
 70
     1
102
RTVSPost2010Prop51ColorIndex
 90
      256
102
RTVSPost2010Prop51ColorRGB
 90
-16777216
102
RTVSPost2010PropOp51
 70
     0
102
RTVSPost2010Prop52
140
1.0
102
RTVSPost2010PropOp52
 70
     0
102
RTVSPost2010Prop53
 90
        2
102
RTVSPost2010PropOp53
 70
     1
102
RTVSPost2010Prop54
  1
strokes_ogs.tif
102
RTVSPost2010PropOp54
 70
     1
102
RTVSPost2010Prop55
280
     0
102
RTVSPost2010PropOp55
 70
     1
102
RTVSPost2010Prop56
140
1.0
102
RTVSPost2010PropOp56
 70
     1
102
RTVSPost2010Prop57
140
1.0
102
RTVSPost2010PropOp57
 70
     1
  0
XRECORD
  5
83E
102
{ACAD_REACTORS
330
83D
102
}
330
83D
100
AcDbXrecord
280
     1
102
RTVSPost2010Prop28
280
     0
102
RTVSPost2010PropOp28
 70
     1
102
RTVSPost2010Prop29
280
     1
102
RTVSPost2010PropOp29
 70
     1
102
RTVSPost2010Prop30
280
     1
102
RTVSPost2010PropOp30
 70
     1
102
RTVSPost2010Prop31
280
     0
102
RTVSPost2010PropOp31
 70
     1
102
RTVSPost2010Prop32
280
     0
102
RTVSPost2010PropOp32
 70
     1
102
RTVSPost2010Prop33
280
     0
102
RTVSPost2010PropOp33
 70
     1
102
RTVSPost2010Prop34
280
     0
102
RTVSPost2010PropOp34
 70
     1
102
RTVSPost2010Prop35
280
     0
102
RTVSPost2010PropOp35
 70
     1
102
RTVSPost2010Prop36
280
     0
102
RTVSPost2010PropOp36
 70
     1
102
RTVSPost2010Prop37
 90
       50
102
RTVSPost2010PropOp37
 70
     0
102
RTVSPost2010Prop38
140
0.0
102
RTVSPost2010PropOp38
 70
     0
102
RTVSPost2010Prop39
140
1.0
102
RTVSPost2010PropOp39
 70
     0
102
RTVSPost2010Prop40
 90
        0
102
RTVSPost2010PropOp40
 70
     0
102
RTVSPost2010Prop41ColorIndex
 90
       18
102
RTVSPost2010Prop41ColorRGB
 90
        0
102
RTVSPost2010PropOp41
 70
     0
102
RTVSPost2010Prop42
 90
       50
102
RTVSPost2010PropOp42
 70
     0
102
RTVSPost2010Prop43
 90
        3
102
RTVSPost2010PropOp43
 70
     0
102
RTVSPost2010Prop44ColorIndex
 90
        5
102
RTVSPost2010Prop44ColorRGB
 90
      255
102
RTVSPost2010PropOp44
 70
     0
102
RTVSPost2010Prop45
280
     0
102
RTVSPost2010PropOp45
 70
     1
102
RTVSPost2010Prop46
 90
       50
102
RTVSPost2010PropOp46
 70
     0
102
RTVSPost2010Prop47
 90
       50
102
RTVSPost2010PropOp47
 70
     0
102
RTVSPost2010Prop48
 90
       50
102
RTVSPost2010PropOp48
 70
     0
102
RTVSPost2010Prop49
280
     0
102
RTVSPost2010PropOp49
 70
     1
102
RTVSPost2010Prop50
 90
       50
102
RTVSPost2010PropOp50
 70
     0
102
RTVSPost2010Prop51ColorIndex
 90
      256
102
RTVSPost2010Prop51ColorRGB
 90
-16777216
102
RTVSPost2010PropOp51
 70
     0
102
RTVSPost2010Prop52
140
1.0
102
RTVSPost2010PropOp52
 70
     0
102
RTVSPost2010Prop53
 90
        2
102
RTVSPost2010PropOp53
 70
     0
102
RTVSPost2010Prop54
  1
strokes_ogs.tif
102
RTVSPost2010PropOp54
 70
     0
102
RTVSPost2010Prop55
280
     0
102
RTVSPost2010PropOp55
 70
     1
102
RTVSPost2010Prop56
140
1.0
102
RTVSPost2010PropOp56
 70
     0
102
RTVSPost2010Prop57
140
1.0
102
RTVSPost2010PropOp57
 70
     0
  0
XRECORD
  5
824
102
{ACAD_REACTORS
330
823
102
}
330
823
100
AcDbXrecord
280
     1
102
RTVSPost2010Prop28
280
     0
102
RTVSPost2010PropOp28
 70
     1
102
RTVSPost2010Prop29
280
     1
102
RTVSPost2010PropOp29
 70
     1
102
RTVSPost2010Prop30
280
     1
102
RTVSPost2010PropOp30
 70
     1
102
RTVSPost2010Prop31
280
     0
102
RTVSPost2010PropOp31
 70
     1
102
RTVSPost2010Prop32
280
     0
102
RTVSPost2010PropOp32
 70
     1
102
RTVSPost2010Prop33
280
     0
102
RTVSPost2010PropOp33
 70
     1
102
RTVSPost2010Prop34
280
     0
102
RTVSPost2010PropOp34
 70
     1
102
RTVSPost2010Prop35
280
     0
102
RTVSPost2010PropOp35
 70
     1
102
RTVSPost2010Prop36
280
     0
102
RTVSPost2010PropOp36
 70
     1
102
RTVSPost2010Prop37
 90
       50
102
RTVSPost2010PropOp37
 70
     1
102
RTVSPost2010Prop38
140
0.0
102
RTVSPost2010PropOp38
 70
     1
102
RTVSPost2010Prop39
140
1.0
102
RTVSPost2010PropOp39
 70
     1
102
RTVSPost2010Prop40
 90
        0
102
RTVSPost2010PropOp40
 70
     1
102
RTVSPost2010Prop41ColorIndex
 90
       18
102
RTVSPost2010Prop41ColorRGB
 90
        0
102
RTVSPost2010PropOp41
 70
     1
102
RTVSPost2010Prop42
 90
       50
102
RTVSPost2010PropOp42
 70
     1
102
RTVSPost2010Prop43
 90
        3
102
RTVSPost2010PropOp43
 70
     1
102
RTVSPost2010Prop44ColorIndex
 90
        5
102
RTVSPost2010Prop44ColorRGB
 90
      255
102
RTVSPost2010PropOp44
 70
     1
102
RTVSPost2010Prop45
280
     0
102
RTVSPost2010PropOp45
 70
     1
102
RTVSPost2010Prop46
 90
       50
102
RTVSPost2010PropOp46
 70
     1
102
RTVSPost2010Prop47
 90
       50
102
RTVSPost2010PropOp47
 70
     1
102
RTVSPost2010Prop48
 90
       50
102
RTVSPost2010PropOp48
 70
     1
102
RTVSPost2010Prop49
280
     0
102
RTVSPost2010PropOp49
 70
     1
102
RTVSPost2010Prop50
 90
       50
102
RTVSPost2010PropOp50
 70
     1
102
RTVSPost2010Prop51ColorIndex
 90
      256
102
RTVSPost2010Prop51ColorRGB
 90
-16777216
102
RTVSPost2010PropOp51
 70
     0
102
RTVSPost2010Prop52
140
1.0
102
RTVSPost2010PropOp52
 70
     0
102
RTVSPost2010Prop53
 90
        2
102
RTVSPost2010PropOp53
 70
     1
102
RTVSPost2010Prop54
  1
strokes_ogs.tif
102
RTVSPost2010PropOp54
 70
     1
102
RTVSPost2010Prop55
280
     0
102
RTVSPost2010PropOp55
 70
     1
102
RTVSPost2010Prop56
140
1.0
102
RTVSPost2010PropOp56
 70
     1
102
RTVSPost2010Prop57
140
1.0
102
RTVSPost2010PropOp57
 70
     1
  0
XRECORD
  5
83A
102
{ACAD_REACTORS
330
839
102
}
330
839
100
AcDbXrecord
280
     1
102
RTVSPost2010Prop28
280
     0
102
RTVSPost2010PropOp28
 70
     1
102
RTVSPost2010Prop29
280
     1
102
RTVSPost2010PropOp29
 70
     1
102
RTVSPost2010Prop30
280
     1
102
RTVSPost2010PropOp30
 70
     1
102
RTVSPost2010Prop31
280
     0
102
RTVSPost2010PropOp31
 70
     1
102
RTVSPost2010Prop32
280
     0
102
RTVSPost2010PropOp32
 70
     1
102
RTVSPost2010Prop33
280
     0
102
RTVSPost2010PropOp33
 70
     1
102
RTVSPost2010Prop34
280
     0
102
RTVSPost2010PropOp34
 70
     1
102
RTVSPost2010Prop35
280
     0
102
RTVSPost2010PropOp35
 70
     1
102
RTVSPost2010Prop36
280
     0
102
RTVSPost2010PropOp36
 70
     1
102
RTVSPost2010Prop37
 90
       50
102
RTVSPost2010PropOp37
 70
     1
102
RTVSPost2010Prop38
140
0.0
102
RTVSPost2010PropOp38
 70
     1
102
RTVSPost2010Prop39
140
1.0
102
RTVSPost2010PropOp39
 70
     1
102
RTVSPost2010Prop40
 90
        0
102
RTVSPost2010PropOp40
 70
     1
102
RTVSPost2010Prop41ColorIndex
 90
       18
102
RTVSPost2010Prop41ColorRGB
 90
        0
102
RTVSPost2010PropOp41
 70
     1
102
RTVSPost2010Prop42
 90
       50
102
RTVSPost2010PropOp42
 70
     1
102
RTVSPost2010Prop43
 90
        3
102
RTVSPost2010PropOp43
 70
     1
102
RTVSPost2010Prop44ColorIndex
 90
        5
102
RTVSPost2010Prop44ColorRGB
 90
      255
102
RTVSPost2010PropOp44
 70
     1
102
RTVSPost2010Prop45
280
     0
102
RTVSPost2010PropOp45
 70
     1
102
RTVSPost2010Prop46
 90
       50
102
RTVSPost2010PropOp46
 70
     1
102
RTVSPost2010Prop47
 90
       50
102
RTVSPost2010PropOp47
 70
     1
102
RTVSPost2010Prop48
 90
       50
102
RTVSPost2010PropOp48
 70
     1
102
RTVSPost2010Prop49
280
     0
102
RTVSPost2010PropOp49
 70
     1
102
RTVSPost2010Prop50
 90
       50
102
RTVSPost2010PropOp50
 70
     1
102
RTVSPost2010Prop51ColorIndex
 90
      256
102
RTVSPost2010Prop51ColorRGB
 90
-16777216
102
RTVSPost2010PropOp51
 70
     0
102
RTVSPost2010Prop52
140
1.0
102
RTVSPost2010PropOp52
 70
     0
102
RTVSPost2010Prop53
 90
        2
102
RTVSPost2010PropOp53
 70
     1
102
RTVSPost2010Prop54
  1
strokes_ogs.tif
102
RTVSPost2010PropOp54
 70
     1
102
RTVSPost2010Prop55
280
     0
102
RTVSPost2010PropOp55
 70
     1
102
RTVSPost2010Prop56
140
1.0
102
RTVSPost2010PropOp56
 70
     1
102
RTVSPost2010Prop57
140
1.0
102
RTVSPost2010PropOp57
 70
     1
  0
XRECORD
  5
838
102
{ACAD_REACTORS
330
837
102
}
330
837
100
AcDbXrecord
280
     1
102
RTVSPost2010Prop28
280
     0
102
RTVSPost2010PropOp28
 70
     1
102
RTVSPost2010Prop29
280
     1
102
RTVSPost2010PropOp29
 70
     1
102
RTVSPost2010Prop30
280
     1
102
RTVSPost2010PropOp30
 70
     1
102
RTVSPost2010Prop31
280
     0
102
RTVSPost2010PropOp31
 70
     1
102
RTVSPost2010Prop32
280
     0
102
RTVSPost2010PropOp32
 70
     1
102
RTVSPost2010Prop33
280
     0
102
RTVSPost2010PropOp33
 70
     1
102
RTVSPost2010Prop34
280
     0
102
RTVSPost2010PropOp34
 70
     1
102
RTVSPost2010Prop35
280
     0
102
RTVSPost2010PropOp35
 70
     1
102
RTVSPost2010Prop36
280
     0
102
RTVSPost2010PropOp36
 70
     1
102
RTVSPost2010Prop37
 90
       50
102
RTVSPost2010PropOp37
 70
     1
102
RTVSPost2010Prop38
140
0.0
102
RTVSPost2010PropOp38
 70
     1
102
RTVSPost2010Prop39
140
1.0
102
RTVSPost2010PropOp39
 70
     1
102
RTVSPost2010Prop40
 90
        0
102
RTVSPost2010PropOp40
 70
     1
102
RTVSPost2010Prop41ColorIndex
 90
       18
102
RTVSPost2010Prop41ColorRGB
 90
        0
102
RTVSPost2010PropOp41
 70
     1
102
RTVSPost2010Prop42
 90
       50
102
RTVSPost2010PropOp42
 70
     1
102
RTVSPost2010Prop43
 90
        3
102
RTVSPost2010PropOp43
 70
     1
102
RTVSPost2010Prop44ColorIndex
 90
        5
102
RTVSPost2010Prop44ColorRGB
 90
      255
102
RTVSPost2010PropOp44
 70
     1
102
RTVSPost2010Prop45
280
     0
102
RTVSPost2010PropOp45
 70
     1
102
RTVSPost2010Prop46
 90
       50
102
RTVSPost2010PropOp46
 70
     1
102
RTVSPost2010Prop47
 90
       50
102
RTVSPost2010PropOp47
 70
     1
102
RTVSPost2010Prop48
 90
       50
102
RTVSPost2010PropOp48
 70
     1
102
RTVSPost2010Prop49
280
     0
102
RTVSPost2010PropOp49
 70
     1
102
RTVSPost2010Prop50
 90
       50
102
RTVSPost2010PropOp50
 70
     1
102
RTVSPost2010Prop51ColorIndex
 90
      256
102
RTVSPost2010Prop51ColorRGB
 90
-16777216
102
RTVSPost2010PropOp51
 70
     0
102
RTVSPost2010Prop52
140
1.0
102
RTVSPost2010PropOp52
 70
     0
102
RTVSPost2010Prop53
 90
        2
102
RTVSPost2010PropOp53
 70
     1
102
RTVSPost2010Prop54
  1
strokes_ogs.tif
102
RTVSPost2010PropOp54
 70
     1
102
RTVSPost2010Prop55
280
     0
102
RTVSPost2010PropOp55
 70
     1
102
RTVSPost2010Prop56
140
1.0
102
RTVSPost2010PropOp56
 70
     1
102
RTVSPost2010Prop57
140
1.0
102
RTVSPost2010PropOp57
 70
     1
  0
XRECORD
  5
832
102
{ACAD_REACTORS
330
831
102
}
330
831
100
AcDbXrecord
280
     1
102
RTVSPost2010Prop28
280
     0
102
RTVSPost2010PropOp28
 70
     1
102
RTVSPost2010Prop29
280
     1
102
RTVSPost2010PropOp29
 70
     1
102
RTVSPost2010Prop30
280
     1
102
RTVSPost2010PropOp30
 70
     1
102
RTVSPost2010Prop31
280
     0
102
RTVSPost2010PropOp31
 70
     1
102
RTVSPost2010Prop32
280
     0
102
RTVSPost2010PropOp32
 70
     1
102
RTVSPost2010Prop33
280
     0
102
RTVSPost2010PropOp33
 70
     1
102
RTVSPost2010Prop34
280
     0
102
RTVSPost2010PropOp34
 70
     1
102
RTVSPost2010Prop35
280
     0
102
RTVSPost2010PropOp35
 70
     1
102
RTVSPost2010Prop36
280
     0
102
RTVSPost2010PropOp36
 70
     1
102
RTVSPost2010Prop37
 90
       50
102
RTVSPost2010PropOp37
 70
     1
102
RTVSPost2010Prop38
140
0.0
102
RTVSPost2010PropOp38
 70
     1
102
RTVSPost2010Prop39
140
1.0
102
RTVSPost2010PropOp39
 70
     1
102
RTVSPost2010Prop40
 90
        0
102
RTVSPost2010PropOp40
 70
     1
102
RTVSPost2010Prop41ColorIndex
 90
       18
102
RTVSPost2010Prop41ColorRGB
 90
        0
102
RTVSPost2010PropOp41
 70
     1
102
RTVSPost2010Prop42
 90
       50
102
RTVSPost2010PropOp42
 70
     1
102
RTVSPost2010Prop43
 90
        3
102
RTVSPost2010PropOp43
 70
     1
102
RTVSPost2010Prop44ColorIndex
 90
        5
102
RTVSPost2010Prop44ColorRGB
 90
      255
102
RTVSPost2010PropOp44
 70
     1
102
RTVSPost2010Prop45
280
     0
102
RTVSPost2010PropOp45
 70
     1
102
RTVSPost2010Prop46
 90
       50
102
RTVSPost2010PropOp46
 70
     1
102
RTVSPost2010Prop47
 90
       50
102
RTVSPost2010PropOp47
 70
     1
102
RTVSPost2010Prop48
 90
       50
102
RTVSPost2010PropOp48
 70
     1
102
RTVSPost2010Prop49
280
     0
102
RTVSPost2010PropOp49
 70
     1
102
RTVSPost2010Prop50
 90
       50
102
RTVSPost2010PropOp50
 70
     1
102
RTVSPost2010Prop51ColorIndex
 90
      256
102
RTVSPost2010Prop51ColorRGB
 90
-16777216
102
RTVSPost2010PropOp51
 70
     0
102
RTVSPost2010Prop52
140
1.0
102
RTVSPost2010PropOp52
 70
     0
102
RTVSPost2010Prop53
 90
        2
102
RTVSPost2010PropOp53
 70
     1
102
RTVSPost2010Prop54
  1
strokes_ogs.tif
102
RTVSPost2010PropOp54
 70
     1
102
RTVSPost2010Prop55
280
     0
102
RTVSPost2010PropOp55
 70
     1
102
RTVSPost2010Prop56
140
1.0
102
RTVSPost2010PropOp56
 70
     1
102
RTVSPost2010Prop57
140
1.0
102
RTVSPost2010PropOp57
 70
     1
  0
XRECORD
  5
834
102
{ACAD_REACTORS
330
833
102
}
330
833
100
AcDbXrecord
280
     1
102
RTVSPost2010Prop28
280
     0
102
RTVSPost2010PropOp28
 70
     1
102
RTVSPost2010Prop29
280
     1
102
RTVSPost2010PropOp29
 70
     1
102
RTVSPost2010Prop30
280
     1
102
RTVSPost2010PropOp30
 70
     1
102
RTVSPost2010Prop31
280
     0
102
RTVSPost2010PropOp31
 70
     1
102
RTVSPost2010Prop32
280
     0
102
RTVSPost2010PropOp32
 70
     1
102
RTVSPost2010Prop33
280
     0
102
RTVSPost2010PropOp33
 70
     1
102
RTVSPost2010Prop34
280
     0
102
RTVSPost2010PropOp34
 70
     1
102
RTVSPost2010Prop35
280
     0
102
RTVSPost2010PropOp35
 70
     1
102
RTVSPost2010Prop36
280
     0
102
RTVSPost2010PropOp36
 70
     1
102
RTVSPost2010Prop37
 90
       50
102
RTVSPost2010PropOp37
 70
     1
102
RTVSPost2010Prop38
140
0.0
102
RTVSPost2010PropOp38
 70
     1
102
RTVSPost2010Prop39
140
1.0
102
RTVSPost2010PropOp39
 70
     1
102
RTVSPost2010Prop40
 90
        0
102
RTVSPost2010PropOp40
 70
     1
102
RTVSPost2010Prop41ColorIndex
 90
       18
102
RTVSPost2010Prop41ColorRGB
 90
        0
102
RTVSPost2010PropOp41
 70
     1
102
RTVSPost2010Prop42
 90
       50
102
RTVSPost2010PropOp42
 70
     1
102
RTVSPost2010Prop43
 90
        3
102
RTVSPost2010PropOp43
 70
     1
102
RTVSPost2010Prop44ColorIndex
 90
        5
102
RTVSPost2010Prop44ColorRGB
 90
      255
102
RTVSPost2010PropOp44
 70
     1
102
RTVSPost2010Prop45
280
     0
102
RTVSPost2010PropOp45
 70
     1
102
RTVSPost2010Prop46
 90
       50
102
RTVSPost2010PropOp46
 70
     1
102
RTVSPost2010Prop47
 90
       50
102
RTVSPost2010PropOp47
 70
     1
102
RTVSPost2010Prop48
 90
       50
102
RTVSPost2010PropOp48
 70
     1
102
RTVSPost2010Prop49
280
     0
102
RTVSPost2010PropOp49
 70
     1
102
RTVSPost2010Prop50
 90
       50
102
RTVSPost2010PropOp50
 70
     1
102
RTVSPost2010Prop51ColorIndex
 90
      256
102
RTVSPost2010Prop51ColorRGB
 90
-16777216
102
RTVSPost2010PropOp51
 70
     0
102
RTVSPost2010Prop52
140
1.0
102
RTVSPost2010PropOp52
 70
     0
102
RTVSPost2010Prop53
 90
        2
102
RTVSPost2010PropOp53
 70
     1
102
RTVSPost2010Prop54
  1
strokes_ogs.tif
102
RTVSPost2010PropOp54
 70
     1
102
RTVSPost2010Prop55
280
     0
102
RTVSPost2010PropOp55
 70
     1
102
RTVSPost2010Prop56
140
1.0
102
RTVSPost2010PropOp56
 70
     1
102
RTVSPost2010Prop57
140
1.0
102
RTVSPost2010PropOp57
 70
     1
  0
XRECORD
  5
82A
102
{ACAD_REACTORS
330
829
102
}
330
829
100
AcDbXrecord
280
     1
102
RTVSPost2010Prop28
280
     0
102
RTVSPost2010PropOp28
 70
     1
102
RTVSPost2010Prop29
280
     1
102
RTVSPost2010PropOp29
 70
     1
102
RTVSPost2010Prop30
280
     1
102
RTVSPost2010PropOp30
 70
     1
102
RTVSPost2010Prop31
280
     0
102
RTVSPost2010PropOp31
 70
     1
102
RTVSPost2010Prop32
280
     0
102
RTVSPost2010PropOp32
 70
     1
102
RTVSPost2010Prop33
280
     0
102
RTVSPost2010PropOp33
 70
     1
102
RTVSPost2010Prop34
280
     0
102
RTVSPost2010PropOp34
 70
     1
102
RTVSPost2010Prop35
280
     0
102
RTVSPost2010PropOp35
 70
     1
102
RTVSPost2010Prop36
280
     0
102
RTVSPost2010PropOp36
 70
     1
102
RTVSPost2010Prop37
 90
       50
102
RTVSPost2010PropOp37
 70
     1
102
RTVSPost2010Prop38
140
0.0
102
RTVSPost2010PropOp38
 70
     1
102
RTVSPost2010Prop39
140
1.0
102
RTVSPost2010PropOp39
 70
     1
102
RTVSPost2010Prop40
 90
        0
102
RTVSPost2010PropOp40
 70
     1
102
RTVSPost2010Prop41ColorIndex
 90
       18
102
RTVSPost2010Prop41ColorRGB
 90
        0
102
RTVSPost2010PropOp41
 70
     1
102
RTVSPost2010Prop42
 90
       50
102
RTVSPost2010PropOp42
 70
     1
102
RTVSPost2010Prop43
 90
        3
102
RTVSPost2010PropOp43
 70
     1
102
RTVSPost2010Prop44ColorIndex
 90
        5
102
RTVSPost2010Prop44ColorRGB
 90
      255
102
RTVSPost2010PropOp44
 70
     1
102
RTVSPost2010Prop45
280
     0
102
RTVSPost2010PropOp45
 70
     1
102
RTVSPost2010Prop46
 90
       50
102
RTVSPost2010PropOp46
 70
     1
102
RTVSPost2010Prop47
 90
       50
102
RTVSPost2010PropOp47
 70
     1
102
RTVSPost2010Prop48
 90
       50
102
RTVSPost2010PropOp48
 70
     1
102
RTVSPost2010Prop49
280
     0
102
RTVSPost2010PropOp49
 70
     1
102
RTVSPost2010Prop50
 90
       50
102
RTVSPost2010PropOp50
 70
     1
102
RTVSPost2010Prop51ColorIndex
 90
      256
102
RTVSPost2010Prop51ColorRGB
 90
-16777216
102
RTVSPost2010PropOp51
 70
     0
102
RTVSPost2010Prop52
140
1.0
102
RTVSPost2010PropOp52
 70
     0
102
RTVSPost2010Prop53
 90
        2
102
RTVSPost2010PropOp53
 70
     1
102
RTVSPost2010Prop54
  1
strokes_ogs.tif
102
RTVSPost2010PropOp54
 70
     1
102
RTVSPost2010Prop55
280
     0
102
RTVSPost2010PropOp55
 70
     1
102
RTVSPost2010Prop56
140
1.0
102
RTVSPost2010PropOp56
 70
     1
102
RTVSPost2010Prop57
140
1.0
102
RTVSPost2010PropOp57
 70
     1
  0
XRECORD
  5
81E
102
{ACAD_REACTORS
330
81D
102
}
330
81D
100
AcDbXrecord
280
     1
102
RTVSPost2010Prop28
280
     0
102
RTVSPost2010PropOp28
 70
     1
102
RTVSPost2010Prop29
280
     1
102
RTVSPost2010PropOp29
 70
     1
102
RTVSPost2010Prop30
280
     1
102
RTVSPost2010PropOp30
 70
     1
102
RTVSPost2010Prop31
280
     0
102
RTVSPost2010PropOp31
 70
     1
102
RTVSPost2010Prop32
280
     0
102
RTVSPost2010PropOp32
 70
     1
102
RTVSPost2010Prop33
280
     0
102
RTVSPost2010PropOp33
 70
     1
102
RTVSPost2010Prop34
280
     0
102
RTVSPost2010PropOp34
 70
     1
102
RTVSPost2010Prop35
280
     0
102
RTVSPost2010PropOp35
 70
     1
102
RTVSPost2010Prop36
280
     0
102
RTVSPost2010PropOp36
 70
     1
102
RTVSPost2010Prop37
 90
       50
102
RTVSPost2010PropOp37
 70
     1
102
RTVSPost2010Prop38
140
0.0
102
RTVSPost2010PropOp38
 70
     1
102
RTVSPost2010Prop39
140
1.0
102
RTVSPost2010PropOp39
 70
     1
102
RTVSPost2010Prop40
 90
        0
102
RTVSPost2010PropOp40
 70
     1
102
RTVSPost2010Prop41ColorIndex
 90
       18
102
RTVSPost2010Prop41ColorRGB
 90
        0
102
RTVSPost2010PropOp41
 70
     1
102
RTVSPost2010Prop42
 90
       50
102
RTVSPost2010PropOp42
 70
     1
102
RTVSPost2010Prop43
 90
        3
102
RTVSPost2010PropOp43
 70
     1
102
RTVSPost2010Prop44ColorIndex
 90
        5
102
RTVSPost2010Prop44ColorRGB
 90
      255
102
RTVSPost2010PropOp44
 70
     1
102
RTVSPost2010Prop45
280
     0
102
RTVSPost2010PropOp45
 70
     1
102
RTVSPost2010Prop46
 90
       50
102
RTVSPost2010PropOp46
 70
     1
102
RTVSPost2010Prop47
 90
       50
102
RTVSPost2010PropOp47
 70
     1
102
RTVSPost2010Prop48
 90
       50
102
RTVSPost2010PropOp48
 70
     1
102
RTVSPost2010Prop49
280
     0
102
RTVSPost2010PropOp49
 70
     1
102
RTVSPost2010Prop50
 90
       50
102
RTVSPost2010PropOp50
 70
     1
102
RTVSPost2010Prop51ColorIndex
 90
      256
102
RTVSPost2010Prop51ColorRGB
 90
-16777216
102
RTVSPost2010PropOp51
 70
     0
102
RTVSPost2010Prop52
140
1.0
102
RTVSPost2010PropOp52
 70
     0
102
RTVSPost2010Prop53
 90
        2
102
RTVSPost2010PropOp53
 70
     1
102
RTVSPost2010Prop54
  1
strokes_ogs.tif
102
RTVSPost2010PropOp54
 70
     1
102
RTVSPost2010Prop55
280
     0
102
RTVSPost2010PropOp55
 70
     1
102
RTVSPost2010Prop56
140
1.0
102
RTVSPost2010PropOp56
 70
     1
102
RTVSPost2010Prop57
140
1.0
102
RTVSPost2010PropOp57
 70
     1
  0
XRECORD
  5
836
102
{ACAD_REACTORS
330
835
102
}
330
835
100
AcDbXrecord
280
     1
102
RTVSPost2010Prop28
280
     0
102
RTVSPost2010PropOp28
 70
     1
102
RTVSPost2010Prop29
280
     1
102
RTVSPost2010PropOp29
 70
     1
102
RTVSPost2010Prop30
280
     1
102
RTVSPost2010PropOp30
 70
     1
102
RTVSPost2010Prop31
280
     0
102
RTVSPost2010PropOp31
 70
     1
102
RTVSPost2010Prop32
280
     0
102
RTVSPost2010PropOp32
 70
     1
102
RTVSPost2010Prop33
280
     0
102
RTVSPost2010PropOp33
 70
     1
102
RTVSPost2010Prop34
280
     0
102
RTVSPost2010PropOp34
 70
     1
102
RTVSPost2010Prop35
280
     0
102
RTVSPost2010PropOp35
 70
     1
102
RTVSPost2010Prop36
280
     0
102
RTVSPost2010PropOp36
 70
     1
102
RTVSPost2010Prop37
 90
       50
102
RTVSPost2010PropOp37
 70
     1
102
RTVSPost2010Prop38
140
0.0
102
RTVSPost2010PropOp38
 70
     1
102
RTVSPost2010Prop39
140
1.0
102
RTVSPost2010PropOp39
 70
     1
102
RTVSPost2010Prop40
 90
        0
102
RTVSPost2010PropOp40
 70
     1
102
RTVSPost2010Prop41ColorIndex
 90
       18
102
RTVSPost2010Prop41ColorRGB
 90
        0
102
RTVSPost2010PropOp41
 70
     1
102
RTVSPost2010Prop42
 90
       50
102
RTVSPost2010PropOp42
 70
     1
102
RTVSPost2010Prop43
 90
        3
102
RTVSPost2010PropOp43
 70
     1
102
RTVSPost2010Prop44ColorIndex
 90
        5
102
RTVSPost2010Prop44ColorRGB
 90
      255
102
RTVSPost2010PropOp44
 70
     1
102
RTVSPost2010Prop45
280
     0
102
RTVSPost2010PropOp45
 70
     1
102
RTVSPost2010Prop46
 90
       50
102
RTVSPost2010PropOp46
 70
     1
102
RTVSPost2010Prop47
 90
       50
102
RTVSPost2010PropOp47
 70
     1
102
RTVSPost2010Prop48
 90
       50
102
RTVSPost2010PropOp48
 70
     1
102
RTVSPost2010Prop49
280
     0
102
RTVSPost2010PropOp49
 70
     1
102
RTVSPost2010Prop50
 90
       50
102
RTVSPost2010PropOp50
 70
     1
102
RTVSPost2010Prop51ColorIndex
 90
      256
102
RTVSPost2010Prop51ColorRGB
 90
-16777216
102
RTVSPost2010PropOp51
 70
     0
102
RTVSPost2010Prop52
140
1.0
102
RTVSPost2010PropOp52
 70
     0
102
RTVSPost2010Prop53
 90
        2
102
RTVSPost2010PropOp53
 70
     1
102
RTVSPost2010Prop54
  1
strokes_ogs.tif
102
RTVSPost2010PropOp54
 70
     1
102
RTVSPost2010Prop55
280
     0
102
RTVSPost2010PropOp55
 70
     1
102
RTVSPost2010Prop56
140
1.0
102
RTVSPost2010PropOp56
 70
     1
102
RTVSPost2010Prop57
140
1.0
102
RTVSPost2010PropOp57
 70
     1
  0
ENDSEC
  0
EOF
