  0
SECTION
  2
HEADER
  9
$ACADVER
  1
AC1024
  9
$ACADMAINTVER
 70
   205
  9
$DWGCODEPAGE
  3
ANSI_1252
  9
$LASTSAVEDBY
  1
kaschu
  9
$INSBASE
 10
0.0
 20
0.0
 30
0.0
  9
$EXTMIN
 10
-418447.3388132684
 20
-74.29771204568504
 30
-0.0000000000000004
  9
$EXTMAX
 10
2252.094048279259
 20
205911.1485774325
 30
0.0000000000000003
  9
$LIMMIN
 10
0.0
 20
0.0
  9
$LIMMAX
 10
12.0
 20
9.0
  9
$ORTHOMODE
 70
     1
  9
$REGENMODE
 70
     1
  9
$FILLMODE
 70
     1
  9
$QTEXTMODE
 70
     0
  9
$MIRRTEXT
 70
     1
  9
$LTSCALE
 40
1.0
  9
$ATTMODE
 70
     1
  9
$TEXTSIZE
 40
0.2
  9
$TRACEWID
 40
0.05
  9
$TEXTSTYLE
  7
STANDARD
  9
$CLAYER
  8
0
  9
$CELTYPE
  6
BYLAYER
  9
$CECOLOR
 62
   256
  9
$CELTSCALE
 40
1.0
  9
$DISPSILH
 70
     0
  9
$DIMSCALE
 40
1.0
  9
$DIMASZ
 40
0.18
  9
$DIMEXO
 40
0.0625
  9
$DIMDLI
 40
0.38
  9
$DIMRND
 40
0.0
  9
$DIMDLE
 40
0.0
  9
$DIMEXE
 40
0.18
  9
$DIMTP
 40
0.0
  9
$DIMTM
 40
0.0
  9
$DIMTXT
 40
0.18
  9
$DIMCEN
 40
0.09
  9
$DIMTSZ
 40
0.0
  9
$DIMTOL
 70
     0
  9
$DIMLIM
 70
     0
  9
$DIMTIH
 70
     1
  9
$DIMTOH
 70
     1
  9
$DIMSE1
 70
     0
  9
$DIMSE2
 70
     0
  9
$DIMTAD
 70
     0
  9
$DIMZIN
 70
     0
  9
$DIMBLK
  1

  9
$DIMASO
 70
     1
  9
$DIMSHO
 70
     1
  9
$DIMPOST
  1

  9
$DIMAPOST
  1

  9
$DIMALT
 70
     0
  9
$DIMALTD
 70
     2
  9
$DIMALTF
 40
25.4
  9
$DIMLFAC
 40
1.0
  9
$DIMTOFL
 70
     0
  9
$DIMTVP
 40
0.0
  9
$DIMTIX
 70
     0
  9
$DIMSOXD
 70
     0
  9
$DIMSAH
 70
     0
  9
$DIMBLK1
  1

  9
$DIMBLK2
  1

  9
$DIMSTYLE
  2
STANDARD
  9
$DIMCLRD
 70
     0
  9
$DIMCLRE
 70
     0
  9
$DIMCLRT
 70
     0
  9
$DIMTFAC
 40
1.0
  9
$DIMGAP
 40
0.09
  9
$DIMJUST
 70
     0
  9
$DIMSD1
 70
     0
  9
$DIMSD2
 70
     0
  9
$DIMTOLJ
 70
     1
  9
$DIMTZIN
 70
     0
  9
$DIMALTZ
 70
     0
  9
$DIMALTTZ
 70
     0
  9
$DIMUPT
 70
     0
  9
$DIMDEC
 70
     4
  9
$DIMTDEC
 70
     4
  9
$DIMALTU
 70
     2
  9
$DIMALTTD
 70
     2
  9
$DIMTXSTY
  7
STANDARD
  9
$DIMAUNIT
 70
     0
  9
$DIMADEC
 70
     0
  9
$DIMALTRND
 40
0.0
  9
$DIMAZIN
 70
     0
  9
$DIMDSEP
 70
    46
  9
$DIMATFIT
 70
     3
  9
$DIMFRAC
 70
     0
  9
$DIMLDRBLK
  1

  9
$DIMLUNIT
 70
     2
  9
$DIMLWD
 70
    -2
  9
$DIMLWE
 70
    -2
  9
$DIMTMOVE
 70
     0
  9
$DIMFXL
 40
1.0
  9
$DIMFXLON
 70
     0
  9
$DIMJOGANG
 40
0.7853981633974483
  9
$DIMTFILL
 70
     0
  9
$DIMTFILLCLR
 70
     0
  9
$DIMARCSYM
 70
     0
  9
$DIMLTYPE
  6

  9
$DIMLTEX1
  6

  9
$DIMLTEX2
  6

  9
$DIMTXTDIRECTION
 70
     0
  9
$LUNITS
 70
     2
  9
$LUPREC
 70
     4
  9
$SKETCHINC
 40
0.1
  9
$FILLETRAD
 40
0.5
  9
$AUNITS
 70
     0
  9
$AUPREC
 70
     0
  9
$MENU
  1
.
  9
$ELEVATION
 40
0.0
  9
$PELEVATION
 40
0.0
  9
$THICKNESS
 40
0.0
  9
$LIMCHECK
 70
     0
  9
$CHAMFERA
 40
0.5
  9
$CHAMFERB
 40
0.5
  9
$CHAMFERC
 40
1.0
  9
$CHAMFERD
 40
0.0
  9
$SKPOLY
 70
     0
  9
$TDCREATE
 40
2451762.456733333
  9
$TDUCREATE
 40
2451762.373400000
  9
$TDUPDATE
 40
2458687.436854931
  9
$TDUUPDATE
 40
2458687.353521597
  9
$TDINDWG
 40
0.0684924421
  9
$TDUSRTIMER
 40
0.0684923727
  9
$USRTIMER
 70
     1
  9
$ANGBASE
 50
0.0
  9
$ANGDIR
 70
     0
  9
$PDMODE
 70
     0
  9
$PDSIZE
 40
0.0
  9
$PLINEWID
 40
0.0
  9
$SPLFRAME
 70
     0
  9
$SPLINETYPE
 70
     6
  9
$SPLINESEGS
 70
     8
  9
$HANDSEED
  5
BC7
  9
$SURFTAB1
 70
     6
  9
$SURFTAB2
 70
     6
  9
$SURFTYPE
 70
     6
  9
$SURFU
 70
     6
  9
$SURFV
 70
     6
  9
$UCSBASE
  2

  9
$UCSNAME
  2

  9
$UCSORG
 10
0.0
 20
0.0
 30
0.0
  9
$UCSXDIR
 10
1.0
 20
0.0
 30
0.0
  9
$UCSYDIR
 10
0.0
 20
1.0
 30
0.0
  9
$UCSORTHOREF
  2

  9
$UCSORTHOVIEW
 70
     0
  9
$UCSORGTOP
 10
0.0
 20
0.0
 30
0.0
  9
$UCSORGBOTTOM
 10
0.0
 20
0.0
 30
0.0
  9
$UCSORGLEFT
 10
0.0
 20
0.0
 30
0.0
  9
$UCSORGRIGHT
 10
0.0
 20
0.0
 30
0.0
  9
$UCSORGFRONT
 10
0.0
 20
0.0
 30
0.0
  9
$UCSORGBACK
 10
0.0
 20
0.0
 30
0.0
  9
$PUCSBASE
  2

  9
$PUCSNAME
  2

  9
$PUCSORG
 10
0.0
 20
0.0
 30
0.0
  9
$PUCSXDIR
 10
1.0
 20
0.0
 30
0.0
  9
$PUCSYDIR
 10
0.0
 20
1.0
 30
0.0
  9
$PUCSORTHOREF
  2

  9
$PUCSORTHOVIEW
 70
     0
  9
$PUCSORGTOP
 10
0.0
 20
0.0
 30
0.0
  9
$PUCSORGBOTTOM
 10
0.0
 20
0.0
 30
0.0
  9
$PUCSORGLEFT
 10
0.0
 20
0.0
 30
0.0
  9
$PUCSORGRIGHT
 10
0.0
 20
0.0
 30
0.0
  9
$PUCSORGFRONT
 10
0.0
 20
0.0
 30
0.0
  9
$PUCSORGBACK
 10
0.0
 20
0.0
 30
0.0
  9
$USERI1
 70
     0
  9
$USERI2
 70
     0
  9
$USERI3
 70
     0
  9
$USERI4
 70
     0
  9
$USERI5
 70
     0
  9
$USERR1
 40
0.0
  9
$USERR2
 40
0.0
  9
$USERR3
 40
0.0
  9
$USERR4
 40
0.0
  9
$USERR5
 40
0.0
  9
$WORLDVIEW
 70
     1
  9
$SHADEDGE
 70
     3
  9
$SHADEDIF
 70
    70
  9
$TILEMODE
 70
     1
  9
$MAXACTVP
 70
    64
  9
$PINSBASE
 10
0.0
 20
0.0
 30
0.0
  9
$PLIMCHECK
 70
     0
  9
$PEXTMIN
 10
1.000000000000000E+20
 20
1.000000000000000E+20
 30
1.000000000000000E+20
  9
$PEXTMAX
 10
-1.000000000000000E+20
 20
-1.000000000000000E+20
 30
-1.000000000000000E+20
  9
$PLIMMIN
 10
0.0
 20
0.0
  9
$PLIMMAX
 10
12.0
 20
9.0
  9
$UNITMODE
 70
     0
  9
$VISRETAIN
 70
     1
  9
$PLINEGEN
 70
     0
  9
$PSLTSCALE
 70
     1
  9
$TREEDEPTH
 70
  3020
  9
$CMLSTYLE
  2
STANDARD
  9
$CMLJUST
 70
     0
  9
$CMLSCALE
 40
1.0
  9
$PROXYGRAPHICS
 70
     1
  9
$MEASUREMENT
 70
     0
  9
$CELWEIGHT
370
    -1
  9
$ENDCAPS
280
     0
  9
$JOINSTYLE
280
     0
  9
$LWDISPLAY
290
     0
  9
$INSUNITS
 70
     0
  9
$HYPERLINKBASE
  1

  9
$STYLESHEET
  1

  9
$XEDIT
290
     1
  9
$CEPSNTYPE
380
     0
  9
$PSTYLEMODE
290
     1
  9
$FINGERPRINTGUID
  2
{A42321FD-4D3B-470A-B3BE-A3689E04D828}
  9
$VERSIONGUID
  2
{D209BFFF-A820-4A4C-BECF-5B0D486F3A31}
  9
$EXTNAMES
290
     1
  9
$PSVPSCALE
 40
0.0
  9
$OLESTARTUP
290
     0
  9
$SORTENTS
280
   127
  9
$INDEXCTL
280
     0
  9
$HIDETEXT
280
     0
  9
$XCLIPFRAME
280
     2
  9
$HALOGAP
280
     0
  9
$OBSCOLOR
 70
   257
  9
$OBSLTYPE
280
     0
  9
$INTERSECTIONDISPLAY
280
     0
  9
$INTERSECTIONCOLOR
 70
   257
  9
$DIMASSOC
280
     1
  9
$PROJECTNAME
  1

  9
$CAMERADISPLAY
290
     0
  9
$LENSLENGTH
 40
50.0
  9
$CAMERAHEIGHT
 40
0.0
  9
$STEPSPERSEC
 40
2.0
  9
$STEPSIZE
 40
6.0
  9
$3DDWFPREC
 40
2.0
  9
$PSOLWIDTH
 40
0.25
  9
$PSOLHEIGHT
 40
4.0
  9
$LOFTANG1
 40
1.570796326794896
  9
$LOFTANG2
 40
1.570796326794896
  9
$LOFTMAG1
 40
0.0
  9
$LOFTMAG2
 40
0.0
  9
$LOFTPARAM
 70
     7
  9
$LOFTNORMALS
280
     1
  9
$LATITUDE
 40
37.795
  9
$LONGITUDE
 40
-122.394
  9
$NORTHDIRECTION
 40
0.0
  9
$TIMEZONE
 70
 -8000
  9
$LIGHTGLYPHDISPLAY
280
     1
  9
$TILEMODELIGHTSYNCH
280
     1
  9
$CMATERIAL
347
17B
  9
$SOLIDHIST
280
     0
  9
$SHOWHIST
280
     1
  9
$DWFFRAME
280
     2
  9
$DGNFRAME
280
     0
  9
$REALWORLDSCALE
290
     1
  9
$INTERFERECOLOR
 62
     1
  9
$INTERFEREOBJVS
345
19D
  9
$INTERFEREVPVS
346
19A
  9
$CSHADOW
280
     0
  9
$SHADOWPLANELOCATION
 40
0.0
  0
ENDSEC
  0
SECTION
  2
CLASSES
  0
CLASS
  1
ACDBDICTIONARYWDFLT
  2
AcDbDictionaryWithDefault
  3
ObjectDBX Classes
 90
        0
 91
        1
280
     0
281
     0
  0
CLASS
  1
MATERIAL
  2
AcDbMaterial
  3
ObjectDBX Classes
 90
     1153
 91
        3
280
     0
281
     0
  0
CLASS
  1
VISUALSTYLE
  2
AcDbVisualStyle
  3
ObjectDBX Classes
 90
     4095
 91
       24
280
     0
281
     0
  0
CLASS
  1
TABLESTYLE
  2
AcDbTableStyle
  3
ObjectDBX Classes
 90
     4095
 91
        1
280
     0
281
     0
  0
CLASS
  1
SCALE
  2
AcDbScale
  3
ObjectDBX Classes
 90
     1153
 91
       17
280
     0
281
     0
  0
CLASS
  1
MLEADERSTYLE
  2
AcDbMLeaderStyle
  3
ACDB_MLEADERSTYLE_CLASS
 90
     4095
 91
        1
280
     0
281
     0
  0
CLASS
  1
ACDBSECTIONVIEWSTYLE
  2
AcDbSectionViewStyle
  3
ObjectDBX Classes
 90
     1025
 91
        1
280
     0
281
     0
  0
CLASS
  1
ACDBDETAILVIEWSTYLE
  2
AcDbDetailViewStyle
  3
ObjectDBX Classes
 90
     1025
 91
        1
280
     0
281
     0
  0
CLASS
  1
DICTIONARYVAR
  2
AcDbDictionaryVar
  3
ObjectDBX Classes
 90
        0
 91
        9
280
     0
281
     0
  0
CLASS
  1
SORTENTSTABLE
  2
AcDbSortentsTable
  3
ObjectDBX Classes
 90
        0
 91
        3
280
     0
281
     0
  0
CLASS
  1
CELLSTYLEMAP
  2
AcDbCellStyleMap
  3
ObjectDBX Classes
 90
     1152
 91
        7
280
     0
281
     0
  0
ENDSEC
  0
SECTION
  2
TABLES
  0
TABLE
  2
VPORT
  5
8
330
0
100
AcDbSymbolTable
 70
     1
  0
VPORT
  5
155
330
8
100
AcDbSymbolTableRecord
100
AcDbViewportTableRecord
  2
*ACTIVE
 70
     0
 10
0.0
 20
0.0
 11
1.0
 21
1.0
 12
349.0102820506582
 22
858.3441736792043
 13
0.0
 23
0.0
 14
0.5
 24
0.5
 15
0.5
 25
0.5
 16
0.0
 26
0.0
 36
1.0
 17
0.0
 27
0.0
 37
0.0
 40
1788.835875610104
 41
2.170603674540682
 42
50.0
 43
0.0
 44
0.0
 50
0.0
 51
0.0
 71
     0
 72
 10000
 73
     1
 74
     3
 75
     0
 76
     0
 77
     0
 78
     0
281
     0
 65
     1
110
0.0
120
0.0
130
0.0
111
1.0
121
0.0
131
0.0
112
0.0
122
1.0
132
0.0
 79
     0
146
0.0
348
199
 60
     3
 61
     5
292
     1
282
     1
141
0.0
142
0.0
 63
   250
421
  3355443
1001
ACAD_NAV_VCDISPLAY
1070
     3
  0
ENDTAB
  0
TABLE
  2
LTYPE
  5
5
330
0
100
AcDbSymbolTable
 70
     3
  0
LTYPE
  5
14
330
5
100
AcDbSymbolTableRecord
100
AcDbLinetypeTableRecord
  2
BYBLOCK
 70
     0
  3

 72
    65
 73
     0
 40
0.0
  0
LTYPE
  5
15
330
5
100
AcDbSymbolTableRecord
100
AcDbLinetypeTableRecord
  2
BYLAYER
 70
     0
  3

 72
    65
 73
     0
 40
0.0
  0
LTYPE
  5
16
330
5
100
AcDbSymbolTableRecord
100
AcDbLinetypeTableRecord
  2
CONTINUOUS
 70
     0
  3
Solid line
 72
    65
 73
     0
 40
0.0
  0
LTYPE
  5
1C4
330
5
100
AcDbSymbolTableRecord
100
AcDbLinetypeTableRecord
  2
PHANTOM2
 70
     0
  3
___ _ _ ___ _ _ ___ _ _ ___ _ _
 72
    65
 73
     6
 40
1.25
 49
0.625
 74
     0
 49
-0.125
 74
     0
 49
0.125
 74
     0
 49
-0.125
 74
     0
 49
0.125
 74
     0
 49
-0.125
 74
     0
  0
LTYPE
  5
844
330
5
100
AcDbSymbolTableRecord
100
AcDbLinetypeTableRecord
  2
STANDARD
 70
     0
  3

 72
    65
 73
     0
 40
0.0
  0
ENDTAB
  0
TABLE
  2
LAYER
  5
2
102
{ACAD_XDICTIONARY
360
1E1
102
}
330
0
100
AcDbSymbolTable
 70
     3
  0
LAYER
  5
10
102
{ACAD_XDICTIONARY
360
1CD
102
}
330
2
100
AcDbSymbolTableRecord
100
AcDbLayerTableRecord
  2
0
 70
     0
 62
     7
  6
CONTINUOUS
370
    -3
390
E0
347
18B
  0
LAYER
  5
296
330
2
100
AcDbSymbolTableRecord
100
AcDbLayerTableRecord
  2
HEWI
 70
     0
 62
     7
  6
CONTINUOUS
370
     9
390
E0
347
18B
1001
AcAecLayerStandard
1000

1000

1001
AcCmTransparency
1071
        0
  0
LAYER
  5
309
330
2
100
AcDbSymbolTableRecord
100
AcDbLayerTableRecord
  2
Defpoints
 70
     0
 62
     7
  6
CONTINUOUS
290
     0
370
    -3
390
E0
347
18B
  0
ENDTAB
  0
TABLE
  2
STYLE
  5
3
330
0
100
AcDbSymbolTable
 70
     1
  0
STYLE
  5
11
330
3
100
AcDbSymbolTableRecord
100
AcDbTextStyleTableRecord
  2
STANDARD
 70
     0
 40
0.0
 41
1.0
 50
0.0
 71
     0
 42
0.2
  3
txt
  4

  0
ENDTAB
  0
TABLE
  2
VIEW
  5
6
330
0
100
AcDbSymbolTable
 70
     0
  0
ENDTAB
  0
TABLE
  2
UCS
  5
7
330
0
100
AcDbSymbolTable
 70
     0
  0
ENDTAB
  0
TABLE
  2
APPID
  5
9
330
0
100
AcDbSymbolTable
 70
     6
  0
APPID
  5
12
330
9
100
AcDbSymbolTableRecord
100
AcDbRegAppTableRecord
  2
ACAD
 70
     0
  0
APPID
  5
1D1
330
9
100
AcDbSymbolTableRecord
100
AcDbRegAppTableRecord
  2
ACAD_NAV_VCDISPLAY
 70
     0
  0
APPID
  5
297
330
9
100
AcDbSymbolTableRecord
100
AcDbRegAppTableRecord
  2
AcAecLayerStandard
 70
     0
  0
APPID
  5
298
330
9
100
AcDbSymbolTableRecord
100
AcDbRegAppTableRecord
  2
AcCmTransparency
 70
     0
  0
APPID
  5
2AA
330
9
100
AcDbSymbolTableRecord
100
AcDbRegAppTableRecord
  2
ACAD_PSEXT
 70
     0
  0
APPID
  5
483
330
9
100
AcDbSymbolTableRecord
100
AcDbRegAppTableRecord
  2
ACAD_EXEMPT_FROM_CAD_STANDARDS
 70
     0
  0
ENDTAB
  0
TABLE
  2
DIMSTYLE
  5
A
330
0
100
AcDbSymbolTable
 70
     1
100
AcDbDimStyleTable
 71
     1
340
27
  0
DIMSTYLE
105
27
330
A
100
AcDbSymbolTableRecord
100
AcDbDimStyleTableRecord
  2
STANDARD
 70
     0
340
11
  0
ENDTAB
  0
TABLE
  2
BLOCK_RECORD
  5
1
330
0
100
AcDbSymbolTable
 70
    19
  0
BLOCK_RECORD
  5
1F
102
{ACAD_XDICTIONARY
360
D9
102
}
330
1
100
AcDbSymbolTableRecord
100
AcDbBlockTableRecord
  2
*MODEL_SPACE
340
1C8
 70
     0
280
     1
281
     0
  0
BLOCK_RECORD
  5
1B
102
{ACAD_XDICTIONARY
360
D7
102
}
330
1
100
AcDbSymbolTableRecord
100
AcDbBlockTableRecord
  2
*PAPER_SPACE
340
1C9
 70
     0
280
     1
281
     0
  0
BLOCK_RECORD
  5
555
330
1
100
AcDbSymbolTableRecord
100
AcDbBlockTableRecord
  2
*D0
340
0
 70
     0
280
     1
281
     0
  0
BLOCK_RECORD
  5
5AA
330
1
100
AcDbSymbolTableRecord
100
AcDbBlockTableRecord
  2
*D1
340
0
 70
     0
280
     1
281
     0
  0
BLOCK_RECORD
  5
5B8
330
1
100
AcDbSymbolTableRecord
100
AcDbBlockTableRecord
  2
*D2
340
0
 70
     0
280
     1
281
     0
  0
BLOCK_RECORD
  5
604
330
1
100
AcDbSymbolTableRecord
100
AcDbBlockTableRecord
  2
*D3
340
0
 70
     0
280
     1
281
     0
  0
BLOCK_RECORD
  5
714
330
1
100
AcDbSymbolTableRecord
100
AcDbBlockTableRecord
  2
*D4
340
0
 70
     0
280
     1
281
     0
  0
BLOCK_RECORD
  5
737
330
1
100
AcDbSymbolTableRecord
100
AcDbBlockTableRecord
  2
*D5
340
0
 70
     0
280
     1
281
     0
  0
BLOCK_RECORD
  5
78D
330
1
100
AcDbSymbolTableRecord
100
AcDbBlockTableRecord
  2
*D6
340
0
 70
     0
280
     1
281
     0
  0
BLOCK_RECORD
  5
79A
330
1
100
AcDbSymbolTableRecord
100
AcDbBlockTableRecord
  2
*D7
340
0
 70
     0
280
     1
281
     0
  0
BLOCK_RECORD
  5
7A7
330
1
100
AcDbSymbolTableRecord
100
AcDbBlockTableRecord
  2
*D8
340
0
 70
     0
280
     1
281
     0
  0
BLOCK_RECORD
  5
7B4
330
1
100
AcDbSymbolTableRecord
100
AcDbBlockTableRecord
  2
*D9
340
0
 70
     0
280
     1
281
     0
  0
BLOCK_RECORD
  5
7C1
330
1
100
AcDbSymbolTableRecord
100
AcDbBlockTableRecord
  2
*D10
340
0
 70
     0
280
     1
281
     0
  0
BLOCK_RECORD
  5
7CE
330
1
100
AcDbSymbolTableRecord
100
AcDbBlockTableRecord
  2
*D11
340
0
 70
     0
280
     1
281
     0
  0
BLOCK_RECORD
  5
7DB
102
{ACAD_XDICTIONARY
360
83F
102
}
330
1
100
AcDbSymbolTableRecord
100
AcDbBlockTableRecord
  2
900_22_13240
340
0
102
{BLKREFS
331
843
102
}
 70
     0
280
     1
281
     0
  0
BLOCK_RECORD
  5
994
330
1
100
AcDbSymbolTableRecord
100
AcDbBlockTableRecord
  2
*D14
340
0
 70
     0
280
     1
281
     0
  0
BLOCK_RECORD
  5
B24
330
1
100
AcDbSymbolTableRecord
100
AcDbBlockTableRecord
  2
*D15
340
0
 70
     0
280
     1
281
     0
  0
BLOCK_RECORD
  5
B32
330
1
100
AcDbSymbolTableRecord
100
AcDbBlockTableRecord
  2
*D16
340
0
 70
     0
280
     1
281
     0
  0
BLOCK_RECORD
  5
B40
330
1
100
AcDbSymbolTableRecord
100
AcDbBlockTableRecord
  2
*D17
340
0
 70
     0
280
     1
281
     0
  0
BLOCK_RECORD
  5
B4E
330
1
100
AcDbSymbolTableRecord
100
AcDbBlockTableRecord
  2
*D18
340
0
 70
     0
280
     1
281
     0
  0
ENDTAB
  0
ENDSEC
  0
SECTION
  2
BLOCKS
  0
BLOCK
  5
20
330
1F
100
AcDbEntity
  8
0
100
AcDbBlockBegin
  2
*MODEL_SPACE
 70
     0
 10
0.0
 20
0.0
 30
0.0
  3
*MODEL_SPACE
  1

  0
ENDBLK
  5
21
330
1F
100
AcDbEntity
  8
0
100
AcDbBlockEnd
  0
BLOCK
  5
1C
330
1B
100
AcDbEntity
 67
     1
  8
0
100
AcDbBlockBegin
  2
*PAPER_SPACE
 70
     0
 10
0.0
 20
0.0
 30
0.0
  3
*PAPER_SPACE
  1

  0
ENDBLK
  5
1D
330
1B
100
AcDbEntity
 67
     1
  8
0
100
AcDbBlockEnd
  0
BLOCK
  5
556
330
555
100
AcDbEntity
  8
0
100
AcDbBlockBegin
  2
*D0
 70
     1
 10
0.0
 20
0.0
 30
0.0
  3
*D0
  1

  0
LINE
  5
558
330
555
100
AcDbEntity
  8
0
 62
     0
440
 16777216
370
    -2
100
AcDbLine
 10
92.05241255951774
 20
656.614296986962
 30
0.0
 11
92.05241255951774
 21
652.758025828098
 31
0.0
  0
LINE
  5
559
330
555
100
AcDbEntity
  8
0
 62
     0
440
 16777216
370
    -2
100
AcDbLine
 10
61.9819448815917
 20
656.614296986962
 30
0.0
 11
61.9819448815917
 21
652.758025828098
 31
0.0
  0
LINE
  5
55A
330
555
100
AcDbEntity
  8
0
 62
     0
440
 16777216
370
    -2
100
AcDbLine
 10
91.87241255951773
 20
652.938025828098
 30
0.0
 11
77.60217872055472
 21
652.938025828098
 31
0.0
  0
LINE
  5
55B
330
555
100
AcDbEntity
  8
0
 62
     0
440
 16777216
370
    -2
100
AcDbLine
 10
62.16194488159171
 20
652.938025828098
 30
0.0
 11
76.43217872055473
 21
652.938025828098
 31
0.0
  0
SOLID
  5
55C
330
555
100
AcDbEntity
  8
0
 62
     0
440
 16777216
100
AcDbTrace
 10
91.87241255951773
 20
652.968025828098
 30
0.0
 11
91.87241255951773
 21
652.9080258280981
 31
0.0
 12
92.05241255951774
 22
652.938025828098
 32
0.0
 13
92.05241255951774
 23
652.938025828098
 33
0.0
  0
SOLID
  5
55D
330
555
100
AcDbEntity
  8
0
 62
     0
440
 16777216
100
AcDbTrace
 10
62.16194488159171
 20
652.968025828098
 30
0.0
 11
62.16194488159171
 21
652.9080258280981
 31
0.0
 12
61.9819448815917
 22
652.938025828098
 32
0.0
 13
61.9819448815917
 23
652.938025828098
 33
0.0
  0
MTEXT
  5
55E
330
555
100
AcDbEntity
  8
0
 62
     0
440
 16777216
100
AcDbMText
 10
77.01717872055471
 20
652.938025828098
 30
0.0
 40
0.18
 41
0.0
 46
0.0
 71
     5
 72
     1
  1
\A1;30.0705
 73
     1
 44
1.0
  0
POINT
  5
55F
330
555
100
AcDbEntity
  8
Defpoints
 62
     0
440
 16777216
100
AcDbPoint
 10
92.05241255951774
 20
656.676796986962
 30
0.0
  0
POINT
  5
560
330
555
100
AcDbEntity
  8
Defpoints
 62
     0
440
 16777216
100
AcDbPoint
 10
61.9819448815917
 20
656.676796986962
 30
0.0
  0
POINT
  5
561
330
555
100
AcDbEntity
  8
Defpoints
 62
     0
440
 16777216
100
AcDbPoint
 10
61.9819448815917
 20
652.938025828098
 30
0.0
  0
ENDBLK
  5
557
330
555
100
AcDbEntity
  8
0
100
AcDbBlockEnd
  0
BLOCK
  5
5AB
330
5AA
100
AcDbEntity
  8
0
100
AcDbBlockBegin
  2
*D1
 70
     1
 10
0.0
 20
0.0
 30
0.0
  3
*D1
  1

  0
LINE
  5
5AD
330
5AA
100
AcDbEntity
  8
0
 62
     0
440
 16777216
370
    -2
100
AcDbLine
 10
558.437716077723
 20
408.2263524116018
 30
0.0
 11
558.437716077723
 21
548.3498536214781
 31
0.0
  0
LINE
  5
5AE
330
5AA
100
AcDbEntity
  8
0
 62
     0
440
 16777216
370
    -2
100
AcDbLine
 10
303.4377160777229
 20
451.2263524116016
 30
0.0
 11
303.4377160777229
 21
548.3498536214781
 31
0.0
  0
LINE
  5
5AF
330
5AA
100
AcDbEntity
  8
0
 62
     0
440
 16777216
370
    -2
100
AcDbLine
 10
558.2577160777232
 20
548.1698536214778
 30
0.0
 11
431.5977160777229
 21
548.1698536214778
 31
0.0
  0
LINE
  5
5B0
330
5AA
100
AcDbEntity
  8
0
 62
     0
440
 16777216
370
    -2
100
AcDbLine
 10
303.6177160777229
 20
548.1698536214778
 30
0.0
 11
430.2777160777227
 21
548.1698536214778
 31
0.0
  0
SOLID
  5
5B1
330
5AA
100
AcDbEntity
  8
0
 62
     0
440
 16777216
100
AcDbTrace
 10
558.2577160777232
 20
548.1998536214779
 30
0.0
 11
558.2577160777232
 21
548.1398536214781
 31
0.0
 12
558.437716077723
 22
548.1698536214778
 32
0.0
 13
558.437716077723
 23
548.1698536214778
 33
0.0
  0
SOLID
  5
5B2
330
5AA
100
AcDbEntity
  8
0
 62
     0
440
 16777216
100
AcDbTrace
 10
303.6177160777229
 20
548.1998536214779
 30
0.0
 11
303.6177160777229
 21
548.1398536214781
 31
0.0
 12
303.4377160777229
 22
548.1698536214778
 32
0.0
 13
303.4377160777229
 23
548.1698536214778
 33
0.0
  0
MTEXT
  5
5B3
330
5AA
100
AcDbEntity
  8
0
 62
     0
440
 16777216
100
AcDbMText
 10
430.937716077723
 20
548.1698536214778
 30
0.0
 40
0.18
 41
0.0
 46
0.0
 71
     5
 72
     1
  1
\A1;255.0000
 73
     1
 44
1.0
  0
POINT
  5
5B4
330
5AA
100
AcDbEntity
  8
Defpoints
 62
     0
440
 16777216
100
AcDbPoint
 10
558.437716077723
 20
408.1638524116018
 30
0.0
  0
POINT
  5
5B5
330
5AA
100
AcDbEntity
  8
Defpoints
 62
     0
440
 16777216
100
AcDbPoint
 10
303.4377160777229
 20
451.1638524116015
 30
0.0
  0
POINT
  5
5B6
330
5AA
100
AcDbEntity
  8
Defpoints
 62
     0
440
 16777216
100
AcDbPoint
 10
303.4377160777229
 20
548.1698536214778
 30
0.0
  0
ENDBLK
  5
5AC
330
5AA
100
AcDbEntity
  8
0
100
AcDbBlockEnd
  0
BLOCK
  5
5B9
330
5B8
100
AcDbEntity
  8
0
100
AcDbBlockBegin
  2
*D2
 70
     1
 10
0.0
 20
0.0
 30
0.0
  3
*D2
  1

  0
LINE
  5
5BB
330
5B8
100
AcDbEntity
  8
0
 62
     0
440
 16777216
370
    -2
100
AcDbLine
 10
558.437716077723
 20
300.6253331887964
 30
0.0
 11
558.437716077723
 21
343.4827014939235
 31
0.0
  0
LINE
  5
5BC
330
5B8
100
AcDbEntity
  8
0
 62
     0
440
 16777216
370
    -2
100
AcDbLine
 10
303.437716077723
 20
300.6253331887966
 30
0.0
 11
303.437716077723
 21
343.4827014939235
 31
0.0
  0
LINE
  5
5BD
330
5B8
100
AcDbEntity
  8
0
 62
     0
440
 16777216
370
    -2
100
AcDbLine
 10
558.2577160777232
 20
343.3027014939235
 30
0.0
 11
431.5977160777229
 21
343.3027014939235
 31
0.0
  0
LINE
  5
5BE
330
5B8
100
AcDbEntity
  8
0
 62
     0
440
 16777216
370
    -2
100
AcDbLine
 10
303.617716077723
 20
343.3027014939235
 30
0.0
 11
430.277716077723
 21
343.3027014939235
 31
0.0
  0
SOLID
  5
5BF
330
5B8
100
AcDbEntity
  8
0
 62
     0
440
 16777216
100
AcDbTrace
 10
558.2577160777232
 20
343.3327014939234
 30
0.0
 11
558.2577160777232
 21
343.2727014939235
 31
0.0
 12
558.437716077723
 22
343.3027014939235
 32
0.0
 13
558.437716077723
 23
343.3027014939235
 33
0.0
  0
SOLID
  5
5C0
330
5B8
100
AcDbEntity
  8
0
 62
     0
440
 16777216
100
AcDbTrace
 10
303.617716077723
 20
343.3327014939234
 30
0.0
 11
303.617716077723
 21
343.2727014939235
 31
0.0
 12
303.437716077723
 22
343.3027014939235
 32
0.0
 13
303.437716077723
 23
343.3027014939235
 33
0.0
  0
MTEXT
  5
5C1
330
5B8
100
AcDbEntity
  8
0
 62
     0
440
 16777216
100
AcDbMText
 10
430.937716077723
 20
343.3027014939235
 30
0.0
 40
0.18
 41
0.0
 46
0.0
 71
     5
 72
     1
  1
\A1;255.0000
 73
     1
 44
1.0
  0
POINT
  5
5C2
330
5B8
100
AcDbEntity
  8
Defpoints
 62
     0
440
 16777216
100
AcDbPoint
 10
558.437716077723
 20
300.5628331887964
 30
0.0
  0
POINT
  5
5C3
330
5B8
100
AcDbEntity
  8
Defpoints
 62
     0
440
 16777216
100
AcDbPoint
 10
303.437716077723
 20
300.5628331887966
 30
0.0
  0
POINT
  5
5C4
330
5B8
100
AcDbEntity
  8
Defpoints
 62
     0
440
 16777216
100
AcDbPoint
 10
303.437716077723
 20
343.3027014939235
 30
0.0
  0
ENDBLK
  5
5BA
330
5B8
100
AcDbEntity
  8
0
100
AcDbBlockEnd
  0
BLOCK
  5
605
330
604
100
AcDbEntity
  8
0
100
AcDbBlockBegin
  2
*D3
 70
     1
 10
0.0
 20
0.0
 30
0.0
  3
*D3
  1

  0
LINE
  5
607
330
604
100
AcDbEntity
  8
0
 62
     0
440
 16777216
370
    -2
100
AcDbLine
 10
288.437716077723
 20
555.6013524116017
 30
0.0
 11
288.437716077723
 21
537.0636039434015
 31
0.0
  0
LINE
  5
608
330
604
100
AcDbEntity
  8
0
 62
     0
440
 16777216
370
    -2
100
AcDbLine
 10
318.4377160777229
 20
555.6013524116017
 30
0.0
 11
318.4377160777229
 21
537.0636039434015
 31
0.0
  0
LINE
  5
609
330
604
100
AcDbEntity
  8
0
 62
     0
440
 16777216
370
    -2
100
AcDbLine
 10
288.6177160777229
 20
537.2436039434014
 30
0.0
 11
302.8827160777229
 21
537.2436039434014
 31
0.0
  0
LINE
  5
60A
330
604
100
AcDbEntity
  8
0
 62
     0
440
 16777216
370
    -2
100
AcDbLine
 10
318.2577160777229
 20
537.2436039434014
 30
0.0
 11
303.9927160777229
 21
537.2436039434014
 31
0.0
  0
SOLID
  5
60B
330
604
100
AcDbEntity
  8
0
 62
     0
440
 16777216
100
AcDbTrace
 10
288.6177160777229
 20
537.2736039434014
 30
0.0
 11
288.6177160777229
 21
537.2136039434015
 31
0.0
 12
288.437716077723
 22
537.2436039434014
 32
0.0
 13
288.437716077723
 23
537.2436039434014
 33
0.0
  0
SOLID
  5
60C
330
604
100
AcDbEntity
  8
0
 62
     0
440
 16777216
100
AcDbTrace
 10
318.2577160777229
 20
537.2736039434014
 30
0.0
 11
318.2577160777229
 21
537.2136039434015
 31
0.0
 12
318.4377160777229
 22
537.2436039434014
 32
0.0
 13
318.4377160777229
 23
537.2436039434014
 33
0.0
  0
MTEXT
  5
60D
330
604
100
AcDbEntity
  8
0
 62
     0
440
 16777216
100
AcDbMText
 10
303.4377160777229
 20
537.2436039434014
 30
0.0
 40
0.18
 41
0.0
 46
0.0
 71
     5
 72
     1
  1
\A1;30.0000
 73
     1
 44
1.0
  0
POINT
  5
60E
330
604
100
AcDbEntity
  8
Defpoints
 62
     0
440
 16777216
100
AcDbPoint
 10
288.437716077723
 20
555.6638524116017
 30
0.0
  0
POINT
  5
60F
330
604
100
AcDbEntity
  8
Defpoints
 62
     0
440
 16777216
100
AcDbPoint
 10
318.4377160777229
 20
555.6638524116017
 30
0.0
  0
POINT
  5
610
330
604
100
AcDbEntity
  8
Defpoints
 62
     0
440
 16777216
100
AcDbPoint
 10
318.4377160777229
 20
537.2436039434014
 30
0.0
  0
ENDBLK
  5
606
330
604
100
AcDbEntity
  8
0
100
AcDbBlockEnd
  0
BLOCK
  5
715
330
714
100
AcDbEntity
  8
0
100
AcDbBlockBegin
  2
*D4
 70
     1
 10
0.0
 20
0.0
 30
0.0
  3
*D4
  1

  0
LINE
  5
717
330
714
100
AcDbEntity
  8
0
 62
     0
440
 16777216
370
    -2
100
AcDbLine
 10
303.5002160777231
 20
1161.163852411602
 30
0.0
 11
597.3741697807988
 21
1161.163852411602
 31
0.0
  0
LINE
  5
718
330
714
100
AcDbEntity
  8
0
 62
     0
440
 16777216
370
    -2
100
AcDbLine
 10
346.5002160777233
 20
408.1638524116021
 30
0.0
 11
597.3741697807991
 21
408.1638524116023
 31
0.0
  0
LINE
  5
719
330
714
100
AcDbEntity
  8
0
 62
     0
440
 16777216
370
    -2
100
AcDbLine
 10
597.1941697807989
 20
1160.983852411602
 30
0.0
 11
597.1941697807989
 21
784.8438524116024
 31
0.0
  0
LINE
  5
71A
330
714
100
AcDbEntity
  8
0
 62
     0
440
 16777216
370
    -2
100
AcDbLine
 10
597.194169780799
 20
408.3438524116023
 30
0.0
 11
597.1941697807989
 21
784.4838524116023
 31
0.0
  0
SOLID
  5
71B
330
714
100
AcDbEntity
  8
0
 62
     0
440
 16777216
100
AcDbTrace
 10
597.1641697807988
 20
1160.983852411602
 30
0.0
 11
597.2241697807987
 21
1160.983852411602
 31
0.0
 12
597.1941697807989
 22
1161.163852411602
 32
0.0
 13
597.1941697807989
 23
1161.163852411602
 33
0.0
  0
SOLID
  5
71C
330
714
100
AcDbEntity
  8
0
 62
     0
440
 16777216
100
AcDbTrace
 10
597.164169780799
 20
408.3438524116023
 30
0.0
 11
597.224169780799
 21
408.3438524116023
 31
0.0
 12
597.194169780799
 22
408.1638524116023
 32
0.0
 13
597.194169780799
 23
408.1638524116023
 33
0.0
  0
MTEXT
  5
71D
330
714
100
AcDbEntity
  8
0
 62
     0
440
 16777216
100
AcDbMText
 10
597.194169780799
 20
784.6638524116022
 30
0.0
 40
0.18
 41
0.0
 46
0.0
 71
     5
 72
     1
  1
\A1;753.0000
 73
     1
 44
1.0
  0
POINT
  5
71E
330
714
100
AcDbEntity
  8
Defpoints
 62
     0
440
 16777216
100
AcDbPoint
 10
303.4377160777231
 20
1161.163852411602
 30
0.0
  0
POINT
  5
71F
330
714
100
AcDbEntity
  8
Defpoints
 62
     0
440
 16777216
100
AcDbPoint
 10
346.4377160777234
 20
408.1638524116021
 30
0.0
  0
POINT
  5
720
330
714
100
AcDbEntity
  8
Defpoints
 62
     0
440
 16777216
100
AcDbPoint
 10
597.194169780799
 20
408.1638524116023
 30
0.0
  0
ENDBLK
  5
716
330
714
100
AcDbEntity
  8
0
100
AcDbBlockEnd
  0
BLOCK
  5
738
330
737
100
AcDbEntity
  8
0
100
AcDbBlockBegin
  2
*D5
 70
     1
 10
0.0
 20
0.0
 30
0.0
  3
*D5
  1

  0
LINE
  5
73A
330
737
100
AcDbEntity
  8
0
 62
     0
440
 16777216
370
    -2
100
AcDbLine
 10
303.4377160777229
 20
1155.226352411602
 30
0.0
 11
303.4377160777229
 21
1553.379982710815
 31
0.0
  0
LINE
  5
73B
330
737
100
AcDbEntity
  8
0
 62
     0
440
 16777216
370
    -2
100
AcDbLine
 10
803.4377160777228
 20
300.6253331887964
 30
0.0
 11
803.4377160777232
 21
1553.379982710815
 31
0.0
  0
LINE
  5
73C
330
737
100
AcDbEntity
  8
0
 62
     0
440
 16777216
370
    -2
100
AcDbLine
 10
303.617716077723
 20
1553.199982710815
 30
0.0
 11
552.807716077723
 21
1553.199982710815
 31
0.0
  0
LINE
  5
73D
330
737
100
AcDbEntity
  8
0
 62
     0
440
 16777216
370
    -2
100
AcDbLine
 10
803.2577160777233
 20
1553.199982710815
 30
0.0
 11
554.067716077723
 21
1553.199982710815
 31
0.0
  0
SOLID
  5
73E
330
737
100
AcDbEntity
  8
0
 62
     0
440
 16777216
100
AcDbTrace
 10
303.617716077723
 20
1553.229982710815
 30
0.0
 11
303.617716077723
 21
1553.169982710815
 31
0.0
 12
303.4377160777229
 22
1553.199982710815
 32
0.0
 13
303.4377160777229
 23
1553.199982710815
 33
0.0
  0
SOLID
  5
73F
330
737
100
AcDbEntity
  8
0
 62
     0
440
 16777216
100
AcDbTrace
 10
803.2577160777233
 20
1553.229982710815
 30
0.0
 11
803.2577160777233
 21
1553.169982710815
 31
0.0
 12
803.4377160777232
 22
1553.199982710815
 32
0.0
 13
803.4377160777232
 23
1553.199982710815
 33
0.0
  0
MTEXT
  5
740
330
737
100
AcDbEntity
  8
0
 62
     0
440
 16777216
100
AcDbMText
 10
553.437716077723
 20
1553.199982710815
 30
0.0
 40
0.18
 41
0.0
 46
0.0
 71
     5
 72
     1
  1
\A1;500.0000
 73
     1
 44
1.0
  0
POINT
  5
741
330
737
100
AcDbEntity
  8
Defpoints
 62
     0
440
 16777216
100
AcDbPoint
 10
303.4377160777229
 20
1155.163852411602
 30
0.0
  0
POINT
  5
742
330
737
100
AcDbEntity
  8
Defpoints
 62
     0
440
 16777216
100
AcDbPoint
 10
803.4377160777228
 20
300.5628331887964
 30
0.0
  0
POINT
  5
743
330
737
100
AcDbEntity
  8
Defpoints
 62
     0
440
 16777216
100
AcDbPoint
 10
803.4377160777232
 20
1553.199982710815
 30
0.0
  0
ENDBLK
  5
739
330
737
100
AcDbEntity
  8
0
100
AcDbBlockEnd
  0
BLOCK
  5
78E
330
78D
100
AcDbEntity
  8
0
100
AcDbBlockBegin
  2
*D6
 70
     1
 10
0.0
 20
0.0
 30
0.0
  3
*D6
  1

  0
LINE
  5
78F
330
78D
100
AcDbEntity
  8
0
 62
     0
440
 16777216
370
    -2
100
AcDbLine
 10
92.05241255951774
 20
656.614296986962
 30
0.0
 11
92.05241255951774
 21
652.758025828098
 31
0.0
  0
LINE
  5
790
330
78D
100
AcDbEntity
  8
0
 62
     0
440
 16777216
370
    -2
100
AcDbLine
 10
61.9819448815917
 20
656.614296986962
 30
0.0
 11
61.9819448815917
 21
652.758025828098
 31
0.0
  0
LINE
  5
791
330
78D
100
AcDbEntity
  8
0
 62
     0
440
 16777216
370
    -2
100
AcDbLine
 10
91.87241255951773
 20
652.938025828098
 30
0.0
 11
77.60217872055472
 21
652.938025828098
 31
0.0
  0
LINE
  5
792
330
78D
100
AcDbEntity
  8
0
 62
     0
440
 16777216
370
    -2
100
AcDbLine
 10
62.16194488159171
 20
652.938025828098
 30
0.0
 11
76.43217872055473
 21
652.938025828098
 31
0.0
  0
SOLID
  5
793
330
78D
100
AcDbEntity
  8
0
 62
     0
440
 16777216
100
AcDbTrace
 10
91.87241255951773
 20
652.968025828098
 30
0.0
 11
91.87241255951773
 21
652.9080258280981
 31
0.0
 12
92.05241255951774
 22
652.938025828098
 32
0.0
 13
92.05241255951774
 23
652.938025828098
 33
0.0
  0
SOLID
  5
794
330
78D
100
AcDbEntity
  8
0
 62
     0
440
 16777216
100
AcDbTrace
 10
62.16194488159171
 20
652.968025828098
 30
0.0
 11
62.16194488159171
 21
652.9080258280981
 31
0.0
 12
61.9819448815917
 22
652.938025828098
 32
0.0
 13
61.9819448815917
 23
652.938025828098
 33
0.0
  0
MTEXT
  5
795
330
78D
100
AcDbEntity
  8
0
 62
     0
440
 16777216
100
AcDbMText
 10
77.01717872055471
 20
652.938025828098
 30
0.0
 40
0.18
 41
0.0
 46
0.0
 71
     5
 72
     1
  1
\A1;30.0705
 73
     1
 44
1.0
  0
POINT
  5
796
330
78D
100
AcDbEntity
  8
Defpoints
 62
     0
440
 16777216
100
AcDbPoint
 10
92.05241255951774
 20
656.676796986962
 30
0.0
  0
POINT
  5
797
330
78D
100
AcDbEntity
  8
Defpoints
 62
     0
440
 16777216
100
AcDbPoint
 10
61.9819448815917
 20
656.676796986962
 30
0.0
  0
POINT
  5
798
330
78D
100
AcDbEntity
  8
Defpoints
 62
     0
440
 16777216
100
AcDbPoint
 10
61.9819448815917
 20
652.938025828098
 30
0.0
  0
ENDBLK
  5
799
330
78D
100
AcDbEntity
  8
0
100
AcDbBlockEnd
  0
BLOCK
  5
79B
330
79A
100
AcDbEntity
  8
0
100
AcDbBlockBegin
  2
*D7
 70
     1
 10
0.0
 20
0.0
 30
0.0
  3
*D7
  1

  0
LINE
  5
79C
330
79A
100
AcDbEntity
  8
0
 62
     0
440
 16777216
370
    -2
100
AcDbLine
 10
558.437716077723
 20
408.2263524116018
 30
0.0
 11
558.437716077723
 21
548.3498536214781
 31
0.0
  0
LINE
  5
79D
330
79A
100
AcDbEntity
  8
0
 62
     0
440
 16777216
370
    -2
100
AcDbLine
 10
303.4377160777229
 20
451.2263524116016
 30
0.0
 11
303.4377160777229
 21
548.3498536214781
 31
0.0
  0
LINE
  5
79E
330
79A
100
AcDbEntity
  8
0
 62
     0
440
 16777216
370
    -2
100
AcDbLine
 10
558.2577160777232
 20
548.1698536214778
 30
0.0
 11
431.5977160777229
 21
548.1698536214778
 31
0.0
  0
LINE
  5
79F
330
79A
100
AcDbEntity
  8
0
 62
     0
440
 16777216
370
    -2
100
AcDbLine
 10
303.6177160777229
 20
548.1698536214778
 30
0.0
 11
430.2777160777227
 21
548.1698536214778
 31
0.0
  0
SOLID
  5
7A0
330
79A
100
AcDbEntity
  8
0
 62
     0
440
 16777216
100
AcDbTrace
 10
558.2577160777232
 20
548.1998536214779
 30
0.0
 11
558.2577160777232
 21
548.1398536214781
 31
0.0
 12
558.437716077723
 22
548.1698536214778
 32
0.0
 13
558.437716077723
 23
548.1698536214778
 33
0.0
  0
SOLID
  5
7A1
330
79A
100
AcDbEntity
  8
0
 62
     0
440
 16777216
100
AcDbTrace
 10
303.6177160777229
 20
548.1998536214779
 30
0.0
 11
303.6177160777229
 21
548.1398536214781
 31
0.0
 12
303.4377160777229
 22
548.1698536214778
 32
0.0
 13
303.4377160777229
 23
548.1698536214778
 33
0.0
  0
MTEXT
  5
7A2
330
79A
100
AcDbEntity
  8
0
 62
     0
440
 16777216
100
AcDbMText
 10
430.937716077723
 20
548.1698536214778
 30
0.0
 40
0.18
 41
0.0
 46
0.0
 71
     5
 72
     1
  1
\A1;255.0000
 73
     1
 44
1.0
  0
POINT
  5
7A3
330
79A
100
AcDbEntity
  8
Defpoints
 62
     0
440
 16777216
100
AcDbPoint
 10
558.437716077723
 20
408.1638524116018
 30
0.0
  0
POINT
  5
7A4
330
79A
100
AcDbEntity
  8
Defpoints
 62
     0
440
 16777216
100
AcDbPoint
 10
303.4377160777229
 20
451.1638524116015
 30
0.0
  0
POINT
  5
7A5
330
79A
100
AcDbEntity
  8
Defpoints
 62
     0
440
 16777216
100
AcDbPoint
 10
303.4377160777229
 20
548.1698536214778
 30
0.0
  0
ENDBLK
  5
7A6
330
79A
100
AcDbEntity
  8
0
100
AcDbBlockEnd
  0
BLOCK
  5
7A8
330
7A7
100
AcDbEntity
  8
0
100
AcDbBlockBegin
  2
*D8
 70
     1
 10
0.0
 20
0.0
 30
0.0
  3
*D8
  1

  0
LINE
  5
7A9
330
7A7
100
AcDbEntity
  8
0
 62
     0
440
 16777216
370
    -2
100
AcDbLine
 10
558.437716077723
 20
300.6253331887964
 30
0.0
 11
558.437716077723
 21
343.4827014939235
 31
0.0
  0
LINE
  5
7AA
330
7A7
100
AcDbEntity
  8
0
 62
     0
440
 16777216
370
    -2
100
AcDbLine
 10
303.437716077723
 20
300.6253331887966
 30
0.0
 11
303.437716077723
 21
343.4827014939235
 31
0.0
  0
LINE
  5
7AB
330
7A7
100
AcDbEntity
  8
0
 62
     0
440
 16777216
370
    -2
100
AcDbLine
 10
558.2577160777232
 20
343.3027014939235
 30
0.0
 11
431.5977160777229
 21
343.3027014939235
 31
0.0
  0
LINE
  5
7AC
330
7A7
100
AcDbEntity
  8
0
 62
     0
440
 16777216
370
    -2
100
AcDbLine
 10
303.617716077723
 20
343.3027014939235
 30
0.0
 11
430.277716077723
 21
343.3027014939235
 31
0.0
  0
SOLID
  5
7AD
330
7A7
100
AcDbEntity
  8
0
 62
     0
440
 16777216
100
AcDbTrace
 10
558.2577160777232
 20
343.3327014939234
 30
0.0
 11
558.2577160777232
 21
343.2727014939235
 31
0.0
 12
558.437716077723
 22
343.3027014939235
 32
0.0
 13
558.437716077723
 23
343.3027014939235
 33
0.0
  0
SOLID
  5
7AE
330
7A7
100
AcDbEntity
  8
0
 62
     0
440
 16777216
100
AcDbTrace
 10
303.617716077723
 20
343.3327014939234
 30
0.0
 11
303.617716077723
 21
343.2727014939235
 31
0.0
 12
303.437716077723
 22
343.3027014939235
 32
0.0
 13
303.437716077723
 23
343.3027014939235
 33
0.0
  0
MTEXT
  5
7AF
330
7A7
100
AcDbEntity
  8
0
 62
     0
440
 16777216
100
AcDbMText
 10
430.937716077723
 20
343.3027014939235
 30
0.0
 40
0.18
 41
0.0
 46
0.0
 71
     5
 72
     1
  1
\A1;255.0000
 73
     1
 44
1.0
  0
POINT
  5
7B0
330
7A7
100
AcDbEntity
  8
Defpoints
 62
     0
440
 16777216
100
AcDbPoint
 10
558.437716077723
 20
300.5628331887964
 30
0.0
  0
POINT
  5
7B1
330
7A7
100
AcDbEntity
  8
Defpoints
 62
     0
440
 16777216
100
AcDbPoint
 10
303.437716077723
 20
300.5628331887966
 30
0.0
  0
POINT
  5
7B2
330
7A7
100
AcDbEntity
  8
Defpoints
 62
     0
440
 16777216
100
AcDbPoint
 10
303.437716077723
 20
343.3027014939235
 30
0.0
  0
ENDBLK
  5
7B3
330
7A7
100
AcDbEntity
  8
0
100
AcDbBlockEnd
  0
BLOCK
  5
7B5
330
7B4
100
AcDbEntity
  8
0
100
AcDbBlockBegin
  2
*D9
 70
     1
 10
0.0
 20
0.0
 30
0.0
  3
*D9
  1

  0
LINE
  5
7B6
330
7B4
100
AcDbEntity
  8
0
 62
     0
440
 16777216
370
    -2
100
AcDbLine
 10
288.437716077723
 20
555.6013524116017
 30
0.0
 11
288.437716077723
 21
537.0636039434015
 31
0.0
  0
LINE
  5
7B7
330
7B4
100
AcDbEntity
  8
0
 62
     0
440
 16777216
370
    -2
100
AcDbLine
 10
318.4377160777229
 20
555.6013524116017
 30
0.0
 11
318.4377160777229
 21
537.0636039434015
 31
0.0
  0
LINE
  5
7B8
330
7B4
100
AcDbEntity
  8
0
 62
     0
440
 16777216
370
    -2
100
AcDbLine
 10
288.6177160777229
 20
537.2436039434014
 30
0.0
 11
302.8827160777229
 21
537.2436039434014
 31
0.0
  0
LINE
  5
7B9
330
7B4
100
AcDbEntity
  8
0
 62
     0
440
 16777216
370
    -2
100
AcDbLine
 10
318.2577160777229
 20
537.2436039434014
 30
0.0
 11
303.9927160777229
 21
537.2436039434014
 31
0.0
  0
SOLID
  5
7BA
330
7B4
100
AcDbEntity
  8
0
 62
     0
440
 16777216
100
AcDbTrace
 10
288.6177160777229
 20
537.2736039434014
 30
0.0
 11
288.6177160777229
 21
537.2136039434015
 31
0.0
 12
288.437716077723
 22
537.2436039434014
 32
0.0
 13
288.437716077723
 23
537.2436039434014
 33
0.0
  0
SOLID
  5
7BB
330
7B4
100
AcDbEntity
  8
0
 62
     0
440
 16777216
100
AcDbTrace
 10
318.2577160777229
 20
537.2736039434014
 30
0.0
 11
318.2577160777229
 21
537.2136039434015
 31
0.0
 12
318.4377160777229
 22
537.2436039434014
 32
0.0
 13
318.4377160777229
 23
537.2436039434014
 33
0.0
  0
MTEXT
  5
7BC
330
7B4
100
AcDbEntity
  8
0
 62
     0
440
 16777216
100
AcDbMText
 10
303.4377160777229
 20
537.2436039434014
 30
0.0
 40
0.18
 41
0.0
 46
0.0
 71
     5
 72
     1
  1
\A1;30.0000
 73
     1
 44
1.0
  0
POINT
  5
7BD
330
7B4
100
AcDbEntity
  8
Defpoints
 62
     0
440
 16777216
100
AcDbPoint
 10
288.437716077723
 20
555.6638524116017
 30
0.0
  0
POINT
  5
7BE
330
7B4
100
AcDbEntity
  8
Defpoints
 62
     0
440
 16777216
100
AcDbPoint
 10
318.4377160777229
 20
555.6638524116017
 30
0.0
  0
POINT
  5
7BF
330
7B4
100
AcDbEntity
  8
Defpoints
 62
     0
440
 16777216
100
AcDbPoint
 10
318.4377160777229
 20
537.2436039434014
 30
0.0
  0
ENDBLK
  5
7C0
330
7B4
100
AcDbEntity
  8
0
100
AcDbBlockEnd
  0
BLOCK
  5
7C2
330
7C1
100
AcDbEntity
  8
0
100
AcDbBlockBegin
  2
*D10
 70
     1
 10
0.0
 20
0.0
 30
0.0
  3
*D10
  1

  0
LINE
  5
7C3
330
7C1
100
AcDbEntity
  8
0
 62
     0
440
 16777216
370
    -2
100
AcDbLine
 10
303.5002160777231
 20
1161.163852411602
 30
0.0
 11
597.3741697807988
 21
1161.163852411602
 31
0.0
  0
LINE
  5
7C4
330
7C1
100
AcDbEntity
  8
0
 62
     0
440
 16777216
370
    -2
100
AcDbLine
 10
346.5002160777233
 20
408.1638524116021
 30
0.0
 11
597.3741697807991
 21
408.1638524116023
 31
0.0
  0
LINE
  5
7C5
330
7C1
100
AcDbEntity
  8
0
 62
     0
440
 16777216
370
    -2
100
AcDbLine
 10
597.1941697807989
 20
1160.983852411602
 30
0.0
 11
597.1941697807989
 21
784.8438524116024
 31
0.0
  0
LINE
  5
7C6
330
7C1
100
AcDbEntity
  8
0
 62
     0
440
 16777216
370
    -2
100
AcDbLine
 10
597.194169780799
 20
408.3438524116023
 30
0.0
 11
597.1941697807989
 21
784.4838524116023
 31
0.0
  0
SOLID
  5
7C7
330
7C1
100
AcDbEntity
  8
0
 62
     0
440
 16777216
100
AcDbTrace
 10
597.1641697807988
 20
1160.983852411602
 30
0.0
 11
597.2241697807987
 21
1160.983852411602
 31
0.0
 12
597.1941697807989
 22
1161.163852411602
 32
0.0
 13
597.1941697807989
 23
1161.163852411602
 33
0.0
  0
SOLID
  5
7C8
330
7C1
100
AcDbEntity
  8
0
 62
     0
440
 16777216
100
AcDbTrace
 10
597.164169780799
 20
408.3438524116023
 30
0.0
 11
597.224169780799
 21
408.3438524116023
 31
0.0
 12
597.194169780799
 22
408.1638524116023
 32
0.0
 13
597.194169780799
 23
408.1638524116023
 33
0.0
  0
MTEXT
  5
7C9
330
7C1
100
AcDbEntity
  8
0
 62
     0
440
 16777216
100
AcDbMText
 10
597.194169780799
 20
784.6638524116022
 30
0.0
 40
0.18
 41
0.0
 46
0.0
 71
     5
 72
     1
  1
\A1;753.0000
 73
     1
 44
1.0
  0
POINT
  5
7CA
330
7C1
100
AcDbEntity
  8
Defpoints
 62
     0
440
 16777216
100
AcDbPoint
 10
303.4377160777231
 20
1161.163852411602
 30
0.0
  0
POINT
  5
7CB
330
7C1
100
AcDbEntity
  8
Defpoints
 62
     0
440
 16777216
100
AcDbPoint
 10
346.4377160777234
 20
408.1638524116021
 30
0.0
  0
POINT
  5
7CC
330
7C1
100
AcDbEntity
  8
Defpoints
 62
     0
440
 16777216
100
AcDbPoint
 10
597.194169780799
 20
408.1638524116023
 30
0.0
  0
ENDBLK
  5
7CD
330
7C1
100
AcDbEntity
  8
0
100
AcDbBlockEnd
  0
BLOCK
  5
7CF
330
7CE
100
AcDbEntity
  8
0
100
AcDbBlockBegin
  2
*D11
 70
     1
 10
0.0
 20
0.0
 30
0.0
  3
*D11
  1

  0
LINE
  5
7D0
330
7CE
100
AcDbEntity
  8
0
 62
     0
440
 16777216
370
    -2
100
AcDbLine
 10
303.4377160777229
 20
1155.226352411602
 30
0.0
 11
303.4377160777229
 21
1553.379982710815
 31
0.0
  0
LINE
  5
7D1
330
7CE
100
AcDbEntity
  8
0
 62
     0
440
 16777216
370
    -2
100
AcDbLine
 10
803.4377160777228
 20
300.6253331887964
 30
0.0
 11
803.4377160777232
 21
1553.379982710815
 31
0.0
  0
LINE
  5
7D2
330
7CE
100
AcDbEntity
  8
0
 62
     0
440
 16777216
370
    -2
100
AcDbLine
 10
303.617716077723
 20
1553.199982710815
 30
0.0
 11
552.807716077723
 21
1553.199982710815
 31
0.0
  0
LINE
  5
7D3
330
7CE
100
AcDbEntity
  8
0
 62
     0
440
 16777216
370
    -2
100
AcDbLine
 10
803.2577160777233
 20
1553.199982710815
 30
0.0
 11
554.067716077723
 21
1553.199982710815
 31
0.0
  0
SOLID
  5
7D4
330
7CE
100
AcDbEntity
  8
0
 62
     0
440
 16777216
100
AcDbTrace
 10
303.617716077723
 20
1553.229982710815
 30
0.0
 11
303.617716077723
 21
1553.169982710815
 31
0.0
 12
303.4377160777229
 22
1553.199982710815
 32
0.0
 13
303.4377160777229
 23
1553.199982710815
 33
0.0
  0
SOLID
  5
7D5
330
7CE
100
AcDbEntity
  8
0
 62
     0
440
 16777216
100
AcDbTrace
 10
803.2577160777233
 20
1553.229982710815
 30
0.0
 11
803.2577160777233
 21
1553.169982710815
 31
0.0
 12
803.4377160777232
 22
1553.199982710815
 32
0.0
 13
803.4377160777232
 23
1553.199982710815
 33
0.0
  0
MTEXT
  5
7D6
330
7CE
100
AcDbEntity
  8
0
 62
     0
440
 16777216
100
AcDbMText
 10
553.437716077723
 20
1553.199982710815
 30
0.0
 40
0.18
 41
0.0
 46
0.0
 71
     5
 72
     1
  1
\A1;500.0000
 73
     1
 44
1.0
  0
POINT
  5
7D7
330
7CE
100
AcDbEntity
  8
Defpoints
 62
     0
440
 16777216
100
AcDbPoint
 10
303.4377160777229
 20
1155.163852411602
 30
0.0
  0
POINT
  5
7D8
330
7CE
100
AcDbEntity
  8
Defpoints
 62
     0
440
 16777216
100
AcDbPoint
 10
803.4377160777228
 20
300.5628331887964
 30
0.0
  0
POINT
  5
7D9
330
7CE
100
AcDbEntity
  8
Defpoints
 62
     0
440
 16777216
100
AcDbPoint
 10
803.4377160777232
 20
1553.199982710815
 30
0.0
  0
ENDBLK
  5
7DA
330
7CE
100
AcDbEntity
  8
0
100
AcDbBlockEnd
  0
BLOCK
  5
841
330
7DB
100
AcDbEntity
  8
0
100
AcDbBlockBegin
  2
900_22_13240
 70
     0
 10
0.0
 20
0.0
 30
0.0
  3
900_22_13240
  1

  0
ARC
  5
7DC
330
7DB
100
AcDbEntity
  8
HEWI
100
AcDbCircle
 10
803.4377160777228
 20
408.1638524116018
 30
0.0
 40
35.0
100
AcDbArc
 50
207.2028944122106
 51
152.7971055877893
  0
ARC
  5
7DD
330
7DB
100
AcDbEntity
  8
HEWI
100
AcDbCircle
 10
803.4377160777228
 20
408.1638524116018
 30
0.0
 40
17.5
100
AcDbArc
 50
238.997280866126
 51
121.0027191338736
  0
LINE
  5
7DE
330
7DB
100
AcDbEntity
  8
HEWI
100
AcDbLine
 10
346.4377160777232
 20
393.163852411602
 30
0.0
 11
346.4377160777232
 21
423.163852411602
 31
0.0
  0
LINE
  5
7DF
330
7DB
100
AcDbEntity
  8
HEWI
100
AcDbLine
 10
318.4377160777229
 20
451.1638524116017
 30
0.0
 11
288.437716077723
 21
451.1638524116017
 31
0.0
  0
LWPOLYLINE
  5
7E0
330
7DB
100
AcDbEntity
  8
HEWI
100
AcDbPolyline
 90
        4
 70
     0
 43
0.0
 10
16.05241255951773
 20
443.1638524116017
 10
5.052412559517733
 20
443.1638524116017
 10
5.052412559517733
 20
373.163852411602
 10
16.05241255951773
 20
373.163852411602
  0
LWPOLYLINE
  5
7E1
330
7DB
100
AcDbEntity
  8
HEWI
100
AcDbPolyline
 90
        2
 70
     0
 43
0.0
 10
17.05241255951773
 20
374.163852411602
 10
17.05241255951773
 20
442.1638524116017
  0
ARC
  5
7E2
330
7DB
100
AcDbEntity
  8
HEWI
100
AcDbCircle
 10
16.05241255951773
 20
442.1638524116017
 30
0.0
 40
1.0
100
AcDbArc
 50
0.000000000000007
 51
90.0
  0
ARC
  5
7E3
330
7DB
100
AcDbEntity
  8
HEWI
100
AcDbCircle
 10
16.05241255951773
 20
374.163852411602
 30
0.0
 40
1.0
100
AcDbArc
 50
270.0
 51
0.000000000000007
  0
LINE
  5
7E4
330
7DB
100
AcDbEntity
  8
HEWI
100
AcDbLine
 10
17.05241255951773
 20
411.163852411602
 30
0.0
 11
17.05241255951773
 21
408.1638524116018
 31
0.0
  0
LINE
  5
7E5
330
7DB
100
AcDbEntity
  8
HEWI
100
AcDbLine
 10
17.05241255951773
 20
408.1638524116018
 30
0.0
 11
17.05241255951773
 21
405.1638524116017
 31
0.0
  0
LINE
  5
7E6
330
7DB
100
AcDbEntity
  8
HEWI
100
AcDbLine
 10
92.05241255951774
 20
406.6990862505647
 30
0.0
 11
92.05241255951774
 21
1155.163852411601
 31
0.0
  0
LINE
  5
7E7
330
7DB
100
AcDbEntity
  8
HEWI
100
AcDbLine
 10
60.05241255951773
 20
1161.163852411601
 30
0.0
 11
92.05241255951774
 21
1161.163852411601
 31
0.0
  0
LWPOLYLINE
  5
7E8
330
7DB
100
AcDbEntity
  8
HEWI
100
AcDbPolyline
 90
        4
 70
     0
 43
0.0
 10
16.05241255951773
 20
1193.163852411602
 10
5.052412559517733
 20
1193.163852411602
 10
5.052412559517733
 20
1123.163852411602
 10
16.05241255951773
 20
1123.163852411602
  0
LWPOLYLINE
  5
7E9
330
7DB
100
AcDbEntity
  8
HEWI
100
AcDbPolyline
 90
        2
 70
     0
 43
0.0
 10
17.05241255951773
 20
1124.163852411601
 10
17.05241255951773
 20
1192.163852411602
  0
ARC
  5
7EA
330
7DB
100
AcDbEntity
  8
HEWI
100
AcDbCircle
 10
16.05241255951773
 20
1192.163852411602
 30
0.0
 40
1.0
100
AcDbArc
 50
0.0
 51
90.0
  0
ARC
  5
7EB
330
7DB
100
AcDbEntity
  8
HEWI
100
AcDbCircle
 10
16.05241255951773
 20
1124.163852411601
 30
0.0
 40
1.0
100
AcDbArc
 50
270.0
 51
0.0
  0
LINE
  5
7EC
330
7DB
100
AcDbEntity
  8
HEWI
100
AcDbLine
 10
17.05241255951773
 20
1161.163852411601
 30
0.0
 11
17.05241255951773
 21
1158.163852411602
 31
0.0
  0
LINE
  5
7ED
330
7DB
100
AcDbEntity
  8
HEWI
100
AcDbLine
 10
92.05241255951774
 20
1158.163852411602
 30
0.0
 11
92.05241255951774
 21
1161.163852411601
 31
0.0
  0
LINE
  5
7EE
330
7DB
100
AcDbEntity
  8
HEWI
100
AcDbLine
 10
92.05241255951774
 20
1161.163852411601
 30
0.0
 11
17.05241255951773
 21
1161.163852411601
 31
0.0
  0
LINE
  5
7EF
330
7DB
100
AcDbEntity
  8
HEWI
100
AcDbLine
 10
17.05241255951773
 20
1158.163852411602
 30
0.0
 11
17.05241255951773
 21
1155.163852411602
 31
0.0
  0
LINE
  5
7F0
330
7DB
100
AcDbEntity
  8
HEWI
100
AcDbLine
 10
17.05241255951773
 20
1155.163852411602
 30
0.0
 11
92.05241255951774
 21
1155.163852411602
 31
0.0
  0
LINE
  5
7F1
330
7DB
100
AcDbEntity
  8
HEWI
100
AcDbLine
 10
92.05241255951774
 20
1155.163852411602
 30
0.0
 11
92.05241255951774
 21
1158.163852411602
 31
0.0
  0
LINE
  5
7F2
330
7DB
100
AcDbEntity
  8
HEWI
100
AcDbLine
 10
303.4377160777231
 20
451.1638524116017
 30
0.0
 11
318.4377160777229
 21
451.1638524116017
 31
0.0
  0
LINE
  5
7F3
330
7DB
100
AcDbEntity
  8
HEWI
100
AcDbLine
 10
318.4377160777229
 20
451.1638524116015
 30
0.0
 11
288.4377160777229
 21
451.1638524116015
 31
0.0
  0
LINE
  5
7F4
330
7DB
100
AcDbEntity
  8
HEWI
100
AcDbLine
 10
92.05241255951774
 20
451.1638524116017
 30
0.0
 11
61.9819448815917
 21
451.1638524116017
 31
0.0
  0
LWPOLYLINE
  5
7F5
330
7DB
100
AcDbEntity
  8
HEWI
100
AcDbPolyline
 90
        4
 70
     0
 43
0.0
 10
62.05241255951772
 20
421.6638524116017
 10
17.05241255951773
 20
421.6638524116017
 10
17.05241255951773
 20
391.6638524116018
 10
77.01717872055474
 20
391.6638524116018
  0
LINE
  5
7F6
330
7DB
100
AcDbEntity
  8
HEWI
100
AcDbLine
 10
62.05241255951775
 20
406.6990862505647
 30
0.0
 11
62.05241255951768
 21
1155.163852411601
 31
0.0
  0
ARC
  5
7F7
330
7DB
100
AcDbEntity
  8
HEWI
100
AcDbCircle
 10
77.05241255951775
 20
406.6990862505647
 30
0.0
 40
15.0
100
AcDbArc
 50
180.0
 51
0.0
  0
LWPOLYLINE
  5
7F8
330
7DB
100
AcDbEntity
  8
HEWI
100
AcDbPolyline
 90
        4
 70
     0
 43
0.0
 10
1015.067672229132
 20
443.1638524116017
 10
1026.067672229131
 20
443.1638524116017
 10
1026.067672229131
 20
373.163852411602
 10
1015.067672229132
 20
373.163852411602
  0
LWPOLYLINE
  5
7F9
330
7DB
100
AcDbEntity
  8
HEWI
100
AcDbPolyline
 90
        2
 70
     0
 43
0.0
 10
1014.067672229131
 20
374.163852411602
 10
1014.067672229131
 20
442.1638524116017
  0
ARC
  5
7FA
330
7DB
100
AcDbEntity
  8
HEWI
100
AcDbCircle
 10
1015.067672229132
 20
442.1638524116017
 30
0.0
 40
1.0
100
AcDbArc
 50
90.0
 51
180.0
  0
ARC
  5
7FB
330
7DB
100
AcDbEntity
  8
HEWI
100
AcDbCircle
 10
1015.067672229132
 20
374.163852411602
 30
0.0
 40
1.0
100
AcDbArc
 50
180.0
 51
270.0
  0
LINE
  5
7FC
330
7DB
100
AcDbEntity
  8
HEWI
100
AcDbLine
 10
1014.067672229131
 20
411.163852411602
 30
0.0
 11
1014.067672229131
 21
408.1638524116018
 31
0.0
  0
LINE
  5
7FD
330
7DB
100
AcDbEntity
  8
HEWI
100
AcDbLine
 10
1014.067672229131
 20
408.1638524116018
 30
0.0
 11
1014.067672229131
 21
405.1638524116017
 31
0.0
  0
LINE
  5
7FE
330
7DB
100
AcDbEntity
  8
HEWI
100
AcDbLine
 10
939.0676722291315
 20
406.6990862505647
 30
0.0
 11
939.0676722291315
 21
1155.163852411602
 31
0.0
  0
ARC
  5
7FF
330
7DB
100
AcDbEntity
  8
HEWI
100
AcDbCircle
 10
954.0676722291316
 20
406.6990862505647
 30
0.0
 40
15.0
100
AcDbArc
 50
90.0
 51
270.0
  0
LINE
  5
800
330
7DB
100
AcDbEntity
  8
HEWI
100
AcDbLine
 10
968.9276332853372
 20
421.6903600259838
 30
0.0
 11
969.3583514005764
 21
1155.163852411602
 31
0.0
  0
LINE
  5
801
330
7DB
100
AcDbEntity
  8
HEWI
100
AcDbLine
 10
971.0676722291315
 20
1161.163852411601
 30
0.0
 11
939.0676722291315
 21
1161.163852411601
 31
0.0
  0
LWPOLYLINE
  5
802
330
7DB
100
AcDbEntity
  8
HEWI
100
AcDbPolyline
 90
        4
 70
     0
 43
0.0
 10
1015.067672229132
 20
1193.163852411602
 10
1026.067672229131
 20
1193.163852411602
 10
1026.067672229131
 20
1123.163852411602
 10
1015.067672229132
 20
1123.163852411602
  0
LWPOLYLINE
  5
803
330
7DB
100
AcDbEntity
  8
HEWI
100
AcDbPolyline
 90
        2
 70
     0
 43
0.0
 10
1014.067672229131
 20
1124.163852411601
 10
1014.067672229131
 20
1192.163852411602
  0
ARC
  5
804
330
7DB
100
AcDbEntity
  8
HEWI
100
AcDbCircle
 10
1015.067672229132
 20
1192.163852411602
 30
0.0
 40
1.0
100
AcDbArc
 50
90.0
 51
180.0
  0
ARC
  5
805
330
7DB
100
AcDbEntity
  8
HEWI
100
AcDbCircle
 10
1015.067672229132
 20
1124.163852411601
 30
0.0
 40
1.0
100
AcDbArc
 50
180.0
 51
270.0
  0
LINE
  5
806
330
7DB
100
AcDbEntity
  8
HEWI
100
AcDbLine
 10
1014.067672229131
 20
1161.163852411601
 30
0.0
 11
1014.067672229131
 21
1158.163852411602
 31
0.0
  0
LINE
  5
807
330
7DB
100
AcDbEntity
  8
HEWI
100
AcDbLine
 10
939.0676722291315
 20
1158.163852411602
 30
0.0
 11
939.0676722291315
 21
1161.163852411601
 31
0.0
  0
LINE
  5
808
330
7DB
100
AcDbEntity
  8
HEWI
100
AcDbLine
 10
939.0676722291315
 20
1161.163852411601
 30
0.0
 11
1014.067672229131
 21
1161.163852411601
 31
0.0
  0
LINE
  5
809
330
7DB
100
AcDbEntity
  8
HEWI
100
AcDbLine
 10
1014.067672229131
 20
1158.163852411602
 30
0.0
 11
1014.067672229131
 21
1155.163852411602
 31
0.0
  0
LINE
  5
80A
330
7DB
100
AcDbEntity
  8
HEWI
100
AcDbLine
 10
1014.067672229131
 20
1155.163852411602
 30
0.0
 11
939.0676722291315
 21
1155.163852411602
 31
0.0
  0
LINE
  5
80B
330
7DB
100
AcDbEntity
  8
HEWI
100
AcDbLine
 10
939.0676722291315
 20
1155.163852411602
 30
0.0
 11
939.0676722291315
 21
1158.163852411602
 31
0.0
  0
LINE
  5
80C
330
7DB
100
AcDbEntity
  8
HEWI
100
AcDbLine
 10
939.0676722291315
 20
451.1638524116017
 30
0.0
 11
969.1381399070577
 21
451.1638524116017
 31
0.0
  0
LWPOLYLINE
  5
80D
330
7DB
100
AcDbEntity
  8
HEWI
100
AcDbPolyline
 90
        4
 70
     0
 43
0.0
 10
954.0676722291316
 20
421.6990862505648
 10
1014.067672229131
 20
421.6638524116017
 10
1014.067672229131
 20
391.6638524116018
 10
954.1029060680946
 20
391.6638524116018
  0
LWPOLYLINE
  5
80E
330
7DB
100
AcDbEntity
  8
HEWI
100
AcDbPolyline
 90
        4
 70
     0
 43
0.0
 10
338.4377160777229
 20
289.5628331887966
 10
338.4377160777229
 20
300.5628331887966
 10
268.4377160777231
 20
300.5628331887966
 10
268.4377160777231
 20
289.5628331887966
  0
LWPOLYLINE
  5
80F
330
7DB
100
AcDbEntity
  8
HEWI
100
AcDbPolyline
 90
        2
 70
     0
 43
0.0
 10
269.437716077723
 20
288.5628331887966
 10
337.4377160777229
 20
288.5628331887966
  0
ARC
  5
810
330
7DB
100
AcDbEntity
  8
HEWI
100
AcDbCircle
 10
337.4377160777229
 20
289.5628331887966
 30
0.0
 40
1.0
100
AcDbArc
 50
270.0
 51
0.0
  0
ARC
  5
811
330
7DB
100
AcDbEntity
  8
HEWI
100
AcDbCircle
 10
269.437716077723
 20
289.5628331887966
 30
0.0
 40
1.0
100
AcDbArc
 50
180.0
 51
270.0
  0
LINE
  5
812
330
7DB
100
AcDbEntity
  8
HEWI
100
AcDbLine
 10
306.437716077723
 20
288.5628331887966
 30
0.0
 11
303.4377160777229
 21
288.5628331887966
 31
0.0
  0
LINE
  5
813
330
7DB
100
AcDbEntity
  8
HEWI
100
AcDbLine
 10
303.4377160777229
 20
288.5628331887966
 30
0.0
 11
300.437716077723
 21
288.5628331887966
 31
0.0
  0
LINE
  5
814
330
7DB
100
AcDbEntity
  8
HEWI
100
AcDbLine
 10
301.9729499166859
 20
213.5628331887966
 30
0.0
 11
800.4377160777231
 21
213.5628331887963
 31
0.0
  0
ARC
  5
815
330
7DB
100
AcDbEntity
  8
HEWI
100
AcDbCircle
 10
301.9729499166859
 20
228.5628331887966
 30
0.0
 40
15.0
100
AcDbArc
 50
90.0
 51
270.0
  0
LINE
  5
816
330
7DB
100
AcDbEntity
  8
HEWI
100
AcDbLine
 10
301.9729499166859
 20
243.5628331887966
 30
0.0
 11
423.437716077723
 21
243.5628331887965
 31
0.0
  0
LINE
  5
817
330
7DB
100
AcDbEntity
  8
HEWI
100
AcDbLine
 10
806.4377160777226
 20
245.5628331887964
 30
0.0
 11
806.4377160777226
 21
213.5628331887964
 31
0.0
  0
LWPOLYLINE
  5
818
330
7DB
100
AcDbEntity
  8
HEWI
100
AcDbPolyline
 90
        4
 70
     0
 43
0.0
 10
838.437716077723
 20
289.5628331887964
 10
838.437716077723
 20
300.5628331887964
 10
768.4377160777231
 20
300.5628331887964
 10
768.4377160777231
 20
289.5628331887964
  0
LWPOLYLINE
  5
819
330
7DB
100
AcDbEntity
  8
HEWI
100
AcDbPolyline
 90
        2
 70
     0
 43
0.0
 10
769.4377160777228
 20
288.5628331887964
 10
837.4377160777228
 20
288.5628331887964
  0
ARC
  5
81A
330
7DB
100
AcDbEntity
  8
HEWI
100
AcDbCircle
 10
837.4377160777228
 20
289.5628331887964
 30
0.0
 40
1.0
100
AcDbArc
 50
270.0
 51
0.0
  0
ARC
  5
81B
330
7DB
100
AcDbEntity
  8
HEWI
100
AcDbCircle
 10
769.4377160777228
 20
289.5628331887964
 30
0.0
 40
1.0
100
AcDbArc
 50
180.0
 51
270.0
  0
LINE
  5
81C
330
7DB
100
AcDbEntity
  8
HEWI
100
AcDbLine
 10
806.4377160777226
 20
288.5628331887964
 30
0.0
 11
803.4377160777228
 21
288.5628331887964
 31
0.0
  0
LINE
  5
81D
330
7DB
100
AcDbEntity
  8
HEWI
100
AcDbLine
 10
803.4377160777228
 20
213.5628331887964
 30
0.0
 11
806.4377160777226
 21
213.5628331887964
 31
0.0
  0
LINE
  5
81E
330
7DB
100
AcDbEntity
  8
HEWI
100
AcDbLine
 10
806.4377160777226
 20
213.5628331887964
 30
0.0
 11
806.4377160777226
 21
288.5628331887964
 31
0.0
  0
LINE
  5
81F
330
7DB
100
AcDbEntity
  8
HEWI
100
AcDbLine
 10
803.4377160777228
 20
288.5628331887964
 30
0.0
 11
800.4377160777231
 21
288.5628331887964
 31
0.0
  0
LINE
  5
820
330
7DB
100
AcDbEntity
  8
HEWI
100
AcDbLine
 10
800.4377160777231
 20
288.5628331887964
 30
0.0
 11
800.4377160777231
 21
213.5628331887964
 31
0.0
  0
LINE
  5
821
330
7DB
100
AcDbEntity
  8
HEWI
100
AcDbLine
 10
800.4377160777231
 20
213.5628331887964
 30
0.0
 11
803.4377160777228
 21
213.5628331887964
 31
0.0
  0
LINE
  5
822
330
7DB
100
AcDbEntity
  8
HEWI
100
AcDbLine
 10
346.4377160777228
 20
213.5628331887966
 30
0.0
 11
346.4377160777228
 21
243.6333008667226
 31
0.0
  0
LWPOLYLINE
  5
823
330
7DB
100
AcDbEntity
  8
HEWI
100
AcDbPolyline
 90
        4
 70
     0
 43
0.0
 10
316.937716077723
 20
243.5628331887966
 10
316.937716077723
 20
288.5628331887966
 10
286.9377160777229
 20
288.5628331887966
 10
286.9377160777229
 20
228.5980670277596
  0
LWPOLYLINE
  5
824
330
7DB
100
AcDbEntity
  8
HEWI
100
AcDbPolyline
 90
        4
 70
     1
 43
0.0
 10
800.4377160777231
 20
393.163852411602
 10
806.437716077723
 20
393.163852411602
 10
806.437716077723
 20
423.163852411602
 10
800.4377160777231
 20
423.163852411602
  0
LINE
  5
825
330
7DB
100
AcDbEntity
  8
HEWI
100
AcDbLine
 10
800.4377160777231
 20
423.163852411602
 30
0.0
 11
346.4377160777232
 21
423.163852411602
 31
0.0
  0
LINE
  5
826
330
7DB
100
AcDbEntity
  8
HEWI
100
AcDbLine
 10
800.4377160777231
 20
393.163852411602
 30
0.0
 11
346.4377160777232
 21
393.163852411602
 31
0.0
  0
ARC
  5
827
330
7DB
100
AcDbEntity
  8
HEWI
100
AcDbCircle
 10
303.4377160777231
 20
1158.163852411602
 30
0.0
 40
35.0
100
AcDbArc
 50
297.2028944122106
 51
242.7971055877893
  0
ARC
  5
828
330
7DB
100
AcDbEntity
  8
HEWI
100
AcDbCircle
 10
303.4377160777231
 20
1158.163852411602
 30
0.0
 40
17.5
100
AcDbArc
 50
328.9972808661281
 51
211.0027191338719
  0
LWPOLYLINE
  5
829
330
7DB
100
AcDbEntity
  8
HEWI
100
AcDbPolyline
 90
        4
 70
     1
 43
0.0
 10
318.4377160777229
 20
1155.163852411602
 10
318.4377160777229
 20
1161.163852411602
 10
288.437716077723
 20
1161.163852411602
 10
288.437716077723
 20
1155.163852411602
  0
LINE
  5
82A
330
7DB
100
AcDbEntity
  8
HEWI
100
AcDbLine
 10
288.437716077723
 20
1155.163852411602
 30
0.0
 11
288.437716077723
 21
451.1638524116015
 31
0.0
  0
LINE
  5
82B
330
7DB
100
AcDbEntity
  8
HEWI
100
AcDbLine
 10
318.4377160777231
 20
1155.163852411602
 30
0.0
 11
318.4377160777229
 21
451.1638524116015
 31
0.0
  0
ARC
  5
82C
330
7DB
100
AcDbEntity
  8
HEWI
100
AcDbCircle
 10
346.4377160777232
 20
451.1638524116015
 30
0.0
 40
58.00000000000029
100
AcDbArc
 50
180.0
 51
270.0000000000001
  0
ARC
  5
82D
330
7DB
100
AcDbEntity
  8
HEWI
100
AcDbCircle
 10
346.4377160777232
 20
451.1638524116015
 30
0.0
 40
28.00000000000029
100
AcDbArc
 50
180.0
 51
270.0000000000001
  0
ARC
  5
82E
330
7DB
100
AcDbEntity
  8
HEWI
100
AcDbCircle
 10
426.437716077723
 20
408.1638524116018
 30
0.0
 40
35.0
100
AcDbArc
 50
207.2028944122106
 51
334.6230664748481
  0
ARC
  5
82F
330
7DB
100
AcDbEntity
  8
HEWI
100
AcDbCircle
 10
426.437716077723
 20
408.1638524116018
 30
0.0
 40
17.5
100
AcDbArc
 50
238.9972808661247
 51
301.0027191338755
  0
LINE
  5
830
330
7DB
100
AcDbEntity
  8
HEWI
100
AcDbLine
 10
429.4377160777226
 20
245.5628331887964
 30
0.0
 11
429.4377160777226
 21
213.5628331887964
 31
0.0
  0
LWPOLYLINE
  5
831
330
7DB
100
AcDbEntity
  8
HEWI
100
AcDbPolyline
 90
        4
 70
     0
 43
0.0
 10
461.4377160777229
 20
289.5628331887964
 10
461.4377160777229
 20
300.5628331887964
 10
391.4377160777232
 20
300.5628331887964
 10
391.4377160777232
 20
289.5628331887964
  0
LWPOLYLINE
  5
832
330
7DB
100
AcDbEntity
  8
HEWI
100
AcDbPolyline
 90
        2
 70
     0
 43
0.0
 10
392.4377160777228
 20
288.5628331887964
 10
460.4377160777227
 20
288.5628331887964
  0
ARC
  5
833
330
7DB
100
AcDbEntity
  8
HEWI
100
AcDbCircle
 10
460.4377160777227
 20
289.5628331887964
 30
0.0
 40
1.0
100
AcDbArc
 50
270.0
 51
0.0
  0
ARC
  5
834
330
7DB
100
AcDbEntity
  8
HEWI
100
AcDbCircle
 10
392.4377160777228
 20
289.5628331887964
 30
0.0
 40
1.0
100
AcDbArc
 50
180.0
 51
270.0
  0
LINE
  5
835
330
7DB
100
AcDbEntity
  8
HEWI
100
AcDbLine
 10
429.4377160777226
 20
288.5628331887964
 30
0.0
 11
426.4377160777227
 21
288.5628331887964
 31
0.0
  0
LINE
  5
836
330
7DB
100
AcDbEntity
  8
HEWI
100
AcDbLine
 10
426.4377160777227
 20
213.5628331887964
 30
0.0
 11
429.4377160777226
 21
213.5628331887964
 31
0.0
  0
LINE
  5
837
330
7DB
100
AcDbEntity
  8
HEWI
100
AcDbLine
 10
429.4377160777226
 20
213.5628331887964
 30
0.0
 11
429.4377160777226
 21
288.5628331887964
 31
0.0
  0
LINE
  5
838
330
7DB
100
AcDbEntity
  8
HEWI
100
AcDbLine
 10
426.4377160777227
 20
288.5628331887964
 30
0.0
 11
423.437716077723
 21
288.5628331887964
 31
0.0
  0
LINE
  5
839
330
7DB
100
AcDbEntity
  8
HEWI
100
AcDbLine
 10
423.437716077723
 20
288.5628331887964
 30
0.0
 11
423.437716077723
 21
213.5628331887964
 31
0.0
  0
LINE
  5
83A
330
7DB
100
AcDbEntity
  8
HEWI
100
AcDbLine
 10
423.437716077723
 20
213.5628331887964
 30
0.0
 11
426.4377160777227
 21
213.5628331887964
 31
0.0
  0
LWPOLYLINE
  5
83B
330
7DB
100
AcDbEntity
  8
HEWI
100
AcDbPolyline
 90
        4
 70
     1
 43
0.0
 10
423.437716077723
 20
393.163852411602
 10
429.4377160777229
 20
393.163852411602
 10
429.4377160777229
 20
423.163852411602
 10
423.437716077723
 20
423.163852411602
  0
LINE
  5
83C
330
7DB
100
AcDbEntity
  8
HEWI
100
AcDbLine
 10
429.4377160777226
 20
243.5628331887965
 30
0.0
 11
800.4377160777231
 21
243.5628331887961
 31
0.0
  0
ARC
  5
83D
330
7DB
100
AcDbEntity
  8
HEWI
100
AcDbCircle
 10
426.437716077723
 20
408.1638524116018
 30
0.0
 40
35.0
100
AcDbArc
 50
25.37693352515282
 51
152.7971055877893
  0
ARC
  5
83E
330
7DB
100
AcDbEntity
  8
HEWI
100
AcDbCircle
 10
426.437716077723
 20
408.1638524116018
 30
0.0
 40
17.5
100
AcDbArc
 50
58.99728086612771
 51
121.0027191338723
  0
ENDBLK
  5
842
330
7DB
100
AcDbEntity
  8
0
100
AcDbBlockEnd
  0
BLOCK
  5
995
330
994
100
AcDbEntity
  8
0
100
AcDbBlockBegin
  2
*D14
 70
     1
 10
0.0
 20
0.0
 30
0.0
  3
*D14
  1

  0
LINE
  5
997
330
994
100
AcDbEntity
  8
0
 62
     0
440
 16777216
370
    -2
100
AcDbLine
 10
1666.317757830797
 20
358.155810888884
 30
0.0
 11
1707.832368656876
 21
358.155810888884
 31
0.0
  0
LINE
  5
998
330
994
100
AcDbEntity
  8
0
 62
     0
440
 16777216
370
    -2
100
AcDbLine
 10
1666.317757830797
 20
460.1558108888835
 30
0.0
 11
1707.832368656876
 21
460.1558108888835
 31
0.0
  0
LINE
  5
999
330
994
100
AcDbEntity
  8
0
 62
     0
440
 16777216
370
    -2
100
AcDbLine
 10
1707.652368656876
 20
358.335810888884
 30
0.0
 11
1707.652368656876
 21
408.9758108888837
 31
0.0
  0
LINE
  5
99A
330
994
100
AcDbEntity
  8
0
 62
     0
440
 16777216
370
    -2
100
AcDbLine
 10
1707.652368656876
 20
459.9758108888835
 30
0.0
 11
1707.652368656876
 21
409.3358108888837
 31
0.0
  0
SOLID
  5
99B
330
994
100
AcDbEntity
  8
0
 62
     0
440
 16777216
100
AcDbTrace
 10
1707.622368656876
 20
358.335810888884
 30
0.0
 11
1707.682368656876
 21
358.335810888884
 31
0.0
 12
1707.652368656876
 22
358.155810888884
 32
0.0
 13
1707.652368656876
 23
358.155810888884
 33
0.0
  0
SOLID
  5
99C
330
994
100
AcDbEntity
  8
0
 62
     0
440
 16777216
100
AcDbTrace
 10
1707.622368656876
 20
459.9758108888835
 30
0.0
 11
1707.682368656876
 21
459.9758108888835
 31
0.0
 12
1707.652368656876
 22
460.1558108888835
 32
0.0
 13
1707.652368656876
 23
460.1558108888835
 33
0.0
  0
MTEXT
  5
99D
330
994
100
AcDbEntity
  8
0
 62
     0
440
 16777216
100
AcDbMText
 10
1707.652368656876
 20
409.155810888884
 30
0.0
 40
0.18
 41
0.0
 46
0.0
 71
     5
 72
     1
  1
\A1;102.0000
 73
     1
 44
1.0
  0
POINT
  5
99E
330
994
100
AcDbEntity
  8
Defpoints
 62
     0
440
 16777216
100
AcDbPoint
 10
1666.255257830797
 20
358.155810888884
 30
0.0
  0
POINT
  5
99F
330
994
100
AcDbEntity
  8
Defpoints
 62
     0
440
 16777216
100
AcDbPoint
 10
1666.255257830797
 20
460.1558108888835
 30
0.0
  0
POINT
  5
9A0
330
994
100
AcDbEntity
  8
Defpoints
 62
     0
440
 16777216
100
AcDbPoint
 10
1707.652368656876
 20
460.1558108888835
 30
0.0
  0
ENDBLK
  5
996
330
994
100
AcDbEntity
  8
0
100
AcDbBlockEnd
  0
BLOCK
  5
B25
330
B24
100
AcDbEntity
  8
0
100
AcDbBlockBegin
  2
*D15
 70
     1
 10
0.0
 20
0.0
 30
0.0
  3
*D15
  1

  0
LINE
  5
B27
330
B24
100
AcDbEntity
  8
0
 62
     0
440
 16777216
370
    -2
100
AcDbLine
 10
948.1582837530876
 20
1143.309867871556
 30
0.0
 11
948.1582837530876
 21
1034.163405043779
 31
0.0
  0
LINE
  5
B28
330
B24
100
AcDbEntity
  8
0
 62
     0
440
 16777216
370
    -2
100
AcDbLine
 10
978.4420281603672
 20
1143.292084328662
 30
0.0
 11
978.4420281603672
 21
1034.163405043779
 31
0.0
  0
LINE
  5
B29
330
B24
100
AcDbEntity
  8
0
 62
     0
440
 16777216
370
    -2
100
AcDbLine
 10
948.3382837530875
 20
1034.343405043779
 30
0.0
 11
962.6851559567274
 21
1034.343405043779
 31
0.0
  0
LINE
  5
B2A
330
B24
100
AcDbEntity
  8
0
 62
     0
440
 16777216
370
    -2
100
AcDbLine
 10
978.2620281603673
 20
1034.343405043779
 30
0.0
 11
963.9151559567274
 21
1034.343405043779
 31
0.0
  0
SOLID
  5
B2B
330
B24
100
AcDbEntity
  8
0
 62
     0
440
 16777216
100
AcDbTrace
 10
948.3382837530875
 20
1034.373405043779
 30
0.0
 11
948.3382837530875
 21
1034.313405043779
 31
0.0
 12
948.1582837530876
 22
1034.343405043779
 32
0.0
 13
948.1582837530876
 23
1034.343405043779
 33
0.0
  0
SOLID
  5
B2C
330
B24
100
AcDbEntity
  8
0
 62
     0
440
 16777216
100
AcDbTrace
 10
978.2620281603673
 20
1034.373405043779
 30
0.0
 11
978.2620281603673
 21
1034.313405043779
 31
0.0
 12
978.4420281603672
 22
1034.343405043779
 32
0.0
 13
978.4420281603672
 23
1034.343405043779
 33
0.0
  0
MTEXT
  5
B2D
330
B24
100
AcDbEntity
  8
0
 62
     0
440
 16777216
100
AcDbMText
 10
963.3001559567274
 20
1034.343405043779
 30
0.0
 40
0.18
 41
0.0
 46
0.0
 71
     5
 72
     1
  1
\A1;30.2837
 73
     1
 44
1.0
  0
POINT
  5
B2E
330
B24
100
AcDbEntity
  8
Defpoints
 62
     0
440
 16777216
100
AcDbPoint
 10
948.1582837530876
 20
1143.372367871556
 30
0.0
  0
POINT
  5
B2F
330
B24
100
AcDbEntity
  8
Defpoints
 62
     0
440
 16777216
100
AcDbPoint
 10
978.4420281603672
 20
1143.354584328662
 30
0.0
  0
POINT
  5
B30
330
B24
100
AcDbEntity
  8
Defpoints
 62
     0
440
 16777216
100
AcDbPoint
 10
978.4420281603672
 20
1034.343405043779
 30
0.0
  0
ENDBLK
  5
B26
330
B24
100
AcDbEntity
  8
0
100
AcDbBlockEnd
  0
BLOCK
  5
B33
330
B32
100
AcDbEntity
  8
0
100
AcDbBlockBegin
  2
*D16
 70
     1
 10
0.0
 20
0.0
 30
0.0
  3
*D16
  1

  0
LINE
  5
B35
330
B32
100
AcDbEntity
  8
0
 62
     0
440
 16777216
370
    -2
100
AcDbLine
 10
312.4658276016788
 20
1411.163852411602
 30
0.0
 11
212.2163994853186
 21
1411.163852411602
 31
0.0
  0
LINE
  5
B36
330
B32
100
AcDbEntity
  8
0
 62
     0
440
 16777216
370
    -2
100
AcDbLine
 10
355.4658276016791
 20
408.163852411602
 30
0.0
 11
212.2163994853184
 21
408.163852411602
 31
0.0
  0
LINE
  5
B37
330
B32
100
AcDbEntity
  8
0
 62
     0
440
 16777216
370
    -2
100
AcDbLine
 10
212.3963994853186
 20
1410.983852411602
 30
0.0
 11
212.3963994853185
 21
909.8438524116019
 31
0.0
  0
LINE
  5
B38
330
B32
100
AcDbEntity
  8
0
 62
     0
440
 16777216
370
    -2
100
AcDbLine
 10
212.3963994853184
 20
408.343852411602
 30
0.0
 11
212.3963994853185
 21
909.4838524116021
 31
0.0
  0
SOLID
  5
B39
330
B32
100
AcDbEntity
  8
0
 62
     0
440
 16777216
100
AcDbTrace
 10
212.3663994853186
 20
1410.983852411602
 30
0.0
 11
212.4263994853186
 21
1410.983852411602
 31
0.0
 12
212.3963994853186
 22
1411.163852411602
 32
0.0
 13
212.3963994853186
 23
1411.163852411602
 33
0.0
  0
SOLID
  5
B3A
330
B32
100
AcDbEntity
  8
0
 62
     0
440
 16777216
100
AcDbTrace
 10
212.3663994853184
 20
408.343852411602
 30
0.0
 11
212.4263994853184
 21
408.343852411602
 31
0.0
 12
212.3963994853184
 22
408.163852411602
 32
0.0
 13
212.3963994853184
 23
408.163852411602
 33
0.0
  0
MTEXT
  5
B3B
330
B32
100
AcDbEntity
  8
0
 62
     0
440
 16777216
100
AcDbMText
 10
212.3963994853184
 20
909.663852411602
 30
0.0
 40
0.18
 41
0.0
 46
0.0
 71
     5
 72
     1
  1
\A1;1003.0000
 73
     1
 44
1.0
  0
POINT
  5
B3C
330
B32
100
AcDbEntity
  8
Defpoints
 62
     0
440
 16777216
100
AcDbPoint
 10
312.5283276016788
 20
1411.163852411602
 30
0.0
  0
POINT
  5
B3D
330
B32
100
AcDbEntity
  8
Defpoints
 62
     0
440
 16777216
100
AcDbPoint
 10
355.528327601679
 20
408.163852411602
 30
0.0
  0
POINT
  5
B3E
330
B32
100
AcDbEntity
  8
Defpoints
 62
     0
440
 16777216
100
AcDbPoint
 10
212.3963994853184
 20
408.163852411602
 30
0.0
  0
ENDBLK
  5
B34
330
B32
100
AcDbEntity
  8
0
100
AcDbBlockEnd
  0
BLOCK
  5
B41
330
B40
100
AcDbEntity
  8
0
100
AcDbBlockBegin
  2
*D17
 70
     1
 10
0.0
 20
0.0
 30
0.0
  3
*D17
  1

  0
LINE
  5
B43
330
B40
100
AcDbEntity
  8
0
 62
     0
440
 16777216
370
    -2
100
AcDbLine
 10
812.5283276016789
 20
120.0898965195227
 30
0.0
 11
812.5283276016789
 21
-74.29771204568504
 31
0.0
  0
LINE
  5
B44
330
B40
100
AcDbEntity
  8
0
 62
     0
440
 16777216
370
    -2
100
AcDbLine
 10
312.5283276016788
 20
120.089896519523
 30
0.0
 11
312.5283276016788
 21
-74.29771204568504
 31
0.0
  0
LINE
  5
B45
330
B40
100
AcDbEntity
  8
0
 62
     0
440
 16777216
370
    -2
100
AcDbLine
 10
812.348327601679
 20
-74.11771204568504
 30
0.0
 11
563.1583276016789
 21
-74.11771204568504
 31
0.0
  0
LINE
  5
B46
330
B40
100
AcDbEntity
  8
0
 62
     0
440
 16777216
370
    -2
100
AcDbLine
 10
312.7083276016788
 20
-74.11771204568504
 30
0.0
 11
561.8983276016789
 21
-74.11771204568504
 31
0.0
  0
SOLID
  5
B47
330
B40
100
AcDbEntity
  8
0
 62
     0
440
 16777216
100
AcDbTrace
 10
812.348327601679
 20
-74.08771204568504
 30
0.0
 11
812.348327601679
 21
-74.14771204568504
 31
0.0
 12
812.5283276016789
 22
-74.11771204568504
 32
0.0
 13
812.5283276016789
 23
-74.11771204568504
 33
0.0
  0
SOLID
  5
B48
330
B40
100
AcDbEntity
  8
0
 62
     0
440
 16777216
100
AcDbTrace
 10
312.7083276016788
 20
-74.08771204568504
 30
0.0
 11
312.7083276016788
 21
-74.14771204568504
 31
0.0
 12
312.5283276016788
 22
-74.11771204568504
 32
0.0
 13
312.5283276016788
 23
-74.11771204568504
 33
0.0
  0
MTEXT
  5
B49
330
B40
100
AcDbEntity
  8
0
 62
     0
440
 16777216
100
AcDbMText
 10
562.5283276016789
 20
-74.11771204568504
 30
0.0
 40
0.18
 41
0.0
 46
0.0
 71
     5
 72
     1
  1
\A1;500.0000
 73
     1
 44
1.0
  0
POINT
  5
B4A
330
B40
100
AcDbEntity
  8
Defpoints
 62
     0
440
 16777216
100
AcDbPoint
 10
812.5283276016789
 20
120.1523965195227
 30
0.0
  0
POINT
  5
B4B
330
B40
100
AcDbEntity
  8
Defpoints
 62
     0
440
 16777216
100
AcDbPoint
 10
312.5283276016788
 20
120.152396519523
 30
0.0
  0
POINT
  5
B4C
330
B40
100
AcDbEntity
  8
Defpoints
 62
     0
440
 16777216
100
AcDbPoint
 10
312.5283276016788
 20
-74.11771204568504
 30
0.0
  0
ENDBLK
  5
B42
330
B40
100
AcDbEntity
  8
0
100
AcDbBlockEnd
  0
BLOCK
  5
B4F
330
B4E
100
AcDbEntity
  8
0
100
AcDbBlockBegin
  2
*D18
 70
     1
 10
0.0
 20
0.0
 30
0.0
  3
*D18
  1

  0
LINE
  5
B51
330
B4E
100
AcDbEntity
  8
0
 62
     0
440
 16777216
370
    -2
100
AcDbLine
 10
312.5283276016787
 20
451.2263524116015
 30
0.0
 11
312.5283276016787
 21
622.9592108662034
 31
0.0
  0
LINE
  5
B52
330
B4E
100
AcDbEntity
  8
0
 62
     0
440
 16777216
370
    -2
100
AcDbLine
 10
715.5283276016788
 20
408.226352411602
 30
0.0
 11
715.5283276016788
 21
622.9592108662034
 31
0.0
  0
LINE
  5
B53
330
B4E
100
AcDbEntity
  8
0
 62
     0
440
 16777216
370
    -2
100
AcDbLine
 10
312.7083276016787
 20
622.7792108662034
 30
0.0
 11
513.3833276016788
 21
622.7792108662034
 31
0.0
  0
LINE
  5
B54
330
B4E
100
AcDbEntity
  8
0
 62
     0
440
 16777216
370
    -2
100
AcDbLine
 10
715.3483276016788
 20
622.7792108662034
 30
0.0
 11
514.6733276016788
 21
622.7792108662034
 31
0.0
  0
SOLID
  5
B55
330
B4E
100
AcDbEntity
  8
0
 62
     0
440
 16777216
100
AcDbTrace
 10
312.7083276016787
 20
622.8092108662033
 30
0.0
 11
312.7083276016787
 21
622.7492108662033
 31
0.0
 12
312.5283276016787
 22
622.7792108662034
 32
0.0
 13
312.5283276016787
 23
622.7792108662034
 33
0.0
  0
SOLID
  5
B56
330
B4E
100
AcDbEntity
  8
0
 62
     0
440
 16777216
100
AcDbTrace
 10
715.3483276016788
 20
622.8092108662033
 30
0.0
 11
715.3483276016788
 21
622.7492108662033
 31
0.0
 12
715.5283276016788
 22
622.7792108662034
 32
0.0
 13
715.5283276016788
 23
622.7792108662034
 33
0.0
  0
MTEXT
  5
B57
330
B4E
100
AcDbEntity
  8
0
 62
     0
440
 16777216
100
AcDbMText
 10
514.0283276016788
 20
622.7792108662034
 30
0.0
 40
0.18
 41
0.0
 46
0.0
 71
     5
 72
     1
  1
\A1;403.0000
 73
     1
 44
1.0
  0
POINT
  5
B58
330
B4E
100
AcDbEntity
  8
Defpoints
 62
     0
440
 16777216
100
AcDbPoint
 10
312.5283276016787
 20
451.1638524116015
 30
0.0
  0
POINT
  5
B59
330
B4E
100
AcDbEntity
  8
Defpoints
 62
     0
440
 16777216
100
AcDbPoint
 10
715.5283276016788
 20
408.163852411602
 30
0.0
  0
POINT
  5
B5A
330
B4E
100
AcDbEntity
  8
Defpoints
 62
     0
440
 16777216
100
AcDbPoint
 10
715.5283276016788
 20
622.7792108662034
 30
0.0
  0
ENDBLK
  5
B50
330
B4E
100
AcDbEntity
  8
0
100
AcDbBlockEnd
  0
ENDSEC
  0
SECTION
  2
ENTITIES
  0
ARC
  5
353
330
1F
100
AcDbEntity
  8
HEWI
100
AcDbCircle
 10
435.5283276016786
 20
408.1638524116018
 30
0.0
 40
35.0
100
AcDbArc
 50
27.20289441221446
 51
332.7971055877859
  0
ARC
  5
3EB
330
1F
100
AcDbEntity
  8
HEWI
100
AcDbCircle
 10
435.5283276016786
 20
408.1638524116018
 30
0.0
 40
17.5
100
AcDbArc
 50
58.99728086612812
 51
301.0027191338719
  0
LINE
  5
482
330
1F
100
AcDbEntity
  8
HEWI
100
AcDbLine
 10
792.5283276016783
 20
393.163852411602
 30
0.0
 11
792.5283276016783
 21
423.163852411602
 31
0.0
  0
LINE
  5
48A
330
1F
100
AcDbEntity
  8
HEWI
100
AcDbLine
 10
820.5283276016787
 20
451.1638524116017
 30
0.0
 11
850.5283276016784
 21
451.1638524116017
 31
0.0
  0
LWPOLYLINE
  5
4C8
330
1F
100
AcDbEntity
  8
HEWI
100
AcDbPolyline
 90
        4
 70
     0
 43
0.0
 10
1122.913631119883
 20
443.1638524116017
 10
1133.913631119884
 20
443.1638524116017
 10
1133.913631119884
 20
373.163852411602
 10
1122.913631119883
 20
373.163852411602
  0
LWPOLYLINE
  5
4C9
330
1F
100
AcDbEntity
  8
HEWI
100
AcDbPolyline
 90
        2
 70
     0
 43
0.0
 10
1121.913631119884
 20
374.163852411602
 10
1121.913631119884
 20
442.1638524116017
  0
ARC
  5
4CA
330
1F
100
AcDbEntity
  8
HEWI
100
AcDbCircle
 10
1122.913631119883
 20
442.1638524116017
 30
0.0
 40
1.0
100
AcDbArc
 50
90.0
 51
180.0
  0
ARC
  5
4CB
330
1F
100
AcDbEntity
  8
HEWI
100
AcDbCircle
 10
1122.913631119883
 20
374.163852411602
 30
0.0
 40
1.0
100
AcDbArc
 50
180.0
 51
270.0
  0
LINE
  5
4CC
330
1F
100
AcDbEntity
  8
HEWI
100
AcDbLine
 10
1121.913631119884
 20
411.163852411602
 30
0.0
 11
1121.913631119884
 21
408.1638524116018
 31
0.0
  0
LINE
  5
4CD
330
1F
100
AcDbEntity
  8
HEWI
100
AcDbLine
 10
1121.913631119884
 20
408.1638524116018
 30
0.0
 11
1121.913631119884
 21
405.1638524116017
 31
0.0
  0
LINE
  5
4D1
330
1F
100
AcDbEntity
  8
HEWI
100
AcDbLine
 10
1046.913631119884
 20
406.6990862505647
 30
0.0
 11
1046.913631119884
 21
1305.163852411602
 31
0.0
  0
LINE
  5
4D3
330
1F
100
AcDbEntity
  8
HEWI
100
AcDbLine
 10
1078.913631119884
 20
1311.163852411601
 30
0.0
 11
1046.913631119884
 21
1311.163852411601
 31
0.0
  0
LWPOLYLINE
  5
4D4
330
1F
100
AcDbEntity
  8
HEWI
100
AcDbPolyline
 90
        4
 70
     0
 43
0.0
 10
1122.913631119883
 20
1343.163852411602
 10
1133.913631119884
 20
1343.163852411602
 10
1133.913631119884
 20
1273.163852411602
 10
1122.913631119883
 20
1273.163852411602
  0
LWPOLYLINE
  5
4D5
330
1F
100
AcDbEntity
  8
HEWI
100
AcDbPolyline
 90
        2
 70
     0
 43
0.0
 10
1121.913631119884
 20
1274.163852411601
 10
1121.913631119884
 20
1342.163852411602
  0
ARC
  5
4D6
330
1F
100
AcDbEntity
  8
HEWI
100
AcDbCircle
 10
1122.913631119883
 20
1342.163852411602
 30
0.0
 40
1.0
100
AcDbArc
 50
90.0
 51
180.0
  0
ARC
  5
4D7
330
1F
100
AcDbEntity
  8
HEWI
100
AcDbCircle
 10
1122.913631119883
 20
1274.163852411601
 30
0.0
 40
1.0
100
AcDbArc
 50
180.0
 51
270.0
  0
LINE
  5
4D8
330
1F
100
AcDbEntity
  8
HEWI
100
AcDbLine
 10
1121.913631119884
 20
1311.163852411601
 30
0.0
 11
1121.913631119884
 21
1308.163852411602
 31
0.0
  0
LINE
  5
4D9
330
1F
100
AcDbEntity
  8
HEWI
100
AcDbLine
 10
1046.913631119884
 20
1308.163852411602
 30
0.0
 11
1046.913631119884
 21
1311.163852411601
 31
0.0
  0
LINE
  5
4DA
330
1F
100
AcDbEntity
  8
HEWI
100
AcDbLine
 10
1046.913631119884
 20
1311.163852411601
 30
0.0
 11
1121.913631119884
 21
1311.163852411601
 31
0.0
  0
LINE
  5
4DB
330
1F
100
AcDbEntity
  8
HEWI
100
AcDbLine
 10
1121.913631119884
 20
1308.163852411602
 30
0.0
 11
1121.913631119884
 21
1305.163852411602
 31
0.0
  0
LINE
  5
4DC
330
1F
100
AcDbEntity
  8
HEWI
100
AcDbLine
 10
1121.913631119884
 20
1305.163852411602
 30
0.0
 11
1046.913631119884
 21
1305.163852411602
 31
0.0
  0
LINE
  5
4DD
330
1F
100
AcDbEntity
  8
HEWI
100
AcDbLine
 10
1046.913631119884
 20
1305.163852411602
 30
0.0
 11
1046.913631119884
 21
1308.163852411602
 31
0.0
  0
LINE
  5
4EB
330
1F
100
AcDbEntity
  8
HEWI
100
AcDbLine
 10
835.5283276016784
 20
451.1638524116017
 30
0.0
 11
820.5283276016787
 21
451.1638524116017
 31
0.0
  0
LINE
  5
4F0
330
1F
100
AcDbEntity
  8
HEWI
100
AcDbLine
 10
820.5283276016787
 20
451.1638524116015
 30
0.0
 11
850.5283276016786
 21
451.1638524116015
 31
0.0
  0
LINE
  5
4F1
330
1F
100
AcDbEntity
  8
HEWI
100
AcDbLine
 10
1046.913631119884
 20
451.1638524116017
 30
0.0
 11
1076.98409879781
 21
451.1638524116017
 31
0.0
  0
LWPOLYLINE
  5
553
330
1F
100
AcDbEntity
  8
HEWI
100
AcDbPolyline
 90
        4
 70
     0
 43
0.0
 10
1076.913631119884
 20
421.6638524116017
 10
1121.913631119884
 20
421.6638524116017
 10
1121.913631119884
 20
391.6638524116018
 10
1061.948864958847
 20
391.6638524116018
  0
LINE
  5
562
330
1F
100
AcDbEntity
  8
HEWI
100
AcDbLine
 10
1076.913631119884
 20
406.6990862505647
 30
0.0
 11
1076.913631119884
 21
1305.163852411602
 31
0.0
  0
ARC
  5
563
330
1F
100
AcDbEntity
  8
HEWI
100
AcDbCircle
 10
1061.913631119884
 20
406.6990862505647
 30
0.0
 40
15.0
100
AcDbArc
 50
180.0
 51
0.000000000000007
  0
LWPOLYLINE
  5
564
330
1F
100
AcDbEntity
  8
HEWI
100
AcDbPolyline
 90
        4
 70
     0
 43
0.0
 10
223.8983714502697
 20
443.1638524116017
 10
212.8983714502706
 20
443.1638524116017
 10
212.8983714502706
 20
373.163852411602
 10
223.8983714502697
 20
373.163852411602
  0
LWPOLYLINE
  5
565
330
1F
100
AcDbEntity
  8
HEWI
100
AcDbPolyline
 90
        2
 70
     0
 43
0.0
 10
224.8983714502705
 20
374.163852411602
 10
224.8983714502705
 20
442.1638524116017
  0
ARC
  5
566
330
1F
100
AcDbEntity
  8
HEWI
100
AcDbCircle
 10
223.8983714502697
 20
442.1638524116017
 30
0.0
 40
1.0
100
AcDbArc
 50
0.000000000000007
 51
90.0
  0
ARC
  5
567
330
1F
100
AcDbEntity
  8
HEWI
100
AcDbCircle
 10
223.8983714502697
 20
374.163852411602
 30
0.0
 40
1.0
100
AcDbArc
 50
270.0
 51
0.000000000000007
  0
LINE
  5
568
330
1F
100
AcDbEntity
  8
HEWI
100
AcDbLine
 10
224.8983714502705
 20
411.163852411602
 30
0.0
 11
224.8983714502705
 21
408.1638524116018
 31
0.0
  0
LINE
  5
569
330
1F
100
AcDbEntity
  8
HEWI
100
AcDbLine
 10
224.8983714502705
 20
408.1638524116018
 30
0.0
 11
224.8983714502705
 21
405.1638524116017
 31
0.0
  0
LINE
  5
56A
330
1F
100
AcDbEntity
  8
HEWI
100
AcDbLine
 10
299.8983714502699
 20
406.6990862505647
 30
0.0
 11
299.8983714502699
 21
1305.163852411602
 31
0.0
  0
ARC
  5
56B
330
1F
100
AcDbEntity
  8
HEWI
100
AcDbCircle
 10
284.8983714502699
 20
406.6990862505647
 30
0.0
 40
15.0
100
AcDbArc
 50
270.0
 51
90.0
  0
LINE
  5
56C
330
1F
100
AcDbEntity
  8
HEWI
100
AcDbLine
 10
270.0384103940643
 20
421.6903600259838
 30
0.0
 11
269.5196076814177
 21
1305.163852411602
 31
0.0
  0
LINE
  5
56D
330
1F
100
AcDbEntity
  8
HEWI
100
AcDbLine
 10
267.8983714502699
 20
1311.163852411601
 30
0.0
 11
299.8983714502699
 21
1311.163852411601
 31
0.0
  0
LWPOLYLINE
  5
56E
330
1F
100
AcDbEntity
  8
HEWI
100
AcDbPolyline
 90
        4
 70
     0
 43
0.0
 10
223.8983714502697
 20
1343.163852411602
 10
212.8983714502706
 20
1343.163852411602
 10
212.8983714502706
 20
1273.163852411602
 10
223.8983714502697
 20
1273.163852411602
  0
LWPOLYLINE
  5
56F
330
1F
100
AcDbEntity
  8
HEWI
100
AcDbPolyline
 90
        2
 70
     0
 43
0.0
 10
224.8983714502705
 20
1274.163852411601
 10
224.8983714502705
 20
1342.163852411602
  0
ARC
  5
570
330
1F
100
AcDbEntity
  8
HEWI
100
AcDbCircle
 10
223.8983714502697
 20
1342.163852411602
 30
0.0
 40
1.0
100
AcDbArc
 50
0.000000000000007
 51
90.0
  0
ARC
  5
571
330
1F
100
AcDbEntity
  8
HEWI
100
AcDbCircle
 10
223.8983714502697
 20
1274.163852411601
 30
0.0
 40
1.0
100
AcDbArc
 50
270.0
 51
0.000000000000007
  0
LINE
  5
572
330
1F
100
AcDbEntity
  8
HEWI
100
AcDbLine
 10
224.8983714502705
 20
1311.163852411601
 30
0.0
 11
224.8983714502705
 21
1308.163852411602
 31
0.0
  0
LINE
  5
573
330
1F
100
AcDbEntity
  8
HEWI
100
AcDbLine
 10
299.8983714502699
 20
1308.163852411602
 30
0.0
 11
299.8983714502699
 21
1311.163852411601
 31
0.0
  0
LINE
  5
574
330
1F
100
AcDbEntity
  8
HEWI
100
AcDbLine
 10
299.8983714502699
 20
1311.163852411601
 30
0.0
 11
224.8983714502705
 21
1311.163852411601
 31
0.0
  0
LINE
  5
575
330
1F
100
AcDbEntity
  8
HEWI
100
AcDbLine
 10
224.8983714502705
 20
1308.163852411602
 30
0.0
 11
224.8983714502705
 21
1305.163852411602
 31
0.0
  0
LINE
  5
576
330
1F
100
AcDbEntity
  8
HEWI
100
AcDbLine
 10
224.8983714502705
 20
1305.163852411602
 30
0.0
 11
299.8983714502699
 21
1305.163852411602
 31
0.0
  0
LINE
  5
577
330
1F
100
AcDbEntity
  8
HEWI
100
AcDbLine
 10
299.8983714502699
 20
1305.163852411602
 30
0.0
 11
299.8983714502699
 21
1308.163852411602
 31
0.0
  0
LINE
  5
578
330
1F
100
AcDbEntity
  8
HEWI
100
AcDbLine
 10
299.8983714502699
 20
451.1638524116017
 30
0.0
 11
269.8279037723439
 21
451.1638524116017
 31
0.0
  0
LWPOLYLINE
  5
579
330
1F
100
AcDbEntity
  8
HEWI
100
AcDbPolyline
 90
        4
 70
     0
 43
0.0
 10
284.8983714502699
 20
421.6990862505648
 10
224.8983714502705
 20
421.6638524116017
 10
224.8983714502705
 20
391.6638524116018
 10
284.8631376113069
 20
391.6638524116018
  0
LWPOLYLINE
  5
57A
330
1F
100
AcDbEntity
  8
HEWI
100
AcDbPolyline
 90
        4
 70
     0
 43
0.0
 10
800.5283276016786
 20
109.152396519523
 10
800.5283276016786
 20
120.152396519523
 10
870.5283276016784
 20
120.152396519523
 10
870.5283276016784
 20
109.152396519523
  0
LWPOLYLINE
  5
57B
330
1F
100
AcDbEntity
  8
HEWI
100
AcDbPolyline
 90
        2
 70
     0
 43
0.0
 10
869.5283276016784
 20
108.152396519523
 10
801.5283276016786
 20
108.152396519523
  0
ARC
  5
57C
330
1F
100
AcDbEntity
  8
HEWI
100
AcDbCircle
 10
801.5283276016786
 20
109.152396519523
 30
0.0
 40
1.0
100
AcDbArc
 50
180.0
 51
270.0
  0
ARC
  5
57D
330
1F
100
AcDbEntity
  8
HEWI
100
AcDbCircle
 10
869.5283276016784
 20
109.152396519523
 30
0.0
 40
1.0
100
AcDbArc
 50
270.0
 51
0.000000000000007
  0
LINE
  5
57E
330
1F
100
AcDbEntity
  8
HEWI
100
AcDbLine
 10
832.5283276016785
 20
108.152396519523
 30
0.0
 11
835.5283276016788
 21
108.152396519523
 31
0.0
  0
LINE
  5
57F
330
1F
100
AcDbEntity
  8
HEWI
100
AcDbLine
 10
835.5283276016788
 20
108.152396519523
 30
0.0
 11
838.5283276016785
 21
108.152396519523
 31
0.0
  0
LINE
  5
580
330
1F
100
AcDbEntity
  8
HEWI
100
AcDbLine
 10
836.9930937627156
 20
33.15239651952297
 30
0.0
 11
438.5283276016784
 21
33.15239651952274
 31
0.0
  0
ARC
  5
581
330
1F
100
AcDbEntity
  8
HEWI
100
AcDbCircle
 10
836.9930937627156
 20
48.15239651952296
 30
0.0
 40
15.0
100
AcDbArc
 50
270.0
 51
90.0
  0
LINE
  5
582
330
1F
100
AcDbEntity
  8
HEWI
100
AcDbLine
 10
836.9930937627156
 20
63.15239651952296
 30
0.0
 11
715.5283276016785
 21
63.15239651952288
 31
0.0
  0
LINE
  5
583
330
1F
100
AcDbEntity
  8
HEWI
100
AcDbLine
 10
432.5283276016789
 20
65.15239651952279
 30
0.0
 11
432.5283276016789
 21
33.1523965195228
 31
0.0
  0
LWPOLYLINE
  5
584
330
1F
100
AcDbEntity
  8
HEWI
100
AcDbPolyline
 90
        4
 70
     0
 43
0.0
 10
400.5283276016785
 20
109.1523965195227
 10
400.5283276016785
 20
120.1523965195227
 10
470.5283276016785
 20
120.1523965195227
 10
470.5283276016785
 20
109.1523965195227
  0
LWPOLYLINE
  5
585
330
1F
100
AcDbEntity
  8
HEWI
100
AcDbPolyline
 90
        2
 70
     0
 43
0.0
 10
469.5283276016787
 20
108.1523965195227
 10
401.5283276016787
 20
108.1523965195227
  0
ARC
  5
586
330
1F
100
AcDbEntity
  8
HEWI
100
AcDbCircle
 10
401.5283276016787
 20
109.1523965195227
 30
0.0
 40
1.0
100
AcDbArc
 50
180.0
 51
270.0
  0
ARC
  5
587
330
1F
100
AcDbEntity
  8
HEWI
100
AcDbCircle
 10
469.5283276016787
 20
109.1523965195227
 30
0.0
 40
1.0
100
AcDbArc
 50
270.0
 51
0.000000000000007
  0
LINE
  5
588
330
1F
100
AcDbEntity
  8
HEWI
100
AcDbLine
 10
432.5283276016789
 20
108.1523965195227
 30
0.0
 11
435.5283276016787
 21
108.1523965195227
 31
0.0
  0
LINE
  5
589
330
1F
100
AcDbEntity
  8
HEWI
100
AcDbLine
 10
435.5283276016787
 20
33.1523965195228
 30
0.0
 11
432.5283276016789
 21
33.1523965195228
 31
0.0
  0
LINE
  5
58A
330
1F
100
AcDbEntity
  8
HEWI
100
AcDbLine
 10
432.5283276016789
 20
33.1523965195228
 30
0.0
 11
432.5283276016789
 21
108.1523965195227
 31
0.0
  0
LINE
  5
58B
330
1F
100
AcDbEntity
  8
HEWI
100
AcDbLine
 10
435.5283276016787
 20
108.1523965195227
 30
0.0
 11
438.5283276016784
 21
108.1523965195227
 31
0.0
  0
LINE
  5
58C
330
1F
100
AcDbEntity
  8
HEWI
100
AcDbLine
 10
438.5283276016784
 20
108.1523965195227
 30
0.0
 11
438.5283276016784
 21
33.1523965195228
 31
0.0
  0
LINE
  5
58D
330
1F
100
AcDbEntity
  8
HEWI
100
AcDbLine
 10
438.5283276016784
 20
33.1523965195228
 30
0.0
 11
435.5283276016787
 21
33.1523965195228
 31
0.0
  0
LINE
  5
58E
330
1F
100
AcDbEntity
  8
HEWI
100
AcDbLine
 10
792.5283276016787
 20
33.15239651952297
 30
0.0
 11
792.5283276016787
 21
63.22286419744898
 31
0.0
  0
LWPOLYLINE
  5
58F
330
1F
100
AcDbEntity
  8
HEWI
100
AcDbPolyline
 90
        4
 70
     0
 43
0.0
 10
822.0283276016784
 20
63.15239651952296
 10
822.0283276016784
 20
108.152396519523
 10
852.0283276016787
 20
108.152396519523
 10
852.0283276016787
 20
48.18763035848596
  0
LWPOLYLINE
  5
59E
330
1F
100
AcDbEntity
  8
HEWI
100
AcDbPolyline
 90
        4
 70
     1
 43
0.0
 10
438.5283276016784
 20
393.163852411602
 10
432.5283276016786
 20
393.163852411602
 10
432.5283276016786
 20
423.163852411602
 10
438.5283276016784
 20
423.163852411602
  0
LINE
  5
59F
330
1F
100
AcDbEntity
  8
HEWI
100
AcDbLine
 10
432.5283276016786
 20
423.163852411602
 30
0.0
 11
792.5283276016783
 21
423.163852411602
 31
0.0
  0
LINE
  5
5A0
330
1F
100
AcDbEntity
  8
HEWI
100
AcDbLine
 10
432.5283276016786
 20
393.163852411602
 30
0.0
 11
792.5283276016783
 21
393.163852411602
 31
0.0
  0
ARC
  5
5A1
330
1F
100
AcDbEntity
  8
HEWI
100
AcDbCircle
 10
835.5283276016784
 20
1308.163852411602
 30
0.0
 40
35.0
100
AcDbArc
 50
297.2028944122106
 51
242.7971055877893
  0
ARC
  5
5A2
330
1F
100
AcDbEntity
  8
HEWI
100
AcDbCircle
 10
835.5283276016784
 20
1308.163852411602
 30
0.0
 40
17.5
100
AcDbArc
 50
328.9972808661291
 51
211.0027191338709
  0
LWPOLYLINE
  5
5A3
330
1F
100
AcDbEntity
  8
HEWI
100
AcDbPolyline
 90
        4
 70
     1
 43
0.0
 10
820.5283276016787
 20
1305.163852411602
 10
820.5283276016787
 20
1311.163852411602
 10
850.5283276016784
 20
1311.163852411602
 10
850.5283276016784
 20
1305.163852411602
  0
LINE
  5
5A4
330
1F
100
AcDbEntity
  8
HEWI
100
AcDbLine
 10
850.5283276016784
 20
1311.163852411602
 30
0.0
 11
850.5283276016784
 21
451.1638524116015
 31
0.0
  0
LINE
  5
5A5
330
1F
100
AcDbEntity
  8
HEWI
100
AcDbLine
 10
820.5283276016784
 20
1311.163852411602
 30
0.0
 11
820.5283276016787
 21
451.1638524116015
 31
0.0
  0
ARC
  5
5A6
330
1F
100
AcDbEntity
  8
HEWI
100
AcDbCircle
 10
792.5283276016783
 20
451.1638524116015
 30
0.0
 40
58.00000000000029
100
AcDbArc
 50
270.0
 51
0.000000000000007
  0
ARC
  5
5A8
330
1F
100
AcDbEntity
  8
HEWI
100
AcDbCircle
 10
792.5283276016783
 20
451.1638524116015
 30
0.0
 40
28.00000000000029
100
AcDbArc
 50
270.0
 51
0.000000000000007
  0
ARC
  5
723
330
1F
100
AcDbEntity
  8
HEWI
100
AcDbCircle
 10
712.5283276016785
 20
408.1638524116018
 30
0.0
 40
35.0
100
AcDbArc
 50
205.3769335251567
 51
332.7971055877858
  0
ARC
  5
724
330
1F
100
AcDbEntity
  8
HEWI
100
AcDbCircle
 10
712.5283276016785
 20
408.1638524116018
 30
0.0
 40
17.5
100
AcDbArc
 50
238.9972808661281
 51
301.0027191338719
  0
LINE
  5
725
330
1F
100
AcDbEntity
  8
HEWI
100
AcDbLine
 10
709.5283276016789
 20
65.15239651952279
 30
0.0
 11
709.5283276016789
 21
33.1523965195228
 31
0.0
  0
LWPOLYLINE
  5
726
330
1F
100
AcDbEntity
  8
HEWI
100
AcDbPolyline
 90
        4
 70
     0
 43
0.0
 10
677.5283276016785
 20
109.1523965195227
 10
677.5283276016785
 20
120.1523965195227
 10
747.5283276016783
 20
120.1523965195227
 10
747.5283276016783
 20
109.1523965195227
  0
LWPOLYLINE
  5
727
330
1F
100
AcDbEntity
  8
HEWI
100
AcDbPolyline
 90
        2
 70
     0
 43
0.0
 10
746.5283276016787
 20
108.1523965195227
 10
678.5283276016786
 20
108.1523965195227
  0
ARC
  5
728
330
1F
100
AcDbEntity
  8
HEWI
100
AcDbCircle
 10
678.5283276016786
 20
109.1523965195227
 30
0.0
 40
1.0
100
AcDbArc
 50
180.0
 51
270.0
  0
ARC
  5
729
330
1F
100
AcDbEntity
  8
HEWI
100
AcDbCircle
 10
746.5283276016787
 20
109.1523965195227
 30
0.0
 40
1.0
100
AcDbArc
 50
270.0
 51
0.000000000000007
  0
LINE
  5
72A
330
1F
100
AcDbEntity
  8
HEWI
100
AcDbLine
 10
709.5283276016789
 20
108.1523965195227
 30
0.0
 11
712.5283276016787
 21
108.1523965195227
 31
0.0
  0
LINE
  5
72B
330
1F
100
AcDbEntity
  8
HEWI
100
AcDbLine
 10
712.5283276016787
 20
33.1523965195228
 30
0.0
 11
709.5283276016789
 21
33.1523965195228
 31
0.0
  0
LINE
  5
72C
330
1F
100
AcDbEntity
  8
HEWI
100
AcDbLine
 10
709.5283276016789
 20
33.1523965195228
 30
0.0
 11
709.5283276016789
 21
108.1523965195227
 31
0.0
  0
LINE
  5
72D
330
1F
100
AcDbEntity
  8
HEWI
100
AcDbLine
 10
712.5283276016787
 20
108.1523965195227
 30
0.0
 11
715.5283276016785
 21
108.1523965195227
 31
0.0
  0
LINE
  5
72E
330
1F
100
AcDbEntity
  8
HEWI
100
AcDbLine
 10
715.5283276016785
 20
108.1523965195227
 30
0.0
 11
715.5283276016785
 21
33.1523965195228
 31
0.0
  0
LINE
  5
72F
330
1F
100
AcDbEntity
  8
HEWI
100
AcDbLine
 10
715.5283276016785
 20
33.1523965195228
 30
0.0
 11
712.5283276016787
 21
33.1523965195228
 31
0.0
  0
LWPOLYLINE
  5
730
330
1F
100
AcDbEntity
  8
HEWI
100
AcDbPolyline
 90
        4
 70
     1
 43
0.0
 10
715.5283276016785
 20
393.163852411602
 10
709.5283276016784
 20
393.163852411602
 10
709.5283276016784
 20
423.163852411602
 10
715.5283276016785
 20
423.163852411602
  0
LINE
  5
733
330
1F
100
AcDbEntity
  8
HEWI
100
AcDbLine
 10
709.5283276016789
 20
63.15239651952288
 30
0.0
 11
438.5283276016783
 21
63.15239651952257
 31
0.0
  0
ARC
  5
734
330
1F
100
AcDbEntity
  8
HEWI
100
AcDbCircle
 10
712.5283276016785
 20
408.1638524116018
 30
0.0
 40
35.0
100
AcDbArc
 50
27.20289441221432
 51
154.6230664748428
  0
ARC
  5
735
330
1F
100
AcDbEntity
  8
HEWI
100
AcDbCircle
 10
712.5283276016785
 20
408.1638524116018
 30
0.0
 40
17.5
100
AcDbArc
 50
58.99728086612812
 51
121.0027191338719
  0
INSERT
  5
843
330
1F
100
AcDbEntity
  8
0
100
AcDbBlockReference
  2
900_22_13240
 10
1467.135649696731
 20
-65.82321537051848
 30
0.0
 41
200.7440419064351
 42
351.9336205285144
 43
200.7440419064351
 50
90.0
  0
CIRCLE
  5
9ED
330
1F
100
AcDbEntity
  8
HEWI
100
AcDbCircle
 10
1061.913631119884
 20
301.5572822505665
 30
0.0
 40
16.3
  0
LINE
  5
9EE
330
1F
100
AcDbEntity
  8
HEWI
100
AcDbLine
 10
1054.913631119884
 20
392.3115916806265
 30
0.0
 11
1054.913631119884
 21
316.2776762670322
 31
0.0
  0
LINE
  5
9EF
330
1F
100
AcDbEntity
  8
HEWI
100
AcDbLine
 10
1069.913631119884
 20
392.8426797900137
 30
0.0
 11
1069.913631119884
 21
315.75904270482
 31
0.0
  0
LINE
  5
9F0
330
1F
100
AcDbEntity
  8
HEWI
  6
STANDARD
 62
     7
370
    15
100
AcDbLine
 10
1062.909839704316
 20
270.8040064057655
 30
0.0
 11
1062.909839704316
 21
285.1904504975625
 31
0.0
  0
LINE
  5
9F1
330
1F
100
AcDbEntity
  8
HEWI
  6
STANDARD
 62
     7
370
    15
100
AcDbLine
 10
1060.909851148408
 20
270.7609766206095
 30
0.0
 11
1060.909851148408
 21
285.1913660249063
 31
0.0
  0
LINE
  5
9F2
330
1F
100
AcDbEntity
  8
HEWI
  6
STANDARD
 62
     7
370
    15
100
AcDbLine
 10
1061.290844037812
 20
269.9710291108436
 30
0.0
 11
1061.167839124482
 21
270.0869959077186
 31
0.0
  0
LINE
  5
9F3
330
1F
100
AcDbEntity
  8
HEWI
  6
STANDARD
 62
     7
370
    15
100
AcDbLine
 10
1062.765834882539
 20
270.2389734467814
 30
0.0
 11
1062.651851728242
 21
270.0869959077186
 31
0.0
  0
LINE
  5
9F4
330
1F
100
AcDbEntity
  8
HEWI
  6
STANDARD
 62
     7
370
    15
100
AcDbLine
 10
1062.848842695039
 20
270.4139917573287
 30
0.0
 11
1062.765834882539
 21
270.2389734467814
 31
0.0
  0
LINE
  5
9F5
330
1F
100
AcDbEntity
  8
HEWI
  6
STANDARD
 62
     7
370
    15
100
AcDbLine
 10
1062.894847944063
 20
270.5839746674845
 30
0.0
 11
1062.848842695039
 21
270.4139917573287
 31
0.0
  0
LINE
  5
9F6
330
1F
100
AcDbEntity
  8
HEWI
  6
STANDARD
 62
     7
370
    15
100
AcDbLine
 10
1062.909839704316
 20
270.7609766206095
 30
0.0
 11
1062.894847944063
 21
270.5839746674845
 31
0.0
  0
LINE
  5
9F7
330
1F
100
AcDbEntity
  8
HEWI
  6
STANDARD
 62
     7
370
    15
100
AcDbLine
 10
1062.032840802949
 20
269.7650354585004
 30
0.0
 11
1061.909835889619
 21
269.7699182710006
 31
0.0
  0
LINE
  5
9F8
330
1F
100
AcDbEntity
  8
HEWI
  6
STANDARD
 62
     7
370
    15
100
AcDbLine
 10
1061.909835889619
 20
269.7699182710006
 30
0.0
 11
1061.786850049776
 21
269.7650354585004
 31
0.0
  0
LINE
  5
9F9
330
1F
100
AcDbEntity
  8
HEWI
  6
STANDARD
 62
     7
370
    15
100
AcDbLine
 10
1060.924842908662
 20
270.5839746674845
 30
0.0
 11
1060.909851148408
 21
270.7609766206095
 31
0.0
  0
LINE
  5
9FA
330
1F
100
AcDbEntity
  8
HEWI
  6
STANDARD
 62
     7
370
    15
100
AcDbLine
 10
1060.970848157685
 20
270.4139917573287
 30
0.0
 11
1060.924842908662
 21
270.5839746674845
 31
0.0
  0
LINE
  5
9FB
330
1F
100
AcDbEntity
  8
HEWI
  6
STANDARD
 62
     7
370
    15
100
AcDbLine
 10
1061.053836896699
 20
270.2389734467814
 30
0.0
 11
1060.970848157685
 21
270.4139917573287
 31
0.0
  0
LINE
  5
9FC
330
1F
100
AcDbEntity
  8
HEWI
  6
STANDARD
 62
     7
370
    15
100
AcDbLine
 10
1061.167839124482
 20
270.0869959077186
 30
0.0
 11
1061.053836896699
 21
270.2389734467814
 31
0.0
  0
ARC
  5
9FD
330
1F
100
AcDbEntity
  8
HEWI
  6
STANDARD
 62
     7
370
    15
100
AcDbCircle
 10
1061.904756259574
 20
270.7490942435946
 30
0.0
 40
0.991097153074158
100
AcDbArc
 50
231.7257053876649
 51
263.167606815077
  0
ARC
  5
9FE
330
1F
100
AcDbEntity
  8
HEWI
  6
STANDARD
 62
     7
370
    15
100
AcDbCircle
 10
1061.914089435425
 20
270.7493952545756
 30
0.0
 40
0.9914968963227718
100
AcDbArc
 50
276.8788162588978
 51
318.0809415238353
  0
CIRCLE
  5
9FF
330
1F
100
AcDbEntity
  8
HEWI
100
AcDbCircle
 10
284.8983714502699
 20
301.5572822505667
 30
0.0
 40
12.5
  0
ARC
  5
A00
330
1F
100
AcDbEntity
  8
HEWI
100
AcDbCircle
 10
284.8983714502699
 20
301.5572822505667
 30
0.0
 40
16.3
100
AcDbArc
 50
115.4325245972051
 51
60.60698455229017
  0
LINE
  5
A01
330
1F
100
AcDbEntity
  8
HEWI
  6
STANDARD
 62
     7
370
    15
100
AcDbLine
 10
285.8945800347021
 20
270.8040064057656
 30
0.0
 11
285.8945800347021
 21
285.1904504975627
 31
0.0
  0
LINE
  5
A02
330
1F
100
AcDbEntity
  8
HEWI
  6
STANDARD
 62
     7
370
    15
100
AcDbLine
 10
283.8945914787944
 20
270.7609766206096
 30
0.0
 11
283.8945914787944
 21
285.1913660249065
 31
0.0
  0
LINE
  5
A03
330
1F
100
AcDbEntity
  8
HEWI
  6
STANDARD
 62
     7
370
    15
100
AcDbLine
 10
284.2755843681987
 20
269.9710291108437
 30
0.0
 11
284.1525794548686
 21
270.0869959077187
 31
0.0
  0
LINE
  5
A04
330
1F
100
AcDbEntity
  8
HEWI
  6
STANDARD
 62
     7
370
    15
100
AcDbLine
 10
285.7505752129252
 20
270.2389734467814
 30
0.0
 11
285.6365920586284
 21
270.0869959077187
 31
0.0
  0
LINE
  5
A05
330
1F
100
AcDbEntity
  8
HEWI
  6
STANDARD
 62
     7
370
    15
100
AcDbLine
 10
285.8335830254252
 20
270.4139917573288
 30
0.0
 11
285.7505752129252
 21
270.2389734467814
 31
0.0
  0
LINE
  5
A06
330
1F
100
AcDbEntity
  8
HEWI
  6
STANDARD
 62
     7
370
    15
100
AcDbLine
 10
285.8795882744487
 20
270.5839746674846
 30
0.0
 11
285.8335830254252
 21
270.4139917573288
 31
0.0
  0
LINE
  5
A07
330
1F
100
AcDbEntity
  8
HEWI
  6
STANDARD
 62
     7
370
    15
100
AcDbLine
 10
285.8945800347021
 20
270.7609766206096
 30
0.0
 11
285.8795882744487
 21
270.5839746674846
 31
0.0
  0
LINE
  5
A08
330
1F
100
AcDbEntity
  8
HEWI
  6
STANDARD
 62
     7
370
    15
100
AcDbLine
 10
285.0175811333354
 20
269.7650354585007
 30
0.0
 11
284.8945762200053
 21
269.7699182710007
 31
0.0
  0
LINE
  5
A09
330
1F
100
AcDbEntity
  8
HEWI
  6
STANDARD
 62
     7
370
    15
100
AcDbLine
 10
284.8945762200053
 20
269.7699182710007
 30
0.0
 11
284.7715903801616
 21
269.7650354585007
 31
0.0
  0
LINE
  5
A0A
330
1F
100
AcDbEntity
  8
HEWI
  6
STANDARD
 62
     7
370
    15
100
AcDbLine
 10
283.9095832390483
 20
270.5839746674846
 30
0.0
 11
283.8945914787944
 21
270.7609766206096
 31
0.0
  0
LINE
  5
A0B
330
1F
100
AcDbEntity
  8
HEWI
  6
STANDARD
 62
     7
370
    15
100
AcDbLine
 10
283.9555884880717
 20
270.4139917573288
 30
0.0
 11
283.9095832390483
 21
270.5839746674846
 31
0.0
  0
LINE
  5
A0C
330
1F
100
AcDbEntity
  8
HEWI
  6
STANDARD
 62
     7
370
    15
100
AcDbLine
 10
284.0385772270854
 20
270.2389734467814
 30
0.0
 11
283.9555884880717
 21
270.4139917573288
 31
0.0
  0
LINE
  5
A0D
330
1F
100
AcDbEntity
  8
HEWI
  6
STANDARD
 62
     7
370
    15
100
AcDbLine
 10
284.1525794548686
 20
270.0869959077187
 30
0.0
 11
284.0385772270854
 21
270.2389734467814
 31
0.0
  0
ARC
  5
A0E
330
1F
100
AcDbEntity
  8
HEWI
  6
STANDARD
 62
     7
370
    15
100
AcDbCircle
 10
284.8894965899597
 20
270.7490942435947
 30
0.0
 40
0.991097153074158
100
AcDbArc
 50
231.7257053876649
 51
263.167606815077
  0
ARC
  5
A0F
330
1F
100
AcDbEntity
  8
HEWI
  6
STANDARD
 62
     7
370
    15
100
AcDbCircle
 10
284.8988297658109
 20
270.7493952545757
 30
0.0
 40
0.9914968963227718
100
AcDbArc
 50
276.8788162588978
 51
318.0809415238353
  0
LINE
  5
A10
330
1F
100
AcDbEntity
  8
HEWI
100
AcDbLine
 10
277.8983714502699
 20
390.7695539991735
 30
0.0
 11
277.8983714502699
 21
311.9134398391706
 31
0.0
  0
LINE
  5
A11
330
1F
100
AcDbEntity
  8
HEWI
100
AcDbLine
 10
292.8983714502699
 20
392.8426797900137
 30
0.0
 11
292.8983714502699
 21
311.161968606716
 31
0.0
  0
LINE
  5
A12
330
1F
100
AcDbEntity
  8
HEWI
100
AcDbLine
 10
633.5283276016784
 20
312.8561564116045
 30
0.0
 11
669.5283276016785
 21
312.8561564116045
 31
0.0
  0
LINE
  5
A13
330
1F
100
AcDbEntity
  8
HEWI
100
AcDbLine
 10
801.72832760169
 20
319.0638524116058
 30
0.0
 11
801.5283276016784
 21
318.8638524116015
 31
0.0
  0
LINE
  5
A14
330
1F
100
AcDbEntity
  8
HEWI
100
AcDbLine
 10
801.5283276016784
 20
286.4638524116037
 30
0.0
 11
801.72832760169
 21
286.263852411603
 31
0.0
  0
LINE
  5
A15
330
1F
100
AcDbEntity
  8
HEWI
100
AcDbLine
 10
804.3283276016667
 20
286.263852411603
 30
0.0
 11
804.5283276016785
 21
286.4638524116037
 31
0.0
  0
LINE
  5
A16
330
1F
100
AcDbEntity
  8
HEWI
100
AcDbLine
 10
804.5283276016785
 20
318.8638524116015
 30
0.0
 11
804.3283276016667
 21
319.0638524116058
 31
0.0
  0
LINE
  5
A17
330
1F
100
AcDbEntity
  8
HEWI
100
AcDbLine
 10
801.72832760169
 20
286.263852411603
 30
0.0
 11
804.3283276016667
 21
286.263852411603
 31
0.0
  0
LINE
  5
A18
330
1F
100
AcDbEntity
  8
HEWI
100
AcDbLine
 10
804.3283276016667
 20
319.0638524116058
 30
0.0
 11
801.72832760169
 21
319.0638524116058
 31
0.0
  0
LINE
  5
A19
330
1F
100
AcDbEntity
  8
HEWI
100
AcDbLine
 10
781.5283276016785
 20
290.1638524116044
 30
0.0
 11
801.5283276016784
 21
290.1638524116044
 31
0.0
  0
LINE
  5
A1A
330
1F
100
AcDbEntity
  8
HEWI
100
AcDbLine
 10
659.046369601689
 20
290.1638524116044
 30
0.0
 11
696.5283276016784
 21
290.1638524116044
 31
0.0
  0
LINE
  5
A1B
330
1F
100
AcDbEntity
  8
HEWI
100
AcDbLine
 10
631.5283276016785
 20
290.1638524116007
 30
0.0
 11
643.9783276016901
 21
290.1638524116044
 31
0.0
  0
LINE
  5
A1C
330
1F
100
AcDbEntity
  8
HEWI
100
AcDbLine
 10
801.5283276016784
 20
315.1638524116044
 30
0.0
 11
671.5295916016698
 21
315.1638524116044
 31
0.0
  0
LINE
  5
A1D
330
1F
100
AcDbEntity
  8
HEWI
100
AcDbLine
 10
631.5283276016785
 20
392.1638524116021
 30
0.0
 11
631.5283276016785
 21
290.1638524116044
 31
0.0
  0
LINE
  5
A1E
330
1F
100
AcDbEntity
  8
HEWI
100
AcDbLine
 10
669.5283276016785
 20
312.8561564116045
 30
0.0
 11
669.5283276016785
 21
313.0561564116053
 31
0.0
  0
LINE
  5
A1F
330
1F
100
AcDbEntity
  8
HEWI
100
AcDbLine
 10
633.5283276016784
 20
313.0561564116053
 30
0.0
 11
669.5283276016785
 21
313.0561564116053
 31
0.0
  0
LINE
  5
A20
330
1F
100
AcDbEntity
  8
HEWI
100
AcDbLine
 10
633.5283276016784
 20
312.8561564116045
 30
0.0
 11
633.5283276016784
 21
313.0561564116053
 31
0.0
  0
LINE
  5
A21
330
1F
100
AcDbEntity
  8
HEWI
100
AcDbLine
 10
633.5283276016784
 20
392.1638524116021
 30
0.0
 11
633.5283276016784
 21
313.0561564116053
 31
0.0
  0
LINE
  5
A22
330
1F
100
AcDbEntity
  8
HEWI
100
AcDbLine
 10
801.72832760169
 20
286.263852411603
 30
0.0
 11
801.72832760169
 21
319.0638524116058
 31
0.0
  0
LINE
  5
A23
330
1F
100
AcDbEntity
  8
HEWI
100
AcDbLine
 10
801.5283276016784
 20
318.8638524116015
 30
0.0
 11
801.5283276016784
 21
302.6638524116044
 31
0.0
  0
LINE
  5
A24
330
1F
100
AcDbEntity
  8
HEWI
100
AcDbLine
 10
801.5283276016784
 20
302.6638524116044
 30
0.0
 11
801.5283276016784
 21
286.4638524116037
 31
0.0
  0
LINE
  5
A25
330
1F
100
AcDbEntity
  8
HEWI
100
AcDbLine
 10
781.2780376016822
 20
287.8048584116024
 30
0.0
 11
780.306503601671
 21
288.0417564116053
 31
0.0
  0
LINE
  5
A26
330
1F
100
AcDbEntity
  8
HEWI
100
AcDbLine
 10
781.5283276016785
 20
290.4701164116033
 30
0.0
 11
781.5283276016785
 21
289.8638524116015
 31
0.0
  0
LINE
  5
A27
330
1F
100
AcDbEntity
  8
HEWI
100
AcDbLine
 10
780.5283276016784
 20
289.288762411603
 30
0.0
 11
780.5283276016784
 21
290.1589344116057
 31
0.0
  0
LINE
  5
A28
330
1F
100
AcDbEntity
  8
HEWI
100
AcDbLine
 10
696.7786176016748
 20
287.8048584116024
 30
0.0
 11
697.7501516016859
 21
288.0417564116053
 31
0.0
  0
LINE
  5
A29
330
1F
100
AcDbEntity
  8
HEWI
100
AcDbLine
 10
780.5283276016784
 20
290.1589344116057
 30
0.0
 11
697.5283276016784
 21
290.1589344116057
 31
0.0
  0
LINE
  5
A2A
330
1F
100
AcDbEntity
  8
HEWI
100
AcDbLine
 10
780.306503601671
 20
288.0417564116053
 30
0.0
 11
697.7501516016859
 21
288.0417564116053
 31
0.0
  0
LINE
  5
A2B
330
1F
100
AcDbEntity
  8
HEWI
100
AcDbLine
 10
696.5283276016784
 20
289.8638524116015
 30
0.0
 11
696.5283276016784
 21
290.4701164116033
 31
0.0
  0
LINE
  5
A2C
330
1F
100
AcDbEntity
  8
HEWI
100
AcDbLine
 10
697.5283276016784
 20
290.1589344116057
 30
0.0
 11
697.5283276016784
 21
289.288762411603
 31
0.0
  0
LINE
  5
A2D
330
1F
100
AcDbEntity
  8
HEWI
100
AcDbLine
 10
781.5283276016785
 20
290.4701044116065
 30
0.0
 11
696.5283276016784
 21
290.4701044116065
 31
0.0
  0
LINE
  5
A2E
330
1F
100
AcDbEntity
  8
HEWI
100
AcDbLine
 10
781.5283276016785
 20
290.4701044116065
 30
0.0
 11
781.5283276016785
 21
290.1638524116044
 31
0.0
  0
LINE
  5
A2F
330
1F
100
AcDbEntity
  8
HEWI
100
AcDbLine
 10
696.5283276016784
 20
290.1638524116044
 30
0.0
 11
696.5283276016784
 21
290.4701044116065
 31
0.0
  0
LINE
  5
A30
330
1F
100
AcDbEntity
  8
HEWI
100
AcDbLine
 10
643.9783256016749
 20
290.1638504116037
 30
0.0
 11
643.9783256016749
 21
290.1638504116037
 31
0.0
  0
LINE
  5
A31
330
1F
100
AcDbEntity
  8
HEWI
100
AcDbLine
 10
656.0038656016772
 20
291.7138524116037
 30
0.0
 11
647.004435601681
 21
291.7138524116037
 31
0.0
  0
LINE
  5
A32
330
1F
100
AcDbEntity
  8
HEWI
100
AcDbLine
 10
657.2283276016901
 20
290.9138524116044
 30
0.0
 11
645.8283276016668
 21
290.9138524116044
 31
0.0
  0
LINE
  5
A33
330
1F
100
AcDbEntity
  8
HEWI
100
AcDbLine
 10
671.5283276016784
 20
392.1638524116021
 30
0.0
 11
671.5283276016784
 21
314.1111224116013
 31
0.0
  0
LINE
  5
A34
330
1F
100
AcDbEntity
  8
HEWI
100
AcDbLine
 10
669.5283276016785
 20
313.0561564116053
 30
0.0
 11
669.5283276016785
 21
392.1638524116021
 31
0.0
  0
LINE
  5
A35
330
1F
100
AcDbEntity
  8
HEWI
100
AcDbLine
 10
804.5283276016785
 20
318.8638524116015
 30
0.0
 11
804.5283276016785
 21
302.6638524116044
 31
0.0
  0
LINE
  5
A36
330
1F
100
AcDbEntity
  8
HEWI
100
AcDbLine
 10
804.5283276016785
 20
302.6638524116044
 30
0.0
 11
804.5283276016785
 21
286.4638524116037
 31
0.0
  0
LINE
  5
A37
330
1F
100
AcDbEntity
  8
HEWI
100
AcDbLine
 10
804.3283276016667
 20
302.6638524116044
 30
0.0
 11
804.3283276016667
 21
319.0638524116058
 31
0.0
  0
LINE
  5
A38
330
1F
100
AcDbEntity
  8
HEWI
100
AcDbLine
 10
804.3283276016667
 20
286.263852411603
 30
0.0
 11
804.3283276016667
 21
302.6638524116044
 31
0.0
  0
ARC
  5
A39
330
1F
100
AcDbEntity
  8
HEWI
100
AcDbCircle
 10
645.8283276016668
 20
291.7138524116037
 30
0.0
 40
0.8
100
AcDbArc
 50
245.0166049992008
 51
270.0
  0
ARC
  5
A3A
330
1F
100
AcDbEntity
  8
HEWI
100
AcDbCircle
 10
657.2283276016901
 20
291.7138524116037
 30
0.0
 40
0.8
100
AcDbArc
 50
270.0
 51
295.6430130000305
  0
ELLIPSE
  5
A3B
330
1F
100
AcDbEntity
  8
HEWI
100
AcDbEllipse
 10
671.3283276016668
 20
314.1111224116013
 30
0.0
 11
-0.2
 21
0.0
 31
0.0
210
0.0
220
0.0
230
1.0
 40
0.90136
 41
2.514698896745267
 42
3.141592653589792
  0
ELLIPSE
  5
A3C
330
1F
100
AcDbEntity
  8
HEWI
100
AcDbEllipse
 10
780.5283276016784
 20
289.8638524116015
 30
0.0
 11
1.0
 21
0.0
 31
0.0
210
0.0
220
0.0
230
1.0
 40
0.57509
 41
4.71238898038469
 42
6.283185307179563
  0
ELLIPSE
  5
A3D
330
1F
100
AcDbEntity
  8
HEWI
100
AcDbEllipse
 10
697.5283276016784
 20
289.8638524116015
 30
0.0
 11
-1.0
 21
0.0000000000000001
 31
0.0
210
0.0
220
0.0
230
1.0
 40
0.57509
 41
0.0
 42
1.570796326794897
  0
SPLINE
  5
A3E
330
1F
100
AcDbEntity
  8
HEWI
100
AcDbSpline
210
-0.0000000000000002
220
0.0000000000000002
230
1.0
 70
     8
 71
     3
 72
    16
 73
    12
 74
     0
 42
0.000000001
 43
0.0000000001
 40
0.0
 40
0.0
 40
0.0
 40
0.0
 40
0.1771404143545236
 40
0.1771404143545236
 40
0.3522186943510297
 40
0.3522186943510297
 40
0.539954319336339
 40
0.539954319336339
 40
0.7594025013289695
 40
0.7594025013289695
 40
1.0
 40
1.0
 40
1.0
 40
1.0
 10
669.5283274203034
 20
313.0561571973505
 30
-0.0000000000000004
 10
669.7246792300506
 20
313.0561571973505
 30
-0.0000000000000004
 10
669.9236478100433
 20
313.0752261919098
 30
-0.0000000000000004
 10
670.2917269223621
 20
313.1446620868612
 30
-0.0000000000000004
 10
670.4658336295477
 20
313.195262551779
 30
-0.0000000000000004
 10
670.7869510665846
 20
313.3199516257793
 30
-0.0000000000000002
 10
670.935069328822
 20
313.3967455183721
 30
-0.0000000000000002
 10
671.2029837687518
 20
313.5732138172337
 30
-0.0000000000000002
 10
671.3175057297417
 20
313.6767617348871
 30
-0.0000000000000002
 10
671.4826153414692
 20
313.8914804720172
 30
-0.0000000000000002
 10
671.5283274203033
 20
314.0054495369753
 30
-0.0000000000000002
 10
671.5283274203033
 20
314.1111227689382
 30
-0.0000000000000002
  0
SPLINE
  5
A3F
330
1F
100
AcDbEntity
  8
HEWI
100
AcDbSpline
210
-0.0000000000000002
220
0.0000000000000003
230
1.0
 70
     8
 71
     3
 72
    16
 73
    12
 74
     0
 42
0.000000001
 43
0.0000000001
 40
0.0
 40
0.0
 40
0.0
 40
0.0
 40
0.012771053008153
 40
0.012771053008153
 40
0.2987140812229396
 40
0.2987140812229396
 40
0.5432081856599547
 40
0.5432081856599547
 40
0.7705827780638374
 40
0.7705827780638374
 40
1.0
 40
1.0
 40
1.0
 40
1.0
 10
671.2188675440052
 20
313.6177712410555
 30
-0.0000000000000002
 10
671.2158236165783
 20
313.6132640504931
 30
-0.0000000000000002
 10
671.2127189282987
 20
313.6087594102848
 30
-0.0000000000000002
 10
671.1385280063628
 20
313.5032449119155
 30
-0.0000000000000002
 10
671.0354999747728
 20
313.4013997686182
 30
-0.0000000000000002
 10
670.7944787684614
 20
313.2277838206848
 30
-0.0000000000000002
 10
670.6612750939752
 20
313.1522181896454
 30
-0.0000000000000002
 10
670.372317330512
 20
313.0295130763972
 30
-0.0000000000000004
 10
670.2156567447023
 20
312.9796656200798
 30
-0.0000000000000004
 10
669.8843365461293
 20
312.9113130954376
 30
-0.0000000000000004
 10
669.7051304269193
 20
312.892498853331
 30
-0.0000000000000004
 10
669.5283274203034
 20
312.892498853331
 30
-0.0000000000000004
  0
SPLINE
  5
A40
330
1F
100
AcDbEntity
  8
HEWI
100
AcDbSpline
210
0.0
220
0.0
230
1.0
 70
     8
 71
     3
 72
    16
 73
    12
 74
     0
 42
0.000000001
 43
0.0000000001
 40
0.0
 40
0.0
 40
0.0
 40
0.0
 40
0.1053123592843732
 40
0.1053123592843732
 40
0.3301327988397731
 40
0.3301327988397731
 40
0.6504275187068807
 40
0.6504275187068807
 40
0.9722491720568131
 40
0.9722491720568131
 40
1.0
 40
1.0
 40
1.0
 40
1.0
 10
633.5283274203034
 20
312.892498853331
 30
0.0
 10
633.4455544792659
 20
312.892498853331
 30
0.0
 10
633.3625056464884
 20
312.8964878464814
 30
0.0
 10
633.1084307200294
 20
312.9207846638075
 30
0.0
 10
632.9391227067467
 20
312.9550298733649
 30
0.0
 10
632.5677988854955
 20
313.0676257560973
 30
0.0
 10
632.3732845059208
 20
313.1603680247046
 30
0.0
 10
632.0608269258887
 20
313.3646777259984
 30
0.0
 10
631.9372115848896
 20
313.4797344321325
 30
0.0
 10
631.8475004039433
 20
313.6035509785126
 30
0.0
 10
631.8406647105664
 20
313.6133993840505
 30
0.0
 10
631.8341198256899
 20
313.6232583989533
 30
0.0
  0
SPLINE
  5
A41
330
1F
100
AcDbEntity
  8
HEWI
100
AcDbSpline
210
0.0
220
0.0
230
1.0
 70
     8
 71
     3
 72
    16
 73
    12
 74
     0
 42
0.000000001
 43
0.0000000001
 40
0.0
 40
0.0
 40
0.0
 40
0.0
 40
0.2481016251448624
 40
0.2481016251448624
 40
0.4963851440995061
 40
0.4963851440995061
 40
0.7438538839225557
 40
0.7438538839225557
 40
0.9181884979193776
 40
0.9181884979193776
 40
1.0
 40
1.0
 40
1.0
 40
1.0
 10
631.5283274203036
 20
314.1111227689382
 30
0.0
 10
631.5283274203036
 20
314.002134806926
 30
0.0
 10
631.577010917485
 20
313.8842567727244
 30
0.0
 10
631.7603458183371
 20
313.6528833464965
 30
0.0
 10
631.8977890991159
 20
313.5358802989705
 30
0.0
 10
632.2452035931424
 20
313.3281585003008
 30
0.0
 10
632.4615811484186
 20
313.2339453718943
 30
0.0
 10
632.8739466362826
 20
313.1196079943168
 30
0.0
 10
633.0620097331489
 20
313.0848751015275
 30
0.0
 10
633.3441105334572
 20
313.060207432338
 30
0.0
 10
633.4363676850703
 20
313.0561571973505
 30
0.0
 10
633.5283274203034
 20
313.0561571973505
 30
0.0
  0
SPLINE
  5
A42
330
1F
100
AcDbEntity
  8
HEWI
100
AcDbSpline
210
0.0
220
0.0
230
1.0
 70
     8
 71
     3
 72
    10
 73
     6
 74
     0
 42
0.000000001
 43
0.0000000001
 40
0.0
 40
0.0
 40
0.0
 40
0.0
 40
0.5631963510114814
 40
0.5631963510114814
 40
1.0
 40
1.0
 40
1.0
 40
1.0
 10
781.5283274203034
 20
289.8638523519423
 30
0.0
 10
781.5283274203034
 20
289.5175377448088
 30
0.0
 10
781.5056999473967
 20
289.1294470563245
 30
0.0
 10
781.412637443173
 20
288.4295749424911
 30
0.0
 10
781.3533877923114
 20
288.1138739634319
 30
0.0
 10
781.2780379575928
 20
287.8048584248592
 30
0.0
  0
SPLINE
  5
A43
330
1F
100
AcDbEntity
  8
HEWI
100
AcDbSpline
210
0.0
220
0.0
230
1.0
 70
     8
 71
     3
 72
    10
 73
     6
 74
     0
 42
0.000000001
 43
0.0000000001
 40
0.0
 40
0.0
 40
0.0
 40
0.0
 40
0.4861134168230314
 40
0.4861134168230314
 40
1.0
 40
1.0
 40
1.0
 40
1.0
 10
780.3065032836244
 20
288.0417558231658
 30
0.0
 10
780.3798488471443
 20
288.24761450778
 30
0.0
 10
780.4371265681188
 20
288.4626393811324
 30
0.0
 10
780.5120274892328
 20
288.8864880245148
 30
0.0
 10
780.5283274203034
 20
289.1001693806522
 30
0.0
 10
780.5283274203034
 20
289.2887623042135
 30
0.0
  0
SPLINE
  5
A44
330
1F
100
AcDbEntity
  8
HEWI
100
AcDbSpline
210
0.0000000000000013
220
-0.0000000000000017
230
1.0
 70
     8
 71
     3
 72
    12
 73
     8
 74
     0
 42
0.000000001
 43
0.0000000001
 40
0.0
 40
0.0
 40
0.0
 40
0.0
 40
0.4202079642026861
 40
0.4202079642026861
 40
0.8401692150779277
 40
0.8401692150779277
 40
1.0
 40
1.0
 40
1.0
 40
1.0
 10
780.5283274203034
 20
290.1589353100265
 30
0.0000000000000002
 10
780.6390284545855
 20
290.1589353100265
 30
0.0000000000000002
 10
780.7512536007057
 20
290.1781721490754
 30
-0.0000000000000002
 10
780.9600600556664
 20
290.2516293051141
 30
-0.0000000000000002
 10
781.0595098945273
 20
290.3068045377133
 30
-0.0000000000000002
 10
781.1790141608875
 20
290.4019359574359
 30
-0.0000000000000002
 10
781.2104304460595
 20
290.4304155773628
 30
-0.0000000000000002
 10
781.2399955962105
 20
290.4607740083723
 30
-0.0000000000000002
  0
SPLINE
  5
A45
330
1F
100
AcDbEntity
  8
HEWI
100
AcDbSpline
210
0.0
220
0.0
230
1.0
 70
     8
 71
     3
 72
    10
 73
     6
 74
     0
 42
0.000000001
 43
0.0000000001
 40
0.0
 40
0.0
 40
0.0
 40
0.0
 40
0.5635302216462811
 40
0.5635302216462811
 40
1.0
 40
1.0
 40
1.0
 40
1.0
 10
696.7786168830139
 20
287.8048584248592
 30
0.0
 10
696.6819566481647
 20
288.2012695733448
 30
0.0
 10
696.6120735649097
 20
288.6101286043396
 30
0.0
 10
696.5417150434591
 20
289.2993992977956
 30
0.0
 10
696.5283274203033
 20
289.593932645241
 30
0.0
 10
696.5283274203033
 20
289.8638523519459
 30
0.0
  0
SPLINE
  5
A46
330
1F
100
AcDbEntity
  8
HEWI
100
AcDbSpline
210
0.0
220
0.0
230
1.0
 70
     8
 71
     3
 72
    10
 73
     6
 74
     0
 42
0.000000001
 43
0.0000000001
 40
0.0
 40
0.0
 40
0.0
 40
0.0
 40
0.4830490318618912
 40
0.4830490318618912
 40
1.0
 40
1.0
 40
1.0
 40
1.0
 10
697.5283274203034
 20
289.2887623042135
 30
0.0
 10
697.5283274203034
 20
289.1111436844023
 30
0.0
 10
697.5426595930843
 20
288.9115154857301
 30
0.0
 10
697.6126226804121
 20
288.4893517263755
 30
0.0
 10
697.6723028184283
 20
288.2602535501558
 30
0.0
 10
697.7501515569533
 20
288.0417558231658
 30
0.0
  0
SPLINE
  5
A47
330
1F
100
AcDbEntity
  8
HEWI
100
AcDbSpline
210
0.0
220
0.0
230
1.0
 70
     8
 71
     3
 72
    12
 73
     8
 74
     0
 42
0.000000001
 43
0.0000000001
 40
0.0
 40
0.0
 40
0.0
 40
0.0
 40
0.3099027414590628
 40
0.3099027414590628
 40
0.7381692089327201
 40
0.7381692089327201
 40
1.0
 40
1.0
 40
1.0
 40
1.0
 10
696.8155375456049
 20
290.4619050276362
 30
0.0
 10
696.872806740816
 20
290.4030742160014
 30
0.0
 10
696.9374666406443
 20
290.3509103724811
 30
0.0
 10
697.1027394277703
 20
290.2484697071106
 30
0.0
 10
697.210368598266
 20
290.2048766710306
 30
0.0
 10
697.3887082655351
 20
290.1664106674273
 30
0.0
 10
697.4587114056707
 20
290.1589353100265
 30
0.0
 10
697.5283274203034
 20
290.1589353100265
 30
0.0
  0
SPLINE
  5
A48
330
1F
100
AcDbEntity
  8
HEWI
100
AcDbSpline
210
0.0
220
-0.0000000000000002
230
1.0
 70
     8
 71
     3
 72
    14
 73
    10
 74
     0
 42
0.000000001
 43
0.0000000001
 40
0.0
 40
0.0
 40
0.0
 40
0.0
 40
0.2499087050623483
 40
0.2499087050623483
 40
0.4999391367082322
 40
0.4999391367082322
 40
0.7499695683541161
 40
0.7499695683541161
 40
1.0
 40
1.0
 40
1.0
 40
1.0
 10
659.0782955559047
 20
290.1638716272957
 30
-0.0000000000000002
 10
659.0841945956713
 20
290.1603486762744
 30
-0.0000000000000002
 10
658.2319606645691
 20
290.7161915243761
 30
-0.0000000000000002
 10
655.5083874217894
 20
292.0033000473615
 30
-0.0000000000000004
 10
653.5724848081959
 20
292.6986250944667
 30
0.0000000000000004
 10
649.5127638230701
 20
292.7044511911719
 30
0.0000000000000002
 10
647.5773199041801
 20
292.0155957623485
 30
0.0
 10
644.825117955545
 20
290.7178101147093
 30
-0.0000000000000002
 10
643.9783140233564
 20
290.163843601322
 30
-0.0000000000000002
 10
643.9783248048993
 20
290.1638506409928
 30
-0.0000000000000002
  0
SPLINE
  5
A49
330
1F
100
AcDbEntity
  8
HEWI
100
AcDbSpline
210
0.0
220
0.0
230
1.0
 70
     8
 71
     3
 72
    26
 73
    22
 74
     0
 42
0.000000001
 43
0.0000000001
 40
0.0
 40
0.0
 40
0.0
 40
0.0
 40
0.0625
 40
0.0625
 40
0.1249999999999999
 40
0.1249999999999999
 40
0.25
 40
0.25
 40
0.3750000000000001
 40
0.3750000000000001
 40
0.5000000000000001
 40
0.5000000000000001
 40
0.6250000000000001
 40
0.6250000000000001
 40
0.7500000000000002
 40
0.7500000000000002
 40
0.8750000000000001
 40
0.8750000000000001
 40
0.9375
 40
0.9375
 40
1.0
 40
1.0
 40
1.0
 40
1.0
 10
696.7786168830139
 20
287.8048584248592
 30
0.0
 10
697.2616106651335
 20
285.8240633212099
 30
0.0
 10
698.3815198509915
 20
284.0849948446686
 30
0.0
 10
701.1405950511766
 20
281.1058991832889
 30
0.0
 10
702.7331149138121
 20
279.8921281160639
 30
0.0
 10
707.8487721657515
 20
276.688595405458
 30
0.0
 10
711.5894721386799
 20
275.2089409474776
 30
0.0
 10
719.2496405267525
 20
272.92114797628
 30
0.0
 10
723.2034319555173
 20
272.1350773769829
 30
0.0
 10
731.076786834958
 20
271.1095564229492
 30
0.0
 10
735.0315956013587
 20
270.8649189829504
 30
0.0
 10
742.9741556499289
 20
270.8627925351013
 30
0.0
 10
746.986259855425
 20
271.1089611795925
 30
0.0
 10
754.9077004692594
 20
272.1436120040145
 30
0.0
 10
758.8153399214284
 20
272.9228218871923
 30
0.0
 10
766.4820572315734
 20
275.2141984735264
 30
0.0
 10
770.2679974247953
 20
276.7195843532992
 30
0.0
 10
775.3485775704689
 20
279.9111896813539
 30
0.0
 10
776.9321458329291
 20
281.1205222478076
 30
0.0
 10
779.6803502112529
 20
284.0933930473568
 30
0.0
 10
780.7963214236447
 20
285.8293014154207
 30
0.0
 10
781.2780379575928
 20
287.8048584248592
 30
0.0
  0
SPLINE
  5
A4A
330
1F
100
AcDbEntity
  8
HEWI
100
AcDbSpline
210
0.0
220
0.0
230
1.0
 70
     8
 71
     3
 72
    24
 73
    20
 74
     0
 42
0.000000001
 43
0.0000000001
 40
0.0
 40
0.0
 40
0.0
 40
0.0
 40
0.0625000000000001
 40
0.0625000000000001
 40
0.1250000000000001
 40
0.1250000000000001
 40
0.2500000000000001
 40
0.2500000000000001
 40
0.3749999999999999
 40
0.3749999999999999
 40
0.5
 40
0.5
 40
0.75
 40
0.75
 40
0.8749999999999998
 40
0.8749999999999998
 40
0.9375
 40
0.9375
 40
1.0
 40
1.0
 40
1.0
 40
1.0
 10
697.7501515569533
 20
288.0417558231658
 30
0.0
 10
698.2211975536561
 20
286.109959517684
 30
0.0
 10
699.3641135530856
 20
284.4430841415653
 30
0.0
 10
702.0732603707951
 20
281.6328516430205
 30
0.0
 10
703.6748090138212
 20
280.4530492621763
 30
0.0
 10
708.6651905844414
 20
277.4268545274192
 30
0.0
 10
712.3557230036317
 20
275.9996455108214
 30
0.0
 10
719.796710844916
 20
273.8280333484274
 30
0.0
 10
723.593338514162
 20
273.0847787290278
 30
0.0
 10
731.2975678057487
 20
272.0975788049747
 30
0.0
 10
735.2017608949759
 20
271.8625294526266
 30
0.0
 10
746.7786090806553
 20
271.8665148726524
 30
0.0
 10
754.4505864752941
 20
272.718672996851
 30
0.0
 10
765.7192752463529
 20
276.0038130185259
 30
0.0
 10
769.4048081823352
 20
277.4331164330235
 30
0.0
 10
774.3910710828282
 20
280.4595628515073
 30
0.0
 10
775.9846315971885
 20
281.6331572817454
 30
0.0
 10
778.6993175759639
 20
284.4510938104778
 30
0.0000000000000002
 10
779.8365627675452
 20
286.1144931797445
 30
0.0
 10
780.3065032836244
 20
288.0417558231658
 30
0.0
  0
ENDSEC
  0
SECTION
  2
OBJECTS
  0
DICTIONARY
  5
C
330
0
100
AcDbDictionary
281
     1
  3
ACAD_CIP_PREVIOUS_PRODUCT_INFO
350
1CC
  3
ACAD_COLOR
350
1AC
  3
ACAD_DETAILVIEWSTYLE
350
1C6
  3
ACAD_GROUP
350
D
  3
ACAD_LAYOUT
350
1A
  3
ACAD_MATERIAL
350
17A
  3
ACAD_MLEADERSTYLE
350
1C1
  3
ACAD_MLINESTYLE
350
17
  3
ACAD_PLOTSETTINGS
350
19
  3
ACAD_PLOTSTYLENAME
350
DF
  3
ACAD_SCALELIST
350
1AF
  3
ACAD_SECTIONVIEWSTYLE
350
1C3
  3
ACAD_TABLESTYLE
350
1AD
  3
ACAD_VISUALSTYLE
350
193
  3
ACDB_RECOMPOSE_DATA
350
B92
  3
AcDbVariableDictionary
350
2CB
  0
DICTIONARY
  5
1E1
330
2
100
AcDbDictionary
280
     1
281
     1
  3
ACAD_LAYERSTATES
360
1E2
  0
DICTIONARY
  5
1CD
330
10
100
AcDbDictionary
280
     1
281
     1
  3
ADSK_XREC_LAYER_RECONCILED
360
1CE
  0
DICTIONARY
  5
D9
330
1F
100
AcDbDictionary
280
     1
281
     1
  3
ACAD_LAYOUTSELFREF
360
177
  3
ACAD_SORTENTS
360
292
  0
DICTIONARY
  5
D7
330
1B
100
AcDbDictionary
280
     1
281
     1
  3
ACAD_LAYOUTSELFREF
360
176
  0
DICTIONARY
  5
83F
330
7DB
100
AcDbDictionary
280
     1
281
     1
  3
ACAD_SORTENTS
360
840
  0
XRECORD
  5
1CC
102
{ACAD_REACTORS
330
C
102
}
330
C
100
AcDbXrecord
280
     1
300
ACDLT
300
2016
300
ACDLT_F_S
  0
DICTIONARY
  5
1AC
102
{ACAD_REACTORS
330
C
102
}
330
C
100
AcDbDictionary
281
     1
  0
DICTIONARY
  5
1C6
102
{ACAD_REACTORS
330
C
102
}
330
C
100
AcDbDictionary
281
     1
  3
Imperial24
350
1C7
  0
DICTIONARY
  5
D
102
{ACAD_REACTORS
330
C
102
}
330
C
100
AcDbDictionary
281
     1
  0
DICTIONARY
  5
1A
102
{ACAD_REACTORS
330
C
102
}
330
C
100
AcDbDictionary
281
     1
  3
Layout1
350
1C9
  3
Model
350
1C8
  0
DICTIONARY
  5
17A
102
{ACAD_REACTORS
330
C
102
}
330
C
100
AcDbDictionary
281
     1
  3
ByBlock
350
183
  3
ByLayer
350
17B
  3
Global
350
18B
  0
DICTIONARY
  5
1C1
102
{ACAD_REACTORS
330
C
102
}
330
C
100
AcDbDictionary
281
     1
  3
Standard
350
1C2
  0
DICTIONARY
  5
17
102
{ACAD_REACTORS
330
C
102
}
330
C
100
AcDbDictionary
281
     1
  3
STANDARD
350
18
  0
DICTIONARY
  5
19
102
{ACAD_REACTORS
330
C
102
}
330
C
100
AcDbDictionary
281
     1
  0
ACDBDICTIONARYWDFLT
  5
DF
102
{ACAD_REACTORS
330
C
102
}
330
C
100
AcDbDictionary
281
     1
  3
Normal
350
E0
100
AcDbDictionaryWithDefault
340
E0
  0
DICTIONARY
  5
1AF
102
{ACAD_REACTORS
330
C
102
}
330
C
100
AcDbDictionary
281
     1
  3
A0
350
1B0
  3
A1
350
1B1
  3
A2
350
1B2
  3
A3
350
1B3
  3
A4
350
1B4
  3
A5
350
1B5
  3
A6
350
1B6
  3
A7
350
1B7
  3
A8
350
1B8
  3
A9
350
1B9
  3
B0
350
1BA
  3
B1
350
1BB
  3
B2
350
1BC
  3
B3
350
1BD
  3
B4
350
1BE
  3
B5
350
1BF
  3
B6
350
1C0
  0
DICTIONARY
  5
1C3
102
{ACAD_REACTORS
330
C
102
}
330
C
100
AcDbDictionary
281
     1
  3
Imperial24
350
1C5
  0
DICTIONARY
  5
1AD
102
{ACAD_REACTORS
330
C
102
}
330
C
100
AcDbDictionary
281
     1
  3
Standard
350
1AE
  0
DICTIONARY
  5
193
102
{ACAD_REACTORS
330
C
102
}
330
C
100
AcDbDictionary
281
     1
  3
2dWireframe
350
199
  3
Basic
350
198
  3
Brighten
350
19F
  3
ColorChange
350
1A3
  3
Conceptual
350
19C
  3
Dim
350
19E
  3
EdgeColorOff
350
1AB
  3
Facepattern
350
1A2
  3
Flat
350
194
  3
FlatWithEdges
350
195
  3
Gouraud
350
196
  3
GouraudWithEdges
350
197
  3
Hidden
350
19B
  3
JitterOff
350
1A9
  3
Linepattern
350
1A1
  3
OverhangOff
350
1AA
  3
Realistic
350
19D
  3
Shaded
350
1A8
  3
Shaded with edges
350
1A7
  3
Shades of Gray
350
1A4
  3
Sketchy
350
1A5
  3
Thicken
350
1A0
  3
Wireframe
350
19A
  3
X-Ray
350
1A6
  0
XRECORD
  5
B92
102
{ACAD_REACTORS
330
C
102
}
330
C
100
AcDbXrecord
280
     1
 90
        1
330
1AE
  0
DICTIONARY
  5
2CB
102
{ACAD_REACTORS
330
C
102
}
330
C
100
AcDbDictionary
281
     1
  3
CANNOSCALE
350
2D1
  3
CMLEADERSTYLE
350
2CD
  3
CTABLESTYLE
350
2CC
  3
CVIEWDETAILSTYLE
350
2CE
  3
CVIEWSECTIONSTYLE
350
2CF
  3
LAYEREVAL
350
2D3
  3
LAYERNOTIFY
350
2D4
  3
LIGHTINGUNITS
350
2D2
  3
MSLTSCALE
350
2D0
  0
DICTIONARY
  5
1E2
102
{ACAD_REACTORS
330
1E1
102
}
330
1E1
100
AcDbDictionary
281
     1
  0
XRECORD
  5
1CE
102
{ACAD_REACTORS
330
1CD
102
}
330
1CD
100
AcDbXrecord
280
     1
290
     1
  0
XRECORD
  5
177
102
{ACAD_REACTORS
330
D9
102
}
330
D9
100
AcDbXrecord
280
     1
340
1F
  0
SORTENTSTABLE
  5
292
102
{ACAD_REACTORS
330
D9
102
}
330
D9
100
AcDbSortentsTable
330
1F
331
4DD
  5
4ED
331
5A8
  5
721
331
4D9
  5
4DD
331
734
  5
725
331
4F1
  5
54B
331
730
  5
735
331
564
  5
565
331
576
  5
577
331
572
  5
573
331
586
  5
588
331
56E
  5
56F
331
582
  5
583
331
56A
  5
56B
331
59E
  5
5A0
331
57E
  5
57F
331
57A
  5
57B
331
724
  5
726
331
72E
  5
733
331
58E
  5
59E
331
58A
  5
58C
331
72A
  5
72D
331
5A6
  5
5A8
331
4D4
  5
4D8
331
5A2
  5
5A4
331
4CC
  5
4CC
331
4C8
  5
4C8
331
4DC
  5
4EC
331
4D8
  5
4DC
331
553
  5
564
331
733
  5
584
331
4F0
  5
549
331
567
  5
568
331
563
  5
4D2
331
575
  5
576
331
571
  5
572
331
585
  5
587
331
56D
  5
56E
331
569
  5
56A
331
581
  5
582
331
482
  5
48A
331
727
  5
72A
331
57D
  5
57E
331
579
  5
57A
331
353
  5
353
331
723
  5
724
331
72D
  5
730
331
58D
  5
58F
331
589
  5
58B
331
729
  5
72C
331
4D7
  5
4DB
331
5A5
  5
5A7
331
5A1
  5
5A3
331
4D3
  5
4D7
331
3EB
  5
3EB
331
4EB
  5
4EF
331
4CB
  5
4CB
331
4DB
  5
4EB
331
566
  5
567
331
562
  5
4D6
331
574
  5
575
331
570
  5
571
331
584
  5
586
331
56C
  5
56D
331
568
  5
569
331
580
  5
581
331
726
  5
729
331
57C
  5
57D
331
578
  5
579
331
72C
  5
72F
331
58C
  5
58E
331
588
  5
58A
331
48A
  5
482
331
728
  5
72B
331
5A4
  5
5A6
331
4D6
  5
4DA
331
5A0
  5
5A2
331
4CA
  5
4CA
331
4DA
  5
4DE
331
735
  5
727
331
565
  5
566
331
577
  5
578
331
573
  5
574
331
587
  5
589
331
56F
  5
570
331
583
  5
585
331
56B
  5
56C
331
59F
  5
5A1
331
57F
  5
580
331
725
  5
728
331
57B
  5
57C
331
72F
  5
734
331
58F
  5
59F
331
58B
  5
58D
331
72B
  5
72E
331
4D5
  5
4D9
331
5A3
  5
5A5
331
4D1
  5
4D1
331
4CD
  5
4CD
331
4C9
  5
4C9
  0
XRECORD
  5
176
102
{ACAD_REACTORS
330
D7
102
}
330
D7
100
AcDbXrecord
280
     1
340
1B
  0
SORTENTSTABLE
  5
840
102
{ACAD_REACTORS
330
83F
102
}
330
83F
100
AcDbSortentsTable
330
7DB
331
81F
  5
820
331
7E7
  5
7E9
331
7E9
  5
7EB
331
7EB
  5
7ED
331
7ED
  5
7EF
331
821
  5
822
331
7EF
  5
7F1
331
823
  5
824
331
825
  5
826
331
827
  5
828
331
829
  5
82A
331
82B
  5
82C
331
82D
  5
82E
331
82F
  5
831
331
7F1
  5
7F3
331
7F3
  5
7F5
331
7F5
  5
7F7
331
7F7
  5
7E7
331
831
  5
834
331
833
  5
836
331
835
  5
838
331
837
  5
83A
331
839
  5
83C
331
7DE
  5
7DF
331
83B
  5
83E
331
83D
  5
830
331
818
  5
819
331
81A
  5
81B
331
81C
  5
81D
331
81E
  5
81F
331
7E8
  5
7EA
331
7EA
  5
7EC
331
7EC
  5
7EE
331
820
  5
821
331
7EE
  5
7F0
331
822
  5
823
331
824
  5
825
331
826
  5
827
331
828
  5
829
331
82A
  5
82B
331
82C
  5
82D
331
82E
  5
82F
331
7F0
  5
7F2
331
7F2
  5
7F4
331
7F4
  5
7F6
331
7F6
  5
7E8
331
830
  5
833
331
832
  5
835
331
834
  5
837
331
836
  5
839
331
838
  5
83B
331
83A
  5
83D
331
7DF
  5
7DE
331
83C
  5
817
331
83E
  5
832
331
817
  5
818
331
819
  5
81A
331
81B
  5
81C
331
81D
  5
81E
  0
ACDBDETAILVIEWSTYLE
  5
1C7
102
{ACAD_XDICTIONARY
360
BC5
102
}
102
{ACAD_REACTORS
330
1C6
102
}
330
1C6
100
AcDbModelDocViewStyle
 70
     0
  3
Imperial24
290
     0
100
AcDbDetailViewStyle
 70
     0
 71
     0
 90
        3
 71
     1
340
11
 62
   256
 40
0.24
340
0
 62
   256
 40
0.24
300

 40
0.36
280
     3
 71
     2
340
16
 90
       25
 62
   256
 71
     3
340
11
 62
   256
 40
0.24
 90
        1
 40
0.75
 90
        1
300
%<\AcVar ViewType \f "%tc1">% %<\AcVar ViewDetailId>%\PVARIA %<\AcVar ViewScale \f "%sn">%
 71
     4
340
16
 90
       25
 62
   256
340
16
 90
       25
 62
   256
280
     0
  0
LAYOUT
  5
1C9
102
{ACAD_REACTORS
330
1A
102
}
330
1A
100
AcDbPlotSettings
  1

  2
\\srvadruck01\MFSA15
  4

  6

 40
0.0
 41
0.0
 42
0.0
 43
0.0
 44
0.0
 45
0.0
 46
0.0
 47
0.0
 48
0.0
 49
0.0
140
0.0
141
0.0
142
1.0
143
1.0
 70
   688
 72
     0
 73
     0
 74
     5
  7

 75
    16
147
1.0
 76
     0
 77
     2
 78
   300
148
0.0
149
0.0
100
AcDbLayout
  1
Layout1
 70
     1
 71
     1
 10
0.0
 20
0.0
 11
12.0
 21
9.0
 12
0.0
 22
0.0
 32
0.0
 14
1.000000000000000E+20
 24
1.000000000000000E+20
 34
1.000000000000000E+20
 15
-1.000000000000000E+20
 25
-1.000000000000000E+20
 35
-1.000000000000000E+20
146
0.0
 13
0.0
 23
0.0
 33
0.0
 16
1.0
 26
0.0
 36
0.0
 17
0.0
 27
1.0
 37
0.0
 76
     0
330
1B
  0
LAYOUT
  5
1C8
102
{ACAD_REACTORS
330
1A
102
}
330
1A
100
AcDbPlotSettings
  1

  2
\\srvadruck01\MFSA15
  4
A4
  6

 40
5.027082920074462
 41
5.027099609375
 42
5.027069091796875
 43
5.027069091796875
 44
209.9733276367186
 45
296.9259948730469
 46
0.0
 47
0.0
 48
0.0
 49
0.0
140
0.0
141
0.0
142
1.0
143
250.9557649309207
 70
 11952
 72
     0
 73
     1
 74
     0
  7

 75
     0
147
0.003984766001591
 76
     0
 77
     2
 78
   300
148
18758.74732672532
149
6385.478578639141
100
AcDbLayout
  1
Model
 70
     1
 71
     0
 10
0.0
 20
0.0
 11
12.0
 21
9.0
 12
0.0
 22
0.0
 32
0.0
 14
0.0
 24
0.0
 34
0.0
 15
0.0
 25
0.0
 35
0.0
146
0.0
 13
0.0
 23
0.0
 33
0.0
 16
1.0
 26
0.0
 36
0.0
 17
0.0
 27
1.0
 37
0.0
 76
     0
330
1F
331
155
1001
ACAD_PSEXT
1000
\\srvadruck01\MFSA15
1000
KONICA MINOLTA C754SeriesPCL
1000
Marketing
1000

1070
     0
  0
MATERIAL
  5
183
102
{ACAD_XDICTIONARY
360
184
102
}
102
{ACAD_REACTORS
330
17A
102
}
330
17A
100
AcDbMaterial
  1
ByBlock
 72
     0
 43
0.0208333333333333
 43
0.0
 43
0.0
 43
0.0
 43
0.0
 43
0.0208333333333333
 43
0.0
 43
0.0
 43
0.0
 43
0.0
 43
1.0
 43
0.0
 43
0.0
 43
0.0
 43
0.0
 43
1.0
 77
     0
 47
0.0208333333333333
 47
0.0
 47
0.0
 47
0.0
 47
0.0
 47
0.0208333333333333
 47
0.0
 47
0.0
 47
0.0
 47
0.0
 47
1.0
 47
0.0
 47
0.0
 47
0.0
 47
0.0
 47
1.0
171
     0
 49
0.0208333333333333
 49
0.0
 49
0.0
 49
0.0
 49
0.0
 49
0.0208333333333333
 49
0.0
 49
0.0
 49
0.0
 49
0.0
 49
1.0
 49
0.0
 49
0.0
 49
0.0
 49
0.0
 49
1.0
175
     0
142
0.0208333333333333
142
0.0
142
0.0
142
0.0
142
0.0
142
0.0208333333333333
142
0.0
142
0.0
142
0.0
142
0.0
142
1.0
142
0.0
142
0.0
142
0.0
142
0.0
142
1.0
179
     0
144
0.0208333333333333
144
0.0
144
0.0
144
0.0
144
0.0
144
0.0208333333333333
144
0.0
144
0.0
144
0.0
144
0.0
144
1.0
144
0.0
144
0.0
144
0.0
144
0.0
144
1.0
147
0.0208333333333333
147
0.0
147
0.0
147
0.0
147
0.0
147
0.0208333333333333
147
0.0
147
0.0
147
0.0
147
0.0
147
1.0
147
0.0
147
0.0
147
0.0
147
0.0
147
1.0
  0
MATERIAL
  5
17B
102
{ACAD_XDICTIONARY
360
17C
102
}
102
{ACAD_REACTORS
330
17A
102
}
330
17A
100
AcDbMaterial
  1
ByLayer
 72
     0
 43
0.0208333333333333
 43
0.0
 43
0.0
 43
0.0
 43
0.0
 43
0.0208333333333333
 43
0.0
 43
0.0
 43
0.0
 43
0.0
 43
1.0
 43
0.0
 43
0.0
 43
0.0
 43
0.0
 43
1.0
 77
     0
 47
0.0208333333333333
 47
0.0
 47
0.0
 47
0.0
 47
0.0
 47
0.0208333333333333
 47
0.0
 47
0.0
 47
0.0
 47
0.0
 47
1.0
 47
0.0
 47
0.0
 47
0.0
 47
0.0
 47
1.0
171
     0
 49
0.0208333333333333
 49
0.0
 49
0.0
 49
0.0
 49
0.0
 49
0.0208333333333333
 49
0.0
 49
0.0
 49
0.0
 49
0.0
 49
1.0
 49
0.0
 49
0.0
 49
0.0
 49
0.0
 49
1.0
175
     0
142
0.0208333333333333
142
0.0
142
0.0
142
0.0
142
0.0
142
0.0208333333333333
142
0.0
142
0.0
142
0.0
142
0.0
142
1.0
142
0.0
142
0.0
142
0.0
142
0.0
142
1.0
179
     0
144
0.0208333333333333
144
0.0
144
0.0
144
0.0
144
0.0
144
0.0208333333333333
144
0.0
144
0.0
144
0.0
144
0.0
144
1.0
144
0.0
144
0.0
144
0.0
144
0.0
144
1.0
147
0.0208333333333333
147
0.0
147
0.0
147
0.0
147
0.0
147
0.0208333333333333
147
0.0
147
0.0
147
0.0
147
0.0
147
1.0
147
0.0
147
0.0
147
0.0
147
0.0
147
1.0
  0
MATERIAL
  5
18B
102
{ACAD_XDICTIONARY
360
18C
102
}
102
{ACAD_REACTORS
330
17A
102
}
330
17A
100
AcDbMaterial
  1
Global
 72
     0
 43
0.0208333333333333
 43
0.0
 43
0.0
 43
0.0
 43
0.0
 43
0.0208333333333333
 43
0.0
 43
0.0
 43
0.0
 43
0.0
 43
1.0
 43
0.0
 43
0.0
 43
0.0
 43
0.0
 43
1.0
 77
     0
 47
0.0208333333333333
 47
0.0
 47
0.0
 47
0.0
 47
0.0
 47
0.0208333333333333
 47
0.0
 47
0.0
 47
0.0
 47
0.0
 47
1.0
 47
0.0
 47
0.0
 47
0.0
 47
0.0
 47
1.0
171
     0
 49
0.0208333333333333
 49
0.0
 49
0.0
 49
0.0
 49
0.0
 49
0.0208333333333333
 49
0.0
 49
0.0
 49
0.0
 49
0.0
 49
1.0
 49
0.0
 49
0.0
 49
0.0
 49
0.0
 49
1.0
175
     0
142
0.0208333333333333
142
0.0
142
0.0
142
0.0
142
0.0
142
0.0208333333333333
142
0.0
142
0.0
142
0.0
142
0.0
142
1.0
142
0.0
142
0.0
142
0.0
142
0.0
142
1.0
179
     0
144
0.0208333333333333
144
0.0
144
0.0
144
0.0
144
0.0
144
0.0208333333333333
144
0.0
144
0.0
144
0.0
144
0.0
144
1.0
144
0.0
144
0.0
144
0.0
144
0.0
144
1.0
147
0.0208333333333333
147
0.0
147
0.0
147
0.0
147
0.0
147
0.0208333333333333
147
0.0
147
0.0
147
0.0
147
0.0
147
1.0
147
0.0
147
0.0
147
0.0
147
0.0
147
1.0
  0
MLEADERSTYLE
  5
1C2
102
{ACAD_REACTORS
330
1C1
102
}
330
1C1
100
AcDbMLeaderStyle
179
     2
170
     2
171
     1
172
     0
 90
        2
 40
0.0
 41
0.0
173
     1
 91
-1056964608
340
14
 92
       -2
290
     1
 42
0.09
291
     1
 43
0.36
  3
Standard
 44
0.18
300

342
11
174
     1
178
     6
175
     1
176
     0
 93
-1056964608
 45
0.18
292
     0
297
     0
 46
0.18
 94
-1056964608
 47
1.0
 49
1.0
140
1.0
293
     1
141
0.0
294
     1
177
     0
142
1.0
295
     0
296
     0
143
0.125
271
     0
272
     9
273
     9
  0
MLINESTYLE
  5
18
102
{ACAD_REACTORS
330
17
102
}
330
17
100
AcDbMlineStyle
  2
STANDARD
 70
     0
  3

 62
   256
 51
90.0
 52
90.0
 71
     2
 49
0.5
 62
   256
  6
BYLAYER
 49
-0.5
 62
   256
  6
BYLAYER
  0
ACDBPLACEHOLDER
  5
E0
102
{ACAD_REACTORS
330
DF
102
}
330
DF
  0
SCALE
  5
1B0
102
{ACAD_REACTORS
330
1AF
102
}
330
1AF
100
AcDbScale
 70
     0
300
1:1
140
1.0
141
1.0
290
     1
  0
SCALE
  5
1B1
102
{ACAD_REACTORS
330
1AF
102
}
330
1AF
100
AcDbScale
 70
     0
300
1/128" = 1'-0"
140
0.0078125
141
12.0
290
     0
  0
SCALE
  5
1B2
102
{ACAD_REACTORS
330
1AF
102
}
330
1AF
100
AcDbScale
 70
     0
300
1/64" = 1'-0"
140
0.015625
141
12.0
290
     0
  0
SCALE
  5
1B3
102
{ACAD_REACTORS
330
1AF
102
}
330
1AF
100
AcDbScale
 70
     0
300
1/32" = 1'-0"
140
0.03125
141
12.0
290
     0
  0
SCALE
  5
1B4
102
{ACAD_REACTORS
330
1AF
102
}
330
1AF
100
AcDbScale
 70
     0
300
1/16" = 1'-0"
140
0.0625
141
12.0
290
     0
  0
SCALE
  5
1B5
102
{ACAD_REACTORS
330
1AF
102
}
330
1AF
100
AcDbScale
 70
     0
300
3/32" = 1'-0"
140
0.09375
141
12.0
290
     0
  0
SCALE
  5
1B6
102
{ACAD_REACTORS
330
1AF
102
}
330
1AF
100
AcDbScale
 70
     0
300
1/8" = 1'-0"
140
0.125
141
12.0
290
     0
  0
SCALE
  5
1B7
102
{ACAD_REACTORS
330
1AF
102
}
330
1AF
100
AcDbScale
 70
     0
300
3/16" = 1'-0"
140
0.1875
141
12.0
290
     0
  0
SCALE
  5
1B8
102
{ACAD_REACTORS
330
1AF
102
}
330
1AF
100
AcDbScale
 70
     0
300
1/4" = 1'-0"
140
0.25
141
12.0
290
     0
  0
SCALE
  5
1B9
102
{ACAD_REACTORS
330
1AF
102
}
330
1AF
100
AcDbScale
 70
     0
300
3/8" = 1'-0"
140
0.375
141
12.0
290
     0
  0
SCALE
  5
1BA
102
{ACAD_REACTORS
330
1AF
102
}
330
1AF
100
AcDbScale
 70
     0
300
1/2" = 1'-0"
140
0.5
141
12.0
290
     0
  0
SCALE
  5
1BB
102
{ACAD_REACTORS
330
1AF
102
}
330
1AF
100
AcDbScale
 70
     0
300
3/4" = 1'-0"
140
0.75
141
12.0
290
     0
  0
SCALE
  5
1BC
102
{ACAD_REACTORS
330
1AF
102
}
330
1AF
100
AcDbScale
 70
     0
300
1" = 1'-0"
140
1.0
141
12.0
290
     0
  0
SCALE
  5
1BD
102
{ACAD_REACTORS
330
1AF
102
}
330
1AF
100
AcDbScale
 70
     0
300
1-1/2" = 1'-0"
140
1.5
141
12.0
290
     0
  0
SCALE
  5
1BE
102
{ACAD_REACTORS
330
1AF
102
}
330
1AF
100
AcDbScale
 70
     0
300
3" = 1'-0"
140
3.0
141
12.0
290
     0
  0
SCALE
  5
1BF
102
{ACAD_REACTORS
330
1AF
102
}
330
1AF
100
AcDbScale
 70
     0
300
6" = 1'-0"
140
6.0
141
12.0
290
     0
  0
SCALE
  5
1C0
102
{ACAD_REACTORS
330
1AF
102
}
330
1AF
100
AcDbScale
 70
     0
300
1'-0" = 1'-0"
140
12.0
141
12.0
290
     0
  0
ACDBSECTIONVIEWSTYLE
  5
1C5
102
{ACAD_XDICTIONARY
360
BC3
102
}
102
{ACAD_REACTORS
330
1C3
102
}
330
1C3
100
AcDbModelDocViewStyle
 70
     0
  3
Imperial24
290
     0
100
AcDbSectionViewStyle
 70
     0
 71
     0
 90
       78
 71
     1
340
11
 62
   256
 40
0.24
340
0
340
0
 62
   256
 40
0.24
300
I, O, Q, S, X, Z
 40
0.48
 90
        3
 40
0.18
 90
        1
 71
     2
340
1C4
 90
       25
 62
   256
340
16
 90
       50
 62
   256
 40
0.24
 40
0.0
 40
0.24
 71
     3
340
11
 62
   256
 40
0.24
 90
        1
 40
0.75
 90
        1
300
%<\AcVar ViewType \f "%tc1">% %<\AcVar ViewSectionStartId>%-%<\AcVar ViewSectionEndId>%\PVARIA %<\AcVar ViewScale \f "%sn">%
 71
     4
 62
   256
 62
   257
300
ANSI31
 40
1.0
 90
        0
290
     0
290
     0
 90
        6
 40
0.0
 40
1.570796326794896
 40
0.2617993877991494
 40
1.308996938995747
 40
-0.2617993877991494
 40
1.832595714594044
  0
TABLESTYLE
  5
1AE
102
{ACAD_XDICTIONARY
360
35F
102
}
102
{ACAD_REACTORS
330
1AD
102
}
330
1AD
100
AcDbTableStyle
280
     0
  3
Standard
 70
     0
 71
     0
 40
0.06
 41
0.06
280
     0
281
     0
  7
STANDARD
140
0.18
170
     2
 62
     0
 63
     7
283
     0
 90
      512
 91
        0
  1

274
    -2
284
     1
 64
     0
275
    -2
285
     1
 65
     0
276
    -2
286
     1
 66
     0
277
    -2
287
     1
 67
     0
278
    -2
288
     1
 68
     0
279
    -2
289
     1
 69
     0
  7
STANDARD
140
0.25
170
     5
 62
     0
 63
     7
283
     0
 90
      512
 91
        0
  1

274
    -2
284
     1
 64
     0
275
    -2
285
     1
 65
     0
276
    -2
286
     1
 66
     0
277
    -2
287
     1
 67
     0
278
    -2
288
     1
 68
     0
279
    -2
289
     1
 69
     0
  7
STANDARD
140
0.18
170
     5
 62
     0
 63
     7
283
     0
 90
      512
 91
        0
  1

274
    -2
284
     1
 64
     0
275
    -2
285
     1
 65
     0
276
    -2
286
     1
 66
     0
277
    -2
287
     1
 67
     0
278
    -2
288
     1
 68
     0
279
    -2
289
     1
 69
     0
  0
VISUALSTYLE
  5
199
102
{ACAD_XDICTIONARY
360
B9D
102
}
102
{ACAD_REACTORS
330
193
102
}
330
193
100
AcDbVisualStyle
  2
2dWireframe
 70
     4
177
     2
291
     0
 71
     0
176
     1
 72
     2
176
     1
 73
     0
176
     1
 90
        0
176
     1
 40
0.6
176
     1
 41
30.0
176
     1
 63
     7
421
 16777215
176
     1
 74
     1
176
     1
 91
        4
176
     1
 64
     7
176
     1
 65
   257
176
     1
 75
     1
176
     1
175
     1
176
     1
 42
1.0
176
     1
 92
        0
176
     1
 66
   257
176
     1
 43
1.0
176
     1
 76
     1
176
     1
 77
     6
176
     1
 78
     2
176
     1
 67
     7
176
     1
 79
     5
176
     1
170
     0
176
     1
171
     0
176
     1
290
     0
176
     1
 93
        1
176
     1
 44
0.0
176
     1
173
     0
176
     1
1001
ACAD
1000
AcDbSavedByObjectVersion
1070
     0
  0
VISUALSTYLE
  5
198
102
{ACAD_XDICTIONARY
360
B9B
102
}
102
{ACAD_REACTORS
330
193
102
}
330
193
100
AcDbVisualStyle
  2
Basic
 70
     7
177
     2
291
     1
 71
     1
176
     1
 72
     0
176
     1
 73
     1
176
     1
 90
        0
176
     1
 40
0.6
176
     1
 41
30.0
176
     1
 63
     7
421
 16777215
176
     1
 74
     0
176
     1
 91
        4
176
     1
 64
     7
176
     1
 65
   257
176
     1
 75
     1
176
     1
175
     1
176
     1
 42
1.0
176
     1
 92
        8
176
     1
 66
     7
176
     1
 43
1.0
176
     1
 76
     1
176
     1
 77
     6
176
     1
 78
     2
176
     1
 67
     7
176
     1
 79
     5
176
     1
170
     0
176
     1
171
     0
176
     1
290
     0
176
     1
 93
        1
176
     1
 44
0.0
176
     1
173
     0
176
     1
1001
ACAD
1000
AcDbSavedByObjectVersion
1070
     0
  0
VISUALSTYLE
  5
19F
102
{ACAD_XDICTIONARY
360
BA9
102
}
102
{ACAD_REACTORS
330
193
102
}
330
193
100
AcDbVisualStyle
  2
Brighten
 70
    12
177
     2
291
     1
 71
     2
176
     1
 72
     2
176
     1
 73
     0
176
     1
 90
        0
176
     1
 40
0.6
176
     1
 41
30.0
176
     1
 63
     7
421
 16777215
176
     1
 74
     1
176
     1
 91
        4
176
     1
 64
     7
176
     1
 65
   257
176
     1
 75
     1
176
     1
175
     1
176
     1
 42
1.0
176
     1
 92
        8
176
     1
 66
     7
176
     1
 43
1.0
176
     1
 76
     1
176
     1
 77
     6
176
     1
 78
     2
176
     1
 67
     7
176
     1
 79
     5
176
     1
170
     0
176
     1
171
     0
176
     1
290
     0
176
     1
 93
        1
176
     1
 44
50.0
176
     1
173
     0
176
     1
1001
ACAD
1000
AcDbSavedByObjectVersion
1070
     0
  0
VISUALSTYLE
  5
1A3
102
{ACAD_XDICTIONARY
360
BB1
102
}
102
{ACAD_REACTORS
330
193
102
}
330
193
100
AcDbVisualStyle
  2
ColorChange
 70
    16
177
     2
291
     1
 71
     2
176
     1
 72
     2
176
     1
 73
     3
176
     1
 90
        0
176
     1
 40
0.6
176
     1
 41
30.0
176
     1
 63
     8
421
  8421504
176
     1
 74
     1
176
     1
 91
        4
176
     1
 64
     7
176
     1
 65
   257
176
     1
 75
     1
176
     1
175
     1
176
     1
 42
1.0
176
     1
 92
        8
176
     1
 66
     8
424
  8421504
176
     1
 43
1.0
176
     1
 76
     1
176
     1
 77
     6
176
     1
 78
     2
176
     1
 67
     7
176
     1
 79
     5
176
     1
170
     0
176
     1
171
     0
176
     1
290
     0
176
     1
 93
        1
176
     1
 44
0.0
176
     1
173
     0
176
     1
1001
ACAD
1000
AcDbSavedByObjectVersion
1070
     0
  0
VISUALSTYLE
  5
19C
102
{ACAD_XDICTIONARY
360
BA3
102
}
102
{ACAD_REACTORS
330
193
102
}
330
193
100
AcDbVisualStyle
  2
Conceptual
 70
     9
177
     2
291
     0
 71
     3
176
     1
 72
     2
176
     1
 73
     0
176
     1
 90
        0
176
     1
 40
0.6
176
     1
 41
30.0
176
     1
 63
     7
421
 16777215
176
     1
 74
     2
176
     1
 91
        2
176
     1
 64
     7
176
     1
 65
   257
176
     1
 75
     1
176
     1
175
     1
176
     1
 42
179.0
176
     1
 92
        8
176
     1
 66
     7
176
     1
 43
1.0
176
     1
 76
     1
176
     1
 77
     6
176
     1
 78
     2
176
     1
 67
     7
176
     1
 79
     3
176
     1
170
     0
176
     1
171
     0
176
     1
290
     0
176
     1
 93
        1
176
     1
 44
0.0
176
     1
173
     0
176
     1
1001
ACAD
1000
AcDbSavedByObjectVersion
1070
     0
  0
VISUALSTYLE
  5
19E
102
{ACAD_XDICTIONARY
360
BA7
102
}
102
{ACAD_REACTORS
330
193
102
}
330
193
100
AcDbVisualStyle
  2
Dim
 70
    11
177
     2
291
     1
 71
     2
176
     1
 72
     2
176
     1
 73
     0
176
     1
 90
        0
176
     1
 40
0.6
176
     1
 41
30.0
176
     1
 63
     7
421
 16777215
176
     1
 74
     1
176
     1
 91
        4
176
     1
 64
     7
176
     1
 65
   257
176
     1
 75
     1
176
     1
175
     1
176
     1
 42
1.0
176
     1
 92
        8
176
     1
 66
     7
176
     1
 43
1.0
176
     1
 76
     1
176
     1
 77
     6
176
     1
 78
     2
176
     1
 67
     7
176
     1
 79
     5
176
     1
170
     0
176
     1
171
     0
176
     1
290
     0
176
     1
 93
        1
176
     1
 44
-50.0
176
     1
173
     0
176
     1
1001
ACAD
1000
AcDbSavedByObjectVersion
1070
     0
  0
VISUALSTYLE
  5
1AB
102
{ACAD_XDICTIONARY
360
BC1
102
}
102
{ACAD_REACTORS
330
193
102
}
330
193
100
AcDbVisualStyle
  2
EdgeColorOff
 70
    22
177
     2
291
     1
 71
     2
176
     0
 72
     2
176
     0
 73
     0
176
     0
 90
        0
176
     0
 40
0.6
176
     0
 41
30.0
176
     0
 63
     7
421
 16777215
176
     0
 74
     1
176
     0
 91
        4
176
     0
 64
     7
176
     0
 65
   257
176
     0
 75
     1
176
     0
175
     1
176
     0
 42
1.0
176
     0
 92
        8
176
     2
 66
     7
176
     0
 43
1.0
176
     0
 76
     1
176
     0
 77
     6
176
     0
 78
     2
176
     0
 67
     7
176
     0
 79
     5
176
     0
170
     0
176
     0
171
     0
176
     0
290
     0
176
     0
 93
        1
176
     0
 44
0.0
176
     0
173
     0
176
     0
1001
ACAD
1000
AcDbSavedByObjectVersion
1070
     0
  0
VISUALSTYLE
  5
1A2
102
{ACAD_XDICTIONARY
360
BAF
102
}
102
{ACAD_REACTORS
330
193
102
}
330
193
100
AcDbVisualStyle
  2
Facepattern
 70
    15
177
     2
291
     1
 71
     2
176
     1
 72
     2
176
     1
 73
     0
176
     1
 90
        0
176
     1
 40
0.6
176
     1
 41
30.0
176
     1
 63
     7
421
 16777215
176
     1
 74
     1
176
     1
 91
        4
176
     1
 64
     7
176
     1
 65
   257
176
     1
 75
     1
176
     1
175
     1
176
     1
 42
1.0
176
     1
 92
        8
176
     1
 66
     7
176
     1
 43
1.0
176
     1
 76
     1
176
     1
 77
     6
176
     1
 78
     2
176
     1
 67
     7
176
     1
 79
     5
176
     1
170
     0
176
     1
171
     0
176
     1
290
     0
176
     1
 93
        1
176
     1
 44
0.0
176
     1
173
     0
176
     1
1001
ACAD
1000
AcDbSavedByObjectVersion
1070
     0
  0
VISUALSTYLE
  5
194
102
{ACAD_XDICTIONARY
360
B93
102
}
102
{ACAD_REACTORS
330
193
102
}
330
193
100
AcDbVisualStyle
  2
Flat
 70
     0
177
     2
291
     1
 71
     2
176
     1
 72
     1
176
     1
 73
     1
176
     1
 90
        2
176
     1
 40
0.6
176
     1
 41
30.0
176
     1
 63
     7
421
 16777215
176
     1
 74
     0
176
     1
 91
        0
176
     1
 64
     7
176
     1
 65
   257
176
     1
 75
     1
176
     1
175
     1
176
     1
 42
1.0
176
     1
 92
        8
176
     1
 66
     7
176
     1
 43
1.0
176
     1
 76
     1
176
     1
 77
     6
176
     1
 78
     2
176
     1
 67
     7
176
     1
 79
     5
176
     1
170
     0
176
     1
171
     0
176
     1
290
     0
176
     1
 93
       13
176
     1
 44
0.0
176
     1
173
     0
176
     1
1001
ACAD
1000
AcDbSavedByObjectVersion
1070
     0
  0
VISUALSTYLE
  5
195
102
{ACAD_XDICTIONARY
360
B95
102
}
102
{ACAD_REACTORS
330
193
102
}
330
193
100
AcDbVisualStyle
  2
FlatWithEdges
 70
     1
177
     2
291
     1
 71
     2
176
     1
 72
     1
176
     1
 73
     1
176
     1
 90
        2
176
     1
 40
0.6
176
     1
 41
30.0
176
     1
 63
     7
421
 16777215
176
     1
 74
     1
176
     1
 91
        0
176
     1
 64
     7
176
     1
 65
   257
176
     1
 75
     1
176
     1
175
     1
176
     1
 42
1.0
176
     1
 92
        0
176
     1
 66
   257
176
     1
 43
1.0
176
     1
 76
     1
176
     1
 77
     6
176
     1
 78
     2
176
     1
 67
     7
176
     1
 79
     5
176
     1
170
     0
176
     1
171
     0
176
     1
290
     0
176
     1
 93
       13
176
     1
 44
0.0
176
     1
173
     0
176
     1
1001
ACAD
1000
AcDbSavedByObjectVersion
1070
     0
  0
VISUALSTYLE
  5
196
102
{ACAD_XDICTIONARY
360
B97
102
}
102
{ACAD_REACTORS
330
193
102
}
330
193
100
AcDbVisualStyle
  2
Gouraud
 70
     2
177
     2
291
     1
 71
     2
176
     1
 72
     2
176
     1
 73
     1
176
     1
 90
        2
176
     1
 40
0.6
176
     1
 41
30.0
176
     1
 63
     7
421
 16777215
176
     1
 74
     0
176
     1
 91
        0
176
     1
 64
     7
176
     1
 65
   257
176
     1
 75
     1
176
     1
175
     1
176
     1
 42
1.0
176
     1
 92
        0
176
     1
 66
     7
176
     1
 43
1.0
176
     1
 76
     1
176
     1
 77
     6
176
     1
 78
     2
176
     1
 67
     7
176
     1
 79
     5
176
     1
170
     0
176
     1
171
     0
176
     1
290
     0
176
     1
 93
       13
176
     1
 44
0.0
176
     1
173
     0
176
     1
1001
ACAD
1000
AcDbSavedByObjectVersion
1070
     0
  0
VISUALSTYLE
  5
197
102
{ACAD_XDICTIONARY
360
B99
102
}
102
{ACAD_REACTORS
330
193
102
}
330
193
100
AcDbVisualStyle
  2
GouraudWithEdges
 70
     3
177
     2
291
     1
 71
     2
176
     1
 72
     2
176
     1
 73
     1
176
     1
 90
        2
176
     1
 40
0.6
176
     1
 41
30.0
176
     1
 63
     7
421
 16777215
176
     1
 74
     1
176
     1
 91
        0
176
     1
 64
     7
176
     1
 65
   257
176
     1
 75
     1
176
     1
175
     1
176
     1
 42
1.0
176
     1
 92
        0
176
     1
 66
   257
176
     1
 43
1.0
176
     1
 76
     1
176
     1
 77
     6
176
     1
 78
     2
176
     1
 67
     7
176
     1
 79
     5
176
     1
170
     0
176
     1
171
     0
176
     1
290
     0
176
     1
 93
       13
176
     1
 44
0.0
176
     1
173
     0
176
     1
1001
ACAD
1000
AcDbSavedByObjectVersion
1070
     0
  0
VISUALSTYLE
  5
19B
102
{ACAD_XDICTIONARY
360
BA1
102
}
102
{ACAD_REACTORS
330
193
102
}
330
193
100
AcDbVisualStyle
  2
Hidden
 70
     6
177
     2
291
     0
 71
     1
176
     1
 72
     2
176
     1
 73
     2
176
     1
 90
        0
176
     1
 40
0.6
176
     1
 41
30.0
176
     1
 63
     7
421
 16777215
176
     1
 74
     2
176
     1
 91
        2
176
     1
 64
     7
176
     1
 65
   257
176
     1
 75
     2
176
     1
175
     1
176
     1
 42
40.0
176
     1
 92
        0
176
     1
 66
   257
176
     1
 43
1.0
176
     1
 76
     1
176
     1
 77
     6
176
     1
 78
     2
176
     1
 67
     7
176
     1
 79
     3
176
     1
170
     0
176
     1
171
     0
176
     1
290
     0
176
     1
 93
        1
176
     1
 44
0.0
176
     1
173
     0
176
     1
1001
ACAD
1000
AcDbSavedByObjectVersion
1070
     0
  0
VISUALSTYLE
  5
1A9
102
{ACAD_XDICTIONARY
360
BBD
102
}
102
{ACAD_REACTORS
330
193
102
}
330
193
100
AcDbVisualStyle
  2
JitterOff
 70
    20
177
     2
291
     1
 71
     2
176
     0
 72
     2
176
     0
 73
     0
176
     0
 90
        0
176
     0
 40
0.6
176
     0
 41
30.0
176
     0
 63
     7
421
 16777215
176
     0
 74
     1
176
     0
 91
        4
176
     0
 64
     7
176
     0
 65
   257
176
     0
 75
     1
176
     0
175
     1
176
     0
 42
1.0
176
     0
 92
       10
176
     2
 66
     7
176
     0
 43
1.0
176
     0
 76
     1
176
     0
 77
     6
176
     0
 78
     2
176
     0
 67
     7
176
     0
 79
     5
176
     0
170
     0
176
     0
171
     0
176
     0
290
     0
176
     0
 93
        1
176
     0
 44
0.0
176
     0
173
     0
176
     0
1001
ACAD
1000
AcDbSavedByObjectVersion
1070
     0
  0
VISUALSTYLE
  5
1A1
102
{ACAD_XDICTIONARY
360
BAD
102
}
102
{ACAD_REACTORS
330
193
102
}
330
193
100
AcDbVisualStyle
  2
Linepattern
 70
    14
177
     2
291
     1
 71
     2
176
     1
 72
     2
176
     1
 73
     0
176
     1
 90
        0
176
     1
 40
0.6
176
     1
 41
30.0
176
     1
 63
     7
421
 16777215
176
     1
 74
     1
176
     1
 91
        4
176
     1
 64
     7
176
     1
 65
   257
176
     1
 75
     7
176
     1
175
     7
176
     1
 42
1.0
176
     1
 92
        8
176
     1
 66
     7
176
     1
 43
1.0
176
     1
 76
     1
176
     1
 77
     6
176
     1
 78
     2
176
     1
 67
     7
176
     1
 79
     5
176
     1
170
     0
176
     1
171
     0
176
     1
290
     0
176
     1
 93
        1
176
     1
 44
0.0
176
     1
173
     0
176
     1
1001
ACAD
1000
AcDbSavedByObjectVersion
1070
     0
  0
VISUALSTYLE
  5
1AA
102
{ACAD_XDICTIONARY
360
BBF
102
}
102
{ACAD_REACTORS
330
193
102
}
330
193
100
AcDbVisualStyle
  2
OverhangOff
 70
    21
177
     2
291
     1
 71
     2
176
     0
 72
     2
176
     0
 73
     0
176
     0
 90
        0
176
     0
 40
0.6
176
     0
 41
30.0
176
     0
 63
     7
421
 16777215
176
     0
 74
     1
176
     0
 91
        4
176
     0
 64
     7
176
     0
 65
   257
176
     0
 75
     1
176
     0
175
     1
176
     0
 42
1.0
176
     0
 92
        9
176
     2
 66
     7
176
     0
 43
1.0
176
     0
 76
     1
176
     0
 77
     6
176
     0
 78
     2
176
     0
 67
     7
176
     0
 79
     5
176
     0
170
     0
176
     0
171
     0
176
     0
290
     0
176
     0
 93
        1
176
     0
 44
0.0
176
     0
173
     0
176
     0
1001
ACAD
1000
AcDbSavedByObjectVersion
1070
     0
  0
VISUALSTYLE
  5
19D
102
{ACAD_XDICTIONARY
360
BA5
102
}
102
{ACAD_REACTORS
330
193
102
}
330
193
100
AcDbVisualStyle
  2
Realistic
 70
     8
177
     2
291
     0
 71
     2
176
     1
 72
     3
176
     1
 73
     0
176
     1
 90
        2
176
     1
 40
0.6
176
     1
 41
30.0
176
     1
 63
     7
421
 16777215
176
     1
 74
     0
176
     1
 91
        0
176
     1
 64
     7
176
     1
 65
   257
176
     1
 75
     1
176
     1
175
     1
176
     1
 42
1.0
176
     1
 92
        8
176
     1
 66
   257
176
     1
 43
1.0
176
     1
 76
     1
176
     1
 77
     6
176
     1
 78
     2
176
     1
 67
     7
176
     1
 79
     3
176
     1
170
     0
176
     1
171
     0
176
     1
290
     0
176
     1
 93
       13
176
     1
 44
0.0
176
     1
173
     0
176
     1
1001
ACAD
1000
AcDbSavedByObjectVersion
1070
     0
  0
VISUALSTYLE
  5
1A8
102
{ACAD_XDICTIONARY
360
BBB
102
}
102
{ACAD_REACTORS
330
193
102
}
330
193
100
AcDbVisualStyle
  2
Shaded
 70
    27
177
     2
291
     0
 71
     2
176
     1
 72
     2
176
     1
 73
     1
176
     1
 90
        2
176
     1
 40
0.6
176
     1
 41
30.0
176
     1
 63
     7
421
 16777215
176
     1
 74
     0
176
     1
 91
        4
176
     1
 64
     7
176
     1
 65
   257
176
     1
 75
     1
176
     1
175
     1
176
     1
 42
1.0
176
     1
 92
        8
176
     1
 66
   257
176
     1
 43
1.0
176
     1
 76
     1
176
     1
 77
     6
176
     1
 78
     2
176
     1
 67
     8
425
  7895160
176
     1
 79
     3
176
     1
170
     0
176
     1
171
     0
176
     1
290
     0
176
     1
 93
        5
176
     1
 44
0.0
176
     1
173
     0
176
     1
1001
ACAD
1000
AcDbSavedByObjectVersion
1070
     0
  0
VISUALSTYLE
  5
1A7
102
{ACAD_XDICTIONARY
360
BB9
102
}
102
{ACAD_REACTORS
330
193
102
}
330
193
100
AcDbVisualStyle
  2
Shaded with edges
 70
    26
177
     2
291
     0
 71
     2
176
     1
 72
     2
176
     1
 73
     1
176
     1
 90
        2
176
     1
 40
0.6
176
     1
 41
30.0
176
     1
 63
     7
421
 16777215
176
     1
 74
     1
176
     1
 91
        2
176
     1
 64
     7
176
     1
 65
   257
176
     1
 75
     2
176
     1
175
     1
176
     1
 42
1.0
176
     1
 92
        8
176
     1
 66
   257
176
     1
 43
1.0
176
     1
 76
     1
176
     1
 77
     6
176
     1
 78
     2
176
     1
 67
     7
176
     1
 79
     3
176
     1
170
     0
176
     1
171
     0
176
     1
290
     0
176
     1
 93
        5
176
     1
 44
0.0
176
     1
173
     0
176
     1
1001
ACAD
1000
AcDbSavedByObjectVersion
1070
     0
  0
VISUALSTYLE
  5
1A4
102
{ACAD_XDICTIONARY
360
BB3
102
}
102
{ACAD_REACTORS
330
193
102
}
330
193
100
AcDbVisualStyle
  2
Shades of Gray
 70
    23
177
     2
291
     0
 71
     2
176
     1
 72
     2
176
     1
 73
     3
176
     1
 90
        0
176
     1
 40
0.6
176
     1
 41
30.0
176
     1
 63
     7
421
 16777215
176
     1
 74
     2
176
     1
 91
        2
176
     1
 64
     7
176
     1
 65
     7
176
     1
 75
     1
176
     1
175
     1
176
     1
 42
40.0
176
     1
 92
        8
176
     1
 66
     7
176
     1
 43
1.0
176
     1
 76
     1
176
     1
 77
     6
176
     1
 78
     2
176
     1
 67
     7
176
     1
 79
     3
176
     1
170
     0
176
     1
171
     0
176
     1
290
     0
176
     1
 93
        1
176
     1
 44
0.0
176
     1
173
     0
176
     1
1001
ACAD
1000
AcDbSavedByObjectVersion
1070
     0
  0
VISUALSTYLE
  5
1A5
102
{ACAD_XDICTIONARY
360
BB5
102
}
102
{ACAD_REACTORS
330
193
102
}
330
193
100
AcDbVisualStyle
  2
Sketchy
 70
    24
177
     2
291
     0
 71
     1
176
     1
 72
     2
176
     1
 73
     2
176
     1
 90
        0
176
     1
 40
0.6
176
     1
 41
30.0
176
     1
 63
     7
421
 16777215
176
     1
 74
     2
176
     1
 91
        2
176
     1
 64
     7
176
     1
 65
     7
176
     1
 75
     1
176
     1
175
     1
176
     1
 42
40.0
176
     1
 92
       11
176
     1
 66
     7
176
     1
 43
1.0
176
     1
 76
     1
176
     1
 77
     6
176
     1
 78
     2
176
     1
 67
     7
176
     1
 79
     6
176
     1
170
     0
176
     1
171
     0
176
     1
290
     0
176
     1
 93
        1
176
     1
 44
0.0
176
     1
173
     0
176
     1
1001
ACAD
1000
AcDbSavedByObjectVersion
1070
     0
  0
VISUALSTYLE
  5
1A0
102
{ACAD_XDICTIONARY
360
BAB
102
}
102
{ACAD_REACTORS
330
193
102
}
330
193
100
AcDbVisualStyle
  2
Thicken
 70
    13
177
     2
291
     1
 71
     2
176
     1
 72
     2
176
     1
 73
     0
176
     1
 90
        0
176
     1
 40
0.6
176
     1
 41
30.0
176
     1
 63
     7
421
 16777215
176
     1
 74
     1
176
     1
 91
        4
176
     1
 64
     7
176
     1
 65
   257
176
     1
 75
     1
176
     1
175
     1
176
     1
 42
1.0
176
     1
 92
       12
176
     1
 66
     7
176
     1
 43
1.0
176
     1
 76
     1
176
     1
 77
     6
176
     1
 78
     2
176
     1
 67
     7
176
     1
 79
     5
176
     1
170
     0
176
     1
171
     0
176
     1
290
     0
176
     1
 93
        1
176
     1
 44
0.0
176
     1
173
     0
176
     1
1001
ACAD
1000
AcDbSavedByObjectVersion
1070
     0
  0
VISUALSTYLE
  5
19A
102
{ACAD_XDICTIONARY
360
B9F
102
}
102
{ACAD_REACTORS
330
193
102
}
330
193
100
AcDbVisualStyle
  2
Wireframe
 70
     5
177
     2
291
     0
 71
     0
176
     1
 72
     2
176
     1
 73
     0
176
     1
 90
        0
176
     1
 40
0.6
176
     1
 41
30.0
176
     1
 63
     7
421
 16777215
176
     1
 74
     1
176
     1
 91
        4
176
     1
 64
     7
176
     1
 65
   257
176
     1
 75
     1
176
     1
175
     1
176
     1
 42
1.0
176
     1
 92
        0
176
     1
 66
   257
176
     1
 43
1.0
176
     1
 76
     1
176
     1
 77
     6
176
     1
 78
     2
176
     1
 67
     7
176
     1
 79
     3
176
     1
170
     0
176
     1
171
     0
176
     1
290
     0
176
     1
 93
        1
176
     1
 44
0.0
176
     1
173
     0
176
     1
1001
ACAD
1000
AcDbSavedByObjectVersion
1070
     0
  0
VISUALSTYLE
  5
1A6
102
{ACAD_XDICTIONARY
360
BB7
102
}
102
{ACAD_REACTORS
330
193
102
}
330
193
100
AcDbVisualStyle
  2
X-Ray
 70
    25
177
     2
291
     0
 71
     2
176
     1
 72
     2
176
     1
 73
     1
176
     1
 90
        1
176
     1
 40
0.5
176
     1
 41
30.0
176
     1
 63
     7
421
 16777215
176
     1
 74
     1
176
     1
 91
        0
176
     1
 64
     7
176
     1
 65
   257
176
     1
 75
     1
176
     1
175
     1
176
     1
 42
1.0
176
     1
 92
        8
176
     1
 66
     7
176
     1
 43
1.0
176
     1
 76
     1
176
     1
 77
     6
176
     1
 78
     2
176
     1
 67
     7
176
     1
 79
     3
176
     1
170
     0
176
     1
171
     0
176
     1
290
     0
176
     1
 93
       13
176
     1
 44
0.0
176
     1
173
     0
176
     1
1001
ACAD
1000
AcDbSavedByObjectVersion
1070
     0
  0
DICTIONARYVAR
  5
2D1
102
{ACAD_REACTORS
330
2CB
102
}
330
2CB
100
DictionaryVariables
280
     0
  1
1:1
  0
DICTIONARYVAR
  5
2CD
102
{ACAD_REACTORS
330
2CB
102
}
330
2CB
100
DictionaryVariables
280
     0
  1
STANDARD
  0
DICTIONARYVAR
  5
2CC
102
{ACAD_REACTORS
330
2CB
102
}
330
2CB
100
DictionaryVariables
280
     0
  1
STANDARD
  0
DICTIONARYVAR
  5
2CE
102
{ACAD_REACTORS
330
2CB
102
}
330
2CB
100
DictionaryVariables
280
     0
  1
Imperial24
  0
DICTIONARYVAR
  5
2CF
102
{ACAD_REACTORS
330
2CB
102
}
330
2CB
100
DictionaryVariables
280
     0
  1
Imperial24
  0
DICTIONARYVAR
  5
2D3
102
{ACAD_REACTORS
330
2CB
102
}
330
2CB
100
DictionaryVariables
280
     0
  1
1
  0
DICTIONARYVAR
  5
2D4
102
{ACAD_REACTORS
330
2CB
102
}
330
2CB
100
DictionaryVariables
280
     0
  1
15
  0
DICTIONARYVAR
  5
2D2
102
{ACAD_REACTORS
330
2CB
102
}
330
2CB
100
DictionaryVariables
280
     0
  1
0
  0
DICTIONARYVAR
  5
2D0
102
{ACAD_REACTORS
330
2CB
102
}
330
2CB
100
DictionaryVariables
280
     0
  1
0
  0
DICTIONARY
  5
BC5
330
1C7
100
AcDbDictionary
280
     1
281
     1
  3
ACAD_XREC_ROUNDTRIP
360
BC6
  0
DICTIONARY
  5
184
330
183
100
AcDbDictionary
280
     1
281
     1
  3
BUMPTILE
360
186
  3
DIFFUSETILE
360
185
  3
OPACITYTILE
360
189
  3
REFLECTIONTILE
360
188
  3
REFRACTIONTILE
360
18A
  3
SPECULARTILE
360
187
  0
DICTIONARY
  5
17C
330
17B
100
AcDbDictionary
280
     1
281
     1
  3
BUMPTILE
360
17E
  3
DIFFUSETILE
360
17D
  3
OPACITYTILE
360
181
  3
REFLECTIONTILE
360
180
  3
REFRACTIONTILE
360
182
  3
SPECULARTILE
360
17F
  0
DICTIONARY
  5
18C
330
18B
100
AcDbDictionary
280
     1
281
     1
  3
BUMPTILE
360
18E
  3
DIFFUSETILE
360
18D
  3
OPACITYTILE
360
191
  3
REFLECTIONTILE
360
190
  3
REFRACTIONTILE
360
192
  3
SPECULARTILE
360
18F
  0
DICTIONARY
  5
BC3
330
1C5
100
AcDbDictionary
280
     1
281
     1
  3
ACAD_XREC_ROUNDTRIP
360
BC4
  0
DICTIONARY
  5
35F
330
1AE
100
AcDbDictionary
280
     1
281
     1
  3
ACAD_ROUNDTRIP_2008_TABLESTYLE_CELLSTYLEMAP
360
B91
  0
DICTIONARY
  5
B9D
330
199
100
AcDbDictionary
280
     1
281
     1
  3
ACAD_XREC_ROUNDTRIP
360
B9E
  0
DICTIONARY
  5
B9B
330
198
100
AcDbDictionary
280
     1
281
     1
  3
ACAD_XREC_ROUNDTRIP
360
B9C
  0
DICTIONARY
  5
BA9
330
19F
100
AcDbDictionary
280
     1
281
     1
  3
ACAD_XREC_ROUNDTRIP
360
BAA
  0
DICTIONARY
  5
BB1
330
1A3
100
AcDbDictionary
280
     1
281
     1
  3
ACAD_XREC_ROUNDTRIP
360
BB2
  0
DICTIONARY
  5
BA3
330
19C
100
AcDbDictionary
280
     1
281
     1
  3
ACAD_XREC_ROUNDTRIP
360
BA4
  0
DICTIONARY
  5
BA7
330
19E
100
AcDbDictionary
280
     1
281
     1
  3
ACAD_XREC_ROUNDTRIP
360
BA8
  0
DICTIONARY
  5
BC1
330
1AB
100
AcDbDictionary
280
     1
281
     1
  3
ACAD_XREC_ROUNDTRIP
360
BC2
  0
DICTIONARY
  5
BAF
330
1A2
100
AcDbDictionary
280
     1
281
     1
  3
ACAD_XREC_ROUNDTRIP
360
BB0
  0
DICTIONARY
  5
B93
330
194
100
AcDbDictionary
280
     1
281
     1
  3
ACAD_XREC_ROUNDTRIP
360
B94
  0
DICTIONARY
  5
B95
330
195
100
AcDbDictionary
280
     1
281
     1
  3
ACAD_XREC_ROUNDTRIP
360
B96
  0
DICTIONARY
  5
B97
330
196
100
AcDbDictionary
280
     1
281
     1
  3
ACAD_XREC_ROUNDTRIP
360
B98
  0
DICTIONARY
  5
B99
330
197
100
AcDbDictionary
280
     1
281
     1
  3
ACAD_XREC_ROUNDTRIP
360
B9A
  0
DICTIONARY
  5
BA1
330
19B
100
AcDbDictionary
280
     1
281
     1
  3
ACAD_XREC_ROUNDTRIP
360
BA2
  0
DICTIONARY
  5
BBD
330
1A9
100
AcDbDictionary
280
     1
281
     1
  3
ACAD_XREC_ROUNDTRIP
360
BBE
  0
DICTIONARY
  5
BAD
330
1A1
100
AcDbDictionary
280
     1
281
     1
  3
ACAD_XREC_ROUNDTRIP
360
BAE
  0
DICTIONARY
  5
BBF
330
1AA
100
AcDbDictionary
280
     1
281
     1
  3
ACAD_XREC_ROUNDTRIP
360
BC0
  0
DICTIONARY
  5
BA5
330
19D
100
AcDbDictionary
280
     1
281
     1
  3
ACAD_XREC_ROUNDTRIP
360
BA6
  0
DICTIONARY
  5
BBB
330
1A8
100
AcDbDictionary
280
     1
281
     1
  3
ACAD_XREC_ROUNDTRIP
360
BBC
  0
DICTIONARY
  5
BB9
330
1A7
100
AcDbDictionary
280
     1
281
     1
  3
ACAD_XREC_ROUNDTRIP
360
BBA
  0
DICTIONARY
  5
BB3
330
1A4
100
AcDbDictionary
280
     1
281
     1
  3
ACAD_XREC_ROUNDTRIP
360
BB4
  0
DICTIONARY
  5
BB5
330
1A5
100
AcDbDictionary
280
     1
281
     1
  3
ACAD_XREC_ROUNDTRIP
360
BB6
  0
DICTIONARY
  5
BAB
330
1A0
100
AcDbDictionary
280
     1
281
     1
  3
ACAD_XREC_ROUNDTRIP
360
BAC
  0
DICTIONARY
  5
B9F
330
19A
100
AcDbDictionary
280
     1
281
     1
  3
ACAD_XREC_ROUNDTRIP
360
BA0
  0
DICTIONARY
  5
BB7
330
1A6
100
AcDbDictionary
280
     1
281
     1
  3
ACAD_XREC_ROUNDTRIP
360
BB8
  0
XRECORD
  5
BC6
102
{ACAD_REACTORS
330
BC5
102
}
330
BC5
100
AcDbXrecord
280
     1
102
DISPLAYNAME
  1
Imperial24
102
FLAGS
 90
        0
  0
XRECORD
  5
186
102
{ACAD_REACTORS
330
184
102
}
330
184
100
AcDbXrecord
280
     1
270
     1
271
     1
  0
XRECORD
  5
185
102
{ACAD_REACTORS
330
184
102
}
330
184
100
AcDbXrecord
280
     1
270
     1
271
     1
  0
XRECORD
  5
189
102
{ACAD_REACTORS
330
184
102
}
330
184
100
AcDbXrecord
280
     1
270
     1
271
     1
  0
XRECORD
  5
188
102
{ACAD_REACTORS
330
184
102
}
330
184
100
AcDbXrecord
280
     1
270
     1
271
     1
  0
XRECORD
  5
18A
102
{ACAD_REACTORS
330
184
102
}
330
184
100
AcDbXrecord
280
     1
270
     1
271
     1
  0
XRECORD
  5
187
102
{ACAD_REACTORS
330
184
102
}
330
184
100
AcDbXrecord
280
     1
270
     1
271
     1
  0
XRECORD
  5
17E
102
{ACAD_REACTORS
330
17C
102
}
330
17C
100
AcDbXrecord
280
     1
270
     1
271
     1
  0
XRECORD
  5
17D
102
{ACAD_REACTORS
330
17C
102
}
330
17C
100
AcDbXrecord
280
     1
270
     1
271
     1
  0
XRECORD
  5
181
102
{ACAD_REACTORS
330
17C
102
}
330
17C
100
AcDbXrecord
280
     1
270
     1
271
     1
  0
XRECORD
  5
180
102
{ACAD_REACTORS
330
17C
102
}
330
17C
100
AcDbXrecord
280
     1
270
     1
271
     1
  0
XRECORD
  5
182
102
{ACAD_REACTORS
330
17C
102
}
330
17C
100
AcDbXrecord
280
     1
270
     1
271
     1
  0
XRECORD
  5
17F
102
{ACAD_REACTORS
330
17C
102
}
330
17C
100
AcDbXrecord
280
     1
270
     1
271
     1
  0
XRECORD
  5
18E
102
{ACAD_REACTORS
330
18C
102
}
330
18C
100
AcDbXrecord
280
     1
270
     1
271
     1
  0
XRECORD
  5
18D
102
{ACAD_REACTORS
330
18C
102
}
330
18C
100
AcDbXrecord
280
     1
270
     1
271
     1
  0
XRECORD
  5
191
102
{ACAD_REACTORS
330
18C
102
}
330
18C
100
AcDbXrecord
280
     1
270
     1
271
     1
  0
XRECORD
  5
190
102
{ACAD_REACTORS
330
18C
102
}
330
18C
100
AcDbXrecord
280
     1
270
     1
271
     1
  0
XRECORD
  5
192
102
{ACAD_REACTORS
330
18C
102
}
330
18C
100
AcDbXrecord
280
     1
270
     1
271
     1
  0
XRECORD
  5
18F
102
{ACAD_REACTORS
330
18C
102
}
330
18C
100
AcDbXrecord
280
     1
270
     1
271
     1
  0
XRECORD
  5
BC4
102
{ACAD_REACTORS
330
BC3
102
}
330
BC3
100
AcDbXrecord
280
     1
102
DISPLAYNAME
  1
Imperial24
102
FLAGS
 90
        0
  0
CELLSTYLEMAP
  5
B91
102
{ACAD_REACTORS
330
35F
102
}
330
35F
100
AcDbCellStyleMap
 90
        3
300
CELLSTYLE
  1
TABLEFORMAT_BEGIN
 90
        5
170
     1
 91
        0
 92
    32768
 62
   257
 93
        1
300
CONTENTFORMAT
  1
CONTENTFORMAT_BEGIN
 90
        0
 91
        0
 92
      512
 93
        0
300

 40
0.0
140
1.0
 94
        5
 62
     0
340
11
144
0.25
309
CONTENTFORMAT_END
171
     1
301
MARGIN
  1
CELLMARGIN_BEGIN
 40
0.06
 40
0.06
 40
0.06
 40
0.06
 40
0.18
 40
0.18
309
CELLMARGIN_END
 94
        6
 95
        1
302
GRIDFORMAT
  1
GRIDFORMAT_BEGIN
 90
        0
 91
        1
 62
     0
 92
       -2
340
0
 93
        0
 40
0.045
309
GRIDFORMAT_END
 95
        2
302
GRIDFORMAT
  1
GRIDFORMAT_BEGIN
 90
        0
 91
        1
 62
     0
 92
       -2
340
0
 93
        0
 40
0.045
309
GRIDFORMAT_END
 95
        4
302
GRIDFORMAT
  1
GRIDFORMAT_BEGIN
 90
        0
 91
        1
 62
     0
 92
       -2
340
0
 93
        0
 40
0.045
309
GRIDFORMAT_END
 95
        8
302
GRIDFORMAT
  1
GRIDFORMAT_BEGIN
 90
        0
 91
        1
 62
     0
 92
       -2
340
0
 93
        0
 40
0.045
309
GRIDFORMAT_END
 95
       16
302
GRIDFORMAT
  1
GRIDFORMAT_BEGIN
 90
        0
 91
        1
 62
     0
 92
       -2
340
0
 93
        0
 40
0.045
309
GRIDFORMAT_END
 95
       32
302
GRIDFORMAT
  1
GRIDFORMAT_BEGIN
 90
        0
 91
        1
 62
     0
 92
       -2
340
0
 93
        0
 40
0.045
309
GRIDFORMAT_END
309
TABLEFORMAT_END
  1
CELLSTYLE_BEGIN
 90
        1
 91
        1
300
_TITLE
309
CELLSTYLE_END
300
CELLSTYLE
  1
TABLEFORMAT_BEGIN
 90
        5
170
     1
 91
        0
 92
        0
 62
   257
 93
        1
300
CONTENTFORMAT
  1
CONTENTFORMAT_BEGIN
 90
        0
 91
        0
 92
      512
 93
        0
300

 40
0.0
140
1.0
 94
        5
 62
     0
340
11
144
0.18
309
CONTENTFORMAT_END
171
     1
301
MARGIN
  1
CELLMARGIN_BEGIN
 40
0.06
 40
0.06
 40
0.06
 40
0.06
 40
0.18
 40
0.18
309
CELLMARGIN_END
 94
        6
 95
        1
302
GRIDFORMAT
  1
GRIDFORMAT_BEGIN
 90
        0
 91
        1
 62
     0
 92
       -2
340
0
 93
        0
 40
0.045
309
GRIDFORMAT_END
 95
        2
302
GRIDFORMAT
  1
GRIDFORMAT_BEGIN
 90
        0
 91
        1
 62
     0
 92
       -2
340
0
 93
        0
 40
0.045
309
GRIDFORMAT_END
 95
        4
302
GRIDFORMAT
  1
GRIDFORMAT_BEGIN
 90
        0
 91
        1
 62
     0
 92
       -2
340
0
 93
        0
 40
0.045
309
GRIDFORMAT_END
 95
        8
302
GRIDFORMAT
  1
GRIDFORMAT_BEGIN
 90
        0
 91
        1
 62
     0
 92
       -2
340
0
 93
        0
 40
0.045
309
GRIDFORMAT_END
 95
       16
302
GRIDFORMAT
  1
GRIDFORMAT_BEGIN
 90
        0
 91
        1
 62
     0
 92
       -2
340
0
 93
        0
 40
0.045
309
GRIDFORMAT_END
 95
       32
302
GRIDFORMAT
  1
GRIDFORMAT_BEGIN
 90
        0
 91
        1
 62
     0
 92
       -2
340
0
 93
        0
 40
0.045
309
GRIDFORMAT_END
309
TABLEFORMAT_END
  1
CELLSTYLE_BEGIN
 90
        2
 91
        1
300
_HEADER
309
CELLSTYLE_END
300
CELLSTYLE
  1
TABLEFORMAT_BEGIN
 90
        5
170
     1
 91
        0
 92
        0
 62
   257
 93
        1
300
CONTENTFORMAT
  1
CONTENTFORMAT_BEGIN
 90
        0
 91
        0
 92
      512
 93
        0
300

 40
0.0
140
1.0
 94
        2
 62
     0
340
11
144
0.18
309
CONTENTFORMAT_END
171
     1
301
MARGIN
  1
CELLMARGIN_BEGIN
 40
0.06
 40
0.06
 40
0.06
 40
0.06
 40
0.18
 40
0.18
309
CELLMARGIN_END
 94
        6
 95
        1
302
GRIDFORMAT
  1
GRIDFORMAT_BEGIN
 90
        0
 91
        1
 62
     0
 92
       -2
340
0
 93
        0
 40
0.045
309
GRIDFORMAT_END
 95
        2
302
GRIDFORMAT
  1
GRIDFORMAT_BEGIN
 90
        0
 91
        1
 62
     0
 92
       -2
340
0
 93
        0
 40
0.045
309
GRIDFORMAT_END
 95
        4
302
GRIDFORMAT
  1
GRIDFORMAT_BEGIN
 90
        0
 91
        1
 62
     0
 92
       -2
340
0
 93
        0
 40
0.045
309
GRIDFORMAT_END
 95
        8
302
GRIDFORMAT
  1
GRIDFORMAT_BEGIN
 90
        0
 91
        1
 62
     0
 92
       -2
340
0
 93
        0
 40
0.045
309
GRIDFORMAT_END
 95
       16
302
GRIDFORMAT
  1
GRIDFORMAT_BEGIN
 90
        0
 91
        1
 62
     0
 92
       -2
340
0
 93
        0
 40
0.045
309
GRIDFORMAT_END
 95
       32
302
GRIDFORMAT
  1
GRIDFORMAT_BEGIN
 90
        0
 91
        1
 62
     0
 92
       -2
340
0
 93
        0
 40
0.045
309
GRIDFORMAT_END
309
TABLEFORMAT_END
  1
CELLSTYLE_BEGIN
 90
        3
 91
        2
300
_DATA
309
CELLSTYLE_END
  0
XRECORD
  5
B9E
102
{ACAD_REACTORS
330
B9D
102
}
330
B9D
100
AcDbXrecord
280
     1
102
RTVSPost2010Prop28
280
     1
102
RTVSPost2010PropOp28
 70
     1
102
RTVSPost2010Prop29
280
     1
102
RTVSPost2010PropOp29
 70
     1
102
RTVSPost2010Prop30
280
     0
102
RTVSPost2010PropOp30
 70
     1
102
RTVSPost2010Prop31
280
     0
102
RTVSPost2010PropOp31
 70
     1
102
RTVSPost2010Prop32
280
     0
102
RTVSPost2010PropOp32
 70
     1
102
RTVSPost2010Prop33
280
     0
102
RTVSPost2010PropOp33
 70
     1
102
RTVSPost2010Prop34
280
     0
102
RTVSPost2010PropOp34
 70
     1
102
RTVSPost2010Prop35
280
     0
102
RTVSPost2010PropOp35
 70
     1
102
RTVSPost2010Prop36
280
     0
102
RTVSPost2010PropOp36
 70
     1
102
RTVSPost2010Prop37
 90
       50
102
RTVSPost2010PropOp37
 70
     1
102
RTVSPost2010Prop38
140
0.0
102
RTVSPost2010PropOp38
 70
     1
102
RTVSPost2010Prop39
140
1.0
102
RTVSPost2010PropOp39
 70
     1
102
RTVSPost2010Prop40
 90
        0
102
RTVSPost2010PropOp40
 70
     1
102
RTVSPost2010Prop41ColorIndex
 90
       18
102
RTVSPost2010Prop41ColorRGB
 90
        0
102
RTVSPost2010PropOp41
 70
     1
102
RTVSPost2010Prop42
 90
       50
102
RTVSPost2010PropOp42
 70
     1
102
RTVSPost2010Prop43
 90
        3
102
RTVSPost2010PropOp43
 70
     1
102
RTVSPost2010Prop44ColorIndex
 90
        5
102
RTVSPost2010Prop44ColorRGB
 90
      255
102
RTVSPost2010PropOp44
 70
     1
102
RTVSPost2010Prop45
280
     0
102
RTVSPost2010PropOp45
 70
     1
102
RTVSPost2010Prop46
 90
       50
102
RTVSPost2010PropOp46
 70
     1
102
RTVSPost2010Prop47
 90
       50
102
RTVSPost2010PropOp47
 70
     1
102
RTVSPost2010Prop48
 90
       50
102
RTVSPost2010PropOp48
 70
     1
102
RTVSPost2010Prop49
280
     0
102
RTVSPost2010PropOp49
 70
     1
102
RTVSPost2010Prop50
 90
       50
102
RTVSPost2010PropOp50
 70
     1
102
RTVSPost2010Prop51ColorIndex
 90
      256
102
RTVSPost2010Prop51ColorRGB
 90
-16777216
102
RTVSPost2010PropOp51
 70
     0
102
RTVSPost2010Prop52
140
1.0
102
RTVSPost2010PropOp52
 70
     0
102
RTVSPost2010Prop53
 90
        2
102
RTVSPost2010PropOp53
 70
     1
102
RTVSPost2010Prop54
  1
strokes_ogs.tif
102
RTVSPost2010PropOp54
 70
     1
102
RTVSPost2010Prop55
280
     0
102
RTVSPost2010PropOp55
 70
     1
102
RTVSPost2010Prop56
140
1.0
102
RTVSPost2010PropOp56
 70
     1
102
RTVSPost2010Prop57
140
1.0
102
RTVSPost2010PropOp57
 70
     1
  0
XRECORD
  5
B9C
102
{ACAD_REACTORS
330
B9B
102
}
330
B9B
100
AcDbXrecord
280
     1
102
RTVSPost2010Prop28
280
     0
102
RTVSPost2010PropOp28
 70
     1
102
RTVSPost2010Prop29
280
     1
102
RTVSPost2010PropOp29
 70
     1
102
RTVSPost2010Prop30
280
     1
102
RTVSPost2010PropOp30
 70
     1
102
RTVSPost2010Prop31
280
     0
102
RTVSPost2010PropOp31
 70
     1
102
RTVSPost2010Prop32
280
     0
102
RTVSPost2010PropOp32
 70
     1
102
RTVSPost2010Prop33
280
     0
102
RTVSPost2010PropOp33
 70
     1
102
RTVSPost2010Prop34
280
     0
102
RTVSPost2010PropOp34
 70
     1
102
RTVSPost2010Prop35
280
     0
102
RTVSPost2010PropOp35
 70
     1
102
RTVSPost2010Prop36
280
     0
102
RTVSPost2010PropOp36
 70
     1
102
RTVSPost2010Prop37
 90
       50
102
RTVSPost2010PropOp37
 70
     1
102
RTVSPost2010Prop38
140
0.0
102
RTVSPost2010PropOp38
 70
     1
102
RTVSPost2010Prop39
140
1.0
102
RTVSPost2010PropOp39
 70
     1
102
RTVSPost2010Prop40
 90
        0
102
RTVSPost2010PropOp40
 70
     1
102
RTVSPost2010Prop41ColorIndex
 90
       18
102
RTVSPost2010Prop41ColorRGB
 90
        0
102
RTVSPost2010PropOp41
 70
     1
102
RTVSPost2010Prop42
 90
       50
102
RTVSPost2010PropOp42
 70
     1
102
RTVSPost2010Prop43
 90
        3
102
RTVSPost2010PropOp43
 70
     1
102
RTVSPost2010Prop44ColorIndex
 90
        5
102
RTVSPost2010Prop44ColorRGB
 90
      255
102
RTVSPost2010PropOp44
 70
     1
102
RTVSPost2010Prop45
280
     0
102
RTVSPost2010PropOp45
 70
     1
102
RTVSPost2010Prop46
 90
       50
102
RTVSPost2010PropOp46
 70
     1
102
RTVSPost2010Prop47
 90
       50
102
RTVSPost2010PropOp47
 70
     1
102
RTVSPost2010Prop48
 90
       50
102
RTVSPost2010PropOp48
 70
     1
102
RTVSPost2010Prop49
280
     0
102
RTVSPost2010PropOp49
 70
     1
102
RTVSPost2010Prop50
 90
       50
102
RTVSPost2010PropOp50
 70
     1
102
RTVSPost2010Prop51ColorIndex
 90
      256
102
RTVSPost2010Prop51ColorRGB
 90
-16777216
102
RTVSPost2010PropOp51
 70
     0
102
RTVSPost2010Prop52
140
1.0
102
RTVSPost2010PropOp52
 70
     0
102
RTVSPost2010Prop53
 90
        2
102
RTVSPost2010PropOp53
 70
     1
102
RTVSPost2010Prop54
  1
strokes_ogs.tif
102
RTVSPost2010PropOp54
 70
     1
102
RTVSPost2010Prop55
280
     0
102
RTVSPost2010PropOp55
 70
     1
102
RTVSPost2010Prop56
140
1.0
102
RTVSPost2010PropOp56
 70
     1
102
RTVSPost2010Prop57
140
1.0
102
RTVSPost2010PropOp57
 70
     1
  0
XRECORD
  5
BAA
102
{ACAD_REACTORS
330
BA9
102
}
330
BA9
100
AcDbXrecord
280
     1
102
RTVSPost2010Prop28
280
     0
102
RTVSPost2010PropOp28
 70
     1
102
RTVSPost2010Prop29
280
     1
102
RTVSPost2010PropOp29
 70
     1
102
RTVSPost2010Prop30
280
     1
102
RTVSPost2010PropOp30
 70
     1
102
RTVSPost2010Prop31
280
     0
102
RTVSPost2010PropOp31
 70
     1
102
RTVSPost2010Prop32
280
     0
102
RTVSPost2010PropOp32
 70
     1
102
RTVSPost2010Prop33
280
     0
102
RTVSPost2010PropOp33
 70
     1
102
RTVSPost2010Prop34
280
     0
102
RTVSPost2010PropOp34
 70
     1
102
RTVSPost2010Prop35
280
     0
102
RTVSPost2010PropOp35
 70
     1
102
RTVSPost2010Prop36
280
     0
102
RTVSPost2010PropOp36
 70
     1
102
RTVSPost2010Prop37
 90
       50
102
RTVSPost2010PropOp37
 70
     1
102
RTVSPost2010Prop38
140
0.0
102
RTVSPost2010PropOp38
 70
     1
102
RTVSPost2010Prop39
140
1.0
102
RTVSPost2010PropOp39
 70
     1
102
RTVSPost2010Prop40
 90
        0
102
RTVSPost2010PropOp40
 70
     1
102
RTVSPost2010Prop41ColorIndex
 90
       18
102
RTVSPost2010Prop41ColorRGB
 90
        0
102
RTVSPost2010PropOp41
 70
     1
102
RTVSPost2010Prop42
 90
       50
102
RTVSPost2010PropOp42
 70
     1
102
RTVSPost2010Prop43
 90
        3
102
RTVSPost2010PropOp43
 70
     1
102
RTVSPost2010Prop44ColorIndex
 90
        5
102
RTVSPost2010Prop44ColorRGB
 90
      255
102
RTVSPost2010PropOp44
 70
     1
102
RTVSPost2010Prop45
280
     0
102
RTVSPost2010PropOp45
 70
     1
102
RTVSPost2010Prop46
 90
       50
102
RTVSPost2010PropOp46
 70
     1
102
RTVSPost2010Prop47
 90
       50
102
RTVSPost2010PropOp47
 70
     1
102
RTVSPost2010Prop48
 90
       50
102
RTVSPost2010PropOp48
 70
     1
102
RTVSPost2010Prop49
280
     0
102
RTVSPost2010PropOp49
 70
     1
102
RTVSPost2010Prop50
 90
       50
102
RTVSPost2010PropOp50
 70
     1
102
RTVSPost2010Prop51ColorIndex
 90
      256
102
RTVSPost2010Prop51ColorRGB
 90
-16777216
102
RTVSPost2010PropOp51
 70
     0
102
RTVSPost2010Prop52
140
1.0
102
RTVSPost2010PropOp52
 70
     0
102
RTVSPost2010Prop53
 90
        2
102
RTVSPost2010PropOp53
 70
     1
102
RTVSPost2010Prop54
  1
strokes_ogs.tif
102
RTVSPost2010PropOp54
 70
     1
102
RTVSPost2010Prop55
280
     0
102
RTVSPost2010PropOp55
 70
     1
102
RTVSPost2010Prop56
140
1.0
102
RTVSPost2010PropOp56
 70
     1
102
RTVSPost2010Prop57
140
1.0
102
RTVSPost2010PropOp57
 70
     1
  0
XRECORD
  5
BB2
102
{ACAD_REACTORS
330
BB1
102
}
330
BB1
100
AcDbXrecord
280
     1
102
RTVSPost2010Prop28
280
     0
102
RTVSPost2010PropOp28
 70
     1
102
RTVSPost2010Prop29
280
     1
102
RTVSPost2010PropOp29
 70
     1
102
RTVSPost2010Prop30
280
     1
102
RTVSPost2010PropOp30
 70
     1
102
RTVSPost2010Prop31
280
     0
102
RTVSPost2010PropOp31
 70
     1
102
RTVSPost2010Prop32
280
     0
102
RTVSPost2010PropOp32
 70
     1
102
RTVSPost2010Prop33
280
     0
102
RTVSPost2010PropOp33
 70
     1
102
RTVSPost2010Prop34
280
     0
102
RTVSPost2010PropOp34
 70
     1
102
RTVSPost2010Prop35
280
     0
102
RTVSPost2010PropOp35
 70
     1
102
RTVSPost2010Prop36
280
     0
102
RTVSPost2010PropOp36
 70
     1
102
RTVSPost2010Prop37
 90
       50
102
RTVSPost2010PropOp37
 70
     1
102
RTVSPost2010Prop38
140
0.0
102
RTVSPost2010PropOp38
 70
     1
102
RTVSPost2010Prop39
140
1.0
102
RTVSPost2010PropOp39
 70
     1
102
RTVSPost2010Prop40
 90
        0
102
RTVSPost2010PropOp40
 70
     1
102
RTVSPost2010Prop41ColorIndex
 90
       18
102
RTVSPost2010Prop41ColorRGB
 90
        0
102
RTVSPost2010PropOp41
 70
     1
102
RTVSPost2010Prop42
 90
       50
102
RTVSPost2010PropOp42
 70
     1
102
RTVSPost2010Prop43
 90
        3
102
RTVSPost2010PropOp43
 70
     1
102
RTVSPost2010Prop44ColorIndex
 90
        5
102
RTVSPost2010Prop44ColorRGB
 90
      255
102
RTVSPost2010PropOp44
 70
     1
102
RTVSPost2010Prop45
280
     0
102
RTVSPost2010PropOp45
 70
     1
102
RTVSPost2010Prop46
 90
       50
102
RTVSPost2010PropOp46
 70
     1
102
RTVSPost2010Prop47
 90
       50
102
RTVSPost2010PropOp47
 70
     1
102
RTVSPost2010Prop48
 90
       50
102
RTVSPost2010PropOp48
 70
     1
102
RTVSPost2010Prop49
280
     0
102
RTVSPost2010PropOp49
 70
     1
102
RTVSPost2010Prop50
 90
       50
102
RTVSPost2010PropOp50
 70
     1
102
RTVSPost2010Prop51ColorIndex
 90
      256
102
RTVSPost2010Prop51ColorRGB
 90
-16777216
102
RTVSPost2010PropOp51
 70
     0
102
RTVSPost2010Prop52
140
1.0
102
RTVSPost2010PropOp52
 70
     0
102
RTVSPost2010Prop53
 90
        2
102
RTVSPost2010PropOp53
 70
     1
102
RTVSPost2010Prop54
  1
strokes_ogs.tif
102
RTVSPost2010PropOp54
 70
     1
102
RTVSPost2010Prop55
280
     0
102
RTVSPost2010PropOp55
 70
     1
102
RTVSPost2010Prop56
140
1.0
102
RTVSPost2010PropOp56
 70
     1
102
RTVSPost2010Prop57
140
1.0
102
RTVSPost2010PropOp57
 70
     1
  0
XRECORD
  5
BA4
102
{ACAD_REACTORS
330
BA3
102
}
330
BA3
100
AcDbXrecord
280
     1
102
RTVSPost2010Prop28
280
     0
102
RTVSPost2010PropOp28
 70
     1
102
RTVSPost2010Prop29
280
     1
102
RTVSPost2010PropOp29
 70
     1
102
RTVSPost2010Prop30
280
     1
102
RTVSPost2010PropOp30
 70
     1
102
RTVSPost2010Prop31
280
     0
102
RTVSPost2010PropOp31
 70
     1
102
RTVSPost2010Prop32
280
     0
102
RTVSPost2010PropOp32
 70
     1
102
RTVSPost2010Prop33
280
     0
102
RTVSPost2010PropOp33
 70
     1
102
RTVSPost2010Prop34
280
     0
102
RTVSPost2010PropOp34
 70
     1
102
RTVSPost2010Prop35
280
     0
102
RTVSPost2010PropOp35
 70
     1
102
RTVSPost2010Prop36
280
     0
102
RTVSPost2010PropOp36
 70
     1
102
RTVSPost2010Prop37
 90
       50
102
RTVSPost2010PropOp37
 70
     1
102
RTVSPost2010Prop38
140
0.0
102
RTVSPost2010PropOp38
 70
     1
102
RTVSPost2010Prop39
140
1.0
102
RTVSPost2010PropOp39
 70
     1
102
RTVSPost2010Prop40
 90
        0
102
RTVSPost2010PropOp40
 70
     1
102
RTVSPost2010Prop41ColorIndex
 90
       18
102
RTVSPost2010Prop41ColorRGB
 90
        0
102
RTVSPost2010PropOp41
 70
     1
102
RTVSPost2010Prop42
 90
       50
102
RTVSPost2010PropOp42
 70
     1
102
RTVSPost2010Prop43
 90
        3
102
RTVSPost2010PropOp43
 70
     1
102
RTVSPost2010Prop44ColorIndex
 90
        5
102
RTVSPost2010Prop44ColorRGB
 90
      255
102
RTVSPost2010PropOp44
 70
     1
102
RTVSPost2010Prop45
280
     0
102
RTVSPost2010PropOp45
 70
     1
102
RTVSPost2010Prop46
 90
       50
102
RTVSPost2010PropOp46
 70
     1
102
RTVSPost2010Prop47
 90
       50
102
RTVSPost2010PropOp47
 70
     1
102
RTVSPost2010Prop48
 90
       50
102
RTVSPost2010PropOp48
 70
     1
102
RTVSPost2010Prop49
280
     0
102
RTVSPost2010PropOp49
 70
     1
102
RTVSPost2010Prop50
 90
       50
102
RTVSPost2010PropOp50
 70
     1
102
RTVSPost2010Prop51ColorIndex
 90
      256
102
RTVSPost2010Prop51ColorRGB
 90
-16777216
102
RTVSPost2010PropOp51
 70
     0
102
RTVSPost2010Prop52
140
1.0
102
RTVSPost2010PropOp52
 70
     0
102
RTVSPost2010Prop53
 90
        2
102
RTVSPost2010PropOp53
 70
     1
102
RTVSPost2010Prop54
  1
strokes_ogs.tif
102
RTVSPost2010PropOp54
 70
     1
102
RTVSPost2010Prop55
280
     0
102
RTVSPost2010PropOp55
 70
     1
102
RTVSPost2010Prop56
140
1.0
102
RTVSPost2010PropOp56
 70
     1
102
RTVSPost2010Prop57
140
1.0
102
RTVSPost2010PropOp57
 70
     1
  0
XRECORD
  5
BA8
102
{ACAD_REACTORS
330
BA7
102
}
330
BA7
100
AcDbXrecord
280
     1
102
RTVSPost2010Prop28
280
     0
102
RTVSPost2010PropOp28
 70
     1
102
RTVSPost2010Prop29
280
     1
102
RTVSPost2010PropOp29
 70
     1
102
RTVSPost2010Prop30
280
     1
102
RTVSPost2010PropOp30
 70
     1
102
RTVSPost2010Prop31
280
     0
102
RTVSPost2010PropOp31
 70
     1
102
RTVSPost2010Prop32
280
     0
102
RTVSPost2010PropOp32
 70
     1
102
RTVSPost2010Prop33
280
     0
102
RTVSPost2010PropOp33
 70
     1
102
RTVSPost2010Prop34
280
     0
102
RTVSPost2010PropOp34
 70
     1
102
RTVSPost2010Prop35
280
     0
102
RTVSPost2010PropOp35
 70
     1
102
RTVSPost2010Prop36
280
     0
102
RTVSPost2010PropOp36
 70
     1
102
RTVSPost2010Prop37
 90
       50
102
RTVSPost2010PropOp37
 70
     1
102
RTVSPost2010Prop38
140
0.0
102
RTVSPost2010PropOp38
 70
     1
102
RTVSPost2010Prop39
140
1.0
102
RTVSPost2010PropOp39
 70
     1
102
RTVSPost2010Prop40
 90
        0
102
RTVSPost2010PropOp40
 70
     1
102
RTVSPost2010Prop41ColorIndex
 90
       18
102
RTVSPost2010Prop41ColorRGB
 90
        0
102
RTVSPost2010PropOp41
 70
     1
102
RTVSPost2010Prop42
 90
       50
102
RTVSPost2010PropOp42
 70
     1
102
RTVSPost2010Prop43
 90
        3
102
RTVSPost2010PropOp43
 70
     1
102
RTVSPost2010Prop44ColorIndex
 90
        5
102
RTVSPost2010Prop44ColorRGB
 90
      255
102
RTVSPost2010PropOp44
 70
     1
102
RTVSPost2010Prop45
280
     0
102
RTVSPost2010PropOp45
 70
     1
102
RTVSPost2010Prop46
 90
       50
102
RTVSPost2010PropOp46
 70
     1
102
RTVSPost2010Prop47
 90
       50
102
RTVSPost2010PropOp47
 70
     1
102
RTVSPost2010Prop48
 90
       50
102
RTVSPost2010PropOp48
 70
     1
102
RTVSPost2010Prop49
280
     0
102
RTVSPost2010PropOp49
 70
     1
102
RTVSPost2010Prop50
 90
       50
102
RTVSPost2010PropOp50
 70
     1
102
RTVSPost2010Prop51ColorIndex
 90
      256
102
RTVSPost2010Prop51ColorRGB
 90
-16777216
102
RTVSPost2010PropOp51
 70
     0
102
RTVSPost2010Prop52
140
1.0
102
RTVSPost2010PropOp52
 70
     0
102
RTVSPost2010Prop53
 90
        2
102
RTVSPost2010PropOp53
 70
     1
102
RTVSPost2010Prop54
  1
strokes_ogs.tif
102
RTVSPost2010PropOp54
 70
     1
102
RTVSPost2010Prop55
280
     0
102
RTVSPost2010PropOp55
 70
     1
102
RTVSPost2010Prop56
140
1.0
102
RTVSPost2010PropOp56
 70
     1
102
RTVSPost2010Prop57
140
1.0
102
RTVSPost2010PropOp57
 70
     1
  0
XRECORD
  5
BC2
102
{ACAD_REACTORS
330
BC1
102
}
330
BC1
100
AcDbXrecord
280
     1
102
RTVSPost2010Prop28
280
     0
102
RTVSPost2010PropOp28
 70
     1
102
RTVSPost2010Prop29
280
     1
102
RTVSPost2010PropOp29
 70
     1
102
RTVSPost2010Prop30
280
     1
102
RTVSPost2010PropOp30
 70
     1
102
RTVSPost2010Prop31
280
     0
102
RTVSPost2010PropOp31
 70
     1
102
RTVSPost2010Prop32
280
     0
102
RTVSPost2010PropOp32
 70
     1
102
RTVSPost2010Prop33
280
     0
102
RTVSPost2010PropOp33
 70
     1
102
RTVSPost2010Prop34
280
     0
102
RTVSPost2010PropOp34
 70
     1
102
RTVSPost2010Prop35
280
     0
102
RTVSPost2010PropOp35
 70
     1
102
RTVSPost2010Prop36
280
     0
102
RTVSPost2010PropOp36
 70
     1
102
RTVSPost2010Prop37
 90
       50
102
RTVSPost2010PropOp37
 70
     0
102
RTVSPost2010Prop38
140
0.0
102
RTVSPost2010PropOp38
 70
     0
102
RTVSPost2010Prop39
140
1.0
102
RTVSPost2010PropOp39
 70
     0
102
RTVSPost2010Prop40
 90
        0
102
RTVSPost2010PropOp40
 70
     0
102
RTVSPost2010Prop41ColorIndex
 90
       18
102
RTVSPost2010Prop41ColorRGB
 90
        0
102
RTVSPost2010PropOp41
 70
     0
102
RTVSPost2010Prop42
 90
       50
102
RTVSPost2010PropOp42
 70
     0
102
RTVSPost2010Prop43
 90
        3
102
RTVSPost2010PropOp43
 70
     0
102
RTVSPost2010Prop44ColorIndex
 90
        5
102
RTVSPost2010Prop44ColorRGB
 90
      255
102
RTVSPost2010PropOp44
 70
     0
102
RTVSPost2010Prop45
280
     0
102
RTVSPost2010PropOp45
 70
     1
102
RTVSPost2010Prop46
 90
       50
102
RTVSPost2010PropOp46
 70
     0
102
RTVSPost2010Prop47
 90
       50
102
RTVSPost2010PropOp47
 70
     0
102
RTVSPost2010Prop48
 90
       50
102
RTVSPost2010PropOp48
 70
     0
102
RTVSPost2010Prop49
280
     0
102
RTVSPost2010PropOp49
 70
     1
102
RTVSPost2010Prop50
 90
       50
102
RTVSPost2010PropOp50
 70
     0
102
RTVSPost2010Prop51ColorIndex
 90
      256
102
RTVSPost2010Prop51ColorRGB
 90
-16777216
102
RTVSPost2010PropOp51
 70
     0
102
RTVSPost2010Prop52
140
1.0
102
RTVSPost2010PropOp52
 70
     0
102
RTVSPost2010Prop53
 90
        2
102
RTVSPost2010PropOp53
 70
     0
102
RTVSPost2010Prop54
  1
strokes_ogs.tif
102
RTVSPost2010PropOp54
 70
     0
102
RTVSPost2010Prop55
280
     0
102
RTVSPost2010PropOp55
 70
     1
102
RTVSPost2010Prop56
140
1.0
102
RTVSPost2010PropOp56
 70
     0
102
RTVSPost2010Prop57
140
1.0
102
RTVSPost2010PropOp57
 70
     0
  0
XRECORD
  5
BB0
102
{ACAD_REACTORS
330
BAF
102
}
330
BAF
100
AcDbXrecord
280
     1
102
RTVSPost2010Prop28
280
     0
102
RTVSPost2010PropOp28
 70
     1
102
RTVSPost2010Prop29
280
     1
102
RTVSPost2010PropOp29
 70
     1
102
RTVSPost2010Prop30
280
     1
102
RTVSPost2010PropOp30
 70
     1
102
RTVSPost2010Prop31
280
     0
102
RTVSPost2010PropOp31
 70
     1
102
RTVSPost2010Prop32
280
     0
102
RTVSPost2010PropOp32
 70
     1
102
RTVSPost2010Prop33
280
     0
102
RTVSPost2010PropOp33
 70
     1
102
RTVSPost2010Prop34
280
     0
102
RTVSPost2010PropOp34
 70
     1
102
RTVSPost2010Prop35
280
     0
102
RTVSPost2010PropOp35
 70
     1
102
RTVSPost2010Prop36
280
     0
102
RTVSPost2010PropOp36
 70
     1
102
RTVSPost2010Prop37
 90
       50
102
RTVSPost2010PropOp37
 70
     1
102
RTVSPost2010Prop38
140
0.0
102
RTVSPost2010PropOp38
 70
     1
102
RTVSPost2010Prop39
140
1.0
102
RTVSPost2010PropOp39
 70
     1
102
RTVSPost2010Prop40
 90
        0
102
RTVSPost2010PropOp40
 70
     1
102
RTVSPost2010Prop41ColorIndex
 90
       18
102
RTVSPost2010Prop41ColorRGB
 90
        0
102
RTVSPost2010PropOp41
 70
     1
102
RTVSPost2010Prop42
 90
       50
102
RTVSPost2010PropOp42
 70
     1
102
RTVSPost2010Prop43
 90
        3
102
RTVSPost2010PropOp43
 70
     1
102
RTVSPost2010Prop44ColorIndex
 90
        5
102
RTVSPost2010Prop44ColorRGB
 90
      255
102
RTVSPost2010PropOp44
 70
     1
102
RTVSPost2010Prop45
280
     0
102
RTVSPost2010PropOp45
 70
     1
102
RTVSPost2010Prop46
 90
       50
102
RTVSPost2010PropOp46
 70
     1
102
RTVSPost2010Prop47
 90
       50
102
RTVSPost2010PropOp47
 70
     1
102
RTVSPost2010Prop48
 90
       50
102
RTVSPost2010PropOp48
 70
     1
102
RTVSPost2010Prop49
280
     0
102
RTVSPost2010PropOp49
 70
     1
102
RTVSPost2010Prop50
 90
       50
102
RTVSPost2010PropOp50
 70
     1
102
RTVSPost2010Prop51ColorIndex
 90
      256
102
RTVSPost2010Prop51ColorRGB
 90
-16777216
102
RTVSPost2010PropOp51
 70
     0
102
RTVSPost2010Prop52
140
1.0
102
RTVSPost2010PropOp52
 70
     0
102
RTVSPost2010Prop53
 90
        2
102
RTVSPost2010PropOp53
 70
     1
102
RTVSPost2010Prop54
  1
strokes_ogs.tif
102
RTVSPost2010PropOp54
 70
     1
102
RTVSPost2010Prop55
280
     0
102
RTVSPost2010PropOp55
 70
     1
102
RTVSPost2010Prop56
140
1.0
102
RTVSPost2010PropOp56
 70
     1
102
RTVSPost2010Prop57
140
1.0
102
RTVSPost2010PropOp57
 70
     1
  0
XRECORD
  5
B94
102
{ACAD_REACTORS
330
B93
102
}
330
B93
100
AcDbXrecord
280
     1
102
RTVSPost2010Prop28
280
     0
102
RTVSPost2010PropOp28
 70
     1
102
RTVSPost2010Prop29
280
     1
102
RTVSPost2010PropOp29
 70
     1
102
RTVSPost2010Prop30
280
     1
102
RTVSPost2010PropOp30
 70
     1
102
RTVSPost2010Prop31
280
     0
102
RTVSPost2010PropOp31
 70
     1
102
RTVSPost2010Prop32
280
     0
102
RTVSPost2010PropOp32
 70
     1
102
RTVSPost2010Prop33
280
     0
102
RTVSPost2010PropOp33
 70
     1
102
RTVSPost2010Prop34
280
     0
102
RTVSPost2010PropOp34
 70
     1
102
RTVSPost2010Prop35
280
     0
102
RTVSPost2010PropOp35
 70
     1
102
RTVSPost2010Prop36
280
     0
102
RTVSPost2010PropOp36
 70
     1
102
RTVSPost2010Prop37
 90
       50
102
RTVSPost2010PropOp37
 70
     1
102
RTVSPost2010Prop38
140
0.0
102
RTVSPost2010PropOp38
 70
     1
102
RTVSPost2010Prop39
140
1.0
102
RTVSPost2010PropOp39
 70
     1
102
RTVSPost2010Prop40
 90
        0
102
RTVSPost2010PropOp40
 70
     1
102
RTVSPost2010Prop41ColorIndex
 90
       18
102
RTVSPost2010Prop41ColorRGB
 90
        0
102
RTVSPost2010PropOp41
 70
     1
102
RTVSPost2010Prop42
 90
       50
102
RTVSPost2010PropOp42
 70
     1
102
RTVSPost2010Prop43
 90
        3
102
RTVSPost2010PropOp43
 70
     1
102
RTVSPost2010Prop44ColorIndex
 90
        5
102
RTVSPost2010Prop44ColorRGB
 90
      255
102
RTVSPost2010PropOp44
 70
     1
102
RTVSPost2010Prop45
280
     0
102
RTVSPost2010PropOp45
 70
     1
102
RTVSPost2010Prop46
 90
       50
102
RTVSPost2010PropOp46
 70
     1
102
RTVSPost2010Prop47
 90
       50
102
RTVSPost2010PropOp47
 70
     1
102
RTVSPost2010Prop48
 90
       50
102
RTVSPost2010PropOp48
 70
     1
102
RTVSPost2010Prop49
280
     0
102
RTVSPost2010PropOp49
 70
     1
102
RTVSPost2010Prop50
 90
       50
102
RTVSPost2010PropOp50
 70
     1
102
RTVSPost2010Prop51ColorIndex
 90
      256
102
RTVSPost2010Prop51ColorRGB
 90
-16777216
102
RTVSPost2010PropOp51
 70
     0
102
RTVSPost2010Prop52
140
1.0
102
RTVSPost2010PropOp52
 70
     0
102
RTVSPost2010Prop53
 90
        2
102
RTVSPost2010PropOp53
 70
     1
102
RTVSPost2010Prop54
  1
strokes_ogs.tif
102
RTVSPost2010PropOp54
 70
     1
102
RTVSPost2010Prop55
280
     0
102
RTVSPost2010PropOp55
 70
     1
102
RTVSPost2010Prop56
140
1.0
102
RTVSPost2010PropOp56
 70
     1
102
RTVSPost2010Prop57
140
1.0
102
RTVSPost2010PropOp57
 70
     1
  0
XRECORD
  5
B96
102
{ACAD_REACTORS
330
B95
102
}
330
B95
100
AcDbXrecord
280
     1
102
RTVSPost2010Prop28
280
     0
102
RTVSPost2010PropOp28
 70
     1
102
RTVSPost2010Prop29
280
     1
102
RTVSPost2010PropOp29
 70
     1
102
RTVSPost2010Prop30
280
     1
102
RTVSPost2010PropOp30
 70
     1
102
RTVSPost2010Prop31
280
     0
102
RTVSPost2010PropOp31
 70
     1
102
RTVSPost2010Prop32
280
     0
102
RTVSPost2010PropOp32
 70
     1
102
RTVSPost2010Prop33
280
     0
102
RTVSPost2010PropOp33
 70
     1
102
RTVSPost2010Prop34
280
     0
102
RTVSPost2010PropOp34
 70
     1
102
RTVSPost2010Prop35
280
     0
102
RTVSPost2010PropOp35
 70
     1
102
RTVSPost2010Prop36
280
     0
102
RTVSPost2010PropOp36
 70
     1
102
RTVSPost2010Prop37
 90
       50
102
RTVSPost2010PropOp37
 70
     1
102
RTVSPost2010Prop38
140
0.0
102
RTVSPost2010PropOp38
 70
     1
102
RTVSPost2010Prop39
140
1.0
102
RTVSPost2010PropOp39
 70
     1
102
RTVSPost2010Prop40
 90
        0
102
RTVSPost2010PropOp40
 70
     1
102
RTVSPost2010Prop41ColorIndex
 90
       18
102
RTVSPost2010Prop41ColorRGB
 90
        0
102
RTVSPost2010PropOp41
 70
     1
102
RTVSPost2010Prop42
 90
       50
102
RTVSPost2010PropOp42
 70
     1
102
RTVSPost2010Prop43
 90
        3
102
RTVSPost2010PropOp43
 70
     1
102
RTVSPost2010Prop44ColorIndex
 90
        5
102
RTVSPost2010Prop44ColorRGB
 90
      255
102
RTVSPost2010PropOp44
 70
     1
102
RTVSPost2010Prop45
280
     0
102
RTVSPost2010PropOp45
 70
     1
102
RTVSPost2010Prop46
 90
       50
102
RTVSPost2010PropOp46
 70
     1
102
RTVSPost2010Prop47
 90
       50
102
RTVSPost2010PropOp47
 70
     1
102
RTVSPost2010Prop48
 90
       50
102
RTVSPost2010PropOp48
 70
     1
102
RTVSPost2010Prop49
280
     0
102
RTVSPost2010PropOp49
 70
     1
102
RTVSPost2010Prop50
 90
       50
102
RTVSPost2010PropOp50
 70
     1
102
RTVSPost2010Prop51ColorIndex
 90
      256
102
RTVSPost2010Prop51ColorRGB
 90
-16777216
102
RTVSPost2010PropOp51
 70
     0
102
RTVSPost2010Prop52
140
1.0
102
RTVSPost2010PropOp52
 70
     0
102
RTVSPost2010Prop53
 90
        2
102
RTVSPost2010PropOp53
 70
     1
102
RTVSPost2010Prop54
  1
strokes_ogs.tif
102
RTVSPost2010PropOp54
 70
     1
102
RTVSPost2010Prop55
280
     0
102
RTVSPost2010PropOp55
 70
     1
102
RTVSPost2010Prop56
140
1.0
102
RTVSPost2010PropOp56
 70
     1
102
RTVSPost2010Prop57
140
1.0
102
RTVSPost2010PropOp57
 70
     1
  0
XRECORD
  5
B98
102
{ACAD_REACTORS
330
B97
102
}
330
B97
100
AcDbXrecord
280
     1
102
RTVSPost2010Prop28
280
     0
102
RTVSPost2010PropOp28
 70
     1
102
RTVSPost2010Prop29
280
     1
102
RTVSPost2010PropOp29
 70
     1
102
RTVSPost2010Prop30
280
     1
102
RTVSPost2010PropOp30
 70
     1
102
RTVSPost2010Prop31
280
     0
102
RTVSPost2010PropOp31
 70
     1
102
RTVSPost2010Prop32
280
     0
102
RTVSPost2010PropOp32
 70
     1
102
RTVSPost2010Prop33
280
     0
102
RTVSPost2010PropOp33
 70
     1
102
RTVSPost2010Prop34
280
     0
102
RTVSPost2010PropOp34
 70
     1
102
RTVSPost2010Prop35
280
     0
102
RTVSPost2010PropOp35
 70
     1
102
RTVSPost2010Prop36
280
     0
102
RTVSPost2010PropOp36
 70
     1
102
RTVSPost2010Prop37
 90
       50
102
RTVSPost2010PropOp37
 70
     1
102
RTVSPost2010Prop38
140
0.0
102
RTVSPost2010PropOp38
 70
     1
102
RTVSPost2010Prop39
140
1.0
102
RTVSPost2010PropOp39
 70
     1
102
RTVSPost2010Prop40
 90
        0
102
RTVSPost2010PropOp40
 70
     1
102
RTVSPost2010Prop41ColorIndex
 90
       18
102
RTVSPost2010Prop41ColorRGB
 90
        0
102
RTVSPost2010PropOp41
 70
     1
102
RTVSPost2010Prop42
 90
       50
102
RTVSPost2010PropOp42
 70
     1
102
RTVSPost2010Prop43
 90
        3
102
RTVSPost2010PropOp43
 70
     1
102
RTVSPost2010Prop44ColorIndex
 90
        5
102
RTVSPost2010Prop44ColorRGB
 90
      255
102
RTVSPost2010PropOp44
 70
     1
102
RTVSPost2010Prop45
280
     0
102
RTVSPost2010PropOp45
 70
     1
102
RTVSPost2010Prop46
 90
       50
102
RTVSPost2010PropOp46
 70
     1
102
RTVSPost2010Prop47
 90
       50
102
RTVSPost2010PropOp47
 70
     1
102
RTVSPost2010Prop48
 90
       50
102
RTVSPost2010PropOp48
 70
     1
102
RTVSPost2010Prop49
280
     0
102
RTVSPost2010PropOp49
 70
     1
102
RTVSPost2010Prop50
 90
       50
102
RTVSPost2010PropOp50
 70
     1
102
RTVSPost2010Prop51ColorIndex
 90
      256
102
RTVSPost2010Prop51ColorRGB
 90
-16777216
102
RTVSPost2010PropOp51
 70
     0
102
RTVSPost2010Prop52
140
1.0
102
RTVSPost2010PropOp52
 70
     0
102
RTVSPost2010Prop53
 90
        2
102
RTVSPost2010PropOp53
 70
     1
102
RTVSPost2010Prop54
  1
strokes_ogs.tif
102
RTVSPost2010PropOp54
 70
     1
102
RTVSPost2010Prop55
280
     0
102
RTVSPost2010PropOp55
 70
     1
102
RTVSPost2010Prop56
140
1.0
102
RTVSPost2010PropOp56
 70
     1
102
RTVSPost2010Prop57
140
1.0
102
RTVSPost2010PropOp57
 70
     1
  0
XRECORD
  5
B9A
102
{ACAD_REACTORS
330
B99
102
}
330
B99
100
AcDbXrecord
280
     1
102
RTVSPost2010Prop28
280
     0
102
RTVSPost2010PropOp28
 70
     1
102
RTVSPost2010Prop29
280
     1
102
RTVSPost2010PropOp29
 70
     1
102
RTVSPost2010Prop30
280
     1
102
RTVSPost2010PropOp30
 70
     1
102
RTVSPost2010Prop31
280
     0
102
RTVSPost2010PropOp31
 70
     1
102
RTVSPost2010Prop32
280
     0
102
RTVSPost2010PropOp32
 70
     1
102
RTVSPost2010Prop33
280
     0
102
RTVSPost2010PropOp33
 70
     1
102
RTVSPost2010Prop34
280
     0
102
RTVSPost2010PropOp34
 70
     1
102
RTVSPost2010Prop35
280
     0
102
RTVSPost2010PropOp35
 70
     1
102
RTVSPost2010Prop36
280
     0
102
RTVSPost2010PropOp36
 70
     1
102
RTVSPost2010Prop37
 90
       50
102
RTVSPost2010PropOp37
 70
     1
102
RTVSPost2010Prop38
140
0.0
102
RTVSPost2010PropOp38
 70
     1
102
RTVSPost2010Prop39
140
1.0
102
RTVSPost2010PropOp39
 70
     1
102
RTVSPost2010Prop40
 90
        0
102
RTVSPost2010PropOp40
 70
     1
102
RTVSPost2010Prop41ColorIndex
 90
       18
102
RTVSPost2010Prop41ColorRGB
 90
        0
102
RTVSPost2010PropOp41
 70
     1
102
RTVSPost2010Prop42
 90
       50
102
RTVSPost2010PropOp42
 70
     1
102
RTVSPost2010Prop43
 90
        3
102
RTVSPost2010PropOp43
 70
     1
102
RTVSPost2010Prop44ColorIndex
 90
        5
102
RTVSPost2010Prop44ColorRGB
 90
      255
102
RTVSPost2010PropOp44
 70
     1
102
RTVSPost2010Prop45
280
     0
102
RTVSPost2010PropOp45
 70
     1
102
RTVSPost2010Prop46
 90
       50
102
RTVSPost2010PropOp46
 70
     1
102
RTVSPost2010Prop47
 90
       50
102
RTVSPost2010PropOp47
 70
     1
102
RTVSPost2010Prop48
 90
       50
102
RTVSPost2010PropOp48
 70
     1
102
RTVSPost2010Prop49
280
     0
102
RTVSPost2010PropOp49
 70
     1
102
RTVSPost2010Prop50
 90
       50
102
RTVSPost2010PropOp50
 70
     1
102
RTVSPost2010Prop51ColorIndex
 90
      256
102
RTVSPost2010Prop51ColorRGB
 90
-16777216
102
RTVSPost2010PropOp51
 70
     0
102
RTVSPost2010Prop52
140
1.0
102
RTVSPost2010PropOp52
 70
     0
102
RTVSPost2010Prop53
 90
        2
102
RTVSPost2010PropOp53
 70
     1
102
RTVSPost2010Prop54
  1
strokes_ogs.tif
102
RTVSPost2010PropOp54
 70
     1
102
RTVSPost2010Prop55
280
     0
102
RTVSPost2010PropOp55
 70
     1
102
RTVSPost2010Prop56
140
1.0
102
RTVSPost2010PropOp56
 70
     1
102
RTVSPost2010Prop57
140
1.0
102
RTVSPost2010PropOp57
 70
     1
  0
XRECORD
  5
BA2
102
{ACAD_REACTORS
330
BA1
102
}
330
BA1
100
AcDbXrecord
280
     1
102
RTVSPost2010Prop28
280
     0
102
RTVSPost2010PropOp28
 70
     1
102
RTVSPost2010Prop29
280
     1
102
RTVSPost2010PropOp29
 70
     1
102
RTVSPost2010Prop30
280
     1
102
RTVSPost2010PropOp30
 70
     1
102
RTVSPost2010Prop31
280
     0
102
RTVSPost2010PropOp31
 70
     1
102
RTVSPost2010Prop32
280
     0
102
RTVSPost2010PropOp32
 70
     1
102
RTVSPost2010Prop33
280
     0
102
RTVSPost2010PropOp33
 70
     1
102
RTVSPost2010Prop34
280
     0
102
RTVSPost2010PropOp34
 70
     1
102
RTVSPost2010Prop35
280
     0
102
RTVSPost2010PropOp35
 70
     1
102
RTVSPost2010Prop36
280
     0
102
RTVSPost2010PropOp36
 70
     1
102
RTVSPost2010Prop37
 90
       50
102
RTVSPost2010PropOp37
 70
     1
102
RTVSPost2010Prop38
140
0.0
102
RTVSPost2010PropOp38
 70
     1
102
RTVSPost2010Prop39
140
1.0
102
RTVSPost2010PropOp39
 70
     1
102
RTVSPost2010Prop40
 90
        0
102
RTVSPost2010PropOp40
 70
     1
102
RTVSPost2010Prop41ColorIndex
 90
       18
102
RTVSPost2010Prop41ColorRGB
 90
        0
102
RTVSPost2010PropOp41
 70
     1
102
RTVSPost2010Prop42
 90
       50
102
RTVSPost2010PropOp42
 70
     1
102
RTVSPost2010Prop43
 90
        3
102
RTVSPost2010PropOp43
 70
     1
102
RTVSPost2010Prop44ColorIndex
 90
        5
102
RTVSPost2010Prop44ColorRGB
 90
      255
102
RTVSPost2010PropOp44
 70
     1
102
RTVSPost2010Prop45
280
     0
102
RTVSPost2010PropOp45
 70
     1
102
RTVSPost2010Prop46
 90
       50
102
RTVSPost2010PropOp46
 70
     1
102
RTVSPost2010Prop47
 90
       50
102
RTVSPost2010PropOp47
 70
     1
102
RTVSPost2010Prop48
 90
       50
102
RTVSPost2010PropOp48
 70
     1
102
RTVSPost2010Prop49
280
     0
102
RTVSPost2010PropOp49
 70
     1
102
RTVSPost2010Prop50
 90
       50
102
RTVSPost2010PropOp50
 70
     1
102
RTVSPost2010Prop51ColorIndex
 90
      256
102
RTVSPost2010Prop51ColorRGB
 90
-16777216
102
RTVSPost2010PropOp51
 70
     0
102
RTVSPost2010Prop52
140
1.0
102
RTVSPost2010PropOp52
 70
     0
102
RTVSPost2010Prop53
 90
        2
102
RTVSPost2010PropOp53
 70
     1
102
RTVSPost2010Prop54
  1
strokes_ogs.tif
102
RTVSPost2010PropOp54
 70
     1
102
RTVSPost2010Prop55
280
     0
102
RTVSPost2010PropOp55
 70
     1
102
RTVSPost2010Prop56
140
1.0
102
RTVSPost2010PropOp56
 70
     1
102
RTVSPost2010Prop57
140
1.0
102
RTVSPost2010PropOp57
 70
     1
  0
XRECORD
  5
BBE
102
{ACAD_REACTORS
330
BBD
102
}
330
BBD
100
AcDbXrecord
280
     1
102
RTVSPost2010Prop28
280
     0
102
RTVSPost2010PropOp28
 70
     1
102
RTVSPost2010Prop29
280
     1
102
RTVSPost2010PropOp29
 70
     1
102
RTVSPost2010Prop30
280
     1
102
RTVSPost2010PropOp30
 70
     1
102
RTVSPost2010Prop31
280
     0
102
RTVSPost2010PropOp31
 70
     1
102
RTVSPost2010Prop32
280
     0
102
RTVSPost2010PropOp32
 70
     1
102
RTVSPost2010Prop33
280
     0
102
RTVSPost2010PropOp33
 70
     1
102
RTVSPost2010Prop34
280
     0
102
RTVSPost2010PropOp34
 70
     1
102
RTVSPost2010Prop35
280
     0
102
RTVSPost2010PropOp35
 70
     1
102
RTVSPost2010Prop36
280
     0
102
RTVSPost2010PropOp36
 70
     1
102
RTVSPost2010Prop37
 90
       50
102
RTVSPost2010PropOp37
 70
     0
102
RTVSPost2010Prop38
140
0.0
102
RTVSPost2010PropOp38
 70
     0
102
RTVSPost2010Prop39
140
1.0
102
RTVSPost2010PropOp39
 70
     0
102
RTVSPost2010Prop40
 90
        0
102
RTVSPost2010PropOp40
 70
     0
102
RTVSPost2010Prop41ColorIndex
 90
       18
102
RTVSPost2010Prop41ColorRGB
 90
        0
102
RTVSPost2010PropOp41
 70
     0
102
RTVSPost2010Prop42
 90
       50
102
RTVSPost2010PropOp42
 70
     0
102
RTVSPost2010Prop43
 90
        3
102
RTVSPost2010PropOp43
 70
     0
102
RTVSPost2010Prop44ColorIndex
 90
        5
102
RTVSPost2010Prop44ColorRGB
 90
      255
102
RTVSPost2010PropOp44
 70
     0
102
RTVSPost2010Prop45
280
     0
102
RTVSPost2010PropOp45
 70
     1
102
RTVSPost2010Prop46
 90
       50
102
RTVSPost2010PropOp46
 70
     0
102
RTVSPost2010Prop47
 90
       50
102
RTVSPost2010PropOp47
 70
     0
102
RTVSPost2010Prop48
 90
       50
102
RTVSPost2010PropOp48
 70
     0
102
RTVSPost2010Prop49
280
     0
102
RTVSPost2010PropOp49
 70
     1
102
RTVSPost2010Prop50
 90
       50
102
RTVSPost2010PropOp50
 70
     0
102
RTVSPost2010Prop51ColorIndex
 90
      256
102
RTVSPost2010Prop51ColorRGB
 90
-16777216
102
RTVSPost2010PropOp51
 70
     0
102
RTVSPost2010Prop52
140
1.0
102
RTVSPost2010PropOp52
 70
     0
102
RTVSPost2010Prop53
 90
        2
102
RTVSPost2010PropOp53
 70
     0
102
RTVSPost2010Prop54
  1
strokes_ogs.tif
102
RTVSPost2010PropOp54
 70
     0
102
RTVSPost2010Prop55
280
     0
102
RTVSPost2010PropOp55
 70
     1
102
RTVSPost2010Prop56
140
1.0
102
RTVSPost2010PropOp56
 70
     0
102
RTVSPost2010Prop57
140
1.0
102
RTVSPost2010PropOp57
 70
     0
  0
XRECORD
  5
BAE
102
{ACAD_REACTORS
330
BAD
102
}
330
BAD
100
AcDbXrecord
280
     1
102
RTVSPost2010Prop28
280
     0
102
RTVSPost2010PropOp28
 70
     1
102
RTVSPost2010Prop29
280
     1
102
RTVSPost2010PropOp29
 70
     1
102
RTVSPost2010Prop30
280
     1
102
RTVSPost2010PropOp30
 70
     1
102
RTVSPost2010Prop31
280
     0
102
RTVSPost2010PropOp31
 70
     1
102
RTVSPost2010Prop32
280
     0
102
RTVSPost2010PropOp32
 70
     1
102
RTVSPost2010Prop33
280
     0
102
RTVSPost2010PropOp33
 70
     1
102
RTVSPost2010Prop34
280
     0
102
RTVSPost2010PropOp34
 70
     1
102
RTVSPost2010Prop35
280
     0
102
RTVSPost2010PropOp35
 70
     1
102
RTVSPost2010Prop36
280
     0
102
RTVSPost2010PropOp36
 70
     1
102
RTVSPost2010Prop37
 90
       50
102
RTVSPost2010PropOp37
 70
     1
102
RTVSPost2010Prop38
140
0.0
102
RTVSPost2010PropOp38
 70
     1
102
RTVSPost2010Prop39
140
1.0
102
RTVSPost2010PropOp39
 70
     1
102
RTVSPost2010Prop40
 90
        0
102
RTVSPost2010PropOp40
 70
     1
102
RTVSPost2010Prop41ColorIndex
 90
       18
102
RTVSPost2010Prop41ColorRGB
 90
        0
102
RTVSPost2010PropOp41
 70
     1
102
RTVSPost2010Prop42
 90
       50
102
RTVSPost2010PropOp42
 70
     1
102
RTVSPost2010Prop43
 90
        3
102
RTVSPost2010PropOp43
 70
     1
102
RTVSPost2010Prop44ColorIndex
 90
        5
102
RTVSPost2010Prop44ColorRGB
 90
      255
102
RTVSPost2010PropOp44
 70
     1
102
RTVSPost2010Prop45
280
     0
102
RTVSPost2010PropOp45
 70
     1
102
RTVSPost2010Prop46
 90
       50
102
RTVSPost2010PropOp46
 70
     1
102
RTVSPost2010Prop47
 90
       50
102
RTVSPost2010PropOp47
 70
     1
102
RTVSPost2010Prop48
 90
       50
102
RTVSPost2010PropOp48
 70
     1
102
RTVSPost2010Prop49
280
     0
102
RTVSPost2010PropOp49
 70
     1
102
RTVSPost2010Prop50
 90
       50
102
RTVSPost2010PropOp50
 70
     1
102
RTVSPost2010Prop51ColorIndex
 90
      256
102
RTVSPost2010Prop51ColorRGB
 90
-16777216
102
RTVSPost2010PropOp51
 70
     0
102
RTVSPost2010Prop52
140
1.0
102
RTVSPost2010PropOp52
 70
     0
102
RTVSPost2010Prop53
 90
        2
102
RTVSPost2010PropOp53
 70
     1
102
RTVSPost2010Prop54
  1
strokes_ogs.tif
102
RTVSPost2010PropOp54
 70
     1
102
RTVSPost2010Prop55
280
     0
102
RTVSPost2010PropOp55
 70
     1
102
RTVSPost2010Prop56
140
1.0
102
RTVSPost2010PropOp56
 70
     1
102
RTVSPost2010Prop57
140
1.0
102
RTVSPost2010PropOp57
 70
     1
  0
XRECORD
  5
BC0
102
{ACAD_REACTORS
330
BBF
102
}
330
BBF
100
AcDbXrecord
280
     1
102
RTVSPost2010Prop28
280
     0
102
RTVSPost2010PropOp28
 70
     1
102
RTVSPost2010Prop29
280
     1
102
RTVSPost2010PropOp29
 70
     1
102
RTVSPost2010Prop30
280
     1
102
RTVSPost2010PropOp30
 70
     1
102
RTVSPost2010Prop31
280
     0
102
RTVSPost2010PropOp31
 70
     1
102
RTVSPost2010Prop32
280
     0
102
RTVSPost2010PropOp32
 70
     1
102
RTVSPost2010Prop33
280
     0
102
RTVSPost2010PropOp33
 70
     1
102
RTVSPost2010Prop34
280
     0
102
RTVSPost2010PropOp34
 70
     1
102
RTVSPost2010Prop35
280
     0
102
RTVSPost2010PropOp35
 70
     1
102
RTVSPost2010Prop36
280
     0
102
RTVSPost2010PropOp36
 70
     1
102
RTVSPost2010Prop37
 90
       50
102
RTVSPost2010PropOp37
 70
     0
102
RTVSPost2010Prop38
140
0.0
102
RTVSPost2010PropOp38
 70
     0
102
RTVSPost2010Prop39
140
1.0
102
RTVSPost2010PropOp39
 70
     0
102
RTVSPost2010Prop40
 90
        0
102
RTVSPost2010PropOp40
 70
     0
102
RTVSPost2010Prop41ColorIndex
 90
       18
102
RTVSPost2010Prop41ColorRGB
 90
        0
102
RTVSPost2010PropOp41
 70
     0
102
RTVSPost2010Prop42
 90
       50
102
RTVSPost2010PropOp42
 70
     0
102
RTVSPost2010Prop43
 90
        3
102
RTVSPost2010PropOp43
 70
     0
102
RTVSPost2010Prop44ColorIndex
 90
        5
102
RTVSPost2010Prop44ColorRGB
 90
      255
102
RTVSPost2010PropOp44
 70
     0
102
RTVSPost2010Prop45
280
     0
102
RTVSPost2010PropOp45
 70
     1
102
RTVSPost2010Prop46
 90
       50
102
RTVSPost2010PropOp46
 70
     0
102
RTVSPost2010Prop47
 90
       50
102
RTVSPost2010PropOp47
 70
     0
102
RTVSPost2010Prop48
 90
       50
102
RTVSPost2010PropOp48
 70
     0
102
RTVSPost2010Prop49
280
     0
102
RTVSPost2010PropOp49
 70
     1
102
RTVSPost2010Prop50
 90
       50
102
RTVSPost2010PropOp50
 70
     0
102
RTVSPost2010Prop51ColorIndex
 90
      256
102
RTVSPost2010Prop51ColorRGB
 90
-16777216
102
RTVSPost2010PropOp51
 70
     0
102
RTVSPost2010Prop52
140
1.0
102
RTVSPost2010PropOp52
 70
     0
102
RTVSPost2010Prop53
 90
        2
102
RTVSPost2010PropOp53
 70
     0
102
RTVSPost2010Prop54
  1
strokes_ogs.tif
102
RTVSPost2010PropOp54
 70
     0
102
RTVSPost2010Prop55
280
     0
102
RTVSPost2010PropOp55
 70
     1
102
RTVSPost2010Prop56
140
1.0
102
RTVSPost2010PropOp56
 70
     0
102
RTVSPost2010Prop57
140
1.0
102
RTVSPost2010PropOp57
 70
     0
  0
XRECORD
  5
BA6
102
{ACAD_REACTORS
330
BA5
102
}
330
BA5
100
AcDbXrecord
280
     1
102
RTVSPost2010Prop28
280
     0
102
RTVSPost2010PropOp28
 70
     1
102
RTVSPost2010Prop29
280
     1
102
RTVSPost2010PropOp29
 70
     1
102
RTVSPost2010Prop30
280
     1
102
RTVSPost2010PropOp30
 70
     1
102
RTVSPost2010Prop31
280
     0
102
RTVSPost2010PropOp31
 70
     1
102
RTVSPost2010Prop32
280
     0
102
RTVSPost2010PropOp32
 70
     1
102
RTVSPost2010Prop33
280
     0
102
RTVSPost2010PropOp33
 70
     1
102
RTVSPost2010Prop34
280
     0
102
RTVSPost2010PropOp34
 70
     1
102
RTVSPost2010Prop35
280
     0
102
RTVSPost2010PropOp35
 70
     1
102
RTVSPost2010Prop36
280
     0
102
RTVSPost2010PropOp36
 70
     1
102
RTVSPost2010Prop37
 90
       50
102
RTVSPost2010PropOp37
 70
     1
102
RTVSPost2010Prop38
140
0.0
102
RTVSPost2010PropOp38
 70
     1
102
RTVSPost2010Prop39
140
1.0
102
RTVSPost2010PropOp39
 70
     1
102
RTVSPost2010Prop40
 90
        0
102
RTVSPost2010PropOp40
 70
     1
102
RTVSPost2010Prop41ColorIndex
 90
       18
102
RTVSPost2010Prop41ColorRGB
 90
        0
102
RTVSPost2010PropOp41
 70
     1
102
RTVSPost2010Prop42
 90
       50
102
RTVSPost2010PropOp42
 70
     1
102
RTVSPost2010Prop43
 90
        3
102
RTVSPost2010PropOp43
 70
     1
102
RTVSPost2010Prop44ColorIndex
 90
        5
102
RTVSPost2010Prop44ColorRGB
 90
      255
102
RTVSPost2010PropOp44
 70
     1
102
RTVSPost2010Prop45
280
     0
102
RTVSPost2010PropOp45
 70
     1
102
RTVSPost2010Prop46
 90
       50
102
RTVSPost2010PropOp46
 70
     1
102
RTVSPost2010Prop47
 90
       50
102
RTVSPost2010PropOp47
 70
     1
102
RTVSPost2010Prop48
 90
       50
102
RTVSPost2010PropOp48
 70
     1
102
RTVSPost2010Prop49
280
     0
102
RTVSPost2010PropOp49
 70
     1
102
RTVSPost2010Prop50
 90
       50
102
RTVSPost2010PropOp50
 70
     1
102
RTVSPost2010Prop51ColorIndex
 90
      256
102
RTVSPost2010Prop51ColorRGB
 90
-16777216
102
RTVSPost2010PropOp51
 70
     0
102
RTVSPost2010Prop52
140
1.0
102
RTVSPost2010PropOp52
 70
     0
102
RTVSPost2010Prop53
 90
        2
102
RTVSPost2010PropOp53
 70
     1
102
RTVSPost2010Prop54
  1
strokes_ogs.tif
102
RTVSPost2010PropOp54
 70
     1
102
RTVSPost2010Prop55
280
     0
102
RTVSPost2010PropOp55
 70
     1
102
RTVSPost2010Prop56
140
1.0
102
RTVSPost2010PropOp56
 70
     1
102
RTVSPost2010Prop57
140
1.0
102
RTVSPost2010PropOp57
 70
     1
  0
XRECORD
  5
BBC
102
{ACAD_REACTORS
330
BBB
102
}
330
BBB
100
AcDbXrecord
280
     1
102
RTVSPost2010Prop28
280
     0
102
RTVSPost2010PropOp28
 70
     1
102
RTVSPost2010Prop29
280
     1
102
RTVSPost2010PropOp29
 70
     1
102
RTVSPost2010Prop30
280
     1
102
RTVSPost2010PropOp30
 70
     1
102
RTVSPost2010Prop31
280
     0
102
RTVSPost2010PropOp31
 70
     1
102
RTVSPost2010Prop32
280
     0
102
RTVSPost2010PropOp32
 70
     1
102
RTVSPost2010Prop33
280
     0
102
RTVSPost2010PropOp33
 70
     1
102
RTVSPost2010Prop34
280
     0
102
RTVSPost2010PropOp34
 70
     1
102
RTVSPost2010Prop35
280
     0
102
RTVSPost2010PropOp35
 70
     1
102
RTVSPost2010Prop36
280
     0
102
RTVSPost2010PropOp36
 70
     1
102
RTVSPost2010Prop37
 90
       50
102
RTVSPost2010PropOp37
 70
     1
102
RTVSPost2010Prop38
140
0.0
102
RTVSPost2010PropOp38
 70
     1
102
RTVSPost2010Prop39
140
1.0
102
RTVSPost2010PropOp39
 70
     1
102
RTVSPost2010Prop40
 90
        0
102
RTVSPost2010PropOp40
 70
     1
102
RTVSPost2010Prop41ColorIndex
 90
       18
102
RTVSPost2010Prop41ColorRGB
 90
        0
102
RTVSPost2010PropOp41
 70
     1
102
RTVSPost2010Prop42
 90
       50
102
RTVSPost2010PropOp42
 70
     1
102
RTVSPost2010Prop43
 90
        3
102
RTVSPost2010PropOp43
 70
     1
102
RTVSPost2010Prop44ColorIndex
 90
        5
102
RTVSPost2010Prop44ColorRGB
 90
      255
102
RTVSPost2010PropOp44
 70
     1
102
RTVSPost2010Prop45
280
     0
102
RTVSPost2010PropOp45
 70
     1
102
RTVSPost2010Prop46
 90
       50
102
RTVSPost2010PropOp46
 70
     1
102
RTVSPost2010Prop47
 90
       50
102
RTVSPost2010PropOp47
 70
     1
102
RTVSPost2010Prop48
 90
       50
102
RTVSPost2010PropOp48
 70
     1
102
RTVSPost2010Prop49
280
     0
102
RTVSPost2010PropOp49
 70
     1
102
RTVSPost2010Prop50
 90
       50
102
RTVSPost2010PropOp50
 70
     1
102
RTVSPost2010Prop51ColorIndex
 90
      256
102
RTVSPost2010Prop51ColorRGB
 90
-16777216
102
RTVSPost2010PropOp51
 70
     0
102
RTVSPost2010Prop52
140
1.0
102
RTVSPost2010PropOp52
 70
     0
102
RTVSPost2010Prop53
 90
        2
102
RTVSPost2010PropOp53
 70
     1
102
RTVSPost2010Prop54
  1
strokes_ogs.tif
102
RTVSPost2010PropOp54
 70
     1
102
RTVSPost2010Prop55
280
     0
102
RTVSPost2010PropOp55
 70
     1
102
RTVSPost2010Prop56
140
1.0
102
RTVSPost2010PropOp56
 70
     1
102
RTVSPost2010Prop57
140
1.0
102
RTVSPost2010PropOp57
 70
     1
  0
XRECORD
  5
BBA
102
{ACAD_REACTORS
330
BB9
102
}
330
BB9
100
AcDbXrecord
280
     1
102
RTVSPost2010Prop28
280
     0
102
RTVSPost2010PropOp28
 70
     1
102
RTVSPost2010Prop29
280
     1
102
RTVSPost2010PropOp29
 70
     1
102
RTVSPost2010Prop30
280
     1
102
RTVSPost2010PropOp30
 70
     1
102
RTVSPost2010Prop31
280
     0
102
RTVSPost2010PropOp31
 70
     1
102
RTVSPost2010Prop32
280
     0
102
RTVSPost2010PropOp32
 70
     1
102
RTVSPost2010Prop33
280
     0
102
RTVSPost2010PropOp33
 70
     1
102
RTVSPost2010Prop34
280
     0
102
RTVSPost2010PropOp34
 70
     1
102
RTVSPost2010Prop35
280
     0
102
RTVSPost2010PropOp35
 70
     1
102
RTVSPost2010Prop36
280
     0
102
RTVSPost2010PropOp36
 70
     1
102
RTVSPost2010Prop37
 90
       50
102
RTVSPost2010PropOp37
 70
     1
102
RTVSPost2010Prop38
140
0.0
102
RTVSPost2010PropOp38
 70
     1
102
RTVSPost2010Prop39
140
1.0
102
RTVSPost2010PropOp39
 70
     1
102
RTVSPost2010Prop40
 90
        0
102
RTVSPost2010PropOp40
 70
     1
102
RTVSPost2010Prop41ColorIndex
 90
       18
102
RTVSPost2010Prop41ColorRGB
 90
        0
102
RTVSPost2010PropOp41
 70
     1
102
RTVSPost2010Prop42
 90
       50
102
RTVSPost2010PropOp42
 70
     1
102
RTVSPost2010Prop43
 90
        3
102
RTVSPost2010PropOp43
 70
     1
102
RTVSPost2010Prop44ColorIndex
 90
        5
102
RTVSPost2010Prop44ColorRGB
 90
      255
102
RTVSPost2010PropOp44
 70
     1
102
RTVSPost2010Prop45
280
     0
102
RTVSPost2010PropOp45
 70
     1
102
RTVSPost2010Prop46
 90
       50
102
RTVSPost2010PropOp46
 70
     1
102
RTVSPost2010Prop47
 90
       50
102
RTVSPost2010PropOp47
 70
     1
102
RTVSPost2010Prop48
 90
       50
102
RTVSPost2010PropOp48
 70
     1
102
RTVSPost2010Prop49
280
     0
102
RTVSPost2010PropOp49
 70
     1
102
RTVSPost2010Prop50
 90
       50
102
RTVSPost2010PropOp50
 70
     1
102
RTVSPost2010Prop51ColorIndex
 90
      256
102
RTVSPost2010Prop51ColorRGB
 90
-16777216
102
RTVSPost2010PropOp51
 70
     0
102
RTVSPost2010Prop52
140
1.0
102
RTVSPost2010PropOp52
 70
     0
102
RTVSPost2010Prop53
 90
        2
102
RTVSPost2010PropOp53
 70
     1
102
RTVSPost2010Prop54
  1
strokes_ogs.tif
102
RTVSPost2010PropOp54
 70
     1
102
RTVSPost2010Prop55
280
     0
102
RTVSPost2010PropOp55
 70
     1
102
RTVSPost2010Prop56
140
1.0
102
RTVSPost2010PropOp56
 70
     1
102
RTVSPost2010Prop57
140
1.0
102
RTVSPost2010PropOp57
 70
     1
  0
XRECORD
  5
BB4
102
{ACAD_REACTORS
330
BB3
102
}
330
BB3
100
AcDbXrecord
280
     1
102
RTVSPost2010Prop28
280
     0
102
RTVSPost2010PropOp28
 70
     1
102
RTVSPost2010Prop29
280
     1
102
RTVSPost2010PropOp29
 70
     1
102
RTVSPost2010Prop30
280
     1
102
RTVSPost2010PropOp30
 70
     1
102
RTVSPost2010Prop31
280
     0
102
RTVSPost2010PropOp31
 70
     1
102
RTVSPost2010Prop32
280
     0
102
RTVSPost2010PropOp32
 70
     1
102
RTVSPost2010Prop33
280
     0
102
RTVSPost2010PropOp33
 70
     1
102
RTVSPost2010Prop34
280
     0
102
RTVSPost2010PropOp34
 70
     1
102
RTVSPost2010Prop35
280
     0
102
RTVSPost2010PropOp35
 70
     1
102
RTVSPost2010Prop36
280
     0
102
RTVSPost2010PropOp36
 70
     1
102
RTVSPost2010Prop37
 90
       50
102
RTVSPost2010PropOp37
 70
     1
102
RTVSPost2010Prop38
140
0.0
102
RTVSPost2010PropOp38
 70
     1
102
RTVSPost2010Prop39
140
1.0
102
RTVSPost2010PropOp39
 70
     1
102
RTVSPost2010Prop40
 90
        0
102
RTVSPost2010PropOp40
 70
     1
102
RTVSPost2010Prop41ColorIndex
 90
       18
102
RTVSPost2010Prop41ColorRGB
 90
        0
102
RTVSPost2010PropOp41
 70
     1
102
RTVSPost2010Prop42
 90
       50
102
RTVSPost2010PropOp42
 70
     1
102
RTVSPost2010Prop43
 90
        3
102
RTVSPost2010PropOp43
 70
     1
102
RTVSPost2010Prop44ColorIndex
 90
        5
102
RTVSPost2010Prop44ColorRGB
 90
      255
102
RTVSPost2010PropOp44
 70
     1
102
RTVSPost2010Prop45
280
     0
102
RTVSPost2010PropOp45
 70
     1
102
RTVSPost2010Prop46
 90
       50
102
RTVSPost2010PropOp46
 70
     1
102
RTVSPost2010Prop47
 90
       50
102
RTVSPost2010PropOp47
 70
     1
102
RTVSPost2010Prop48
 90
       50
102
RTVSPost2010PropOp48
 70
     1
102
RTVSPost2010Prop49
280
     0
102
RTVSPost2010PropOp49
 70
     1
102
RTVSPost2010Prop50
 90
       50
102
RTVSPost2010PropOp50
 70
     1
102
RTVSPost2010Prop51ColorIndex
 90
      256
102
RTVSPost2010Prop51ColorRGB
 90
-16777216
102
RTVSPost2010PropOp51
 70
     0
102
RTVSPost2010Prop52
140
1.0
102
RTVSPost2010PropOp52
 70
     0
102
RTVSPost2010Prop53
 90
        2
102
RTVSPost2010PropOp53
 70
     1
102
RTVSPost2010Prop54
  1
strokes_ogs.tif
102
RTVSPost2010PropOp54
 70
     1
102
RTVSPost2010Prop55
280
     0
102
RTVSPost2010PropOp55
 70
     1
102
RTVSPost2010Prop56
140
1.0
102
RTVSPost2010PropOp56
 70
     1
102
RTVSPost2010Prop57
140
1.0
102
RTVSPost2010PropOp57
 70
     1
  0
XRECORD
  5
BB6
102
{ACAD_REACTORS
330
BB5
102
}
330
BB5
100
AcDbXrecord
280
     1
102
RTVSPost2010Prop28
280
     0
102
RTVSPost2010PropOp28
 70
     1
102
RTVSPost2010Prop29
280
     1
102
RTVSPost2010PropOp29
 70
     1
102
RTVSPost2010Prop30
280
     1
102
RTVSPost2010PropOp30
 70
     1
102
RTVSPost2010Prop31
280
     0
102
RTVSPost2010PropOp31
 70
     1
102
RTVSPost2010Prop32
280
     0
102
RTVSPost2010PropOp32
 70
     1
102
RTVSPost2010Prop33
280
     0
102
RTVSPost2010PropOp33
 70
     1
102
RTVSPost2010Prop34
280
     0
102
RTVSPost2010PropOp34
 70
     1
102
RTVSPost2010Prop35
280
     0
102
RTVSPost2010PropOp35
 70
     1
102
RTVSPost2010Prop36
280
     0
102
RTVSPost2010PropOp36
 70
     1
102
RTVSPost2010Prop37
 90
       50
102
RTVSPost2010PropOp37
 70
     1
102
RTVSPost2010Prop38
140
0.0
102
RTVSPost2010PropOp38
 70
     1
102
RTVSPost2010Prop39
140
1.0
102
RTVSPost2010PropOp39
 70
     1
102
RTVSPost2010Prop40
 90
        0
102
RTVSPost2010PropOp40
 70
     1
102
RTVSPost2010Prop41ColorIndex
 90
       18
102
RTVSPost2010Prop41ColorRGB
 90
        0
102
RTVSPost2010PropOp41
 70
     1
102
RTVSPost2010Prop42
 90
       50
102
RTVSPost2010PropOp42
 70
     1
102
RTVSPost2010Prop43
 90
        3
102
RTVSPost2010PropOp43
 70
     1
102
RTVSPost2010Prop44ColorIndex
 90
        5
102
RTVSPost2010Prop44ColorRGB
 90
      255
102
RTVSPost2010PropOp44
 70
     1
102
RTVSPost2010Prop45
280
     0
102
RTVSPost2010PropOp45
 70
     1
102
RTVSPost2010Prop46
 90
       50
102
RTVSPost2010PropOp46
 70
     1
102
RTVSPost2010Prop47
 90
       50
102
RTVSPost2010PropOp47
 70
     1
102
RTVSPost2010Prop48
 90
       50
102
RTVSPost2010PropOp48
 70
     1
102
RTVSPost2010Prop49
280
     0
102
RTVSPost2010PropOp49
 70
     1
102
RTVSPost2010Prop50
 90
       50
102
RTVSPost2010PropOp50
 70
     1
102
RTVSPost2010Prop51ColorIndex
 90
      256
102
RTVSPost2010Prop51ColorRGB
 90
-16777216
102
RTVSPost2010PropOp51
 70
     0
102
RTVSPost2010Prop52
140
1.0
102
RTVSPost2010PropOp52
 70
     0
102
RTVSPost2010Prop53
 90
        2
102
RTVSPost2010PropOp53
 70
     1
102
RTVSPost2010Prop54
  1
strokes_ogs.tif
102
RTVSPost2010PropOp54
 70
     1
102
RTVSPost2010Prop55
280
     0
102
RTVSPost2010PropOp55
 70
     1
102
RTVSPost2010Prop56
140
1.0
102
RTVSPost2010PropOp56
 70
     1
102
RTVSPost2010Prop57
140
1.0
102
RTVSPost2010PropOp57
 70
     1
  0
XRECORD
  5
BAC
102
{ACAD_REACTORS
330
BAB
102
}
330
BAB
100
AcDbXrecord
280
     1
102
RTVSPost2010Prop28
280
     0
102
RTVSPost2010PropOp28
 70
     1
102
RTVSPost2010Prop29
280
     1
102
RTVSPost2010PropOp29
 70
     1
102
RTVSPost2010Prop30
280
     1
102
RTVSPost2010PropOp30
 70
     1
102
RTVSPost2010Prop31
280
     0
102
RTVSPost2010PropOp31
 70
     1
102
RTVSPost2010Prop32
280
     0
102
RTVSPost2010PropOp32
 70
     1
102
RTVSPost2010Prop33
280
     0
102
RTVSPost2010PropOp33
 70
     1
102
RTVSPost2010Prop34
280
     0
102
RTVSPost2010PropOp34
 70
     1
102
RTVSPost2010Prop35
280
     0
102
RTVSPost2010PropOp35
 70
     1
102
RTVSPost2010Prop36
280
     0
102
RTVSPost2010PropOp36
 70
     1
102
RTVSPost2010Prop37
 90
       50
102
RTVSPost2010PropOp37
 70
     1
102
RTVSPost2010Prop38
140
0.0
102
RTVSPost2010PropOp38
 70
     1
102
RTVSPost2010Prop39
140
1.0
102
RTVSPost2010PropOp39
 70
     1
102
RTVSPost2010Prop40
 90
        0
102
RTVSPost2010PropOp40
 70
     1
102
RTVSPost2010Prop41ColorIndex
 90
       18
102
RTVSPost2010Prop41ColorRGB
 90
        0
102
RTVSPost2010PropOp41
 70
     1
102
RTVSPost2010Prop42
 90
       50
102
RTVSPost2010PropOp42
 70
     1
102
RTVSPost2010Prop43
 90
        3
102
RTVSPost2010PropOp43
 70
     1
102
RTVSPost2010Prop44ColorIndex
 90
        5
102
RTVSPost2010Prop44ColorRGB
 90
      255
102
RTVSPost2010PropOp44
 70
     1
102
RTVSPost2010Prop45
280
     0
102
RTVSPost2010PropOp45
 70
     1
102
RTVSPost2010Prop46
 90
       50
102
RTVSPost2010PropOp46
 70
     1
102
RTVSPost2010Prop47
 90
       50
102
RTVSPost2010PropOp47
 70
     1
102
RTVSPost2010Prop48
 90
       50
102
RTVSPost2010PropOp48
 70
     1
102
RTVSPost2010Prop49
280
     0
102
RTVSPost2010PropOp49
 70
     1
102
RTVSPost2010Prop50
 90
       50
102
RTVSPost2010PropOp50
 70
     1
102
RTVSPost2010Prop51ColorIndex
 90
      256
102
RTVSPost2010Prop51ColorRGB
 90
-16777216
102
RTVSPost2010PropOp51
 70
     0
102
RTVSPost2010Prop52
140
1.0
102
RTVSPost2010PropOp52
 70
     0
102
RTVSPost2010Prop53
 90
        2
102
RTVSPost2010PropOp53
 70
     1
102
RTVSPost2010Prop54
  1
strokes_ogs.tif
102
RTVSPost2010PropOp54
 70
     1
102
RTVSPost2010Prop55
280
     0
102
RTVSPost2010PropOp55
 70
     1
102
RTVSPost2010Prop56
140
1.0
102
RTVSPost2010PropOp56
 70
     1
102
RTVSPost2010Prop57
140
1.0
102
RTVSPost2010PropOp57
 70
     1
  0
XRECORD
  5
BA0
102
{ACAD_REACTORS
330
B9F
102
}
330
B9F
100
AcDbXrecord
280
     1
102
RTVSPost2010Prop28
280
     0
102
RTVSPost2010PropOp28
 70
     1
102
RTVSPost2010Prop29
280
     1
102
RTVSPost2010PropOp29
 70
     1
102
RTVSPost2010Prop30
280
     1
102
RTVSPost2010PropOp30
 70
     1
102
RTVSPost2010Prop31
280
     0
102
RTVSPost2010PropOp31
 70
     1
102
RTVSPost2010Prop32
280
     0
102
RTVSPost2010PropOp32
 70
     1
102
RTVSPost2010Prop33
280
     0
102
RTVSPost2010PropOp33
 70
     1
102
RTVSPost2010Prop34
280
     0
102
RTVSPost2010PropOp34
 70
     1
102
RTVSPost2010Prop35
280
     0
102
RTVSPost2010PropOp35
 70
     1
102
RTVSPost2010Prop36
280
     0
102
RTVSPost2010PropOp36
 70
     1
102
RTVSPost2010Prop37
 90
       50
102
RTVSPost2010PropOp37
 70
     1
102
RTVSPost2010Prop38
140
0.0
102
RTVSPost2010PropOp38
 70
     1
102
RTVSPost2010Prop39
140
1.0
102
RTVSPost2010PropOp39
 70
     1
102
RTVSPost2010Prop40
 90
        0
102
RTVSPost2010PropOp40
 70
     1
102
RTVSPost2010Prop41ColorIndex
 90
       18
102
RTVSPost2010Prop41ColorRGB
 90
        0
102
RTVSPost2010PropOp41
 70
     1
102
RTVSPost2010Prop42
 90
       50
102
RTVSPost2010PropOp42
 70
     1
102
RTVSPost2010Prop43
 90
        3
102
RTVSPost2010PropOp43
 70
     1
102
RTVSPost2010Prop44ColorIndex
 90
        5
102
RTVSPost2010Prop44ColorRGB
 90
      255
102
RTVSPost2010PropOp44
 70
     1
102
RTVSPost2010Prop45
280
     0
102
RTVSPost2010PropOp45
 70
     1
102
RTVSPost2010Prop46
 90
       50
102
RTVSPost2010PropOp46
 70
     1
102
RTVSPost2010Prop47
 90
       50
102
RTVSPost2010PropOp47
 70
     1
102
RTVSPost2010Prop48
 90
       50
102
RTVSPost2010PropOp48
 70
     1
102
RTVSPost2010Prop49
280
     0
102
RTVSPost2010PropOp49
 70
     1
102
RTVSPost2010Prop50
 90
       50
102
RTVSPost2010PropOp50
 70
     1
102
RTVSPost2010Prop51ColorIndex
 90
      256
102
RTVSPost2010Prop51ColorRGB
 90
-16777216
102
RTVSPost2010PropOp51
 70
     0
102
RTVSPost2010Prop52
140
1.0
102
RTVSPost2010PropOp52
 70
     0
102
RTVSPost2010Prop53
 90
        2
102
RTVSPost2010PropOp53
 70
     1
102
RTVSPost2010Prop54
  1
strokes_ogs.tif
102
RTVSPost2010PropOp54
 70
     1
102
RTVSPost2010Prop55
280
     0
102
RTVSPost2010PropOp55
 70
     1
102
RTVSPost2010Prop56
140
1.0
102
RTVSPost2010PropOp56
 70
     1
102
RTVSPost2010Prop57
140
1.0
102
RTVSPost2010PropOp57
 70
     1
  0
XRECORD
  5
BB8
102
{ACAD_REACTORS
330
BB7
102
}
330
BB7
100
AcDbXrecord
280
     1
102
RTVSPost2010Prop28
280
     0
102
RTVSPost2010PropOp28
 70
     1
102
RTVSPost2010Prop29
280
     1
102
RTVSPost2010PropOp29
 70
     1
102
RTVSPost2010Prop30
280
     1
102
RTVSPost2010PropOp30
 70
     1
102
RTVSPost2010Prop31
280
     0
102
RTVSPost2010PropOp31
 70
     1
102
RTVSPost2010Prop32
280
     0
102
RTVSPost2010PropOp32
 70
     1
102
RTVSPost2010Prop33
280
     0
102
RTVSPost2010PropOp33
 70
     1
102
RTVSPost2010Prop34
280
     0
102
RTVSPost2010PropOp34
 70
     1
102
RTVSPost2010Prop35
280
     0
102
RTVSPost2010PropOp35
 70
     1
102
RTVSPost2010Prop36
280
     0
102
RTVSPost2010PropOp36
 70
     1
102
RTVSPost2010Prop37
 90
       50
102
RTVSPost2010PropOp37
 70
     1
102
RTVSPost2010Prop38
140
0.0
102
RTVSPost2010PropOp38
 70
     1
102
RTVSPost2010Prop39
140
1.0
102
RTVSPost2010PropOp39
 70
     1
102
RTVSPost2010Prop40
 90
        0
102
RTVSPost2010PropOp40
 70
     1
102
RTVSPost2010Prop41ColorIndex
 90
       18
102
RTVSPost2010Prop41ColorRGB
 90
        0
102
RTVSPost2010PropOp41
 70
     1
102
RTVSPost2010Prop42
 90
       50
102
RTVSPost2010PropOp42
 70
     1
102
RTVSPost2010Prop43
 90
        3
102
RTVSPost2010PropOp43
 70
     1
102
RTVSPost2010Prop44ColorIndex
 90
        5
102
RTVSPost2010Prop44ColorRGB
 90
      255
102
RTVSPost2010PropOp44
 70
     1
102
RTVSPost2010Prop45
280
     0
102
RTVSPost2010PropOp45
 70
     1
102
RTVSPost2010Prop46
 90
       50
102
RTVSPost2010PropOp46
 70
     1
102
RTVSPost2010Prop47
 90
       50
102
RTVSPost2010PropOp47
 70
     1
102
RTVSPost2010Prop48
 90
       50
102
RTVSPost2010PropOp48
 70
     1
102
RTVSPost2010Prop49
280
     0
102
RTVSPost2010PropOp49
 70
     1
102
RTVSPost2010Prop50
 90
       50
102
RTVSPost2010PropOp50
 70
     1
102
RTVSPost2010Prop51ColorIndex
 90
      256
102
RTVSPost2010Prop51ColorRGB
 90
-16777216
102
RTVSPost2010PropOp51
 70
     0
102
RTVSPost2010Prop52
140
1.0
102
RTVSPost2010PropOp52
 70
     0
102
RTVSPost2010Prop53
 90
        2
102
RTVSPost2010PropOp53
 70
     1
102
RTVSPost2010Prop54
  1
strokes_ogs.tif
102
RTVSPost2010PropOp54
 70
     1
102
RTVSPost2010Prop55
280
     0
102
RTVSPost2010PropOp55
 70
     1
102
RTVSPost2010Prop56
140
1.0
102
RTVSPost2010PropOp56
 70
     1
102
RTVSPost2010Prop57
140
1.0
102
RTVSPost2010PropOp57
 70
     1
  0
ENDSEC
  0
EOF
