  0
SECTION
  2
HEADER
  9
$ACADVER
  1
AC1024
  9
$ACADMAINTVER
 70
   205
  9
$DWGCODEPAGE
  3
ANSI_1252
  9
$LASTSAVEDBY
  1
kaschu
  9
$INSBASE
 10
0.0
 20
0.0
 30
0.0
  9
$EXTMIN
 10
-164.5495703183915
 20
92.48901508782092
 30
-0.0000000000000004
  9
$EXTMAX
 10
2339.943366304627
 20
1161.129531952597
 30
0.0000000000000003
  9
$LIMMIN
 10
0.0
 20
0.0
  9
$LIMMAX
 10
12.0
 20
9.0
  9
$ORTHOMODE
 70
     0
  9
$REGENMODE
 70
     1
  9
$FILLMODE
 70
     1
  9
$QTEXTMODE
 70
     0
  9
$MIRRTEXT
 70
     1
  9
$LTSCALE
 40
1.0
  9
$ATTMODE
 70
     1
  9
$TEXTSIZE
 40
0.2
  9
$TRACEWID
 40
0.05
  9
$TEXTSTYLE
  7
STANDARD
  9
$CLAYER
  8
0
  9
$CELTYPE
  6
BYLAYER
  9
$CECOLOR
 62
   256
  9
$CELTSCALE
 40
1.0
  9
$DISPSILH
 70
     0
  9
$DIMSCALE
 40
1.0
  9
$DIMASZ
 40
0.18
  9
$DIMEXO
 40
0.0625
  9
$DIMDLI
 40
0.38
  9
$DIMRND
 40
0.0
  9
$DIMDLE
 40
0.0
  9
$DIMEXE
 40
0.18
  9
$DIMTP
 40
0.0
  9
$DIMTM
 40
0.0
  9
$DIMTXT
 40
0.18
  9
$DIMCEN
 40
0.09
  9
$DIMTSZ
 40
0.0
  9
$DIMTOL
 70
     0
  9
$DIMLIM
 70
     0
  9
$DIMTIH
 70
     1
  9
$DIMTOH
 70
     1
  9
$DIMSE1
 70
     0
  9
$DIMSE2
 70
     0
  9
$DIMTAD
 70
     0
  9
$DIMZIN
 70
     0
  9
$DIMBLK
  1

  9
$DIMASO
 70
     1
  9
$DIMSHO
 70
     1
  9
$DIMPOST
  1

  9
$DIMAPOST
  1

  9
$DIMALT
 70
     0
  9
$DIMALTD
 70
     2
  9
$DIMALTF
 40
25.4
  9
$DIMLFAC
 40
1.0
  9
$DIMTOFL
 70
     0
  9
$DIMTVP
 40
0.0
  9
$DIMTIX
 70
     0
  9
$DIMSOXD
 70
     0
  9
$DIMSAH
 70
     0
  9
$DIMBLK1
  1

  9
$DIMBLK2
  1

  9
$DIMSTYLE
  2
STANDARD
  9
$DIMCLRD
 70
     0
  9
$DIMCLRE
 70
     0
  9
$DIMCLRT
 70
     0
  9
$DIMTFAC
 40
1.0
  9
$DIMGAP
 40
0.09
  9
$DIMJUST
 70
     0
  9
$DIMSD1
 70
     0
  9
$DIMSD2
 70
     0
  9
$DIMTOLJ
 70
     1
  9
$DIMTZIN
 70
     0
  9
$DIMALTZ
 70
     0
  9
$DIMALTTZ
 70
     0
  9
$DIMUPT
 70
     0
  9
$DIMDEC
 70
     4
  9
$DIMTDEC
 70
     4
  9
$DIMALTU
 70
     2
  9
$DIMALTTD
 70
     2
  9
$DIMTXSTY
  7
STANDARD
  9
$DIMAUNIT
 70
     0
  9
$DIMADEC
 70
     0
  9
$DIMALTRND
 40
0.0
  9
$DIMAZIN
 70
     0
  9
$DIMDSEP
 70
    46
  9
$DIMATFIT
 70
     3
  9
$DIMFRAC
 70
     0
  9
$DIMLDRBLK
  1

  9
$DIMLUNIT
 70
     2
  9
$DIMLWD
 70
    -2
  9
$DIMLWE
 70
    -2
  9
$DIMTMOVE
 70
     0
  9
$DIMFXL
 40
1.0
  9
$DIMFXLON
 70
     0
  9
$DIMJOGANG
 40
0.7853981633974483
  9
$DIMTFILL
 70
     0
  9
$DIMTFILLCLR
 70
     0
  9
$DIMARCSYM
 70
     0
  9
$DIMLTYPE
  6

  9
$DIMLTEX1
  6

  9
$DIMLTEX2
  6

  9
$DIMTXTDIRECTION
 70
     0
  9
$LUNITS
 70
     2
  9
$LUPREC
 70
     4
  9
$SKETCHINC
 40
0.1
  9
$FILLETRAD
 40
0.5
  9
$AUNITS
 70
     0
  9
$AUPREC
 70
     0
  9
$MENU
  1
.
  9
$ELEVATION
 40
0.0
  9
$PELEVATION
 40
0.0
  9
$THICKNESS
 40
0.0
  9
$LIMCHECK
 70
     0
  9
$CHAMFERA
 40
0.5
  9
$CHAMFERB
 40
0.5
  9
$CHAMFERC
 40
1.0
  9
$CHAMFERD
 40
0.0
  9
$SKPOLY
 70
     0
  9
$TDCREATE
 40
2451762.456733333
  9
$TDUCREATE
 40
2451762.373400000
  9
$TDUPDATE
 40
2458687.508003056
  9
$TDUUPDATE
 40
2458687.424669722
  9
$TDINDWG
 40
0.0817649306
  9
$TDUSRTIMER
 40
0.0817648148
  9
$USRTIMER
 70
     1
  9
$ANGBASE
 50
0.0
  9
$ANGDIR
 70
     0
  9
$PDMODE
 70
     0
  9
$PDSIZE
 40
0.0
  9
$PLINEWID
 40
0.0
  9
$SPLFRAME
 70
     0
  9
$SPLINETYPE
 70
     6
  9
$SPLINESEGS
 70
     8
  9
$HANDSEED
  5
A5C
  9
$SURFTAB1
 70
     6
  9
$SURFTAB2
 70
     6
  9
$SURFTYPE
 70
     6
  9
$SURFU
 70
     6
  9
$SURFV
 70
     6
  9
$UCSBASE
  2

  9
$UCSNAME
  2

  9
$UCSORG
 10
0.0
 20
0.0
 30
0.0
  9
$UCSXDIR
 10
1.0
 20
0.0
 30
0.0
  9
$UCSYDIR
 10
0.0
 20
1.0
 30
0.0
  9
$UCSORTHOREF
  2

  9
$UCSORTHOVIEW
 70
     0
  9
$UCSORGTOP
 10
0.0
 20
0.0
 30
0.0
  9
$UCSORGBOTTOM
 10
0.0
 20
0.0
 30
0.0
  9
$UCSORGLEFT
 10
0.0
 20
0.0
 30
0.0
  9
$UCSORGRIGHT
 10
0.0
 20
0.0
 30
0.0
  9
$UCSORGFRONT
 10
0.0
 20
0.0
 30
0.0
  9
$UCSORGBACK
 10
0.0
 20
0.0
 30
0.0
  9
$PUCSBASE
  2

  9
$PUCSNAME
  2

  9
$PUCSORG
 10
0.0
 20
0.0
 30
0.0
  9
$PUCSXDIR
 10
1.0
 20
0.0
 30
0.0
  9
$PUCSYDIR
 10
0.0
 20
1.0
 30
0.0
  9
$PUCSORTHOREF
  2

  9
$PUCSORTHOVIEW
 70
     0
  9
$PUCSORGTOP
 10
0.0
 20
0.0
 30
0.0
  9
$PUCSORGBOTTOM
 10
0.0
 20
0.0
 30
0.0
  9
$PUCSORGLEFT
 10
0.0
 20
0.0
 30
0.0
  9
$PUCSORGRIGHT
 10
0.0
 20
0.0
 30
0.0
  9
$PUCSORGFRONT
 10
0.0
 20
0.0
 30
0.0
  9
$PUCSORGBACK
 10
0.0
 20
0.0
 30
0.0
  9
$USERI1
 70
     0
  9
$USERI2
 70
     0
  9
$USERI3
 70
     0
  9
$USERI4
 70
     0
  9
$USERI5
 70
     0
  9
$USERR1
 40
0.0
  9
$USERR2
 40
0.0
  9
$USERR3
 40
0.0
  9
$USERR4
 40
0.0
  9
$USERR5
 40
0.0
  9
$WORLDVIEW
 70
     1
  9
$SHADEDGE
 70
     3
  9
$SHADEDIF
 70
    70
  9
$TILEMODE
 70
     1
  9
$MAXACTVP
 70
    64
  9
$PINSBASE
 10
0.0
 20
0.0
 30
0.0
  9
$PLIMCHECK
 70
     0
  9
$PEXTMIN
 10
1.000000000000000E+20
 20
1.000000000000000E+20
 30
1.000000000000000E+20
  9
$PEXTMAX
 10
-1.000000000000000E+20
 20
-1.000000000000000E+20
 30
-1.000000000000000E+20
  9
$PLIMMIN
 10
0.0
 20
0.0
  9
$PLIMMAX
 10
12.0
 20
9.0
  9
$UNITMODE
 70
     0
  9
$VISRETAIN
 70
     1
  9
$PLINEGEN
 70
     0
  9
$PSLTSCALE
 70
     1
  9
$TREEDEPTH
 70
  3020
  9
$CMLSTYLE
  2
STANDARD
  9
$CMLJUST
 70
     0
  9
$CMLSCALE
 40
1.0
  9
$PROXYGRAPHICS
 70
     1
  9
$MEASUREMENT
 70
     0
  9
$CELWEIGHT
370
    -1
  9
$ENDCAPS
280
     0
  9
$JOINSTYLE
280
     0
  9
$LWDISPLAY
290
     0
  9
$INSUNITS
 70
     0
  9
$HYPERLINKBASE
  1

  9
$STYLESHEET
  1

  9
$XEDIT
290
     1
  9
$CEPSNTYPE
380
     0
  9
$PSTYLEMODE
290
     1
  9
$FINGERPRINTGUID
  2
{A42321FD-4D3B-470A-B3BE-A3689E04D828}
  9
$VERSIONGUID
  2
{8733B5B5-4552-48A6-8FE6-758C39B399CF}
  9
$EXTNAMES
290
     1
  9
$PSVPSCALE
 40
0.0
  9
$OLESTARTUP
290
     0
  9
$SORTENTS
280
   127
  9
$INDEXCTL
280
     0
  9
$HIDETEXT
280
     0
  9
$XCLIPFRAME
280
     2
  9
$HALOGAP
280
     0
  9
$OBSCOLOR
 70
   257
  9
$OBSLTYPE
280
     0
  9
$INTERSECTIONDISPLAY
280
     0
  9
$INTERSECTIONCOLOR
 70
   257
  9
$DIMASSOC
280
     1
  9
$PROJECTNAME
  1

  9
$CAMERADISPLAY
290
     0
  9
$LENSLENGTH
 40
50.0
  9
$CAMERAHEIGHT
 40
0.0
  9
$STEPSPERSEC
 40
2.0
  9
$STEPSIZE
 40
6.0
  9
$3DDWFPREC
 40
2.0
  9
$PSOLWIDTH
 40
0.25
  9
$PSOLHEIGHT
 40
4.0
  9
$LOFTANG1
 40
1.570796326794896
  9
$LOFTANG2
 40
1.570796326794896
  9
$LOFTMAG1
 40
0.0
  9
$LOFTMAG2
 40
0.0
  9
$LOFTPARAM
 70
     7
  9
$LOFTNORMALS
280
     1
  9
$LATITUDE
 40
37.795
  9
$LONGITUDE
 40
-122.394
  9
$NORTHDIRECTION
 40
0.0
  9
$TIMEZONE
 70
 -8000
  9
$LIGHTGLYPHDISPLAY
280
     1
  9
$TILEMODELIGHTSYNCH
280
     1
  9
$CMATERIAL
347
17B
  9
$SOLIDHIST
280
     0
  9
$SHOWHIST
280
     1
  9
$DWFFRAME
280
     2
  9
$DGNFRAME
280
     0
  9
$REALWORLDSCALE
290
     1
  9
$INTERFERECOLOR
 62
     1
  9
$INTERFEREOBJVS
345
19D
  9
$INTERFEREVPVS
346
19A
  9
$CSHADOW
280
     0
  9
$SHADOWPLANELOCATION
 40
0.0
  0
ENDSEC
  0
SECTION
  2
CLASSES
  0
CLASS
  1
ACDBDICTIONARYWDFLT
  2
AcDbDictionaryWithDefault
  3
ObjectDBX Classes
 90
        0
 91
        1
280
     0
281
     0
  0
CLASS
  1
MATERIAL
  2
AcDbMaterial
  3
ObjectDBX Classes
 90
     1153
 91
        3
280
     0
281
     0
  0
CLASS
  1
VISUALSTYLE
  2
AcDbVisualStyle
  3
ObjectDBX Classes
 90
     4095
 91
       24
280
     0
281
     0
  0
CLASS
  1
TABLESTYLE
  2
AcDbTableStyle
  3
ObjectDBX Classes
 90
     4095
 91
        1
280
     0
281
     0
  0
CLASS
  1
SCALE
  2
AcDbScale
  3
ObjectDBX Classes
 90
     1153
 91
       17
280
     0
281
     0
  0
CLASS
  1
MLEADERSTYLE
  2
AcDbMLeaderStyle
  3
ACDB_MLEADERSTYLE_CLASS
 90
     4095
 91
        1
280
     0
281
     0
  0
CLASS
  1
ACDBSECTIONVIEWSTYLE
  2
AcDbSectionViewStyle
  3
ObjectDBX Classes
 90
     1025
 91
        1
280
     0
281
     0
  0
CLASS
  1
ACDBDETAILVIEWSTYLE
  2
AcDbDetailViewStyle
  3
ObjectDBX Classes
 90
     1025
 91
        1
280
     0
281
     0
  0
CLASS
  1
DICTIONARYVAR
  2
AcDbDictionaryVar
  3
ObjectDBX Classes
 90
        0
 91
        9
280
     0
281
     0
  0
CLASS
  1
SORTENTSTABLE
  2
AcDbSortentsTable
  3
ObjectDBX Classes
 90
        0
 91
        4
280
     0
281
     0
  0
CLASS
  1
CELLSTYLEMAP
  2
AcDbCellStyleMap
  3
ObjectDBX Classes
 90
     1152
 91
        3
280
     0
281
     0
  0
ENDSEC
  0
SECTION
  2
TABLES
  0
TABLE
  2
VPORT
  5
8
330
0
100
AcDbSymbolTable
 70
     1
  0
VPORT
  5
155
330
8
100
AcDbSymbolTableRecord
100
AcDbViewportTableRecord
  2
*ACTIVE
 70
     0
 10
0.0
 20
0.0
 11
1.0
 21
1.0
 12
465.399737917759
 22
463.7942208808208
 13
0.0
 23
0.0
 14
0.5
 24
0.5
 15
0.5
 25
0.5
 16
0.0
 26
0.0
 36
1.0
 17
0.0
 27
0.0
 37
0.0
 40
1874.167805364925
 41
2.170603674540682
 42
50.0
 43
0.0
 44
0.0
 50
0.0
 51
0.0
 71
     0
 72
 10000
 73
     1
 74
     3
 75
     0
 76
     0
 77
     0
 78
     0
281
     0
 65
     1
110
0.0
120
0.0
130
0.0
111
1.0
121
0.0
131
0.0
112
0.0
122
1.0
132
0.0
 79
     0
146
0.0
348
199
 60
     3
 61
     5
292
     1
282
     1
141
0.0
142
0.0
 63
   250
421
  3355443
1001
ACAD_NAV_VCDISPLAY
1070
     3
  0
ENDTAB
  0
TABLE
  2
LTYPE
  5
5
330
0
100
AcDbSymbolTable
 70
     4
  0
LTYPE
  5
14
330
5
100
AcDbSymbolTableRecord
100
AcDbLinetypeTableRecord
  2
BYBLOCK
 70
     0
  3

 72
    65
 73
     0
 40
0.0
  0
LTYPE
  5
15
330
5
100
AcDbSymbolTableRecord
100
AcDbLinetypeTableRecord
  2
BYLAYER
 70
     0
  3

 72
    65
 73
     0
 40
0.0
  0
LTYPE
  5
16
330
5
100
AcDbSymbolTableRecord
100
AcDbLinetypeTableRecord
  2
CONTINUOUS
 70
     0
  3
Solid line
 72
    65
 73
     0
 40
0.0
  0
LTYPE
  5
1C4
330
5
100
AcDbSymbolTableRecord
100
AcDbLinetypeTableRecord
  2
PHANTOM2
 70
     0
  3
___ _ _ ___ _ _ ___ _ _ ___ _ _
 72
    65
 73
     6
 40
1.25
 49
0.625
 74
     0
 49
-0.125
 74
     0
 49
0.125
 74
     0
 49
-0.125
 74
     0
 49
0.125
 74
     0
 49
-0.125
 74
     0
  0
LTYPE
  5
595
330
5
100
AcDbSymbolTableRecord
100
AcDbLinetypeTableRecord
  2
VOLLINIE_SCHMAL_0_18
 70
     0
  3

 72
    65
 73
     0
 40
0.0
  0
LTYPE
  5
751
330
5
100
AcDbSymbolTableRecord
100
AcDbLinetypeTableRecord
  2
STANDARD
 70
     0
  3

 72
    65
 73
     0
 40
0.0
  0
ENDTAB
  0
TABLE
  2
LAYER
  5
2
102
{ACAD_XDICTIONARY
360
1E1
102
}
330
0
100
AcDbSymbolTable
 70
     4
  0
LAYER
  5
10
102
{ACAD_XDICTIONARY
360
1CD
102
}
330
2
100
AcDbSymbolTableRecord
100
AcDbLayerTableRecord
  2
0
 70
     0
 62
     7
  6
CONTINUOUS
370
    -3
390
E0
347
18B
  0
LAYER
  5
296
330
2
100
AcDbSymbolTableRecord
100
AcDbLayerTableRecord
  2
HEWI
 70
     0
 62
     7
  6
CONTINUOUS
370
     9
390
E0
347
18B
1001
AcAecLayerStandard
1000

1000

1001
AcCmTransparency
1071
        0
  0
LAYER
  5
309
330
2
100
AcDbSymbolTableRecord
100
AcDbLayerTableRecord
  2
Defpoints
 70
     0
 62
     7
  6
CONTINUOUS
290
     0
370
    -3
390
E0
347
18B
  0
LAYER
  5
596
330
2
100
AcDbSymbolTableRecord
100
AcDbLayerTableRecord
  2
STANDARD
 70
     0
 62
     7
  6
CONTINUOUS
370
    -3
390
E0
347
18B
  0
ENDTAB
  0
TABLE
  2
STYLE
  5
3
330
0
100
AcDbSymbolTable
 70
     1
  0
STYLE
  5
11
330
3
100
AcDbSymbolTableRecord
100
AcDbTextStyleTableRecord
  2
STANDARD
 70
     0
 40
0.0
 41
1.0
 50
0.0
 71
     0
 42
0.2
  3
txt
  4

  0
ENDTAB
  0
TABLE
  2
VIEW
  5
6
330
0
100
AcDbSymbolTable
 70
     0
  0
ENDTAB
  0
TABLE
  2
UCS
  5
7
330
0
100
AcDbSymbolTable
 70
     0
  0
ENDTAB
  0
TABLE
  2
APPID
  5
9
330
0
100
AcDbSymbolTable
 70
     6
  0
APPID
  5
12
330
9
100
AcDbSymbolTableRecord
100
AcDbRegAppTableRecord
  2
ACAD
 70
     0
  0
APPID
  5
1D1
330
9
100
AcDbSymbolTableRecord
100
AcDbRegAppTableRecord
  2
ACAD_NAV_VCDISPLAY
 70
     0
  0
APPID
  5
297
330
9
100
AcDbSymbolTableRecord
100
AcDbRegAppTableRecord
  2
AcAecLayerStandard
 70
     0
  0
APPID
  5
298
330
9
100
AcDbSymbolTableRecord
100
AcDbRegAppTableRecord
  2
AcCmTransparency
 70
     0
  0
APPID
  5
2AA
330
9
100
AcDbSymbolTableRecord
100
AcDbRegAppTableRecord
  2
ACAD_PSEXT
 70
     0
  0
APPID
  5
483
330
9
100
AcDbSymbolTableRecord
100
AcDbRegAppTableRecord
  2
ACAD_EXEMPT_FROM_CAD_STANDARDS
 70
     0
  0
ENDTAB
  0
TABLE
  2
DIMSTYLE
  5
A
330
0
100
AcDbSymbolTable
 70
     1
100
AcDbDimStyleTable
 71
     1
340
27
  0
DIMSTYLE
105
27
330
A
100
AcDbSymbolTableRecord
100
AcDbDimStyleTableRecord
  2
STANDARD
 70
     0
340
11
  0
ENDTAB
  0
TABLE
  2
BLOCK_RECORD
  5
1
330
0
100
AcDbSymbolTable
 70
     5
  0
BLOCK_RECORD
  5
1F
102
{ACAD_XDICTIONARY
360
D9
102
}
330
1
100
AcDbSymbolTableRecord
100
AcDbBlockTableRecord
  2
*MODEL_SPACE
340
1C8
 70
     0
280
     1
281
     0
  0
BLOCK_RECORD
  5
1B
102
{ACAD_XDICTIONARY
360
D7
102
}
330
1
100
AcDbSymbolTableRecord
100
AcDbBlockTableRecord
  2
*PAPER_SPACE
340
1C9
 70
     0
280
     1
281
     0
  0
BLOCK_RECORD
  5
8DB
330
1
100
AcDbSymbolTableRecord
100
AcDbBlockTableRecord
  2
*D2
340
0
 70
     0
280
     1
281
     0
  0
BLOCK_RECORD
  5
9E3
330
1
100
AcDbSymbolTableRecord
100
AcDbBlockTableRecord
  2
*D4
340
0
 70
     0
280
     1
281
     0
  0
ENDTAB
  0
ENDSEC
  0
SECTION
  2
BLOCKS
  0
BLOCK
  5
20
330
1F
100
AcDbEntity
  8
0
100
AcDbBlockBegin
  2
*MODEL_SPACE
 70
     0
 10
0.0
 20
0.0
 30
0.0
  3
*MODEL_SPACE
  1

  0
ENDBLK
  5
21
330
1F
100
AcDbEntity
  8
0
100
AcDbBlockEnd
  0
BLOCK
  5
1C
330
1B
100
AcDbEntity
 67
     1
  8
0
100
AcDbBlockBegin
  2
*PAPER_SPACE
 70
     0
 10
0.0
 20
0.0
 30
0.0
  3
*PAPER_SPACE
  1

  0
ENDBLK
  5
1D
330
1B
100
AcDbEntity
 67
     1
  8
0
100
AcDbBlockEnd
  0
BLOCK
  5
8DC
330
8DB
100
AcDbEntity
  8
0
100
AcDbBlockBegin
  2
*D2
 70
     1
 10
0.0
 20
0.0
 30
0.0
  3
*D2
  1

  0
LINE
  5
8DE
330
8DB
100
AcDbEntity
  8
0
 62
     0
440
 16777216
370
    -2
100
AcDbLine
 10
717.7722275777504
 20
424.1638524116018
 30
0.0
 11
1020.050269999997
 21
424.1638524116017
 31
0.0
  0
LINE
  5
8DF
330
8DB
100
AcDbEntity
  8
0
 62
     0
440
 16777216
370
    -2
100
AcDbLine
 10
717.7722275777504
 20
392.163852411602
 30
0.0
 11
1020.050269999997
 21
392.163852411602
 31
0.0
  0
LINE
  5
8E0
330
8DB
100
AcDbEntity
  8
0
 62
     0
440
 16777216
370
    -2
100
AcDbLine
 10
1019.870269999997
 20
423.9838524116017
 30
0.0
 11
1019.870269999997
 21
408.3438524116018
 31
0.0
  0
LINE
  5
8E1
330
8DB
100
AcDbEntity
  8
0
 62
     0
440
 16777216
370
    -2
100
AcDbLine
 10
1019.870269999997
 20
392.343852411602
 30
0.0
 11
1019.870269999997
 21
407.9838524116018
 31
0.0
  0
SOLID
  5
8E2
330
8DB
100
AcDbEntity
  8
0
 62
     0
440
 16777216
100
AcDbTrace
 10
1019.840269999997
 20
423.9838524116017
 30
0.0
 11
1019.900269999997
 21
423.9838524116017
 31
0.0
 12
1019.870269999997
 22
424.1638524116017
 32
0.0
 13
1019.870269999997
 23
424.1638524116017
 33
0.0
  0
SOLID
  5
8E3
330
8DB
100
AcDbEntity
  8
0
 62
     0
440
 16777216
100
AcDbTrace
 10
1019.840269999997
 20
392.343852411602
 30
0.0
 11
1019.900269999997
 21
392.343852411602
 31
0.0
 12
1019.870269999997
 22
392.163852411602
 32
0.0
 13
1019.870269999997
 23
392.163852411602
 33
0.0
  0
MTEXT
  5
8E4
330
8DB
100
AcDbEntity
  8
0
 62
     0
440
 16777216
100
AcDbMText
 10
1019.870269999997
 20
408.163852411602
 30
0.0
 40
0.18
 41
0.0
 46
0.0
 71
     5
 72
     1
  1
\A1;32.0000
 73
     1
 44
1.0
  0
POINT
  5
8E5
330
8DB
100
AcDbEntity
  8
Defpoints
 62
     0
440
 16777216
100
AcDbPoint
 10
717.7097275777505
 20
424.1638524116018
 30
0.0
  0
POINT
  5
8E6
330
8DB
100
AcDbEntity
  8
Defpoints
 62
     0
440
 16777216
100
AcDbPoint
 10
717.7097275777505
 20
392.163852411602
 30
0.0
  0
POINT
  5
8E7
330
8DB
100
AcDbEntity
  8
Defpoints
 62
     0
440
 16777216
100
AcDbPoint
 10
1019.870269999997
 20
392.163852411602
 30
0.0
  0
ENDBLK
  5
8DD
330
8DB
100
AcDbEntity
  8
0
100
AcDbBlockEnd
  0
BLOCK
  5
9E4
330
9E3
100
AcDbEntity
  8
0
100
AcDbBlockBegin
  2
*D4
 70
     1
 10
0.0
 20
0.0
 30
0.0
  3
*D4
  1

  0
LINE
  5
9E6
330
9E3
100
AcDbEntity
  8
0
 62
     0
440
 16777216
370
    -2
100
AcDbLine
 10
1140.361507158176
 20
512.8225464893144
 30
0.0
 11
1140.361507158176
 21
957.6933935215095
 31
0.0
  0
LINE
  5
9E7
330
9E3
100
AcDbEntity
  8
0
 62
     0
440
 16777216
370
    -2
100
AcDbLine
 10
1108.361507158176
 20
512.8225464893144
 30
0.0
 11
1108.361507158176
 21
957.6933935215095
 31
0.0
  0
LINE
  5
9E8
330
9E3
100
AcDbEntity
  8
0
 62
     0
440
 16777216
370
    -2
100
AcDbLine
 10
1140.181507158176
 20
957.5133935215093
 30
0.0
 11
1124.931507158176
 21
957.5133935215093
 31
0.0
  0
LINE
  5
9E9
330
9E3
100
AcDbEntity
  8
0
 62
     0
440
 16777216
370
    -2
100
AcDbLine
 10
1108.541507158176
 20
957.5133935215093
 30
0.0
 11
1123.791507158176
 21
957.5133935215093
 31
0.0
  0
SOLID
  5
9EA
330
9E3
100
AcDbEntity
  8
0
 62
     0
440
 16777216
100
AcDbTrace
 10
1140.181507158176
 20
957.5433935215095
 30
0.0
 11
1140.181507158176
 21
957.4833935215094
 31
0.0
 12
1140.361507158176
 22
957.5133935215093
 32
0.0
 13
1140.361507158176
 23
957.5133935215093
 33
0.0
  0
SOLID
  5
9EB
330
9E3
100
AcDbEntity
  8
0
 62
     0
440
 16777216
100
AcDbTrace
 10
1108.541507158176
 20
957.5433935215095
 30
0.0
 11
1108.541507158176
 21
957.4833935215094
 31
0.0
 12
1108.361507158176
 22
957.5133935215093
 32
0.0
 13
1108.361507158176
 23
957.5133935215093
 33
0.0
  0
MTEXT
  5
9EC
330
9E3
100
AcDbEntity
  8
0
 62
     0
440
 16777216
100
AcDbMText
 10
1124.361507158176
 20
957.5133935215093
 30
0.0
 40
0.18
 41
0.0
 46
0.0
 71
     5
 72
     1
  1
\A1;32.0000
 73
     1
 44
1.0
  0
POINT
  5
9ED
330
9E3
100
AcDbEntity
  8
Defpoints
 62
     0
440
 16777216
100
AcDbPoint
 10
1140.361507158176
 20
512.7600464893143
 30
0.0
  0
POINT
  5
9EE
330
9E3
100
AcDbEntity
  8
Defpoints
 62
     0
440
 16777216
100
AcDbPoint
 10
1108.361507158176
 20
512.7600464893143
 30
0.0
  0
POINT
  5
9EF
330
9E3
100
AcDbEntity
  8
Defpoints
 62
     0
440
 16777216
100
AcDbPoint
 10
1108.361507158176
 20
957.5133935215093
 30
0.0
  0
ENDBLK
  5
9E5
330
9E3
100
AcDbEntity
  8
0
100
AcDbBlockEnd
  0
ENDSEC
  0
SECTION
  2
ENTITIES
  0
LWPOLYLINE
  5
338
330
1F
100
AcDbEntity
  8
HEWI
100
AcDbPolyline
 90
        4
 70
     0
 43
0.0
 10
924.13446400195
 20
392.163852411602
 10
552.28988960287
 20
392.163852411602
 10
552.28988960287
 20
424.1638524116018
 10
924.13446400195
 20
424.1638524116018
  0
ARC
  5
339
330
1F
100
AcDbEntity
  8
HEWI
100
AcDbCircle
 10
1169.28988960287
 20
608.1638524116017
 30
0.0
 40
35.0
100
AcDbArc
 50
252.2028944122128
 51
197.7971055877872
  0
LINE
  5
33B
330
1F
100
AcDbEntity
  8
HEWI
100
AcDbLine
 10
552.2898896028703
 20
164.1099958923746
 30
0.0
 11
1155.854860760325
 21
164.1099958923746
 31
0.0
  0
LINE
  5
33D
330
1F
100
AcDbEntity
  8
HEWI
100
AcDbLine
 10
1167.589717263011
 20
132.1099958923747
 30
0.0
 11
552.2898896028703
 21
132.1099958923745
 31
0.0
  0
LWPOLYLINE
  5
33E
330
1F
100
AcDbEntity
  8
HEWI
100
AcDbPolyline
 90
        4
 70
     0
 43
0.0
 10
1134.28988960287
 20
209.1099958923746
 10
1134.28988960287
 20
220.1099958923746
 10
1204.28988960287
 20
220.1099958923746
 10
1204.28988960287
 20
209.1099958923746
  0
LWPOLYLINE
  5
33F
330
1F
100
AcDbEntity
  8
HEWI
100
AcDbPolyline
 90
        2
 70
     0
 43
0.0
 10
1203.28988960287
 20
208.1099958923746
 10
1135.28988960287
 20
208.1099958923746
  0
ARC
  5
340
330
1F
100
AcDbEntity
  8
HEWI
100
AcDbCircle
 10
1135.28988960287
 20
209.1099958923746
 30
0.0
 40
1.0
100
AcDbArc
 50
180.0
 51
270.0
  0
ARC
  5
341
330
1F
100
AcDbEntity
  8
HEWI
100
AcDbCircle
 10
1203.28988960287
 20
209.1099958923746
 30
0.0
 40
1.0
100
AcDbArc
 50
270.0
 51
0.000000000000007
  0
LINE
  5
342
330
1F
100
AcDbEntity
  8
HEWI
100
AcDbLine
 10
1166.28988960287
 20
208.1099958923746
 30
0.0
 11
1169.28988960287
 21
208.1099958923746
 31
0.0
  0
LINE
  5
344
330
1F
100
AcDbEntity
  8
HEWI
100
AcDbLine
 10
1155.854860760325
 20
149.6099958923746
 30
0.0
 11
1155.854860760325
 21
208.1099958923746
 31
0.0
  0
LINE
  5
345
330
1F
100
AcDbEntity
  8
HEWI
100
AcDbLine
 10
1169.28988960287
 20
208.1099958923746
 30
0.0
 11
1172.28988960287
 21
208.1099958923746
 31
0.0
  0
LWPOLYLINE
  5
348
330
1F
100
AcDbEntity
  8
HEWI
100
AcDbPolyline
 90
        4
 70
     0
 43
0.0
 10
514.2898896028701
 20
209.1099958923746
 10
514.2898896028701
 20
220.1099958923746
 10
584.28988960287
 20
220.1099958923746
 10
584.28988960287
 20
209.1099958923746
  0
LWPOLYLINE
  5
349
330
1F
100
AcDbEntity
  8
HEWI
100
AcDbPolyline
 90
        2
 70
     0
 43
0.0
 10
583.2898896028702
 20
208.1099958923746
 10
515.2898896028703
 20
208.1099958923746
  0
ARC
  5
34A
330
1F
100
AcDbEntity
  8
HEWI
100
AcDbCircle
 10
515.2898896028703
 20
209.1099958923746
 30
0.0
 40
1.0
100
AcDbArc
 50
180.0
 51
270.0
  0
ARC
  5
34B
330
1F
100
AcDbEntity
  8
HEWI
100
AcDbCircle
 10
583.2898896028702
 20
209.1099958923746
 30
0.0
 40
1.0
100
AcDbArc
 50
270.0
 51
0.000000000000007
  0
LINE
  5
34C
330
1F
100
AcDbEntity
  8
HEWI
100
AcDbLine
 10
546.2898896028701
 20
208.1099958923746
 30
0.0
 11
549.2898896028703
 21
208.1099958923746
 31
0.0
  0
LINE
  5
34D
330
1F
100
AcDbEntity
  8
HEWI
100
AcDbLine
 10
549.2898896028703
 20
132.1099958923745
 30
0.0
 11
546.2898896028701
 21
132.1099958923745
 31
0.0
  0
LINE
  5
34E
330
1F
100
AcDbEntity
  8
HEWI
100
AcDbLine
 10
546.2898896028701
 20
132.1099958923745
 30
0.0
 11
546.2898896028701
 21
208.1099958923746
 31
0.0
  0
LINE
  5
34F
330
1F
100
AcDbEntity
  8
HEWI
100
AcDbLine
 10
549.2898896028703
 20
208.1099958923746
 30
0.0
 11
552.28988960287
 21
208.1099958923746
 31
0.0
  0
LINE
  5
350
330
1F
100
AcDbEntity
  8
HEWI
100
AcDbLine
 10
552.28988960287
 20
208.1099958923746
 30
0.0
 11
552.28988960287
 21
132.1099958923745
 31
0.0
  0
LINE
  5
351
330
1F
100
AcDbEntity
  8
HEWI
100
AcDbLine
 10
552.28988960287
 20
132.1099958923745
 30
0.0
 11
549.2898896028703
 21
132.1099958923745
 31
0.0
  0
ARC
  5
353
330
1F
100
AcDbEntity
  8
HEWI
100
AcDbCircle
 10
549.2898896028702
 20
408.1638524116018
 30
0.0
 40
35.0
100
AcDbArc
 50
27.20289441221221
 51
332.7971055877879
  0
LWPOLYLINE
  5
355
330
1F
100
AcDbEntity
  8
HEWI
100
AcDbPolyline
 90
        4
 70
     1
 43
0.0
 10
546.2898896028701
 20
392.163852411602
 10
552.28988960287
 20
392.163852411602
 10
552.28988960287
 20
424.1638524116018
 10
546.2898896028701
 20
424.1638524116018
  0
ARC
  5
3EA
330
1F
100
AcDbEntity
  8
HEWI
100
AcDbCircle
 10
1169.28988960287
 20
608.1638524116017
 30
0.0
 40
17.5
100
AcDbArc
 50
291.1044918138355
 51
158.8955081861654
  0
ARC
  5
3EB
330
1F
100
AcDbEntity
  8
HEWI
100
AcDbCircle
 10
549.2898896028702
 20
408.1638524116018
 30
0.0
 40
17.5
100
AcDbArc
 50
66.1044918138427
 51
293.8955081861692
  0
LWPOLYLINE
  5
4C8
330
1F
100
AcDbEntity
  8
HEWI
100
AcDbPolyline
 90
        4
 70
     0
 43
0.0
 10
1362.675193121075
 20
443.1638524116017
 10
1373.675193121075
 20
443.1638524116017
 10
1373.675193121075
 20
373.163852411602
 10
1362.675193121075
 20
373.163852411602
  0
LWPOLYLINE
  5
4C9
330
1F
100
AcDbEntity
  8
HEWI
100
AcDbPolyline
 90
        2
 70
     0
 43
0.0
 10
1361.675193121075
 20
374.163852411602
 10
1361.675193121075
 20
442.1638524116017
  0
ARC
  5
4CA
330
1F
100
AcDbEntity
  8
HEWI
100
AcDbCircle
 10
1362.675193121075
 20
442.1638524116017
 30
0.0
 40
1.0
100
AcDbArc
 50
90.0
 51
180.0
  0
ARC
  5
4CB
330
1F
100
AcDbEntity
  8
HEWI
100
AcDbCircle
 10
1362.675193121075
 20
374.163852411602
 30
0.0
 40
1.0
100
AcDbArc
 50
180.0
 51
270.0
  0
LINE
  5
4CC
330
1F
100
AcDbEntity
  8
HEWI
100
AcDbLine
 10
1361.675193121075
 20
411.163852411602
 30
0.0
 11
1361.675193121075
 21
408.1638524116018
 31
0.0
  0
LINE
  5
4CD
330
1F
100
AcDbEntity
  8
HEWI
100
AcDbLine
 10
1361.675193121075
 20
408.1638524116018
 30
0.0
 11
1361.675193121075
 21
405.1638524116017
 31
0.0
  0
ARC
  5
4CE
330
1F
100
AcDbEntity
  8
HEWI
100
AcDbCircle
 10
1301.675193121075
 20
408.163852411602
 30
0.0
 40
16.0
100
AcDbArc
 50
174.6206210088873
 51
5.379378991112725
  0
LINE
  5
4CF
330
1F
100
AcDbEntity
  8
HEWI
100
AcDbLine
 10
1317.675193121075
 20
424.0933847336759
 30
0.0
 11
1361.675193121075
 21
424.0933847336759
 31
0.0
  0
LINE
  5
4D0
330
1F
100
AcDbEntity
  8
HEWI
100
AcDbLine
 10
1308.675193121075
 20
392.2343200895281
 30
0.0
 11
1361.675193121075
 21
392.2343200895281
 31
0.0
  0
LINE
  5
4D1
330
1F
100
AcDbEntity
  8
HEWI
100
AcDbLine
 10
1285.675193121075
 20
408.1638524116018
 30
0.0
 11
1285.675193121075
 21
610.2851727551612
 31
0.0
  0
LINE
  5
4D2
330
1F
100
AcDbEntity
  8
HEWI
100
AcDbLine
 10
1317.675193121075
 20
408.1638524116018
 30
0.0
 11
1317.675193121075
 21
594.7288235690572
 31
0.0
  0
LINE
  5
576
330
1F
100
AcDbEntity
  8
HEWI
100
AcDbLine
 10
1182.724918445414
 20
598.9714642561765
 30
0.0
 11
1178.482277758295
 21
594.7288235690572
 31
0.0
  0
LINE
  5
577
330
1F
100
AcDbEntity
  8
HEWI
100
AcDbLine
 10
1178.482277758295
 20
594.7288235690572
 30
0.0
 11
1155.854860760325
 21
617.3562405670267
 31
0.0
  0
LINE
  5
578
330
1F
100
AcDbEntity
  8
HEWI
100
AcDbLine
 10
1155.854860760325
 20
617.3562405670267
 30
0.0
 11
1160.097501447445
 21
621.5988812541461
 31
0.0
  0
LINE
  5
579
330
1F
100
AcDbEntity
  8
HEWI
100
AcDbLine
 10
1160.097501447445
 20
621.5988812541461
 30
0.0
 11
1182.724918445414
 21
598.9714642561765
 31
0.0
  0
LINE
  5
581
330
1F
100
AcDbEntity
  8
HEWI
100
AcDbLine
 10
992.1324473939248
 20
453.6338272006258
 30
0.0
 11
1155.854860760325
 21
617.3562405670267
 31
0.0
  0
LINE
  5
582
330
1F
100
AcDbEntity
  8
HEWI
100
AcDbLine
 10
1155.854860760325
 20
617.3562405670267
 30
0.0
 11
1178.482277758295
 21
594.7288235690572
 31
0.0
  0
LINE
  5
583
330
1F
100
AcDbEntity
  8
HEWI
100
AcDbLine
 10
1178.482277758295
 20
594.7288235690572
 30
0.0
 11
1014.759855943485
 21
431.0064017542469
 31
0.0
  0
LINE
  5
5B4
330
1F
100
AcDbEntity
  8
HEWI
100
AcDbLine
 10
973.3849328053929
 20
435.1323303299545
 30
0.0
 11
993.8894729156004
 21
410.5138463703264
 31
0.0
  0
LINE
  5
5F3
330
1F
100
AcDbEntity
  8
HEWI
100
AcDbLine
 10
976.2873412159525
 20
437.7887004173261
 30
0.0
 11
992.1325255421242
 21
453.633884743498
 31
0.0
  0
LINE
  5
5F4
330
1F
100
AcDbEntity
  8
HEWI
100
AcDbLine
 10
973.3054314414623
 20
435.0555711839881
 30
0.0
 11
976.2715874473215
 21
437.7736192796911
 31
0.0
  0
ARC
  5
5F5
330
1F
100
AcDbEntity
  8
HEWI
100
AcDbCircle
 10
949.4692276056589
 20
456.1765067376092
 30
0.0
 40
31.85621314401751
100
AcDbArc
 50
271.9973171346555
 51
318.6544427596866
  0
LINE
  5
5F6
330
1F
100
AcDbEntity
  8
HEWI
100
AcDbLine
 10
946.5647204078633
 20
424.1643435354385
 30
0.0
 11
950.5838854469258
 21
424.339819609657
 31
0.0
  0
LINE
  5
5F7
330
1F
100
AcDbEntity
  8
HEWI
100
AcDbLine
 10
924.13446400195
 20
424.1638676703908
 30
0.0
 11
946.5429112675749
 21
424.1638676703908
 31
0.0
  0
LINE
  5
5F8
330
1F
100
AcDbEntity
  8
HEWI
100
AcDbLine
 10
924.13446400195
 20
392.1638371528128
 30
0.0
 11
947.2629735234344
 21
392.1638371528128
 31
0.0
  0
LINE
  5
5F9
330
1F
100
AcDbEntity
  8
HEWI
100
AcDbLine
 10
947.2411606804991
 20
392.1633611260944
 30
0.0
 11
953.4191391961241
 21
392.4331365167195
 31
0.0
  0
ARC
  5
5FA
330
1F
100
AcDbEntity
  8
HEWI
100
AcDbCircle
 10
949.7772297327925
 20
454.9181047585191
 30
0.0
 40
62.59095910452695
100
AcDbArc
 50
273.3290662694707
 51
314.810982383751
  0
LINE
  5
5FB
330
1F
100
AcDbEntity
  8
HEWI
100
AcDbLine
 10
993.8621345130036
 20
410.4893455865766
 30
0.0
 11
998.421308096988
 21
414.6672020318891
 31
0.0
  0
LINE
  5
5FC
330
1F
100
AcDbEntity
  8
HEWI
100
AcDbLine
 10
998.4055534669339
 20
414.6521198830168
 30
0.0
 11
1014.759923584121
 21
431.0063374123137
 31
0.0
  0
LINE
  5
64C
330
1F
100
AcDbEntity
  8
HEWI
100
AcDbLine
 10
950.5838854469258
 20
164.1099958923746
 30
0.0
 11
950.5838854469258
 21
132.1099958923746
 31
0.0
  0
LINE
  5
64D
330
1F
100
AcDbEntity
  8
HEWI
100
AcDbLine
 10
975.0777826056276
 20
164.1099958923746
 30
0.0
 11
975.0777826056276
 21
132.1099958923747
 31
0.0
  0
LINE
  5
64F
330
1F
100
AcDbEntity
  8
HEWI
100
AcDbLine
 10
953.4119167988412
 20
392.4327687863371
 30
0.0
 11
950.5795026568145
 21
424.3396475145662
 31
0.0
  0
LINE
  5
67C
330
1F
100
AcDbEntity
  8
HEWI
100
AcDbLine
 10
1155.854860760325
 20
208.1099958923746
 30
0.0
 11
1155.854860760325
 21
132.1099958923746
 31
0.0
  0
LINE
  5
67D
330
1F
100
AcDbEntity
  8
HEWI
100
AcDbLine
 10
1160.097501447445
 20
208.1099958923746
 30
0.0
 11
1160.097501447445
 21
143.4237043913594
 31
0.0
  0
LINE
  5
67E
330
1F
100
AcDbEntity
  8
HEWI
100
AcDbLine
 10
1182.724918445414
 20
208.1099958923746
 30
0.0
 11
1182.724918445414
 21
143.4237043913594
 31
0.0
  0
ARC
  5
67F
330
1F
100
AcDbEntity
  8
HEWI
100
AcDbCircle
 10
1171.411209946429
 20
143.4237043913594
 30
0.0
 40
11.31370849898476
100
AcDbArc
 50
180.0
 51
0.000000000000007
  0
ARC
  5
684
330
1F
100
AcDbEntity
  8
HEWI
100
AcDbCircle
 10
1168.439803432941
 20
144.7344211903376
 30
0.0
 40
12.65301389393661
100
AcDbArc
 50
185.945895942156
 51
273.8522889654221
  0
LWPOLYLINE
  5
6A4
330
1F
100
AcDbEntity
  8
HEWI
100
AcDbPolyline
 90
        4
 70
     0
 43
0.0
 10
1362.675193121075
 20
573.1638524116017
 10
1373.675193121075
 20
573.1638524116017
 10
1373.675193121075
 20
643.1638524116017
 10
1362.675193121075
 20
643.1638524116017
  0
LWPOLYLINE
  5
6A5
330
1F
100
AcDbEntity
  8
HEWI
100
AcDbPolyline
 90
        2
 70
     0
 43
0.0
 10
1361.675193121075
 20
642.1638524116018
 10
1361.675193121075
 20
574.1638524116019
  0
ARC
  5
6A6
330
1F
100
AcDbEntity
  8
HEWI
100
AcDbCircle
 10
1362.675193121075
 20
574.1638524116019
 30
0.0
 40
1.0
100
AcDbArc
 50
180.0
 51
270.0
  0
ARC
  5
6A7
330
1F
100
AcDbEntity
  8
HEWI
100
AcDbCircle
 10
1362.675193121075
 20
642.1638524116018
 30
0.0
 40
1.0
100
AcDbArc
 50
90.0
 51
180.0
  0
LINE
  5
6A8
330
1F
100
AcDbEntity
  8
HEWI
100
AcDbLine
 10
1361.675193121075
 20
605.1638524116022
 30
0.0
 11
1361.675193121075
 21
608.1638524116018
 31
0.0
  0
LINE
  5
6A9
330
1F
100
AcDbEntity
  8
HEWI
100
AcDbLine
 10
1285.675193121075
 20
608.1638524116018
 30
0.0
 11
1285.675193121075
 21
605.1638524116022
 31
0.0
  0
LINE
  5
6AA
330
1F
100
AcDbEntity
  8
HEWI
100
AcDbLine
 10
1361.675193121075
 20
608.1638524116018
 30
0.0
 11
1361.675193121075
 21
611.163852411602
 31
0.0
  0
LINE
  5
6AB
330
1F
100
AcDbEntity
  8
HEWI
100
AcDbLine
 10
1285.675193121075
 20
611.163852411602
 30
0.0
 11
1285.675193121075
 21
608.1638524116018
 31
0.0
  0
LWPOLYLINE
  5
6AC
330
1F
100
AcDbEntity
  8
HEWI
100
AcDbPolyline
 90
        4
 70
     0
 43
0.0
 10
1362.675193121075
 20
573.1638524116017
 10
1373.675193121075
 20
573.1638524116017
 10
1373.675193121075
 20
643.1638524116017
 10
1362.675193121075
 20
643.1638524116017
  0
LWPOLYLINE
  5
6AD
330
1F
100
AcDbEntity
  8
HEWI
100
AcDbPolyline
 90
        2
 70
     0
 43
0.0
 10
1361.675193121075
 20
642.1638524116018
 10
1361.675193121075
 20
574.1638524116019
  0
ARC
  5
6AE
330
1F
100
AcDbEntity
  8
HEWI
100
AcDbCircle
 10
1362.675193121075
 20
574.1638524116019
 30
0.0
 40
1.0
100
AcDbArc
 50
180.0
 51
270.0
  0
ARC
  5
6AF
330
1F
100
AcDbEntity
  8
HEWI
100
AcDbCircle
 10
1362.675193121075
 20
642.1638524116018
 30
0.0
 40
1.0
100
AcDbArc
 50
90.0
 51
180.0
  0
LINE
  5
6B0
330
1F
100
AcDbEntity
  8
HEWI
100
AcDbLine
 10
1361.675193121075
 20
605.1638524116022
 30
0.0
 11
1361.675193121075
 21
608.1638524116017
 31
0.0
  0
LINE
  5
6B1
330
1F
100
AcDbEntity
  8
HEWI
100
AcDbLine
 10
1303.175193121075
 20
594.7288235690572
 30
0.0
 11
1361.675193121075
 21
594.7288235690572
 31
0.0
  0
LINE
  5
6B2
330
1F
100
AcDbEntity
  8
HEWI
100
AcDbLine
 10
1361.675193121075
 20
608.1638524116017
 30
0.0
 11
1361.675193121075
 21
611.1638524116017
 31
0.0
  0
LINE
  5
6B3
330
1F
100
AcDbEntity
  8
HEWI
100
AcDbLine
 10
1361.675193121075
 20
594.7288235690572
 30
0.0
 11
1296.988901620059
 21
594.7288235690572
 31
0.0
  0
LINE
  5
6B4
330
1F
100
AcDbEntity
  8
HEWI
100
AcDbLine
 10
1361.675193121075
 20
598.9714642561766
 30
0.0
 11
1296.98890162006
 21
598.9714642561766
 31
0.0
  0
ARC
  5
6B5
330
1F
100
AcDbEntity
  8
HEWI
100
AcDbCircle
 10
1296.98890162006
 20
610.2851727551612
 30
0.0
 40
11.31370849898476
100
AcDbArc
 50
90.0
 51
270.0
  0
LINE
  5
6B6
330
1F
100
AcDbEntity
  8
HEWI
100
AcDbLine
 10
1361.675193121075
 20
621.5988812541461
 30
0.0
 11
1296.98890162006
 21
621.5988812541461
 31
0.0
  0
ARC
  5
6B7
330
1F
100
AcDbEntity
  8
HEWI
100
AcDbCircle
 10
1298.299618419038
 20
607.3137662416733
 30
0.0
 40
12.65301389393661
100
AcDbArc
 50
176.1477110345773
 51
264.0541040578467
  0
ARC
  5
6BA
330
1F
100
AcDbEntity
  8
HEWI
100
AcDbCircle
 10
1301.675193121075
 20
435.0555711839881
 30
0.0
 40
16.0
100
AcDbArc
 50
174.6206210088873
 51
5.379378991112725
  0
LWPOLYLINE
  5
6BB
330
1F
100
AcDbEntity
  8
HEWI
100
AcDbPolyline
 90
        4
 70
     0
 43
0.0
 10
222.2999920835512
 20
443.1638524116017
 10
211.2999920835512
 20
443.1638524116017
 10
211.2999920835512
 20
373.163852411602
 10
222.2999920835512
 20
373.163852411602
  0
LWPOLYLINE
  5
6BC
330
1F
100
AcDbEntity
  8
HEWI
100
AcDbPolyline
 90
        2
 70
     0
 43
0.0
 10
223.2999920835512
 20
374.163852411602
 10
223.2999920835512
 20
442.1638524116017
  0
ARC
  5
6BD
330
1F
100
AcDbEntity
  8
HEWI
100
AcDbCircle
 10
222.2999920835512
 20
442.1638524116017
 30
0.0
 40
1.0
100
AcDbArc
 50
0.000000000000007
 51
90.0
  0
ARC
  5
6BE
330
1F
100
AcDbEntity
  8
HEWI
100
AcDbCircle
 10
222.2999920835512
 20
374.163852411602
 30
0.0
 40
1.0
100
AcDbArc
 50
270.0
 51
0.000000000000007
  0
LINE
  5
6BF
330
1F
100
AcDbEntity
  8
HEWI
100
AcDbLine
 10
223.2999920835512
 20
411.163852411602
 30
0.0
 11
223.2999920835512
 21
408.1638524116018
 31
0.0
  0
LINE
  5
6C0
330
1F
100
AcDbEntity
  8
HEWI
100
AcDbLine
 10
223.2999920835512
 20
408.1638524116018
 30
0.0
 11
223.2999920835512
 21
405.1638524116017
 31
0.0
  0
ARC
  5
6C1
330
1F
100
AcDbEntity
  8
HEWI
100
AcDbCircle
 10
283.2999920835511
 20
408.163852411602
 30
0.0
 40
16.0
100
AcDbArc
 50
264.6206210088879
 51
95.37937899111208
  0
LINE
  5
6C2
330
1F
100
AcDbEntity
  8
HEWI
100
AcDbLine
 10
281.7999920835512
 20
424.0933847336759
 30
0.0
 11
223.2999920835512
 21
424.0933847336759
 31
0.0
  0
LINE
  5
6C3
330
1F
100
AcDbEntity
  8
HEWI
100
AcDbLine
 10
281.7999920835512
 20
392.2343200895281
 30
0.0
 11
223.2999920835512
 21
392.2343200895281
 31
0.0
  0
LINE
  5
6C4
330
1F
100
AcDbEntity
  8
HEWI
100
AcDbLine
 10
299.2999920835512
 20
408.1638524116018
 30
0.0
 11
299.2999920835512
 21
609.8640247514573
 31
0.0
  0
LINE
  5
6C5
330
1F
100
AcDbEntity
  8
HEWI
100
AcDbLine
 10
267.2999920835512
 20
424.0933847336759
 30
0.0
 11
267.2999920835512
 21
601.426708244953
 31
0.0
  0
LWPOLYLINE
  5
6C6
330
1F
100
AcDbEntity
  8
HEWI
100
AcDbPolyline
 90
        4
 70
     0
 43
0.0
 10
222.2999920835512
 20
573.1638524116017
 10
211.2999920835512
 20
573.1638524116017
 10
211.2999920835512
 20
643.1638524116017
 10
222.2999920835512
 20
643.1638524116017
  0
LWPOLYLINE
  5
6C7
330
1F
100
AcDbEntity
  8
HEWI
100
AcDbPolyline
 90
        2
 70
     0
 43
0.0
 10
223.2999920835512
 20
642.1638524116018
 10
223.2999920835512
 20
574.1638524116019
  0
ARC
  5
6C8
330
1F
100
AcDbEntity
  8
HEWI
100
AcDbCircle
 10
222.2999920835512
 20
574.1638524116019
 30
0.0
 40
1.0
100
AcDbArc
 50
270.0
 51
0.000000000000007
  0
ARC
  5
6C9
330
1F
100
AcDbEntity
  8
HEWI
100
AcDbCircle
 10
222.2999920835512
 20
642.1638524116018
 30
0.0
 40
1.0
100
AcDbArc
 50
0.000000000000007
 51
90.0
  0
LWPOLYLINE
  5
6CE
330
1F
100
AcDbEntity
  8
HEWI
100
AcDbPolyline
 90
        4
 70
     0
 43
0.0
 10
222.2999920835512
 20
573.1638524116017
 10
211.2999920835512
 20
573.1638524116017
 10
211.2999920835512
 20
643.1638524116017
 10
222.2999920835512
 20
643.1638524116017
  0
LWPOLYLINE
  5
6CF
330
1F
100
AcDbEntity
  8
HEWI
100
AcDbPolyline
 90
        2
 70
     0
 43
0.0
 10
223.2999920835512
 20
642.1638524116018
 10
223.2999920835512
 20
574.1638524116019
  0
ARC
  5
6D0
330
1F
100
AcDbEntity
  8
HEWI
100
AcDbCircle
 10
222.2999920835512
 20
574.1638524116019
 30
0.0
 40
1.0
100
AcDbArc
 50
270.0
 51
0.000000000000007
  0
ARC
  5
6D1
330
1F
100
AcDbEntity
  8
HEWI
100
AcDbCircle
 10
222.2999920835512
 20
642.1638524116018
 30
0.0
 40
1.0
100
AcDbArc
 50
0.000000000000007
 51
90.0
  0
LINE
  5
6E2
330
1F
100
AcDbEntity
  8
HEWI
100
AcDbLine
 10
299.2999920835512
 20
436.4145952318396
 30
0.0
 11
267.2999920835512
 21
436.4145952318396
 31
0.0
  0
LINE
  5
6E5
330
1F
100
AcDbEntity
  8
HEWI
100
AcDbLine
 10
287.9862835845672
 20
621.5988812541461
 30
0.0
 11
223.2999920835512
 21
621.5988812541461
 31
0.0
  0
LINE
  5
6E8
330
1F
100
AcDbEntity
  8
HEWI
100
AcDbLine
 10
267.2999920835512
 20
594.7288235690572
 30
0.0
 11
223.2999920835512
 21
594.7288235690572
 31
0.0
  0
LINE
  5
6EB
330
1F
100
AcDbEntity
  8
HEWI
100
AcDbLine
 10
267.2999920835512
 20
621.5988812541461
 30
0.0
 11
287.9862835845672
 21
621.5988812541461
 31
0.0
  0
ARC
  5
6ED
330
1F
100
AcDbEntity
  8
HEWI
100
AcDbCircle
 10
283.2999920835511
 20
601.4267082449528
 30
0.0
 40
16.0
100
AcDbArc
 50
354.6206210088868
 51
180.0
  0
LWPOLYLINE
  5
6F5
330
1F
100
AcDbEntity
  8
HEWI
100
AcDbPolyline
 90
        4
 70
     0
 43
0.0
 10
222.2999920835512
 20
643.1638524116017
 10
211.2999920835512
 20
643.1638524116017
 10
211.2999920835512
 20
573.1638524116016
 10
222.2999920835512
 20
573.1638524116016
  0
LWPOLYLINE
  5
6F6
330
1F
100
AcDbEntity
  8
HEWI
100
AcDbPolyline
 90
        2
 70
     0
 43
0.0
 10
223.2999920835512
 20
574.1638524116015
 10
223.2999920835512
 20
642.1638524116015
  0
ARC
  5
6F7
330
1F
100
AcDbEntity
  8
HEWI
100
AcDbCircle
 10
222.2999920835512
 20
642.1638524116015
 30
0.0
 40
1.0
100
AcDbArc
 50
0.000000000000007
 51
90.0
  0
ARC
  5
6F8
330
1F
100
AcDbEntity
  8
HEWI
100
AcDbCircle
 10
222.2999920835512
 20
574.1638524116015
 30
0.0
 40
1.0
100
AcDbArc
 50
270.0
 51
0.000000000000007
  0
LINE
  5
6F9
330
1F
100
AcDbEntity
  8
HEWI
100
AcDbLine
 10
223.2999920835512
 20
611.1638524116012
 30
0.0
 11
223.2999920835512
 21
608.1638524116015
 31
0.0
  0
LINE
  5
6FA
330
1F
100
AcDbEntity
  8
HEWI
100
AcDbLine
 10
299.2999920835512
 20
608.1638524116015
 30
0.0
 11
299.2999920835512
 21
611.1638524116012
 31
0.0
  0
LINE
  5
6FB
330
1F
100
AcDbEntity
  8
HEWI
100
AcDbLine
 10
223.2999920835512
 20
608.1638524116015
 30
0.0
 11
223.2999920835512
 21
605.1638524116015
 31
0.0
  0
LINE
  5
6FC
330
1F
100
AcDbEntity
  8
HEWI
100
AcDbLine
 10
299.2999920835512
 20
605.1638524116015
 30
0.0
 11
299.2999920835512
 21
608.1638524116015
 31
0.0
  0
LWPOLYLINE
  5
6FD
330
1F
100
AcDbEntity
  8
HEWI
100
AcDbPolyline
 90
        4
 70
     0
 43
0.0
 10
222.2999920835512
 20
643.1638524116017
 10
211.2999920835512
 20
643.1638524116017
 10
211.2999920835512
 20
573.1638524116017
 10
222.2999920835512
 20
573.1638524116017
  0
LWPOLYLINE
  5
6FE
330
1F
100
AcDbEntity
  8
HEWI
100
AcDbPolyline
 90
        2
 70
     0
 43
0.0
 10
223.2999920835512
 20
574.1638524116015
 10
223.2999920835512
 20
642.1638524116016
  0
ARC
  5
6FF
330
1F
100
AcDbEntity
  8
HEWI
100
AcDbCircle
 10
222.2999920835512
 20
642.1638524116016
 30
0.0
 40
1.0
100
AcDbArc
 50
0.000000000000007
 51
90.0
  0
ARC
  5
700
330
1F
100
AcDbEntity
  8
HEWI
100
AcDbCircle
 10
222.2999920835512
 20
574.1638524116015
 30
0.0
 40
1.0
100
AcDbArc
 50
270.0
 51
0.000000000000007
  0
LINE
  5
701
330
1F
100
AcDbEntity
  8
HEWI
100
AcDbLine
 10
223.2999920835512
 20
611.1638524116012
 30
0.0
 11
223.2999920835512
 21
608.1638524116016
 31
0.0
  0
LINE
  5
702
330
1F
100
AcDbEntity
  8
HEWI
100
AcDbLine
 10
281.7999920835512
 20
621.5988812541461
 30
0.0
 11
223.2999920835512
 21
621.5988812541461
 31
0.0
  0
LINE
  5
703
330
1F
100
AcDbEntity
  8
HEWI
100
AcDbLine
 10
223.2999920835512
 20
608.1638524116016
 30
0.0
 11
223.2999920835512
 21
605.1638524116017
 31
0.0
  0
LINE
  5
704
330
1F
100
AcDbEntity
  8
HEWI
100
AcDbLine
 10
223.2999920835512
 20
621.5988812541461
 30
0.0
 11
287.9862835845672
 21
621.5988812541461
 31
0.0
  0
LINE
  5
705
330
1F
100
AcDbEntity
  8
HEWI
100
AcDbLine
 10
223.2999920835512
 20
617.3562405670267
 30
0.0
 11
283.5470688364662
 21
617.4248004149013
 31
0.0
  0
LINE
  5
707
330
1F
100
AcDbEntity
  8
HEWI
100
AcDbLine
 10
223.2999920835512
 20
594.7288235690572
 30
0.0
 11
267.2999920835512
 21
594.7288235690572
 31
0.0
  0
ARC
  5
708
330
1F
100
AcDbEntity
  8
HEWI
100
AcDbCircle
 10
286.675566785588
 20
609.0139385815303
 30
0.0
 40
12.65301389393661
100
AcDbArc
 50
356.1477110345776
 51
84.05410405784689
  0
ARC
  5
70A
330
1F
100
AcDbEntity
  8
HEWI
100
AcDbCircle
 10
283.2999920835511
 20
601.4267082449528
 30
0.0
 40
15.99999999999998
100
AcDbArc
 50
0.000000000000007
 51
180.0
  0
ARC
  5
70B
330
1F
100
AcDbEntity
  8
HEWI
100
AcDbCircle
 10
283.2999920835511
 20
601.4267082449528
 30
0.0
 40
15.99999999999994
100
AcDbArc
 50
359.9999999999996
 51
187.9041345602094
  0
CIRCLE
  5
8B5
330
1F
100
AcDbEntity
  8
HEWI
100
AcDbCircle
 10
1301.675193121075
 20
307.4638524116023
 30
0.0
 40
16.3
  0
LINE
  5
8B6
330
1F
100
AcDbEntity
  8
HEWI
100
AcDbLine
 10
1308.675193121075
 20
393.7763578416638
 30
0.0
 11
1308.675193121075
 21
322.184246428068
 31
0.0
  0
LINE
  5
8B7
330
1F
100
AcDbEntity
  8
HEWI
100
AcDbLine
 10
1293.675193121075
 20
394.307445951051
 30
0.0
 11
1293.675193121075
 21
321.665612865856
 31
0.0
  0
LINE
  5
8B8
330
1F
100
AcDbEntity
  8
HEWI
  6
STANDARD
 62
     7
370
    15
100
AcDbLine
 10
1300.678984536643
 20
276.7105765668014
 30
0.0
 11
1300.678984536643
 21
291.0970206585984
 31
0.0
  0
LINE
  5
8B9
330
1F
100
AcDbEntity
  8
HEWI
  6
STANDARD
 62
     7
370
    15
100
AcDbLine
 10
1302.67897309255
 20
276.6675467816455
 30
0.0
 11
1302.67897309255
 21
291.0979361859422
 31
0.0
  0
LINE
  5
8BA
330
1F
100
AcDbEntity
  8
HEWI
  6
STANDARD
 62
     7
370
    15
100
AcDbLine
 10
1302.297980203146
 20
275.8775992718796
 30
0.0
 11
1302.420985116476
 21
275.9935660687546
 31
0.0
  0
LINE
  5
8BB
330
1F
100
AcDbEntity
  8
HEWI
  6
STANDARD
 62
     7
370
    15
100
AcDbLine
 10
1300.82298935842
 20
276.1455436078173
 30
0.0
 11
1300.936972512716
 21
275.9935660687546
 31
0.0
  0
LINE
  5
8BC
330
1F
100
AcDbEntity
  8
HEWI
  6
STANDARD
 62
     7
370
    15
100
AcDbLine
 10
1300.73998154592
 20
276.3205619183646
 30
0.0
 11
1300.82298935842
 21
276.1455436078173
 31
0.0
  0
LINE
  5
8BD
330
1F
100
AcDbEntity
  8
HEWI
  6
STANDARD
 62
     7
370
    15
100
AcDbLine
 10
1300.693976296896
 20
276.4905448285205
 30
0.0
 11
1300.73998154592
 21
276.3205619183646
 31
0.0
  0
LINE
  5
8BE
330
1F
100
AcDbEntity
  8
HEWI
  6
STANDARD
 62
     7
370
    15
100
AcDbLine
 10
1300.678984536643
 20
276.6675467816455
 30
0.0
 11
1300.693976296896
 21
276.4905448285205
 31
0.0
  0
LINE
  5
8BF
330
1F
100
AcDbEntity
  8
HEWI
  6
STANDARD
 62
     7
370
    15
100
AcDbLine
 10
1301.555983438009
 20
275.6716056195364
 30
0.0
 11
1301.67898835134
 21
275.6764884320366
 31
0.0
  0
LINE
  5
8C0
330
1F
100
AcDbEntity
  8
HEWI
  6
STANDARD
 62
     7
370
    15
100
AcDbLine
 10
1301.67898835134
 20
275.6764884320366
 30
0.0
 11
1301.801974191183
 21
275.6716056195364
 31
0.0
  0
LINE
  5
8C1
330
1F
100
AcDbEntity
  8
HEWI
  6
STANDARD
 62
     7
370
    15
100
AcDbLine
 10
1302.663981332297
 20
276.4905448285205
 30
0.0
 11
1302.67897309255
 21
276.6675467816455
 31
0.0
  0
LINE
  5
8C2
330
1F
100
AcDbEntity
  8
HEWI
  6
STANDARD
 62
     7
370
    15
100
AcDbLine
 10
1302.617976083273
 20
276.3205619183646
 30
0.0
 11
1302.663981332297
 21
276.4905448285205
 31
0.0
  0
LINE
  5
8C3
330
1F
100
AcDbEntity
  8
HEWI
  6
STANDARD
 62
     7
370
    15
100
AcDbLine
 10
1302.534987344259
 20
276.1455436078173
 30
0.0
 11
1302.617976083273
 21
276.3205619183646
 31
0.0
  0
LINE
  5
8C4
330
1F
100
AcDbEntity
  8
HEWI
  6
STANDARD
 62
     7
370
    15
100
AcDbLine
 10
1302.420985116476
 20
275.9935660687546
 30
0.0
 11
1302.534987344259
 21
276.1455436078173
 31
0.0
  0
ARC
  5
8C5
330
1F
100
AcDbEntity
  8
HEWI
  6
STANDARD
 62
     7
370
    15
100
AcDbCircle
 10
1301.684067981385
 20
276.6556644046305
 30
0.0
 40
0.991097153074158
100
AcDbArc
 50
276.832393184923
 51
308.2742946123352
  0
ARC
  5
8C6
330
1F
100
AcDbEntity
  8
HEWI
  6
STANDARD
 62
     7
370
    15
100
AcDbCircle
 10
1301.674734805533
 20
276.6559654156115
 30
0.0
 40
0.9914968963227718
100
AcDbArc
 50
221.9190584761656
 51
263.1211837411022
  0
CIRCLE
  5
8C7
330
1F
100
AcDbEntity
  8
HEWI
100
AcDbCircle
 10
283.2999920835511
 20
307.4638524116022
 30
0.0
 40
12.5
  0
ARC
  5
8C8
330
1F
100
AcDbEntity
  8
HEWI
100
AcDbCircle
 10
283.2999920835511
 20
307.4638524116022
 30
0.0
 40
16.3
100
AcDbArc
 50
119.3930154477098
 51
64.56747540279478
  0
LINE
  5
8C9
330
1F
100
AcDbEntity
  8
HEWI
  6
STANDARD
 62
     7
370
    15
100
AcDbLine
 10
282.3037834991191
 20
276.7105765668011
 30
0.0
 11
282.3037834991191
 21
291.0970206585981
 31
0.0
  0
LINE
  5
8CA
330
1F
100
AcDbEntity
  8
HEWI
  6
STANDARD
 62
     7
370
    15
100
AcDbLine
 10
284.3037720550271
 20
276.6675467816452
 30
0.0
 11
284.3037720550271
 21
291.097936185942
 31
0.0
  0
LINE
  5
8CB
330
1F
100
AcDbEntity
  8
HEWI
  6
STANDARD
 62
     7
370
    15
100
AcDbLine
 10
283.9227791656231
 20
275.8775992718791
 30
0.0
 11
284.0457840789522
 21
275.9935660687541
 31
0.0
  0
LINE
  5
8CC
330
1F
100
AcDbEntity
  8
HEWI
  6
STANDARD
 62
     7
370
    15
100
AcDbLine
 10
282.447788320896
 20
276.1455436078168
 30
0.0
 11
282.5617714751932
 21
275.9935660687541
 31
0.0
  0
LINE
  5
8CD
330
1F
100
AcDbEntity
  8
HEWI
  6
STANDARD
 62
     7
370
    15
100
AcDbLine
 10
282.3647805083961
 20
276.3205619183643
 30
0.0
 11
282.447788320896
 21
276.1455436078168
 31
0.0
  0
LINE
  5
8CE
330
1F
100
AcDbEntity
  8
HEWI
  6
STANDARD
 62
     7
370
    15
100
AcDbLine
 10
282.3187752593721
 20
276.4905448285202
 30
0.0
 11
282.3647805083961
 21
276.3205619183643
 31
0.0
  0
LINE
  5
8CF
330
1F
100
AcDbEntity
  8
HEWI
  6
STANDARD
 62
     7
370
    15
100
AcDbLine
 10
282.3037834991191
 20
276.6675467816452
 30
0.0
 11
282.3187752593721
 21
276.4905448285202
 31
0.0
  0
LINE
  5
8D0
330
1F
100
AcDbEntity
  8
HEWI
  6
STANDARD
 62
     7
370
    15
100
AcDbLine
 10
283.1807824004861
 20
275.6716056195362
 30
0.0
 11
283.303787313816
 21
275.6764884320361
 31
0.0
  0
LINE
  5
8D1
330
1F
100
AcDbEntity
  8
HEWI
  6
STANDARD
 62
     7
370
    15
100
AcDbLine
 10
283.303787313816
 20
275.6764884320361
 30
0.0
 11
283.4267731536602
 21
275.6716056195362
 31
0.0
  0
LINE
  5
8D2
330
1F
100
AcDbEntity
  8
HEWI
  6
STANDARD
 62
     7
370
    15
100
AcDbLine
 10
284.288780294773
 20
276.4905448285202
 30
0.0
 11
284.3037720550271
 21
276.6675467816452
 31
0.0
  0
LINE
  5
8D3
330
1F
100
AcDbEntity
  8
HEWI
  6
STANDARD
 62
     7
370
    15
100
AcDbLine
 10
284.2427750457491
 20
276.3205619183643
 30
0.0
 11
284.288780294773
 21
276.4905448285202
 31
0.0
  0
LINE
  5
8D4
330
1F
100
AcDbEntity
  8
HEWI
  6
STANDARD
 62
     7
370
    15
100
AcDbLine
 10
284.1597863067361
 20
276.1455436078168
 30
0.0
 11
284.2427750457491
 21
276.3205619183643
 31
0.0
  0
LINE
  5
8D5
330
1F
100
AcDbEntity
  8
HEWI
  6
STANDARD
 62
     7
370
    15
100
AcDbLine
 10
284.0457840789522
 20
275.9935660687541
 30
0.0
 11
284.1597863067361
 21
276.1455436078168
 31
0.0
  0
ARC
  5
8D6
330
1F
100
AcDbEntity
  8
HEWI
  6
STANDARD
 62
     7
370
    15
100
AcDbCircle
 10
283.3088669438612
 20
276.6556644046302
 30
0.0
 40
0.991097153074158
100
AcDbArc
 50
276.832393184923
 51
308.2742946123352
  0
ARC
  5
8D7
330
1F
100
AcDbEntity
  8
HEWI
  6
STANDARD
 62
     7
370
    15
100
AcDbCircle
 10
283.2995337680102
 20
276.6559654156111
 30
0.0
 40
0.9914968963227718
100
AcDbArc
 50
221.9190584761655
 51
263.1211837411022
  0
LINE
  5
8D8
330
1F
100
AcDbEntity
  8
HEWI
100
AcDbLine
 10
290.2999920835512
 20
394.8973532501804
 30
0.0
 11
290.2999920835512
 21
317.8200100002061
 31
0.0
  0
LINE
  5
8D9
330
1F
100
AcDbEntity
  8
HEWI
100
AcDbLine
 10
275.2999920835512
 20
393.1638524116022
 30
0.0
 11
275.2999920835512
 21
317.0685387677515
 31
0.0
  0
LINE
  5
99E
330
1F
100
AcDbEntity
  8
HEWI
100
AcDbLine
 10
926.5387902532861
 20
393.1640203963604
 30
0.0
 11
890.538790253286
 21
393.1640203963604
 31
0.0
  0
LINE
  5
99F
330
1F
100
AcDbEntity
  8
HEWI
100
AcDbLine
 10
890.538790253286
 20
313.8563243963606
 30
0.0
 11
926.5387902532861
 21
313.8563243963606
 31
0.0
  0
LINE
  5
9A0
330
1F
100
AcDbEntity
  8
HEWI
100
AcDbLine
 10
1058.738790253298
 20
320.0640203963619
 30
0.0
 11
1058.538790253286
 21
319.8640203963577
 31
0.0
  0
LINE
  5
9A1
330
1F
100
AcDbEntity
  8
HEWI
100
AcDbLine
 10
1058.538790253286
 20
287.4640203963597
 30
0.0
 11
1058.738790253298
 21
287.264020396359
 31
0.0
  0
LINE
  5
9A2
330
1F
100
AcDbEntity
  8
HEWI
100
AcDbLine
 10
1061.338790253274
 20
287.264020396359
 30
0.0
 11
1061.538790253286
 21
287.4640203963597
 31
0.0
  0
LINE
  5
9A3
330
1F
100
AcDbEntity
  8
HEWI
100
AcDbLine
 10
1061.538790253286
 20
319.8640203963577
 30
0.0
 11
1061.338790253274
 21
320.0640203963619
 31
0.0
  0
LINE
  5
9A4
330
1F
100
AcDbEntity
  8
HEWI
100
AcDbLine
 10
1058.738790253298
 20
287.264020396359
 30
0.0
 11
1061.338790253274
 21
287.264020396359
 31
0.0
  0
LINE
  5
9A5
330
1F
100
AcDbEntity
  8
HEWI
100
AcDbLine
 10
1061.338790253274
 20
320.0640203963619
 30
0.0
 11
1058.738790253298
 21
320.0640203963619
 31
0.0
  0
LINE
  5
9A6
330
1F
100
AcDbEntity
  8
HEWI
100
AcDbLine
 10
1038.538790253286
 20
291.1640203963604
 30
0.0
 11
1058.538790253286
 21
291.1640203963604
 31
0.0
  0
LINE
  5
9A7
330
1F
100
AcDbEntity
  8
HEWI
100
AcDbLine
 10
916.0568322532967
 20
291.1640203963604
 30
0.0
 11
953.538790253286
 21
291.1640203963604
 31
0.0
  0
LINE
  5
9A8
330
1F
100
AcDbEntity
  8
HEWI
100
AcDbLine
 10
888.538790253286
 20
291.1640203963568
 30
0.0
 11
900.9887902532977
 21
291.1640203963604
 31
0.0
  0
LINE
  5
9A9
330
1F
100
AcDbEntity
  8
HEWI
100
AcDbLine
 10
1058.538790253286
 20
316.1640203963604
 30
0.0
 11
928.5400542532773
 21
316.1640203963604
 31
0.0
  0
LINE
  5
9AA
330
1F
100
AcDbEntity
  8
HEWI
100
AcDbLine
 10
888.538790253286
 20
392.2339345960241
 30
0.0
 11
888.5387902533155
 21
291.1640203963568
 31
0.0
  0
LINE
  5
9AB
330
1F
100
AcDbEntity
  8
HEWI
100
AcDbLine
 10
926.5387902532861
 20
313.8563243963606
 30
0.0
 11
926.5387902532861
 21
314.0563243963612
 31
0.0
  0
LINE
  5
9AC
330
1F
100
AcDbEntity
  8
HEWI
100
AcDbLine
 10
890.538790253286
 20
314.0563243963612
 30
0.0
 11
926.5387902532861
 21
314.0563243963612
 31
0.0
  0
LINE
  5
9AD
330
1F
100
AcDbEntity
  8
HEWI
100
AcDbLine
 10
926.5387902532861
 20
392.9640203963635
 30
0.0
 11
890.538790253286
 21
392.9640203963635
 31
0.0
  0
LINE
  5
9AE
330
1F
100
AcDbEntity
  8
HEWI
100
AcDbLine
 10
890.538790253286
 20
313.8563243963606
 30
0.0
 11
890.538790253286
 21
314.0563243963612
 31
0.0
  0
LINE
  5
9AF
330
1F
100
AcDbEntity
  8
HEWI
100
AcDbLine
 10
890.538790253286
 20
392.9640203963633
 30
0.0
 11
890.538790253286
 21
314.0563243963612
 31
0.0
  0
LINE
  5
9B0
330
1F
100
AcDbEntity
  8
HEWI
100
AcDbLine
 10
890.538790253286
 20
393.1640203963604
 30
0.0
 11
890.538790253286
 21
392.9640203963635
 31
0.0
  0
LINE
  5
9B1
330
1F
100
AcDbEntity
  8
HEWI
100
AcDbLine
 10
1058.738790253298
 20
287.264020396359
 30
0.0
 11
1058.738790253298
 21
320.0640203963619
 31
0.0
  0
LINE
  5
9B2
330
1F
100
AcDbEntity
  8
HEWI
100
AcDbLine
 10
1058.538790253286
 20
319.8640203963577
 30
0.0
 11
1058.538790253286
 21
303.6640203963604
 31
0.0
  0
LINE
  5
9B3
330
1F
100
AcDbEntity
  8
HEWI
100
AcDbLine
 10
1058.538790253286
 20
303.6640203963604
 30
0.0
 11
1058.538790253286
 21
287.4640203963597
 31
0.0
  0
LINE
  5
9B4
330
1F
100
AcDbEntity
  8
HEWI
100
AcDbLine
 10
1038.28850025329
 20
288.8050263963584
 30
0.0
 11
1037.316966253278
 21
289.0419243963612
 31
0.0
  0
LINE
  5
9B5
330
1F
100
AcDbEntity
  8
HEWI
100
AcDbLine
 10
1038.538790253286
 20
291.4702843963595
 30
0.0
 11
1038.538790253286
 21
290.8640203963575
 31
0.0
  0
LINE
  5
9B6
330
1F
100
AcDbEntity
  8
HEWI
100
AcDbLine
 10
1037.538790253286
 20
290.2889303963591
 30
0.0
 11
1037.538790253286
 21
291.1591023963617
 31
0.0
  0
LINE
  5
9B7
330
1F
100
AcDbEntity
  8
HEWI
100
AcDbLine
 10
953.7890802532825
 20
288.8050263963584
 30
0.0
 11
954.7606142532936
 21
289.0419243963612
 31
0.0
  0
LINE
  5
9B8
330
1F
100
AcDbEntity
  8
HEWI
100
AcDbLine
 10
1037.538790253286
 20
291.1591023963617
 30
0.0
 11
954.538790253286
 21
291.1591023963617
 31
0.0
  0
LINE
  5
9B9
330
1F
100
AcDbEntity
  8
HEWI
100
AcDbLine
 10
1037.316966253278
 20
289.0419243963612
 30
0.0
 11
954.7606142532936
 21
289.0419243963612
 31
0.0
  0
LINE
  5
9BA
330
1F
100
AcDbEntity
  8
HEWI
100
AcDbLine
 10
953.538790253286
 20
290.8640203963575
 30
0.0
 11
953.538790253286
 21
291.4702843963595
 31
0.0
  0
LINE
  5
9BB
330
1F
100
AcDbEntity
  8
HEWI
100
AcDbLine
 10
954.538790253286
 20
291.1591023963617
 30
0.0
 11
954.538790253286
 21
290.2889303963591
 31
0.0
  0
LINE
  5
9BC
330
1F
100
AcDbEntity
  8
HEWI
100
AcDbLine
 10
1038.538790253286
 20
291.4702723963626
 30
0.0
 11
953.538790253286
 21
291.4702723963626
 31
0.0
  0
LINE
  5
9BD
330
1F
100
AcDbEntity
  8
HEWI
100
AcDbLine
 10
1038.538790253286
 20
291.4702723963626
 30
0.0
 11
1038.538790253286
 21
291.1640203963604
 31
0.0
  0
LINE
  5
9BE
330
1F
100
AcDbEntity
  8
HEWI
100
AcDbLine
 10
953.538790253286
 20
291.1640203963604
 30
0.0
 11
953.538790253286
 21
291.4702723963626
 31
0.0
  0
LINE
  5
9BF
330
1F
100
AcDbEntity
  8
HEWI
100
AcDbLine
 10
900.9887882532824
 20
291.1640183963598
 30
0.0
 11
900.9887882532824
 21
291.1640183963598
 31
0.0
  0
LINE
  5
9C0
330
1F
100
AcDbEntity
  8
HEWI
100
AcDbLine
 10
913.0143282532849
 20
292.7140203963597
 30
0.0
 11
904.0148982532885
 21
292.7140203963597
 31
0.0
  0
LINE
  5
9C1
330
1F
100
AcDbEntity
  8
HEWI
100
AcDbLine
 10
914.2387902532977
 20
291.9140203963605
 30
0.0
 11
902.8387902532744
 21
291.9140203963605
 31
0.0
  0
LINE
  5
9C2
330
1F
100
AcDbEntity
  8
HEWI
100
AcDbLine
 10
928.538790253286
 20
392.2425576863601
 30
0.0
 11
928.538790253286
 21
315.1112903963575
 31
0.0
  0
LINE
  5
9C3
330
1F
100
AcDbEntity
  8
HEWI
100
AcDbLine
 10
926.5387902532861
 20
314.0563243963612
 30
0.0
 11
926.5387902532863
 21
392.9640203963633
 31
0.0
  0
LINE
  5
9C4
330
1F
100
AcDbEntity
  8
HEWI
100
AcDbLine
 10
926.5387902532861
 20
393.1640203963604
 30
0.0
 11
926.5387902532861
 21
392.9640203963635
 31
0.0
  0
LINE
  5
9C5
330
1F
100
AcDbEntity
  8
HEWI
100
AcDbLine
 10
1061.538790253286
 20
319.8640203963577
 30
0.0
 11
1061.538790253286
 21
303.6640203963604
 31
0.0
  0
LINE
  5
9C6
330
1F
100
AcDbEntity
  8
HEWI
100
AcDbLine
 10
1061.538790253286
 20
303.6640203963604
 30
0.0
 11
1061.538790253286
 21
287.4640203963597
 31
0.0
  0
LINE
  5
9C7
330
1F
100
AcDbEntity
  8
HEWI
100
AcDbLine
 10
1061.338790253274
 20
303.6640203963604
 30
0.0
 11
1061.338790253274
 21
320.0640203963619
 31
0.0
  0
LINE
  5
9C8
330
1F
100
AcDbEntity
  8
HEWI
100
AcDbLine
 10
1061.338790253274
 20
287.264020396359
 30
0.0
 11
1061.338790253274
 21
303.6640203963604
 31
0.0
  0
ARC
  5
9C9
330
1F
100
AcDbEntity
  8
HEWI
100
AcDbCircle
 10
902.8387902532744
 20
292.7140203963597
 30
0.0
 40
0.8
100
AcDbArc
 50
245.0166049992013
 51
270.0
  0
ARC
  5
9CA
330
1F
100
AcDbEntity
  8
HEWI
100
AcDbCircle
 10
914.2387902532977
 20
292.7140203963597
 30
0.0
 40
0.8
100
AcDbArc
 50
270.0
 51
295.64301300003
  0
ELLIPSE
  5
9CB
330
1F
100
AcDbEntity
  8
HEWI
100
AcDbEllipse
 10
928.3387902532744
 20
315.1112903963575
 30
0.0
 11
-0.2
 21
0.0
 31
0.0
210
0.0
220
0.0
230
1.0
 40
0.90136
 41
2.514698896745267
 42
3.141592653589792
  0
ELLIPSE
  5
9CC
330
1F
100
AcDbEntity
  8
HEWI
100
AcDbEllipse
 10
1037.538790253286
 20
290.8640203963575
 30
0.0
 11
1.0
 21
0.0
 31
0.0
210
0.0
220
0.0
230
1.0
 40
0.57509
 41
4.71238898038469
 42
6.283185307179563
  0
ELLIPSE
  5
9CD
330
1F
100
AcDbEntity
  8
HEWI
100
AcDbEllipse
 10
954.538790253286
 20
290.8640203963575
 30
0.0
 11
-1.0
 21
0.0000000000000001
 31
0.0
210
0.0
220
0.0
230
1.0
 40
0.57509
 41
0.0
 42
1.570796326794897
  0
SPLINE
  5
9CE
330
1F
100
AcDbEntity
  8
HEWI
100
AcDbSpline
210
0.0000000000000001
220
0.0000000000000013
230
1.0
 70
     8
 71
     3
 72
    10
 73
     6
 74
     0
 42
0.000000001
 43
0.0000000001
 40
0.0
 40
0.0
 40
0.0
 40
0.0
 40
0.0691533484577913
 40
0.5486690255593603
 40
1.0
 40
1.0
 40
1.0
 40
1.0
 10
927.7843933687584
 20
392.9438299548773
 30
-0.0000000000000002
 10
927.7644896614695
 20
392.9544631996092
 30
-0.0000000000000002
 10
927.6013444884195
 20
393.0356497759845
 30
-0.0000000000000002
 10
927.1623675847406
 20
393.1286250733817
 30
-0.0000000000000004
 10
926.7537044745154
 20
393.1589013568725
 30
-0.0000000000000004
 10
926.5376756395601
 20
393.15790851823
 30
-0.0000000000000004
  0
SPLINE
  5
9CF
330
1F
100
AcDbEntity
  8
HEWI
100
AcDbSpline
210
0.0000000000000001
220
0.0000000000000013
230
1.0
 70
     8
 71
     3
 72
    10
 73
     6
 74
     0
 42
0.000000001
 43
0.0000000001
 40
0.0
 40
0.0
 40
0.0
 40
0.0
 40
0.0691533484577913
 40
0.5486690255593603
 40
1.0
 40
1.0
 40
1.0
 40
1.0
 10
927.7843933687584
 20
392.9438299548773
 30
-0.0000000000000002
 10
927.7644896614695
 20
392.9544631996092
 30
-0.0000000000000002
 10
927.6013444884195
 20
393.0356497759845
 30
-0.0000000000000002
 10
927.1623675847406
 20
393.1286250733817
 30
-0.0000000000000004
 10
926.7537044745154
 20
393.1589013568725
 30
-0.0000000000000004
 10
926.5376756395601
 20
393.15790851823
 30
-0.0000000000000004
  0
SPLINE
  5
9D0
330
1F
100
AcDbEntity
  8
HEWI
100
AcDbSpline
210
0.0
220
0.0
230
1.0
 70
     8
 71
     3
 72
    11
 73
     7
 74
     0
 42
0.000000001
 43
0.0000000001
 40
0.0
 40
0.0
 40
0.0
 40
0.0
 40
0.0085407042298158
 40
0.294495578516009
 40
0.6285837272446312
 40
1.0
 40
1.0
 40
1.0
 40
1.0
 10
928.5365902031811
 20
392.2342755744963
 30
-0.0000000000000002
 10
928.5373388722403
 20
392.2369167379062
 30
-0.0000000000000002
 10
928.561926395316
 20
392.3278330298625
 30
-0.0000000000000002
 10
928.4507753332475
 20
392.5244291027909
 30
-0.0000000000000002
 10
928.2260241595835
 20
392.7490474306967
 30
-0.0000000000000002
 10
927.9529795462771
 20
392.8837825308463
 30
-0.0000000000000002
 10
927.7843933687584
 20
392.9438299548773
 30
-0.0000000000000002
  0
SPLINE
  5
9D1
330
1F
100
AcDbEntity
  8
HEWI
100
AcDbSpline
210
0.0
220
0.0
230
1.0
 70
     8
 71
     3
 72
    12
 73
     8
 74
     0
 42
0.000000001
 43
0.0000000001
 40
0.0
 40
0.0
 40
0.0
 40
0.0
 40
0.129584674490289
 40
0.3660981216981058
 40
0.6122957521584437
 40
0.8793126725148667
 40
1.0
 40
1.0
 40
1.0
 40
1.0
 10
890.2702087997205
 20
393.1412031879432
 30
0.0
 10
890.1439236066982
 20
393.1381553519085
 30
0.0
 10
889.8034656982966
 20
393.1136016143927
 30
0.0
 10
889.2941006059448
 20
392.9712630933308
 30
0.0
 10
888.8375243772792
 20
392.7401804143
 30
0.0
 10
888.5710207238483
 20
392.4975563250689
 30
0.0
 10
888.5561181249252
 20
392.2973225302037
 30
0.0
 10
888.5621595959859
 20
392.2311550513866
 30
0.0
  0
SPLINE
  5
9D2
330
1F
100
AcDbEntity
  8
HEWI
100
AcDbSpline
210
-0.0000000000000002
220
0.0000000000000002
230
1.0
 70
     8
 71
     3
 72
    16
 73
    12
 74
     0
 42
0.000000001
 43
0.0000000001
 40
0.0
 40
0.0
 40
0.0
 40
0.0
 40
0.1771404143545236
 40
0.1771404143545236
 40
0.3522186943510297
 40
0.3522186943510297
 40
0.539954319336339
 40
0.539954319336339
 40
0.7594025013289695
 40
0.7594025013289695
 40
1.0
 40
1.0
 40
1.0
 40
1.0
 10
926.538790071911
 20
314.0563251821067
 30
-0.0000000000000004
 10
926.7351418816584
 20
314.0563251821067
 30
-0.0000000000000004
 10
926.9341104616509
 20
314.0753941766659
 30
-0.0000000000000004
 10
927.3021895739697
 20
314.1448300716173
 30
-0.0000000000000004
 10
927.476296281155
 20
314.195430536535
 30
-0.0000000000000004
 10
927.7974137181923
 20
314.3201196105355
 30
-0.0000000000000002
 10
927.9455319804295
 20
314.3969135031283
 30
-0.0000000000000002
 10
928.2134464203595
 20
314.5733818019895
 30
-0.0000000000000002
 10
928.3279683813493
 20
314.6769297196431
 30
-0.0000000000000002
 10
928.4930779930769
 20
314.8916484567733
 30
-0.0000000000000002
 10
928.5387900719111
 20
315.0056175217312
 30
-0.0000000000000002
 10
928.5387900719111
 20
315.1112907536942
 30
-0.0000000000000002
  0
SPLINE
  5
9D3
330
1F
100
AcDbEntity
  8
HEWI
100
AcDbSpline
210
-0.0000000000000002
220
0.0000000000000003
230
1.0
 70
     8
 71
     3
 72
    16
 73
    12
 74
     0
 42
0.000000001
 43
0.0000000001
 40
0.0
 40
0.0
 40
0.0
 40
0.0
 40
0.012771053008153
 40
0.012771053008153
 40
0.2987140812229396
 40
0.2987140812229396
 40
0.5432081856599547
 40
0.5432081856599547
 40
0.7705827780638374
 40
0.7705827780638374
 40
1.0
 40
1.0
 40
1.0
 40
1.0
 10
928.2293301956128
 20
314.6179392258116
 30
-0.0000000000000002
 10
928.2262862681859
 20
314.6134320352493
 30
-0.0000000000000002
 10
928.2231815799063
 20
314.6089273950409
 30
-0.0000000000000002
 10
928.1489906579704
 20
314.5034128966714
 30
-0.0000000000000002
 10
928.0459626263805
 20
314.401567753374
 30
-0.0000000000000002
 10
927.804941420069
 20
314.227951805441
 30
-0.0000000000000002
 10
927.6717377455829
 20
314.1523861744015
 30
-0.0000000000000002
 10
927.3827799821196
 20
314.0296810611533
 30
-0.0000000000000004
 10
927.22611939631
 20
313.9798336048359
 30
-0.0000000000000004
 10
926.8947991977368
 20
313.9114810801935
 30
-0.0000000000000004
 10
926.715593078527
 20
313.8926668380869
 30
-0.0000000000000004
 10
926.538790071911
 20
313.8926668380869
 30
-0.0000000000000004
  0
SPLINE
  5
9D4
330
1F
100
AcDbEntity
  8
HEWI
100
AcDbSpline
210
0.0
220
0.0
230
1.0
 70
     8
 71
     3
 72
    16
 73
    12
 74
     0
 42
0.000000001
 43
0.0000000001
 40
0.0
 40
0.0
 40
0.0
 40
0.0
 40
0.1053123592843732
 40
0.1053123592843732
 40
0.3301327988397731
 40
0.3301327988397731
 40
0.6504275187068807
 40
0.6504275187068807
 40
0.9722491720568131
 40
0.9722491720568131
 40
1.0
 40
1.0
 40
1.0
 40
1.0
 10
890.5387900719111
 20
313.8926668380869
 30
0.0
 10
890.4560171308734
 20
313.8926668380869
 30
0.0
 10
890.372968298096
 20
313.8966558312374
 30
0.0
 10
890.1188933716369
 20
313.9209526485637
 30
0.0
 10
889.9495853583543
 20
313.955197858121
 30
0.0
 10
889.5782615371031
 20
314.0677937408534
 30
0.0
 10
889.3837471575283
 20
314.1605360094605
 30
0.0
 10
889.0712895774964
 20
314.3648457107545
 30
0.0
 10
888.9476742364973
 20
314.4799024168884
 30
0.0
 10
888.8579630555508
 20
314.6037189632687
 30
0.0
 10
888.8511273621739
 20
314.6135673688065
 30
0.0
 10
888.8445824772974
 20
314.6234263837092
 30
0.0
  0
SPLINE
  5
9D5
330
1F
100
AcDbEntity
  8
HEWI
100
AcDbSpline
210
0.0
220
0.0
230
1.0
 70
     8
 71
     3
 72
    16
 73
    12
 74
     0
 42
0.000000001
 43
0.0000000001
 40
0.0
 40
0.0
 40
0.0
 40
0.0
 40
0.1945552639644179
 40
0.1945552639644179
 40
0.3878946385599321
 40
0.3878946385599321
 40
0.5892372746630514
 40
0.5892372746630514
 40
0.8080348914056751
 40
0.8080348914056751
 40
1.0
 40
1.0
 40
1.0
 40
1.0
 10
890.5387900719109
 20
392.9640204656669
 30
0.0
 10
890.3297728639193
 20
392.9640204656669
 30
0.0
 10
890.1179449214287
 20
392.9495042186014
 30
0.0
 10
889.724678367642
 20
392.8958261799405
 30
0.0
 10
889.5379379834087
 20
392.8562566883654
 30
0.0
 10
889.2020310499686
 20
392.7592825407835
 30
0.0
 10
889.0503635507524
 20
392.7001028693836
 30
0.0
 10
888.7942541032428
 20
392.5692971960805
 30
0.0
 10
888.6914670831504
 20
392.4953515972
 30
0.0
 10
888.568633930296
 20
392.3586903774619
 30
0.0
 10
888.5387900719107
 20
392.2943303420313
 30
0.0
 10
888.5387900719107
 20
392.2336755104613
 30
0.0
  0
SPLINE
  5
9D6
330
1F
100
AcDbEntity
  8
HEWI
100
AcDbSpline
210
0.0
220
0.0
230
1.0
 70
     8
 71
     3
 72
    16
 73
    12
 74
     0
 42
0.000000001
 43
0.0000000001
 40
0.0
 40
0.0
 40
0.0
 40
0.0
 40
0.2481016251448624
 40
0.2481016251448624
 40
0.4963851440995061
 40
0.4963851440995061
 40
0.7438538839225557
 40
0.7438538839225557
 40
0.9181884979193776
 40
0.9181884979193776
 40
1.0
 40
1.0
 40
1.0
 40
1.0
 10
888.5387900719107
 20
315.1112907536942
 30
0.0
 10
888.5387900719107
 20
315.0023027916819
 30
0.0
 10
888.5874735690926
 20
314.8844247574805
 30
0.0
 10
888.7708084699447
 20
314.6530513312524
 30
0.0
 10
888.9082517507235
 20
314.5360482837266
 30
0.0
 10
889.25566624475
 20
314.3283264850568
 30
0.0
 10
889.4720438000261
 20
314.2341133566505
 30
0.0
 10
889.8844092878901
 20
314.1197759790729
 30
0.0
 10
890.0724723847565
 20
314.0850430862837
 30
0.0
 10
890.3545731850648
 20
314.0603754170939
 30
0.0
 10
890.4468303366778
 20
314.0563251821067
 30
0.0
 10
890.5387900719111
 20
314.0563251821067
 30
0.0
  0
SPLINE
  5
9D7
330
1F
100
AcDbEntity
  8
HEWI
100
AcDbSpline
210
0.0
220
0.0
230
1.0
 70
     8
 71
     3
 72
     8
 73
     4
 74
     0
 42
0.000000001
 43
0.0000000001
 40
0.0
 40
0.0
 40
0.0
 40
0.0
 40
1.0
 40
1.0
 40
1.0
 40
1.0
 10
890.2799526858473
 20
393.1359147879691
 30
0.0
 10
890.3657458873679
 20
393.1417441856599
 30
0.0
 10
890.4525355818661
 20
393.144761766204
 30
0.0
 10
890.5387900719109
 20
393.144761766204
 30
0.0
  0
SPLINE
  5
9D8
330
1F
100
AcDbEntity
  8
HEWI
100
AcDbSpline
210
0.0
220
0.0
230
1.0
 70
     8
 71
     3
 72
    10
 73
     6
 74
     0
 42
0.000000001
 43
0.0000000001
 40
0.0
 40
0.0
 40
0.0
 40
0.0
 40
0.5631963510114814
 40
0.5631963510114814
 40
1.0
 40
1.0
 40
1.0
 40
1.0
 10
1038.53879007191
 20
290.8640203366982
 30
0.0
 10
1038.53879007191
 20
290.5177057295648
 30
0.0
 10
1038.516162599004
 20
290.1296150410806
 30
0.0
 10
1038.42310009478
 20
289.4297429272473
 30
0.0
 10
1038.363850443919
 20
289.1140419481877
 30
0.0
 10
1038.2885006092
 20
288.8050264096153
 30
0.0
  0
SPLINE
  5
9D9
330
1F
100
AcDbEntity
  8
HEWI
100
AcDbSpline
210
0.0
220
0.0
230
1.0
 70
     8
 71
     3
 72
    10
 73
     6
 74
     0
 42
0.000000001
 43
0.0000000001
 40
0.0
 40
0.0
 40
0.0
 40
0.0
 40
0.4861134168230314
 40
0.4861134168230314
 40
1.0
 40
1.0
 40
1.0
 40
1.0
 10
1037.316965935232
 20
289.041923807922
 30
0.0
 10
1037.390311498752
 20
289.2477824925361
 30
0.0
 10
1037.447589219726
 20
289.4628073658885
 30
0.0
 10
1037.52249014084
 20
289.8866560092707
 30
0.0
 10
1037.538790071911
 20
290.1003373654082
 30
0.0
 10
1037.538790071911
 20
290.2889302889696
 30
0.0
  0
SPLINE
  5
9DA
330
1F
100
AcDbEntity
  8
HEWI
100
AcDbSpline
210
0.0000000000000013
220
-0.0000000000000017
230
1.0
 70
     8
 71
     3
 72
    12
 73
     8
 74
     0
 42
0.000000001
 43
0.0000000001
 40
0.0
 40
0.0
 40
0.0
 40
0.0
 40
0.4202079642026861
 40
0.4202079642026861
 40
0.8401692150779277
 40
0.8401692150779277
 40
1.0
 40
1.0
 40
1.0
 40
1.0
 10
1037.538790071911
 20
291.1591032947825
 30
0.0000000000000002
 10
1037.649491106193
 20
291.1591032947825
 30
0.0000000000000002
 10
1037.761716252313
 20
291.1783401338314
 30
-0.0000000000000002
 10
1037.970522707274
 20
291.2517972898703
 30
-0.0000000000000002
 10
1038.069972546135
 20
291.3069725224692
 30
-0.0000000000000002
 10
1038.189476812495
 20
291.4021039421922
 30
-0.0000000000000002
 10
1038.220893097667
 20
291.4305835621187
 30
-0.0000000000000002
 10
1038.250458247818
 20
291.4609419931283
 30
-0.0000000000000002
  0
SPLINE
  5
9DB
330
1F
100
AcDbEntity
  8
HEWI
100
AcDbSpline
210
0.0
220
0.0
230
1.0
 70
     8
 71
     3
 72
    10
 73
     6
 74
     0
 42
0.000000001
 43
0.0000000001
 40
0.0
 40
0.0
 40
0.0
 40
0.0
 40
0.5635302216462811
 40
0.5635302216462811
 40
1.0
 40
1.0
 40
1.0
 40
1.0
 10
953.7890795346212
 20
288.8050264096153
 30
0.0
 10
953.6924192997727
 20
289.2014375581009
 30
0.0
 10
953.6225362165172
 20
289.6102965890957
 30
0.0
 10
953.5521776950668
 20
290.2995672825516
 30
0.0
 10
953.5387900719111
 20
290.594100629997
 30
0.0
 10
953.5387900719111
 20
290.864020336702
 30
0.0
  0
SPLINE
  5
9DC
330
1F
100
AcDbEntity
  8
HEWI
100
AcDbSpline
210
0.0
220
0.0
230
1.0
 70
     8
 71
     3
 72
    10
 73
     6
 74
     0
 42
0.000000001
 43
0.0000000001
 40
0.0
 40
0.0
 40
0.0
 40
0.0
 40
0.4830490318618912
 40
0.4830490318618912
 40
1.0
 40
1.0
 40
1.0
 40
1.0
 10
954.5387900719111
 20
290.2889302889696
 30
0.0
 10
954.5387900719111
 20
290.1113116691582
 30
0.0
 10
954.5531222446921
 20
289.9116834704862
 30
0.0
 10
954.6230853320198
 20
289.4895197111316
 30
0.0
 10
954.682765470036
 20
289.2604215349119
 30
0.0
 10
954.760614208561
 20
289.041923807922
 30
0.0
  0
SPLINE
  5
9DD
330
1F
100
AcDbEntity
  8
HEWI
100
AcDbSpline
210
0.0
220
0.0
230
1.0
 70
     8
 71
     3
 72
    12
 73
     8
 74
     0
 42
0.000000001
 43
0.0000000001
 40
0.0
 40
0.0
 40
0.0
 40
0.0
 40
0.3099027414590628
 40
0.3099027414590628
 40
0.7381692089327201
 40
0.7381692089327201
 40
1.0
 40
1.0
 40
1.0
 40
1.0
 10
953.8260001972126
 20
291.4620730123922
 30
0.0
 10
953.8832693924236
 20
291.4032422007574
 30
0.0
 10
953.947929292252
 20
291.3510783572373
 30
0.0
 10
954.113202079378
 20
291.2486376918666
 30
0.0
 10
954.2208312498736
 20
291.2050446557868
 30
0.0
 10
954.3991709171427
 20
291.1665786521833
 30
0.0
 10
954.4691740572785
 20
291.1591032947825
 30
0.0
 10
954.5387900719111
 20
291.1591032947825
 30
0.0
  0
SPLINE
  5
9DE
330
1F
100
AcDbEntity
  8
HEWI
100
AcDbSpline
210
0.0
220
-0.0000000000000002
230
1.0
 70
     8
 71
     3
 72
    14
 73
    10
 74
     0
 42
0.000000001
 43
0.0000000001
 40
0.0
 40
0.0
 40
0.0
 40
0.0
 40
0.2499087050623483
 40
0.2499087050623483
 40
0.4999391367082322
 40
0.4999391367082322
 40
0.7499695683541161
 40
0.7499695683541161
 40
1.0
 40
1.0
 40
1.0
 40
1.0
 10
916.0887582075124
 20
291.1640396120518
 30
-0.0000000000000002
 10
916.094657247279
 20
291.1605166610304
 30
-0.0000000000000002
 10
915.2424233161768
 20
291.7163595091323
 30
-0.0000000000000002
 10
912.5188500733967
 20
293.0034680321174
 30
-0.0000000000000004
 10
910.5829474598035
 20
293.6987930792227
 30
0.0000000000000004
 10
906.5232264746777
 20
293.704619175928
 30
0.0000000000000002
 10
904.5877825557877
 20
293.0157637471044
 30
0.0
 10
901.8355806071523
 20
291.7179780994654
 30
-0.0000000000000002
 10
900.9887766749638
 20
291.164011586078
 30
-0.0000000000000002
 10
900.988787456507
 20
291.1640186257489
 30
-0.0000000000000002
  0
SPLINE
  5
9DF
330
1F
100
AcDbEntity
  8
HEWI
100
AcDbSpline
210
-0.0000000000000002
220
-0.0000000000000002
230
1.0
 70
     8
 71
     3
 72
    16
 73
    12
 74
     0
 42
0.000000001
 43
0.0000000001
 40
0.0
 40
0.0
 40
0.0
 40
0.0
 40
0.2318639328501264
 40
0.2318639328501264
 40
0.4638696371680758
 40
0.4638696371680758
 40
0.6950310216224952
 40
0.6950310216224952
 40
0.9111144293793211
 40
0.9111144293793211
 40
1.0
 40
1.0
 40
1.0
 40
1.0
 10
928.5387900719108
 20
392.2336755104613
 30
-0.0000000000000002
 10
928.5387900719108
 20
392.3066972727891
 30
-0.0000000000000002
 10
928.4952089452747
 20
392.3853266924295
 30
-0.0000000000000002
 10
928.3294085674027
 20
392.5392273188362
 30
-0.0000000000000002
 10
928.2047399156184
 20
392.616692194925
 30
-0.0000000000000002
 10
927.8913151628843
 20
392.7547918048864
 30
-0.0000000000000002
 10
927.69775601244
 20
392.8174794696886
 30
-0.0000000000000002
 10
927.2825572859769
 20
392.9089578562623
 30
-0.0000000000000004
 10
927.0571504662841
 20
392.9408302539366
 30
-0.0000000000000004
 10
926.7325892322446
 20
392.9610009100457
 30
-0.0000000000000004
 10
926.6355416184854
 20
392.9640204656669
 30
-0.0000000000000004
 10
926.5387900719108
 20
392.9640204656669
 30
-0.0000000000000004
  0
SPLINE
  5
9E0
330
1F
100
AcDbEntity
  8
HEWI
100
AcDbSpline
210
0.0
220
0.0
230
1.0
 70
     8
 71
     3
 72
    26
 73
    22
 74
     0
 42
0.000000001
 43
0.0000000001
 40
0.0
 40
0.0
 40
0.0
 40
0.0
 40
0.0625
 40
0.0625
 40
0.1249999999999999
 40
0.1249999999999999
 40
0.25
 40
0.25
 40
0.3750000000000001
 40
0.3750000000000001
 40
0.5000000000000001
 40
0.5000000000000001
 40
0.6250000000000001
 40
0.6250000000000001
 40
0.7500000000000002
 40
0.7500000000000002
 40
0.8750000000000001
 40
0.8750000000000001
 40
0.9375
 40
0.9375
 40
1.0
 40
1.0
 40
1.0
 40
1.0
 10
953.7890795346212
 20
288.8050264096153
 30
0.0
 10
954.272073316741
 20
286.8242313059661
 30
0.0
 10
955.3919825025991
 20
285.0851628294248
 30
0.0
 10
958.1510577027842
 20
282.1060671680449
 30
0.0
 10
959.7435775654197
 20
280.8922961008201
 30
0.0
 10
964.8592348173592
 20
277.6887633902139
 30
0.0
 10
968.5999347902875
 20
276.2091089322337
 30
0.0
 10
976.2601031783599
 20
273.9213159610359
 30
0.0
 10
980.213894607125
 20
273.135245361739
 30
0.0
 10
988.0872494865657
 20
272.1097244077051
 30
0.0
 10
992.0420582529663
 20
271.8650869677066
 30
0.0
 10
999.9846183015366
 20
271.8629605198572
 30
0.0
 10
1003.996722507032
 20
272.1091291643486
 30
0.0
 10
1011.918163120867
 20
273.1437799887706
 30
0.0
 10
1015.825802573036
 20
273.9229898719485
 30
0.0
 10
1023.492519883181
 20
276.2143664582825
 30
0.0
 10
1027.278460076403
 20
277.7197523380553
 30
0.0
 10
1032.359040222076
 20
280.91135766611
 30
0.0
 10
1033.942608484537
 20
282.1206902325638
 30
0.0
 10
1036.69081286286
 20
285.0935610321128
 30
0.0
 10
1037.806784075252
 20
286.8294694001769
 30
0.0
 10
1038.2885006092
 20
288.8050264096153
 30
0.0
  0
SPLINE
  5
9E1
330
1F
100
AcDbEntity
  8
HEWI
100
AcDbSpline
210
0.0
220
0.0
230
1.0
 70
     8
 71
     3
 72
    24
 73
    20
 74
     0
 42
0.000000001
 43
0.0000000001
 40
0.0
 40
0.0
 40
0.0
 40
0.0
 40
0.0625000000000001
 40
0.0625000000000001
 40
0.1250000000000001
 40
0.1250000000000001
 40
0.2500000000000001
 40
0.2500000000000001
 40
0.3749999999999999
 40
0.3749999999999999
 40
0.5
 40
0.5
 40
0.75
 40
0.75
 40
0.8749999999999998
 40
0.8749999999999998
 40
0.9375
 40
0.9375
 40
1.0
 40
1.0
 40
1.0
 40
1.0
 10
954.760614208561
 20
289.041923807922
 30
0.0
 10
955.2316602052638
 20
287.1101275024401
 30
0.0
 10
956.3745762046933
 20
285.4432521263212
 30
0.0
 10
959.0837230224028
 20
282.6330196277766
 30
0.0
 10
960.6852716654287
 20
281.4532172469325
 30
0.0
 10
965.6756532360489
 20
278.4270225121752
 30
0.0
 10
969.3661856552393
 20
276.9998134955774
 30
0.0
 10
976.8071734965237
 20
274.8282013331834
 30
0.0
 10
980.6038011657696
 20
274.0849467137839
 30
0.0
 10
988.3080304573564
 20
273.0977467897309
 30
0.0
 10
992.2122235465835
 20
272.8626974373826
 30
0.0
 10
1003.789071732263
 20
272.8666828574086
 30
0.0
 10
1011.461049126902
 20
273.7188409816068
 30
0.0
 10
1022.72973789796
 20
277.0039810032821
 30
0.0
 10
1026.415270833943
 20
278.4332844177794
 30
0.0
 10
1031.401533734435
 20
281.4597308362635
 30
0.0
 10
1032.995094248796
 20
282.6333252665014
 30
0.0
 10
1035.709780227571
 20
285.4512617952339
 30
0.0000000000000002
 10
1036.847025419153
 20
287.1146611645006
 30
0.0
 10
1037.316965935232
 20
289.041923807922
 30
0.0
  0
ENDSEC
  0
SECTION
  2
OBJECTS
  0
DICTIONARY
  5
C
330
0
100
AcDbDictionary
281
     1
  3
ACAD_CIP_PREVIOUS_PRODUCT_INFO
350
1CC
  3
ACAD_COLOR
350
1AC
  3
ACAD_DETAILVIEWSTYLE
350
1C6
  3
ACAD_GROUP
350
D
  3
ACAD_LAYOUT
350
1A
  3
ACAD_MATERIAL
350
17A
  3
ACAD_MLEADERSTYLE
350
1C1
  3
ACAD_MLINESTYLE
350
17
  3
ACAD_PLOTSETTINGS
350
19
  3
ACAD_PLOTSTYLENAME
350
DF
  3
ACAD_SCALELIST
350
1AF
  3
ACAD_SECTIONVIEWSTYLE
350
1C3
  3
ACAD_TABLESTYLE
350
1AD
  3
ACAD_VISUALSTYLE
350
193
  3
ACDB_RECOMPOSE_DATA
350
A27
  3
AcDbVariableDictionary
350
2CB
  0
DICTIONARY
  5
1E1
330
2
100
AcDbDictionary
280
     1
281
     1
  3
ACAD_LAYERSTATES
360
1E2
  0
DICTIONARY
  5
1CD
330
10
100
AcDbDictionary
280
     1
281
     1
  3
ADSK_XREC_LAYER_RECONCILED
360
1CE
  0
DICTIONARY
  5
D9
330
1F
100
AcDbDictionary
280
     1
281
     1
  3
ACAD_LAYOUTSELFREF
360
177
  3
ACAD_SORTENTS
360
292
  0
DICTIONARY
  5
D7
330
1B
100
AcDbDictionary
280
     1
281
     1
  3
ACAD_LAYOUTSELFREF
360
176
  0
XRECORD
  5
1CC
102
{ACAD_REACTORS
330
C
102
}
330
C
100
AcDbXrecord
280
     1
300
ACDLT
300
2016
300
ACDLT_F_S
  0
DICTIONARY
  5
1AC
102
{ACAD_REACTORS
330
C
102
}
330
C
100
AcDbDictionary
281
     1
  0
DICTIONARY
  5
1C6
102
{ACAD_REACTORS
330
C
102
}
330
C
100
AcDbDictionary
281
     1
  3
Imperial24
350
1C7
  0
DICTIONARY
  5
D
102
{ACAD_REACTORS
330
C
102
}
330
C
100
AcDbDictionary
281
     1
  0
DICTIONARY
  5
1A
102
{ACAD_REACTORS
330
C
102
}
330
C
100
AcDbDictionary
281
     1
  3
Layout1
350
1C9
  3
Model
350
1C8
  0
DICTIONARY
  5
17A
102
{ACAD_REACTORS
330
C
102
}
330
C
100
AcDbDictionary
281
     1
  3
ByBlock
350
183
  3
ByLayer
350
17B
  3
Global
350
18B
  0
DICTIONARY
  5
1C1
102
{ACAD_REACTORS
330
C
102
}
330
C
100
AcDbDictionary
281
     1
  3
Standard
350
1C2
  0
DICTIONARY
  5
17
102
{ACAD_REACTORS
330
C
102
}
330
C
100
AcDbDictionary
281
     1
  3
STANDARD
350
18
  0
DICTIONARY
  5
19
102
{ACAD_REACTORS
330
C
102
}
330
C
100
AcDbDictionary
281
     1
  0
ACDBDICTIONARYWDFLT
  5
DF
102
{ACAD_REACTORS
330
C
102
}
330
C
100
AcDbDictionary
281
     1
  3
Normal
350
E0
100
AcDbDictionaryWithDefault
340
E0
  0
DICTIONARY
  5
1AF
102
{ACAD_REACTORS
330
C
102
}
330
C
100
AcDbDictionary
281
     1
  3
A0
350
1B0
  3
A1
350
1B1
  3
A2
350
1B2
  3
A3
350
1B3
  3
A4
350
1B4
  3
A5
350
1B5
  3
A6
350
1B6
  3
A7
350
1B7
  3
A8
350
1B8
  3
A9
350
1B9
  3
B0
350
1BA
  3
B1
350
1BB
  3
B2
350
1BC
  3
B3
350
1BD
  3
B4
350
1BE
  3
B5
350
1BF
  3
B6
350
1C0
  0
DICTIONARY
  5
1C3
102
{ACAD_REACTORS
330
C
102
}
330
C
100
AcDbDictionary
281
     1
  3
Imperial24
350
1C5
  0
DICTIONARY
  5
1AD
102
{ACAD_REACTORS
330
C
102
}
330
C
100
AcDbDictionary
281
     1
  3
Standard
350
1AE
  0
DICTIONARY
  5
193
102
{ACAD_REACTORS
330
C
102
}
330
C
100
AcDbDictionary
281
     1
  3
2dWireframe
350
199
  3
Basic
350
198
  3
Brighten
350
19F
  3
ColorChange
350
1A3
  3
Conceptual
350
19C
  3
Dim
350
19E
  3
EdgeColorOff
350
1AB
  3
Facepattern
350
1A2
  3
Flat
350
194
  3
FlatWithEdges
350
195
  3
Gouraud
350
196
  3
GouraudWithEdges
350
197
  3
Hidden
350
19B
  3
JitterOff
350
1A9
  3
Linepattern
350
1A1
  3
OverhangOff
350
1AA
  3
Realistic
350
19D
  3
Shaded
350
1A8
  3
Shaded with edges
350
1A7
  3
Shades of Gray
350
1A4
  3
Sketchy
350
1A5
  3
Thicken
350
1A0
  3
Wireframe
350
19A
  3
X-Ray
350
1A6
  0
XRECORD
  5
A27
102
{ACAD_REACTORS
330
C
102
}
330
C
100
AcDbXrecord
280
     1
 90
        1
330
1AE
  0
DICTIONARY
  5
2CB
102
{ACAD_REACTORS
330
C
102
}
330
C
100
AcDbDictionary
281
     1
  3
CANNOSCALE
350
2D1
  3
CMLEADERSTYLE
350
2CD
  3
CTABLESTYLE
350
2CC
  3
CVIEWDETAILSTYLE
350
2CE
  3
CVIEWSECTIONSTYLE
350
2CF
  3
LAYEREVAL
350
2D3
  3
LAYERNOTIFY
350
2D4
  3
LIGHTINGUNITS
350
2D2
  3
MSLTSCALE
350
2D0
  0
DICTIONARY
  5
1E2
102
{ACAD_REACTORS
330
1E1
102
}
330
1E1
100
AcDbDictionary
281
     1
  0
XRECORD
  5
1CE
102
{ACAD_REACTORS
330
1CD
102
}
330
1CD
100
AcDbXrecord
280
     1
290
     1
  0
XRECORD
  5
177
102
{ACAD_REACTORS
330
D9
102
}
330
D9
100
AcDbXrecord
280
     1
340
1F
  0
SORTENTSTABLE
  5
292
102
{ACAD_REACTORS
330
D9
102
}
330
D9
100
AcDbSortentsTable
330
1F
331
6AF
  5
6AF
331
345
  5
345
331
5F9
  5
5B9
331
6EB
  5
6EA
331
6C3
  5
6C3
331
5FA
  5
5FA
331
6C4
  5
6C4
331
5FB
  5
5BD
331
6C5
  5
6C5
331
348
  5
348
331
5FC
  5
5F4
331
6C6
  5
6C6
331
684
  5
684
331
349
  5
349
331
6B0
  5
6B0
331
6C7
  5
6C7
331
34A
  5
34A
331
6B1
  5
6B1
331
6C8
  5
6C8
331
34B
  5
34B
331
576
  5
353
331
6C9
  5
6C9
331
6B2
  5
6B2
331
34C
  5
34C
331
4C8
  5
4D1
331
577
  5
355
331
6B3
  5
6B3
331
34D
  5
34D
331
4C9
  5
4D2
331
578
  5
356
331
6B4
  5
6B4
331
34E
  5
34E
331
4CA
  5
4D3
331
579
  5
357
331
6B5
  5
6B5
331
5B4
  5
5B6
331
34F
  5
34F
331
338
  5
338
331
4CB
  5
4D4
331
6B6
  5
6B6
331
64C
  5
64C
331
339
  5
339
331
4CC
  5
4D5
331
6CE
  5
6CE
331
6B7
  5
6B7
331
64D
  5
64D
331
6CF
  5
6CF
331
4CD
  5
4D6
331
33B
  5
33B
331
4CE
  5
4D7
331
64F
  5
64F
331
4CF
  5
4D8
331
6BA
  5
6BA
331
350
  5
350
331
33D
  5
33D
331
351
  5
351
331
4D0
  5
4D9
331
6BB
  5
6BB
331
6A4
  5
6A4
331
33E
  5
33E
331
4D1
  5
4DA
331
6BC
  5
6BC
331
6A5
  5
6A5
331
5F3
  5
5F6
331
6D0
  5
6D0
331
33F
  5
33F
331
353
  5
358
331
4D2
  5
4DB
331
6BD
  5
6BD
331
6A6
  5
6A6
331
6D1
  5
6D1
331
5F4
  5
5BF
331
6E2
  5
6E2
331
6BE
  5
6BE
331
6A7
  5
6A7
331
5F5
  5
5FC
331
355
  5
359
331
6BF
  5
6BF
331
6A8
  5
6A8
331
5F6
  5
5BB
331
6A9
  5
6A9
331
6E5
  5
6E5
331
581
  5
491
331
5F7
  5
5B3
331
6AA
  5
6AA
331
340
  5
340
331
582
  5
4AF
331
341
  5
341
331
6AB
  5
6AB
331
67C
  5
67C
331
583
  5
4B1
331
342
  5
342
331
6AC
  5
6AC
331
67D
  5
67D
331
6C0
  5
6C0
331
6E8
  5
6EC
331
67E
  5
67F
331
6AD
  5
6AD
331
3EA
  5
48A
331
6C1
  5
6C1
331
344
  5
344
331
67F
  5
67E
331
6AE
  5
6AE
331
3EB
  5
48C
331
5F8
  5
5B0
331
6C2
  5
6C2
  0
XRECORD
  5
176
102
{ACAD_REACTORS
330
D7
102
}
330
D7
100
AcDbXrecord
280
     1
340
1B
  0
ACDBDETAILVIEWSTYLE
  5
1C7
102
{ACAD_XDICTIONARY
360
A5A
102
}
102
{ACAD_REACTORS
330
1C6
102
}
330
1C6
100
AcDbModelDocViewStyle
 70
     0
  3
Imperial24
290
     0
100
AcDbDetailViewStyle
 70
     0
 71
     0
 90
        3
 71
     1
340
11
 62
   256
 40
0.24
340
0
 62
   256
 40
0.24
300

 40
0.36
280
     3
 71
     2
340
16
 90
       25
 62
   256
 71
     3
340
11
 62
   256
 40
0.24
 90
        1
 40
0.75
 90
        1
300
%<\AcVar ViewType \f "%tc1">% %<\AcVar ViewDetailId>%\PVARIA %<\AcVar ViewScale \f "%sn">%
 71
     4
340
16
 90
       25
 62
   256
340
16
 90
       25
 62
   256
280
     0
  0
LAYOUT
  5
1C9
102
{ACAD_REACTORS
330
1A
102
}
330
1A
100
AcDbPlotSettings
  1

  2
\\srvadruck01\MFSA15
  4

  6

 40
0.0
 41
0.0
 42
0.0
 43
0.0
 44
0.0
 45
0.0
 46
0.0
 47
0.0
 48
0.0
 49
0.0
140
0.0
141
0.0
142
1.0
143
1.0
 70
   688
 72
     0
 73
     0
 74
     5
  7

 75
    16
147
1.0
 76
     0
 77
     2
 78
   300
148
0.0
149
0.0
100
AcDbLayout
  1
Layout1
 70
     1
 71
     1
 10
0.0
 20
0.0
 11
12.0
 21
9.0
 12
0.0
 22
0.0
 32
0.0
 14
1.000000000000000E+20
 24
1.000000000000000E+20
 34
1.000000000000000E+20
 15
-1.000000000000000E+20
 25
-1.000000000000000E+20
 35
-1.000000000000000E+20
146
0.0
 13
0.0
 23
0.0
 33
0.0
 16
1.0
 26
0.0
 36
0.0
 17
0.0
 27
1.0
 37
0.0
 76
     0
330
1B
  0
LAYOUT
  5
1C8
102
{ACAD_REACTORS
330
1A
102
}
330
1A
100
AcDbPlotSettings
  1

  2
\\srvadruck01\MFSA15
  4
A4
  6

 40
5.027082920074462
 41
5.027099609375
 42
5.027069091796875
 43
5.027069091796875
 44
209.9733276367186
 45
296.9259948730469
 46
0.0
 47
0.0
 48
0.0
 49
0.0
140
0.0
141
0.0
142
1.0
143
250.9557649309207
 70
 11952
 72
     0
 73
     1
 74
     0
  7

 75
     0
147
0.003984766001591
 76
     0
 77
     2
 78
   300
148
18758.74732672532
149
6385.478578639141
100
AcDbLayout
  1
Model
 70
     1
 71
     0
 10
0.0
 20
0.0
 11
12.0
 21
9.0
 12
0.0
 22
0.0
 32
0.0
 14
0.0
 24
0.0
 34
0.0
 15
0.0
 25
0.0
 35
0.0
146
0.0
 13
0.0
 23
0.0
 33
0.0
 16
1.0
 26
0.0
 36
0.0
 17
0.0
 27
1.0
 37
0.0
 76
     0
330
1F
331
155
1001
ACAD_PSEXT
1000
\\srvadruck01\MFSA15
1000
KONICA MINOLTA C754SeriesPCL
1000
Marketing
1000

1070
     0
  0
MATERIAL
  5
183
102
{ACAD_XDICTIONARY
360
184
102
}
102
{ACAD_REACTORS
330
17A
102
}
330
17A
100
AcDbMaterial
  1
ByBlock
 72
     0
 43
0.0208333333333333
 43
0.0
 43
0.0
 43
0.0
 43
0.0
 43
0.0208333333333333
 43
0.0
 43
0.0
 43
0.0
 43
0.0
 43
1.0
 43
0.0
 43
0.0
 43
0.0
 43
0.0
 43
1.0
 77
     0
 47
0.0208333333333333
 47
0.0
 47
0.0
 47
0.0
 47
0.0
 47
0.0208333333333333
 47
0.0
 47
0.0
 47
0.0
 47
0.0
 47
1.0
 47
0.0
 47
0.0
 47
0.0
 47
0.0
 47
1.0
171
     0
 49
0.0208333333333333
 49
0.0
 49
0.0
 49
0.0
 49
0.0
 49
0.0208333333333333
 49
0.0
 49
0.0
 49
0.0
 49
0.0
 49
1.0
 49
0.0
 49
0.0
 49
0.0
 49
0.0
 49
1.0
175
     0
142
0.0208333333333333
142
0.0
142
0.0
142
0.0
142
0.0
142
0.0208333333333333
142
0.0
142
0.0
142
0.0
142
0.0
142
1.0
142
0.0
142
0.0
142
0.0
142
0.0
142
1.0
179
     0
144
0.0208333333333333
144
0.0
144
0.0
144
0.0
144
0.0
144
0.0208333333333333
144
0.0
144
0.0
144
0.0
144
0.0
144
1.0
144
0.0
144
0.0
144
0.0
144
0.0
144
1.0
147
0.0208333333333333
147
0.0
147
0.0
147
0.0
147
0.0
147
0.0208333333333333
147
0.0
147
0.0
147
0.0
147
0.0
147
1.0
147
0.0
147
0.0
147
0.0
147
0.0
147
1.0
  0
MATERIAL
  5
17B
102
{ACAD_XDICTIONARY
360
17C
102
}
102
{ACAD_REACTORS
330
17A
102
}
330
17A
100
AcDbMaterial
  1
ByLayer
 72
     0
 43
0.0208333333333333
 43
0.0
 43
0.0
 43
0.0
 43
0.0
 43
0.0208333333333333
 43
0.0
 43
0.0
 43
0.0
 43
0.0
 43
1.0
 43
0.0
 43
0.0
 43
0.0
 43
0.0
 43
1.0
 77
     0
 47
0.0208333333333333
 47
0.0
 47
0.0
 47
0.0
 47
0.0
 47
0.0208333333333333
 47
0.0
 47
0.0
 47
0.0
 47
0.0
 47
1.0
 47
0.0
 47
0.0
 47
0.0
 47
0.0
 47
1.0
171
     0
 49
0.0208333333333333
 49
0.0
 49
0.0
 49
0.0
 49
0.0
 49
0.0208333333333333
 49
0.0
 49
0.0
 49
0.0
 49
0.0
 49
1.0
 49
0.0
 49
0.0
 49
0.0
 49
0.0
 49
1.0
175
     0
142
0.0208333333333333
142
0.0
142
0.0
142
0.0
142
0.0
142
0.0208333333333333
142
0.0
142
0.0
142
0.0
142
0.0
142
1.0
142
0.0
142
0.0
142
0.0
142
0.0
142
1.0
179
     0
144
0.0208333333333333
144
0.0
144
0.0
144
0.0
144
0.0
144
0.0208333333333333
144
0.0
144
0.0
144
0.0
144
0.0
144
1.0
144
0.0
144
0.0
144
0.0
144
0.0
144
1.0
147
0.0208333333333333
147
0.0
147
0.0
147
0.0
147
0.0
147
0.0208333333333333
147
0.0
147
0.0
147
0.0
147
0.0
147
1.0
147
0.0
147
0.0
147
0.0
147
0.0
147
1.0
  0
MATERIAL
  5
18B
102
{ACAD_XDICTIONARY
360
18C
102
}
102
{ACAD_REACTORS
330
17A
102
}
330
17A
100
AcDbMaterial
  1
Global
 72
     0
 43
0.0208333333333333
 43
0.0
 43
0.0
 43
0.0
 43
0.0
 43
0.0208333333333333
 43
0.0
 43
0.0
 43
0.0
 43
0.0
 43
1.0
 43
0.0
 43
0.0
 43
0.0
 43
0.0
 43
1.0
 77
     0
 47
0.0208333333333333
 47
0.0
 47
0.0
 47
0.0
 47
0.0
 47
0.0208333333333333
 47
0.0
 47
0.0
 47
0.0
 47
0.0
 47
1.0
 47
0.0
 47
0.0
 47
0.0
 47
0.0
 47
1.0
171
     0
 49
0.0208333333333333
 49
0.0
 49
0.0
 49
0.0
 49
0.0
 49
0.0208333333333333
 49
0.0
 49
0.0
 49
0.0
 49
0.0
 49
1.0
 49
0.0
 49
0.0
 49
0.0
 49
0.0
 49
1.0
175
     0
142
0.0208333333333333
142
0.0
142
0.0
142
0.0
142
0.0
142
0.0208333333333333
142
0.0
142
0.0
142
0.0
142
0.0
142
1.0
142
0.0
142
0.0
142
0.0
142
0.0
142
1.0
179
     0
144
0.0208333333333333
144
0.0
144
0.0
144
0.0
144
0.0
144
0.0208333333333333
144
0.0
144
0.0
144
0.0
144
0.0
144
1.0
144
0.0
144
0.0
144
0.0
144
0.0
144
1.0
147
0.0208333333333333
147
0.0
147
0.0
147
0.0
147
0.0
147
0.0208333333333333
147
0.0
147
0.0
147
0.0
147
0.0
147
1.0
147
0.0
147
0.0
147
0.0
147
0.0
147
1.0
  0
MLEADERSTYLE
  5
1C2
102
{ACAD_REACTORS
330
1C1
102
}
330
1C1
100
AcDbMLeaderStyle
179
     2
170
     2
171
     1
172
     0
 90
        2
 40
0.0
 41
0.0
173
     1
 91
-1056964608
340
14
 92
       -2
290
     1
 42
0.09
291
     1
 43
0.36
  3
Standard
 44
0.18
300

342
11
174
     1
178
     6
175
     1
176
     0
 93
-1056964608
 45
0.18
292
     0
297
     0
 46
0.18
 94
-1056964608
 47
1.0
 49
1.0
140
1.0
293
     1
141
0.0
294
     1
177
     0
142
1.0
295
     0
296
     0
143
0.125
271
     0
272
     9
273
     9
  0
MLINESTYLE
  5
18
102
{ACAD_REACTORS
330
17
102
}
330
17
100
AcDbMlineStyle
  2
STANDARD
 70
     0
  3

 62
   256
 51
90.0
 52
90.0
 71
     2
 49
0.5
 62
   256
  6
BYLAYER
 49
-0.5
 62
   256
  6
BYLAYER
  0
ACDBPLACEHOLDER
  5
E0
102
{ACAD_REACTORS
330
DF
102
}
330
DF
  0
SCALE
  5
1B0
102
{ACAD_REACTORS
330
1AF
102
}
330
1AF
100
AcDbScale
 70
     0
300
1:1
140
1.0
141
1.0
290
     1
  0
SCALE
  5
1B1
102
{ACAD_REACTORS
330
1AF
102
}
330
1AF
100
AcDbScale
 70
     0
300
1/128" = 1'-0"
140
0.0078125
141
12.0
290
     0
  0
SCALE
  5
1B2
102
{ACAD_REACTORS
330
1AF
102
}
330
1AF
100
AcDbScale
 70
     0
300
1/64" = 1'-0"
140
0.015625
141
12.0
290
     0
  0
SCALE
  5
1B3
102
{ACAD_REACTORS
330
1AF
102
}
330
1AF
100
AcDbScale
 70
     0
300
1/32" = 1'-0"
140
0.03125
141
12.0
290
     0
  0
SCALE
  5
1B4
102
{ACAD_REACTORS
330
1AF
102
}
330
1AF
100
AcDbScale
 70
     0
300
1/16" = 1'-0"
140
0.0625
141
12.0
290
     0
  0
SCALE
  5
1B5
102
{ACAD_REACTORS
330
1AF
102
}
330
1AF
100
AcDbScale
 70
     0
300
3/32" = 1'-0"
140
0.09375
141
12.0
290
     0
  0
SCALE
  5
1B6
102
{ACAD_REACTORS
330
1AF
102
}
330
1AF
100
AcDbScale
 70
     0
300
1/8" = 1'-0"
140
0.125
141
12.0
290
     0
  0
SCALE
  5
1B7
102
{ACAD_REACTORS
330
1AF
102
}
330
1AF
100
AcDbScale
 70
     0
300
3/16" = 1'-0"
140
0.1875
141
12.0
290
     0
  0
SCALE
  5
1B8
102
{ACAD_REACTORS
330
1AF
102
}
330
1AF
100
AcDbScale
 70
     0
300
1/4" = 1'-0"
140
0.25
141
12.0
290
     0
  0
SCALE
  5
1B9
102
{ACAD_REACTORS
330
1AF
102
}
330
1AF
100
AcDbScale
 70
     0
300
3/8" = 1'-0"
140
0.375
141
12.0
290
     0
  0
SCALE
  5
1BA
102
{ACAD_REACTORS
330
1AF
102
}
330
1AF
100
AcDbScale
 70
     0
300
1/2" = 1'-0"
140
0.5
141
12.0
290
     0
  0
SCALE
  5
1BB
102
{ACAD_REACTORS
330
1AF
102
}
330
1AF
100
AcDbScale
 70
     0
300
3/4" = 1'-0"
140
0.75
141
12.0
290
     0
  0
SCALE
  5
1BC
102
{ACAD_REACTORS
330
1AF
102
}
330
1AF
100
AcDbScale
 70
     0
300
1" = 1'-0"
140
1.0
141
12.0
290
     0
  0
SCALE
  5
1BD
102
{ACAD_REACTORS
330
1AF
102
}
330
1AF
100
AcDbScale
 70
     0
300
1-1/2" = 1'-0"
140
1.5
141
12.0
290
     0
  0
SCALE
  5
1BE
102
{ACAD_REACTORS
330
1AF
102
}
330
1AF
100
AcDbScale
 70
     0
300
3" = 1'-0"
140
3.0
141
12.0
290
     0
  0
SCALE
  5
1BF
102
{ACAD_REACTORS
330
1AF
102
}
330
1AF
100
AcDbScale
 70
     0
300
6" = 1'-0"
140
6.0
141
12.0
290
     0
  0
SCALE
  5
1C0
102
{ACAD_REACTORS
330
1AF
102
}
330
1AF
100
AcDbScale
 70
     0
300
1'-0" = 1'-0"
140
12.0
141
12.0
290
     0
  0
ACDBSECTIONVIEWSTYLE
  5
1C5
102
{ACAD_XDICTIONARY
360
A58
102
}
102
{ACAD_REACTORS
330
1C3
102
}
330
1C3
100
AcDbModelDocViewStyle
 70
     0
  3
Imperial24
290
     0
100
AcDbSectionViewStyle
 70
     0
 71
     0
 90
       78
 71
     1
340
11
 62
   256
 40
0.24
340
0
340
0
 62
   256
 40
0.24
300
I, O, Q, S, X, Z
 40
0.48
 90
        3
 40
0.18
 90
        1
 71
     2
340
1C4
 90
       25
 62
   256
340
16
 90
       50
 62
   256
 40
0.24
 40
0.0
 40
0.24
 71
     3
340
11
 62
   256
 40
0.24
 90
        1
 40
0.75
 90
        1
300
%<\AcVar ViewType \f "%tc1">% %<\AcVar ViewSectionStartId>%-%<\AcVar ViewSectionEndId>%\PVARIA %<\AcVar ViewScale \f "%sn">%
 71
     4
 62
   256
 62
   257
300
ANSI31
 40
1.0
 90
        0
290
     0
290
     0
 90
        6
 40
0.0
 40
1.570796326794896
 40
0.2617993877991494
 40
1.308996938995747
 40
-0.2617993877991494
 40
1.832595714594044
  0
TABLESTYLE
  5
1AE
102
{ACAD_XDICTIONARY
360
35F
102
}
102
{ACAD_REACTORS
330
1AD
102
}
330
1AD
100
AcDbTableStyle
280
     0
  3
Standard
 70
     0
 71
     0
 40
0.06
 41
0.06
280
     0
281
     0
  7
STANDARD
140
0.18
170
     2
 62
     0
 63
     7
283
     0
 90
      512
 91
        0
  1

274
    -2
284
     1
 64
     0
275
    -2
285
     1
 65
     0
276
    -2
286
     1
 66
     0
277
    -2
287
     1
 67
     0
278
    -2
288
     1
 68
     0
279
    -2
289
     1
 69
     0
  7
STANDARD
140
0.25
170
     5
 62
     0
 63
     7
283
     0
 90
      512
 91
        0
  1

274
    -2
284
     1
 64
     0
275
    -2
285
     1
 65
     0
276
    -2
286
     1
 66
     0
277
    -2
287
     1
 67
     0
278
    -2
288
     1
 68
     0
279
    -2
289
     1
 69
     0
  7
STANDARD
140
0.18
170
     5
 62
     0
 63
     7
283
     0
 90
      512
 91
        0
  1

274
    -2
284
     1
 64
     0
275
    -2
285
     1
 65
     0
276
    -2
286
     1
 66
     0
277
    -2
287
     1
 67
     0
278
    -2
288
     1
 68
     0
279
    -2
289
     1
 69
     0
  0
VISUALSTYLE
  5
199
102
{ACAD_XDICTIONARY
360
A32
102
}
102
{ACAD_REACTORS
330
193
102
}
330
193
100
AcDbVisualStyle
  2
2dWireframe
 70
     4
177
     2
291
     0
 71
     0
176
     1
 72
     2
176
     1
 73
     0
176
     1
 90
        0
176
     1
 40
0.6
176
     1
 41
30.0
176
     1
 63
     7
421
 16777215
176
     1
 74
     1
176
     1
 91
        4
176
     1
 64
     7
176
     1
 65
   257
176
     1
 75
     1
176
     1
175
     1
176
     1
 42
1.0
176
     1
 92
        0
176
     1
 66
   257
176
     1
 43
1.0
176
     1
 76
     1
176
     1
 77
     6
176
     1
 78
     2
176
     1
 67
     7
176
     1
 79
     5
176
     1
170
     0
176
     1
171
     0
176
     1
290
     0
176
     1
 93
        1
176
     1
 44
0.0
176
     1
173
     0
176
     1
1001
ACAD
1000
AcDbSavedByObjectVersion
1070
     0
  0
VISUALSTYLE
  5
198
102
{ACAD_XDICTIONARY
360
A30
102
}
102
{ACAD_REACTORS
330
193
102
}
330
193
100
AcDbVisualStyle
  2
Basic
 70
     7
177
     2
291
     1
 71
     1
176
     1
 72
     0
176
     1
 73
     1
176
     1
 90
        0
176
     1
 40
0.6
176
     1
 41
30.0
176
     1
 63
     7
421
 16777215
176
     1
 74
     0
176
     1
 91
        4
176
     1
 64
     7
176
     1
 65
   257
176
     1
 75
     1
176
     1
175
     1
176
     1
 42
1.0
176
     1
 92
        8
176
     1
 66
     7
176
     1
 43
1.0
176
     1
 76
     1
176
     1
 77
     6
176
     1
 78
     2
176
     1
 67
     7
176
     1
 79
     5
176
     1
170
     0
176
     1
171
     0
176
     1
290
     0
176
     1
 93
        1
176
     1
 44
0.0
176
     1
173
     0
176
     1
1001
ACAD
1000
AcDbSavedByObjectVersion
1070
     0
  0
VISUALSTYLE
  5
19F
102
{ACAD_XDICTIONARY
360
A3E
102
}
102
{ACAD_REACTORS
330
193
102
}
330
193
100
AcDbVisualStyle
  2
Brighten
 70
    12
177
     2
291
     1
 71
     2
176
     1
 72
     2
176
     1
 73
     0
176
     1
 90
        0
176
     1
 40
0.6
176
     1
 41
30.0
176
     1
 63
     7
421
 16777215
176
     1
 74
     1
176
     1
 91
        4
176
     1
 64
     7
176
     1
 65
   257
176
     1
 75
     1
176
     1
175
     1
176
     1
 42
1.0
176
     1
 92
        8
176
     1
 66
     7
176
     1
 43
1.0
176
     1
 76
     1
176
     1
 77
     6
176
     1
 78
     2
176
     1
 67
     7
176
     1
 79
     5
176
     1
170
     0
176
     1
171
     0
176
     1
290
     0
176
     1
 93
        1
176
     1
 44
50.0
176
     1
173
     0
176
     1
1001
ACAD
1000
AcDbSavedByObjectVersion
1070
     0
  0
VISUALSTYLE
  5
1A3
102
{ACAD_XDICTIONARY
360
A46
102
}
102
{ACAD_REACTORS
330
193
102
}
330
193
100
AcDbVisualStyle
  2
ColorChange
 70
    16
177
     2
291
     1
 71
     2
176
     1
 72
     2
176
     1
 73
     3
176
     1
 90
        0
176
     1
 40
0.6
176
     1
 41
30.0
176
     1
 63
     8
421
  8421504
176
     1
 74
     1
176
     1
 91
        4
176
     1
 64
     7
176
     1
 65
   257
176
     1
 75
     1
176
     1
175
     1
176
     1
 42
1.0
176
     1
 92
        8
176
     1
 66
     8
424
  8421504
176
     1
 43
1.0
176
     1
 76
     1
176
     1
 77
     6
176
     1
 78
     2
176
     1
 67
     7
176
     1
 79
     5
176
     1
170
     0
176
     1
171
     0
176
     1
290
     0
176
     1
 93
        1
176
     1
 44
0.0
176
     1
173
     0
176
     1
1001
ACAD
1000
AcDbSavedByObjectVersion
1070
     0
  0
VISUALSTYLE
  5
19C
102
{ACAD_XDICTIONARY
360
A38
102
}
102
{ACAD_REACTORS
330
193
102
}
330
193
100
AcDbVisualStyle
  2
Conceptual
 70
     9
177
     2
291
     0
 71
     3
176
     1
 72
     2
176
     1
 73
     0
176
     1
 90
        0
176
     1
 40
0.6
176
     1
 41
30.0
176
     1
 63
     7
421
 16777215
176
     1
 74
     2
176
     1
 91
        2
176
     1
 64
     7
176
     1
 65
   257
176
     1
 75
     1
176
     1
175
     1
176
     1
 42
179.0
176
     1
 92
        8
176
     1
 66
     7
176
     1
 43
1.0
176
     1
 76
     1
176
     1
 77
     6
176
     1
 78
     2
176
     1
 67
     7
176
     1
 79
     3
176
     1
170
     0
176
     1
171
     0
176
     1
290
     0
176
     1
 93
        1
176
     1
 44
0.0
176
     1
173
     0
176
     1
1001
ACAD
1000
AcDbSavedByObjectVersion
1070
     0
  0
VISUALSTYLE
  5
19E
102
{ACAD_XDICTIONARY
360
A3C
102
}
102
{ACAD_REACTORS
330
193
102
}
330
193
100
AcDbVisualStyle
  2
Dim
 70
    11
177
     2
291
     1
 71
     2
176
     1
 72
     2
176
     1
 73
     0
176
     1
 90
        0
176
     1
 40
0.6
176
     1
 41
30.0
176
     1
 63
     7
421
 16777215
176
     1
 74
     1
176
     1
 91
        4
176
     1
 64
     7
176
     1
 65
   257
176
     1
 75
     1
176
     1
175
     1
176
     1
 42
1.0
176
     1
 92
        8
176
     1
 66
     7
176
     1
 43
1.0
176
     1
 76
     1
176
     1
 77
     6
176
     1
 78
     2
176
     1
 67
     7
176
     1
 79
     5
176
     1
170
     0
176
     1
171
     0
176
     1
290
     0
176
     1
 93
        1
176
     1
 44
-50.0
176
     1
173
     0
176
     1
1001
ACAD
1000
AcDbSavedByObjectVersion
1070
     0
  0
VISUALSTYLE
  5
1AB
102
{ACAD_XDICTIONARY
360
A56
102
}
102
{ACAD_REACTORS
330
193
102
}
330
193
100
AcDbVisualStyle
  2
EdgeColorOff
 70
    22
177
     2
291
     1
 71
     2
176
     0
 72
     2
176
     0
 73
     0
176
     0
 90
        0
176
     0
 40
0.6
176
     0
 41
30.0
176
     0
 63
     7
421
 16777215
176
     0
 74
     1
176
     0
 91
        4
176
     0
 64
     7
176
     0
 65
   257
176
     0
 75
     1
176
     0
175
     1
176
     0
 42
1.0
176
     0
 92
        8
176
     2
 66
     7
176
     0
 43
1.0
176
     0
 76
     1
176
     0
 77
     6
176
     0
 78
     2
176
     0
 67
     7
176
     0
 79
     5
176
     0
170
     0
176
     0
171
     0
176
     0
290
     0
176
     0
 93
        1
176
     0
 44
0.0
176
     0
173
     0
176
     0
1001
ACAD
1000
AcDbSavedByObjectVersion
1070
     0
  0
VISUALSTYLE
  5
1A2
102
{ACAD_XDICTIONARY
360
A44
102
}
102
{ACAD_REACTORS
330
193
102
}
330
193
100
AcDbVisualStyle
  2
Facepattern
 70
    15
177
     2
291
     1
 71
     2
176
     1
 72
     2
176
     1
 73
     0
176
     1
 90
        0
176
     1
 40
0.6
176
     1
 41
30.0
176
     1
 63
     7
421
 16777215
176
     1
 74
     1
176
     1
 91
        4
176
     1
 64
     7
176
     1
 65
   257
176
     1
 75
     1
176
     1
175
     1
176
     1
 42
1.0
176
     1
 92
        8
176
     1
 66
     7
176
     1
 43
1.0
176
     1
 76
     1
176
     1
 77
     6
176
     1
 78
     2
176
     1
 67
     7
176
     1
 79
     5
176
     1
170
     0
176
     1
171
     0
176
     1
290
     0
176
     1
 93
        1
176
     1
 44
0.0
176
     1
173
     0
176
     1
1001
ACAD
1000
AcDbSavedByObjectVersion
1070
     0
  0
VISUALSTYLE
  5
194
102
{ACAD_XDICTIONARY
360
A28
102
}
102
{ACAD_REACTORS
330
193
102
}
330
193
100
AcDbVisualStyle
  2
Flat
 70
     0
177
     2
291
     1
 71
     2
176
     1
 72
     1
176
     1
 73
     1
176
     1
 90
        2
176
     1
 40
0.6
176
     1
 41
30.0
176
     1
 63
     7
421
 16777215
176
     1
 74
     0
176
     1
 91
        0
176
     1
 64
     7
176
     1
 65
   257
176
     1
 75
     1
176
     1
175
     1
176
     1
 42
1.0
176
     1
 92
        8
176
     1
 66
     7
176
     1
 43
1.0
176
     1
 76
     1
176
     1
 77
     6
176
     1
 78
     2
176
     1
 67
     7
176
     1
 79
     5
176
     1
170
     0
176
     1
171
     0
176
     1
290
     0
176
     1
 93
       13
176
     1
 44
0.0
176
     1
173
     0
176
     1
1001
ACAD
1000
AcDbSavedByObjectVersion
1070
     0
  0
VISUALSTYLE
  5
195
102
{ACAD_XDICTIONARY
360
A2A
102
}
102
{ACAD_REACTORS
330
193
102
}
330
193
100
AcDbVisualStyle
  2
FlatWithEdges
 70
     1
177
     2
291
     1
 71
     2
176
     1
 72
     1
176
     1
 73
     1
176
     1
 90
        2
176
     1
 40
0.6
176
     1
 41
30.0
176
     1
 63
     7
421
 16777215
176
     1
 74
     1
176
     1
 91
        0
176
     1
 64
     7
176
     1
 65
   257
176
     1
 75
     1
176
     1
175
     1
176
     1
 42
1.0
176
     1
 92
        0
176
     1
 66
   257
176
     1
 43
1.0
176
     1
 76
     1
176
     1
 77
     6
176
     1
 78
     2
176
     1
 67
     7
176
     1
 79
     5
176
     1
170
     0
176
     1
171
     0
176
     1
290
     0
176
     1
 93
       13
176
     1
 44
0.0
176
     1
173
     0
176
     1
1001
ACAD
1000
AcDbSavedByObjectVersion
1070
     0
  0
VISUALSTYLE
  5
196
102
{ACAD_XDICTIONARY
360
A2C
102
}
102
{ACAD_REACTORS
330
193
102
}
330
193
100
AcDbVisualStyle
  2
Gouraud
 70
     2
177
     2
291
     1
 71
     2
176
     1
 72
     2
176
     1
 73
     1
176
     1
 90
        2
176
     1
 40
0.6
176
     1
 41
30.0
176
     1
 63
     7
421
 16777215
176
     1
 74
     0
176
     1
 91
        0
176
     1
 64
     7
176
     1
 65
   257
176
     1
 75
     1
176
     1
175
     1
176
     1
 42
1.0
176
     1
 92
        0
176
     1
 66
     7
176
     1
 43
1.0
176
     1
 76
     1
176
     1
 77
     6
176
     1
 78
     2
176
     1
 67
     7
176
     1
 79
     5
176
     1
170
     0
176
     1
171
     0
176
     1
290
     0
176
     1
 93
       13
176
     1
 44
0.0
176
     1
173
     0
176
     1
1001
ACAD
1000
AcDbSavedByObjectVersion
1070
     0
  0
VISUALSTYLE
  5
197
102
{ACAD_XDICTIONARY
360
A2E
102
}
102
{ACAD_REACTORS
330
193
102
}
330
193
100
AcDbVisualStyle
  2
GouraudWithEdges
 70
     3
177
     2
291
     1
 71
     2
176
     1
 72
     2
176
     1
 73
     1
176
     1
 90
        2
176
     1
 40
0.6
176
     1
 41
30.0
176
     1
 63
     7
421
 16777215
176
     1
 74
     1
176
     1
 91
        0
176
     1
 64
     7
176
     1
 65
   257
176
     1
 75
     1
176
     1
175
     1
176
     1
 42
1.0
176
     1
 92
        0
176
     1
 66
   257
176
     1
 43
1.0
176
     1
 76
     1
176
     1
 77
     6
176
     1
 78
     2
176
     1
 67
     7
176
     1
 79
     5
176
     1
170
     0
176
     1
171
     0
176
     1
290
     0
176
     1
 93
       13
176
     1
 44
0.0
176
     1
173
     0
176
     1
1001
ACAD
1000
AcDbSavedByObjectVersion
1070
     0
  0
VISUALSTYLE
  5
19B
102
{ACAD_XDICTIONARY
360
A36
102
}
102
{ACAD_REACTORS
330
193
102
}
330
193
100
AcDbVisualStyle
  2
Hidden
 70
     6
177
     2
291
     0
 71
     1
176
     1
 72
     2
176
     1
 73
     2
176
     1
 90
        0
176
     1
 40
0.6
176
     1
 41
30.0
176
     1
 63
     7
421
 16777215
176
     1
 74
     2
176
     1
 91
        2
176
     1
 64
     7
176
     1
 65
   257
176
     1
 75
     2
176
     1
175
     1
176
     1
 42
40.0
176
     1
 92
        0
176
     1
 66
   257
176
     1
 43
1.0
176
     1
 76
     1
176
     1
 77
     6
176
     1
 78
     2
176
     1
 67
     7
176
     1
 79
     3
176
     1
170
     0
176
     1
171
     0
176
     1
290
     0
176
     1
 93
        1
176
     1
 44
0.0
176
     1
173
     0
176
     1
1001
ACAD
1000
AcDbSavedByObjectVersion
1070
     0
  0
VISUALSTYLE
  5
1A9
102
{ACAD_XDICTIONARY
360
A52
102
}
102
{ACAD_REACTORS
330
193
102
}
330
193
100
AcDbVisualStyle
  2
JitterOff
 70
    20
177
     2
291
     1
 71
     2
176
     0
 72
     2
176
     0
 73
     0
176
     0
 90
        0
176
     0
 40
0.6
176
     0
 41
30.0
176
     0
 63
     7
421
 16777215
176
     0
 74
     1
176
     0
 91
        4
176
     0
 64
     7
176
     0
 65
   257
176
     0
 75
     1
176
     0
175
     1
176
     0
 42
1.0
176
     0
 92
       10
176
     2
 66
     7
176
     0
 43
1.0
176
     0
 76
     1
176
     0
 77
     6
176
     0
 78
     2
176
     0
 67
     7
176
     0
 79
     5
176
     0
170
     0
176
     0
171
     0
176
     0
290
     0
176
     0
 93
        1
176
     0
 44
0.0
176
     0
173
     0
176
     0
1001
ACAD
1000
AcDbSavedByObjectVersion
1070
     0
  0
VISUALSTYLE
  5
1A1
102
{ACAD_XDICTIONARY
360
A42
102
}
102
{ACAD_REACTORS
330
193
102
}
330
193
100
AcDbVisualStyle
  2
Linepattern
 70
    14
177
     2
291
     1
 71
     2
176
     1
 72
     2
176
     1
 73
     0
176
     1
 90
        0
176
     1
 40
0.6
176
     1
 41
30.0
176
     1
 63
     7
421
 16777215
176
     1
 74
     1
176
     1
 91
        4
176
     1
 64
     7
176
     1
 65
   257
176
     1
 75
     7
176
     1
175
     7
176
     1
 42
1.0
176
     1
 92
        8
176
     1
 66
     7
176
     1
 43
1.0
176
     1
 76
     1
176
     1
 77
     6
176
     1
 78
     2
176
     1
 67
     7
176
     1
 79
     5
176
     1
170
     0
176
     1
171
     0
176
     1
290
     0
176
     1
 93
        1
176
     1
 44
0.0
176
     1
173
     0
176
     1
1001
ACAD
1000
AcDbSavedByObjectVersion
1070
     0
  0
VISUALSTYLE
  5
1AA
102
{ACAD_XDICTIONARY
360
A54
102
}
102
{ACAD_REACTORS
330
193
102
}
330
193
100
AcDbVisualStyle
  2
OverhangOff
 70
    21
177
     2
291
     1
 71
     2
176
     0
 72
     2
176
     0
 73
     0
176
     0
 90
        0
176
     0
 40
0.6
176
     0
 41
30.0
176
     0
 63
     7
421
 16777215
176
     0
 74
     1
176
     0
 91
        4
176
     0
 64
     7
176
     0
 65
   257
176
     0
 75
     1
176
     0
175
     1
176
     0
 42
1.0
176
     0
 92
        9
176
     2
 66
     7
176
     0
 43
1.0
176
     0
 76
     1
176
     0
 77
     6
176
     0
 78
     2
176
     0
 67
     7
176
     0
 79
     5
176
     0
170
     0
176
     0
171
     0
176
     0
290
     0
176
     0
 93
        1
176
     0
 44
0.0
176
     0
173
     0
176
     0
1001
ACAD
1000
AcDbSavedByObjectVersion
1070
     0
  0
VISUALSTYLE
  5
19D
102
{ACAD_XDICTIONARY
360
A3A
102
}
102
{ACAD_REACTORS
330
193
102
}
330
193
100
AcDbVisualStyle
  2
Realistic
 70
     8
177
     2
291
     0
 71
     2
176
     1
 72
     3
176
     1
 73
     0
176
     1
 90
        2
176
     1
 40
0.6
176
     1
 41
30.0
176
     1
 63
     7
421
 16777215
176
     1
 74
     0
176
     1
 91
        0
176
     1
 64
     7
176
     1
 65
   257
176
     1
 75
     1
176
     1
175
     1
176
     1
 42
1.0
176
     1
 92
        8
176
     1
 66
   257
176
     1
 43
1.0
176
     1
 76
     1
176
     1
 77
     6
176
     1
 78
     2
176
     1
 67
     7
176
     1
 79
     3
176
     1
170
     0
176
     1
171
     0
176
     1
290
     0
176
     1
 93
       13
176
     1
 44
0.0
176
     1
173
     0
176
     1
1001
ACAD
1000
AcDbSavedByObjectVersion
1070
     0
  0
VISUALSTYLE
  5
1A8
102
{ACAD_XDICTIONARY
360
A50
102
}
102
{ACAD_REACTORS
330
193
102
}
330
193
100
AcDbVisualStyle
  2
Shaded
 70
    27
177
     2
291
     0
 71
     2
176
     1
 72
     2
176
     1
 73
     1
176
     1
 90
        2
176
     1
 40
0.6
176
     1
 41
30.0
176
     1
 63
     7
421
 16777215
176
     1
 74
     0
176
     1
 91
        4
176
     1
 64
     7
176
     1
 65
   257
176
     1
 75
     1
176
     1
175
     1
176
     1
 42
1.0
176
     1
 92
        8
176
     1
 66
   257
176
     1
 43
1.0
176
     1
 76
     1
176
     1
 77
     6
176
     1
 78
     2
176
     1
 67
     8
425
  7895160
176
     1
 79
     3
176
     1
170
     0
176
     1
171
     0
176
     1
290
     0
176
     1
 93
        5
176
     1
 44
0.0
176
     1
173
     0
176
     1
1001
ACAD
1000
AcDbSavedByObjectVersion
1070
     0
  0
VISUALSTYLE
  5
1A7
102
{ACAD_XDICTIONARY
360
A4E
102
}
102
{ACAD_REACTORS
330
193
102
}
330
193
100
AcDbVisualStyle
  2
Shaded with edges
 70
    26
177
     2
291
     0
 71
     2
176
     1
 72
     2
176
     1
 73
     1
176
     1
 90
        2
176
     1
 40
0.6
176
     1
 41
30.0
176
     1
 63
     7
421
 16777215
176
     1
 74
     1
176
     1
 91
        2
176
     1
 64
     7
176
     1
 65
   257
176
     1
 75
     2
176
     1
175
     1
176
     1
 42
1.0
176
     1
 92
        8
176
     1
 66
   257
176
     1
 43
1.0
176
     1
 76
     1
176
     1
 77
     6
176
     1
 78
     2
176
     1
 67
     7
176
     1
 79
     3
176
     1
170
     0
176
     1
171
     0
176
     1
290
     0
176
     1
 93
        5
176
     1
 44
0.0
176
     1
173
     0
176
     1
1001
ACAD
1000
AcDbSavedByObjectVersion
1070
     0
  0
VISUALSTYLE
  5
1A4
102
{ACAD_XDICTIONARY
360
A48
102
}
102
{ACAD_REACTORS
330
193
102
}
330
193
100
AcDbVisualStyle
  2
Shades of Gray
 70
    23
177
     2
291
     0
 71
     2
176
     1
 72
     2
176
     1
 73
     3
176
     1
 90
        0
176
     1
 40
0.6
176
     1
 41
30.0
176
     1
 63
     7
421
 16777215
176
     1
 74
     2
176
     1
 91
        2
176
     1
 64
     7
176
     1
 65
     7
176
     1
 75
     1
176
     1
175
     1
176
     1
 42
40.0
176
     1
 92
        8
176
     1
 66
     7
176
     1
 43
1.0
176
     1
 76
     1
176
     1
 77
     6
176
     1
 78
     2
176
     1
 67
     7
176
     1
 79
     3
176
     1
170
     0
176
     1
171
     0
176
     1
290
     0
176
     1
 93
        1
176
     1
 44
0.0
176
     1
173
     0
176
     1
1001
ACAD
1000
AcDbSavedByObjectVersion
1070
     0
  0
VISUALSTYLE
  5
1A5
102
{ACAD_XDICTIONARY
360
A4A
102
}
102
{ACAD_REACTORS
330
193
102
}
330
193
100
AcDbVisualStyle
  2
Sketchy
 70
    24
177
     2
291
     0
 71
     1
176
     1
 72
     2
176
     1
 73
     2
176
     1
 90
        0
176
     1
 40
0.6
176
     1
 41
30.0
176
     1
 63
     7
421
 16777215
176
     1
 74
     2
176
     1
 91
        2
176
     1
 64
     7
176
     1
 65
     7
176
     1
 75
     1
176
     1
175
     1
176
     1
 42
40.0
176
     1
 92
       11
176
     1
 66
     7
176
     1
 43
1.0
176
     1
 76
     1
176
     1
 77
     6
176
     1
 78
     2
176
     1
 67
     7
176
     1
 79
     6
176
     1
170
     0
176
     1
171
     0
176
     1
290
     0
176
     1
 93
        1
176
     1
 44
0.0
176
     1
173
     0
176
     1
1001
ACAD
1000
AcDbSavedByObjectVersion
1070
     0
  0
VISUALSTYLE
  5
1A0
102
{ACAD_XDICTIONARY
360
A40
102
}
102
{ACAD_REACTORS
330
193
102
}
330
193
100
AcDbVisualStyle
  2
Thicken
 70
    13
177
     2
291
     1
 71
     2
176
     1
 72
     2
176
     1
 73
     0
176
     1
 90
        0
176
     1
 40
0.6
176
     1
 41
30.0
176
     1
 63
     7
421
 16777215
176
     1
 74
     1
176
     1
 91
        4
176
     1
 64
     7
176
     1
 65
   257
176
     1
 75
     1
176
     1
175
     1
176
     1
 42
1.0
176
     1
 92
       12
176
     1
 66
     7
176
     1
 43
1.0
176
     1
 76
     1
176
     1
 77
     6
176
     1
 78
     2
176
     1
 67
     7
176
     1
 79
     5
176
     1
170
     0
176
     1
171
     0
176
     1
290
     0
176
     1
 93
        1
176
     1
 44
0.0
176
     1
173
     0
176
     1
1001
ACAD
1000
AcDbSavedByObjectVersion
1070
     0
  0
VISUALSTYLE
  5
19A
102
{ACAD_XDICTIONARY
360
A34
102
}
102
{ACAD_REACTORS
330
193
102
}
330
193
100
AcDbVisualStyle
  2
Wireframe
 70
     5
177
     2
291
     0
 71
     0
176
     1
 72
     2
176
     1
 73
     0
176
     1
 90
        0
176
     1
 40
0.6
176
     1
 41
30.0
176
     1
 63
     7
421
 16777215
176
     1
 74
     1
176
     1
 91
        4
176
     1
 64
     7
176
     1
 65
   257
176
     1
 75
     1
176
     1
175
     1
176
     1
 42
1.0
176
     1
 92
        0
176
     1
 66
   257
176
     1
 43
1.0
176
     1
 76
     1
176
     1
 77
     6
176
     1
 78
     2
176
     1
 67
     7
176
     1
 79
     3
176
     1
170
     0
176
     1
171
     0
176
     1
290
     0
176
     1
 93
        1
176
     1
 44
0.0
176
     1
173
     0
176
     1
1001
ACAD
1000
AcDbSavedByObjectVersion
1070
     0
  0
VISUALSTYLE
  5
1A6
102
{ACAD_XDICTIONARY
360
A4C
102
}
102
{ACAD_REACTORS
330
193
102
}
330
193
100
AcDbVisualStyle
  2
X-Ray
 70
    25
177
     2
291
     0
 71
     2
176
     1
 72
     2
176
     1
 73
     1
176
     1
 90
        1
176
     1
 40
0.5
176
     1
 41
30.0
176
     1
 63
     7
421
 16777215
176
     1
 74
     1
176
     1
 91
        0
176
     1
 64
     7
176
     1
 65
   257
176
     1
 75
     1
176
     1
175
     1
176
     1
 42
1.0
176
     1
 92
        8
176
     1
 66
     7
176
     1
 43
1.0
176
     1
 76
     1
176
     1
 77
     6
176
     1
 78
     2
176
     1
 67
     7
176
     1
 79
     3
176
     1
170
     0
176
     1
171
     0
176
     1
290
     0
176
     1
 93
       13
176
     1
 44
0.0
176
     1
173
     0
176
     1
1001
ACAD
1000
AcDbSavedByObjectVersion
1070
     0
  0
DICTIONARYVAR
  5
2D1
102
{ACAD_REACTORS
330
2CB
102
}
330
2CB
100
DictionaryVariables
280
     0
  1
1:1
  0
DICTIONARYVAR
  5
2CD
102
{ACAD_REACTORS
330
2CB
102
}
330
2CB
100
DictionaryVariables
280
     0
  1
STANDARD
  0
DICTIONARYVAR
  5
2CC
102
{ACAD_REACTORS
330
2CB
102
}
330
2CB
100
DictionaryVariables
280
     0
  1
STANDARD
  0
DICTIONARYVAR
  5
2CE
102
{ACAD_REACTORS
330
2CB
102
}
330
2CB
100
DictionaryVariables
280
     0
  1
Imperial24
  0
DICTIONARYVAR
  5
2CF
102
{ACAD_REACTORS
330
2CB
102
}
330
2CB
100
DictionaryVariables
280
     0
  1
Imperial24
  0
DICTIONARYVAR
  5
2D3
102
{ACAD_REACTORS
330
2CB
102
}
330
2CB
100
DictionaryVariables
280
     0
  1
1
  0
DICTIONARYVAR
  5
2D4
102
{ACAD_REACTORS
330
2CB
102
}
330
2CB
100
DictionaryVariables
280
     0
  1
15
  0
DICTIONARYVAR
  5
2D2
102
{ACAD_REACTORS
330
2CB
102
}
330
2CB
100
DictionaryVariables
280
     0
  1
0
  0
DICTIONARYVAR
  5
2D0
102
{ACAD_REACTORS
330
2CB
102
}
330
2CB
100
DictionaryVariables
280
     0
  1
0
  0
DICTIONARY
  5
A5A
330
1C7
100
AcDbDictionary
280
     1
281
     1
  3
ACAD_XREC_ROUNDTRIP
360
A5B
  0
DICTIONARY
  5
184
330
183
100
AcDbDictionary
280
     1
281
     1
  3
BUMPTILE
360
186
  3
DIFFUSETILE
360
185
  3
OPACITYTILE
360
189
  3
REFLECTIONTILE
360
188
  3
REFRACTIONTILE
360
18A
  3
SPECULARTILE
360
187
  0
DICTIONARY
  5
17C
330
17B
100
AcDbDictionary
280
     1
281
     1
  3
BUMPTILE
360
17E
  3
DIFFUSETILE
360
17D
  3
OPACITYTILE
360
181
  3
REFLECTIONTILE
360
180
  3
REFRACTIONTILE
360
182
  3
SPECULARTILE
360
17F
  0
DICTIONARY
  5
18C
330
18B
100
AcDbDictionary
280
     1
281
     1
  3
BUMPTILE
360
18E
  3
DIFFUSETILE
360
18D
  3
OPACITYTILE
360
191
  3
REFLECTIONTILE
360
190
  3
REFRACTIONTILE
360
192
  3
SPECULARTILE
360
18F
  0
DICTIONARY
  5
A58
330
1C5
100
AcDbDictionary
280
     1
281
     1
  3
ACAD_XREC_ROUNDTRIP
360
A59
  0
DICTIONARY
  5
35F
330
1AE
100
AcDbDictionary
280
     1
281
     1
  3
ACAD_ROUNDTRIP_2008_TABLESTYLE_CELLSTYLEMAP
360
A26
  0
DICTIONARY
  5
A32
330
199
100
AcDbDictionary
280
     1
281
     1
  3
ACAD_XREC_ROUNDTRIP
360
A33
  0
DICTIONARY
  5
A30
330
198
100
AcDbDictionary
280
     1
281
     1
  3
ACAD_XREC_ROUNDTRIP
360
A31
  0
DICTIONARY
  5
A3E
330
19F
100
AcDbDictionary
280
     1
281
     1
  3
ACAD_XREC_ROUNDTRIP
360
A3F
  0
DICTIONARY
  5
A46
330
1A3
100
AcDbDictionary
280
     1
281
     1
  3
ACAD_XREC_ROUNDTRIP
360
A47
  0
DICTIONARY
  5
A38
330
19C
100
AcDbDictionary
280
     1
281
     1
  3
ACAD_XREC_ROUNDTRIP
360
A39
  0
DICTIONARY
  5
A3C
330
19E
100
AcDbDictionary
280
     1
281
     1
  3
ACAD_XREC_ROUNDTRIP
360
A3D
  0
DICTIONARY
  5
A56
330
1AB
100
AcDbDictionary
280
     1
281
     1
  3
ACAD_XREC_ROUNDTRIP
360
A57
  0
DICTIONARY
  5
A44
330
1A2
100
AcDbDictionary
280
     1
281
     1
  3
ACAD_XREC_ROUNDTRIP
360
A45
  0
DICTIONARY
  5
A28
330
194
100
AcDbDictionary
280
     1
281
     1
  3
ACAD_XREC_ROUNDTRIP
360
A29
  0
DICTIONARY
  5
A2A
330
195
100
AcDbDictionary
280
     1
281
     1
  3
ACAD_XREC_ROUNDTRIP
360
A2B
  0
DICTIONARY
  5
A2C
330
196
100
AcDbDictionary
280
     1
281
     1
  3
ACAD_XREC_ROUNDTRIP
360
A2D
  0
DICTIONARY
  5
A2E
330
197
100
AcDbDictionary
280
     1
281
     1
  3
ACAD_XREC_ROUNDTRIP
360
A2F
  0
DICTIONARY
  5
A36
330
19B
100
AcDbDictionary
280
     1
281
     1
  3
ACAD_XREC_ROUNDTRIP
360
A37
  0
DICTIONARY
  5
A52
330
1A9
100
AcDbDictionary
280
     1
281
     1
  3
ACAD_XREC_ROUNDTRIP
360
A53
  0
DICTIONARY
  5
A42
330
1A1
100
AcDbDictionary
280
     1
281
     1
  3
ACAD_XREC_ROUNDTRIP
360
A43
  0
DICTIONARY
  5
A54
330
1AA
100
AcDbDictionary
280
     1
281
     1
  3
ACAD_XREC_ROUNDTRIP
360
A55
  0
DICTIONARY
  5
A3A
330
19D
100
AcDbDictionary
280
     1
281
     1
  3
ACAD_XREC_ROUNDTRIP
360
A3B
  0
DICTIONARY
  5
A50
330
1A8
100
AcDbDictionary
280
     1
281
     1
  3
ACAD_XREC_ROUNDTRIP
360
A51
  0
DICTIONARY
  5
A4E
330
1A7
100
AcDbDictionary
280
     1
281
     1
  3
ACAD_XREC_ROUNDTRIP
360
A4F
  0
DICTIONARY
  5
A48
330
1A4
100
AcDbDictionary
280
     1
281
     1
  3
ACAD_XREC_ROUNDTRIP
360
A49
  0
DICTIONARY
  5
A4A
330
1A5
100
AcDbDictionary
280
     1
281
     1
  3
ACAD_XREC_ROUNDTRIP
360
A4B
  0
DICTIONARY
  5
A40
330
1A0
100
AcDbDictionary
280
     1
281
     1
  3
ACAD_XREC_ROUNDTRIP
360
A41
  0
DICTIONARY
  5
A34
330
19A
100
AcDbDictionary
280
     1
281
     1
  3
ACAD_XREC_ROUNDTRIP
360
A35
  0
DICTIONARY
  5
A4C
330
1A6
100
AcDbDictionary
280
     1
281
     1
  3
ACAD_XREC_ROUNDTRIP
360
A4D
  0
XRECORD
  5
A5B
102
{ACAD_REACTORS
330
A5A
102
}
330
A5A
100
AcDbXrecord
280
     1
102
DISPLAYNAME
  1
Imperial24
102
FLAGS
 90
        0
  0
XRECORD
  5
186
102
{ACAD_REACTORS
330
184
102
}
330
184
100
AcDbXrecord
280
     1
270
     1
271
     1
  0
XRECORD
  5
185
102
{ACAD_REACTORS
330
184
102
}
330
184
100
AcDbXrecord
280
     1
270
     1
271
     1
  0
XRECORD
  5
189
102
{ACAD_REACTORS
330
184
102
}
330
184
100
AcDbXrecord
280
     1
270
     1
271
     1
  0
XRECORD
  5
188
102
{ACAD_REACTORS
330
184
102
}
330
184
100
AcDbXrecord
280
     1
270
     1
271
     1
  0
XRECORD
  5
18A
102
{ACAD_REACTORS
330
184
102
}
330
184
100
AcDbXrecord
280
     1
270
     1
271
     1
  0
XRECORD
  5
187
102
{ACAD_REACTORS
330
184
102
}
330
184
100
AcDbXrecord
280
     1
270
     1
271
     1
  0
XRECORD
  5
17E
102
{ACAD_REACTORS
330
17C
102
}
330
17C
100
AcDbXrecord
280
     1
270
     1
271
     1
  0
XRECORD
  5
17D
102
{ACAD_REACTORS
330
17C
102
}
330
17C
100
AcDbXrecord
280
     1
270
     1
271
     1
  0
XRECORD
  5
181
102
{ACAD_REACTORS
330
17C
102
}
330
17C
100
AcDbXrecord
280
     1
270
     1
271
     1
  0
XRECORD
  5
180
102
{ACAD_REACTORS
330
17C
102
}
330
17C
100
AcDbXrecord
280
     1
270
     1
271
     1
  0
XRECORD
  5
182
102
{ACAD_REACTORS
330
17C
102
}
330
17C
100
AcDbXrecord
280
     1
270
     1
271
     1
  0
XRECORD
  5
17F
102
{ACAD_REACTORS
330
17C
102
}
330
17C
100
AcDbXrecord
280
     1
270
     1
271
     1
  0
XRECORD
  5
18E
102
{ACAD_REACTORS
330
18C
102
}
330
18C
100
AcDbXrecord
280
     1
270
     1
271
     1
  0
XRECORD
  5
18D
102
{ACAD_REACTORS
330
18C
102
}
330
18C
100
AcDbXrecord
280
     1
270
     1
271
     1
  0
XRECORD
  5
191
102
{ACAD_REACTORS
330
18C
102
}
330
18C
100
AcDbXrecord
280
     1
270
     1
271
     1
  0
XRECORD
  5
190
102
{ACAD_REACTORS
330
18C
102
}
330
18C
100
AcDbXrecord
280
     1
270
     1
271
     1
  0
XRECORD
  5
192
102
{ACAD_REACTORS
330
18C
102
}
330
18C
100
AcDbXrecord
280
     1
270
     1
271
     1
  0
XRECORD
  5
18F
102
{ACAD_REACTORS
330
18C
102
}
330
18C
100
AcDbXrecord
280
     1
270
     1
271
     1
  0
XRECORD
  5
A59
102
{ACAD_REACTORS
330
A58
102
}
330
A58
100
AcDbXrecord
280
     1
102
DISPLAYNAME
  1
Imperial24
102
FLAGS
 90
        0
  0
CELLSTYLEMAP
  5
A26
102
{ACAD_REACTORS
330
35F
102
}
330
35F
100
AcDbCellStyleMap
 90
        3
300
CELLSTYLE
  1
TABLEFORMAT_BEGIN
 90
        5
170
     1
 91
        0
 92
    32768
 62
   257
 93
        1
300
CONTENTFORMAT
  1
CONTENTFORMAT_BEGIN
 90
        0
 91
        0
 92
      512
 93
        0
300

 40
0.0
140
1.0
 94
        5
 62
     0
340
11
144
0.25
309
CONTENTFORMAT_END
171
     1
301
MARGIN
  1
CELLMARGIN_BEGIN
 40
0.06
 40
0.06
 40
0.06
 40
0.06
 40
0.18
 40
0.18
309
CELLMARGIN_END
 94
        6
 95
        1
302
GRIDFORMAT
  1
GRIDFORMAT_BEGIN
 90
        0
 91
        1
 62
     0
 92
       -2
340
0
 93
        0
 40
0.045
309
GRIDFORMAT_END
 95
        2
302
GRIDFORMAT
  1
GRIDFORMAT_BEGIN
 90
        0
 91
        1
 62
     0
 92
       -2
340
0
 93
        0
 40
0.045
309
GRIDFORMAT_END
 95
        4
302
GRIDFORMAT
  1
GRIDFORMAT_BEGIN
 90
        0
 91
        1
 62
     0
 92
       -2
340
0
 93
        0
 40
0.045
309
GRIDFORMAT_END
 95
        8
302
GRIDFORMAT
  1
GRIDFORMAT_BEGIN
 90
        0
 91
        1
 62
     0
 92
       -2
340
0
 93
        0
 40
0.045
309
GRIDFORMAT_END
 95
       16
302
GRIDFORMAT
  1
GRIDFORMAT_BEGIN
 90
        0
 91
        1
 62
     0
 92
       -2
340
0
 93
        0
 40
0.045
309
GRIDFORMAT_END
 95
       32
302
GRIDFORMAT
  1
GRIDFORMAT_BEGIN
 90
        0
 91
        1
 62
     0
 92
       -2
340
0
 93
        0
 40
0.045
309
GRIDFORMAT_END
309
TABLEFORMAT_END
  1
CELLSTYLE_BEGIN
 90
        1
 91
        1
300
_TITLE
309
CELLSTYLE_END
300
CELLSTYLE
  1
TABLEFORMAT_BEGIN
 90
        5
170
     1
 91
        0
 92
        0
 62
   257
 93
        1
300
CONTENTFORMAT
  1
CONTENTFORMAT_BEGIN
 90
        0
 91
        0
 92
      512
 93
        0
300

 40
0.0
140
1.0
 94
        5
 62
     0
340
11
144
0.18
309
CONTENTFORMAT_END
171
     1
301
MARGIN
  1
CELLMARGIN_BEGIN
 40
0.06
 40
0.06
 40
0.06
 40
0.06
 40
0.18
 40
0.18
309
CELLMARGIN_END
 94
        6
 95
        1
302
GRIDFORMAT
  1
GRIDFORMAT_BEGIN
 90
        0
 91
        1
 62
     0
 92
       -2
340
0
 93
        0
 40
0.045
309
GRIDFORMAT_END
 95
        2
302
GRIDFORMAT
  1
GRIDFORMAT_BEGIN
 90
        0
 91
        1
 62
     0
 92
       -2
340
0
 93
        0
 40
0.045
309
GRIDFORMAT_END
 95
        4
302
GRIDFORMAT
  1
GRIDFORMAT_BEGIN
 90
        0
 91
        1
 62
     0
 92
       -2
340
0
 93
        0
 40
0.045
309
GRIDFORMAT_END
 95
        8
302
GRIDFORMAT
  1
GRIDFORMAT_BEGIN
 90
        0
 91
        1
 62
     0
 92
       -2
340
0
 93
        0
 40
0.045
309
GRIDFORMAT_END
 95
       16
302
GRIDFORMAT
  1
GRIDFORMAT_BEGIN
 90
        0
 91
        1
 62
     0
 92
       -2
340
0
 93
        0
 40
0.045
309
GRIDFORMAT_END
 95
       32
302
GRIDFORMAT
  1
GRIDFORMAT_BEGIN
 90
        0
 91
        1
 62
     0
 92
       -2
340
0
 93
        0
 40
0.045
309
GRIDFORMAT_END
309
TABLEFORMAT_END
  1
CELLSTYLE_BEGIN
 90
        2
 91
        1
300
_HEADER
309
CELLSTYLE_END
300
CELLSTYLE
  1
TABLEFORMAT_BEGIN
 90
        5
170
     1
 91
        0
 92
        0
 62
   257
 93
        1
300
CONTENTFORMAT
  1
CONTENTFORMAT_BEGIN
 90
        0
 91
        0
 92
      512
 93
        0
300

 40
0.0
140
1.0
 94
        2
 62
     0
340
11
144
0.18
309
CONTENTFORMAT_END
171
     1
301
MARGIN
  1
CELLMARGIN_BEGIN
 40
0.06
 40
0.06
 40
0.06
 40
0.06
 40
0.18
 40
0.18
309
CELLMARGIN_END
 94
        6
 95
        1
302
GRIDFORMAT
  1
GRIDFORMAT_BEGIN
 90
        0
 91
        1
 62
     0
 92
       -2
340
0
 93
        0
 40
0.045
309
GRIDFORMAT_END
 95
        2
302
GRIDFORMAT
  1
GRIDFORMAT_BEGIN
 90
        0
 91
        1
 62
     0
 92
       -2
340
0
 93
        0
 40
0.045
309
GRIDFORMAT_END
 95
        4
302
GRIDFORMAT
  1
GRIDFORMAT_BEGIN
 90
        0
 91
        1
 62
     0
 92
       -2
340
0
 93
        0
 40
0.045
309
GRIDFORMAT_END
 95
        8
302
GRIDFORMAT
  1
GRIDFORMAT_BEGIN
 90
        0
 91
        1
 62
     0
 92
       -2
340
0
 93
        0
 40
0.045
309
GRIDFORMAT_END
 95
       16
302
GRIDFORMAT
  1
GRIDFORMAT_BEGIN
 90
        0
 91
        1
 62
     0
 92
       -2
340
0
 93
        0
 40
0.045
309
GRIDFORMAT_END
 95
       32
302
GRIDFORMAT
  1
GRIDFORMAT_BEGIN
 90
        0
 91
        1
 62
     0
 92
       -2
340
0
 93
        0
 40
0.045
309
GRIDFORMAT_END
309
TABLEFORMAT_END
  1
CELLSTYLE_BEGIN
 90
        3
 91
        2
300
_DATA
309
CELLSTYLE_END
  0
XRECORD
  5
A33
102
{ACAD_REACTORS
330
A32
102
}
330
A32
100
AcDbXrecord
280
     1
102
RTVSPost2010Prop28
280
     1
102
RTVSPost2010PropOp28
 70
     1
102
RTVSPost2010Prop29
280
     1
102
RTVSPost2010PropOp29
 70
     1
102
RTVSPost2010Prop30
280
     0
102
RTVSPost2010PropOp30
 70
     1
102
RTVSPost2010Prop31
280
     0
102
RTVSPost2010PropOp31
 70
     1
102
RTVSPost2010Prop32
280
     0
102
RTVSPost2010PropOp32
 70
     1
102
RTVSPost2010Prop33
280
     0
102
RTVSPost2010PropOp33
 70
     1
102
RTVSPost2010Prop34
280
     0
102
RTVSPost2010PropOp34
 70
     1
102
RTVSPost2010Prop35
280
     0
102
RTVSPost2010PropOp35
 70
     1
102
RTVSPost2010Prop36
280
     0
102
RTVSPost2010PropOp36
 70
     1
102
RTVSPost2010Prop37
 90
       50
102
RTVSPost2010PropOp37
 70
     1
102
RTVSPost2010Prop38
140
0.0
102
RTVSPost2010PropOp38
 70
     1
102
RTVSPost2010Prop39
140
1.0
102
RTVSPost2010PropOp39
 70
     1
102
RTVSPost2010Prop40
 90
        0
102
RTVSPost2010PropOp40
 70
     1
102
RTVSPost2010Prop41ColorIndex
 90
       18
102
RTVSPost2010Prop41ColorRGB
 90
        0
102
RTVSPost2010PropOp41
 70
     1
102
RTVSPost2010Prop42
 90
       50
102
RTVSPost2010PropOp42
 70
     1
102
RTVSPost2010Prop43
 90
        3
102
RTVSPost2010PropOp43
 70
     1
102
RTVSPost2010Prop44ColorIndex
 90
        5
102
RTVSPost2010Prop44ColorRGB
 90
      255
102
RTVSPost2010PropOp44
 70
     1
102
RTVSPost2010Prop45
280
     0
102
RTVSPost2010PropOp45
 70
     1
102
RTVSPost2010Prop46
 90
       50
102
RTVSPost2010PropOp46
 70
     1
102
RTVSPost2010Prop47
 90
       50
102
RTVSPost2010PropOp47
 70
     1
102
RTVSPost2010Prop48
 90
       50
102
RTVSPost2010PropOp48
 70
     1
102
RTVSPost2010Prop49
280
     0
102
RTVSPost2010PropOp49
 70
     1
102
RTVSPost2010Prop50
 90
       50
102
RTVSPost2010PropOp50
 70
     1
102
RTVSPost2010Prop51ColorIndex
 90
      256
102
RTVSPost2010Prop51ColorRGB
 90
-16777216
102
RTVSPost2010PropOp51
 70
     0
102
RTVSPost2010Prop52
140
1.0
102
RTVSPost2010PropOp52
 70
     0
102
RTVSPost2010Prop53
 90
        2
102
RTVSPost2010PropOp53
 70
     1
102
RTVSPost2010Prop54
  1
strokes_ogs.tif
102
RTVSPost2010PropOp54
 70
     1
102
RTVSPost2010Prop55
280
     0
102
RTVSPost2010PropOp55
 70
     1
102
RTVSPost2010Prop56
140
1.0
102
RTVSPost2010PropOp56
 70
     1
102
RTVSPost2010Prop57
140
1.0
102
RTVSPost2010PropOp57
 70
     1
  0
XRECORD
  5
A31
102
{ACAD_REACTORS
330
A30
102
}
330
A30
100
AcDbXrecord
280
     1
102
RTVSPost2010Prop28
280
     0
102
RTVSPost2010PropOp28
 70
     1
102
RTVSPost2010Prop29
280
     1
102
RTVSPost2010PropOp29
 70
     1
102
RTVSPost2010Prop30
280
     1
102
RTVSPost2010PropOp30
 70
     1
102
RTVSPost2010Prop31
280
     0
102
RTVSPost2010PropOp31
 70
     1
102
RTVSPost2010Prop32
280
     0
102
RTVSPost2010PropOp32
 70
     1
102
RTVSPost2010Prop33
280
     0
102
RTVSPost2010PropOp33
 70
     1
102
RTVSPost2010Prop34
280
     0
102
RTVSPost2010PropOp34
 70
     1
102
RTVSPost2010Prop35
280
     0
102
RTVSPost2010PropOp35
 70
     1
102
RTVSPost2010Prop36
280
     0
102
RTVSPost2010PropOp36
 70
     1
102
RTVSPost2010Prop37
 90
       50
102
RTVSPost2010PropOp37
 70
     1
102
RTVSPost2010Prop38
140
0.0
102
RTVSPost2010PropOp38
 70
     1
102
RTVSPost2010Prop39
140
1.0
102
RTVSPost2010PropOp39
 70
     1
102
RTVSPost2010Prop40
 90
        0
102
RTVSPost2010PropOp40
 70
     1
102
RTVSPost2010Prop41ColorIndex
 90
       18
102
RTVSPost2010Prop41ColorRGB
 90
        0
102
RTVSPost2010PropOp41
 70
     1
102
RTVSPost2010Prop42
 90
       50
102
RTVSPost2010PropOp42
 70
     1
102
RTVSPost2010Prop43
 90
        3
102
RTVSPost2010PropOp43
 70
     1
102
RTVSPost2010Prop44ColorIndex
 90
        5
102
RTVSPost2010Prop44ColorRGB
 90
      255
102
RTVSPost2010PropOp44
 70
     1
102
RTVSPost2010Prop45
280
     0
102
RTVSPost2010PropOp45
 70
     1
102
RTVSPost2010Prop46
 90
       50
102
RTVSPost2010PropOp46
 70
     1
102
RTVSPost2010Prop47
 90
       50
102
RTVSPost2010PropOp47
 70
     1
102
RTVSPost2010Prop48
 90
       50
102
RTVSPost2010PropOp48
 70
     1
102
RTVSPost2010Prop49
280
     0
102
RTVSPost2010PropOp49
 70
     1
102
RTVSPost2010Prop50
 90
       50
102
RTVSPost2010PropOp50
 70
     1
102
RTVSPost2010Prop51ColorIndex
 90
      256
102
RTVSPost2010Prop51ColorRGB
 90
-16777216
102
RTVSPost2010PropOp51
 70
     0
102
RTVSPost2010Prop52
140
1.0
102
RTVSPost2010PropOp52
 70
     0
102
RTVSPost2010Prop53
 90
        2
102
RTVSPost2010PropOp53
 70
     1
102
RTVSPost2010Prop54
  1
strokes_ogs.tif
102
RTVSPost2010PropOp54
 70
     1
102
RTVSPost2010Prop55
280
     0
102
RTVSPost2010PropOp55
 70
     1
102
RTVSPost2010Prop56
140
1.0
102
RTVSPost2010PropOp56
 70
     1
102
RTVSPost2010Prop57
140
1.0
102
RTVSPost2010PropOp57
 70
     1
  0
XRECORD
  5
A3F
102
{ACAD_REACTORS
330
A3E
102
}
330
A3E
100
AcDbXrecord
280
     1
102
RTVSPost2010Prop28
280
     0
102
RTVSPost2010PropOp28
 70
     1
102
RTVSPost2010Prop29
280
     1
102
RTVSPost2010PropOp29
 70
     1
102
RTVSPost2010Prop30
280
     1
102
RTVSPost2010PropOp30
 70
     1
102
RTVSPost2010Prop31
280
     0
102
RTVSPost2010PropOp31
 70
     1
102
RTVSPost2010Prop32
280
     0
102
RTVSPost2010PropOp32
 70
     1
102
RTVSPost2010Prop33
280
     0
102
RTVSPost2010PropOp33
 70
     1
102
RTVSPost2010Prop34
280
     0
102
RTVSPost2010PropOp34
 70
     1
102
RTVSPost2010Prop35
280
     0
102
RTVSPost2010PropOp35
 70
     1
102
RTVSPost2010Prop36
280
     0
102
RTVSPost2010PropOp36
 70
     1
102
RTVSPost2010Prop37
 90
       50
102
RTVSPost2010PropOp37
 70
     1
102
RTVSPost2010Prop38
140
0.0
102
RTVSPost2010PropOp38
 70
     1
102
RTVSPost2010Prop39
140
1.0
102
RTVSPost2010PropOp39
 70
     1
102
RTVSPost2010Prop40
 90
        0
102
RTVSPost2010PropOp40
 70
     1
102
RTVSPost2010Prop41ColorIndex
 90
       18
102
RTVSPost2010Prop41ColorRGB
 90
        0
102
RTVSPost2010PropOp41
 70
     1
102
RTVSPost2010Prop42
 90
       50
102
RTVSPost2010PropOp42
 70
     1
102
RTVSPost2010Prop43
 90
        3
102
RTVSPost2010PropOp43
 70
     1
102
RTVSPost2010Prop44ColorIndex
 90
        5
102
RTVSPost2010Prop44ColorRGB
 90
      255
102
RTVSPost2010PropOp44
 70
     1
102
RTVSPost2010Prop45
280
     0
102
RTVSPost2010PropOp45
 70
     1
102
RTVSPost2010Prop46
 90
       50
102
RTVSPost2010PropOp46
 70
     1
102
RTVSPost2010Prop47
 90
       50
102
RTVSPost2010PropOp47
 70
     1
102
RTVSPost2010Prop48
 90
       50
102
RTVSPost2010PropOp48
 70
     1
102
RTVSPost2010Prop49
280
     0
102
RTVSPost2010PropOp49
 70
     1
102
RTVSPost2010Prop50
 90
       50
102
RTVSPost2010PropOp50
 70
     1
102
RTVSPost2010Prop51ColorIndex
 90
      256
102
RTVSPost2010Prop51ColorRGB
 90
-16777216
102
RTVSPost2010PropOp51
 70
     0
102
RTVSPost2010Prop52
140
1.0
102
RTVSPost2010PropOp52
 70
     0
102
RTVSPost2010Prop53
 90
        2
102
RTVSPost2010PropOp53
 70
     1
102
RTVSPost2010Prop54
  1
strokes_ogs.tif
102
RTVSPost2010PropOp54
 70
     1
102
RTVSPost2010Prop55
280
     0
102
RTVSPost2010PropOp55
 70
     1
102
RTVSPost2010Prop56
140
1.0
102
RTVSPost2010PropOp56
 70
     1
102
RTVSPost2010Prop57
140
1.0
102
RTVSPost2010PropOp57
 70
     1
  0
XRECORD
  5
A47
102
{ACAD_REACTORS
330
A46
102
}
330
A46
100
AcDbXrecord
280
     1
102
RTVSPost2010Prop28
280
     0
102
RTVSPost2010PropOp28
 70
     1
102
RTVSPost2010Prop29
280
     1
102
RTVSPost2010PropOp29
 70
     1
102
RTVSPost2010Prop30
280
     1
102
RTVSPost2010PropOp30
 70
     1
102
RTVSPost2010Prop31
280
     0
102
RTVSPost2010PropOp31
 70
     1
102
RTVSPost2010Prop32
280
     0
102
RTVSPost2010PropOp32
 70
     1
102
RTVSPost2010Prop33
280
     0
102
RTVSPost2010PropOp33
 70
     1
102
RTVSPost2010Prop34
280
     0
102
RTVSPost2010PropOp34
 70
     1
102
RTVSPost2010Prop35
280
     0
102
RTVSPost2010PropOp35
 70
     1
102
RTVSPost2010Prop36
280
     0
102
RTVSPost2010PropOp36
 70
     1
102
RTVSPost2010Prop37
 90
       50
102
RTVSPost2010PropOp37
 70
     1
102
RTVSPost2010Prop38
140
0.0
102
RTVSPost2010PropOp38
 70
     1
102
RTVSPost2010Prop39
140
1.0
102
RTVSPost2010PropOp39
 70
     1
102
RTVSPost2010Prop40
 90
        0
102
RTVSPost2010PropOp40
 70
     1
102
RTVSPost2010Prop41ColorIndex
 90
       18
102
RTVSPost2010Prop41ColorRGB
 90
        0
102
RTVSPost2010PropOp41
 70
     1
102
RTVSPost2010Prop42
 90
       50
102
RTVSPost2010PropOp42
 70
     1
102
RTVSPost2010Prop43
 90
        3
102
RTVSPost2010PropOp43
 70
     1
102
RTVSPost2010Prop44ColorIndex
 90
        5
102
RTVSPost2010Prop44ColorRGB
 90
      255
102
RTVSPost2010PropOp44
 70
     1
102
RTVSPost2010Prop45
280
     0
102
RTVSPost2010PropOp45
 70
     1
102
RTVSPost2010Prop46
 90
       50
102
RTVSPost2010PropOp46
 70
     1
102
RTVSPost2010Prop47
 90
       50
102
RTVSPost2010PropOp47
 70
     1
102
RTVSPost2010Prop48
 90
       50
102
RTVSPost2010PropOp48
 70
     1
102
RTVSPost2010Prop49
280
     0
102
RTVSPost2010PropOp49
 70
     1
102
RTVSPost2010Prop50
 90
       50
102
RTVSPost2010PropOp50
 70
     1
102
RTVSPost2010Prop51ColorIndex
 90
      256
102
RTVSPost2010Prop51ColorRGB
 90
-16777216
102
RTVSPost2010PropOp51
 70
     0
102
RTVSPost2010Prop52
140
1.0
102
RTVSPost2010PropOp52
 70
     0
102
RTVSPost2010Prop53
 90
        2
102
RTVSPost2010PropOp53
 70
     1
102
RTVSPost2010Prop54
  1
strokes_ogs.tif
102
RTVSPost2010PropOp54
 70
     1
102
RTVSPost2010Prop55
280
     0
102
RTVSPost2010PropOp55
 70
     1
102
RTVSPost2010Prop56
140
1.0
102
RTVSPost2010PropOp56
 70
     1
102
RTVSPost2010Prop57
140
1.0
102
RTVSPost2010PropOp57
 70
     1
  0
XRECORD
  5
A39
102
{ACAD_REACTORS
330
A38
102
}
330
A38
100
AcDbXrecord
280
     1
102
RTVSPost2010Prop28
280
     0
102
RTVSPost2010PropOp28
 70
     1
102
RTVSPost2010Prop29
280
     1
102
RTVSPost2010PropOp29
 70
     1
102
RTVSPost2010Prop30
280
     1
102
RTVSPost2010PropOp30
 70
     1
102
RTVSPost2010Prop31
280
     0
102
RTVSPost2010PropOp31
 70
     1
102
RTVSPost2010Prop32
280
     0
102
RTVSPost2010PropOp32
 70
     1
102
RTVSPost2010Prop33
280
     0
102
RTVSPost2010PropOp33
 70
     1
102
RTVSPost2010Prop34
280
     0
102
RTVSPost2010PropOp34
 70
     1
102
RTVSPost2010Prop35
280
     0
102
RTVSPost2010PropOp35
 70
     1
102
RTVSPost2010Prop36
280
     0
102
RTVSPost2010PropOp36
 70
     1
102
RTVSPost2010Prop37
 90
       50
102
RTVSPost2010PropOp37
 70
     1
102
RTVSPost2010Prop38
140
0.0
102
RTVSPost2010PropOp38
 70
     1
102
RTVSPost2010Prop39
140
1.0
102
RTVSPost2010PropOp39
 70
     1
102
RTVSPost2010Prop40
 90
        0
102
RTVSPost2010PropOp40
 70
     1
102
RTVSPost2010Prop41ColorIndex
 90
       18
102
RTVSPost2010Prop41ColorRGB
 90
        0
102
RTVSPost2010PropOp41
 70
     1
102
RTVSPost2010Prop42
 90
       50
102
RTVSPost2010PropOp42
 70
     1
102
RTVSPost2010Prop43
 90
        3
102
RTVSPost2010PropOp43
 70
     1
102
RTVSPost2010Prop44ColorIndex
 90
        5
102
RTVSPost2010Prop44ColorRGB
 90
      255
102
RTVSPost2010PropOp44
 70
     1
102
RTVSPost2010Prop45
280
     0
102
RTVSPost2010PropOp45
 70
     1
102
RTVSPost2010Prop46
 90
       50
102
RTVSPost2010PropOp46
 70
     1
102
RTVSPost2010Prop47
 90
       50
102
RTVSPost2010PropOp47
 70
     1
102
RTVSPost2010Prop48
 90
       50
102
RTVSPost2010PropOp48
 70
     1
102
RTVSPost2010Prop49
280
     0
102
RTVSPost2010PropOp49
 70
     1
102
RTVSPost2010Prop50
 90
       50
102
RTVSPost2010PropOp50
 70
     1
102
RTVSPost2010Prop51ColorIndex
 90
      256
102
RTVSPost2010Prop51ColorRGB
 90
-16777216
102
RTVSPost2010PropOp51
 70
     0
102
RTVSPost2010Prop52
140
1.0
102
RTVSPost2010PropOp52
 70
     0
102
RTVSPost2010Prop53
 90
        2
102
RTVSPost2010PropOp53
 70
     1
102
RTVSPost2010Prop54
  1
strokes_ogs.tif
102
RTVSPost2010PropOp54
 70
     1
102
RTVSPost2010Prop55
280
     0
102
RTVSPost2010PropOp55
 70
     1
102
RTVSPost2010Prop56
140
1.0
102
RTVSPost2010PropOp56
 70
     1
102
RTVSPost2010Prop57
140
1.0
102
RTVSPost2010PropOp57
 70
     1
  0
XRECORD
  5
A3D
102
{ACAD_REACTORS
330
A3C
102
}
330
A3C
100
AcDbXrecord
280
     1
102
RTVSPost2010Prop28
280
     0
102
RTVSPost2010PropOp28
 70
     1
102
RTVSPost2010Prop29
280
     1
102
RTVSPost2010PropOp29
 70
     1
102
RTVSPost2010Prop30
280
     1
102
RTVSPost2010PropOp30
 70
     1
102
RTVSPost2010Prop31
280
     0
102
RTVSPost2010PropOp31
 70
     1
102
RTVSPost2010Prop32
280
     0
102
RTVSPost2010PropOp32
 70
     1
102
RTVSPost2010Prop33
280
     0
102
RTVSPost2010PropOp33
 70
     1
102
RTVSPost2010Prop34
280
     0
102
RTVSPost2010PropOp34
 70
     1
102
RTVSPost2010Prop35
280
     0
102
RTVSPost2010PropOp35
 70
     1
102
RTVSPost2010Prop36
280
     0
102
RTVSPost2010PropOp36
 70
     1
102
RTVSPost2010Prop37
 90
       50
102
RTVSPost2010PropOp37
 70
     1
102
RTVSPost2010Prop38
140
0.0
102
RTVSPost2010PropOp38
 70
     1
102
RTVSPost2010Prop39
140
1.0
102
RTVSPost2010PropOp39
 70
     1
102
RTVSPost2010Prop40
 90
        0
102
RTVSPost2010PropOp40
 70
     1
102
RTVSPost2010Prop41ColorIndex
 90
       18
102
RTVSPost2010Prop41ColorRGB
 90
        0
102
RTVSPost2010PropOp41
 70
     1
102
RTVSPost2010Prop42
 90
       50
102
RTVSPost2010PropOp42
 70
     1
102
RTVSPost2010Prop43
 90
        3
102
RTVSPost2010PropOp43
 70
     1
102
RTVSPost2010Prop44ColorIndex
 90
        5
102
RTVSPost2010Prop44ColorRGB
 90
      255
102
RTVSPost2010PropOp44
 70
     1
102
RTVSPost2010Prop45
280
     0
102
RTVSPost2010PropOp45
 70
     1
102
RTVSPost2010Prop46
 90
       50
102
RTVSPost2010PropOp46
 70
     1
102
RTVSPost2010Prop47
 90
       50
102
RTVSPost2010PropOp47
 70
     1
102
RTVSPost2010Prop48
 90
       50
102
RTVSPost2010PropOp48
 70
     1
102
RTVSPost2010Prop49
280
     0
102
RTVSPost2010PropOp49
 70
     1
102
RTVSPost2010Prop50
 90
       50
102
RTVSPost2010PropOp50
 70
     1
102
RTVSPost2010Prop51ColorIndex
 90
      256
102
RTVSPost2010Prop51ColorRGB
 90
-16777216
102
RTVSPost2010PropOp51
 70
     0
102
RTVSPost2010Prop52
140
1.0
102
RTVSPost2010PropOp52
 70
     0
102
RTVSPost2010Prop53
 90
        2
102
RTVSPost2010PropOp53
 70
     1
102
RTVSPost2010Prop54
  1
strokes_ogs.tif
102
RTVSPost2010PropOp54
 70
     1
102
RTVSPost2010Prop55
280
     0
102
RTVSPost2010PropOp55
 70
     1
102
RTVSPost2010Prop56
140
1.0
102
RTVSPost2010PropOp56
 70
     1
102
RTVSPost2010Prop57
140
1.0
102
RTVSPost2010PropOp57
 70
     1
  0
XRECORD
  5
A57
102
{ACAD_REACTORS
330
A56
102
}
330
A56
100
AcDbXrecord
280
     1
102
RTVSPost2010Prop28
280
     0
102
RTVSPost2010PropOp28
 70
     1
102
RTVSPost2010Prop29
280
     1
102
RTVSPost2010PropOp29
 70
     1
102
RTVSPost2010Prop30
280
     1
102
RTVSPost2010PropOp30
 70
     1
102
RTVSPost2010Prop31
280
     0
102
RTVSPost2010PropOp31
 70
     1
102
RTVSPost2010Prop32
280
     0
102
RTVSPost2010PropOp32
 70
     1
102
RTVSPost2010Prop33
280
     0
102
RTVSPost2010PropOp33
 70
     1
102
RTVSPost2010Prop34
280
     0
102
RTVSPost2010PropOp34
 70
     1
102
RTVSPost2010Prop35
280
     0
102
RTVSPost2010PropOp35
 70
     1
102
RTVSPost2010Prop36
280
     0
102
RTVSPost2010PropOp36
 70
     1
102
RTVSPost2010Prop37
 90
       50
102
RTVSPost2010PropOp37
 70
     0
102
RTVSPost2010Prop38
140
0.0
102
RTVSPost2010PropOp38
 70
     0
102
RTVSPost2010Prop39
140
1.0
102
RTVSPost2010PropOp39
 70
     0
102
RTVSPost2010Prop40
 90
        0
102
RTVSPost2010PropOp40
 70
     0
102
RTVSPost2010Prop41ColorIndex
 90
       18
102
RTVSPost2010Prop41ColorRGB
 90
        0
102
RTVSPost2010PropOp41
 70
     0
102
RTVSPost2010Prop42
 90
       50
102
RTVSPost2010PropOp42
 70
     0
102
RTVSPost2010Prop43
 90
        3
102
RTVSPost2010PropOp43
 70
     0
102
RTVSPost2010Prop44ColorIndex
 90
        5
102
RTVSPost2010Prop44ColorRGB
 90
      255
102
RTVSPost2010PropOp44
 70
     0
102
RTVSPost2010Prop45
280
     0
102
RTVSPost2010PropOp45
 70
     1
102
RTVSPost2010Prop46
 90
       50
102
RTVSPost2010PropOp46
 70
     0
102
RTVSPost2010Prop47
 90
       50
102
RTVSPost2010PropOp47
 70
     0
102
RTVSPost2010Prop48
 90
       50
102
RTVSPost2010PropOp48
 70
     0
102
RTVSPost2010Prop49
280
     0
102
RTVSPost2010PropOp49
 70
     1
102
RTVSPost2010Prop50
 90
       50
102
RTVSPost2010PropOp50
 70
     0
102
RTVSPost2010Prop51ColorIndex
 90
      256
102
RTVSPost2010Prop51ColorRGB
 90
-16777216
102
RTVSPost2010PropOp51
 70
     0
102
RTVSPost2010Prop52
140
1.0
102
RTVSPost2010PropOp52
 70
     0
102
RTVSPost2010Prop53
 90
        2
102
RTVSPost2010PropOp53
 70
     0
102
RTVSPost2010Prop54
  1
strokes_ogs.tif
102
RTVSPost2010PropOp54
 70
     0
102
RTVSPost2010Prop55
280
     0
102
RTVSPost2010PropOp55
 70
     1
102
RTVSPost2010Prop56
140
1.0
102
RTVSPost2010PropOp56
 70
     0
102
RTVSPost2010Prop57
140
1.0
102
RTVSPost2010PropOp57
 70
     0
  0
XRECORD
  5
A45
102
{ACAD_REACTORS
330
A44
102
}
330
A44
100
AcDbXrecord
280
     1
102
RTVSPost2010Prop28
280
     0
102
RTVSPost2010PropOp28
 70
     1
102
RTVSPost2010Prop29
280
     1
102
RTVSPost2010PropOp29
 70
     1
102
RTVSPost2010Prop30
280
     1
102
RTVSPost2010PropOp30
 70
     1
102
RTVSPost2010Prop31
280
     0
102
RTVSPost2010PropOp31
 70
     1
102
RTVSPost2010Prop32
280
     0
102
RTVSPost2010PropOp32
 70
     1
102
RTVSPost2010Prop33
280
     0
102
RTVSPost2010PropOp33
 70
     1
102
RTVSPost2010Prop34
280
     0
102
RTVSPost2010PropOp34
 70
     1
102
RTVSPost2010Prop35
280
     0
102
RTVSPost2010PropOp35
 70
     1
102
RTVSPost2010Prop36
280
     0
102
RTVSPost2010PropOp36
 70
     1
102
RTVSPost2010Prop37
 90
       50
102
RTVSPost2010PropOp37
 70
     1
102
RTVSPost2010Prop38
140
0.0
102
RTVSPost2010PropOp38
 70
     1
102
RTVSPost2010Prop39
140
1.0
102
RTVSPost2010PropOp39
 70
     1
102
RTVSPost2010Prop40
 90
        0
102
RTVSPost2010PropOp40
 70
     1
102
RTVSPost2010Prop41ColorIndex
 90
       18
102
RTVSPost2010Prop41ColorRGB
 90
        0
102
RTVSPost2010PropOp41
 70
     1
102
RTVSPost2010Prop42
 90
       50
102
RTVSPost2010PropOp42
 70
     1
102
RTVSPost2010Prop43
 90
        3
102
RTVSPost2010PropOp43
 70
     1
102
RTVSPost2010Prop44ColorIndex
 90
        5
102
RTVSPost2010Prop44ColorRGB
 90
      255
102
RTVSPost2010PropOp44
 70
     1
102
RTVSPost2010Prop45
280
     0
102
RTVSPost2010PropOp45
 70
     1
102
RTVSPost2010Prop46
 90
       50
102
RTVSPost2010PropOp46
 70
     1
102
RTVSPost2010Prop47
 90
       50
102
RTVSPost2010PropOp47
 70
     1
102
RTVSPost2010Prop48
 90
       50
102
RTVSPost2010PropOp48
 70
     1
102
RTVSPost2010Prop49
280
     0
102
RTVSPost2010PropOp49
 70
     1
102
RTVSPost2010Prop50
 90
       50
102
RTVSPost2010PropOp50
 70
     1
102
RTVSPost2010Prop51ColorIndex
 90
      256
102
RTVSPost2010Prop51ColorRGB
 90
-16777216
102
RTVSPost2010PropOp51
 70
     0
102
RTVSPost2010Prop52
140
1.0
102
RTVSPost2010PropOp52
 70
     0
102
RTVSPost2010Prop53
 90
        2
102
RTVSPost2010PropOp53
 70
     1
102
RTVSPost2010Prop54
  1
strokes_ogs.tif
102
RTVSPost2010PropOp54
 70
     1
102
RTVSPost2010Prop55
280
     0
102
RTVSPost2010PropOp55
 70
     1
102
RTVSPost2010Prop56
140
1.0
102
RTVSPost2010PropOp56
 70
     1
102
RTVSPost2010Prop57
140
1.0
102
RTVSPost2010PropOp57
 70
     1
  0
XRECORD
  5
A29
102
{ACAD_REACTORS
330
A28
102
}
330
A28
100
AcDbXrecord
280
     1
102
RTVSPost2010Prop28
280
     0
102
RTVSPost2010PropOp28
 70
     1
102
RTVSPost2010Prop29
280
     1
102
RTVSPost2010PropOp29
 70
     1
102
RTVSPost2010Prop30
280
     1
102
RTVSPost2010PropOp30
 70
     1
102
RTVSPost2010Prop31
280
     0
102
RTVSPost2010PropOp31
 70
     1
102
RTVSPost2010Prop32
280
     0
102
RTVSPost2010PropOp32
 70
     1
102
RTVSPost2010Prop33
280
     0
102
RTVSPost2010PropOp33
 70
     1
102
RTVSPost2010Prop34
280
     0
102
RTVSPost2010PropOp34
 70
     1
102
RTVSPost2010Prop35
280
     0
102
RTVSPost2010PropOp35
 70
     1
102
RTVSPost2010Prop36
280
     0
102
RTVSPost2010PropOp36
 70
     1
102
RTVSPost2010Prop37
 90
       50
102
RTVSPost2010PropOp37
 70
     1
102
RTVSPost2010Prop38
140
0.0
102
RTVSPost2010PropOp38
 70
     1
102
RTVSPost2010Prop39
140
1.0
102
RTVSPost2010PropOp39
 70
     1
102
RTVSPost2010Prop40
 90
        0
102
RTVSPost2010PropOp40
 70
     1
102
RTVSPost2010Prop41ColorIndex
 90
       18
102
RTVSPost2010Prop41ColorRGB
 90
        0
102
RTVSPost2010PropOp41
 70
     1
102
RTVSPost2010Prop42
 90
       50
102
RTVSPost2010PropOp42
 70
     1
102
RTVSPost2010Prop43
 90
        3
102
RTVSPost2010PropOp43
 70
     1
102
RTVSPost2010Prop44ColorIndex
 90
        5
102
RTVSPost2010Prop44ColorRGB
 90
      255
102
RTVSPost2010PropOp44
 70
     1
102
RTVSPost2010Prop45
280
     0
102
RTVSPost2010PropOp45
 70
     1
102
RTVSPost2010Prop46
 90
       50
102
RTVSPost2010PropOp46
 70
     1
102
RTVSPost2010Prop47
 90
       50
102
RTVSPost2010PropOp47
 70
     1
102
RTVSPost2010Prop48
 90
       50
102
RTVSPost2010PropOp48
 70
     1
102
RTVSPost2010Prop49
280
     0
102
RTVSPost2010PropOp49
 70
     1
102
RTVSPost2010Prop50
 90
       50
102
RTVSPost2010PropOp50
 70
     1
102
RTVSPost2010Prop51ColorIndex
 90
      256
102
RTVSPost2010Prop51ColorRGB
 90
-16777216
102
RTVSPost2010PropOp51
 70
     0
102
RTVSPost2010Prop52
140
1.0
102
RTVSPost2010PropOp52
 70
     0
102
RTVSPost2010Prop53
 90
        2
102
RTVSPost2010PropOp53
 70
     1
102
RTVSPost2010Prop54
  1
strokes_ogs.tif
102
RTVSPost2010PropOp54
 70
     1
102
RTVSPost2010Prop55
280
     0
102
RTVSPost2010PropOp55
 70
     1
102
RTVSPost2010Prop56
140
1.0
102
RTVSPost2010PropOp56
 70
     1
102
RTVSPost2010Prop57
140
1.0
102
RTVSPost2010PropOp57
 70
     1
  0
XRECORD
  5
A2B
102
{ACAD_REACTORS
330
A2A
102
}
330
A2A
100
AcDbXrecord
280
     1
102
RTVSPost2010Prop28
280
     0
102
RTVSPost2010PropOp28
 70
     1
102
RTVSPost2010Prop29
280
     1
102
RTVSPost2010PropOp29
 70
     1
102
RTVSPost2010Prop30
280
     1
102
RTVSPost2010PropOp30
 70
     1
102
RTVSPost2010Prop31
280
     0
102
RTVSPost2010PropOp31
 70
     1
102
RTVSPost2010Prop32
280
     0
102
RTVSPost2010PropOp32
 70
     1
102
RTVSPost2010Prop33
280
     0
102
RTVSPost2010PropOp33
 70
     1
102
RTVSPost2010Prop34
280
     0
102
RTVSPost2010PropOp34
 70
     1
102
RTVSPost2010Prop35
280
     0
102
RTVSPost2010PropOp35
 70
     1
102
RTVSPost2010Prop36
280
     0
102
RTVSPost2010PropOp36
 70
     1
102
RTVSPost2010Prop37
 90
       50
102
RTVSPost2010PropOp37
 70
     1
102
RTVSPost2010Prop38
140
0.0
102
RTVSPost2010PropOp38
 70
     1
102
RTVSPost2010Prop39
140
1.0
102
RTVSPost2010PropOp39
 70
     1
102
RTVSPost2010Prop40
 90
        0
102
RTVSPost2010PropOp40
 70
     1
102
RTVSPost2010Prop41ColorIndex
 90
       18
102
RTVSPost2010Prop41ColorRGB
 90
        0
102
RTVSPost2010PropOp41
 70
     1
102
RTVSPost2010Prop42
 90
       50
102
RTVSPost2010PropOp42
 70
     1
102
RTVSPost2010Prop43
 90
        3
102
RTVSPost2010PropOp43
 70
     1
102
RTVSPost2010Prop44ColorIndex
 90
        5
102
RTVSPost2010Prop44ColorRGB
 90
      255
102
RTVSPost2010PropOp44
 70
     1
102
RTVSPost2010Prop45
280
     0
102
RTVSPost2010PropOp45
 70
     1
102
RTVSPost2010Prop46
 90
       50
102
RTVSPost2010PropOp46
 70
     1
102
RTVSPost2010Prop47
 90
       50
102
RTVSPost2010PropOp47
 70
     1
102
RTVSPost2010Prop48
 90
       50
102
RTVSPost2010PropOp48
 70
     1
102
RTVSPost2010Prop49
280
     0
102
RTVSPost2010PropOp49
 70
     1
102
RTVSPost2010Prop50
 90
       50
102
RTVSPost2010PropOp50
 70
     1
102
RTVSPost2010Prop51ColorIndex
 90
      256
102
RTVSPost2010Prop51ColorRGB
 90
-16777216
102
RTVSPost2010PropOp51
 70
     0
102
RTVSPost2010Prop52
140
1.0
102
RTVSPost2010PropOp52
 70
     0
102
RTVSPost2010Prop53
 90
        2
102
RTVSPost2010PropOp53
 70
     1
102
RTVSPost2010Prop54
  1
strokes_ogs.tif
102
RTVSPost2010PropOp54
 70
     1
102
RTVSPost2010Prop55
280
     0
102
RTVSPost2010PropOp55
 70
     1
102
RTVSPost2010Prop56
140
1.0
102
RTVSPost2010PropOp56
 70
     1
102
RTVSPost2010Prop57
140
1.0
102
RTVSPost2010PropOp57
 70
     1
  0
XRECORD
  5
A2D
102
{ACAD_REACTORS
330
A2C
102
}
330
A2C
100
AcDbXrecord
280
     1
102
RTVSPost2010Prop28
280
     0
102
RTVSPost2010PropOp28
 70
     1
102
RTVSPost2010Prop29
280
     1
102
RTVSPost2010PropOp29
 70
     1
102
RTVSPost2010Prop30
280
     1
102
RTVSPost2010PropOp30
 70
     1
102
RTVSPost2010Prop31
280
     0
102
RTVSPost2010PropOp31
 70
     1
102
RTVSPost2010Prop32
280
     0
102
RTVSPost2010PropOp32
 70
     1
102
RTVSPost2010Prop33
280
     0
102
RTVSPost2010PropOp33
 70
     1
102
RTVSPost2010Prop34
280
     0
102
RTVSPost2010PropOp34
 70
     1
102
RTVSPost2010Prop35
280
     0
102
RTVSPost2010PropOp35
 70
     1
102
RTVSPost2010Prop36
280
     0
102
RTVSPost2010PropOp36
 70
     1
102
RTVSPost2010Prop37
 90
       50
102
RTVSPost2010PropOp37
 70
     1
102
RTVSPost2010Prop38
140
0.0
102
RTVSPost2010PropOp38
 70
     1
102
RTVSPost2010Prop39
140
1.0
102
RTVSPost2010PropOp39
 70
     1
102
RTVSPost2010Prop40
 90
        0
102
RTVSPost2010PropOp40
 70
     1
102
RTVSPost2010Prop41ColorIndex
 90
       18
102
RTVSPost2010Prop41ColorRGB
 90
        0
102
RTVSPost2010PropOp41
 70
     1
102
RTVSPost2010Prop42
 90
       50
102
RTVSPost2010PropOp42
 70
     1
102
RTVSPost2010Prop43
 90
        3
102
RTVSPost2010PropOp43
 70
     1
102
RTVSPost2010Prop44ColorIndex
 90
        5
102
RTVSPost2010Prop44ColorRGB
 90
      255
102
RTVSPost2010PropOp44
 70
     1
102
RTVSPost2010Prop45
280
     0
102
RTVSPost2010PropOp45
 70
     1
102
RTVSPost2010Prop46
 90
       50
102
RTVSPost2010PropOp46
 70
     1
102
RTVSPost2010Prop47
 90
       50
102
RTVSPost2010PropOp47
 70
     1
102
RTVSPost2010Prop48
 90
       50
102
RTVSPost2010PropOp48
 70
     1
102
RTVSPost2010Prop49
280
     0
102
RTVSPost2010PropOp49
 70
     1
102
RTVSPost2010Prop50
 90
       50
102
RTVSPost2010PropOp50
 70
     1
102
RTVSPost2010Prop51ColorIndex
 90
      256
102
RTVSPost2010Prop51ColorRGB
 90
-16777216
102
RTVSPost2010PropOp51
 70
     0
102
RTVSPost2010Prop52
140
1.0
102
RTVSPost2010PropOp52
 70
     0
102
RTVSPost2010Prop53
 90
        2
102
RTVSPost2010PropOp53
 70
     1
102
RTVSPost2010Prop54
  1
strokes_ogs.tif
102
RTVSPost2010PropOp54
 70
     1
102
RTVSPost2010Prop55
280
     0
102
RTVSPost2010PropOp55
 70
     1
102
RTVSPost2010Prop56
140
1.0
102
RTVSPost2010PropOp56
 70
     1
102
RTVSPost2010Prop57
140
1.0
102
RTVSPost2010PropOp57
 70
     1
  0
XRECORD
  5
A2F
102
{ACAD_REACTORS
330
A2E
102
}
330
A2E
100
AcDbXrecord
280
     1
102
RTVSPost2010Prop28
280
     0
102
RTVSPost2010PropOp28
 70
     1
102
RTVSPost2010Prop29
280
     1
102
RTVSPost2010PropOp29
 70
     1
102
RTVSPost2010Prop30
280
     1
102
RTVSPost2010PropOp30
 70
     1
102
RTVSPost2010Prop31
280
     0
102
RTVSPost2010PropOp31
 70
     1
102
RTVSPost2010Prop32
280
     0
102
RTVSPost2010PropOp32
 70
     1
102
RTVSPost2010Prop33
280
     0
102
RTVSPost2010PropOp33
 70
     1
102
RTVSPost2010Prop34
280
     0
102
RTVSPost2010PropOp34
 70
     1
102
RTVSPost2010Prop35
280
     0
102
RTVSPost2010PropOp35
 70
     1
102
RTVSPost2010Prop36
280
     0
102
RTVSPost2010PropOp36
 70
     1
102
RTVSPost2010Prop37
 90
       50
102
RTVSPost2010PropOp37
 70
     1
102
RTVSPost2010Prop38
140
0.0
102
RTVSPost2010PropOp38
 70
     1
102
RTVSPost2010Prop39
140
1.0
102
RTVSPost2010PropOp39
 70
     1
102
RTVSPost2010Prop40
 90
        0
102
RTVSPost2010PropOp40
 70
     1
102
RTVSPost2010Prop41ColorIndex
 90
       18
102
RTVSPost2010Prop41ColorRGB
 90
        0
102
RTVSPost2010PropOp41
 70
     1
102
RTVSPost2010Prop42
 90
       50
102
RTVSPost2010PropOp42
 70
     1
102
RTVSPost2010Prop43
 90
        3
102
RTVSPost2010PropOp43
 70
     1
102
RTVSPost2010Prop44ColorIndex
 90
        5
102
RTVSPost2010Prop44ColorRGB
 90
      255
102
RTVSPost2010PropOp44
 70
     1
102
RTVSPost2010Prop45
280
     0
102
RTVSPost2010PropOp45
 70
     1
102
RTVSPost2010Prop46
 90
       50
102
RTVSPost2010PropOp46
 70
     1
102
RTVSPost2010Prop47
 90
       50
102
RTVSPost2010PropOp47
 70
     1
102
RTVSPost2010Prop48
 90
       50
102
RTVSPost2010PropOp48
 70
     1
102
RTVSPost2010Prop49
280
     0
102
RTVSPost2010PropOp49
 70
     1
102
RTVSPost2010Prop50
 90
       50
102
RTVSPost2010PropOp50
 70
     1
102
RTVSPost2010Prop51ColorIndex
 90
      256
102
RTVSPost2010Prop51ColorRGB
 90
-16777216
102
RTVSPost2010PropOp51
 70
     0
102
RTVSPost2010Prop52
140
1.0
102
RTVSPost2010PropOp52
 70
     0
102
RTVSPost2010Prop53
 90
        2
102
RTVSPost2010PropOp53
 70
     1
102
RTVSPost2010Prop54
  1
strokes_ogs.tif
102
RTVSPost2010PropOp54
 70
     1
102
RTVSPost2010Prop55
280
     0
102
RTVSPost2010PropOp55
 70
     1
102
RTVSPost2010Prop56
140
1.0
102
RTVSPost2010PropOp56
 70
     1
102
RTVSPost2010Prop57
140
1.0
102
RTVSPost2010PropOp57
 70
     1
  0
XRECORD
  5
A37
102
{ACAD_REACTORS
330
A36
102
}
330
A36
100
AcDbXrecord
280
     1
102
RTVSPost2010Prop28
280
     0
102
RTVSPost2010PropOp28
 70
     1
102
RTVSPost2010Prop29
280
     1
102
RTVSPost2010PropOp29
 70
     1
102
RTVSPost2010Prop30
280
     1
102
RTVSPost2010PropOp30
 70
     1
102
RTVSPost2010Prop31
280
     0
102
RTVSPost2010PropOp31
 70
     1
102
RTVSPost2010Prop32
280
     0
102
RTVSPost2010PropOp32
 70
     1
102
RTVSPost2010Prop33
280
     0
102
RTVSPost2010PropOp33
 70
     1
102
RTVSPost2010Prop34
280
     0
102
RTVSPost2010PropOp34
 70
     1
102
RTVSPost2010Prop35
280
     0
102
RTVSPost2010PropOp35
 70
     1
102
RTVSPost2010Prop36
280
     0
102
RTVSPost2010PropOp36
 70
     1
102
RTVSPost2010Prop37
 90
       50
102
RTVSPost2010PropOp37
 70
     1
102
RTVSPost2010Prop38
140
0.0
102
RTVSPost2010PropOp38
 70
     1
102
RTVSPost2010Prop39
140
1.0
102
RTVSPost2010PropOp39
 70
     1
102
RTVSPost2010Prop40
 90
        0
102
RTVSPost2010PropOp40
 70
     1
102
RTVSPost2010Prop41ColorIndex
 90
       18
102
RTVSPost2010Prop41ColorRGB
 90
        0
102
RTVSPost2010PropOp41
 70
     1
102
RTVSPost2010Prop42
 90
       50
102
RTVSPost2010PropOp42
 70
     1
102
RTVSPost2010Prop43
 90
        3
102
RTVSPost2010PropOp43
 70
     1
102
RTVSPost2010Prop44ColorIndex
 90
        5
102
RTVSPost2010Prop44ColorRGB
 90
      255
102
RTVSPost2010PropOp44
 70
     1
102
RTVSPost2010Prop45
280
     0
102
RTVSPost2010PropOp45
 70
     1
102
RTVSPost2010Prop46
 90
       50
102
RTVSPost2010PropOp46
 70
     1
102
RTVSPost2010Prop47
 90
       50
102
RTVSPost2010PropOp47
 70
     1
102
RTVSPost2010Prop48
 90
       50
102
RTVSPost2010PropOp48
 70
     1
102
RTVSPost2010Prop49
280
     0
102
RTVSPost2010PropOp49
 70
     1
102
RTVSPost2010Prop50
 90
       50
102
RTVSPost2010PropOp50
 70
     1
102
RTVSPost2010Prop51ColorIndex
 90
      256
102
RTVSPost2010Prop51ColorRGB
 90
-16777216
102
RTVSPost2010PropOp51
 70
     0
102
RTVSPost2010Prop52
140
1.0
102
RTVSPost2010PropOp52
 70
     0
102
RTVSPost2010Prop53
 90
        2
102
RTVSPost2010PropOp53
 70
     1
102
RTVSPost2010Prop54
  1
strokes_ogs.tif
102
RTVSPost2010PropOp54
 70
     1
102
RTVSPost2010Prop55
280
     0
102
RTVSPost2010PropOp55
 70
     1
102
RTVSPost2010Prop56
140
1.0
102
RTVSPost2010PropOp56
 70
     1
102
RTVSPost2010Prop57
140
1.0
102
RTVSPost2010PropOp57
 70
     1
  0
XRECORD
  5
A53
102
{ACAD_REACTORS
330
A52
102
}
330
A52
100
AcDbXrecord
280
     1
102
RTVSPost2010Prop28
280
     0
102
RTVSPost2010PropOp28
 70
     1
102
RTVSPost2010Prop29
280
     1
102
RTVSPost2010PropOp29
 70
     1
102
RTVSPost2010Prop30
280
     1
102
RTVSPost2010PropOp30
 70
     1
102
RTVSPost2010Prop31
280
     0
102
RTVSPost2010PropOp31
 70
     1
102
RTVSPost2010Prop32
280
     0
102
RTVSPost2010PropOp32
 70
     1
102
RTVSPost2010Prop33
280
     0
102
RTVSPost2010PropOp33
 70
     1
102
RTVSPost2010Prop34
280
     0
102
RTVSPost2010PropOp34
 70
     1
102
RTVSPost2010Prop35
280
     0
102
RTVSPost2010PropOp35
 70
     1
102
RTVSPost2010Prop36
280
     0
102
RTVSPost2010PropOp36
 70
     1
102
RTVSPost2010Prop37
 90
       50
102
RTVSPost2010PropOp37
 70
     0
102
RTVSPost2010Prop38
140
0.0
102
RTVSPost2010PropOp38
 70
     0
102
RTVSPost2010Prop39
140
1.0
102
RTVSPost2010PropOp39
 70
     0
102
RTVSPost2010Prop40
 90
        0
102
RTVSPost2010PropOp40
 70
     0
102
RTVSPost2010Prop41ColorIndex
 90
       18
102
RTVSPost2010Prop41ColorRGB
 90
        0
102
RTVSPost2010PropOp41
 70
     0
102
RTVSPost2010Prop42
 90
       50
102
RTVSPost2010PropOp42
 70
     0
102
RTVSPost2010Prop43
 90
        3
102
RTVSPost2010PropOp43
 70
     0
102
RTVSPost2010Prop44ColorIndex
 90
        5
102
RTVSPost2010Prop44ColorRGB
 90
      255
102
RTVSPost2010PropOp44
 70
     0
102
RTVSPost2010Prop45
280
     0
102
RTVSPost2010PropOp45
 70
     1
102
RTVSPost2010Prop46
 90
       50
102
RTVSPost2010PropOp46
 70
     0
102
RTVSPost2010Prop47
 90
       50
102
RTVSPost2010PropOp47
 70
     0
102
RTVSPost2010Prop48
 90
       50
102
RTVSPost2010PropOp48
 70
     0
102
RTVSPost2010Prop49
280
     0
102
RTVSPost2010PropOp49
 70
     1
102
RTVSPost2010Prop50
 90
       50
102
RTVSPost2010PropOp50
 70
     0
102
RTVSPost2010Prop51ColorIndex
 90
      256
102
RTVSPost2010Prop51ColorRGB
 90
-16777216
102
RTVSPost2010PropOp51
 70
     0
102
RTVSPost2010Prop52
140
1.0
102
RTVSPost2010PropOp52
 70
     0
102
RTVSPost2010Prop53
 90
        2
102
RTVSPost2010PropOp53
 70
     0
102
RTVSPost2010Prop54
  1
strokes_ogs.tif
102
RTVSPost2010PropOp54
 70
     0
102
RTVSPost2010Prop55
280
     0
102
RTVSPost2010PropOp55
 70
     1
102
RTVSPost2010Prop56
140
1.0
102
RTVSPost2010PropOp56
 70
     0
102
RTVSPost2010Prop57
140
1.0
102
RTVSPost2010PropOp57
 70
     0
  0
XRECORD
  5
A43
102
{ACAD_REACTORS
330
A42
102
}
330
A42
100
AcDbXrecord
280
     1
102
RTVSPost2010Prop28
280
     0
102
RTVSPost2010PropOp28
 70
     1
102
RTVSPost2010Prop29
280
     1
102
RTVSPost2010PropOp29
 70
     1
102
RTVSPost2010Prop30
280
     1
102
RTVSPost2010PropOp30
 70
     1
102
RTVSPost2010Prop31
280
     0
102
RTVSPost2010PropOp31
 70
     1
102
RTVSPost2010Prop32
280
     0
102
RTVSPost2010PropOp32
 70
     1
102
RTVSPost2010Prop33
280
     0
102
RTVSPost2010PropOp33
 70
     1
102
RTVSPost2010Prop34
280
     0
102
RTVSPost2010PropOp34
 70
     1
102
RTVSPost2010Prop35
280
     0
102
RTVSPost2010PropOp35
 70
     1
102
RTVSPost2010Prop36
280
     0
102
RTVSPost2010PropOp36
 70
     1
102
RTVSPost2010Prop37
 90
       50
102
RTVSPost2010PropOp37
 70
     1
102
RTVSPost2010Prop38
140
0.0
102
RTVSPost2010PropOp38
 70
     1
102
RTVSPost2010Prop39
140
1.0
102
RTVSPost2010PropOp39
 70
     1
102
RTVSPost2010Prop40
 90
        0
102
RTVSPost2010PropOp40
 70
     1
102
RTVSPost2010Prop41ColorIndex
 90
       18
102
RTVSPost2010Prop41ColorRGB
 90
        0
102
RTVSPost2010PropOp41
 70
     1
102
RTVSPost2010Prop42
 90
       50
102
RTVSPost2010PropOp42
 70
     1
102
RTVSPost2010Prop43
 90
        3
102
RTVSPost2010PropOp43
 70
     1
102
RTVSPost2010Prop44ColorIndex
 90
        5
102
RTVSPost2010Prop44ColorRGB
 90
      255
102
RTVSPost2010PropOp44
 70
     1
102
RTVSPost2010Prop45
280
     0
102
RTVSPost2010PropOp45
 70
     1
102
RTVSPost2010Prop46
 90
       50
102
RTVSPost2010PropOp46
 70
     1
102
RTVSPost2010Prop47
 90
       50
102
RTVSPost2010PropOp47
 70
     1
102
RTVSPost2010Prop48
 90
       50
102
RTVSPost2010PropOp48
 70
     1
102
RTVSPost2010Prop49
280
     0
102
RTVSPost2010PropOp49
 70
     1
102
RTVSPost2010Prop50
 90
       50
102
RTVSPost2010PropOp50
 70
     1
102
RTVSPost2010Prop51ColorIndex
 90
      256
102
RTVSPost2010Prop51ColorRGB
 90
-16777216
102
RTVSPost2010PropOp51
 70
     0
102
RTVSPost2010Prop52
140
1.0
102
RTVSPost2010PropOp52
 70
     0
102
RTVSPost2010Prop53
 90
        2
102
RTVSPost2010PropOp53
 70
     1
102
RTVSPost2010Prop54
  1
strokes_ogs.tif
102
RTVSPost2010PropOp54
 70
     1
102
RTVSPost2010Prop55
280
     0
102
RTVSPost2010PropOp55
 70
     1
102
RTVSPost2010Prop56
140
1.0
102
RTVSPost2010PropOp56
 70
     1
102
RTVSPost2010Prop57
140
1.0
102
RTVSPost2010PropOp57
 70
     1
  0
XRECORD
  5
A55
102
{ACAD_REACTORS
330
A54
102
}
330
A54
100
AcDbXrecord
280
     1
102
RTVSPost2010Prop28
280
     0
102
RTVSPost2010PropOp28
 70
     1
102
RTVSPost2010Prop29
280
     1
102
RTVSPost2010PropOp29
 70
     1
102
RTVSPost2010Prop30
280
     1
102
RTVSPost2010PropOp30
 70
     1
102
RTVSPost2010Prop31
280
     0
102
RTVSPost2010PropOp31
 70
     1
102
RTVSPost2010Prop32
280
     0
102
RTVSPost2010PropOp32
 70
     1
102
RTVSPost2010Prop33
280
     0
102
RTVSPost2010PropOp33
 70
     1
102
RTVSPost2010Prop34
280
     0
102
RTVSPost2010PropOp34
 70
     1
102
RTVSPost2010Prop35
280
     0
102
RTVSPost2010PropOp35
 70
     1
102
RTVSPost2010Prop36
280
     0
102
RTVSPost2010PropOp36
 70
     1
102
RTVSPost2010Prop37
 90
       50
102
RTVSPost2010PropOp37
 70
     0
102
RTVSPost2010Prop38
140
0.0
102
RTVSPost2010PropOp38
 70
     0
102
RTVSPost2010Prop39
140
1.0
102
RTVSPost2010PropOp39
 70
     0
102
RTVSPost2010Prop40
 90
        0
102
RTVSPost2010PropOp40
 70
     0
102
RTVSPost2010Prop41ColorIndex
 90
       18
102
RTVSPost2010Prop41ColorRGB
 90
        0
102
RTVSPost2010PropOp41
 70
     0
102
RTVSPost2010Prop42
 90
       50
102
RTVSPost2010PropOp42
 70
     0
102
RTVSPost2010Prop43
 90
        3
102
RTVSPost2010PropOp43
 70
     0
102
RTVSPost2010Prop44ColorIndex
 90
        5
102
RTVSPost2010Prop44ColorRGB
 90
      255
102
RTVSPost2010PropOp44
 70
     0
102
RTVSPost2010Prop45
280
     0
102
RTVSPost2010PropOp45
 70
     1
102
RTVSPost2010Prop46
 90
       50
102
RTVSPost2010PropOp46
 70
     0
102
RTVSPost2010Prop47
 90
       50
102
RTVSPost2010PropOp47
 70
     0
102
RTVSPost2010Prop48
 90
       50
102
RTVSPost2010PropOp48
 70
     0
102
RTVSPost2010Prop49
280
     0
102
RTVSPost2010PropOp49
 70
     1
102
RTVSPost2010Prop50
 90
       50
102
RTVSPost2010PropOp50
 70
     0
102
RTVSPost2010Prop51ColorIndex
 90
      256
102
RTVSPost2010Prop51ColorRGB
 90
-16777216
102
RTVSPost2010PropOp51
 70
     0
102
RTVSPost2010Prop52
140
1.0
102
RTVSPost2010PropOp52
 70
     0
102
RTVSPost2010Prop53
 90
        2
102
RTVSPost2010PropOp53
 70
     0
102
RTVSPost2010Prop54
  1
strokes_ogs.tif
102
RTVSPost2010PropOp54
 70
     0
102
RTVSPost2010Prop55
280
     0
102
RTVSPost2010PropOp55
 70
     1
102
RTVSPost2010Prop56
140
1.0
102
RTVSPost2010PropOp56
 70
     0
102
RTVSPost2010Prop57
140
1.0
102
RTVSPost2010PropOp57
 70
     0
  0
XRECORD
  5
A3B
102
{ACAD_REACTORS
330
A3A
102
}
330
A3A
100
AcDbXrecord
280
     1
102
RTVSPost2010Prop28
280
     0
102
RTVSPost2010PropOp28
 70
     1
102
RTVSPost2010Prop29
280
     1
102
RTVSPost2010PropOp29
 70
     1
102
RTVSPost2010Prop30
280
     1
102
RTVSPost2010PropOp30
 70
     1
102
RTVSPost2010Prop31
280
     0
102
RTVSPost2010PropOp31
 70
     1
102
RTVSPost2010Prop32
280
     0
102
RTVSPost2010PropOp32
 70
     1
102
RTVSPost2010Prop33
280
     0
102
RTVSPost2010PropOp33
 70
     1
102
RTVSPost2010Prop34
280
     0
102
RTVSPost2010PropOp34
 70
     1
102
RTVSPost2010Prop35
280
     0
102
RTVSPost2010PropOp35
 70
     1
102
RTVSPost2010Prop36
280
     0
102
RTVSPost2010PropOp36
 70
     1
102
RTVSPost2010Prop37
 90
       50
102
RTVSPost2010PropOp37
 70
     1
102
RTVSPost2010Prop38
140
0.0
102
RTVSPost2010PropOp38
 70
     1
102
RTVSPost2010Prop39
140
1.0
102
RTVSPost2010PropOp39
 70
     1
102
RTVSPost2010Prop40
 90
        0
102
RTVSPost2010PropOp40
 70
     1
102
RTVSPost2010Prop41ColorIndex
 90
       18
102
RTVSPost2010Prop41ColorRGB
 90
        0
102
RTVSPost2010PropOp41
 70
     1
102
RTVSPost2010Prop42
 90
       50
102
RTVSPost2010PropOp42
 70
     1
102
RTVSPost2010Prop43
 90
        3
102
RTVSPost2010PropOp43
 70
     1
102
RTVSPost2010Prop44ColorIndex
 90
        5
102
RTVSPost2010Prop44ColorRGB
 90
      255
102
RTVSPost2010PropOp44
 70
     1
102
RTVSPost2010Prop45
280
     0
102
RTVSPost2010PropOp45
 70
     1
102
RTVSPost2010Prop46
 90
       50
102
RTVSPost2010PropOp46
 70
     1
102
RTVSPost2010Prop47
 90
       50
102
RTVSPost2010PropOp47
 70
     1
102
RTVSPost2010Prop48
 90
       50
102
RTVSPost2010PropOp48
 70
     1
102
RTVSPost2010Prop49
280
     0
102
RTVSPost2010PropOp49
 70
     1
102
RTVSPost2010Prop50
 90
       50
102
RTVSPost2010PropOp50
 70
     1
102
RTVSPost2010Prop51ColorIndex
 90
      256
102
RTVSPost2010Prop51ColorRGB
 90
-16777216
102
RTVSPost2010PropOp51
 70
     0
102
RTVSPost2010Prop52
140
1.0
102
RTVSPost2010PropOp52
 70
     0
102
RTVSPost2010Prop53
 90
        2
102
RTVSPost2010PropOp53
 70
     1
102
RTVSPost2010Prop54
  1
strokes_ogs.tif
102
RTVSPost2010PropOp54
 70
     1
102
RTVSPost2010Prop55
280
     0
102
RTVSPost2010PropOp55
 70
     1
102
RTVSPost2010Prop56
140
1.0
102
RTVSPost2010PropOp56
 70
     1
102
RTVSPost2010Prop57
140
1.0
102
RTVSPost2010PropOp57
 70
     1
  0
XRECORD
  5
A51
102
{ACAD_REACTORS
330
A50
102
}
330
A50
100
AcDbXrecord
280
     1
102
RTVSPost2010Prop28
280
     0
102
RTVSPost2010PropOp28
 70
     1
102
RTVSPost2010Prop29
280
     1
102
RTVSPost2010PropOp29
 70
     1
102
RTVSPost2010Prop30
280
     1
102
RTVSPost2010PropOp30
 70
     1
102
RTVSPost2010Prop31
280
     0
102
RTVSPost2010PropOp31
 70
     1
102
RTVSPost2010Prop32
280
     0
102
RTVSPost2010PropOp32
 70
     1
102
RTVSPost2010Prop33
280
     0
102
RTVSPost2010PropOp33
 70
     1
102
RTVSPost2010Prop34
280
     0
102
RTVSPost2010PropOp34
 70
     1
102
RTVSPost2010Prop35
280
     0
102
RTVSPost2010PropOp35
 70
     1
102
RTVSPost2010Prop36
280
     0
102
RTVSPost2010PropOp36
 70
     1
102
RTVSPost2010Prop37
 90
       50
102
RTVSPost2010PropOp37
 70
     1
102
RTVSPost2010Prop38
140
0.0
102
RTVSPost2010PropOp38
 70
     1
102
RTVSPost2010Prop39
140
1.0
102
RTVSPost2010PropOp39
 70
     1
102
RTVSPost2010Prop40
 90
        0
102
RTVSPost2010PropOp40
 70
     1
102
RTVSPost2010Prop41ColorIndex
 90
       18
102
RTVSPost2010Prop41ColorRGB
 90
        0
102
RTVSPost2010PropOp41
 70
     1
102
RTVSPost2010Prop42
 90
       50
102
RTVSPost2010PropOp42
 70
     1
102
RTVSPost2010Prop43
 90
        3
102
RTVSPost2010PropOp43
 70
     1
102
RTVSPost2010Prop44ColorIndex
 90
        5
102
RTVSPost2010Prop44ColorRGB
 90
      255
102
RTVSPost2010PropOp44
 70
     1
102
RTVSPost2010Prop45
280
     0
102
RTVSPost2010PropOp45
 70
     1
102
RTVSPost2010Prop46
 90
       50
102
RTVSPost2010PropOp46
 70
     1
102
RTVSPost2010Prop47
 90
       50
102
RTVSPost2010PropOp47
 70
     1
102
RTVSPost2010Prop48
 90
       50
102
RTVSPost2010PropOp48
 70
     1
102
RTVSPost2010Prop49
280
     0
102
RTVSPost2010PropOp49
 70
     1
102
RTVSPost2010Prop50
 90
       50
102
RTVSPost2010PropOp50
 70
     1
102
RTVSPost2010Prop51ColorIndex
 90
      256
102
RTVSPost2010Prop51ColorRGB
 90
-16777216
102
RTVSPost2010PropOp51
 70
     0
102
RTVSPost2010Prop52
140
1.0
102
RTVSPost2010PropOp52
 70
     0
102
RTVSPost2010Prop53
 90
        2
102
RTVSPost2010PropOp53
 70
     1
102
RTVSPost2010Prop54
  1
strokes_ogs.tif
102
RTVSPost2010PropOp54
 70
     1
102
RTVSPost2010Prop55
280
     0
102
RTVSPost2010PropOp55
 70
     1
102
RTVSPost2010Prop56
140
1.0
102
RTVSPost2010PropOp56
 70
     1
102
RTVSPost2010Prop57
140
1.0
102
RTVSPost2010PropOp57
 70
     1
  0
XRECORD
  5
A4F
102
{ACAD_REACTORS
330
A4E
102
}
330
A4E
100
AcDbXrecord
280
     1
102
RTVSPost2010Prop28
280
     0
102
RTVSPost2010PropOp28
 70
     1
102
RTVSPost2010Prop29
280
     1
102
RTVSPost2010PropOp29
 70
     1
102
RTVSPost2010Prop30
280
     1
102
RTVSPost2010PropOp30
 70
     1
102
RTVSPost2010Prop31
280
     0
102
RTVSPost2010PropOp31
 70
     1
102
RTVSPost2010Prop32
280
     0
102
RTVSPost2010PropOp32
 70
     1
102
RTVSPost2010Prop33
280
     0
102
RTVSPost2010PropOp33
 70
     1
102
RTVSPost2010Prop34
280
     0
102
RTVSPost2010PropOp34
 70
     1
102
RTVSPost2010Prop35
280
     0
102
RTVSPost2010PropOp35
 70
     1
102
RTVSPost2010Prop36
280
     0
102
RTVSPost2010PropOp36
 70
     1
102
RTVSPost2010Prop37
 90
       50
102
RTVSPost2010PropOp37
 70
     1
102
RTVSPost2010Prop38
140
0.0
102
RTVSPost2010PropOp38
 70
     1
102
RTVSPost2010Prop39
140
1.0
102
RTVSPost2010PropOp39
 70
     1
102
RTVSPost2010Prop40
 90
        0
102
RTVSPost2010PropOp40
 70
     1
102
RTVSPost2010Prop41ColorIndex
 90
       18
102
RTVSPost2010Prop41ColorRGB
 90
        0
102
RTVSPost2010PropOp41
 70
     1
102
RTVSPost2010Prop42
 90
       50
102
RTVSPost2010PropOp42
 70
     1
102
RTVSPost2010Prop43
 90
        3
102
RTVSPost2010PropOp43
 70
     1
102
RTVSPost2010Prop44ColorIndex
 90
        5
102
RTVSPost2010Prop44ColorRGB
 90
      255
102
RTVSPost2010PropOp44
 70
     1
102
RTVSPost2010Prop45
280
     0
102
RTVSPost2010PropOp45
 70
     1
102
RTVSPost2010Prop46
 90
       50
102
RTVSPost2010PropOp46
 70
     1
102
RTVSPost2010Prop47
 90
       50
102
RTVSPost2010PropOp47
 70
     1
102
RTVSPost2010Prop48
 90
       50
102
RTVSPost2010PropOp48
 70
     1
102
RTVSPost2010Prop49
280
     0
102
RTVSPost2010PropOp49
 70
     1
102
RTVSPost2010Prop50
 90
       50
102
RTVSPost2010PropOp50
 70
     1
102
RTVSPost2010Prop51ColorIndex
 90
      256
102
RTVSPost2010Prop51ColorRGB
 90
-16777216
102
RTVSPost2010PropOp51
 70
     0
102
RTVSPost2010Prop52
140
1.0
102
RTVSPost2010PropOp52
 70
     0
102
RTVSPost2010Prop53
 90
        2
102
RTVSPost2010PropOp53
 70
     1
102
RTVSPost2010Prop54
  1
strokes_ogs.tif
102
RTVSPost2010PropOp54
 70
     1
102
RTVSPost2010Prop55
280
     0
102
RTVSPost2010PropOp55
 70
     1
102
RTVSPost2010Prop56
140
1.0
102
RTVSPost2010PropOp56
 70
     1
102
RTVSPost2010Prop57
140
1.0
102
RTVSPost2010PropOp57
 70
     1
  0
XRECORD
  5
A49
102
{ACAD_REACTORS
330
A48
102
}
330
A48
100
AcDbXrecord
280
     1
102
RTVSPost2010Prop28
280
     0
102
RTVSPost2010PropOp28
 70
     1
102
RTVSPost2010Prop29
280
     1
102
RTVSPost2010PropOp29
 70
     1
102
RTVSPost2010Prop30
280
     1
102
RTVSPost2010PropOp30
 70
     1
102
RTVSPost2010Prop31
280
     0
102
RTVSPost2010PropOp31
 70
     1
102
RTVSPost2010Prop32
280
     0
102
RTVSPost2010PropOp32
 70
     1
102
RTVSPost2010Prop33
280
     0
102
RTVSPost2010PropOp33
 70
     1
102
RTVSPost2010Prop34
280
     0
102
RTVSPost2010PropOp34
 70
     1
102
RTVSPost2010Prop35
280
     0
102
RTVSPost2010PropOp35
 70
     1
102
RTVSPost2010Prop36
280
     0
102
RTVSPost2010PropOp36
 70
     1
102
RTVSPost2010Prop37
 90
       50
102
RTVSPost2010PropOp37
 70
     1
102
RTVSPost2010Prop38
140
0.0
102
RTVSPost2010PropOp38
 70
     1
102
RTVSPost2010Prop39
140
1.0
102
RTVSPost2010PropOp39
 70
     1
102
RTVSPost2010Prop40
 90
        0
102
RTVSPost2010PropOp40
 70
     1
102
RTVSPost2010Prop41ColorIndex
 90
       18
102
RTVSPost2010Prop41ColorRGB
 90
        0
102
RTVSPost2010PropOp41
 70
     1
102
RTVSPost2010Prop42
 90
       50
102
RTVSPost2010PropOp42
 70
     1
102
RTVSPost2010Prop43
 90
        3
102
RTVSPost2010PropOp43
 70
     1
102
RTVSPost2010Prop44ColorIndex
 90
        5
102
RTVSPost2010Prop44ColorRGB
 90
      255
102
RTVSPost2010PropOp44
 70
     1
102
RTVSPost2010Prop45
280
     0
102
RTVSPost2010PropOp45
 70
     1
102
RTVSPost2010Prop46
 90
       50
102
RTVSPost2010PropOp46
 70
     1
102
RTVSPost2010Prop47
 90
       50
102
RTVSPost2010PropOp47
 70
     1
102
RTVSPost2010Prop48
 90
       50
102
RTVSPost2010PropOp48
 70
     1
102
RTVSPost2010Prop49
280
     0
102
RTVSPost2010PropOp49
 70
     1
102
RTVSPost2010Prop50
 90
       50
102
RTVSPost2010PropOp50
 70
     1
102
RTVSPost2010Prop51ColorIndex
 90
      256
102
RTVSPost2010Prop51ColorRGB
 90
-16777216
102
RTVSPost2010PropOp51
 70
     0
102
RTVSPost2010Prop52
140
1.0
102
RTVSPost2010PropOp52
 70
     0
102
RTVSPost2010Prop53
 90
        2
102
RTVSPost2010PropOp53
 70
     1
102
RTVSPost2010Prop54
  1
strokes_ogs.tif
102
RTVSPost2010PropOp54
 70
     1
102
RTVSPost2010Prop55
280
     0
102
RTVSPost2010PropOp55
 70
     1
102
RTVSPost2010Prop56
140
1.0
102
RTVSPost2010PropOp56
 70
     1
102
RTVSPost2010Prop57
140
1.0
102
RTVSPost2010PropOp57
 70
     1
  0
XRECORD
  5
A4B
102
{ACAD_REACTORS
330
A4A
102
}
330
A4A
100
AcDbXrecord
280
     1
102
RTVSPost2010Prop28
280
     0
102
RTVSPost2010PropOp28
 70
     1
102
RTVSPost2010Prop29
280
     1
102
RTVSPost2010PropOp29
 70
     1
102
RTVSPost2010Prop30
280
     1
102
RTVSPost2010PropOp30
 70
     1
102
RTVSPost2010Prop31
280
     0
102
RTVSPost2010PropOp31
 70
     1
102
RTVSPost2010Prop32
280
     0
102
RTVSPost2010PropOp32
 70
     1
102
RTVSPost2010Prop33
280
     0
102
RTVSPost2010PropOp33
 70
     1
102
RTVSPost2010Prop34
280
     0
102
RTVSPost2010PropOp34
 70
     1
102
RTVSPost2010Prop35
280
     0
102
RTVSPost2010PropOp35
 70
     1
102
RTVSPost2010Prop36
280
     0
102
RTVSPost2010PropOp36
 70
     1
102
RTVSPost2010Prop37
 90
       50
102
RTVSPost2010PropOp37
 70
     1
102
RTVSPost2010Prop38
140
0.0
102
RTVSPost2010PropOp38
 70
     1
102
RTVSPost2010Prop39
140
1.0
102
RTVSPost2010PropOp39
 70
     1
102
RTVSPost2010Prop40
 90
        0
102
RTVSPost2010PropOp40
 70
     1
102
RTVSPost2010Prop41ColorIndex
 90
       18
102
RTVSPost2010Prop41ColorRGB
 90
        0
102
RTVSPost2010PropOp41
 70
     1
102
RTVSPost2010Prop42
 90
       50
102
RTVSPost2010PropOp42
 70
     1
102
RTVSPost2010Prop43
 90
        3
102
RTVSPost2010PropOp43
 70
     1
102
RTVSPost2010Prop44ColorIndex
 90
        5
102
RTVSPost2010Prop44ColorRGB
 90
      255
102
RTVSPost2010PropOp44
 70
     1
102
RTVSPost2010Prop45
280
     0
102
RTVSPost2010PropOp45
 70
     1
102
RTVSPost2010Prop46
 90
       50
102
RTVSPost2010PropOp46
 70
     1
102
RTVSPost2010Prop47
 90
       50
102
RTVSPost2010PropOp47
 70
     1
102
RTVSPost2010Prop48
 90
       50
102
RTVSPost2010PropOp48
 70
     1
102
RTVSPost2010Prop49
280
     0
102
RTVSPost2010PropOp49
 70
     1
102
RTVSPost2010Prop50
 90
       50
102
RTVSPost2010PropOp50
 70
     1
102
RTVSPost2010Prop51ColorIndex
 90
      256
102
RTVSPost2010Prop51ColorRGB
 90
-16777216
102
RTVSPost2010PropOp51
 70
     0
102
RTVSPost2010Prop52
140
1.0
102
RTVSPost2010PropOp52
 70
     0
102
RTVSPost2010Prop53
 90
        2
102
RTVSPost2010PropOp53
 70
     1
102
RTVSPost2010Prop54
  1
strokes_ogs.tif
102
RTVSPost2010PropOp54
 70
     1
102
RTVSPost2010Prop55
280
     0
102
RTVSPost2010PropOp55
 70
     1
102
RTVSPost2010Prop56
140
1.0
102
RTVSPost2010PropOp56
 70
     1
102
RTVSPost2010Prop57
140
1.0
102
RTVSPost2010PropOp57
 70
     1
  0
XRECORD
  5
A41
102
{ACAD_REACTORS
330
A40
102
}
330
A40
100
AcDbXrecord
280
     1
102
RTVSPost2010Prop28
280
     0
102
RTVSPost2010PropOp28
 70
     1
102
RTVSPost2010Prop29
280
     1
102
RTVSPost2010PropOp29
 70
     1
102
RTVSPost2010Prop30
280
     1
102
RTVSPost2010PropOp30
 70
     1
102
RTVSPost2010Prop31
280
     0
102
RTVSPost2010PropOp31
 70
     1
102
RTVSPost2010Prop32
280
     0
102
RTVSPost2010PropOp32
 70
     1
102
RTVSPost2010Prop33
280
     0
102
RTVSPost2010PropOp33
 70
     1
102
RTVSPost2010Prop34
280
     0
102
RTVSPost2010PropOp34
 70
     1
102
RTVSPost2010Prop35
280
     0
102
RTVSPost2010PropOp35
 70
     1
102
RTVSPost2010Prop36
280
     0
102
RTVSPost2010PropOp36
 70
     1
102
RTVSPost2010Prop37
 90
       50
102
RTVSPost2010PropOp37
 70
     1
102
RTVSPost2010Prop38
140
0.0
102
RTVSPost2010PropOp38
 70
     1
102
RTVSPost2010Prop39
140
1.0
102
RTVSPost2010PropOp39
 70
     1
102
RTVSPost2010Prop40
 90
        0
102
RTVSPost2010PropOp40
 70
     1
102
RTVSPost2010Prop41ColorIndex
 90
       18
102
RTVSPost2010Prop41ColorRGB
 90
        0
102
RTVSPost2010PropOp41
 70
     1
102
RTVSPost2010Prop42
 90
       50
102
RTVSPost2010PropOp42
 70
     1
102
RTVSPost2010Prop43
 90
        3
102
RTVSPost2010PropOp43
 70
     1
102
RTVSPost2010Prop44ColorIndex
 90
        5
102
RTVSPost2010Prop44ColorRGB
 90
      255
102
RTVSPost2010PropOp44
 70
     1
102
RTVSPost2010Prop45
280
     0
102
RTVSPost2010PropOp45
 70
     1
102
RTVSPost2010Prop46
 90
       50
102
RTVSPost2010PropOp46
 70
     1
102
RTVSPost2010Prop47
 90
       50
102
RTVSPost2010PropOp47
 70
     1
102
RTVSPost2010Prop48
 90
       50
102
RTVSPost2010PropOp48
 70
     1
102
RTVSPost2010Prop49
280
     0
102
RTVSPost2010PropOp49
 70
     1
102
RTVSPost2010Prop50
 90
       50
102
RTVSPost2010PropOp50
 70
     1
102
RTVSPost2010Prop51ColorIndex
 90
      256
102
RTVSPost2010Prop51ColorRGB
 90
-16777216
102
RTVSPost2010PropOp51
 70
     0
102
RTVSPost2010Prop52
140
1.0
102
RTVSPost2010PropOp52
 70
     0
102
RTVSPost2010Prop53
 90
        2
102
RTVSPost2010PropOp53
 70
     1
102
RTVSPost2010Prop54
  1
strokes_ogs.tif
102
RTVSPost2010PropOp54
 70
     1
102
RTVSPost2010Prop55
280
     0
102
RTVSPost2010PropOp55
 70
     1
102
RTVSPost2010Prop56
140
1.0
102
RTVSPost2010PropOp56
 70
     1
102
RTVSPost2010Prop57
140
1.0
102
RTVSPost2010PropOp57
 70
     1
  0
XRECORD
  5
A35
102
{ACAD_REACTORS
330
A34
102
}
330
A34
100
AcDbXrecord
280
     1
102
RTVSPost2010Prop28
280
     0
102
RTVSPost2010PropOp28
 70
     1
102
RTVSPost2010Prop29
280
     1
102
RTVSPost2010PropOp29
 70
     1
102
RTVSPost2010Prop30
280
     1
102
RTVSPost2010PropOp30
 70
     1
102
RTVSPost2010Prop31
280
     0
102
RTVSPost2010PropOp31
 70
     1
102
RTVSPost2010Prop32
280
     0
102
RTVSPost2010PropOp32
 70
     1
102
RTVSPost2010Prop33
280
     0
102
RTVSPost2010PropOp33
 70
     1
102
RTVSPost2010Prop34
280
     0
102
RTVSPost2010PropOp34
 70
     1
102
RTVSPost2010Prop35
280
     0
102
RTVSPost2010PropOp35
 70
     1
102
RTVSPost2010Prop36
280
     0
102
RTVSPost2010PropOp36
 70
     1
102
RTVSPost2010Prop37
 90
       50
102
RTVSPost2010PropOp37
 70
     1
102
RTVSPost2010Prop38
140
0.0
102
RTVSPost2010PropOp38
 70
     1
102
RTVSPost2010Prop39
140
1.0
102
RTVSPost2010PropOp39
 70
     1
102
RTVSPost2010Prop40
 90
        0
102
RTVSPost2010PropOp40
 70
     1
102
RTVSPost2010Prop41ColorIndex
 90
       18
102
RTVSPost2010Prop41ColorRGB
 90
        0
102
RTVSPost2010PropOp41
 70
     1
102
RTVSPost2010Prop42
 90
       50
102
RTVSPost2010PropOp42
 70
     1
102
RTVSPost2010Prop43
 90
        3
102
RTVSPost2010PropOp43
 70
     1
102
RTVSPost2010Prop44ColorIndex
 90
        5
102
RTVSPost2010Prop44ColorRGB
 90
      255
102
RTVSPost2010PropOp44
 70
     1
102
RTVSPost2010Prop45
280
     0
102
RTVSPost2010PropOp45
 70
     1
102
RTVSPost2010Prop46
 90
       50
102
RTVSPost2010PropOp46
 70
     1
102
RTVSPost2010Prop47
 90
       50
102
RTVSPost2010PropOp47
 70
     1
102
RTVSPost2010Prop48
 90
       50
102
RTVSPost2010PropOp48
 70
     1
102
RTVSPost2010Prop49
280
     0
102
RTVSPost2010PropOp49
 70
     1
102
RTVSPost2010Prop50
 90
       50
102
RTVSPost2010PropOp50
 70
     1
102
RTVSPost2010Prop51ColorIndex
 90
      256
102
RTVSPost2010Prop51ColorRGB
 90
-16777216
102
RTVSPost2010PropOp51
 70
     0
102
RTVSPost2010Prop52
140
1.0
102
RTVSPost2010PropOp52
 70
     0
102
RTVSPost2010Prop53
 90
        2
102
RTVSPost2010PropOp53
 70
     1
102
RTVSPost2010Prop54
  1
strokes_ogs.tif
102
RTVSPost2010PropOp54
 70
     1
102
RTVSPost2010Prop55
280
     0
102
RTVSPost2010PropOp55
 70
     1
102
RTVSPost2010Prop56
140
1.0
102
RTVSPost2010PropOp56
 70
     1
102
RTVSPost2010Prop57
140
1.0
102
RTVSPost2010PropOp57
 70
     1
  0
XRECORD
  5
A4D
102
{ACAD_REACTORS
330
A4C
102
}
330
A4C
100
AcDbXrecord
280
     1
102
RTVSPost2010Prop28
280
     0
102
RTVSPost2010PropOp28
 70
     1
102
RTVSPost2010Prop29
280
     1
102
RTVSPost2010PropOp29
 70
     1
102
RTVSPost2010Prop30
280
     1
102
RTVSPost2010PropOp30
 70
     1
102
RTVSPost2010Prop31
280
     0
102
RTVSPost2010PropOp31
 70
     1
102
RTVSPost2010Prop32
280
     0
102
RTVSPost2010PropOp32
 70
     1
102
RTVSPost2010Prop33
280
     0
102
RTVSPost2010PropOp33
 70
     1
102
RTVSPost2010Prop34
280
     0
102
RTVSPost2010PropOp34
 70
     1
102
RTVSPost2010Prop35
280
     0
102
RTVSPost2010PropOp35
 70
     1
102
RTVSPost2010Prop36
280
     0
102
RTVSPost2010PropOp36
 70
     1
102
RTVSPost2010Prop37
 90
       50
102
RTVSPost2010PropOp37
 70
     1
102
RTVSPost2010Prop38
140
0.0
102
RTVSPost2010PropOp38
 70
     1
102
RTVSPost2010Prop39
140
1.0
102
RTVSPost2010PropOp39
 70
     1
102
RTVSPost2010Prop40
 90
        0
102
RTVSPost2010PropOp40
 70
     1
102
RTVSPost2010Prop41ColorIndex
 90
       18
102
RTVSPost2010Prop41ColorRGB
 90
        0
102
RTVSPost2010PropOp41
 70
     1
102
RTVSPost2010Prop42
 90
       50
102
RTVSPost2010PropOp42
 70
     1
102
RTVSPost2010Prop43
 90
        3
102
RTVSPost2010PropOp43
 70
     1
102
RTVSPost2010Prop44ColorIndex
 90
        5
102
RTVSPost2010Prop44ColorRGB
 90
      255
102
RTVSPost2010PropOp44
 70
     1
102
RTVSPost2010Prop45
280
     0
102
RTVSPost2010PropOp45
 70
     1
102
RTVSPost2010Prop46
 90
       50
102
RTVSPost2010PropOp46
 70
     1
102
RTVSPost2010Prop47
 90
       50
102
RTVSPost2010PropOp47
 70
     1
102
RTVSPost2010Prop48
 90
       50
102
RTVSPost2010PropOp48
 70
     1
102
RTVSPost2010Prop49
280
     0
102
RTVSPost2010PropOp49
 70
     1
102
RTVSPost2010Prop50
 90
       50
102
RTVSPost2010PropOp50
 70
     1
102
RTVSPost2010Prop51ColorIndex
 90
      256
102
RTVSPost2010Prop51ColorRGB
 90
-16777216
102
RTVSPost2010PropOp51
 70
     0
102
RTVSPost2010Prop52
140
1.0
102
RTVSPost2010PropOp52
 70
     0
102
RTVSPost2010Prop53
 90
        2
102
RTVSPost2010PropOp53
 70
     1
102
RTVSPost2010Prop54
  1
strokes_ogs.tif
102
RTVSPost2010PropOp54
 70
     1
102
RTVSPost2010Prop55
280
     0
102
RTVSPost2010PropOp55
 70
     1
102
RTVSPost2010Prop56
140
1.0
102
RTVSPost2010PropOp56
 70
     1
102
RTVSPost2010Prop57
140
1.0
102
RTVSPost2010PropOp57
 70
     1
  0
ENDSEC
  0
EOF
