  0
SECTION
  2
HEADER
  9
$ACADVER
  1
AC1024
  9
$ACADMAINTVER
 70
   109
  9
$DWGCODEPAGE
  3
ANSI_1252
  9
$LASTSAVEDBY
  1
kaschu
  9
$INSBASE
 10
0.0
 20
0.0
 30
0.0
  9
$EXTMIN
 10
152.9812029713757
 20
-186.3695852343614
 30
-0.0000000000000023
  9
$EXTMAX
 10
1695.736737761375
 20
1818.124439823552
 30
0.0000000000000012
  9
$LIMMIN
 10
0.0
 20
0.0
  9
$LIMMAX
 10
12.0
 20
9.0
  9
$ORTHOMODE
 70
     1
  9
$REGENMODE
 70
     1
  9
$FILLMODE
 70
     1
  9
$QTEXTMODE
 70
     0
  9
$MIRRTEXT
 70
     1
  9
$LTSCALE
 40
1.0
  9
$ATTMODE
 70
     1
  9
$TEXTSIZE
 40
0.2
  9
$TRACEWID
 40
0.05
  9
$TEXTSTYLE
  7
STANDARD
  9
$CLAYER
  8
0
  9
$CELTYPE
  6
BYLAYER
  9
$CECOLOR
 62
   256
  9
$CELTSCALE
 40
1.0
  9
$DISPSILH
 70
     0
  9
$DIMSCALE
 40
1.0
  9
$DIMASZ
 40
0.18
  9
$DIMEXO
 40
0.0625
  9
$DIMDLI
 40
0.38
  9
$DIMRND
 40
0.0
  9
$DIMDLE
 40
0.0
  9
$DIMEXE
 40
0.18
  9
$DIMTP
 40
0.0
  9
$DIMTM
 40
0.0
  9
$DIMTXT
 40
0.18
  9
$DIMCEN
 40
0.09
  9
$DIMTSZ
 40
0.0
  9
$DIMTOL
 70
     0
  9
$DIMLIM
 70
     0
  9
$DIMTIH
 70
     1
  9
$DIMTOH
 70
     1
  9
$DIMSE1
 70
     0
  9
$DIMSE2
 70
     0
  9
$DIMTAD
 70
     0
  9
$DIMZIN
 70
     0
  9
$DIMBLK
  1

  9
$DIMASO
 70
     1
  9
$DIMSHO
 70
     1
  9
$DIMPOST
  1

  9
$DIMAPOST
  1

  9
$DIMALT
 70
     0
  9
$DIMALTD
 70
     2
  9
$DIMALTF
 40
25.4
  9
$DIMLFAC
 40
1.0
  9
$DIMTOFL
 70
     0
  9
$DIMTVP
 40
0.0
  9
$DIMTIX
 70
     0
  9
$DIMSOXD
 70
     0
  9
$DIMSAH
 70
     0
  9
$DIMBLK1
  1

  9
$DIMBLK2
  1

  9
$DIMSTYLE
  2
STANDARD
  9
$DIMCLRD
 70
     0
  9
$DIMCLRE
 70
     0
  9
$DIMCLRT
 70
     0
  9
$DIMTFAC
 40
1.0
  9
$DIMGAP
 40
0.09
  9
$DIMJUST
 70
     0
  9
$DIMSD1
 70
     0
  9
$DIMSD2
 70
     0
  9
$DIMTOLJ
 70
     1
  9
$DIMTZIN
 70
     0
  9
$DIMALTZ
 70
     0
  9
$DIMALTTZ
 70
     0
  9
$DIMUPT
 70
     0
  9
$DIMDEC
 70
     4
  9
$DIMTDEC
 70
     4
  9
$DIMALTU
 70
     2
  9
$DIMALTTD
 70
     2
  9
$DIMTXSTY
  7
STANDARD
  9
$DIMAUNIT
 70
     0
  9
$DIMADEC
 70
     0
  9
$DIMALTRND
 40
0.0
  9
$DIMAZIN
 70
     0
  9
$DIMDSEP
 70
    46
  9
$DIMATFIT
 70
     3
  9
$DIMFRAC
 70
     0
  9
$DIMLDRBLK
  1

  9
$DIMLUNIT
 70
     2
  9
$DIMLWD
 70
    -2
  9
$DIMLWE
 70
    -2
  9
$DIMTMOVE
 70
     0
  9
$DIMFXL
 40
1.0
  9
$DIMFXLON
 70
     0
  9
$DIMJOGANG
 40
0.7853981633974483
  9
$DIMTFILL
 70
     0
  9
$DIMTFILLCLR
 70
     0
  9
$DIMARCSYM
 70
     0
  9
$DIMLTYPE
  6

  9
$DIMLTEX1
  6

  9
$DIMLTEX2
  6

  9
$DIMTXTDIRECTION
 70
     0
  9
$LUNITS
 70
     2
  9
$LUPREC
 70
     4
  9
$SKETCHINC
 40
0.1
  9
$FILLETRAD
 40
0.5
  9
$AUNITS
 70
     0
  9
$AUPREC
 70
     0
  9
$MENU
  1
.
  9
$ELEVATION
 40
0.0
  9
$PELEVATION
 40
0.0
  9
$THICKNESS
 40
0.0
  9
$LIMCHECK
 70
     0
  9
$CHAMFERA
 40
0.5
  9
$CHAMFERB
 40
0.5
  9
$CHAMFERC
 40
1.0
  9
$CHAMFERD
 40
0.0
  9
$SKPOLY
 70
     0
  9
$TDCREATE
 40
2451762.415066667
  9
$TDUCREATE
 40
2451762.373400000
  9
$TDUPDATE
 40
2458169.486044305
  9
$TDUUPDATE
 40
2458169.444377639
  9
$TDINDWG
 40
0.1966794676
  9
$TDUSRTIMER
 40
0.1966791204
  9
$USRTIMER
 70
     1
  9
$ANGBASE
 50
0.0
  9
$ANGDIR
 70
     0
  9
$PDMODE
 70
     0
  9
$PDSIZE
 40
0.0
  9
$PLINEWID
 40
0.0
  9
$SPLFRAME
 70
     0
  9
$SPLINETYPE
 70
     6
  9
$SPLINESEGS
 70
     8
  9
$HANDSEED
  5
2C28
  9
$SURFTAB1
 70
     6
  9
$SURFTAB2
 70
     6
  9
$SURFTYPE
 70
     6
  9
$SURFU
 70
     6
  9
$SURFV
 70
     6
  9
$UCSBASE
  2

  9
$UCSNAME
  2

  9
$UCSORG
 10
0.0
 20
0.0
 30
0.0
  9
$UCSXDIR
 10
1.0
 20
0.0
 30
0.0
  9
$UCSYDIR
 10
0.0
 20
1.0
 30
0.0
  9
$UCSORTHOREF
  2

  9
$UCSORTHOVIEW
 70
     0
  9
$UCSORGTOP
 10
0.0
 20
0.0
 30
0.0
  9
$UCSORGBOTTOM
 10
0.0
 20
0.0
 30
0.0
  9
$UCSORGLEFT
 10
0.0
 20
0.0
 30
0.0
  9
$UCSORGRIGHT
 10
0.0
 20
0.0
 30
0.0
  9
$UCSORGFRONT
 10
0.0
 20
0.0
 30
0.0
  9
$UCSORGBACK
 10
0.0
 20
0.0
 30
0.0
  9
$PUCSBASE
  2

  9
$PUCSNAME
  2

  9
$PUCSORG
 10
0.0
 20
0.0
 30
0.0
  9
$PUCSXDIR
 10
1.0
 20
0.0
 30
0.0
  9
$PUCSYDIR
 10
0.0
 20
1.0
 30
0.0
  9
$PUCSORTHOREF
  2

  9
$PUCSORTHOVIEW
 70
     0
  9
$PUCSORGTOP
 10
0.0
 20
0.0
 30
0.0
  9
$PUCSORGBOTTOM
 10
0.0
 20
0.0
 30
0.0
  9
$PUCSORGLEFT
 10
0.0
 20
0.0
 30
0.0
  9
$PUCSORGRIGHT
 10
0.0
 20
0.0
 30
0.0
  9
$PUCSORGFRONT
 10
0.0
 20
0.0
 30
0.0
  9
$PUCSORGBACK
 10
0.0
 20
0.0
 30
0.0
  9
$USERI1
 70
     0
  9
$USERI2
 70
     0
  9
$USERI3
 70
     0
  9
$USERI4
 70
     0
  9
$USERI5
 70
     0
  9
$USERR1
 40
0.0
  9
$USERR2
 40
0.0
  9
$USERR3
 40
0.0
  9
$USERR4
 40
0.0
  9
$USERR5
 40
0.0
  9
$WORLDVIEW
 70
     1
  9
$SHADEDGE
 70
     3
  9
$SHADEDIF
 70
    70
  9
$TILEMODE
 70
     1
  9
$MAXACTVP
 70
    64
  9
$PINSBASE
 10
0.0
 20
0.0
 30
0.0
  9
$PLIMCHECK
 70
     0
  9
$PEXTMIN
 10
1.000000000000000E+20
 20
1.000000000000000E+20
 30
1.000000000000000E+20
  9
$PEXTMAX
 10
-1.000000000000000E+20
 20
-1.000000000000000E+20
 30
-1.000000000000000E+20
  9
$PLIMMIN
 10
0.0
 20
0.0
  9
$PLIMMAX
 10
12.0
 20
9.0
  9
$UNITMODE
 70
     0
  9
$VISRETAIN
 70
     1
  9
$PLINEGEN
 70
     0
  9
$PSLTSCALE
 70
     1
  9
$TREEDEPTH
 70
  3020
  9
$CMLSTYLE
  2
STANDARD
  9
$CMLJUST
 70
     0
  9
$CMLSCALE
 40
1.0
  9
$PROXYGRAPHICS
 70
     1
  9
$MEASUREMENT
 70
     0
  9
$CELWEIGHT
370
    -1
  9
$ENDCAPS
280
     0
  9
$JOINSTYLE
280
     0
  9
$LWDISPLAY
290
     0
  9
$INSUNITS
 70
     0
  9
$HYPERLINKBASE
  1

  9
$STYLESHEET
  1

  9
$XEDIT
290
     1
  9
$CEPSNTYPE
380
     0
  9
$PSTYLEMODE
290
     1
  9
$FINGERPRINTGUID
  2
{A42321FD-4D3B-470A-B3BE-A3689E04D828}
  9
$VERSIONGUID
  2
{AA17FC59-ADB3-4FB9-BE48-DEBA9D1A9079}
  9
$EXTNAMES
290
     1
  9
$PSVPSCALE
 40
0.0
  9
$OLESTARTUP
290
     0
  9
$SORTENTS
280
   127
  9
$INDEXCTL
280
     0
  9
$HIDETEXT
280
     0
  9
$XCLIPFRAME
280
     2
  9
$HALOGAP
280
     0
  9
$OBSCOLOR
 70
   257
  9
$OBSLTYPE
280
     0
  9
$INTERSECTIONDISPLAY
280
     0
  9
$INTERSECTIONCOLOR
 70
   257
  9
$DIMASSOC
280
     1
  9
$PROJECTNAME
  1

  9
$CAMERADISPLAY
290
     0
  9
$LENSLENGTH
 40
50.0
  9
$CAMERAHEIGHT
 40
0.0
  9
$STEPSPERSEC
 40
2.0
  9
$STEPSIZE
 40
6.0
  9
$3DDWFPREC
 40
2.0
  9
$PSOLWIDTH
 40
0.25
  9
$PSOLHEIGHT
 40
4.0
  9
$LOFTANG1
 40
1.570796326794896
  9
$LOFTANG2
 40
1.570796326794896
  9
$LOFTMAG1
 40
0.0
  9
$LOFTMAG2
 40
0.0
  9
$LOFTPARAM
 70
     7
  9
$LOFTNORMALS
280
     1
  9
$LATITUDE
 40
37.795
  9
$LONGITUDE
 40
-122.394
  9
$NORTHDIRECTION
 40
0.0
  9
$TIMEZONE
 70
 -8000
  9
$LIGHTGLYPHDISPLAY
280
     1
  9
$TILEMODELIGHTSYNCH
280
     1
  9
$CMATERIAL
347
17B
  9
$SOLIDHIST
280
     0
  9
$SHOWHIST
280
     1
  9
$DWFFRAME
280
     2
  9
$DGNFRAME
280
     0
  9
$REALWORLDSCALE
290
     1
  9
$INTERFERECOLOR
 62
     1
  9
$INTERFEREOBJVS
345
19D
  9
$INTERFEREVPVS
346
19A
  9
$CSHADOW
280
     0
  9
$SHADOWPLANELOCATION
 40
0.0
  0
ENDSEC
  0
SECTION
  2
CLASSES
  0
CLASS
  1
ACDBDICTIONARYWDFLT
  2
AcDbDictionaryWithDefault
  3
ObjectDBX Classes
 90
        0
 91
        1
280
     0
281
     0
  0
CLASS
  1
MATERIAL
  2
AcDbMaterial
  3
ObjectDBX Classes
 90
     1153
 91
        3
280
     0
281
     0
  0
CLASS
  1
VISUALSTYLE
  2
AcDbVisualStyle
  3
ObjectDBX Classes
 90
     4095
 91
       24
280
     0
281
     0
  0
CLASS
  1
TABLESTYLE
  2
AcDbTableStyle
  3
ObjectDBX Classes
 90
     4095
 91
        1
280
     0
281
     0
  0
CLASS
  1
SCALE
  2
AcDbScale
  3
ObjectDBX Classes
 90
     1153
 91
       17
280
     0
281
     0
  0
CLASS
  1
MLEADERSTYLE
  2
AcDbMLeaderStyle
  3
ACDB_MLEADERSTYLE_CLASS
 90
     4095
 91
        1
280
     0
281
     0
  0
CLASS
  1
ACDBSECTIONVIEWSTYLE
  2
AcDbSectionViewStyle
  3
ObjectDBX Classes
 90
     1025
 91
        1
280
     0
281
     0
  0
CLASS
  1
ACDBDETAILVIEWSTYLE
  2
AcDbDetailViewStyle
  3
ObjectDBX Classes
 90
     1025
 91
        1
280
     0
281
     0
  0
CLASS
  1
DICTIONARYVAR
  2
AcDbDictionaryVar
  3
ObjectDBX Classes
 90
        0
 91
        9
280
     0
281
     0
  0
CLASS
  1
SORTENTSTABLE
  2
AcDbSortentsTable
  3
ObjectDBX Classes
 90
        0
 91
        1
280
     0
281
     0
  0
CLASS
  1
CELLSTYLEMAP
  2
AcDbCellStyleMap
  3
ObjectDBX Classes
 90
     1152
 91
        2
280
     0
281
     0
  0
ENDSEC
  0
SECTION
  2
TABLES
  0
TABLE
  2
VPORT
  5
8
330
0
100
AcDbSymbolTable
 70
     1
  0
VPORT
  5
155
330
8
100
AcDbSymbolTableRecord
100
AcDbViewportTableRecord
  2
*ACTIVE
 70
     0
 10
0.0
 20
0.0
 11
1.0
 21
1.0
 12
1212.024510147978
 22
853.2843698255298
 13
0.0
 23
0.0
 14
0.5
 24
0.5
 15
0.5
 25
0.5
 16
0.0
 26
0.0
 36
1.0
 17
0.0
 27
0.0
 37
0.0
 40
2328.421652404734
 41
1.875432525951557
 42
50.0
 43
0.0
 44
0.0
 50
0.0
 51
0.0
 71
     0
 72
 10000
 73
     1
 74
     3
 75
     0
 76
     0
 77
     0
 78
     0
281
     0
 65
     1
110
0.0
120
0.0
130
0.0
111
1.0
121
0.0
131
0.0
112
0.0
122
1.0
132
0.0
 79
     0
146
0.0
348
199
 60
     3
 61
     5
292
     1
282
     1
141
0.0
142
0.0
 63
   250
421
  3355443
1001
ACAD_NAV_VCDISPLAY
1070
     3
  0
ENDTAB
  0
TABLE
  2
LTYPE
  5
5
330
0
100
AcDbSymbolTable
 70
     5
  0
LTYPE
  5
14
330
5
100
AcDbSymbolTableRecord
100
AcDbLinetypeTableRecord
  2
BYBLOCK
 70
     0
  3

 72
    65
 73
     0
 40
0.0
  0
LTYPE
  5
15
330
5
100
AcDbSymbolTableRecord
100
AcDbLinetypeTableRecord
  2
BYLAYER
 70
     0
  3

 72
    65
 73
     0
 40
0.0
  0
LTYPE
  5
16
330
5
100
AcDbSymbolTableRecord
100
AcDbLinetypeTableRecord
  2
CONTINUOUS
 70
     0
  3
Solid line
 72
    65
 73
     0
 40
0.0
  0
LTYPE
  5
1C4
330
5
100
AcDbSymbolTableRecord
100
AcDbLinetypeTableRecord
  2
PHANTOM2
 70
     0
  3
___ _ _ ___ _ _ ___ _ _ ___ _ _
 72
    65
 73
     6
 40
1.25
 49
0.625
 74
     0
 49
-0.125
 74
     0
 49
0.125
 74
     0
 49
-0.125
 74
     0
 49
0.125
 74
     0
 49
-0.125
 74
     0
  0
LTYPE
  5
192A
330
5
100
AcDbSymbolTableRecord
100
AcDbLinetypeTableRecord
  2
ACAD_ISO02W100
 70
     0
  3
ISO Strichlinie __ __ __ __ __ __ __ __ __ __ _
 72
    65
 73
     2
 40
15.0
 49
12.0
 74
     0
 49
-3.0
 74
     0
  0
LTYPE
  5
1ABB
330
5
100
AcDbSymbolTableRecord
100
AcDbLinetypeTableRecord
  2
IMPORT
 70
     0
  3

 72
    65
 73
     0
 40
0.0
  0
LTYPE
  5
2466
330
5
100
AcDbSymbolTableRecord
100
AcDbLinetypeTableRecord
  2
ACAD_ISO03W100
 70
     0
  3
ISO Gestrichelt mit Abstand __    __    __    _
 72
    65
 73
     2
 40
30.0
 49
12.0
 74
     0
 49
-18.0
 74
     0
  0
ENDTAB
  0
TABLE
  2
LAYER
  5
2
102
{ACAD_XDICTIONARY
360
1E1
102
}
330
0
100
AcDbSymbolTable
 70
     5
  0
LAYER
  5
10
102
{ACAD_XDICTIONARY
360
1CD
102
}
330
2
100
AcDbSymbolTableRecord
100
AcDbLayerTableRecord
  2
0
 70
     0
 62
     7
  6
CONTINUOUS
370
    -3
390
E0
347
18B
  0
LAYER
  5
296
330
2
100
AcDbSymbolTableRecord
100
AcDbLayerTableRecord
  2
HEWI
 70
     0
 62
     7
  6
CONTINUOUS
370
     9
390
E0
347
18B
1001
AcAecLayerStandard
1000

1000

1001
AcCmTransparency
1071
        0
  0
LAYER
  5
309
330
2
100
AcDbSymbolTableRecord
100
AcDbLayerTableRecord
  2
Defpoints
 70
     0
 62
     7
  6
CONTINUOUS
290
     0
370
    -3
390
E0
347
18B
  0
LAYER
  5
192C
330
2
100
AcDbSymbolTableRecord
100
AcDbLayerTableRecord
  2
MITTELLINIE
 70
     0
 62
     4
  6
ACAD_ISO02W100
370
    -3
390
E0
347
18B
  0
LAYER
  5
2468
330
2
100
AcDbSymbolTableRecord
100
AcDbLayerTableRecord
  2
DECKENABH
 70
     0
 62
     4
  6
ACAD_ISO03W100
370
    -3
390
E0
347
18B
  0
ENDTAB
  0
TABLE
  2
STYLE
  5
3
330
0
100
AcDbSymbolTable
 70
     1
  0
STYLE
  5
11
330
3
100
AcDbSymbolTableRecord
100
AcDbTextStyleTableRecord
  2
STANDARD
 70
     0
 40
0.0
 41
1.0
 50
0.0
 71
     0
 42
0.2
  3
txt
  4

  0
ENDTAB
  0
TABLE
  2
VIEW
  5
6
330
0
100
AcDbSymbolTable
 70
     0
  0
ENDTAB
  0
TABLE
  2
UCS
  5
7
330
0
100
AcDbSymbolTable
 70
     0
  0
ENDTAB
  0
TABLE
  2
APPID
  5
9
330
0
100
AcDbSymbolTable
 70
     7
  0
APPID
  5
12
330
9
100
AcDbSymbolTableRecord
100
AcDbRegAppTableRecord
  2
ACAD
 70
     0
  0
APPID
  5
1D1
330
9
100
AcDbSymbolTableRecord
100
AcDbRegAppTableRecord
  2
ACAD_NAV_VCDISPLAY
 70
     0
  0
APPID
  5
297
330
9
100
AcDbSymbolTableRecord
100
AcDbRegAppTableRecord
  2
AcAecLayerStandard
 70
     0
  0
APPID
  5
298
330
9
100
AcDbSymbolTableRecord
100
AcDbRegAppTableRecord
  2
AcCmTransparency
 70
     0
  0
APPID
  5
2AA
330
9
100
AcDbSymbolTableRecord
100
AcDbRegAppTableRecord
  2
ACAD_PSEXT
 70
     0
  0
APPID
  5
4A0
330
9
100
AcDbSymbolTableRecord
100
AcDbRegAppTableRecord
  2
ACAD_EXEMPT_FROM_CAD_STANDARDS
 70
     0
  0
APPID
  5
26FB
330
9
100
AcDbSymbolTableRecord
100
AcDbRegAppTableRecord
  2
ACAD_DSTYLE_DIMRADIAL_EXTENSION
 70
     0
  0
ENDTAB
  0
TABLE
  2
DIMSTYLE
  5
A
330
0
100
AcDbSymbolTable
 70
     1
100
AcDbDimStyleTable
 71
     1
340
27
  0
DIMSTYLE
105
27
330
A
100
AcDbSymbolTableRecord
100
AcDbDimStyleTableRecord
  2
STANDARD
 70
     0
340
11
  0
ENDTAB
  0
TABLE
  2
BLOCK_RECORD
  5
1
330
0
100
AcDbSymbolTable
 70
     3
  0
BLOCK_RECORD
  5
1F
102
{ACAD_XDICTIONARY
360
D9
102
}
330
1
100
AcDbSymbolTableRecord
100
AcDbBlockTableRecord
  2
*MODEL_SPACE
340
1C8
 70
     0
280
     1
281
     0
  0
BLOCK_RECORD
  5
1B
102
{ACAD_XDICTIONARY
360
D7
102
}
330
1
100
AcDbSymbolTableRecord
100
AcDbBlockTableRecord
  2
*PAPER_SPACE
340
1C9
 70
     0
280
     1
281
     0
  0
BLOCK_RECORD
  5
28CA
330
1
100
AcDbSymbolTableRecord
100
AcDbBlockTableRecord
  2
*D0
340
0
 70
     0
280
     1
281
     0
  0
BLOCK_RECORD
  5
2BDB
330
1
100
AcDbSymbolTableRecord
100
AcDbBlockTableRecord
  2
*D1
340
0
 70
     0
280
     1
281
     0
  0
BLOCK_RECORD
  5
2BE9
330
1
100
AcDbSymbolTableRecord
100
AcDbBlockTableRecord
  2
*D2
340
0
 70
     0
280
     1
281
     0
  0
ENDTAB
  0
ENDSEC
  0
SECTION
  2
BLOCKS
  0
BLOCK
  5
20
330
1F
100
AcDbEntity
  8
0
100
AcDbBlockBegin
  2
*MODEL_SPACE
 70
     0
 10
0.0
 20
0.0
 30
0.0
  3
*MODEL_SPACE
  1

  0
ENDBLK
  5
21
330
1F
100
AcDbEntity
  8
0
100
AcDbBlockEnd
  0
BLOCK
  5
1C
330
1B
100
AcDbEntity
 67
     1
  8
0
100
AcDbBlockBegin
  2
*PAPER_SPACE
 70
     0
 10
0.0
 20
0.0
 30
0.0
  3
*PAPER_SPACE
  1

  0
ENDBLK
  5
1D
330
1B
100
AcDbEntity
 67
     1
  8
0
100
AcDbBlockEnd
  0
BLOCK
  5
28CB
330
28CA
100
AcDbEntity
  8
0
100
AcDbBlockBegin
  2
*D0
 70
     1
 10
0.0
 20
0.0
 30
0.0
  3
*D0
  1

  0
LINE
  5
28CD
330
28CA
100
AcDbEntity
  8
0
 62
     0
440
 16777216
370
    -2
100
AcDbLine
 10
252.988274996329
 20
122.859691732023
 30
0.0
 11
252.988274996329
 21
-44.4728152063962
 31
0.0
  0
LINE
  5
28CE
330
28CA
100
AcDbEntity
  8
0
 62
     0
440
 16777216
370
    -2
100
AcDbLine
 10
1139.988274996329
 20
903.6096917317417
 30
0.0
 11
1139.988274996329
 21
-44.47281520639615
 31
0.0
  0
LINE
  5
28CF
330
28CA
100
AcDbEntity
  8
0
 62
     0
440
 16777216
370
    -2
100
AcDbLine
 10
253.168274996329
 20
-44.29281520639618
 30
0.0
 11
695.828274996329
 21
-44.29281520639618
 31
0.0
  0
LINE
  5
28D0
330
28CA
100
AcDbEntity
  8
0
 62
     0
440
 16777216
370
    -2
100
AcDbLine
 10
1139.808274996329
 20
-44.29281520639618
 30
0.0
 11
697.1482749963288
 21
-44.29281520639618
 31
0.0
  0
SOLID
  5
28D1
330
28CA
100
AcDbEntity
  8
0
 62
     0
440
 16777216
100
AcDbTrace
 10
253.168274996329
 20
-44.26281520639618
 30
0.0
 11
253.168274996329
 21
-44.32281520639619
 31
0.0
 12
252.988274996329
 22
-44.29281520639618
 32
0.0
 13
252.988274996329
 23
-44.29281520639618
 33
0.0
  0
SOLID
  5
28D2
330
28CA
100
AcDbEntity
  8
0
 62
     0
440
 16777216
100
AcDbTrace
 10
1139.808274996329
 20
-44.26281520639618
 30
0.0
 11
1139.808274996329
 21
-44.32281520639619
 31
0.0
 12
1139.988274996329
 22
-44.29281520639618
 32
0.0
 13
1139.988274996329
 23
-44.29281520639618
 33
0.0
  0
MTEXT
  5
28D3
330
28CA
100
AcDbEntity
  8
0
 62
     0
440
 16777216
100
AcDbMText
 10
696.4882749963289
 20
-44.29281520639618
 30
0.0
 40
0.18
 41
0.0
 46
0.0
 71
     5
 72
     1
  1
\A1;887.0000
 73
     1
 44
1.0
  0
POINT
  5
28D4
330
28CA
100
AcDbEntity
  8
Defpoints
 62
     0
440
 16777216
100
AcDbPoint
 10
252.988274996329
 20
122.9221917320231
 30
0.0
  0
POINT
  5
28D5
330
28CA
100
AcDbEntity
  8
Defpoints
 62
     0
440
 16777216
100
AcDbPoint
 10
1139.988274996329
 20
903.6721917317416
 30
0.0
  0
POINT
  5
28D6
330
28CA
100
AcDbEntity
  8
Defpoints
 62
     0
440
 16777216
100
AcDbPoint
 10
1139.988274996329
 20
-44.29281520639618
 30
0.0
  0
ENDBLK
  5
28CC
330
28CA
100
AcDbEntity
  8
0
100
AcDbBlockEnd
  0
BLOCK
  5
2BDC
330
2BDB
100
AcDbEntity
  8
0
100
AcDbBlockBegin
  2
*D1
 70
     1
 10
0.0
 20
0.0
 30
0.0
  3
*D1
  1

  0
LINE
  5
2BDE
330
2BDB
100
AcDbEntity
  8
0
 62
     0
440
 16777216
370
    -2
100
AcDbLine
 10
152.988274996329
 20
116.6096917317415
 30
0.0
 11
152.988274996329
 21
-186.3695852343614
 31
0.0
  0
LINE
  5
2BDF
330
2BDB
100
AcDbEntity
  8
0
 62
     0
440
 16777216
370
    -2
100
AcDbLine
 10
1139.988274996329
 20
1003.609691731741
 30
0.0
 11
1139.988274996329
 21
-186.3695852343613
 31
0.0
  0
LINE
  5
2BE0
330
2BDB
100
AcDbEntity
  8
0
 62
     0
440
 16777216
370
    -2
100
AcDbLine
 10
153.168274996329
 20
-186.1895852343614
 30
0.0
 11
645.828274996329
 21
-186.1895852343614
 31
0.0
  0
LINE
  5
2BE1
330
2BDB
100
AcDbEntity
  8
0
 62
     0
440
 16777216
370
    -2
100
AcDbLine
 10
1139.808274996329
 20
-186.1895852343614
 30
0.0
 11
647.1482749963289
 21
-186.1895852343614
 31
0.0
  0
SOLID
  5
2BE2
330
2BDB
100
AcDbEntity
  8
0
 62
     0
440
 16777216
100
AcDbTrace
 10
153.168274996329
 20
-186.1595852343614
 30
0.0
 11
153.168274996329
 21
-186.2195852343614
 31
0.0
 12
152.988274996329
 22
-186.1895852343614
 32
0.0
 13
152.988274996329
 23
-186.1895852343614
 33
0.0
  0
SOLID
  5
2BE3
330
2BDB
100
AcDbEntity
  8
0
 62
     0
440
 16777216
100
AcDbTrace
 10
1139.808274996329
 20
-186.1595852343614
 30
0.0
 11
1139.808274996329
 21
-186.2195852343614
 31
0.0
 12
1139.988274996329
 22
-186.1895852343614
 32
0.0
 13
1139.988274996329
 23
-186.1895852343614
 33
0.0
  0
MTEXT
  5
2BE4
330
2BDB
100
AcDbEntity
  8
0
 62
     0
440
 16777216
100
AcDbMText
 10
646.4882749963289
 20
-186.1895852343614
 30
0.0
 40
0.18
 41
0.0
 46
0.0
 71
     5
 72
     1
  1
\A1;987.0000
 73
     1
 44
1.0
  0
POINT
  5
2BE5
330
2BDB
100
AcDbEntity
  8
Defpoints
 62
     0
440
 16777216
100
AcDbPoint
 10
152.988274996329
 20
116.6721917317415
 30
0.0
  0
POINT
  5
2BE6
330
2BDB
100
AcDbEntity
  8
Defpoints
 62
     0
440
 16777216
100
AcDbPoint
 10
1139.988274996329
 20
1003.672191731741
 30
0.0
  0
POINT
  5
2BE7
330
2BDB
100
AcDbEntity
  8
Defpoints
 62
     0
440
 16777216
100
AcDbPoint
 10
1139.988274996329
 20
-186.1895852343614
 30
0.0
  0
ENDBLK
  5
2BDD
330
2BDB
100
AcDbEntity
  8
0
100
AcDbBlockEnd
  0
BLOCK
  5
2BEA
330
2BE9
100
AcDbEntity
  8
0
100
AcDbBlockBegin
  2
*D2
 70
     1
 10
0.0
 20
0.0
 30
0.0
  3
*D2
  1

  0
LINE
  5
2BEC
330
2BE9
100
AcDbEntity
  8
0
 62
     0
440
 16777216
370
    -2
100
AcDbLine
 10
1140.050774996329
 20
1003.672191731741
 30
0.0
 11
1695.316737761375
 21
1003.672191731741
 31
0.0
  0
LINE
  5
2BED
330
2BE9
100
AcDbEntity
  8
0
 62
     0
440
 16777216
370
    -2
100
AcDbLine
 10
165.0507747513646
 20
116.6697670380346
 30
0.0
 11
1695.316737761375
 21
116.6697670380342
 31
0.0
  0
LINE
  5
2BEE
330
2BE9
100
AcDbEntity
  8
0
 62
     0
440
 16777216
370
    -2
100
AcDbLine
 10
1695.136737761375
 20
1003.492191731741
 30
0.0
 11
1695.136737761375
 21
560.3509793848875
 31
0.0
  0
LINE
  5
2BEF
330
2BE9
100
AcDbEntity
  8
0
 62
     0
440
 16777216
370
    -2
100
AcDbLine
 10
1695.136737761375
 20
116.8497670380342
 30
0.0
 11
1695.136737761375
 21
559.9909793848876
 31
0.0
  0
SOLID
  5
2BF0
330
2BE9
100
AcDbEntity
  8
0
 62
     0
440
 16777216
100
AcDbTrace
 10
1695.106737761375
 20
1003.492191731741
 30
0.0
 11
1695.166737761375
 21
1003.492191731741
 31
0.0
 12
1695.136737761375
 22
1003.672191731741
 32
0.0
 13
1695.136737761375
 23
1003.672191731741
 33
0.0
  0
SOLID
  5
2BF1
330
2BE9
100
AcDbEntity
  8
0
 62
     0
440
 16777216
100
AcDbTrace
 10
1695.106737761375
 20
116.8497670380342
 30
0.0
 11
1695.166737761375
 21
116.8497670380342
 31
0.0
 12
1695.136737761375
 22
116.6697670380342
 32
0.0
 13
1695.136737761375
 23
116.6697670380342
 33
0.0
  0
MTEXT
  5
2BF2
330
2BE9
100
AcDbEntity
  8
0
 62
     0
440
 16777216
100
AcDbMText
 10
1695.136737761375
 20
560.1709793848877
 30
0.0
 40
0.18
 41
0.0
 46
0.0
 71
     5
 72
     1
  1
\A1;887.0024
 73
     1
 44
1.0
  0
POINT
  5
2BF3
330
2BE9
100
AcDbEntity
  8
Defpoints
 62
     0
440
 16777216
100
AcDbPoint
 10
1139.988274996329
 20
1003.672191731741
 30
0.0
  0
POINT
  5
2BF4
330
2BE9
100
AcDbEntity
  8
Defpoints
 62
     0
440
 16777216
100
AcDbPoint
 10
164.9882747513646
 20
116.6697670380346
 30
0.0
  0
POINT
  5
2BF5
330
2BE9
100
AcDbEntity
  8
Defpoints
 62
     0
440
 16777216
100
AcDbPoint
 10
1695.136737761375
 20
116.6697670380342
 30
0.0
  0
ENDBLK
  5
2BEB
330
2BE9
100
AcDbEntity
  8
0
100
AcDbBlockEnd
  0
ENDSEC
  0
SECTION
  2
ENTITIES
  0
LWPOLYLINE
  5
1EA1
330
1F
100
AcDbEntity
  8
HEWI
100
AcDbPolyline
 90
        3
 70
     0
 43
0.0
 10
152.9908007195783
 20
1330.626864517823
 10
152.9882749963291
 20
1330.626864517823
 10
152.9882749963291
 20
1318.12686451726
  0
LWPOLYLINE
  5
1EA2
330
1F
100
AcDbEntity
  8
HEWI
100
AcDbPolyline
 90
        2
 70
     0
 43
0.0
 10
164.9857495180441
 20
1305.626864517823
 10
325.650732339726
 20
1305.626864517823
  0
LWPOLYLINE
  5
1EA3
330
1F
100
AcDbEntity
  8
HEWI
100
AcDbPolyline
 90
        2
 70
     0
 43
0.0
 10
335.650732339726
 20
1305.626864517823
 10
365.650732339726
 20
1305.626864517823
  0
LWPOLYLINE
  5
1EA4
330
1F
100
AcDbEntity
  8
HEWI
100
AcDbPolyline
 90
        2
 70
     0
 43
0.0
 10
375.650732339726
 20
1305.626864517823
 10
405.6507323397259
 20
1305.626864517823
  0
LWPOLYLINE
  5
1EA5
330
1F
100
AcDbEntity
  8
HEWI
100
AcDbPolyline
 90
        2
 70
     0
 43
0.0
 10
415.650732339726
 20
1305.626864517823
 10
445.650732339726
 20
1305.626864517823
  0
LWPOLYLINE
  5
1EA6
330
1F
100
AcDbEntity
  8
HEWI
100
AcDbPolyline
 90
        2
 70
     0
 43
0.0
 10
455.6507323397259
 20
1305.626864517823
 10
485.6507323397257
 20
1305.626864517823
  0
LWPOLYLINE
  5
1EA7
330
1F
100
AcDbEntity
  8
HEWI
100
AcDbPolyline
 90
        2
 70
     0
 43
0.0
 10
495.6507323397257
 20
1305.626864517823
 10
525.6507323397257
 20
1305.626864517823
  0
LWPOLYLINE
  5
1EA8
330
1F
100
AcDbEntity
  8
HEWI
100
AcDbPolyline
 90
        2
 70
     0
 43
0.0
 10
535.6507323397257
 20
1305.626864517823
 10
565.6507275713537
 20
1305.626864517823
  0
LWPOLYLINE
  5
1EA9
330
1F
100
AcDbEntity
  8
HEWI
100
AcDbPolyline
 90
        2
 70
     0
 43
0.0
 10
575.6507275713537
 20
1305.626864517823
 10
605.6507299555398
 20
1305.626864517823
  0
LWPOLYLINE
  5
1EAA
330
1F
100
AcDbEntity
  8
HEWI
100
AcDbPolyline
 90
        2
 70
     0
 43
0.0
 10
615.6507293594938
 20
1305.626864517823
 10
645.6507299555397
 20
1305.626864517823
  0
LWPOLYLINE
  5
1EAB
330
1F
100
AcDbEntity
  8
HEWI
100
AcDbPolyline
 90
        2
 70
     0
 43
0.0
 10
655.6507299555398
 20
1305.626864517823
 10
685.6507305515866
 20
1305.626864517823
  0
LWPOLYLINE
  5
1EAC
330
1F
100
AcDbEntity
  8
HEWI
100
AcDbPolyline
 90
        2
 70
     0
 43
0.0
 10
695.6507305515867
 20
1305.626864517823
 10
1113.896191531374
 20
1305.626864517823
  0
LWPOLYLINE
  5
1EAE
330
1F
100
AcDbEntity
  8
HEWI
100
AcDbPolyline
 90
        2
 70
     0
 43
0.0
 10
1139.988365987763
 20
1330.624439823222
 10
1127.936911330664
 20
1330.624524376524
  0
LWPOLYLINE
  5
1EAF
330
1F
100
AcDbEntity
  8
HEWI
100
AcDbPolyline
 90
        2
 70
     0
 43
0.0
 10
686.9068843890737
 20
1330.626864517823
 10
654.3945665813097
 20
1330.626864517823
  0
LWPOLYLINE
  5
1EB0
330
1F
100
AcDbEntity
  8
HEWI
100
AcDbPolyline
 90
        2
 70
     0
 43
0.0
 10
646.9068837930278
 20
1330.626864517823
 10
614.3945653892167
 20
1330.626864517823
  0
LWPOLYLINE
  5
1EB1
330
1F
100
AcDbEntity
  8
HEWI
100
AcDbPolyline
 90
        2
 70
     0
 43
0.0
 10
606.9068828628247
 20
1330.626864517823
 10
574.3945641971237
 20
1330.626864517823
  0
LWPOLYLINE
  5
1EB2
330
1F
100
AcDbEntity
  8
HEWI
100
AcDbPolyline
 90
        2
 70
     0
 43
0.0
 10
566.9068814088417
 20
1330.626864517823
 10
534.3945689654955
 20
1330.626864517823
  0
LWPOLYLINE
  5
1EB3
330
1F
100
AcDbEntity
  8
HEWI
100
AcDbPolyline
 90
        2
 70
     0
 43
0.0
 10
526.9068861772126
 20
1330.626864517823
 10
494.3945689654955
 20
1330.626864517823
  0
LWPOLYLINE
  5
1EB4
330
1F
100
AcDbEntity
  8
HEWI
100
AcDbPolyline
 90
        2
 70
     0
 43
0.0
 10
486.9068861772126
 20
1330.626864517823
 10
454.3945594287521
 20
1330.626864517823
  0
LWPOLYLINE
  5
1EB5
330
1F
100
AcDbEntity
  8
HEWI
100
AcDbPolyline
 90
        2
 70
     0
 43
0.0
 10
446.9068861772132
 20
1330.626864517823
 10
414.3945594287526
 20
1330.626864517823
  0
LWPOLYLINE
  5
1EB6
330
1F
100
AcDbEntity
  8
HEWI
100
AcDbPolyline
 90
        2
 70
     0
 43
0.0
 10
406.9068861772132
 20
1330.626864517823
 10
374.3945594287526
 20
1330.626864517823
  0
LWPOLYLINE
  5
1EB7
330
1F
100
AcDbEntity
  8
HEWI
100
AcDbPolyline
 90
        2
 70
     0
 43
0.0
 10
366.9068861772132
 20
1330.626864517823
 10
334.3945594287522
 20
1330.626864517823
  0
LWPOLYLINE
  5
1EB8
330
1F
100
AcDbEntity
  8
HEWI
100
AcDbPolyline
 90
        2
 70
     0
 43
0.0
 10
326.9068861772133
 20
1330.626864517823
 10
164.9908009645424
 20
1330.626864517823
  0
LINE
  5
1EBF
330
1F
100
AcDbEntity
  8
HEWI
100
AcDbLine
 10
163.9953467967321
 20
1353.12464116693
 30
0.0
 11
152.9953470212823
 21
1353.126863803344
 31
0.0
  0
LINE
  5
1EC0
330
1F
100
AcDbEntity
  8
HEWI
100
AcDbLine
 10
152.9953470212823
 20
1353.126863803344
 30
0.0
 11
152.9812029713759
 21
1283.126865232303
 31
0.0
  0
LINE
  5
1EC1
330
1F
100
AcDbEntity
  8
HEWI
100
AcDbLine
 10
152.9812029713759
 20
1283.126865232303
 30
0.0
 11
163.9812027468251
 21
1283.124642595889
 31
0.0
  0
LWPOLYLINE
  5
1EC2
330
1F
100
AcDbEntity
  8
HEWI
100
AcDbPolyline
 90
        2
 70
     0
 43
0.0
 10
164.9814047842673
 20
1284.124440517619
 10
164.9951447184621
 20
1352.124439129488
  0
ARC
  5
1EC3
330
1F
100
AcDbEntity
  8
HEWI
100
AcDbCircle
 10
163.9951447388751
 20
1352.124641187344
 30
0.0
 40
1.0
100
AcDbArc
 50
359.9884229375631
 51
89.98842293756306
  0
ARC
  5
1EC4
330
1F
100
AcDbEntity
  8
HEWI
100
AcDbCircle
 10
163.9814048046811
 20
1284.124642575475
 30
0.0
 40
1.0
100
AcDbArc
 50
269.9884229375631
 51
359.9884229375631
  0
LINE
  5
1EC5
330
1F
100
AcDbEntity
  8
HEWI
  6
IMPORT
 62
     7
100
AcDbLine
 10
614.3945793522456
 20
1330.626864517823
 30
0.0
 11
646.9068692339516
 21
1330.626864517823
 31
0.0
  0
LINE
  5
1EC6
330
1F
100
AcDbEntity
  8
HEWI
  6
IMPORT
 62
     7
100
AcDbLine
 10
574.3945811403847
 20
1330.626864517823
 30
0.0
 11
606.9068692339516
 21
1330.626864517823
 31
0.0
  0
LINE
  5
1EC7
330
1F
100
AcDbEntity
  8
HEWI
  6
IMPORT
 62
     7
100
AcDbLine
 10
534.3945811403847
 20
1330.626864517823
 30
0.0
 11
566.9068692339516
 21
1330.626864517823
 31
0.0
  0
LINE
  5
1EC8
330
1F
100
AcDbEntity
  8
HEWI
  6
IMPORT
 62
     7
100
AcDbLine
 10
494.3945811403846
 20
1330.626864517823
 30
0.0
 11
526.9068740023236
 21
1330.626864517823
 31
0.0
  0
LINE
  5
1EC9
330
1F
100
AcDbEntity
  8
HEWI
  6
IMPORT
 62
     7
100
AcDbLine
 10
454.3945716036419
 20
1330.626864517823
 30
0.0
 11
486.9068740023235
 21
1330.626864517823
 31
0.0
  0
LINE
  5
1ECA
330
1F
100
AcDbEntity
  8
HEWI
  6
IMPORT
 62
     7
100
AcDbLine
 10
414.3945716036419
 20
1330.626864517823
 30
0.0
 11
446.9068740023236
 21
1330.626864517823
 31
0.0
  0
LINE
  5
1ECB
330
1F
100
AcDbEntity
  8
HEWI
  6
IMPORT
 62
     7
100
AcDbLine
 10
374.394571603642
 20
1330.626864517823
 30
0.0
 11
406.9068740023237
 21
1330.626864517823
 31
0.0
  0
LINE
  5
1ECC
330
1F
100
AcDbEntity
  8
HEWI
  6
IMPORT
 62
     7
100
AcDbLine
 10
334.394571603642
 20
1330.626864517823
 30
0.0
 11
366.9068740023237
 21
1330.626864517823
 31
0.0
  0
LINE
  5
1ECD
330
1F
100
AcDbEntity
  8
HEWI
  6
IMPORT
 62
     7
100
AcDbLine
 10
650.0507305277448
 20
1288.849177445069
 30
0.0
 11
651.2507293833356
 21
1288.849177445069
 31
0.0
  0
LINE
  5
1ECE
330
1F
100
AcDbEntity
  8
HEWI
  6
IMPORT
 62
     7
100
AcDbLine
 10
610.0507293356518
 20
1288.849177445069
 30
0.0
 11
611.2507293833356
 21
1288.849177445069
 31
0.0
  0
LINE
  5
1ECF
330
1F
100
AcDbEntity
  8
HEWI
  6
IMPORT
 62
     7
100
AcDbLine
 10
570.0507281435585
 20
1288.849177445069
 30
0.0
 11
571.2507317675207
 21
1288.849177445069
 31
0.0
  0
LINE
  5
1ED0
330
1F
100
AcDbEntity
  8
HEWI
  6
IMPORT
 62
     7
100
AcDbLine
 10
530.0507281435585
 20
1288.849177445069
 30
0.0
 11
531.2507269991498
 21
1288.849177445069
 31
0.0
  0
LINE
  5
1ED1
330
1F
100
AcDbEntity
  8
HEWI
  6
IMPORT
 62
     7
100
AcDbLine
 10
490.0507281435587
 20
1288.849177445069
 30
0.0
 11
491.2507269991498
 21
1288.849177445069
 31
0.0
  0
LINE
  5
1ED2
330
1F
100
AcDbEntity
  8
HEWI
  6
IMPORT
 62
     7
100
AcDbLine
 10
450.0507376803021
 20
1288.849177445069
 30
0.0
 11
451.2507269991497
 21
1288.849177445069
 31
0.0
  0
LINE
  5
1ED3
330
1F
100
AcDbEntity
  8
HEWI
  6
IMPORT
 62
     7
100
AcDbLine
 10
410.0507376803022
 20
1288.849177445069
 30
0.0
 11
411.2507269991497
 21
1288.849177445069
 31
0.0
  0
LINE
  5
1ED4
330
1F
100
AcDbEntity
  8
HEWI
  6
IMPORT
 62
     7
100
AcDbLine
 10
370.0507376803022
 20
1288.849177445069
 30
0.0
 11
371.2507269991498
 21
1288.849177445069
 31
0.0
  0
LINE
  5
1ED5
330
1F
100
AcDbEntity
  8
HEWI
  6
IMPORT
 62
     7
100
AcDbLine
 10
330.0507376803022
 20
1288.849177445069
 30
0.0
 11
331.2507269991499
 21
1288.849177445069
 31
0.0
  0
LINE
  5
1ED6
330
1F
100
AcDbEntity
  8
HEWI
  6
IMPORT
 62
     7
100
AcDbLine
 10
648.1507299555397
 20
1283.389887894288
 30
0.0
 11
653.1507299555397
 21
1283.389887894288
 31
0.0
  0
LINE
  5
1ED7
330
1F
100
AcDbEntity
  8
HEWI
  6
IMPORT
 62
     7
100
AcDbLine
 10
608.1507299555397
 20
1283.389887894288
 30
0.0
 11
613.1507299555397
 21
1283.389887894288
 31
0.0
  0
LINE
  5
1ED8
330
1F
100
AcDbEntity
  8
HEWI
  6
IMPORT
 62
     7
100
AcDbLine
 10
568.1507275713537
 20
1283.389887894288
 30
0.0
 11
573.1507275713546
 21
1283.389887894288
 31
0.0
  0
LINE
  5
1ED9
330
1F
100
AcDbEntity
  8
HEWI
  6
IMPORT
 62
     7
100
AcDbLine
 10
528.1507323397257
 20
1283.389887894288
 30
0.0
 11
533.1507323397257
 21
1283.389887894288
 31
0.0
  0
LINE
  5
1EDA
330
1F
100
AcDbEntity
  8
HEWI
  6
IMPORT
 62
     7
100
AcDbLine
 10
488.1507323397257
 20
1283.389887894288
 30
0.0
 11
493.1507323397258
 21
1283.389887894288
 31
0.0
  0
LINE
  5
1EDB
330
1F
100
AcDbEntity
  8
HEWI
  6
IMPORT
 62
     7
100
AcDbLine
 10
448.1507323397258
 20
1283.389887894288
 30
0.0
 11
453.150732339726
 21
1283.389887894288
 31
0.0
  0
LINE
  5
1EDC
330
1F
100
AcDbEntity
  8
HEWI
  6
IMPORT
 62
     7
100
AcDbLine
 10
408.150732339726
 20
1283.389887894288
 30
0.0
 11
413.150732339726
 21
1283.389887894288
 31
0.0
  0
LINE
  5
1EDD
330
1F
100
AcDbEntity
  8
HEWI
  6
IMPORT
 62
     7
100
AcDbLine
 10
368.150732339726
 20
1283.389887894288
 30
0.0
 11
373.150732339726
 21
1283.389887894288
 31
0.0
  0
LINE
  5
1EDE
330
1F
100
AcDbEntity
  8
HEWI
  6
IMPORT
 62
     7
100
AcDbLine
 10
328.150732339726
 20
1283.389887894288
 30
0.0
 11
333.150732339726
 21
1283.389887894288
 31
0.0
  0
LINE
  5
1EDF
330
1F
100
AcDbEntity
  8
HEWI
  6
IMPORT
 62
     7
100
AcDbLine
 10
650.0507305277448
 20
1340.340876663819
 30
0.0
 11
651.6957901133156
 21
1340.261340225831
 31
0.0
  0
LINE
  5
1EE0
330
1F
100
AcDbEntity
  8
HEWI
  6
IMPORT
 62
     7
100
AcDbLine
 10
610.0507293356518
 20
1340.340876663819
 30
0.0
 11
611.6957889212227
 21
1340.261340225831
 31
0.0
  0
LINE
  5
1EE1
330
1F
100
AcDbEntity
  8
HEWI
  6
IMPORT
 62
     7
100
AcDbLine
 10
570.0507281435585
 20
1340.340876663819
 30
0.0
 11
571.6957877291296
 21
1340.261340225831
 31
0.0
  0
LINE
  5
1EE2
330
1F
100
AcDbEntity
  8
HEWI
  6
IMPORT
 62
     7
100
AcDbLine
 10
530.0507281435585
 20
1340.340876663819
 30
0.0
 11
531.6957877291295
 21
1340.261340225831
 31
0.0
  0
LINE
  5
1EE3
330
1F
100
AcDbEntity
  8
HEWI
  6
IMPORT
 62
     7
100
AcDbLine
 10
490.0507281435587
 20
1340.340876663819
 30
0.0
 11
491.6957877291296
 21
1340.261340225831
 31
0.0
  0
LINE
  5
1EE4
330
1F
100
AcDbEntity
  8
HEWI
  6
IMPORT
 62
     7
100
AcDbLine
 10
450.0507376803021
 20
1340.340876663819
 30
0.0
 11
451.6957877291299
 21
1340.261340225831
 31
0.0
  0
LINE
  5
1EE5
330
1F
100
AcDbEntity
  8
HEWI
  6
IMPORT
 62
     7
100
AcDbLine
 10
410.0507376803022
 20
1340.340876663819
 30
0.0
 11
411.6957877291302
 21
1340.261340225831
 31
0.0
  0
LINE
  5
1EE6
330
1F
100
AcDbEntity
  8
HEWI
  6
IMPORT
 62
     7
100
AcDbLine
 10
370.0507376803022
 20
1340.340876663819
 30
0.0
 11
371.6957877291303
 21
1340.261340225831
 31
0.0
  0
LINE
  5
1EE7
330
1F
100
AcDbEntity
  8
HEWI
  6
IMPORT
 62
     7
100
AcDbLine
 10
330.0507376803022
 20
1340.340876663819
 30
0.0
 11
331.6957877291303
 21
1340.261340225831
 31
0.0
  0
LINE
  5
1EE8
330
1F
100
AcDbEntity
  8
HEWI
  6
IMPORT
 62
     7
100
AcDbLine
 10
648.3669183863256
 20
1340.039858902589
 30
0.0
 11
648.8069198740578
 21
1340.118517960206
 31
0.0
  0
LINE
  5
1EE9
330
1F
100
AcDbEntity
  8
HEWI
  6
IMPORT
 62
     7
100
AcDbLine
 10
608.3669195784188
 20
1340.039858902589
 30
0.0
 11
608.8069198740578
 21
1340.118517960206
 31
0.0
  0
LINE
  5
1EEA
330
1F
100
AcDbEntity
  8
HEWI
  6
IMPORT
 62
     7
100
AcDbLine
 10
568.3669207705118
 20
1340.039858902589
 30
0.0
 11
568.8069174898727
 21
1340.118517960206
 31
0.0
  0
LINE
  5
1EEB
330
1F
100
AcDbEntity
  8
HEWI
  6
IMPORT
 62
     7
100
AcDbLine
 10
528.3669207705116
 20
1340.039858902589
 30
0.0
 11
528.8069174898727
 21
1340.118517960206
 31
0.0
  0
LINE
  5
1EEC
330
1F
100
AcDbEntity
  8
HEWI
  6
IMPORT
 62
     7
100
AcDbLine
 10
488.3669207705117
 20
1340.039858902589
 30
0.0
 11
488.8069174898726
 21
1340.118517960206
 31
0.0
  0
LINE
  5
1EED
330
1F
100
AcDbEntity
  8
HEWI
  6
IMPORT
 62
     7
100
AcDbLine
 10
448.366911233769
 20
1340.039858902589
 30
0.0
 11
448.8069174898725
 21
1340.118517960206
 31
0.0
  0
LINE
  5
1EEE
330
1F
100
AcDbEntity
  8
HEWI
  6
IMPORT
 62
     7
100
AcDbLine
 10
408.3669112337688
 20
1340.039858902589
 30
0.0
 11
408.8069174898723
 21
1340.118517960206
 31
0.0
  0
LINE
  5
1EEF
330
1F
100
AcDbEntity
  8
HEWI
  6
IMPORT
 62
     7
100
AcDbLine
 10
368.366911233769
 20
1340.039858902589
 30
0.0
 11
368.8069174898725
 21
1340.118517960206
 31
0.0
  0
LINE
  5
1EF0
330
1F
100
AcDbEntity
  8
HEWI
  6
IMPORT
 62
     7
100
AcDbLine
 10
328.366911233769
 20
1340.039858902589
 30
0.0
 11
328.8069174898725
 21
1340.118517960206
 31
0.0
  0
LINE
  5
1EF1
330
1F
100
AcDbEntity
  8
HEWI
  6
IMPORT
 62
     7
100
AcDbLine
 10
652.4573705805397
 20
1331.752619827882
 30
0.0
 11
652.5862405909157
 21
1331.736292923585
 31
0.0
  0
LINE
  5
1EF2
330
1F
100
AcDbEntity
  8
HEWI
  6
IMPORT
 62
     7
100
AcDbLine
 10
648.6009500635726
 20
1331.687769974366
 30
0.0
 11
648.7152097834206
 21
1331.736292923585
 31
0.0
  0
LINE
  5
1EF3
330
1F
100
AcDbEntity
  8
HEWI
  6
IMPORT
 62
     7
100
AcDbLine
 10
612.4573693884466
 20
1331.752619827882
 30
0.0
 11
612.5862393988226
 21
1331.736292923585
 31
0.0
  0
LINE
  5
1EF4
330
1F
100
AcDbEntity
  8
HEWI
  6
IMPORT
 62
     7
100
AcDbLine
 10
608.6009500635717
 20
1331.687769974366
 30
0.0
 11
608.7152097834206
 21
1331.736292923585
 31
0.0
  0
LINE
  5
1EF5
330
1F
100
AcDbEntity
  8
HEWI
  6
IMPORT
 62
     7
100
AcDbLine
 10
572.4573681963537
 20
1331.752619827882
 30
0.0
 11
572.5862382067297
 21
1331.736292923585
 31
0.0
  0
LINE
  5
1EF6
330
1F
100
AcDbEntity
  8
HEWI
  6
IMPORT
 62
     7
100
AcDbLine
 10
568.6009476793866
 20
1331.687769974366
 30
0.0
 11
568.7152073992348
 21
1331.736292923585
 31
0.0
  0
LINE
  5
1EF7
330
1F
100
AcDbEntity
  8
HEWI
  6
IMPORT
 62
     7
100
AcDbLine
 10
532.4573729647258
 20
1331.752619827882
 30
0.0
 11
532.5862429751017
 21
1331.736292923585
 31
0.0
  0
LINE
  5
1EF8
330
1F
100
AcDbEntity
  8
HEWI
  6
IMPORT
 62
     7
100
AcDbLine
 10
528.6009524477577
 20
1331.687769974366
 30
0.0
 11
528.7152121676066
 21
1331.736292923585
 31
0.0
  0
LINE
  5
1EF9
330
1F
100
AcDbEntity
  8
HEWI
  6
IMPORT
 62
     7
100
AcDbLine
 10
492.4573729647256
 20
1331.752619827882
 30
0.0
 11
492.5862429751017
 21
1331.736292923585
 31
0.0
  0
LINE
  5
1EFA
330
1F
100
AcDbEntity
  8
HEWI
  6
IMPORT
 62
     7
100
AcDbLine
 10
488.6009524477578
 20
1331.687769974366
 30
0.0
 11
488.7152121676066
 21
1331.736292923585
 31
0.0
  0
LINE
  5
1EFB
330
1F
100
AcDbEntity
  8
HEWI
  6
IMPORT
 62
     7
100
AcDbLine
 10
452.457372964726
 20
1331.752619827882
 30
0.0
 11
452.5862334383588
 21
1331.736292923585
 31
0.0
  0
LINE
  5
1EFC
330
1F
100
AcDbEntity
  8
HEWI
  6
IMPORT
 62
     7
100
AcDbLine
 10
448.6009429110151
 20
1331.687769974366
 30
0.0
 11
448.7152121676068
 21
1331.736292923585
 31
0.0
  0
LINE
  5
1EFD
330
1F
100
AcDbEntity
  8
HEWI
  6
IMPORT
 62
     7
100
AcDbLine
 10
412.4573729647258
 20
1331.752619827882
 30
0.0
 11
412.5862334383588
 21
1331.736292923585
 31
0.0
  0
LINE
  5
1EFE
330
1F
100
AcDbEntity
  8
HEWI
  6
IMPORT
 62
     7
100
AcDbLine
 10
408.6009429110149
 20
1331.687769974366
 30
0.0
 11
408.7152121676066
 21
1331.736292923585
 31
0.0
  0
LINE
  5
1EFF
330
1F
100
AcDbEntity
  8
HEWI
  6
IMPORT
 62
     7
100
AcDbLine
 10
372.457372964726
 20
1331.752619827882
 30
0.0
 11
372.5862334383588
 21
1331.736292923585
 31
0.0
  0
LINE
  5
1F00
330
1F
100
AcDbEntity
  8
HEWI
  6
IMPORT
 62
     7
100
AcDbLine
 10
368.6009429110151
 20
1331.687769974366
 30
0.0
 11
368.7152121676068
 21
1331.736292923585
 31
0.0
  0
LINE
  5
1F01
330
1F
100
AcDbEntity
  8
HEWI
  6
IMPORT
 62
     7
100
AcDbLine
 10
332.457372964726
 20
1331.752619827882
 30
0.0
 11
332.5862334383588
 21
1331.736292923585
 31
0.0
  0
LINE
  5
1F02
330
1F
100
AcDbEntity
  8
HEWI
  6
IMPORT
 62
     7
100
AcDbLine
 10
328.6009429110151
 20
1331.687769974366
 30
0.0
 11
328.7152121676069
 21
1331.736292923585
 31
0.0
  0
LINE
  5
1F03
330
1F
100
AcDbEntity
  8
HEWI
  6
IMPORT
 62
     7
100
AcDbLine
 10
650.0085685862167
 20
1331.899828995362
 30
0.0
 11
651.1625192774395
 21
1331.91630848755
 31
0.0
  0
LINE
  5
1F04
330
1F
100
AcDbEntity
  8
HEWI
  6
IMPORT
 62
     7
100
AcDbLine
 10
610.0085697783096
 20
1331.899828995362
 30
0.0
 11
611.1625192774396
 21
1331.91630848755
 31
0.0
  0
LINE
  5
1F05
330
1F
100
AcDbEntity
  8
HEWI
  6
IMPORT
 62
     7
100
AcDbLine
 10
570.0085709704018
 20
1331.899828995362
 30
0.0
 11
571.1625216616247
 21
1331.91630848755
 31
0.0
  0
LINE
  5
1F06
330
1F
100
AcDbEntity
  8
HEWI
  6
IMPORT
 62
     7
100
AcDbLine
 10
530.0085662020307
 20
1331.899828995362
 30
0.0
 11
531.1625216616256
 21
1331.91630848755
 31
0.0
  0
LINE
  5
1F07
330
1F
100
AcDbEntity
  8
HEWI
  6
IMPORT
 62
     7
100
AcDbLine
 10
490.0085662020306
 20
1331.899828995362
 30
0.0
 11
491.1625216616256
 21
1331.91630848755
 31
0.0
  0
LINE
  5
1F08
330
1F
100
AcDbEntity
  8
HEWI
  6
IMPORT
 62
     7
100
AcDbLine
 10
450.0085662020307
 20
1331.899828995362
 30
0.0
 11
451.1625121248819
 21
1331.91630848755
 31
0.0
  0
LINE
  5
1F09
330
1F
100
AcDbEntity
  8
HEWI
  6
IMPORT
 62
     7
100
AcDbLine
 10
410.0085662020304
 20
1331.899828995362
 30
0.0
 11
411.1625121248819
 21
1331.91630848755
 31
0.0
  0
LINE
  5
1F0A
330
1F
100
AcDbEntity
  8
HEWI
  6
IMPORT
 62
     7
100
AcDbLine
 10
370.0085662020305
 20
1331.899828995362
 30
0.0
 11
371.162512124882
 21
1331.91630848755
 31
0.0
  0
LINE
  5
1F0B
330
1F
100
AcDbEntity
  8
HEWI
  6
IMPORT
 62
     7
100
AcDbLine
 10
330.0085662020307
 20
1331.899828995362
 30
0.0
 11
331.162512124882
 21
1331.91630848755
 31
0.0
  0
LINE
  5
1F0C
330
1F
100
AcDbEntity
  8
HEWI
  6
IMPORT
 62
     7
100
AcDbLine
 10
653.6123393190957
 20
1331.300540054933
 30
0.0
 11
653.7228606356237
 21
1331.253619278565
 31
0.0
  0
LINE
  5
1F0D
330
1F
100
AcDbEntity
  8
HEWI
  6
IMPORT
 62
     7
100
AcDbLine
 10
613.6123393190956
 20
1331.300540054933
 30
0.0
 11
613.7228594435315
 21
1331.253619278565
 31
0.0
  0
LINE
  5
1F0E
330
1F
100
AcDbEntity
  8
HEWI
  6
IMPORT
 62
     7
100
AcDbLine
 10
573.6123393190958
 20
1331.300540054933
 30
0.0
 11
573.7228606356246
 21
1331.253619278565
 31
0.0
  0
LINE
  5
1F0F
330
1F
100
AcDbEntity
  8
HEWI
  6
IMPORT
 62
     7
100
AcDbLine
 10
533.6123393190956
 20
1331.300540054933
 30
0.0
 11
533.7228606356246
 21
1331.253619278565
 31
0.0
  0
LINE
  5
1F10
330
1F
100
AcDbEntity
  8
HEWI
  6
IMPORT
 62
     7
100
AcDbLine
 10
493.6123393190956
 20
1331.300540054933
 30
0.0
 11
493.7228606356247
 21
1331.253619278565
 31
0.0
  0
LINE
  5
1F11
330
1F
100
AcDbEntity
  8
HEWI
  6
IMPORT
 62
     7
100
AcDbLine
 10
453.6123488558391
 20
1331.300540054933
 30
0.0
 11
453.7228606356244
 21
1331.253619278565
 31
0.0
  0
LINE
  5
1F12
330
1F
100
AcDbEntity
  8
HEWI
  6
IMPORT
 62
     7
100
AcDbLine
 10
413.6123488558393
 20
1331.300540054933
 30
0.0
 11
413.7228606356243
 21
1331.253619278565
 31
0.0
  0
LINE
  5
1F13
330
1F
100
AcDbEntity
  8
HEWI
  6
IMPORT
 62
     7
100
AcDbLine
 10
373.6123488558393
 20
1331.300540054933
 30
0.0
 11
373.7228606356244
 21
1331.253619278565
 31
0.0
  0
LINE
  5
1F14
330
1F
100
AcDbEntity
  8
HEWI
  6
IMPORT
 62
     7
100
AcDbLine
 10
333.6123488558393
 20
1331.300540054933
 30
0.0
 11
333.7228606356244
 21
1331.253619278565
 31
0.0
  0
LINE
  5
1F15
330
1F
100
AcDbEntity
  8
HEWI
  6
IMPORT
 62
     7
100
AcDbLine
 10
648.1507299555397
 20
1280.66157826294
 30
0.0
 11
653.1507299555397
 21
1280.66157826294
 31
0.0
  0
LINE
  5
1F16
330
1F
100
AcDbEntity
  8
HEWI
  6
IMPORT
 62
     7
100
AcDbLine
 10
608.1507299555397
 20
1280.66157826294
 30
0.0
 11
613.1507299555397
 21
1280.66157826294
 31
0.0
  0
LINE
  5
1F17
330
1F
100
AcDbEntity
  8
HEWI
  6
IMPORT
 62
     7
100
AcDbLine
 10
568.1507275713537
 20
1280.66157826294
 30
0.0
 11
573.1507275713546
 21
1280.66157826294
 31
0.0
  0
LINE
  5
1F18
330
1F
100
AcDbEntity
  8
HEWI
  6
IMPORT
 62
     7
100
AcDbLine
 10
528.1507323397257
 20
1280.66157826294
 30
0.0
 11
533.1507323397257
 21
1280.66157826294
 31
0.0
  0
LINE
  5
1F19
330
1F
100
AcDbEntity
  8
HEWI
  6
IMPORT
 62
     7
100
AcDbLine
 10
488.1507323397257
 20
1280.66157826294
 30
0.0
 11
493.1507323397258
 21
1280.66157826294
 31
0.0
  0
LINE
  5
1F1A
330
1F
100
AcDbEntity
  8
HEWI
  6
IMPORT
 62
     7
100
AcDbLine
 10
448.1507323397258
 20
1280.66157826294
 30
0.0
 11
453.150732339726
 21
1280.66157826294
 31
0.0
  0
LINE
  5
1F1B
330
1F
100
AcDbEntity
  8
HEWI
  6
IMPORT
 62
     7
100
AcDbLine
 10
408.150732339726
 20
1280.66157826294
 30
0.0
 11
413.150732339726
 21
1280.66157826294
 31
0.0
  0
LINE
  5
1F1C
330
1F
100
AcDbEntity
  8
HEWI
  6
IMPORT
 62
     7
100
AcDbLine
 10
368.150732339726
 20
1280.66157826294
 30
0.0
 11
373.150732339726
 21
1280.66157826294
 31
0.0
  0
LINE
  5
1F1D
330
1F
100
AcDbEntity
  8
HEWI
  6
IMPORT
 62
     7
100
AcDbLine
 10
328.150732339726
 20
1280.66157826294
 30
0.0
 11
333.150732339726
 21
1280.66157826294
 31
0.0
  0
LINE
  5
1F1E
330
1F
100
AcDbEntity
  8
HEWI
  6
IMPORT
 62
     7
100
AcDbLine
 10
648.1507299555397
 20
1270.340876663819
 30
0.0
 11
653.1507299555397
 21
1270.340876663819
 31
0.0
  0
LINE
  5
1F1F
330
1F
100
AcDbEntity
  8
HEWI
  6
IMPORT
 62
     7
100
AcDbLine
 10
608.1507299555397
 20
1270.340876663819
 30
0.0
 11
613.1507299555397
 21
1270.340876663819
 31
0.0
  0
LINE
  5
1F20
330
1F
100
AcDbEntity
  8
HEWI
  6
IMPORT
 62
     7
100
AcDbLine
 10
568.1507275713537
 20
1270.340876663819
 30
0.0
 11
573.1507275713546
 21
1270.340876663819
 31
0.0
  0
LINE
  5
1F21
330
1F
100
AcDbEntity
  8
HEWI
  6
IMPORT
 62
     7
100
AcDbLine
 10
528.1507323397257
 20
1270.340876663819
 30
0.0
 11
533.1507323397257
 21
1270.340876663819
 31
0.0
  0
LINE
  5
1F22
330
1F
100
AcDbEntity
  8
HEWI
  6
IMPORT
 62
     7
100
AcDbLine
 10
488.1507323397257
 20
1270.340876663819
 30
0.0
 11
493.1507323397258
 21
1270.340876663819
 31
0.0
  0
LINE
  5
1F23
330
1F
100
AcDbEntity
  8
HEWI
  6
IMPORT
 62
     7
100
AcDbLine
 10
448.1507323397258
 20
1270.340876663819
 30
0.0
 11
453.150732339726
 21
1270.340876663819
 31
0.0
  0
LINE
  5
1F24
330
1F
100
AcDbEntity
  8
HEWI
  6
IMPORT
 62
     7
100
AcDbLine
 10
408.150732339726
 20
1270.340876663819
 30
0.0
 11
413.150732339726
 21
1270.340876663819
 31
0.0
  0
LINE
  5
1F25
330
1F
100
AcDbEntity
  8
HEWI
  6
IMPORT
 62
     7
100
AcDbLine
 10
368.150732339726
 20
1270.340876663819
 30
0.0
 11
373.150732339726
 21
1270.340876663819
 31
0.0
  0
LINE
  5
1F26
330
1F
100
AcDbEntity
  8
HEWI
  6
IMPORT
 62
     7
100
AcDbLine
 10
328.150732339726
 20
1270.340876663819
 30
0.0
 11
333.150732339726
 21
1270.340876663819
 31
0.0
  0
LINE
  5
1F27
330
1F
100
AcDbEntity
  8
HEWI
  6
IMPORT
 62
     7
100
AcDbLine
 10
653.1507299555397
 20
1270.340876663819
 30
0.0
 11
653.1507299555397
 21
1289.280085648194
 31
0.0
  0
LINE
  5
1F28
330
1F
100
AcDbEntity
  8
HEWI
  6
IMPORT
 62
     7
100
AcDbLine
 10
648.1507299555397
 20
1270.340876663819
 30
0.0
 11
648.1507299555397
 21
1289.280085648194
 31
0.0
  0
LINE
  5
1F29
330
1F
100
AcDbEntity
  8
HEWI
  6
IMPORT
 62
     7
100
AcDbLine
 10
645.6507299555397
 20
1330.626864517823
 30
0.0
 11
645.7471488131147
 21
1336.821665848389
 31
0.0
  0
LINE
  5
1F2A
330
1F
100
AcDbEntity
  8
HEWI
  6
IMPORT
 62
     7
100
AcDbLine
 10
645.6507299555397
 20
1291.927332962647
 30
0.0
 11
645.6507299555397
 21
1328.082079971925
 31
0.0
  0
LINE
  5
1F2B
330
1F
100
AcDbEntity
  8
HEWI
  6
IMPORT
 62
     7
100
AcDbLine
 10
655.6507299555398
 20
1330.626864517823
 30
0.0
 11
655.6507299555398
 21
1336.38595112671
 31
0.0
  0
LINE
  5
1F2C
330
1F
100
AcDbEntity
  8
HEWI
  6
IMPORT
 62
     7
100
AcDbLine
 10
655.6507299555398
 20
1291.927332962647
 30
0.0
 11
655.6507299555398
 21
1328.082079971925
 31
0.0
  0
LINE
  5
1F2D
330
1F
100
AcDbEntity
  8
HEWI
  6
IMPORT
 62
     7
100
AcDbLine
 10
646.1376903666115
 20
1329.75265034546
 30
0.0
 11
646.2012098444554
 21
1329.955630386964
 31
0.0
  0
LINE
  5
1F2E
330
1F
100
AcDbEntity
  8
HEWI
  6
IMPORT
 62
     7
100
AcDbLine
 10
655.3628395212746
 20
1328.926348770753
 30
0.0
 11
655.4223583353615
 21
1329.116549576417
 31
0.0
  0
LINE
  5
1F2F
330
1F
100
AcDbEntity
  8
HEWI
  6
IMPORT
 62
     7
100
AcDbLine
 10
333.150732339726
 20
1270.340876663819
 30
0.0
 11
333.150732339726
 21
1289.280085648194
 31
0.0
  0
LINE
  5
1F30
330
1F
100
AcDbEntity
  8
HEWI
  6
IMPORT
 62
     7
100
AcDbLine
 10
328.150732339726
 20
1270.340876663819
 30
0.0
 11
328.150732339726
 21
1289.280085648194
 31
0.0
  0
LINE
  5
1F31
330
1F
100
AcDbEntity
  8
HEWI
  6
IMPORT
 62
     7
100
AcDbLine
 10
325.650732339726
 20
1330.626864517823
 30
0.0
 11
325.7471488131147
 21
1336.821665848389
 31
0.0
  0
LINE
  5
1F32
330
1F
100
AcDbEntity
  8
HEWI
  6
IMPORT
 62
     7
100
AcDbLine
 10
325.650732339726
 20
1291.927332962647
 30
0.0
 11
325.650732339726
 21
1328.082079971925
 31
0.0
  0
LINE
  5
1F33
330
1F
100
AcDbEntity
  8
HEWI
  6
IMPORT
 62
     7
100
AcDbLine
 10
335.650732339726
 20
1330.626864517823
 30
0.0
 11
335.650732339726
 21
1336.38595112671
 31
0.0
  0
LINE
  5
1F34
330
1F
100
AcDbEntity
  8
HEWI
  6
IMPORT
 62
     7
100
AcDbLine
 10
335.650732339726
 20
1291.927332962647
 30
0.0
 11
335.650732339726
 21
1328.082079971925
 31
0.0
  0
LINE
  5
1F35
330
1F
100
AcDbEntity
  8
HEWI
  6
IMPORT
 62
     7
100
AcDbLine
 10
326.1376975191691
 20
1329.75265034546
 30
0.0
 11
326.201212228642
 21
1329.955630386964
 31
0.0
  0
LINE
  5
1F36
330
1F
100
AcDbEntity
  8
HEWI
  6
IMPORT
 62
     7
100
AcDbLine
 10
335.3628371370893
 20
1328.926348770753
 30
0.0
 11
335.4223654879194
 21
1329.116549576417
 31
0.0
  0
LINE
  5
1F37
330
1F
100
AcDbEntity
  8
HEWI
  6
IMPORT
 62
     7
100
AcDbLine
 10
373.150732339726
 20
1270.340876663819
 30
0.0
 11
373.150732339726
 21
1289.280085648194
 31
0.0
  0
LINE
  5
1F38
330
1F
100
AcDbEntity
  8
HEWI
  6
IMPORT
 62
     7
100
AcDbLine
 10
368.150732339726
 20
1270.340876663819
 30
0.0
 11
368.150732339726
 21
1289.280085648194
 31
0.0
  0
LINE
  5
1F39
330
1F
100
AcDbEntity
  8
HEWI
  6
IMPORT
 62
     7
100
AcDbLine
 10
365.650732339726
 20
1330.626864517823
 30
0.0
 11
365.7471488131147
 21
1336.821665848389
 31
0.0
  0
LINE
  5
1F3A
330
1F
100
AcDbEntity
  8
HEWI
  6
IMPORT
 62
     7
100
AcDbLine
 10
365.650732339726
 20
1291.927332962647
 30
0.0
 11
365.650732339726
 21
1328.082079971925
 31
0.0
  0
LINE
  5
1F3B
330
1F
100
AcDbEntity
  8
HEWI
  6
IMPORT
 62
     7
100
AcDbLine
 10
375.650732339726
 20
1330.626864517823
 30
0.0
 11
375.650732339726
 21
1336.38595112671
 31
0.0
  0
LINE
  5
1F3C
330
1F
100
AcDbEntity
  8
HEWI
  6
IMPORT
 62
     7
100
AcDbLine
 10
375.650732339726
 20
1291.927332962647
 30
0.0
 11
375.650732339726
 21
1328.082079971925
 31
0.0
  0
LINE
  5
1F3D
330
1F
100
AcDbEntity
  8
HEWI
  6
IMPORT
 62
     7
100
AcDbLine
 10
366.1376975191694
 20
1329.75265034546
 30
0.0
 11
366.201212228642
 21
1329.955630386964
 31
0.0
  0
LINE
  5
1F3E
330
1F
100
AcDbEntity
  8
HEWI
  6
IMPORT
 62
     7
100
AcDbLine
 10
375.3628371370893
 20
1328.926348770753
 30
0.0
 11
375.4223654879194
 21
1329.116549576417
 31
0.0
  0
LINE
  5
1F3F
330
1F
100
AcDbEntity
  8
HEWI
  6
IMPORT
 62
     7
100
AcDbLine
 10
413.150732339726
 20
1270.340876663819
 30
0.0
 11
413.150732339726
 21
1289.280085648194
 31
0.0
  0
LINE
  5
1F40
330
1F
100
AcDbEntity
  8
HEWI
  6
IMPORT
 62
     7
100
AcDbLine
 10
408.150732339726
 20
1270.340876663819
 30
0.0
 11
408.150732339726
 21
1289.280085648194
 31
0.0
  0
LINE
  5
1F41
330
1F
100
AcDbEntity
  8
HEWI
  6
IMPORT
 62
     7
100
AcDbLine
 10
405.6507323397259
 20
1330.626864517823
 30
0.0
 11
405.7471488131146
 21
1336.821665848389
 31
0.0
  0
LINE
  5
1F42
330
1F
100
AcDbEntity
  8
HEWI
  6
IMPORT
 62
     7
100
AcDbLine
 10
405.6507323397259
 20
1291.927332962647
 30
0.0
 11
405.6507323397259
 21
1328.082079971925
 31
0.0
  0
LINE
  5
1F43
330
1F
100
AcDbEntity
  8
HEWI
  6
IMPORT
 62
     7
100
AcDbLine
 10
415.650732339726
 20
1330.626864517823
 30
0.0
 11
415.650732339726
 21
1336.38595112671
 31
0.0
  0
LINE
  5
1F44
330
1F
100
AcDbEntity
  8
HEWI
  6
IMPORT
 62
     7
100
AcDbLine
 10
415.650732339726
 20
1291.927332962647
 30
0.0
 11
415.650732339726
 21
1328.082079971925
 31
0.0
  0
LINE
  5
1F45
330
1F
100
AcDbEntity
  8
HEWI
  6
IMPORT
 62
     7
100
AcDbLine
 10
406.1376975191692
 20
1329.75265034546
 30
0.0
 11
406.2012122286419
 21
1329.955630386964
 31
0.0
  0
LINE
  5
1F46
330
1F
100
AcDbEntity
  8
HEWI
  6
IMPORT
 62
     7
100
AcDbLine
 10
415.3628371370891
 20
1328.926348770753
 30
0.0
 11
415.4223654879193
 21
1329.116549576417
 31
0.0
  0
LINE
  5
1F47
330
1F
100
AcDbEntity
  8
HEWI
  6
IMPORT
 62
     7
100
AcDbLine
 10
453.150732339726
 20
1270.340876663819
 30
0.0
 11
453.150732339726
 21
1289.280085648194
 31
0.0
  0
LINE
  5
1F48
330
1F
100
AcDbEntity
  8
HEWI
  6
IMPORT
 62
     7
100
AcDbLine
 10
448.1507323397258
 20
1270.340876663819
 30
0.0
 11
448.1507323397258
 21
1289.280085648194
 31
0.0
  0
LINE
  5
1F49
330
1F
100
AcDbEntity
  8
HEWI
  6
IMPORT
 62
     7
100
AcDbLine
 10
445.650732339726
 20
1330.626864517823
 30
0.0
 11
445.7471488131144
 21
1336.821665848389
 31
0.0
  0
LINE
  5
1F4A
330
1F
100
AcDbEntity
  8
HEWI
  6
IMPORT
 62
     7
100
AcDbLine
 10
445.650732339726
 20
1291.927332962647
 30
0.0
 11
445.650732339726
 21
1328.082079971925
 31
0.0
  0
LINE
  5
1F4B
330
1F
100
AcDbEntity
  8
HEWI
  6
IMPORT
 62
     7
100
AcDbLine
 10
455.6507323397259
 20
1330.626864517823
 30
0.0
 11
455.6507323397259
 21
1336.38595112671
 31
0.0
  0
LINE
  5
1F4C
330
1F
100
AcDbEntity
  8
HEWI
  6
IMPORT
 62
     7
100
AcDbLine
 10
455.6507323397259
 20
1291.927332962647
 30
0.0
 11
455.6507323397259
 21
1328.082079971925
 31
0.0
  0
LINE
  5
1F4D
330
1F
100
AcDbEntity
  8
HEWI
  6
IMPORT
 62
     7
100
AcDbLine
 10
446.1376975191694
 20
1329.75265034546
 30
0.0
 11
446.2012122286419
 21
1329.955630386964
 31
0.0
  0
LINE
  5
1F4E
330
1F
100
AcDbEntity
  8
HEWI
  6
IMPORT
 62
     7
100
AcDbLine
 10
455.3628371370892
 20
1328.926348770753
 30
0.0
 11
455.4223654879193
 21
1329.116549576417
 31
0.0
  0
LINE
  5
1F4F
330
1F
100
AcDbEntity
  8
HEWI
  6
IMPORT
 62
     7
100
AcDbLine
 10
493.1507323397258
 20
1270.340876663819
 30
0.0
 11
493.1507323397258
 21
1289.280085648194
 31
0.0
  0
LINE
  5
1F50
330
1F
100
AcDbEntity
  8
HEWI
  6
IMPORT
 62
     7
100
AcDbLine
 10
488.1507323397257
 20
1270.340876663819
 30
0.0
 11
488.1507323397257
 21
1289.280085648194
 31
0.0
  0
LINE
  5
1F51
330
1F
100
AcDbEntity
  8
HEWI
  6
IMPORT
 62
     7
100
AcDbLine
 10
485.6507323397257
 20
1330.626864517823
 30
0.0
 11
485.7471488131146
 21
1336.821665848389
 31
0.0
  0
LINE
  5
1F52
330
1F
100
AcDbEntity
  8
HEWI
  6
IMPORT
 62
     7
100
AcDbLine
 10
485.6507323397257
 20
1291.927332962647
 30
0.0
 11
485.6507323397257
 21
1328.082079971925
 31
0.0
  0
LINE
  5
1F53
330
1F
100
AcDbEntity
  8
HEWI
  6
IMPORT
 62
     7
100
AcDbLine
 10
495.6507323397257
 20
1330.626864517823
 30
0.0
 11
495.6507323397257
 21
1336.38595112671
 31
0.0
  0
LINE
  5
1F54
330
1F
100
AcDbEntity
  8
HEWI
  6
IMPORT
 62
     7
100
AcDbLine
 10
495.6507323397257
 20
1291.927332962647
 30
0.0
 11
495.6507323397257
 21
1328.082079971925
 31
0.0
  0
LINE
  5
1F55
330
1F
100
AcDbEntity
  8
HEWI
  6
IMPORT
 62
     7
100
AcDbLine
 10
486.1376879824256
 20
1329.75265034546
 30
0.0
 11
486.2012122286414
 21
1329.955630386964
 31
0.0
  0
LINE
  5
1F56
330
1F
100
AcDbEntity
  8
HEWI
  6
IMPORT
 62
     7
100
AcDbLine
 10
495.3628371370887
 20
1328.926348770753
 30
0.0
 11
495.4223559511756
 21
1329.116549576417
 31
0.0
  0
LINE
  5
1F57
330
1F
100
AcDbEntity
  8
HEWI
  6
IMPORT
 62
     7
100
AcDbLine
 10
533.1507323397257
 20
1270.340876663819
 30
0.0
 11
533.1507323397257
 21
1289.280085648194
 31
0.0
  0
LINE
  5
1F58
330
1F
100
AcDbEntity
  8
HEWI
  6
IMPORT
 62
     7
100
AcDbLine
 10
528.1507323397257
 20
1270.340876663819
 30
0.0
 11
528.1507323397257
 21
1289.280085648194
 31
0.0
  0
LINE
  5
1F59
330
1F
100
AcDbEntity
  8
HEWI
  6
IMPORT
 62
     7
100
AcDbLine
 10
525.6507323397257
 20
1330.626864517823
 30
0.0
 11
525.7471488131146
 21
1336.821665848389
 31
0.0
  0
LINE
  5
1F5A
330
1F
100
AcDbEntity
  8
HEWI
  6
IMPORT
 62
     7
100
AcDbLine
 10
525.6507323397257
 20
1291.927332962647
 30
0.0
 11
525.6507323397257
 21
1328.082079971925
 31
0.0
  0
LINE
  5
1F5B
330
1F
100
AcDbEntity
  8
HEWI
  6
IMPORT
 62
     7
100
AcDbLine
 10
535.6507323397257
 20
1330.626864517823
 30
0.0
 11
535.6507323397257
 21
1336.38595112671
 31
0.0
  0
LINE
  5
1F5C
330
1F
100
AcDbEntity
  8
HEWI
  6
IMPORT
 62
     7
100
AcDbLine
 10
535.6507323397257
 20
1291.927332962647
 30
0.0
 11
535.6507323397257
 21
1328.082079971925
 31
0.0
  0
LINE
  5
1F5D
330
1F
100
AcDbEntity
  8
HEWI
  6
IMPORT
 62
     7
100
AcDbLine
 10
526.1376879824257
 20
1329.75265034546
 30
0.0
 11
526.2012122286416
 21
1329.955630386964
 31
0.0
  0
LINE
  5
1F5E
330
1F
100
AcDbEntity
  8
HEWI
  6
IMPORT
 62
     7
100
AcDbLine
 10
535.3628371370897
 20
1328.926348770753
 30
0.0
 11
535.4223559511757
 21
1329.116549576417
 31
0.0
  0
LINE
  5
1F5F
330
1F
100
AcDbEntity
  8
HEWI
  6
IMPORT
 62
     7
100
AcDbLine
 10
573.1507275713546
 20
1270.340876663819
 30
0.0
 11
573.1507275713546
 21
1289.280085648194
 31
0.0
  0
LINE
  5
1F60
330
1F
100
AcDbEntity
  8
HEWI
  6
IMPORT
 62
     7
100
AcDbLine
 10
568.1507275713537
 20
1270.340876663819
 30
0.0
 11
568.1507275713537
 21
1289.280085648194
 31
0.0
  0
LINE
  5
1F61
330
1F
100
AcDbEntity
  8
HEWI
  6
IMPORT
 62
     7
100
AcDbLine
 10
565.6507275713537
 20
1330.626864517823
 30
0.0
 11
565.7471488131148
 21
1336.821665848389
 31
0.0
  0
LINE
  5
1F62
330
1F
100
AcDbEntity
  8
HEWI
  6
IMPORT
 62
     7
100
AcDbLine
 10
565.6507275713537
 20
1291.927332962647
 30
0.0
 11
565.6507275713537
 21
1328.082079971925
 31
0.0
  0
LINE
  5
1F63
330
1F
100
AcDbEntity
  8
HEWI
  6
IMPORT
 62
     7
100
AcDbLine
 10
575.6507275713537
 20
1330.626864517823
 30
0.0
 11
575.6507275713537
 21
1336.38595112671
 31
0.0
  0
LINE
  5
1F64
330
1F
100
AcDbEntity
  8
HEWI
  6
IMPORT
 62
     7
100
AcDbLine
 10
575.6507275713537
 20
1291.927332962647
 30
0.0
 11
575.6507275713537
 21
1328.082079971925
 31
0.0
  0
LINE
  5
1F65
330
1F
100
AcDbEntity
  8
HEWI
  6
IMPORT
 62
     7
100
AcDbLine
 10
566.1376879824257
 20
1329.75265034546
 30
0.0
 11
566.2012074602706
 21
1329.955630386964
 31
0.0
  0
LINE
  5
1F66
330
1F
100
AcDbEntity
  8
HEWI
  6
IMPORT
 62
     7
100
AcDbLine
 10
575.3628371370888
 20
1328.926348770753
 30
0.0
 11
575.4223607195477
 21
1329.116549576417
 31
0.0
  0
LINE
  5
1F67
330
1F
100
AcDbEntity
  8
HEWI
  6
IMPORT
 62
     7
100
AcDbLine
 10
613.1507299555397
 20
1270.340876663819
 30
0.0
 11
613.1507299555397
 21
1289.280085648194
 31
0.0
  0
LINE
  5
1F68
330
1F
100
AcDbEntity
  8
HEWI
  6
IMPORT
 62
     7
100
AcDbLine
 10
608.1507299555397
 20
1270.340876663819
 30
0.0
 11
608.1507299555397
 21
1289.280085648194
 31
0.0
  0
LINE
  5
1F69
330
1F
100
AcDbEntity
  8
HEWI
  6
IMPORT
 62
     7
100
AcDbLine
 10
605.6507299555398
 20
1330.626864517823
 30
0.0
 11
605.7471500052075
 21
1336.821665848389
 31
0.0
  0
LINE
  5
1F6A
330
1F
100
AcDbEntity
  8
HEWI
  6
IMPORT
 62
     7
100
AcDbLine
 10
605.6507299555398
 20
1291.927332962647
 30
0.0
 11
605.6507299555398
 21
1328.082079971925
 31
0.0
  0
LINE
  5
1F6B
330
1F
100
AcDbEntity
  8
HEWI
  6
IMPORT
 62
     7
100
AcDbLine
 10
615.6507293594938
 20
1330.626864517823
 30
0.0
 11
615.6507293594938
 21
1336.38595112671
 31
0.0
  0
LINE
  5
1F6C
330
1F
100
AcDbEntity
  8
HEWI
  6
IMPORT
 62
     7
100
AcDbLine
 10
615.6507293594938
 20
1291.927332962647
 30
0.0
 11
615.6507293594938
 21
1328.082079971925
 31
0.0
  0
LINE
  5
1F6D
330
1F
100
AcDbEntity
  8
HEWI
  6
IMPORT
 62
     7
100
AcDbLine
 10
606.1376891745186
 20
1329.75265034546
 30
0.0
 11
606.2012098444554
 21
1329.955630386964
 31
0.0
  0
LINE
  5
1F6E
330
1F
100
AcDbEntity
  8
HEWI
  6
IMPORT
 62
     7
100
AcDbLine
 10
615.3628395212746
 20
1328.926348770753
 30
0.0
 11
615.4223595274546
 21
1329.116549576417
 31
0.0
  0
LINE
  5
1F6F
330
1F
100
AcDbEntity
  8
HEWI
  6
IMPORT
 62
     7
100
AcDbLine
 10
646.2012098444554
 20
1329.955630386964
 30
0.0
 11
647.1055601252177
 21
1330.815844620362
 31
0.0
  0
LINE
  5
1F70
330
1F
100
AcDbEntity
  8
HEWI
  6
IMPORT
 62
     7
100
AcDbLine
 10
326.201212228642
 20
1329.955630386964
 30
0.0
 11
327.1055625094037
 21
1330.815844620362
 31
0.0
  0
LINE
  5
1F71
330
1F
100
AcDbEntity
  8
HEWI
  6
IMPORT
 62
     7
100
AcDbLine
 10
366.201212228642
 20
1329.955630386964
 30
0.0
 11
367.1055625094037
 21
1330.815844620362
 31
0.0
  0
LINE
  5
1F72
330
1F
100
AcDbEntity
  8
HEWI
  6
IMPORT
 62
     7
100
AcDbLine
 10
406.2012122286419
 20
1329.955630386964
 30
0.0
 11
407.1055625094037
 21
1330.815844620362
 31
0.0
  0
LINE
  5
1F73
330
1F
100
AcDbEntity
  8
HEWI
  6
IMPORT
 62
     7
100
AcDbLine
 10
446.2012122286419
 20
1329.955630386964
 30
0.0
 11
447.1055625094036
 21
1330.815844620362
 31
0.0
  0
LINE
  5
1F74
330
1F
100
AcDbEntity
  8
HEWI
  6
IMPORT
 62
     7
100
AcDbLine
 10
486.2012122286414
 20
1329.955630386964
 30
0.0
 11
487.1055625094037
 21
1330.815844620362
 31
0.0
  0
LINE
  5
1F75
330
1F
100
AcDbEntity
  8
HEWI
  6
IMPORT
 62
     7
100
AcDbLine
 10
526.2012122286416
 20
1329.955630386964
 30
0.0
 11
527.1055625094037
 21
1330.815844620362
 31
0.0
  0
LINE
  5
1F76
330
1F
100
AcDbEntity
  8
HEWI
  6
IMPORT
 62
     7
100
AcDbLine
 10
566.2012074602706
 20
1329.955630386964
 30
0.0
 11
567.1055577410316
 21
1330.815844620362
 31
0.0
  0
LINE
  5
1F77
330
1F
100
AcDbEntity
  8
HEWI
  6
IMPORT
 62
     7
100
AcDbLine
 10
606.2012098444554
 20
1329.955630386964
 30
0.0
 11
607.1055589331246
 21
1330.815844620362
 31
0.0
  0
LINE
  5
1F78
330
1F
100
AcDbEntity
  8
HEWI
  6
IMPORT
 62
     7
100
AcDbLine
 10
647.1055601252177
 20
1330.815844620362
 30
0.0
 11
647.5785992754555
 21
1331.253619278565
 31
0.0
  0
LINE
  5
1F79
330
1F
100
AcDbEntity
  8
HEWI
  6
IMPORT
 62
     7
100
AcDbLine
 10
327.1055625094037
 20
1330.815844620362
 30
0.0
 11
327.5786040438276
 21
1331.253619278565
 31
0.0
  0
LINE
  5
1F7A
330
1F
100
AcDbEntity
  8
HEWI
  6
IMPORT
 62
     7
100
AcDbLine
 10
367.1055625094037
 20
1330.815844620362
 30
0.0
 11
367.5786040438276
 21
1331.253619278565
 31
0.0
  0
LINE
  5
1F7B
330
1F
100
AcDbEntity
  8
HEWI
  6
IMPORT
 62
     7
100
AcDbLine
 10
407.1055625094037
 20
1330.815844620362
 30
0.0
 11
407.5786040438274
 21
1331.253619278565
 31
0.0
  0
LINE
  5
1F7C
330
1F
100
AcDbEntity
  8
HEWI
  6
IMPORT
 62
     7
100
AcDbLine
 10
447.1055625094036
 20
1330.815844620362
 30
0.0
 11
447.5786040438276
 21
1331.253619278565
 31
0.0
  0
LINE
  5
1F7D
330
1F
100
AcDbEntity
  8
HEWI
  6
IMPORT
 62
     7
100
AcDbLine
 10
487.1055625094037
 20
1330.815844620362
 30
0.0
 11
487.5786040438275
 21
1331.253619278565
 31
0.0
  0
LINE
  5
1F7E
330
1F
100
AcDbEntity
  8
HEWI
  6
IMPORT
 62
     7
100
AcDbLine
 10
527.1055625094037
 20
1330.815844620362
 30
0.0
 11
527.5786040438267
 21
1331.253619278565
 31
0.0
  0
LINE
  5
1F7F
330
1F
100
AcDbEntity
  8
HEWI
  6
IMPORT
 62
     7
100
AcDbLine
 10
567.1055577410316
 20
1330.815844620362
 30
0.0
 11
567.5785992754555
 21
1331.253619278565
 31
0.0
  0
LINE
  5
1F80
330
1F
100
AcDbEntity
  8
HEWI
  6
IMPORT
 62
     7
100
AcDbLine
 10
607.1055589331246
 20
1330.815844620362
 30
0.0
 11
607.5785992754555
 21
1331.253619278565
 31
0.0
  0
LINE
  5
1F81
330
1F
100
AcDbEntity
  8
HEWI
  6
IMPORT
 62
     7
100
AcDbLine
 10
645.9856603754616
 20
1290.413851822511
 30
0.0
 11
646.9394586695297
 21
1289.130778397218
 31
0.0
  0
LINE
  5
1F82
330
1F
100
AcDbEntity
  8
HEWI
  6
IMPORT
 62
     7
100
AcDbLine
 10
654.3619988573647
 20
1339.18250569214
 30
0.0
 11
655.3157995356175
 21
1337.899470413819
 31
0.0
  0
LINE
  5
1F83
330
1F
100
AcDbEntity
  8
HEWI
  6
IMPORT
 62
     7
100
AcDbLine
 10
325.9856627596479
 20
1290.413851822511
 30
0.0
 11
326.9394515169719
 21
1289.130778397218
 31
0.0
  0
LINE
  5
1F84
330
1F
100
AcDbEntity
  8
HEWI
  6
IMPORT
 62
     7
100
AcDbLine
 10
334.3619940889936
 20
1339.18250569214
 30
0.0
 11
335.3158019198039
 21
1337.899470413819
 31
0.0
  0
LINE
  5
1F85
330
1F
100
AcDbEntity
  8
HEWI
  6
IMPORT
 62
     7
100
AcDbLine
 10
365.9856627596479
 20
1290.413851822511
 30
0.0
 11
366.9394515169721
 21
1289.130778397218
 31
0.0
  0
LINE
  5
1F86
330
1F
100
AcDbEntity
  8
HEWI
  6
IMPORT
 62
     7
100
AcDbLine
 10
374.3619940889936
 20
1339.18250569214
 30
0.0
 11
375.3158019198041
 21
1337.899470413819
 31
0.0
  0
LINE
  5
1F87
330
1F
100
AcDbEntity
  8
HEWI
  6
IMPORT
 62
     7
100
AcDbLine
 10
405.9856627596478
 20
1290.413851822511
 30
0.0
 11
406.9394515169721
 21
1289.130778397218
 31
0.0
  0
LINE
  5
1F88
330
1F
100
AcDbEntity
  8
HEWI
  6
IMPORT
 62
     7
100
AcDbLine
 10
414.3619940889935
 20
1339.18250569214
 30
0.0
 11
415.3158019198041
 21
1337.899470413819
 31
0.0
  0
LINE
  5
1F89
330
1F
100
AcDbEntity
  8
HEWI
  6
IMPORT
 62
     7
100
AcDbLine
 10
445.9856627596476
 20
1290.413851822511
 30
0.0
 11
446.9394515169721
 21
1289.130778397218
 31
0.0
  0
LINE
  5
1F8A
330
1F
100
AcDbEntity
  8
HEWI
  6
IMPORT
 62
     7
100
AcDbLine
 10
454.3619940889936
 20
1339.18250569214
 30
0.0
 11
455.3158019198041
 21
1337.899470413819
 31
0.0
  0
LINE
  5
1F8B
330
1F
100
AcDbEntity
  8
HEWI
  6
IMPORT
 62
     7
100
AcDbLine
 10
485.9856627596475
 20
1290.413851822511
 30
0.0
 11
486.9394610537148
 21
1289.130778397218
 31
0.0
  0
LINE
  5
1F8C
330
1F
100
AcDbEntity
  8
HEWI
  6
IMPORT
 62
     7
100
AcDbLine
 10
494.3620036257367
 20
1339.18250569214
 30
0.0
 11
495.3158019198037
 21
1337.899470413819
 31
0.0
  0
LINE
  5
1F8D
330
1F
100
AcDbEntity
  8
HEWI
  6
IMPORT
 62
     7
100
AcDbLine
 10
525.9856627596476
 20
1290.413851822511
 30
0.0
 11
526.9394610537148
 21
1289.130778397218
 31
0.0
  0
LINE
  5
1F8E
330
1F
100
AcDbEntity
  8
HEWI
  6
IMPORT
 62
     7
100
AcDbLine
 10
534.3620036257367
 20
1339.18250569214
 30
0.0
 11
535.3158019198036
 21
1337.899470413819
 31
0.0
  0
LINE
  5
1F8F
330
1F
100
AcDbEntity
  8
HEWI
  6
IMPORT
 62
     7
100
AcDbLine
 10
565.9856579912758
 20
1290.413851822511
 30
0.0
 11
566.9394610537148
 21
1289.130778397218
 31
0.0
  0
LINE
  5
1F90
330
1F
100
AcDbEntity
  8
HEWI
  6
IMPORT
 62
     7
100
AcDbLine
 10
574.3619988573647
 20
1339.18250569214
 30
0.0
 11
575.3157971514325
 21
1337.899470413819
 31
0.0
  0
LINE
  5
1F91
330
1F
100
AcDbEntity
  8
HEWI
  6
IMPORT
 62
     7
100
AcDbLine
 10
605.9856591833687
 20
1290.413851822511
 30
0.0
 11
606.9394598616216
 21
1289.130778397218
 31
0.0
  0
LINE
  5
1F92
330
1F
100
AcDbEntity
  8
HEWI
  6
IMPORT
 62
     7
100
AcDbLine
 10
614.3619994534116
 20
1339.18250569214
 30
0.0
 11
615.3157995356175
 21
1337.899470413819
 31
0.0
  0
LINE
  5
1F93
330
1F
100
AcDbEntity
  8
HEWI
  6
IMPORT
 62
     7
100
AcDbLine
 10
652.9345296038246
 20
1289.150233353272
 30
0.0
 11
653.1507299555397
 21
1289.280085648194
 31
0.0
  0
LINE
  5
1F94
330
1F
100
AcDbEntity
  8
HEWI
  6
IMPORT
 62
     7
100
AcDbLine
 10
653.1507299555397
 20
1288.403315628663
 30
0.0
 11
654.3619988573647
 21
1289.130778397218
 31
0.0
  0
LINE
  5
1F95
330
1F
100
AcDbEntity
  8
HEWI
  6
IMPORT
 62
     7
100
AcDbLine
 10
646.9394586695297
 20
1339.18250569214
 30
0.0
 11
648.3669183863256
 21
1340.039858902589
 31
0.0
  0
LINE
  5
1F96
330
1F
100
AcDbEntity
  8
HEWI
  6
IMPORT
 62
     7
100
AcDbLine
 10
332.9345343721967
 20
1289.150233353272
 30
0.0
 11
333.150732339726
 21
1289.280085648194
 31
0.0
  0
LINE
  5
1F97
330
1F
100
AcDbEntity
  8
HEWI
  6
IMPORT
 62
     7
100
AcDbLine
 10
333.150732339726
 20
1288.403315628663
 30
0.0
 11
334.3619940889936
 21
1289.130778397218
 31
0.0
  0
LINE
  5
1F98
330
1F
100
AcDbEntity
  8
HEWI
  6
IMPORT
 62
     7
100
AcDbLine
 10
326.9394515169719
 20
1339.18250569214
 30
0.0
 11
328.366911233769
 21
1340.039858902589
 31
0.0
  0
LINE
  5
1F99
330
1F
100
AcDbEntity
  8
HEWI
  6
IMPORT
 62
     7
100
AcDbLine
 10
372.9345343721965
 20
1289.150233353272
 30
0.0
 11
373.150732339726
 21
1289.280085648194
 31
0.0
  0
LINE
  5
1F9A
330
1F
100
AcDbEntity
  8
HEWI
  6
IMPORT
 62
     7
100
AcDbLine
 10
373.150732339726
 20
1288.403315628663
 30
0.0
 11
374.3619940889936
 21
1289.130778397218
 31
0.0
  0
LINE
  5
1F9B
330
1F
100
AcDbEntity
  8
HEWI
  6
IMPORT
 62
     7
100
AcDbLine
 10
366.9394515169721
 20
1339.18250569214
 30
0.0
 11
368.366911233769
 21
1340.039858902589
 31
0.0
  0
LINE
  5
1F9C
330
1F
100
AcDbEntity
  8
HEWI
  6
IMPORT
 62
     7
100
AcDbLine
 10
412.9345343721966
 20
1289.150233353272
 30
0.0
 11
413.150732339726
 21
1289.280085648194
 31
0.0
  0
LINE
  5
1F9D
330
1F
100
AcDbEntity
  8
HEWI
  6
IMPORT
 62
     7
100
AcDbLine
 10
413.150732339726
 20
1288.403315628663
 30
0.0
 11
414.3619940889935
 21
1289.130778397218
 31
0.0
  0
LINE
  5
1F9E
330
1F
100
AcDbEntity
  8
HEWI
  6
IMPORT
 62
     7
100
AcDbLine
 10
406.9394515169721
 20
1339.18250569214
 30
0.0
 11
408.3669112337688
 21
1340.039858902589
 31
0.0
  0
LINE
  5
1F9F
330
1F
100
AcDbEntity
  8
HEWI
  6
IMPORT
 62
     7
100
AcDbLine
 10
452.9345343721966
 20
1289.150233353272
 30
0.0
 11
453.150732339726
 21
1289.280085648194
 31
0.0
  0
LINE
  5
1FA0
330
1F
100
AcDbEntity
  8
HEWI
  6
IMPORT
 62
     7
100
AcDbLine
 10
453.150732339726
 20
1288.403315628663
 30
0.0
 11
454.3619940889936
 21
1289.130778397218
 31
0.0
  0
LINE
  5
1FA1
330
1F
100
AcDbEntity
  8
HEWI
  6
IMPORT
 62
     7
100
AcDbLine
 10
446.9394515169721
 20
1339.18250569214
 30
0.0
 11
448.366911233769
 21
1340.039858902589
 31
0.0
  0
LINE
  5
1FA2
330
1F
100
AcDbEntity
  8
HEWI
  6
IMPORT
 62
     7
100
AcDbLine
 10
492.9345248354534
 20
1289.150233353272
 30
0.0
 11
493.1507323397258
 21
1289.280085648194
 31
0.0
  0
LINE
  5
1FA3
330
1F
100
AcDbEntity
  8
HEWI
  6
IMPORT
 62
     7
100
AcDbLine
 10
493.1507323397258
 20
1288.403315628663
 30
0.0
 11
494.3620036257367
 21
1289.130778397218
 31
0.0
  0
LINE
  5
1FA4
330
1F
100
AcDbEntity
  8
HEWI
  6
IMPORT
 62
     7
100
AcDbLine
 10
486.9394610537148
 20
1339.18250569214
 30
0.0
 11
488.3669207705117
 21
1340.039858902589
 31
0.0
  0
LINE
  5
1FA5
330
1F
100
AcDbEntity
  8
HEWI
  6
IMPORT
 62
     7
100
AcDbLine
 10
532.9345248354535
 20
1289.150233353272
 30
0.0
 11
533.1507323397257
 21
1289.280085648194
 31
0.0
  0
LINE
  5
1FA6
330
1F
100
AcDbEntity
  8
HEWI
  6
IMPORT
 62
     7
100
AcDbLine
 10
533.1507323397257
 20
1288.403315628663
 30
0.0
 11
534.3620036257367
 21
1289.130778397218
 31
0.0
  0
LINE
  5
1FA7
330
1F
100
AcDbEntity
  8
HEWI
  6
IMPORT
 62
     7
100
AcDbLine
 10
526.9394610537148
 20
1339.18250569214
 30
0.0
 11
528.3669207705116
 21
1340.039858902589
 31
0.0
  0
LINE
  5
1FA8
330
1F
100
AcDbEntity
  8
HEWI
  6
IMPORT
 62
     7
100
AcDbLine
 10
572.9345296038246
 20
1289.150233353272
 30
0.0
 11
573.1507275713546
 21
1289.280085648194
 31
0.0
  0
LINE
  5
1FA9
330
1F
100
AcDbEntity
  8
HEWI
  6
IMPORT
 62
     7
100
AcDbLine
 10
573.1507275713546
 20
1288.403315628663
 30
0.0
 11
574.3619988573647
 21
1289.130778397218
 31
0.0
  0
LINE
  5
1FAA
330
1F
100
AcDbEntity
  8
HEWI
  6
IMPORT
 62
     7
100
AcDbLine
 10
566.9394610537148
 20
1339.18250569214
 30
0.0
 11
568.3669207705118
 21
1340.039858902589
 31
0.0
  0
LINE
  5
1FAB
330
1F
100
AcDbEntity
  8
HEWI
  6
IMPORT
 62
     7
100
AcDbLine
 10
612.9345296038247
 20
1289.150233353272
 30
0.0
 11
613.1507299555397
 21
1289.280085648194
 31
0.0
  0
LINE
  5
1FAC
330
1F
100
AcDbEntity
  8
HEWI
  6
IMPORT
 62
     7
100
AcDbLine
 10
613.1507299555397
 20
1288.403315628663
 30
0.0
 11
614.3619994534116
 21
1289.130778397218
 31
0.0
  0
LINE
  5
1FAD
330
1F
100
AcDbEntity
  8
HEWI
  6
IMPORT
 62
     7
100
AcDbLine
 10
606.9394598616216
 20
1339.18250569214
 30
0.0
 11
608.3669195784188
 21
1340.039858902589
 31
0.0
  0
LINE
  5
1FAE
330
1F
100
AcDbEntity
  8
HEWI
  6
IMPORT
 62
     7
100
AcDbLine
 10
647.5785992754555
 20
1331.253619278565
 30
0.0
 11
648.6009500635726
 21
1331.687769974366
 31
0.0
  0
LINE
  5
1FAF
330
1F
100
AcDbEntity
  8
HEWI
  6
IMPORT
 62
     7
100
AcDbLine
 10
327.5786040438276
 20
1331.253619278565
 30
0.0
 11
328.6009429110151
 21
1331.687769974366
 31
0.0
  0
LINE
  5
1FB0
330
1F
100
AcDbEntity
  8
HEWI
  6
IMPORT
 62
     7
100
AcDbLine
 10
367.5786040438276
 20
1331.253619278565
 30
0.0
 11
368.6009429110151
 21
1331.687769974366
 31
0.0
  0
LINE
  5
1FB1
330
1F
100
AcDbEntity
  8
HEWI
  6
IMPORT
 62
     7
100
AcDbLine
 10
407.5786040438274
 20
1331.253619278565
 30
0.0
 11
408.6009429110149
 21
1331.687769974366
 31
0.0
  0
LINE
  5
1FB2
330
1F
100
AcDbEntity
  8
HEWI
  6
IMPORT
 62
     7
100
AcDbLine
 10
447.5786040438276
 20
1331.253619278565
 30
0.0
 11
448.6009429110151
 21
1331.687769974366
 31
0.0
  0
LINE
  5
1FB3
330
1F
100
AcDbEntity
  8
HEWI
  6
IMPORT
 62
     7
100
AcDbLine
 10
487.5786040438275
 20
1331.253619278565
 30
0.0
 11
488.6009524477578
 21
1331.687769974366
 31
0.0
  0
LINE
  5
1FB4
330
1F
100
AcDbEntity
  8
HEWI
  6
IMPORT
 62
     7
100
AcDbLine
 10
527.5786040438267
 20
1331.253619278565
 30
0.0
 11
528.6009524477577
 21
1331.687769974366
 31
0.0
  0
LINE
  5
1FB5
330
1F
100
AcDbEntity
  8
HEWI
  6
IMPORT
 62
     7
100
AcDbLine
 10
567.5785992754555
 20
1331.253619278565
 30
0.0
 11
568.6009476793866
 21
1331.687769974366
 31
0.0
  0
LINE
  5
1FB6
330
1F
100
AcDbEntity
  8
HEWI
  6
IMPORT
 62
     7
100
AcDbLine
 10
607.5785992754555
 20
1331.253619278565
 30
0.0
 11
608.6009500635717
 21
1331.687769974366
 31
0.0
  0
LINE
  5
1FB7
330
1F
100
AcDbEntity
  8
HEWI
  6
IMPORT
 62
     7
100
AcDbLine
 10
655.1002405298805
 20
1329.955630386964
 30
0.0
 11
655.3628395212746
 21
1329.116549576417
 31
0.0
  0
LINE
  5
1FB8
330
1F
100
AcDbEntity
  8
HEWI
  6
IMPORT
 62
     7
100
AcDbLine
 10
335.1002333773234
 20
1329.955630386964
 30
0.0
 11
335.3628371370893
 21
1329.116549576417
 31
0.0
  0
LINE
  5
1FB9
330
1F
100
AcDbEntity
  8
HEWI
  6
IMPORT
 62
     7
100
AcDbLine
 10
375.1002333773237
 20
1329.955630386964
 30
0.0
 11
375.3628371370893
 21
1329.116549576417
 31
0.0
  0
LINE
  5
1FBA
330
1F
100
AcDbEntity
  8
HEWI
  6
IMPORT
 62
     7
100
AcDbLine
 10
415.1002333773235
 20
1329.955630386964
 30
0.0
 11
415.3628371370891
 21
1329.116549576417
 31
0.0
  0
LINE
  5
1FBB
330
1F
100
AcDbEntity
  8
HEWI
  6
IMPORT
 62
     7
100
AcDbLine
 10
455.1002333773237
 20
1329.955630386964
 30
0.0
 11
455.3628371370892
 21
1329.116549576417
 31
0.0
  0
LINE
  5
1FBC
330
1F
100
AcDbEntity
  8
HEWI
  6
IMPORT
 62
     7
100
AcDbLine
 10
495.1002429140668
 20
1329.955630386964
 30
0.0
 11
495.3628371370887
 21
1329.116549576417
 31
0.0
  0
LINE
  5
1FBD
330
1F
100
AcDbEntity
  8
HEWI
  6
IMPORT
 62
     7
100
AcDbLine
 10
535.1002429140668
 20
1329.955630386964
 30
0.0
 11
535.3628371370897
 21
1329.116549576417
 31
0.0
  0
LINE
  5
1FBE
330
1F
100
AcDbEntity
  8
HEWI
  6
IMPORT
 62
     7
100
AcDbLine
 10
575.1002381456948
 20
1329.955630386964
 30
0.0
 11
575.3628371370888
 21
1329.116549576417
 31
0.0
  0
LINE
  5
1FBF
330
1F
100
AcDbEntity
  8
HEWI
  6
IMPORT
 62
     7
100
AcDbLine
 10
615.1002393377877
 20
1329.955630386964
 30
0.0
 11
615.3628395212746
 21
1329.116549576417
 31
0.0
  0
LINE
  5
1FC0
330
1F
100
AcDbEntity
  8
HEWI
  6
IMPORT
 62
     7
100
AcDbLine
 10
655.4223583353615
 20
1328.926348770753
 30
0.0
 11
655.6507299555398
 21
1328.082079971925
 31
0.0
  0
LINE
  5
1FC1
330
1F
100
AcDbEntity
  8
HEWI
  6
IMPORT
 62
     7
100
AcDbLine
 10
335.4223654879194
 20
1328.926348770753
 30
0.0
 11
335.650732339726
 21
1328.082079971925
 31
0.0
  0
LINE
  5
1FC2
330
1F
100
AcDbEntity
  8
HEWI
  6
IMPORT
 62
     7
100
AcDbLine
 10
375.4223654879194
 20
1328.926348770753
 30
0.0
 11
375.650732339726
 21
1328.082079971925
 31
0.0
  0
LINE
  5
1FC3
330
1F
100
AcDbEntity
  8
HEWI
  6
IMPORT
 62
     7
100
AcDbLine
 10
415.4223654879193
 20
1328.926348770753
 30
0.0
 11
415.650732339726
 21
1328.082079971925
 31
0.0
  0
LINE
  5
1FC4
330
1F
100
AcDbEntity
  8
HEWI
  6
IMPORT
 62
     7
100
AcDbLine
 10
455.4223654879193
 20
1328.926348770753
 30
0.0
 11
455.6507323397259
 21
1328.082079971925
 31
0.0
  0
LINE
  5
1FC5
330
1F
100
AcDbEntity
  8
HEWI
  6
IMPORT
 62
     7
100
AcDbLine
 10
495.4223559511756
 20
1328.926348770753
 30
0.0
 11
495.6507323397257
 21
1328.082079971925
 31
0.0
  0
LINE
  5
1FC6
330
1F
100
AcDbEntity
  8
HEWI
  6
IMPORT
 62
     7
100
AcDbLine
 10
535.4223559511757
 20
1328.926348770753
 30
0.0
 11
535.6507323397257
 21
1328.082079971925
 31
0.0
  0
LINE
  5
1FC7
330
1F
100
AcDbEntity
  8
HEWI
  6
IMPORT
 62
     7
100
AcDbLine
 10
575.4223607195477
 20
1328.926348770753
 30
0.0
 11
575.6507275713537
 21
1328.082079971925
 31
0.0
  0
LINE
  5
1FC8
330
1F
100
AcDbEntity
  8
HEWI
  6
IMPORT
 62
     7
100
AcDbLine
 10
615.4223595274546
 20
1328.926348770753
 30
0.0
 11
615.6507293594938
 21
1328.082079971925
 31
0.0
  0
LINE
  5
1FC9
330
1F
100
AcDbEntity
  8
HEWI
  6
IMPORT
 62
     7
100
AcDbLine
 10
645.6507299555397
 20
1291.927332962647
 30
0.0
 11
645.9856603754616
 21
1290.413851822511
 31
0.0
  0
LINE
  5
1FCA
330
1F
100
AcDbEntity
  8
HEWI
  6
IMPORT
 62
     7
100
AcDbLine
 10
655.3157995356175
 20
1337.899470413819
 30
0.0
 11
655.6507299555398
 21
1336.38595112671
 31
0.0
  0
LINE
  5
1FCB
330
1F
100
AcDbEntity
  8
HEWI
  6
IMPORT
 62
     7
100
AcDbLine
 10
325.650732339726
 20
1291.927332962647
 30
0.0
 11
325.9856627596479
 21
1290.413851822511
 31
0.0
  0
LINE
  5
1FCC
330
1F
100
AcDbEntity
  8
HEWI
  6
IMPORT
 62
     7
100
AcDbLine
 10
335.3158019198039
 20
1337.899470413819
 30
0.0
 11
335.650732339726
 21
1336.38595112671
 31
0.0
  0
LINE
  5
1FCD
330
1F
100
AcDbEntity
  8
HEWI
  6
IMPORT
 62
     7
100
AcDbLine
 10
365.650732339726
 20
1291.927332962647
 30
0.0
 11
365.9856627596479
 21
1290.413851822511
 31
0.0
  0
LINE
  5
1FCE
330
1F
100
AcDbEntity
  8
HEWI
  6
IMPORT
 62
     7
100
AcDbLine
 10
375.3158019198041
 20
1337.899470413819
 30
0.0
 11
375.650732339726
 21
1336.38595112671
 31
0.0
  0
LINE
  5
1FCF
330
1F
100
AcDbEntity
  8
HEWI
  6
IMPORT
 62
     7
100
AcDbLine
 10
405.6507323397259
 20
1291.927332962647
 30
0.0
 11
405.9856627596478
 21
1290.413851822511
 31
0.0
  0
LINE
  5
1FD0
330
1F
100
AcDbEntity
  8
HEWI
  6
IMPORT
 62
     7
100
AcDbLine
 10
415.3158019198041
 20
1337.899470413819
 30
0.0
 11
415.650732339726
 21
1336.38595112671
 31
0.0
  0
LINE
  5
1FD1
330
1F
100
AcDbEntity
  8
HEWI
  6
IMPORT
 62
     7
100
AcDbLine
 10
445.650732339726
 20
1291.927332962647
 30
0.0
 11
445.9856627596476
 21
1290.413851822511
 31
0.0
  0
LINE
  5
1FD2
330
1F
100
AcDbEntity
  8
HEWI
  6
IMPORT
 62
     7
100
AcDbLine
 10
455.3158019198041
 20
1337.899470413819
 30
0.0
 11
455.6507323397259
 21
1336.38595112671
 31
0.0
  0
LINE
  5
1FD3
330
1F
100
AcDbEntity
  8
HEWI
  6
IMPORT
 62
     7
100
AcDbLine
 10
485.6507323397257
 20
1291.927332962647
 30
0.0
 11
485.9856627596475
 21
1290.413851822511
 31
0.0
  0
LINE
  5
1FD4
330
1F
100
AcDbEntity
  8
HEWI
  6
IMPORT
 62
     7
100
AcDbLine
 10
495.3158019198037
 20
1337.899470413819
 30
0.0
 11
495.6507323397257
 21
1336.38595112671
 31
0.0
  0
LINE
  5
1FD5
330
1F
100
AcDbEntity
  8
HEWI
  6
IMPORT
 62
     7
100
AcDbLine
 10
525.6507323397257
 20
1291.927332962647
 30
0.0
 11
525.9856627596476
 21
1290.413851822511
 31
0.0
  0
LINE
  5
1FD6
330
1F
100
AcDbEntity
  8
HEWI
  6
IMPORT
 62
     7
100
AcDbLine
 10
535.3158019198036
 20
1337.899470413819
 30
0.0
 11
535.6507323397257
 21
1336.38595112671
 31
0.0
  0
LINE
  5
1FD7
330
1F
100
AcDbEntity
  8
HEWI
  6
IMPORT
 62
     7
100
AcDbLine
 10
565.6507275713537
 20
1291.927332962647
 30
0.0
 11
565.9856579912758
 21
1290.413851822511
 31
0.0
  0
LINE
  5
1FD8
330
1F
100
AcDbEntity
  8
HEWI
  6
IMPORT
 62
     7
100
AcDbLine
 10
575.3157971514325
 20
1337.899470413819
 30
0.0
 11
575.6507275713537
 21
1336.38595112671
 31
0.0
  0
LINE
  5
1FD9
330
1F
100
AcDbEntity
  8
HEWI
  6
IMPORT
 62
     7
100
AcDbLine
 10
605.6507299555398
 20
1291.927332962647
 30
0.0
 11
605.9856591833687
 21
1290.413851822511
 31
0.0
  0
LINE
  5
1FDA
330
1F
100
AcDbEntity
  8
HEWI
  6
IMPORT
 62
     7
100
AcDbLine
 10
615.3157995356175
 20
1337.899470413819
 30
0.0
 11
615.6507293594938
 21
1336.38595112671
 31
0.0
  0
LINE
  5
1FDB
330
1F
100
AcDbEntity
  8
HEWI
  6
IMPORT
 62
     7
100
AcDbLine
 10
651.2507293833356
 20
1288.849177445069
 30
0.0
 11
652.9345296038246
 21
1289.150233353272
 31
0.0
  0
LINE
  5
1FDC
330
1F
100
AcDbEntity
  8
HEWI
  6
IMPORT
 62
     7
100
AcDbLine
 10
648.8069198740578
 20
1340.118517960206
 30
0.0
 11
650.0507305277448
 21
1340.340876663819
 31
0.0
  0
LINE
  5
1FDD
330
1F
100
AcDbEntity
  8
HEWI
  6
IMPORT
 62
     7
100
AcDbLine
 10
331.2507269991499
 20
1288.849177445069
 30
0.0
 11
332.9345343721967
 21
1289.150233353272
 31
0.0
  0
LINE
  5
1FDE
330
1F
100
AcDbEntity
  8
HEWI
  6
IMPORT
 62
     7
100
AcDbLine
 10
328.8069174898725
 20
1340.118517960206
 30
0.0
 11
330.0507376803022
 21
1340.340876663819
 31
0.0
  0
LINE
  5
1FDF
330
1F
100
AcDbEntity
  8
HEWI
  6
IMPORT
 62
     7
100
AcDbLine
 10
371.2507269991498
 20
1288.849177445069
 30
0.0
 11
372.9345343721965
 21
1289.150233353272
 31
0.0
  0
LINE
  5
1FE0
330
1F
100
AcDbEntity
  8
HEWI
  6
IMPORT
 62
     7
100
AcDbLine
 10
368.8069174898725
 20
1340.118517960206
 30
0.0
 11
370.0507376803022
 21
1340.340876663819
 31
0.0
  0
LINE
  5
1FE1
330
1F
100
AcDbEntity
  8
HEWI
  6
IMPORT
 62
     7
100
AcDbLine
 10
411.2507269991497
 20
1288.849177445069
 30
0.0
 11
412.9345343721966
 21
1289.150233353272
 31
0.0
  0
LINE
  5
1FE2
330
1F
100
AcDbEntity
  8
HEWI
  6
IMPORT
 62
     7
100
AcDbLine
 10
408.8069174898723
 20
1340.118517960206
 30
0.0
 11
410.0507376803022
 21
1340.340876663819
 31
0.0
  0
LINE
  5
1FE3
330
1F
100
AcDbEntity
  8
HEWI
  6
IMPORT
 62
     7
100
AcDbLine
 10
451.2507269991497
 20
1288.849177445069
 30
0.0
 11
452.9345343721966
 21
1289.150233353272
 31
0.0
  0
LINE
  5
1FE4
330
1F
100
AcDbEntity
  8
HEWI
  6
IMPORT
 62
     7
100
AcDbLine
 10
448.8069174898725
 20
1340.118517960206
 30
0.0
 11
450.0507376803021
 21
1340.340876663819
 31
0.0
  0
LINE
  5
1FE5
330
1F
100
AcDbEntity
  8
HEWI
  6
IMPORT
 62
     7
100
AcDbLine
 10
491.2507269991498
 20
1288.849177445069
 30
0.0
 11
492.9345248354534
 21
1289.150233353272
 31
0.0
  0
LINE
  5
1FE6
330
1F
100
AcDbEntity
  8
HEWI
  6
IMPORT
 62
     7
100
AcDbLine
 10
488.8069174898726
 20
1340.118517960206
 30
0.0
 11
490.0507281435587
 21
1340.340876663819
 31
0.0
  0
LINE
  5
1FE7
330
1F
100
AcDbEntity
  8
HEWI
  6
IMPORT
 62
     7
100
AcDbLine
 10
531.2507269991498
 20
1288.849177445069
 30
0.0
 11
532.9345248354535
 21
1289.150233353272
 31
0.0
  0
LINE
  5
1FE8
330
1F
100
AcDbEntity
  8
HEWI
  6
IMPORT
 62
     7
100
AcDbLine
 10
528.8069174898727
 20
1340.118517960206
 30
0.0
 11
530.0507281435585
 21
1340.340876663819
 31
0.0
  0
LINE
  5
1FE9
330
1F
100
AcDbEntity
  8
HEWI
  6
IMPORT
 62
     7
100
AcDbLine
 10
571.2507317675207
 20
1288.849177445069
 30
0.0
 11
572.9345296038246
 21
1289.150233353272
 31
0.0
  0
LINE
  5
1FEA
330
1F
100
AcDbEntity
  8
HEWI
  6
IMPORT
 62
     7
100
AcDbLine
 10
568.8069174898727
 20
1340.118517960206
 30
0.0
 11
570.0507281435585
 21
1340.340876663819
 31
0.0
  0
LINE
  5
1FEB
330
1F
100
AcDbEntity
  8
HEWI
  6
IMPORT
 62
     7
100
AcDbLine
 10
611.2507293833356
 20
1288.849177445069
 30
0.0
 11
612.9345296038247
 21
1289.150233353272
 31
0.0
  0
LINE
  5
1FEC
330
1F
100
AcDbEntity
  8
HEWI
  6
IMPORT
 62
     7
100
AcDbLine
 10
608.8069198740578
 20
1340.118517960206
 30
0.0
 11
610.0507293356518
 21
1340.340876663819
 31
0.0
  0
LINE
  5
1FED
330
1F
100
AcDbEntity
  8
HEWI
  6
IMPORT
 62
     7
100
AcDbLine
 10
648.7152097834206
 20
1331.736292923585
 30
0.0
 11
650.0085685862167
 21
1331.899828995362
 31
0.0
  0
LINE
  5
1FEE
330
1F
100
AcDbEntity
  8
HEWI
  6
IMPORT
 62
     7
100
AcDbLine
 10
328.7152121676069
 20
1331.736292923585
 30
0.0
 11
330.0085662020307
 21
1331.899828995362
 31
0.0
  0
LINE
  5
1FEF
330
1F
100
AcDbEntity
  8
HEWI
  6
IMPORT
 62
     7
100
AcDbLine
 10
368.7152121676068
 20
1331.736292923585
 30
0.0
 11
370.0085662020305
 21
1331.899828995362
 31
0.0
  0
LINE
  5
1FF0
330
1F
100
AcDbEntity
  8
HEWI
  6
IMPORT
 62
     7
100
AcDbLine
 10
408.7152121676066
 20
1331.736292923585
 30
0.0
 11
410.0085662020304
 21
1331.899828995362
 31
0.0
  0
LINE
  5
1FF1
330
1F
100
AcDbEntity
  8
HEWI
  6
IMPORT
 62
     7
100
AcDbLine
 10
448.7152121676068
 20
1331.736292923585
 30
0.0
 11
450.0085662020307
 21
1331.899828995362
 31
0.0
  0
LINE
  5
1FF2
330
1F
100
AcDbEntity
  8
HEWI
  6
IMPORT
 62
     7
100
AcDbLine
 10
488.7152121676066
 20
1331.736292923585
 30
0.0
 11
490.0085662020306
 21
1331.899828995362
 31
0.0
  0
LINE
  5
1FF3
330
1F
100
AcDbEntity
  8
HEWI
  6
IMPORT
 62
     7
100
AcDbLine
 10
528.7152121676066
 20
1331.736292923585
 30
0.0
 11
530.0085662020307
 21
1331.899828995362
 31
0.0
  0
LINE
  5
1FF4
330
1F
100
AcDbEntity
  8
HEWI
  6
IMPORT
 62
     7
100
AcDbLine
 10
568.7152073992348
 20
1331.736292923585
 30
0.0
 11
570.0085709704018
 21
1331.899828995362
 31
0.0
  0
LINE
  5
1FF5
330
1F
100
AcDbEntity
  8
HEWI
  6
IMPORT
 62
     7
100
AcDbLine
 10
608.7152097834206
 20
1331.736292923585
 30
0.0
 11
610.0085697783096
 21
1331.899828995362
 31
0.0
  0
LINE
  5
1FF6
330
1F
100
AcDbEntity
  8
HEWI
  6
IMPORT
 62
     7
100
AcDbLine
 10
651.1625192774395
 20
1331.91630848755
 30
0.0
 11
652.4573705805397
 21
1331.752619827882
 31
0.0
  0
LINE
  5
1FF7
330
1F
100
AcDbEntity
  8
HEWI
  6
IMPORT
 62
     7
100
AcDbLine
 10
331.162512124882
 20
1331.91630848755
 30
0.0
 11
332.457372964726
 21
1331.752619827882
 31
0.0
  0
LINE
  5
1FF8
330
1F
100
AcDbEntity
  8
HEWI
  6
IMPORT
 62
     7
100
AcDbLine
 10
371.162512124882
 20
1331.91630848755
 30
0.0
 11
372.457372964726
 21
1331.752619827882
 31
0.0
  0
LINE
  5
1FF9
330
1F
100
AcDbEntity
  8
HEWI
  6
IMPORT
 62
     7
100
AcDbLine
 10
411.1625121248819
 20
1331.91630848755
 30
0.0
 11
412.4573729647258
 21
1331.752619827882
 31
0.0
  0
LINE
  5
1FFA
330
1F
100
AcDbEntity
  8
HEWI
  6
IMPORT
 62
     7
100
AcDbLine
 10
451.1625121248819
 20
1331.91630848755
 30
0.0
 11
452.457372964726
 21
1331.752619827882
 31
0.0
  0
LINE
  5
1FFB
330
1F
100
AcDbEntity
  8
HEWI
  6
IMPORT
 62
     7
100
AcDbLine
 10
491.1625216616256
 20
1331.91630848755
 30
0.0
 11
492.4573729647256
 21
1331.752619827882
 31
0.0
  0
LINE
  5
1FFC
330
1F
100
AcDbEntity
  8
HEWI
  6
IMPORT
 62
     7
100
AcDbLine
 10
531.1625216616256
 20
1331.91630848755
 30
0.0
 11
532.4573729647258
 21
1331.752619827882
 31
0.0
  0
LINE
  5
1FFD
330
1F
100
AcDbEntity
  8
HEWI
  6
IMPORT
 62
     7
100
AcDbLine
 10
571.1625216616247
 20
1331.91630848755
 30
0.0
 11
572.4573681963537
 21
1331.752619827882
 31
0.0
  0
LINE
  5
1FFE
330
1F
100
AcDbEntity
  8
HEWI
  6
IMPORT
 62
     7
100
AcDbLine
 10
611.1625192774396
 20
1331.91630848755
 30
0.0
 11
612.4573693884466
 21
1331.752619827882
 31
0.0
  0
LINE
  5
1FFF
330
1F
100
AcDbEntity
  8
HEWI
  6
IMPORT
 62
     7
100
AcDbLine
 10
648.3669183863256
 20
1289.150233353272
 30
0.0
 11
650.0507305277448
 21
1288.849177445069
 31
0.0
  0
LINE
  5
2000
330
1F
100
AcDbEntity
  8
HEWI
  6
IMPORT
 62
     7
100
AcDbLine
 10
651.6957901133156
 20
1340.261340225831
 30
0.0
 11
652.9345296038246
 21
1340.039858902589
 31
0.0
  0
LINE
  5
2001
330
1F
100
AcDbEntity
  8
HEWI
  6
IMPORT
 62
     7
100
AcDbLine
 10
328.366911233769
 20
1289.150233353272
 30
0.0
 11
330.0507376803022
 21
1288.849177445069
 31
0.0
  0
LINE
  5
2002
330
1F
100
AcDbEntity
  8
HEWI
  6
IMPORT
 62
     7
100
AcDbLine
 10
331.6957877291303
 20
1340.261340225831
 30
0.0
 11
332.9345343721967
 21
1340.039858902589
 31
0.0
  0
LINE
  5
2003
330
1F
100
AcDbEntity
  8
HEWI
  6
IMPORT
 62
     7
100
AcDbLine
 10
368.366911233769
 20
1289.150233353272
 30
0.0
 11
370.0507376803022
 21
1288.849177445069
 31
0.0
  0
LINE
  5
2004
330
1F
100
AcDbEntity
  8
HEWI
  6
IMPORT
 62
     7
100
AcDbLine
 10
371.6957877291303
 20
1340.261340225831
 30
0.0
 11
372.9345343721965
 21
1340.039858902589
 31
0.0
  0
LINE
  5
2005
330
1F
100
AcDbEntity
  8
HEWI
  6
IMPORT
 62
     7
100
AcDbLine
 10
408.3669112337688
 20
1289.150233353272
 30
0.0
 11
410.0507376803022
 21
1288.849177445069
 31
0.0
  0
LINE
  5
2006
330
1F
100
AcDbEntity
  8
HEWI
  6
IMPORT
 62
     7
100
AcDbLine
 10
411.6957877291302
 20
1340.261340225831
 30
0.0
 11
412.9345343721966
 21
1340.039858902589
 31
0.0
  0
LINE
  5
2007
330
1F
100
AcDbEntity
  8
HEWI
  6
IMPORT
 62
     7
100
AcDbLine
 10
448.366911233769
 20
1289.150233353272
 30
0.0
 11
450.0507376803021
 21
1288.849177445069
 31
0.0
  0
LINE
  5
2008
330
1F
100
AcDbEntity
  8
HEWI
  6
IMPORT
 62
     7
100
AcDbLine
 10
451.6957877291299
 20
1340.261340225831
 30
0.0
 11
452.9345343721966
 21
1340.039858902589
 31
0.0
  0
LINE
  5
2009
330
1F
100
AcDbEntity
  8
HEWI
  6
IMPORT
 62
     7
100
AcDbLine
 10
488.3669207705117
 20
1289.150233353272
 30
0.0
 11
490.0507281435587
 21
1288.849177445069
 31
0.0
  0
LINE
  5
200A
330
1F
100
AcDbEntity
  8
HEWI
  6
IMPORT
 62
     7
100
AcDbLine
 10
491.6957877291296
 20
1340.261340225831
 30
0.0
 11
492.9345248354534
 21
1340.039858902589
 31
0.0
  0
LINE
  5
200B
330
1F
100
AcDbEntity
  8
HEWI
  6
IMPORT
 62
     7
100
AcDbLine
 10
528.3669207705116
 20
1289.150233353272
 30
0.0
 11
530.0507281435585
 21
1288.849177445069
 31
0.0
  0
LINE
  5
200C
330
1F
100
AcDbEntity
  8
HEWI
  6
IMPORT
 62
     7
100
AcDbLine
 10
531.6957877291295
 20
1340.261340225831
 30
0.0
 11
532.9345248354535
 21
1340.039858902589
 31
0.0
  0
LINE
  5
200D
330
1F
100
AcDbEntity
  8
HEWI
  6
IMPORT
 62
     7
100
AcDbLine
 10
568.3669207705118
 20
1289.150233353272
 30
0.0
 11
570.0507281435585
 21
1288.849177445069
 31
0.0
  0
LINE
  5
200E
330
1F
100
AcDbEntity
  8
HEWI
  6
IMPORT
 62
     7
100
AcDbLine
 10
571.6957877291296
 20
1340.261340225831
 30
0.0
 11
572.9345296038246
 21
1340.039858902589
 31
0.0
  0
LINE
  5
200F
330
1F
100
AcDbEntity
  8
HEWI
  6
IMPORT
 62
     7
100
AcDbLine
 10
608.3669195784188
 20
1289.150233353272
 30
0.0
 11
610.0507293356518
 21
1288.849177445069
 31
0.0
  0
LINE
  5
2010
330
1F
100
AcDbEntity
  8
HEWI
  6
IMPORT
 62
     7
100
AcDbLine
 10
611.6957889212227
 20
1340.261340225831
 30
0.0
 11
612.9345296038247
 21
1340.039858902589
 31
0.0
  0
LINE
  5
2011
330
1F
100
AcDbEntity
  8
HEWI
  6
IMPORT
 62
     7
100
AcDbLine
 10
655.3157995356175
 20
1290.413851822511
 30
0.0
 11
655.6507299555398
 21
1291.927332962647
 31
0.0
  0
LINE
  5
2012
330
1F
100
AcDbEntity
  8
HEWI
  6
IMPORT
 62
     7
100
AcDbLine
 10
645.7471488131147
 20
1336.821665848389
 30
0.0
 11
645.9856603754616
 21
1337.899470413819
 31
0.0
  0
LINE
  5
2013
330
1F
100
AcDbEntity
  8
HEWI
  6
IMPORT
 62
     7
100
AcDbLine
 10
335.3158019198039
 20
1290.413851822511
 30
0.0
 11
335.650732339726
 21
1291.927332962647
 31
0.0
  0
LINE
  5
2014
330
1F
100
AcDbEntity
  8
HEWI
  6
IMPORT
 62
     7
100
AcDbLine
 10
325.7471488131147
 20
1336.821665848389
 30
0.0
 11
325.9856627596479
 21
1337.899470413819
 31
0.0
  0
LINE
  5
2015
330
1F
100
AcDbEntity
  8
HEWI
  6
IMPORT
 62
     7
100
AcDbLine
 10
375.3158019198041
 20
1290.413851822511
 30
0.0
 11
375.650732339726
 21
1291.927332962647
 31
0.0
  0
LINE
  5
2016
330
1F
100
AcDbEntity
  8
HEWI
  6
IMPORT
 62
     7
100
AcDbLine
 10
365.7471488131147
 20
1336.821665848389
 30
0.0
 11
365.9856627596479
 21
1337.899470413819
 31
0.0
  0
LINE
  5
2017
330
1F
100
AcDbEntity
  8
HEWI
  6
IMPORT
 62
     7
100
AcDbLine
 10
415.3158019198041
 20
1290.413851822511
 30
0.0
 11
415.650732339726
 21
1291.927332962647
 31
0.0
  0
LINE
  5
2018
330
1F
100
AcDbEntity
  8
HEWI
  6
IMPORT
 62
     7
100
AcDbLine
 10
405.7471488131146
 20
1336.821665848389
 30
0.0
 11
405.9856627596478
 21
1337.899470413819
 31
0.0
  0
LINE
  5
2019
330
1F
100
AcDbEntity
  8
HEWI
  6
IMPORT
 62
     7
100
AcDbLine
 10
455.3158019198041
 20
1290.413851822511
 30
0.0
 11
455.6507323397259
 21
1291.927332962647
 31
0.0
  0
LINE
  5
201A
330
1F
100
AcDbEntity
  8
HEWI
  6
IMPORT
 62
     7
100
AcDbLine
 10
445.7471488131144
 20
1336.821665848389
 30
0.0
 11
445.9856627596476
 21
1337.899470413819
 31
0.0
  0
LINE
  5
201B
330
1F
100
AcDbEntity
  8
HEWI
  6
IMPORT
 62
     7
100
AcDbLine
 10
495.3158019198037
 20
1290.413851822511
 30
0.0
 11
495.6507323397257
 21
1291.927332962647
 31
0.0
  0
LINE
  5
201C
330
1F
100
AcDbEntity
  8
HEWI
  6
IMPORT
 62
     7
100
AcDbLine
 10
485.7471488131146
 20
1336.821665848389
 30
0.0
 11
485.9856627596475
 21
1337.899470413819
 31
0.0
  0
LINE
  5
201D
330
1F
100
AcDbEntity
  8
HEWI
  6
IMPORT
 62
     7
100
AcDbLine
 10
535.3158019198036
 20
1290.413851822511
 30
0.0
 11
535.6507323397257
 21
1291.927332962647
 31
0.0
  0
LINE
  5
201E
330
1F
100
AcDbEntity
  8
HEWI
  6
IMPORT
 62
     7
100
AcDbLine
 10
525.7471488131146
 20
1336.821665848389
 30
0.0
 11
525.9856627596476
 21
1337.899470413819
 31
0.0
  0
LINE
  5
201F
330
1F
100
AcDbEntity
  8
HEWI
  6
IMPORT
 62
     7
100
AcDbLine
 10
575.3157971514325
 20
1290.413851822511
 30
0.0
 11
575.6507275713537
 21
1291.927332962647
 31
0.0
  0
LINE
  5
2020
330
1F
100
AcDbEntity
  8
HEWI
  6
IMPORT
 62
     7
100
AcDbLine
 10
565.7471488131148
 20
1336.821665848389
 30
0.0
 11
565.9856579912758
 21
1337.899470413819
 31
0.0
  0
LINE
  5
2021
330
1F
100
AcDbEntity
  8
HEWI
  6
IMPORT
 62
     7
100
AcDbLine
 10
615.3157995356175
 20
1290.413851822511
 30
0.0
 11
615.6507293594938
 21
1291.927332962647
 31
0.0
  0
LINE
  5
2022
330
1F
100
AcDbEntity
  8
HEWI
  6
IMPORT
 62
     7
100
AcDbLine
 10
605.7471500052075
 20
1336.821665848389
 30
0.0
 11
605.9856591833687
 21
1337.899470413819
 31
0.0
  0
LINE
  5
2023
330
1F
100
AcDbEntity
  8
HEWI
  6
IMPORT
 62
     7
100
AcDbLine
 10
645.6507299555397
 20
1328.082079971925
 30
0.0
 11
645.8790896547886
 21
1328.926348770753
 31
0.0
  0
LINE
  5
2024
330
1F
100
AcDbEntity
  8
HEWI
  6
IMPORT
 62
     7
100
AcDbLine
 10
325.650732339726
 20
1328.082079971925
 30
0.0
 11
325.8790801180463
 21
1328.926348770753
 31
0.0
  0
LINE
  5
2025
330
1F
100
AcDbEntity
  8
HEWI
  6
IMPORT
 62
     7
100
AcDbLine
 10
365.650732339726
 20
1328.082079971925
 30
0.0
 11
365.8790801180463
 21
1328.926348770753
 31
0.0
  0
LINE
  5
2026
330
1F
100
AcDbEntity
  8
HEWI
  6
IMPORT
 62
     7
100
AcDbLine
 10
405.6507323397259
 20
1328.082079971925
 30
0.0
 11
405.879080118046
 21
1328.926348770753
 31
0.0
  0
LINE
  5
2027
330
1F
100
AcDbEntity
  8
HEWI
  6
IMPORT
 62
     7
100
AcDbLine
 10
445.650732339726
 20
1328.082079971925
 30
0.0
 11
445.8790801180461
 21
1328.926348770753
 31
0.0
  0
LINE
  5
2028
330
1F
100
AcDbEntity
  8
HEWI
  6
IMPORT
 62
     7
100
AcDbLine
 10
485.6507323397257
 20
1328.082079971925
 30
0.0
 11
485.8790896547896
 21
1328.926348770753
 31
0.0
  0
LINE
  5
2029
330
1F
100
AcDbEntity
  8
HEWI
  6
IMPORT
 62
     7
100
AcDbLine
 10
525.6507323397257
 20
1328.082079971925
 30
0.0
 11
525.8790896547897
 21
1328.926348770753
 31
0.0
  0
LINE
  5
202A
330
1F
100
AcDbEntity
  8
HEWI
  6
IMPORT
 62
     7
100
AcDbLine
 10
565.6507275713537
 20
1328.082079971925
 30
0.0
 11
565.8790896547897
 21
1328.926348770753
 31
0.0
  0
LINE
  5
202B
330
1F
100
AcDbEntity
  8
HEWI
  6
IMPORT
 62
     7
100
AcDbLine
 10
605.6507299555398
 20
1328.082079971925
 30
0.0
 11
605.8790896547897
 21
1328.926348770753
 31
0.0
  0
LINE
  5
202C
330
1F
100
AcDbEntity
  8
HEWI
  6
IMPORT
 62
     7
100
AcDbLine
 10
645.8790896547886
 20
1328.926348770753
 30
0.0
 11
646.1376903666115
 21
1329.75265034546
 31
0.0
  0
LINE
  5
202D
330
1F
100
AcDbEntity
  8
HEWI
  6
IMPORT
 62
     7
100
AcDbLine
 10
325.8790801180463
 20
1328.926348770753
 30
0.0
 11
326.1376975191691
 21
1329.75265034546
 31
0.0
  0
LINE
  5
202E
330
1F
100
AcDbEntity
  8
HEWI
  6
IMPORT
 62
     7
100
AcDbLine
 10
365.8790801180463
 20
1328.926348770753
 30
0.0
 11
366.1376975191694
 21
1329.75265034546
 31
0.0
  0
LINE
  5
202F
330
1F
100
AcDbEntity
  8
HEWI
  6
IMPORT
 62
     7
100
AcDbLine
 10
405.879080118046
 20
1328.926348770753
 30
0.0
 11
406.1376975191692
 21
1329.75265034546
 31
0.0
  0
LINE
  5
2030
330
1F
100
AcDbEntity
  8
HEWI
  6
IMPORT
 62
     7
100
AcDbLine
 10
445.8790801180461
 20
1328.926348770753
 30
0.0
 11
446.1376975191694
 21
1329.75265034546
 31
0.0
  0
LINE
  5
2031
330
1F
100
AcDbEntity
  8
HEWI
  6
IMPORT
 62
     7
100
AcDbLine
 10
485.8790896547896
 20
1328.926348770753
 30
0.0
 11
486.1376879824256
 21
1329.75265034546
 31
0.0
  0
LINE
  5
2032
330
1F
100
AcDbEntity
  8
HEWI
  6
IMPORT
 62
     7
100
AcDbLine
 10
525.8790896547897
 20
1328.926348770753
 30
0.0
 11
526.1376879824257
 21
1329.75265034546
 31
0.0
  0
LINE
  5
2033
330
1F
100
AcDbEntity
  8
HEWI
  6
IMPORT
 62
     7
100
AcDbLine
 10
565.8790896547897
 20
1328.926348770753
 30
0.0
 11
566.1376879824257
 21
1329.75265034546
 31
0.0
  0
LINE
  5
2034
330
1F
100
AcDbEntity
  8
HEWI
  6
IMPORT
 62
     7
100
AcDbLine
 10
605.8790896547897
 20
1328.926348770753
 30
0.0
 11
606.1376891745186
 21
1329.75265034546
 31
0.0
  0
LINE
  5
2035
330
1F
100
AcDbEntity
  8
HEWI
  6
IMPORT
 62
     7
100
AcDbLine
 10
652.5862405909157
 20
1331.736292923585
 30
0.0
 11
653.6123393190957
 21
1331.300540054933
 31
0.0
  0
LINE
  5
2036
330
1F
100
AcDbEntity
  8
HEWI
  6
IMPORT
 62
     7
100
AcDbLine
 10
332.5862334383588
 20
1331.736292923585
 30
0.0
 11
333.6123488558393
 21
1331.300540054933
 31
0.0
  0
LINE
  5
2037
330
1F
100
AcDbEntity
  8
HEWI
  6
IMPORT
 62
     7
100
AcDbLine
 10
372.5862334383588
 20
1331.736292923585
 30
0.0
 11
373.6123488558393
 21
1331.300540054933
 31
0.0
  0
LINE
  5
2038
330
1F
100
AcDbEntity
  8
HEWI
  6
IMPORT
 62
     7
100
AcDbLine
 10
412.5862334383588
 20
1331.736292923585
 30
0.0
 11
413.6123488558393
 21
1331.300540054933
 31
0.0
  0
LINE
  5
2039
330
1F
100
AcDbEntity
  8
HEWI
  6
IMPORT
 62
     7
100
AcDbLine
 10
452.5862334383588
 20
1331.736292923585
 30
0.0
 11
453.6123488558391
 21
1331.300540054933
 31
0.0
  0
LINE
  5
203A
330
1F
100
AcDbEntity
  8
HEWI
  6
IMPORT
 62
     7
100
AcDbLine
 10
492.5862429751017
 20
1331.736292923585
 30
0.0
 11
493.6123393190956
 21
1331.300540054933
 31
0.0
  0
LINE
  5
203B
330
1F
100
AcDbEntity
  8
HEWI
  6
IMPORT
 62
     7
100
AcDbLine
 10
532.5862429751017
 20
1331.736292923585
 30
0.0
 11
533.6123393190956
 21
1331.300540054933
 31
0.0
  0
LINE
  5
203C
330
1F
100
AcDbEntity
  8
HEWI
  6
IMPORT
 62
     7
100
AcDbLine
 10
572.5862382067297
 20
1331.736292923585
 30
0.0
 11
573.6123393190958
 21
1331.300540054933
 31
0.0
  0
LINE
  5
203D
330
1F
100
AcDbEntity
  8
HEWI
  6
IMPORT
 62
     7
100
AcDbLine
 10
612.5862393988226
 20
1331.736292923585
 30
0.0
 11
613.6123393190956
 21
1331.300540054933
 31
0.0
  0
LINE
  5
203E
330
1F
100
AcDbEntity
  8
HEWI
  6
IMPORT
 62
     7
100
AcDbLine
 10
648.1507299555397
 20
1289.280085648194
 30
0.0
 11
648.3669183863256
 21
1289.150233353272
 31
0.0
  0
LINE
  5
203F
330
1F
100
AcDbEntity
  8
HEWI
  6
IMPORT
 62
     7
100
AcDbLine
 10
646.9394586695297
 20
1289.130778397218
 30
0.0
 11
648.1507299555397
 21
1288.403315628663
 31
0.0
  0
LINE
  5
2040
330
1F
100
AcDbEntity
  8
HEWI
  6
IMPORT
 62
     7
100
AcDbLine
 10
652.9345296038246
 20
1340.039858902589
 30
0.0
 11
654.3619988573647
 21
1339.18250569214
 31
0.0
  0
LINE
  5
2041
330
1F
100
AcDbEntity
  8
HEWI
  6
IMPORT
 62
     7
100
AcDbLine
 10
328.150732339726
 20
1289.280085648194
 30
0.0
 11
328.366911233769
 21
1289.150233353272
 31
0.0
  0
LINE
  5
2042
330
1F
100
AcDbEntity
  8
HEWI
  6
IMPORT
 62
     7
100
AcDbLine
 10
326.9394515169719
 20
1289.130778397218
 30
0.0
 11
328.150732339726
 21
1288.403315628663
 31
0.0
  0
LINE
  5
2043
330
1F
100
AcDbEntity
  8
HEWI
  6
IMPORT
 62
     7
100
AcDbLine
 10
332.9345343721967
 20
1340.039858902589
 30
0.0
 11
334.3619940889936
 21
1339.18250569214
 31
0.0
  0
LINE
  5
2044
330
1F
100
AcDbEntity
  8
HEWI
  6
IMPORT
 62
     7
100
AcDbLine
 10
368.150732339726
 20
1289.280085648194
 30
0.0
 11
368.366911233769
 21
1289.150233353272
 31
0.0
  0
LINE
  5
2045
330
1F
100
AcDbEntity
  8
HEWI
  6
IMPORT
 62
     7
100
AcDbLine
 10
366.9394515169721
 20
1289.130778397218
 30
0.0
 11
368.150732339726
 21
1288.403315628663
 31
0.0
  0
LINE
  5
2046
330
1F
100
AcDbEntity
  8
HEWI
  6
IMPORT
 62
     7
100
AcDbLine
 10
372.9345343721965
 20
1340.039858902589
 30
0.0
 11
374.3619940889936
 21
1339.18250569214
 31
0.0
  0
LINE
  5
2047
330
1F
100
AcDbEntity
  8
HEWI
  6
IMPORT
 62
     7
100
AcDbLine
 10
408.150732339726
 20
1289.280085648194
 30
0.0
 11
408.3669112337688
 21
1289.150233353272
 31
0.0
  0
LINE
  5
2048
330
1F
100
AcDbEntity
  8
HEWI
  6
IMPORT
 62
     7
100
AcDbLine
 10
406.9394515169721
 20
1289.130778397218
 30
0.0
 11
408.150732339726
 21
1288.403315628663
 31
0.0
  0
LINE
  5
2049
330
1F
100
AcDbEntity
  8
HEWI
  6
IMPORT
 62
     7
100
AcDbLine
 10
412.9345343721966
 20
1340.039858902589
 30
0.0
 11
414.3619940889935
 21
1339.18250569214
 31
0.0
  0
LINE
  5
204A
330
1F
100
AcDbEntity
  8
HEWI
  6
IMPORT
 62
     7
100
AcDbLine
 10
448.1507323397258
 20
1289.280085648194
 30
0.0
 11
448.366911233769
 21
1289.150233353272
 31
0.0
  0
LINE
  5
204B
330
1F
100
AcDbEntity
  8
HEWI
  6
IMPORT
 62
     7
100
AcDbLine
 10
446.9394515169721
 20
1289.130778397218
 30
0.0
 11
448.1507323397258
 21
1288.403315628663
 31
0.0
  0
LINE
  5
204C
330
1F
100
AcDbEntity
  8
HEWI
  6
IMPORT
 62
     7
100
AcDbLine
 10
452.9345343721966
 20
1340.039858902589
 30
0.0
 11
454.3619940889936
 21
1339.18250569214
 31
0.0
  0
LINE
  5
204D
330
1F
100
AcDbEntity
  8
HEWI
  6
IMPORT
 62
     7
100
AcDbLine
 10
488.1507323397257
 20
1289.280085648194
 30
0.0
 11
488.3669207705117
 21
1289.150233353272
 31
0.0
  0
LINE
  5
204E
330
1F
100
AcDbEntity
  8
HEWI
  6
IMPORT
 62
     7
100
AcDbLine
 10
486.9394610537148
 20
1289.130778397218
 30
0.0
 11
488.1507323397257
 21
1288.403315628663
 31
0.0
  0
LINE
  5
204F
330
1F
100
AcDbEntity
  8
HEWI
  6
IMPORT
 62
     7
100
AcDbLine
 10
492.9345248354534
 20
1340.039858902589
 30
0.0
 11
494.3620036257367
 21
1339.18250569214
 31
0.0
  0
LINE
  5
2050
330
1F
100
AcDbEntity
  8
HEWI
  6
IMPORT
 62
     7
100
AcDbLine
 10
528.1507323397257
 20
1289.280085648194
 30
0.0
 11
528.3669207705116
 21
1289.150233353272
 31
0.0
  0
LINE
  5
2051
330
1F
100
AcDbEntity
  8
HEWI
  6
IMPORT
 62
     7
100
AcDbLine
 10
526.9394610537148
 20
1289.130778397218
 30
0.0
 11
528.1507323397257
 21
1288.403315628663
 31
0.0
  0
LINE
  5
2052
330
1F
100
AcDbEntity
  8
HEWI
  6
IMPORT
 62
     7
100
AcDbLine
 10
532.9345248354535
 20
1340.039858902589
 30
0.0
 11
534.3620036257367
 21
1339.18250569214
 31
0.0
  0
LINE
  5
2053
330
1F
100
AcDbEntity
  8
HEWI
  6
IMPORT
 62
     7
100
AcDbLine
 10
568.1507275713537
 20
1289.280085648194
 30
0.0
 11
568.3669207705118
 21
1289.150233353272
 31
0.0
  0
LINE
  5
2054
330
1F
100
AcDbEntity
  8
HEWI
  6
IMPORT
 62
     7
100
AcDbLine
 10
566.9394610537148
 20
1289.130778397218
 30
0.0
 11
568.1507275713537
 21
1288.403315628663
 31
0.0
  0
LINE
  5
2055
330
1F
100
AcDbEntity
  8
HEWI
  6
IMPORT
 62
     7
100
AcDbLine
 10
572.9345296038246
 20
1340.039858902589
 30
0.0
 11
574.3619988573647
 21
1339.18250569214
 31
0.0
  0
LINE
  5
2056
330
1F
100
AcDbEntity
  8
HEWI
  6
IMPORT
 62
     7
100
AcDbLine
 10
608.1507299555397
 20
1289.280085648194
 30
0.0
 11
608.3669195784188
 21
1289.150233353272
 31
0.0
  0
LINE
  5
2057
330
1F
100
AcDbEntity
  8
HEWI
  6
IMPORT
 62
     7
100
AcDbLine
 10
606.9394598616216
 20
1289.130778397218
 30
0.0
 11
608.1507299555397
 21
1288.403315628663
 31
0.0
  0
LINE
  5
2058
330
1F
100
AcDbEntity
  8
HEWI
  6
IMPORT
 62
     7
100
AcDbLine
 10
612.9345296038247
 20
1340.039858902589
 30
0.0
 11
614.3619994534116
 21
1339.18250569214
 31
0.0
  0
LINE
  5
2059
330
1F
100
AcDbEntity
  8
HEWI
  6
IMPORT
 62
     7
100
AcDbLine
 10
654.3619988573647
 20
1289.130778397218
 30
0.0
 11
655.3157995356175
 21
1290.413851822511
 31
0.0
  0
LINE
  5
205A
330
1F
100
AcDbEntity
  8
HEWI
  6
IMPORT
 62
     7
100
AcDbLine
 10
645.9856603754616
 20
1337.899470413819
 30
0.0
 11
646.9394586695297
 21
1339.18250569214
 31
0.0
  0
LINE
  5
205B
330
1F
100
AcDbEntity
  8
HEWI
  6
IMPORT
 62
     7
100
AcDbLine
 10
334.3619940889936
 20
1289.130778397218
 30
0.0
 11
335.3158019198039
 21
1290.413851822511
 31
0.0
  0
LINE
  5
205C
330
1F
100
AcDbEntity
  8
HEWI
  6
IMPORT
 62
     7
100
AcDbLine
 10
325.9856627596479
 20
1337.899470413819
 30
0.0
 11
326.9394515169719
 21
1339.18250569214
 31
0.0
  0
LINE
  5
205D
330
1F
100
AcDbEntity
  8
HEWI
  6
IMPORT
 62
     7
100
AcDbLine
 10
374.3619940889936
 20
1289.130778397218
 30
0.0
 11
375.3158019198041
 21
1290.413851822511
 31
0.0
  0
LINE
  5
205E
330
1F
100
AcDbEntity
  8
HEWI
  6
IMPORT
 62
     7
100
AcDbLine
 10
365.9856627596479
 20
1337.899470413819
 30
0.0
 11
366.9394515169721
 21
1339.18250569214
 31
0.0
  0
LINE
  5
205F
330
1F
100
AcDbEntity
  8
HEWI
  6
IMPORT
 62
     7
100
AcDbLine
 10
414.3619940889935
 20
1289.130778397218
 30
0.0
 11
415.3158019198041
 21
1290.413851822511
 31
0.0
  0
LINE
  5
2060
330
1F
100
AcDbEntity
  8
HEWI
  6
IMPORT
 62
     7
100
AcDbLine
 10
405.9856627596478
 20
1337.899470413819
 30
0.0
 11
406.9394515169721
 21
1339.18250569214
 31
0.0
  0
LINE
  5
2061
330
1F
100
AcDbEntity
  8
HEWI
  6
IMPORT
 62
     7
100
AcDbLine
 10
454.3619940889936
 20
1289.130778397218
 30
0.0
 11
455.3158019198041
 21
1290.413851822511
 31
0.0
  0
LINE
  5
2062
330
1F
100
AcDbEntity
  8
HEWI
  6
IMPORT
 62
     7
100
AcDbLine
 10
445.9856627596476
 20
1337.899470413819
 30
0.0
 11
446.9394515169721
 21
1339.18250569214
 31
0.0
  0
LINE
  5
2063
330
1F
100
AcDbEntity
  8
HEWI
  6
IMPORT
 62
     7
100
AcDbLine
 10
494.3620036257367
 20
1289.130778397218
 30
0.0
 11
495.3158019198037
 21
1290.413851822511
 31
0.0
  0
LINE
  5
2064
330
1F
100
AcDbEntity
  8
HEWI
  6
IMPORT
 62
     7
100
AcDbLine
 10
485.9856627596475
 20
1337.899470413819
 30
0.0
 11
486.9394610537148
 21
1339.18250569214
 31
0.0
  0
LINE
  5
2065
330
1F
100
AcDbEntity
  8
HEWI
  6
IMPORT
 62
     7
100
AcDbLine
 10
534.3620036257367
 20
1289.130778397218
 30
0.0
 11
535.3158019198036
 21
1290.413851822511
 31
0.0
  0
LINE
  5
2066
330
1F
100
AcDbEntity
  8
HEWI
  6
IMPORT
 62
     7
100
AcDbLine
 10
525.9856627596476
 20
1337.899470413819
 30
0.0
 11
526.9394610537148
 21
1339.18250569214
 31
0.0
  0
LINE
  5
2067
330
1F
100
AcDbEntity
  8
HEWI
  6
IMPORT
 62
     7
100
AcDbLine
 10
574.3619988573647
 20
1289.130778397218
 30
0.0
 11
575.3157971514325
 21
1290.413851822511
 31
0.0
  0
LINE
  5
2068
330
1F
100
AcDbEntity
  8
HEWI
  6
IMPORT
 62
     7
100
AcDbLine
 10
565.9856579912758
 20
1337.899470413819
 30
0.0
 11
566.9394610537148
 21
1339.18250569214
 31
0.0
  0
LINE
  5
2069
330
1F
100
AcDbEntity
  8
HEWI
  6
IMPORT
 62
     7
100
AcDbLine
 10
614.3619994534116
 20
1289.130778397218
 30
0.0
 11
615.3157995356175
 21
1290.413851822511
 31
0.0
  0
LINE
  5
206A
330
1F
100
AcDbEntity
  8
HEWI
  6
IMPORT
 62
     7
100
AcDbLine
 10
605.9856591833687
 20
1337.899470413819
 30
0.0
 11
606.9394598616216
 21
1339.18250569214
 31
0.0
  0
LINE
  5
206B
330
1F
100
AcDbEntity
  8
HEWI
  6
IMPORT
 62
     7
100
AcDbLine
 10
653.7228606356237
 20
1331.253619278565
 30
0.0
 11
654.1958902491186
 21
1330.815844620362
 31
0.0
  0
LINE
  5
206C
330
1F
100
AcDbEntity
  8
HEWI
  6
IMPORT
 62
     7
100
AcDbLine
 10
333.7228606356244
 20
1331.253619278565
 30
0.0
 11
334.1958830965619
 21
1330.815844620362
 31
0.0
  0
LINE
  5
206D
330
1F
100
AcDbEntity
  8
HEWI
  6
IMPORT
 62
     7
100
AcDbLine
 10
373.7228606356244
 20
1331.253619278565
 30
0.0
 11
374.1958830965619
 21
1330.815844620362
 31
0.0
  0
LINE
  5
206E
330
1F
100
AcDbEntity
  8
HEWI
  6
IMPORT
 62
     7
100
AcDbLine
 10
413.7228606356243
 20
1331.253619278565
 30
0.0
 11
414.1958830965617
 21
1330.815844620362
 31
0.0
  0
LINE
  5
206F
330
1F
100
AcDbEntity
  8
HEWI
  6
IMPORT
 62
     7
100
AcDbLine
 10
453.7228606356244
 20
1331.253619278565
 30
0.0
 11
454.1958830965619
 21
1330.815844620362
 31
0.0
  0
LINE
  5
2070
330
1F
100
AcDbEntity
  8
HEWI
  6
IMPORT
 62
     7
100
AcDbLine
 10
493.7228606356247
 20
1331.253619278565
 30
0.0
 11
494.1958926333046
 21
1330.815844620362
 31
0.0
  0
LINE
  5
2071
330
1F
100
AcDbEntity
  8
HEWI
  6
IMPORT
 62
     7
100
AcDbLine
 10
533.7228606356246
 20
1331.253619278565
 30
0.0
 11
534.1958926333046
 21
1330.815844620362
 31
0.0
  0
LINE
  5
2072
330
1F
100
AcDbEntity
  8
HEWI
  6
IMPORT
 62
     7
100
AcDbLine
 10
573.7228606356246
 20
1331.253619278565
 30
0.0
 11
574.1958878649337
 21
1330.815844620362
 31
0.0
  0
LINE
  5
2073
330
1F
100
AcDbEntity
  8
HEWI
  6
IMPORT
 62
     7
100
AcDbLine
 10
613.7228594435315
 20
1331.253619278565
 30
0.0
 11
614.1958890570257
 21
1330.815844620362
 31
0.0
  0
LINE
  5
2074
330
1F
100
AcDbEntity
  8
HEWI
  6
IMPORT
 62
     7
100
AcDbLine
 10
654.1958902491186
 20
1330.815844620362
 30
0.0
 11
655.1002405298805
 21
1329.955630386964
 31
0.0
  0
LINE
  5
2075
330
1F
100
AcDbEntity
  8
HEWI
  6
IMPORT
 62
     7
100
AcDbLine
 10
334.1958830965619
 20
1330.815844620362
 30
0.0
 11
335.1002333773234
 21
1329.955630386964
 31
0.0
  0
LINE
  5
2076
330
1F
100
AcDbEntity
  8
HEWI
  6
IMPORT
 62
     7
100
AcDbLine
 10
374.1958830965619
 20
1330.815844620362
 30
0.0
 11
375.1002333773237
 21
1329.955630386964
 31
0.0
  0
LINE
  5
2077
330
1F
100
AcDbEntity
  8
HEWI
  6
IMPORT
 62
     7
100
AcDbLine
 10
414.1958830965617
 20
1330.815844620362
 30
0.0
 11
415.1002333773235
 21
1329.955630386964
 31
0.0
  0
LINE
  5
2078
330
1F
100
AcDbEntity
  8
HEWI
  6
IMPORT
 62
     7
100
AcDbLine
 10
454.1958830965619
 20
1330.815844620362
 30
0.0
 11
455.1002333773237
 21
1329.955630386964
 31
0.0
  0
LINE
  5
2079
330
1F
100
AcDbEntity
  8
HEWI
  6
IMPORT
 62
     7
100
AcDbLine
 10
494.1958926333046
 20
1330.815844620362
 30
0.0
 11
495.1002429140668
 21
1329.955630386964
 31
0.0
  0
LINE
  5
207A
330
1F
100
AcDbEntity
  8
HEWI
  6
IMPORT
 62
     7
100
AcDbLine
 10
534.1958926333046
 20
1330.815844620362
 30
0.0
 11
535.1002429140668
 21
1329.955630386964
 31
0.0
  0
LINE
  5
207B
330
1F
100
AcDbEntity
  8
HEWI
  6
IMPORT
 62
     7
100
AcDbLine
 10
574.1958878649337
 20
1330.815844620362
 30
0.0
 11
575.1002381456948
 21
1329.955630386964
 31
0.0
  0
LINE
  5
207C
330
1F
100
AcDbEntity
  8
HEWI
  6
IMPORT
 62
     7
100
AcDbLine
 10
614.1958890570257
 20
1330.815844620362
 30
0.0
 11
615.1002393377877
 21
1329.955630386964
 31
0.0
  0
LINE
  5
207D
330
1F
100
AcDbEntity
  8
HEWI
  6
IMPORT
 62
     7
100
AcDbLine
 10
690.0507311237908
 20
1288.849177445069
 30
0.0
 11
691.2507299793816
 21
1288.849177445069
 31
0.0
  0
LINE
  5
207E
330
1F
100
AcDbEntity
  8
HEWI
  6
IMPORT
 62
     7
100
AcDbLine
 10
688.1507305515866
 20
1283.389887894288
 30
0.0
 11
693.1507305515866
 21
1283.389887894288
 31
0.0
  0
LINE
  5
207F
330
1F
100
AcDbEntity
  8
HEWI
  6
IMPORT
 62
     7
100
AcDbLine
 10
690.0507311237908
 20
1340.340876663819
 30
0.0
 11
691.6957907093625
 21
1340.261340225831
 31
0.0
  0
LINE
  5
2080
330
1F
100
AcDbEntity
  8
HEWI
  6
IMPORT
 62
     7
100
AcDbLine
 10
688.3669189823727
 20
1340.039858902589
 30
0.0
 11
688.8069204701046
 21
1340.118517960206
 31
0.0
  0
LINE
  5
2081
330
1F
100
AcDbEntity
  8
HEWI
  6
IMPORT
 62
     7
100
AcDbLine
 10
692.4573711765866
 20
1331.752619827882
 30
0.0
 11
692.5862411869626
 21
1331.736292923585
 31
0.0
  0
LINE
  5
2082
330
1F
100
AcDbEntity
  8
HEWI
  6
IMPORT
 62
     7
100
AcDbLine
 10
688.6009506596186
 20
1331.687769974366
 30
0.0
 11
688.7152103794677
 21
1331.736292923585
 31
0.0
  0
LINE
  5
2083
330
1F
100
AcDbEntity
  8
HEWI
  6
IMPORT
 62
     7
100
AcDbLine
 10
690.0085691822627
 20
1331.899828995362
 30
0.0
 11
691.1625198734856
 21
1331.91630848755
 31
0.0
  0
LINE
  5
2084
330
1F
100
AcDbEntity
  8
HEWI
  6
IMPORT
 62
     7
100
AcDbLine
 10
693.6123399151425
 20
1331.300540054933
 30
0.0
 11
693.7228612316706
 21
1331.253619278565
 31
0.0
  0
LINE
  5
2085
330
1F
100
AcDbEntity
  8
HEWI
  6
IMPORT
 62
     7
100
AcDbLine
 10
688.1507305515866
 20
1280.66157826294
 30
0.0
 11
693.1507305515866
 21
1280.66157826294
 31
0.0
  0
LINE
  5
2086
330
1F
100
AcDbEntity
  8
HEWI
  6
IMPORT
 62
     7
100
AcDbLine
 10
688.1507305515866
 20
1270.340876663819
 30
0.0
 11
693.1507305515866
 21
1270.340876663819
 31
0.0
  0
LINE
  5
2087
330
1F
100
AcDbEntity
  8
HEWI
  6
IMPORT
 62
     7
100
AcDbLine
 10
693.1507305515866
 20
1270.340876663819
 30
0.0
 11
693.1507305515866
 21
1289.280085648194
 31
0.0
  0
LINE
  5
2088
330
1F
100
AcDbEntity
  8
HEWI
  6
IMPORT
 62
     7
100
AcDbLine
 10
688.1507305515866
 20
1270.340876663819
 30
0.0
 11
688.1507305515866
 21
1289.280085648194
 31
0.0
  0
LINE
  5
2089
330
1F
100
AcDbEntity
  8
HEWI
  6
IMPORT
 62
     7
100
AcDbLine
 10
685.6507305515866
 20
1330.626864517823
 30
0.0
 11
685.7471494091607
 21
1336.821665848389
 31
0.0
  0
LINE
  5
208A
330
1F
100
AcDbEntity
  8
HEWI
  6
IMPORT
 62
     7
100
AcDbLine
 10
685.6507305515866
 20
1291.927332962647
 30
0.0
 11
685.6507305515866
 21
1328.082079971925
 31
0.0
  0
LINE
  5
208B
330
1F
100
AcDbEntity
  8
HEWI
  6
IMPORT
 62
     7
100
AcDbLine
 10
695.6507305515867
 20
1330.626864517823
 30
0.0
 11
695.6507305515867
 21
1336.38595112671
 31
0.0
  0
LINE
  5
208C
330
1F
100
AcDbEntity
  8
HEWI
  6
IMPORT
 62
     7
100
AcDbLine
 10
695.6507305515867
 20
1291.927332962647
 30
0.0
 11
695.6507305515867
 21
1328.082079971925
 31
0.0
  0
LINE
  5
208D
330
1F
100
AcDbEntity
  8
HEWI
  6
IMPORT
 62
     7
100
AcDbLine
 10
686.1376909626577
 20
1329.75265034546
 30
0.0
 11
686.2012104405026
 21
1329.955630386964
 31
0.0
  0
LINE
  5
208E
330
1F
100
AcDbEntity
  8
HEWI
  6
IMPORT
 62
     7
100
AcDbLine
 10
695.3628401173217
 20
1328.926348770753
 30
0.0
 11
695.4223589314087
 21
1329.116549576417
 31
0.0
  0
LINE
  5
208F
330
1F
100
AcDbEntity
  8
HEWI
  6
IMPORT
 62
     7
100
AcDbLine
 10
686.2012104405026
 20
1329.955630386964
 30
0.0
 11
687.1055607212646
 21
1330.815844620362
 31
0.0
  0
LINE
  5
2090
330
1F
100
AcDbEntity
  8
HEWI
  6
IMPORT
 62
     7
100
AcDbLine
 10
687.1055607212646
 20
1330.815844620362
 30
0.0
 11
687.5785998715017
 21
1331.253619278565
 31
0.0
  0
LINE
  5
2091
330
1F
100
AcDbEntity
  8
HEWI
  6
IMPORT
 62
     7
100
AcDbLine
 10
685.9856609715085
 20
1290.413851822511
 30
0.0
 11
686.9394592655757
 21
1289.130778397218
 31
0.0
  0
LINE
  5
2092
330
1F
100
AcDbEntity
  8
HEWI
  6
IMPORT
 62
     7
100
AcDbLine
 10
694.3619994534116
 20
1339.18250569214
 30
0.0
 11
695.3158001316648
 21
1337.899470413819
 31
0.0
  0
LINE
  5
2093
330
1F
100
AcDbEntity
  8
HEWI
  6
IMPORT
 62
     7
100
AcDbLine
 10
692.9345301998715
 20
1289.150233353272
 30
0.0
 11
693.1507305515866
 21
1289.280085648194
 31
0.0
  0
LINE
  5
2094
330
1F
100
AcDbEntity
  8
HEWI
  6
IMPORT
 62
     7
100
AcDbLine
 10
693.1507305515866
 20
1288.403315628663
 30
0.0
 11
694.3619994534116
 21
1289.130778397218
 31
0.0
  0
LINE
  5
2095
330
1F
100
AcDbEntity
  8
HEWI
  6
IMPORT
 62
     7
100
AcDbLine
 10
686.9394592655757
 20
1339.18250569214
 30
0.0
 11
688.3669189823727
 21
1340.039858902589
 31
0.0
  0
LINE
  5
2096
330
1F
100
AcDbEntity
  8
HEWI
  6
IMPORT
 62
     7
100
AcDbLine
 10
687.5785998715017
 20
1331.253619278565
 30
0.0
 11
688.6009506596186
 21
1331.687769974366
 31
0.0
  0
LINE
  5
2097
330
1F
100
AcDbEntity
  8
HEWI
  6
IMPORT
 62
     7
100
AcDbLine
 10
695.1002411259264
 20
1329.955630386964
 30
0.0
 11
695.3628401173217
 21
1329.116549576417
 31
0.0
  0
LINE
  5
2098
330
1F
100
AcDbEntity
  8
HEWI
  6
IMPORT
 62
     7
100
AcDbLine
 10
695.4223589314087
 20
1328.926348770753
 30
0.0
 11
695.6507305515867
 21
1328.082079971925
 31
0.0
  0
LINE
  5
2099
330
1F
100
AcDbEntity
  8
HEWI
  6
IMPORT
 62
     7
100
AcDbLine
 10
685.6507305515866
 20
1291.927332962647
 30
0.0
 11
685.9856609715085
 21
1290.413851822511
 31
0.0
  0
LINE
  5
209A
330
1F
100
AcDbEntity
  8
HEWI
  6
IMPORT
 62
     7
100
AcDbLine
 10
695.3158001316648
 20
1337.899470413819
 30
0.0
 11
695.6507305515867
 21
1336.38595112671
 31
0.0
  0
LINE
  5
209B
330
1F
100
AcDbEntity
  8
HEWI
  6
IMPORT
 62
     7
100
AcDbLine
 10
691.2507299793816
 20
1288.849177445069
 30
0.0
 11
692.9345301998715
 21
1289.150233353272
 31
0.0
  0
LINE
  5
209C
330
1F
100
AcDbEntity
  8
HEWI
  6
IMPORT
 62
     7
100
AcDbLine
 10
688.8069204701046
 20
1340.118517960206
 30
0.0
 11
690.0507311237908
 21
1340.340876663819
 31
0.0
  0
LINE
  5
209D
330
1F
100
AcDbEntity
  8
HEWI
  6
IMPORT
 62
     7
100
AcDbLine
 10
688.7152103794677
 20
1331.736292923585
 30
0.0
 11
690.0085691822627
 21
1331.899828995362
 31
0.0
  0
LINE
  5
209E
330
1F
100
AcDbEntity
  8
HEWI
  6
IMPORT
 62
     7
100
AcDbLine
 10
691.1625198734856
 20
1331.91630848755
 30
0.0
 11
692.4573711765866
 21
1331.752619827882
 31
0.0
  0
LINE
  5
209F
330
1F
100
AcDbEntity
  8
HEWI
  6
IMPORT
 62
     7
100
AcDbLine
 10
688.3669189823727
 20
1289.150233353272
 30
0.0
 11
690.0507311237908
 21
1288.849177445069
 31
0.0
  0
LINE
  5
20A0
330
1F
100
AcDbEntity
  8
HEWI
  6
IMPORT
 62
     7
100
AcDbLine
 10
691.6957907093625
 20
1340.261340225831
 30
0.0
 11
692.9345301998715
 21
1340.039858902589
 31
0.0
  0
LINE
  5
20A1
330
1F
100
AcDbEntity
  8
HEWI
  6
IMPORT
 62
     7
100
AcDbLine
 10
695.3158001316648
 20
1290.413851822511
 30
0.0
 11
695.6507305515867
 21
1291.927332962647
 31
0.0
  0
LINE
  5
20A2
330
1F
100
AcDbEntity
  8
HEWI
  6
IMPORT
 62
     7
100
AcDbLine
 10
685.7471494091607
 20
1336.821665848389
 30
0.0
 11
685.9856609715085
 21
1337.899470413819
 31
0.0
  0
LINE
  5
20A3
330
1F
100
AcDbEntity
  8
HEWI
  6
IMPORT
 62
     7
100
AcDbLine
 10
685.6507305515866
 20
1328.082079971925
 30
0.0
 11
685.8790902508356
 21
1328.926348770753
 31
0.0
  0
LINE
  5
20A4
330
1F
100
AcDbEntity
  8
HEWI
  6
IMPORT
 62
     7
100
AcDbLine
 10
685.8790902508356
 20
1328.926348770753
 30
0.0
 11
686.1376909626577
 21
1329.75265034546
 31
0.0
  0
LINE
  5
20A5
330
1F
100
AcDbEntity
  8
HEWI
  6
IMPORT
 62
     7
100
AcDbLine
 10
692.5862411869626
 20
1331.736292923585
 30
0.0
 11
693.6123399151425
 21
1331.300540054933
 31
0.0
  0
LINE
  5
20A6
330
1F
100
AcDbEntity
  8
HEWI
  6
IMPORT
 62
     7
100
AcDbLine
 10
688.1507305515866
 20
1289.280085648194
 30
0.0
 11
688.3669189823727
 21
1289.150233353272
 31
0.0
  0
LINE
  5
20A7
330
1F
100
AcDbEntity
  8
HEWI
  6
IMPORT
 62
     7
100
AcDbLine
 10
686.9394592655757
 20
1289.130778397218
 30
0.0
 11
688.1507305515866
 21
1288.403315628663
 31
0.0
  0
LINE
  5
20A8
330
1F
100
AcDbEntity
  8
HEWI
  6
IMPORT
 62
     7
100
AcDbLine
 10
692.9345301998715
 20
1340.039858902589
 30
0.0
 11
694.3619994534116
 21
1339.18250569214
 31
0.0
  0
LINE
  5
20A9
330
1F
100
AcDbEntity
  8
HEWI
  6
IMPORT
 62
     7
100
AcDbLine
 10
694.3619994534116
 20
1289.130778397218
 30
0.0
 11
695.3158001316648
 21
1290.413851822511
 31
0.0
  0
LINE
  5
20AA
330
1F
100
AcDbEntity
  8
HEWI
  6
IMPORT
 62
     7
100
AcDbLine
 10
685.9856609715085
 20
1337.899470413819
 30
0.0
 11
686.9394592655757
 21
1339.18250569214
 31
0.0
  0
LINE
  5
20AB
330
1F
100
AcDbEntity
  8
HEWI
  6
IMPORT
 62
     7
100
AcDbLine
 10
693.7228612316706
 20
1331.253619278565
 30
0.0
 11
694.1958908451657
 21
1330.815844620362
 31
0.0
  0
LINE
  5
20AC
330
1F
100
AcDbEntity
  8
HEWI
  6
IMPORT
 62
     7
100
AcDbLine
 10
694.1958908451657
 20
1330.815844620362
 30
0.0
 11
695.1002411259264
 21
1329.955630386964
 31
0.0
  0
LWPOLYLINE
  5
228B
330
1F
100
AcDbEntity
  8
HEWI
100
AcDbPolyline
 90
        3
 70
     0
 43
0.0
 10
152.9908007195781
 20
129.1721917323045
 10
152.988274996329
 20
129.1721917323045
 10
152.988274996329
 20
116.6721917317415
  0
LWPOLYLINE
  5
228C
330
1F
100
AcDbEntity
  8
HEWI
100
AcDbPolyline
 90
        2
 70
     0
 43
0.0
 10
164.985749518044
 20
104.1721917323045
 10
325.6507323397259
 20
104.1721917323045
  0
LWPOLYLINE
  5
228D
330
1F
100
AcDbEntity
  8
HEWI
100
AcDbPolyline
 90
        2
 70
     0
 43
0.0
 10
325.6507323397259
 20
104.1721917323045
 10
1032.277084193111
 20
104.1721917323045
  0
LWPOLYLINE
  5
228F
330
1F
100
AcDbEntity
  8
HEWI
100
AcDbPolyline
 90
        2
 70
     0
 43
0.0
 10
326.9068861772132
 20
129.1721917323045
 10
164.9908009645423
 20
129.1721917323045
  0
LINE
  5
2290
330
1F
100
AcDbEntity
  8
HEWI
100
AcDbLine
 10
163.995346796732
 20
151.6699683814106
 30
0.0
 11
152.9953470212822
 21
151.6721910178255
 31
0.0
  0
LINE
  5
2291
330
1F
100
AcDbEntity
  8
HEWI
100
AcDbLine
 10
152.9953470212822
 20
151.6721910178255
 30
0.0
 11
152.9812029713757
 21
81.67219244678449
 31
0.0
  0
LINE
  5
2292
330
1F
100
AcDbEntity
  8
HEWI
100
AcDbLine
 10
152.9812029713757
 20
81.67219244678449
 30
0.0
 11
163.9812027468251
 21
81.66996981037049
 31
0.0
  0
LWPOLYLINE
  5
2293
330
1F
100
AcDbEntity
  8
HEWI
100
AcDbPolyline
 90
        2
 70
     0
 43
0.0
 10
164.9814047842671
 20
82.66976773210059
 10
164.9951447184621
 20
150.6697663439686
  0
ARC
  5
2294
330
1F
100
AcDbEntity
  8
HEWI
100
AcDbCircle
 10
163.995144738875
 20
150.6699684018244
 30
0.0
 40
1.0
100
AcDbArc
 50
359.9884229375631
 51
89.98842293756306
  0
ARC
  5
2295
330
1F
100
AcDbEntity
  8
HEWI
100
AcDbCircle
 10
163.981404804681
 20
82.66996978995644
 30
0.0
 40
1.0
100
AcDbArc
 50
269.9884229375631
 51
359.9884229375631
  0
LINE
  5
2296
330
1F
100
AcDbEntity
  8
HEWI
  6
IMPORT
 62
     7
100
AcDbLine
 10
616.9068831969807
 20
129.1721917323045
 30
0.0
 11
646.9068837930276
 21
129.1721917323045
 31
0.0
  0
LINE
  5
2297
330
1F
100
AcDbEntity
  8
HEWI
  6
IMPORT
 62
     7
100
AcDbLine
 10
576.9068814088416
 20
129.1721917323045
 30
0.0
 11
606.9068837930276
 21
129.1721917323045
 31
0.0
  0
LINE
  5
2298
330
1F
100
AcDbEntity
  8
HEWI
  6
IMPORT
 62
     7
100
AcDbLine
 10
536.9068861772125
 20
129.1721917323045
 30
0.0
 11
566.9068814088416
 21
129.1721917323045
 31
0.0
  0
LINE
  5
2299
330
1F
100
AcDbEntity
  8
HEWI
  6
IMPORT
 62
     7
100
AcDbLine
 10
496.9068861772125
 20
129.1721917323045
 30
0.0
 11
526.9068861772125
 21
129.1721917323045
 31
0.0
  0
LINE
  5
229A
330
1F
100
AcDbEntity
  8
HEWI
  6
IMPORT
 62
     7
100
AcDbLine
 10
456.9068861772125
 20
129.1721917323045
 30
0.0
 11
486.9068861772125
 21
129.1721917323045
 31
0.0
  0
LINE
  5
229B
330
1F
100
AcDbEntity
  8
HEWI
  6
IMPORT
 62
     7
100
AcDbLine
 10
416.9068861772132
 20
129.1721917323045
 30
0.0
 11
446.9068861772131
 21
129.1721917323045
 31
0.0
  0
LINE
  5
229C
330
1F
100
AcDbEntity
  8
HEWI
  6
IMPORT
 62
     7
100
AcDbLine
 10
376.9068861772132
 20
129.1721917323045
 30
0.0
 11
406.9068861772132
 21
129.1721917323045
 31
0.0
  0
LINE
  5
229D
330
1F
100
AcDbEntity
  8
HEWI
  6
IMPORT
 62
     7
100
AcDbLine
 10
336.9068861772131
 20
129.1721917323045
 30
0.0
 11
366.9068861772132
 21
129.1721917323045
 31
0.0
  0
LINE
  5
229E
330
1F
100
AcDbEntity
  8
HEWI
  6
IMPORT
 62
     7
100
AcDbLine
 10
649.9068833161897
 20
113.8537026575975
 30
0.0
 11
653.9068842698647
 21
113.8537026575975
 31
0.0
  0
LINE
  5
229F
330
1F
100
AcDbEntity
  8
HEWI
  6
IMPORT
 62
     7
100
AcDbLine
 10
609.9068833161894
 20
113.8537026575975
 30
0.0
 11
613.9068830777715
 21
113.8537026575975
 31
0.0
  0
LINE
  5
22A0
330
1F
100
AcDbEntity
  8
HEWI
  6
IMPORT
 62
     7
100
AcDbLine
 10
569.9068833161894
 20
113.8537026575975
 30
0.0
 11
573.9068842698644
 21
113.8537026575975
 31
0.0
  0
LINE
  5
22A1
330
1F
100
AcDbEntity
  8
HEWI
  6
IMPORT
 62
     7
100
AcDbLine
 10
529.9068880845616
 20
113.8537026575975
 30
0.0
 11
533.9068842698647
 21
113.8537026575975
 31
0.0
  0
LINE
  5
22A2
330
1F
100
AcDbEntity
  8
HEWI
  6
IMPORT
 62
     7
100
AcDbLine
 10
489.9068880845616
 20
113.8537026575975
 30
0.0
 11
493.9068842698644
 21
113.8537026575975
 31
0.0
  0
LINE
  5
22A3
330
1F
100
AcDbEntity
  8
HEWI
  6
IMPORT
 62
     7
100
AcDbLine
 10
449.9068785478189
 20
113.8537026575975
 30
0.0
 11
453.9068747331213
 21
113.8537026575975
 31
0.0
  0
LINE
  5
22A4
330
1F
100
AcDbEntity
  8
HEWI
  6
IMPORT
 62
     7
100
AcDbLine
 10
409.9068785478189
 20
113.8537026575975
 30
0.0
 11
413.9068747331213
 21
113.8537026575975
 31
0.0
  0
LINE
  5
22A5
330
1F
100
AcDbEntity
  8
HEWI
  6
IMPORT
 62
     7
100
AcDbLine
 10
369.9068785478187
 20
113.8537026575975
 30
0.0
 11
373.9068747331213
 21
113.8537026575975
 31
0.0
  0
LINE
  5
22A6
330
1F
100
AcDbEntity
  8
HEWI
  6
IMPORT
 62
     7
100
AcDbLine
 10
329.9068785478187
 20
113.8537026575975
 30
0.0
 11
333.9068747331213
 21
113.8537026575975
 31
0.0
  0
LINE
  5
22A7
330
1F
100
AcDbEntity
  8
HEWI
  6
IMPORT
 62
     7
100
AcDbLine
 10
651.3068843652318
 20
138.8537026575975
 30
0.0
 11
652.5068832208225
 21
138.8537026575975
 31
0.0
  0
LINE
  5
22A8
330
1F
100
AcDbEntity
  8
HEWI
  6
IMPORT
 62
     7
100
AcDbLine
 10
611.3068831731387
 20
138.8537026575975
 30
0.0
 11
612.5068832208226
 21
138.8537026575975
 31
0.0
  0
LINE
  5
22A9
330
1F
100
AcDbEntity
  8
HEWI
  6
IMPORT
 62
     7
100
AcDbLine
 10
571.3068819810455
 20
138.8537026575975
 30
0.0
 11
572.5068856050086
 21
138.8537026575975
 31
0.0
  0
LINE
  5
22AA
330
1F
100
AcDbEntity
  8
HEWI
  6
IMPORT
 62
     7
100
AcDbLine
 10
531.3068819810455
 20
138.8537026575975
 30
0.0
 11
532.5068808366364
 21
138.8537026575975
 31
0.0
  0
LINE
  5
22AB
330
1F
100
AcDbEntity
  8
HEWI
  6
IMPORT
 62
     7
100
AcDbLine
 10
491.3068819810455
 20
138.8537026575975
 30
0.0
 11
492.5068808366366
 21
138.8537026575975
 31
0.0
  0
LINE
  5
22AC
330
1F
100
AcDbEntity
  8
HEWI
  6
IMPORT
 62
     7
100
AcDbLine
 10
451.3068915177891
 20
138.8537026575975
 30
0.0
 11
452.5068808366373
 21
138.8537026575975
 31
0.0
  0
LINE
  5
22AD
330
1F
100
AcDbEntity
  8
HEWI
  6
IMPORT
 62
     7
100
AcDbLine
 10
411.3068915177891
 20
138.8537026575975
 30
0.0
 11
412.506880836637
 21
138.8537026575975
 31
0.0
  0
LINE
  5
22AE
330
1F
100
AcDbEntity
  8
HEWI
  6
IMPORT
 62
     7
100
AcDbLine
 10
371.3068915177891
 20
138.8537026575975
 30
0.0
 11
372.506880836637
 21
138.8537026575975
 31
0.0
  0
LINE
  5
22AF
330
1F
100
AcDbEntity
  8
HEWI
  6
IMPORT
 62
     7
100
AcDbLine
 10
331.3068915177894
 20
138.8537026575975
 30
0.0
 11
332.5068808366371
 21
138.8537026575975
 31
0.0
  0
LINE
  5
22B0
330
1F
100
AcDbEntity
  8
HEWI
  6
IMPORT
 62
     7
100
AcDbLine
 10
652.5690012629236
 20
87.85367976941349
 30
0.0
 11
653.7690001185146
 21
87.85367976941349
 31
0.0
  0
LINE
  5
22B1
330
1F
100
AcDbEntity
  8
HEWI
  6
IMPORT
 62
     7
100
AcDbLine
 10
612.5690000708305
 20
87.85367976941349
 30
0.0
 11
613.7690001185148
 21
87.85367976941349
 31
0.0
  0
LINE
  5
22B2
330
1F
100
AcDbEntity
  8
HEWI
  6
IMPORT
 62
     7
100
AcDbLine
 10
572.5689988787376
 20
87.85367976941349
 30
0.0
 11
573.7690025026995
 21
87.85367976941349
 31
0.0
  0
LINE
  5
22B3
330
1F
100
AcDbEntity
  8
HEWI
  6
IMPORT
 62
     7
100
AcDbLine
 10
532.5689988787376
 20
87.85367976941349
 30
0.0
 11
533.7689977343286
 21
87.85367976941349
 31
0.0
  0
LINE
  5
22B4
330
1F
100
AcDbEntity
  8
HEWI
  6
IMPORT
 62
     7
100
AcDbLine
 10
492.5689988787374
 20
87.85367976941349
 30
0.0
 11
493.7689977343286
 21
87.85367976941349
 31
0.0
  0
LINE
  5
22B5
330
1F
100
AcDbEntity
  8
HEWI
  6
IMPORT
 62
     7
100
AcDbLine
 10
452.569008415481
 20
87.85367976941349
 30
0.0
 11
453.7689977343285
 21
87.85367976941349
 31
0.0
  0
LINE
  5
22B6
330
1F
100
AcDbEntity
  8
HEWI
  6
IMPORT
 62
     7
100
AcDbLine
 10
412.5690084154808
 20
87.85367976941349
 30
0.0
 11
413.7689977343286
 21
87.85367976941349
 31
0.0
  0
LINE
  5
22B7
330
1F
100
AcDbEntity
  8
HEWI
  6
IMPORT
 62
     7
100
AcDbLine
 10
372.569008415481
 20
87.85367976941349
 30
0.0
 11
373.7689977343288
 21
87.85367976941349
 31
0.0
  0
LINE
  5
22B8
330
1F
100
AcDbEntity
  8
HEWI
  6
IMPORT
 62
     7
100
AcDbLine
 10
332.5690084154808
 20
87.85367976941349
 30
0.0
 11
333.7689977343286
 21
87.85367976941349
 31
0.0
  0
LINE
  5
22B9
330
1F
100
AcDbEntity
  8
HEWI
  6
IMPORT
 62
     7
100
AcDbLine
 10
655.1045113260945
 20
99.9658776453905
 30
0.0
 11
655.3622799570766
 21
99.86665736951136
 31
0.0
  0
LINE
  5
22BA
330
1F
100
AcDbEntity
  8
HEWI
  6
IMPORT
 62
     7
100
AcDbLine
 10
650.9757095034326
 20
99.86665736951136
 30
0.0
 11
651.4267903025356
 21
99.9889947108204
 31
0.0
  0
LINE
  5
22BB
330
1F
100
AcDbEntity
  8
HEWI
  6
IMPORT
 62
     7
100
AcDbLine
 10
615.1045101340018
 20
99.9658776453905
 30
0.0
 11
615.3622799570767
 21
99.86665736951136
 31
0.0
  0
LINE
  5
22BC
330
1F
100
AcDbEntity
  8
HEWI
  6
IMPORT
 62
     7
100
AcDbLine
 10
610.9757106955258
 20
99.86665736951136
 30
0.0
 11
611.4267903025356
 21
99.9889947108204
 31
0.0
  0
LINE
  5
22BD
330
1F
100
AcDbEntity
  8
HEWI
  6
IMPORT
 62
     7
100
AcDbLine
 10
575.1045089419094
 20
99.9658776453905
 30
0.0
 11
575.3622823412615
 21
99.86665736951136
 31
0.0
  0
LINE
  5
22BE
330
1F
100
AcDbEntity
  8
HEWI
  6
IMPORT
 62
     7
100
AcDbLine
 10
570.9757095034326
 20
99.86665736951136
 30
0.0
 11
571.4267879183496
 21
99.9889947108204
 31
0.0
  0
LINE
  5
22BF
330
1F
100
AcDbEntity
  8
HEWI
  6
IMPORT
 62
     7
100
AcDbLine
 10
535.1045137102805
 20
99.9658776453905
 30
0.0
 11
535.3622823412615
 21
99.86665736951136
 31
0.0
  0
LINE
  5
22C0
330
1F
100
AcDbEntity
  8
HEWI
  6
IMPORT
 62
     7
100
AcDbLine
 10
530.9757142718035
 20
99.86665736951136
 30
0.0
 11
531.4267926867205
 21
99.9889947108204
 31
0.0
  0
LINE
  5
22C1
330
1F
100
AcDbEntity
  8
HEWI
  6
IMPORT
 62
     7
100
AcDbLine
 10
495.1045137102806
 20
99.9658776453905
 30
0.0
 11
495.3622823412614
 21
99.86665736951136
 31
0.0
  0
LINE
  5
22C2
330
1F
100
AcDbEntity
  8
HEWI
  6
IMPORT
 62
     7
100
AcDbLine
 10
490.9757142718043
 20
99.86665736951136
 30
0.0
 11
491.4267926867204
 21
99.9889947108204
 31
0.0
  0
LINE
  5
22C3
330
1F
100
AcDbEntity
  8
HEWI
  6
IMPORT
 62
     7
100
AcDbLine
 10
455.1045041735376
 20
99.9658776453905
 30
0.0
 11
455.3622823412625
 21
99.86665736951136
 31
0.0
  0
LINE
  5
22C4
330
1F
100
AcDbEntity
  8
HEWI
  6
IMPORT
 62
     7
100
AcDbLine
 10
450.9757047350611
 20
99.86665736951136
 30
0.0
 11
451.4267926867211
 21
99.9889947108204
 31
0.0
  0
LINE
  5
22C5
330
1F
100
AcDbEntity
  8
HEWI
  6
IMPORT
 62
     7
100
AcDbLine
 10
415.1045041735375
 20
99.9658776453905
 30
0.0
 11
415.3622823412622
 21
99.86665736951136
 31
0.0
  0
LINE
  5
22C6
330
1F
100
AcDbEntity
  8
HEWI
  6
IMPORT
 62
     7
100
AcDbLine
 10
410.9757047350613
 20
99.86665736951136
 30
0.0
 11
411.4267926867212
 21
99.9889947108204
 31
0.0
  0
LINE
  5
22C7
330
1F
100
AcDbEntity
  8
HEWI
  6
IMPORT
 62
     7
100
AcDbLine
 10
375.1045041735376
 20
99.9658776453905
 30
0.0
 11
375.3622823412622
 21
99.86665736951136
 31
0.0
  0
LINE
  5
22C8
330
1F
100
AcDbEntity
  8
HEWI
  6
IMPORT
 62
     7
100
AcDbLine
 10
370.9757047350614
 20
99.86665736951136
 30
0.0
 11
371.4267926867212
 21
99.9889947108204
 31
0.0
  0
LINE
  5
22C9
330
1F
100
AcDbEntity
  8
HEWI
  6
IMPORT
 62
     7
100
AcDbLine
 10
335.1045041735373
 20
99.9658776453905
 30
0.0
 11
335.3622823412623
 21
99.86665736951136
 31
0.0
  0
LINE
  5
22CA
330
1F
100
AcDbEntity
  8
HEWI
  6
IMPORT
 62
     7
100
AcDbLine
 10
330.9757047350609
 20
99.86665736951136
 30
0.0
 11
331.4267926867212
 21
99.9889947108204
 31
0.0
  0
LINE
  5
22CB
330
1F
100
AcDbEntity
  8
HEWI
  6
IMPORT
 62
     7
100
AcDbLine
 10
652.6571994478906
 20
100.1360512904095
 30
0.0
 11
653.8708596880635
 21
100.1133156947076
 31
0.0
  0
LINE
  5
22CC
330
1F
100
AcDbEntity
  8
HEWI
  6
IMPORT
 62
     7
100
AcDbLine
 10
612.6572006399835
 20
100.1360512904095
 30
0.0
 11
613.8708596880635
 21
100.1133156947076
 31
0.0
  0
LINE
  5
22CD
330
1F
100
AcDbEntity
  8
HEWI
  6
IMPORT
 62
     7
100
AcDbLine
 10
572.6571994478907
 20
100.1360512904095
 30
0.0
 11
573.8708596880635
 21
100.1133156947076
 31
0.0
  0
LINE
  5
22CE
330
1F
100
AcDbEntity
  8
HEWI
  6
IMPORT
 62
     7
100
AcDbLine
 10
532.6572042162616
 20
100.1360512904095
 30
0.0
 11
533.8708596880635
 21
100.1133156947076
 31
0.0
  0
LINE
  5
22CF
330
1F
100
AcDbEntity
  8
HEWI
  6
IMPORT
 62
     7
100
AcDbLine
 10
492.6572042162614
 20
100.1360512904095
 30
0.0
 11
493.8708596880634
 21
100.1133156947076
 31
0.0
  0
LINE
  5
22D0
330
1F
100
AcDbEntity
  8
HEWI
  6
IMPORT
 62
     7
100
AcDbLine
 10
452.6572042162621
 20
100.1360512904095
 30
0.0
 11
453.8708692248071
 21
100.1133156947076
 31
0.0
  0
LINE
  5
22D1
330
1F
100
AcDbEntity
  8
HEWI
  6
IMPORT
 62
     7
100
AcDbLine
 10
412.6572042162622
 20
100.1360512904095
 30
0.0
 11
413.8708692248071
 21
100.1133156947076
 31
0.0
  0
LINE
  5
22D2
330
1F
100
AcDbEntity
  8
HEWI
  6
IMPORT
 62
     7
100
AcDbLine
 10
372.6572042162625
 20
100.1360512904095
 30
0.0
 11
373.8708692248072
 21
100.1133156947076
 31
0.0
  0
LINE
  5
22D3
330
1F
100
AcDbEntity
  8
HEWI
  6
IMPORT
 62
     7
100
AcDbLine
 10
332.6572042162625
 20
100.1360512904095
 30
0.0
 11
333.8708692248072
 21
100.1133156947076
 31
0.0
  0
LINE
  5
22D4
330
1F
100
AcDbEntity
  8
HEWI
  6
IMPORT
 62
     7
100
AcDbLine
 10
326.9068861772132
 20
116.3537026575975
 30
0.0
 11
326.9068861772132
 21
135.1152230433395
 31
0.0
  0
LINE
  5
22D5
330
1F
100
AcDbEntity
  8
HEWI
  6
IMPORT
 62
     7
100
AcDbLine
 10
328.1690030749047
 20
91.59219753064462
 30
0.0
 11
328.1690030749047
 21
104.1721917323045
 31
0.0
  0
LINE
  5
22D6
330
1F
100
AcDbEntity
  8
HEWI
  6
IMPORT
 62
     7
100
AcDbLine
 10
336.9068861772131
 20
116.3537026575975
 30
0.0
 11
336.9068861772131
 21
135.1152230433395
 31
0.0
  0
LINE
  5
22D7
330
1F
100
AcDbEntity
  8
HEWI
  6
IMPORT
 62
     7
100
AcDbLine
 10
338.1690030749048
 20
91.59219753064462
 30
0.0
 11
338.1690030749048
 21
104.1721917323045
 31
0.0
  0
LINE
  5
22D8
330
1F
100
AcDbEntity
  8
HEWI
  6
IMPORT
 62
     7
100
AcDbLine
 10
366.9068861772132
 20
116.3537026575975
 30
0.0
 11
366.9068861772132
 21
135.1152230433395
 31
0.0
  0
LINE
  5
22D9
330
1F
100
AcDbEntity
  8
HEWI
  6
IMPORT
 62
     7
100
AcDbLine
 10
368.1690030749048
 20
91.59219753064462
 30
0.0
 11
368.1690030749048
 21
104.1721917323045
 31
0.0
  0
LINE
  5
22DA
330
1F
100
AcDbEntity
  8
HEWI
  6
IMPORT
 62
     7
100
AcDbLine
 10
376.9068861772132
 20
116.3537026575975
 30
0.0
 11
376.9068861772132
 21
135.1152230433395
 31
0.0
  0
LINE
  5
22DB
330
1F
100
AcDbEntity
  8
HEWI
  6
IMPORT
 62
     7
100
AcDbLine
 10
378.1690030749047
 20
91.59219753064462
 30
0.0
 11
378.1690030749047
 21
104.1721917323045
 31
0.0
  0
LINE
  5
22DC
330
1F
100
AcDbEntity
  8
HEWI
  6
IMPORT
 62
     7
100
AcDbLine
 10
406.9068861772132
 20
116.3537026575975
 30
0.0
 11
406.9068861772132
 21
135.1152230433395
 31
0.0
  0
LINE
  5
22DD
330
1F
100
AcDbEntity
  8
HEWI
  6
IMPORT
 62
     7
100
AcDbLine
 10
408.1690030749047
 20
91.59219753064462
 30
0.0
 11
408.1690030749047
 21
104.1721917323045
 31
0.0
  0
LINE
  5
22DE
330
1F
100
AcDbEntity
  8
HEWI
  6
IMPORT
 62
     7
100
AcDbLine
 10
416.9068861772132
 20
116.3537026575975
 30
0.0
 11
416.9068861772132
 21
135.1152230433395
 31
0.0
  0
LINE
  5
22DF
330
1F
100
AcDbEntity
  8
HEWI
  6
IMPORT
 62
     7
100
AcDbLine
 10
418.1690030749047
 20
91.59219753064462
 30
0.0
 11
418.1690030749047
 21
104.1721917323045
 31
0.0
  0
LINE
  5
22E0
330
1F
100
AcDbEntity
  8
HEWI
  6
IMPORT
 62
     7
100
AcDbLine
 10
446.9068861772131
 20
116.3537026575975
 30
0.0
 11
446.9068861772131
 21
135.1152230433395
 31
0.0
  0
LINE
  5
22E1
330
1F
100
AcDbEntity
  8
HEWI
  6
IMPORT
 62
     7
100
AcDbLine
 10
448.1690030749048
 20
91.59219753064462
 30
0.0
 11
448.1690030749048
 21
104.1721917323045
 31
0.0
  0
LINE
  5
22E2
330
1F
100
AcDbEntity
  8
HEWI
  6
IMPORT
 62
     7
100
AcDbLine
 10
456.9068861772125
 20
116.3537026575975
 30
0.0
 11
456.9068861772125
 21
135.1152230433395
 31
0.0
  0
LINE
  5
22E3
330
1F
100
AcDbEntity
  8
HEWI
  6
IMPORT
 62
     7
100
AcDbLine
 10
458.1690030749046
 20
91.59219753064462
 30
0.0
 11
458.1690030749046
 21
104.1721917323045
 31
0.0
  0
LINE
  5
22E4
330
1F
100
AcDbEntity
  8
HEWI
  6
IMPORT
 62
     7
100
AcDbLine
 10
486.9068861772125
 20
116.3537026575975
 30
0.0
 11
486.9068861772125
 21
135.1152230433395
 31
0.0
  0
LINE
  5
22E5
330
1F
100
AcDbEntity
  8
HEWI
  6
IMPORT
 62
     7
100
AcDbLine
 10
488.1690030749044
 20
91.59219753064462
 30
0.0
 11
488.1690030749044
 21
104.1721917323045
 31
0.0
  0
LINE
  5
22E6
330
1F
100
AcDbEntity
  8
HEWI
  6
IMPORT
 62
     7
100
AcDbLine
 10
496.9068861772125
 20
116.3537026575975
 30
0.0
 11
496.9068861772125
 21
135.1152230433395
 31
0.0
  0
LINE
  5
22E7
330
1F
100
AcDbEntity
  8
HEWI
  6
IMPORT
 62
     7
100
AcDbLine
 10
498.1690030749046
 20
91.59219753064462
 30
0.0
 11
498.1690030749046
 21
104.1721917323045
 31
0.0
  0
LINE
  5
22E8
330
1F
100
AcDbEntity
  8
HEWI
  6
IMPORT
 62
     7
100
AcDbLine
 10
526.9068861772125
 20
116.3537026575975
 30
0.0
 11
526.9068861772125
 21
135.1152230433395
 31
0.0
  0
LINE
  5
22E9
330
1F
100
AcDbEntity
  8
HEWI
  6
IMPORT
 62
     7
100
AcDbLine
 10
528.1690030749046
 20
91.59219753064462
 30
0.0
 11
528.1690030749046
 21
104.1721917323045
 31
0.0
  0
LINE
  5
22EA
330
1F
100
AcDbEntity
  8
HEWI
  6
IMPORT
 62
     7
100
AcDbLine
 10
536.9068861772125
 20
116.3537026575975
 30
0.0
 11
536.9068861772125
 21
135.1152230433395
 31
0.0
  0
LINE
  5
22EB
330
1F
100
AcDbEntity
  8
HEWI
  6
IMPORT
 62
     7
100
AcDbLine
 10
538.1690030749044
 20
91.59219753064462
 30
0.0
 11
538.1690030749044
 21
104.1721917323045
 31
0.0
  0
LINE
  5
22EC
330
1F
100
AcDbEntity
  8
HEWI
  6
IMPORT
 62
     7
100
AcDbLine
 10
566.9068814088416
 20
116.3537026575975
 30
0.0
 11
566.9068814088416
 21
135.1152230433395
 31
0.0
  0
LINE
  5
22ED
330
1F
100
AcDbEntity
  8
HEWI
  6
IMPORT
 62
     7
100
AcDbLine
 10
568.1689983065325
 20
91.59219753064462
 30
0.0
 11
568.1689983065325
 21
104.1721917323045
 31
0.0
  0
LINE
  5
22EE
330
1F
100
AcDbEntity
  8
HEWI
  6
IMPORT
 62
     7
100
AcDbLine
 10
576.9068814088416
 20
116.3537026575975
 30
0.0
 11
576.9068814088416
 21
135.1152230433395
 31
0.0
  0
LINE
  5
22EF
330
1F
100
AcDbEntity
  8
HEWI
  6
IMPORT
 62
     7
100
AcDbLine
 10
578.1689983065326
 20
91.59219753064462
 30
0.0
 11
578.1689983065326
 21
104.1721917323045
 31
0.0
  0
LINE
  5
22F0
330
1F
100
AcDbEntity
  8
HEWI
  6
IMPORT
 62
     7
100
AcDbLine
 10
606.9068837930276
 20
116.3537026575975
 30
0.0
 11
606.9068837930276
 21
135.1152230433395
 31
0.0
  0
LINE
  5
22F1
330
1F
100
AcDbEntity
  8
HEWI
  6
IMPORT
 62
     7
100
AcDbLine
 10
608.1690006907185
 20
91.59219753064462
 30
0.0
 11
608.1690006907185
 21
104.1721917323045
 31
0.0
  0
LINE
  5
22F2
330
1F
100
AcDbEntity
  8
HEWI
  6
IMPORT
 62
     7
100
AcDbLine
 10
616.9068831969807
 20
116.3537026575975
 30
0.0
 11
616.9068831969807
 21
135.1152230433395
 31
0.0
  0
LINE
  5
22F3
330
1F
100
AcDbEntity
  8
HEWI
  6
IMPORT
 62
     7
100
AcDbLine
 10
618.1690000946725
 20
91.59219753064462
 30
0.0
 11
618.1690000946725
 21
104.1721917323045
 31
0.0
  0
LINE
  5
22F4
330
1F
100
AcDbEntity
  8
HEWI
  6
IMPORT
 62
     7
100
AcDbLine
 10
646.9068837930276
 20
116.3537026575975
 30
0.0
 11
646.9068837930276
 21
135.1152230433395
 31
0.0
  0
LINE
  5
22F5
330
1F
100
AcDbEntity
  8
HEWI
  6
IMPORT
 62
     7
100
AcDbLine
 10
648.1690006907186
 20
91.59219753064462
 30
0.0
 11
648.1690006907186
 21
104.1721917323045
 31
0.0
  0
LINE
  5
22F6
330
1F
100
AcDbEntity
  8
HEWI
  6
IMPORT
 62
     7
100
AcDbLine
 10
656.9068837930276
 20
116.3537026575975
 30
0.0
 11
656.9068837930276
 21
135.1152230433395
 31
0.0
  0
LINE
  5
22F7
330
1F
100
AcDbEntity
  8
HEWI
  6
IMPORT
 62
     7
100
AcDbLine
 10
658.1690006907185
 20
91.59219753064462
 30
0.0
 11
658.1690006907185
 21
104.1721917323045
 31
0.0
  0
LINE
  5
22F8
330
1F
100
AcDbEntity
  8
HEWI
  6
IMPORT
 62
     7
100
AcDbLine
 10
328.7194829638208
 20
98.5107995203905
 30
0.0
 11
329.6238332445823
 21
99.32397853650357
 31
0.0
  0
LINE
  5
22F9
330
1F
100
AcDbEntity
  8
HEWI
  6
IMPORT
 62
     7
100
AcDbLine
 10
368.7194829638209
 20
98.5107995203905
 30
0.0
 11
369.6238332445823
 21
99.32397853650357
 31
0.0
  0
LINE
  5
22FA
330
1F
100
AcDbEntity
  8
HEWI
  6
IMPORT
 62
     7
100
AcDbLine
 10
408.7194829638208
 20
98.5107995203905
 30
0.0
 11
409.6238332445822
 21
99.32397853650357
 31
0.0
  0
LINE
  5
22FB
330
1F
100
AcDbEntity
  8
HEWI
  6
IMPORT
 62
     7
100
AcDbLine
 10
448.7194829638207
 20
98.5107995203905
 30
0.0
 11
449.6238332445825
 21
99.32397853650357
 31
0.0
  0
LINE
  5
22FC
330
1F
100
AcDbEntity
  8
HEWI
  6
IMPORT
 62
     7
100
AcDbLine
 10
488.7194829638207
 20
98.5107995203905
 30
0.0
 11
489.6238332445824
 21
99.32397853650357
 31
0.0
  0
LINE
  5
22FD
330
1F
100
AcDbEntity
  8
HEWI
  6
IMPORT
 62
     7
100
AcDbLine
 10
528.7194829638206
 20
98.5107995203905
 30
0.0
 11
529.6238332445825
 21
99.32397853650357
 31
0.0
  0
LINE
  5
22FE
330
1F
100
AcDbEntity
  8
HEWI
  6
IMPORT
 62
     7
100
AcDbLine
 10
568.7194781954485
 20
98.5107995203905
 30
0.0
 11
569.6238284762105
 21
99.32397853650357
 31
0.0
  0
LINE
  5
22FF
330
1F
100
AcDbEntity
  8
HEWI
  6
IMPORT
 62
     7
100
AcDbLine
 10
608.7194805796346
 20
98.5107995203905
 30
0.0
 11
609.6238296683036
 21
99.32397853650357
 31
0.0
  0
LINE
  5
2300
330
1F
100
AcDbEntity
  8
HEWI
  6
IMPORT
 62
     7
100
AcDbLine
 10
648.7194805796344
 20
98.5107995203905
 30
0.0
 11
649.6238308603965
 21
99.32397853650357
 31
0.0
  0
LINE
  5
2301
330
1F
100
AcDbEntity
  8
HEWI
  6
IMPORT
 62
     7
100
AcDbLine
 10
327.1352339555335
 20
115.3970147303516
 30
0.0
 11
327.7855635453773
 21
114.5859337977344
 31
0.0
  0
LINE
  5
2302
330
1F
100
AcDbEntity
  8
HEWI
  6
IMPORT
 62
     7
100
AcDbLine
 10
367.1352339555333
 20
115.3970147303516
 30
0.0
 11
367.7855635453773
 21
114.5859337977344
 31
0.0
  0
LINE
  5
2303
330
1F
100
AcDbEntity
  8
HEWI
  6
IMPORT
 62
     7
100
AcDbLine
 10
407.1352339555333
 20
115.3970147303516
 30
0.0
 11
407.7855635453771
 21
114.5859337977344
 31
0.0
  0
LINE
  5
2304
330
1F
100
AcDbEntity
  8
HEWI
  6
IMPORT
 62
     7
100
AcDbLine
 10
447.1352339555337
 20
115.3970147303516
 30
0.0
 11
447.7855635453773
 21
114.5859337977344
 31
0.0
  0
LINE
  5
2305
330
1F
100
AcDbEntity
  8
HEWI
  6
IMPORT
 62
     7
100
AcDbLine
 10
487.1352434922767
 20
115.3970147303516
 30
0.0
 11
487.7855635453766
 21
114.5859337977344
 31
0.0
  0
LINE
  5
2306
330
1F
100
AcDbEntity
  8
HEWI
  6
IMPORT
 62
     7
100
AcDbLine
 10
527.1352434922767
 20
115.3970147303516
 30
0.0
 11
527.7855635453764
 21
114.5859337977344
 31
0.0
  0
LINE
  5
2307
330
1F
100
AcDbEntity
  8
HEWI
  6
IMPORT
 62
     7
100
AcDbLine
 10
567.1352434922765
 20
115.3970147303516
 30
0.0
 11
567.7855635453766
 21
114.5859337977344
 31
0.0
  0
LINE
  5
2308
330
1F
100
AcDbEntity
  8
HEWI
  6
IMPORT
 62
     7
100
AcDbLine
 10
607.1352434922768
 20
115.3970147303516
 30
0.0
 11
607.7855635453764
 21
114.5859337977344
 31
0.0
  0
LINE
  5
2309
330
1F
100
AcDbEntity
  8
HEWI
  6
IMPORT
 62
     7
100
AcDbLine
 10
647.1352434922765
 20
115.3970147303516
 30
0.0
 11
647.7855635453765
 21
114.5859337977344
 31
0.0
  0
LINE
  5
230A
330
1F
100
AcDbEntity
  8
HEWI
  6
IMPORT
 62
     7
100
AcDbLine
 10
335.6181479264809
 20
137.7587319544725
 30
0.0
 11
336.5719557572913
 21
136.5458871058395
 31
0.0
  0
LINE
  5
230B
330
1F
100
AcDbEntity
  8
HEWI
  6
IMPORT
 62
     7
100
AcDbLine
 10
328.5039334948265
 20
90.16153346814462
 30
0.0
 11
329.4577222521509
 21
88.94868861951136
 31
0.0
  0
LINE
  5
230C
330
1F
100
AcDbEntity
  8
HEWI
  6
IMPORT
 62
     7
100
AcDbLine
 10
375.618147926481
 20
137.7587319544725
 30
0.0
 11
376.5719557572911
 21
136.5458871058395
 31
0.0
  0
LINE
  5
230D
330
1F
100
AcDbEntity
  8
HEWI
  6
IMPORT
 62
     7
100
AcDbLine
 10
368.5039334948265
 20
90.16153346814462
 30
0.0
 11
369.4577222521508
 21
88.94868861951136
 31
0.0
  0
LINE
  5
230E
330
1F
100
AcDbEntity
  8
HEWI
  6
IMPORT
 62
     7
100
AcDbLine
 10
415.618147926481
 20
137.7587319544725
 30
0.0
 11
416.5719557572913
 21
136.5458871058395
 31
0.0
  0
LINE
  5
230F
330
1F
100
AcDbEntity
  8
HEWI
  6
IMPORT
 62
     7
100
AcDbLine
 10
408.5039334948268
 20
90.16153346814462
 30
0.0
 11
409.4577222521508
 21
88.94868861951136
 31
0.0
  0
LINE
  5
2310
330
1F
100
AcDbEntity
  8
HEWI
  6
IMPORT
 62
     7
100
AcDbLine
 10
455.618147926481
 20
137.7587319544725
 30
0.0
 11
456.5719557572906
 21
136.5458871058395
 31
0.0
  0
LINE
  5
2311
330
1F
100
AcDbEntity
  8
HEWI
  6
IMPORT
 62
     7
100
AcDbLine
 10
448.5039334948268
 20
90.16153346814462
 30
0.0
 11
449.4577222521508
 21
88.94868861951136
 31
0.0
  0
LINE
  5
2312
330
1F
100
AcDbEntity
  8
HEWI
  6
IMPORT
 62
     7
100
AcDbLine
 10
495.6181574632237
 20
137.7587319544725
 30
0.0
 11
496.5719557572906
 21
136.5458871058395
 31
0.0
  0
LINE
  5
2313
330
1F
100
AcDbEntity
  8
HEWI
  6
IMPORT
 62
     7
100
AcDbLine
 10
488.5039334948263
 20
90.16153346814462
 30
0.0
 11
489.4577317888937
 21
88.94868861951136
 31
0.0
  0
LINE
  5
2314
330
1F
100
AcDbEntity
  8
HEWI
  6
IMPORT
 62
     7
100
AcDbLine
 10
535.6181574632237
 20
137.7587319544725
 30
0.0
 11
536.5719557572906
 21
136.5458871058395
 31
0.0
  0
LINE
  5
2315
330
1F
100
AcDbEntity
  8
HEWI
  6
IMPORT
 62
     7
100
AcDbLine
 10
528.5039334948264
 20
90.16153346814462
 30
0.0
 11
529.4577317888935
 21
88.94868861951136
 31
0.0
  0
LINE
  5
2316
330
1F
100
AcDbEntity
  8
HEWI
  6
IMPORT
 62
     7
100
AcDbLine
 10
575.6181526948526
 20
137.7587319544725
 30
0.0
 11
576.5719509889195
 21
136.5458871058395
 31
0.0
  0
LINE
  5
2317
330
1F
100
AcDbEntity
  8
HEWI
  6
IMPORT
 62
     7
100
AcDbLine
 10
568.5039287264546
 20
90.16153346814462
 30
0.0
 11
569.4577317888936
 21
88.94868861951136
 31
0.0
  0
LINE
  5
2318
330
1F
100
AcDbEntity
  8
HEWI
  6
IMPORT
 62
     7
100
AcDbLine
 10
615.6181532908986
 20
137.7587319544725
 30
0.0
 11
616.5719533731054
 21
136.5458871058395
 31
0.0
  0
LINE
  5
2319
330
1F
100
AcDbEntity
  8
HEWI
  6
IMPORT
 62
     7
100
AcDbLine
 10
608.5039299185475
 20
90.16153346814462
 30
0.0
 11
609.4577305968003
 21
88.94868861951136
 31
0.0
  0
LINE
  5
231A
330
1F
100
AcDbEntity
  8
HEWI
  6
IMPORT
 62
     7
100
AcDbLine
 10
655.6181526948526
 20
137.7587319544725
 30
0.0
 11
656.5719533731054
 21
136.5458871058395
 31
0.0
  0
LINE
  5
231B
330
1F
100
AcDbEntity
  8
HEWI
  6
IMPORT
 62
     7
100
AcDbLine
 10
648.5039311106406
 20
90.16153346814462
 30
0.0
 11
649.4577294047084
 21
88.94868861951136
 31
0.0
  0
LINE
  5
231C
330
1F
100
AcDbEntity
  8
HEWI
  6
IMPORT
 62
     7
100
AcDbLine
 10
335.4528051073755
 20
88.13825618542955
 30
0.0
 11
336.8802648241723
 21
88.94868861951136
 31
0.0
  0
LINE
  5
231D
330
1F
100
AcDbEntity
  8
HEWI
  6
IMPORT
 62
     7
100
AcDbLine
 10
328.1956053544593
 20
137.7587319544725
 30
0.0
 11
329.6230650712562
 21
138.5691262415814
 31
0.0
  0
LINE
  5
231E
330
1F
100
AcDbEntity
  8
HEWI
  6
IMPORT
 62
     7
100
AcDbLine
 10
375.4528051073758
 20
88.13825618542955
 30
0.0
 11
376.8802648241723
 21
88.94868861951136
 31
0.0
  0
LINE
  5
231F
330
1F
100
AcDbEntity
  8
HEWI
  6
IMPORT
 62
     7
100
AcDbLine
 10
368.1956053544593
 20
137.7587319544725
 30
0.0
 11
369.623065071256
 21
138.5691262415814
 31
0.0
  0
LINE
  5
2320
330
1F
100
AcDbEntity
  8
HEWI
  6
IMPORT
 62
     7
100
AcDbLine
 10
415.4528051073753
 20
88.13825618542955
 30
0.0
 11
416.8802648241722
 21
88.94868861951136
 31
0.0
  0
LINE
  5
2321
330
1F
100
AcDbEntity
  8
HEWI
  6
IMPORT
 62
     7
100
AcDbLine
 10
408.1956053544591
 20
137.7587319544725
 30
0.0
 11
409.6230650712561
 21
138.5691262415814
 31
0.0
  0
LINE
  5
2322
330
1F
100
AcDbEntity
  8
HEWI
  6
IMPORT
 62
     7
100
AcDbLine
 10
455.4528051073754
 20
88.13825618542955
 30
0.0
 11
456.8802648241725
 21
88.94868861951136
 31
0.0
  0
LINE
  5
2323
330
1F
100
AcDbEntity
  8
HEWI
  6
IMPORT
 62
     7
100
AcDbLine
 10
448.1956053544593
 20
137.7587319544725
 30
0.0
 11
449.623065071256
 21
138.5691262415814
 31
0.0
  0
LINE
  5
2324
330
1F
100
AcDbEntity
  8
HEWI
  6
IMPORT
 62
     7
100
AcDbLine
 10
495.4527955706326
 20
88.13825618542955
 30
0.0
 11
496.8802743609158
 21
88.94868861951136
 31
0.0
  0
LINE
  5
2325
330
1F
100
AcDbEntity
  8
HEWI
  6
IMPORT
 62
     7
100
AcDbLine
 10
488.1956148912027
 20
137.7587319544725
 30
0.0
 11
489.6230746079996
 21
138.5691262415814
 31
0.0
  0
LINE
  5
2326
330
1F
100
AcDbEntity
  8
HEWI
  6
IMPORT
 62
     7
100
AcDbLine
 10
535.4527955706324
 20
88.13825618542955
 30
0.0
 11
536.8802743609156
 21
88.94868861951136
 31
0.0
  0
LINE
  5
2327
330
1F
100
AcDbEntity
  8
HEWI
  6
IMPORT
 62
     7
100
AcDbLine
 10
528.1956148912025
 20
137.7587319544725
 30
0.0
 11
529.6230746079986
 21
138.5691262415814
 31
0.0
  0
LINE
  5
2328
330
1F
100
AcDbEntity
  8
HEWI
  6
IMPORT
 62
     7
100
AcDbLine
 10
575.4528003390037
 20
88.13825618542955
 30
0.0
 11
576.8802695925435
 21
88.94868861951136
 31
0.0
  0
LINE
  5
2329
330
1F
100
AcDbEntity
  8
HEWI
  6
IMPORT
 62
     7
100
AcDbLine
 10
568.1956148912028
 20
137.7587319544725
 30
0.0
 11
569.6230746079995
 21
138.5691262415814
 31
0.0
  0
LINE
  5
232A
330
1F
100
AcDbEntity
  8
HEWI
  6
IMPORT
 62
     7
100
AcDbLine
 10
615.4528003390037
 20
88.13825618542955
 30
0.0
 11
616.8802701885907
 21
88.94868861951136
 31
0.0
  0
LINE
  5
232B
330
1F
100
AcDbEntity
  8
HEWI
  6
IMPORT
 62
     7
100
AcDbLine
 10
608.1956136991094
 20
137.7587319544725
 30
0.0
 11
609.6230734159068
 21
138.5691262415814
 31
0.0
  0
LINE
  5
232C
330
1F
100
AcDbEntity
  8
HEWI
  6
IMPORT
 62
     7
100
AcDbLine
 10
655.4528003390037
 20
88.13825618542955
 30
0.0
 11
656.8802695925435
 21
88.94868861951136
 31
0.0
  0
LINE
  5
232D
330
1F
100
AcDbEntity
  8
HEWI
  6
IMPORT
 62
     7
100
AcDbLine
 10
648.1956125070166
 20
137.7587319544725
 30
0.0
 11
649.6230722238138
 21
138.5691262415814
 31
0.0
  0
LINE
  5
232E
330
1F
100
AcDbEntity
  8
HEWI
  6
IMPORT
 62
     7
100
AcDbLine
 10
335.0549269486976
 20
114.0440179041795
 30
0.0
 11
336.0282088090492
 21
114.5859337977344
 31
0.0
  0
LINE
  5
232F
330
1F
100
AcDbEntity
  8
HEWI
  6
IMPORT
 62
     7
100
AcDbLine
 10
375.0549269486977
 20
114.0440179041795
 30
0.0
 11
376.0282088090494
 21
114.5859337977344
 31
0.0
  0
LINE
  5
2330
330
1F
100
AcDbEntity
  8
HEWI
  6
IMPORT
 62
     7
100
AcDbLine
 10
415.0549269486975
 20
114.0440179041795
 30
0.0
 11
416.0282088090488
 21
114.5859337977344
 31
0.0
  0
LINE
  5
2331
330
1F
100
AcDbEntity
  8
HEWI
  6
IMPORT
 62
     7
100
AcDbLine
 10
455.0549269486976
 20
114.0440179041795
 30
0.0
 11
456.0282088090493
 21
114.5859337977344
 31
0.0
  0
LINE
  5
2332
330
1F
100
AcDbEntity
  8
HEWI
  6
IMPORT
 62
     7
100
AcDbLine
 10
495.0549364854403
 20
114.0440179041795
 30
0.0
 11
496.0281992723055
 21
114.5859337977344
 31
0.0
  0
LINE
  5
2333
330
1F
100
AcDbEntity
  8
HEWI
  6
IMPORT
 62
     7
100
AcDbLine
 10
535.0549364854405
 20
114.0440179041795
 30
0.0
 11
536.0281992723055
 21
114.5859337977344
 31
0.0
  0
LINE
  5
2334
330
1F
100
AcDbEntity
  8
HEWI
  6
IMPORT
 62
     7
100
AcDbLine
 10
575.0549317170683
 20
114.0440179041795
 30
0.0
 11
576.0282040406774
 21
114.5859337977344
 31
0.0
  0
LINE
  5
2335
330
1F
100
AcDbEntity
  8
HEWI
  6
IMPORT
 62
     7
100
AcDbLine
 10
615.0549329091616
 20
114.0440179041795
 30
0.0
 11
616.0282034446306
 21
114.5859337977344
 31
0.0
  0
LINE
  5
2336
330
1F
100
AcDbEntity
  8
HEWI
  6
IMPORT
 62
     7
100
AcDbLine
 10
655.0549341012547
 20
114.0440179041795
 30
0.0
 11
656.0282040406774
 21
114.5859337977344
 31
0.0
  0
LINE
  5
2337
330
1F
100
AcDbEntity
  8
HEWI
  6
IMPORT
 62
     7
100
AcDbLine
 10
337.6185041125026
 20
98.5107995203905
 30
0.0
 11
337.834072654983
 21
98.02057277478548
 31
0.0
  0
LINE
  5
2338
330
1F
100
AcDbEntity
  8
HEWI
  6
IMPORT
 62
     7
100
AcDbLine
 10
377.6185041125022
 20
98.5107995203905
 30
0.0
 11
377.8340726549827
 21
98.02057277478548
 31
0.0
  0
LINE
  5
2339
330
1F
100
AcDbEntity
  8
HEWI
  6
IMPORT
 62
     7
100
AcDbLine
 10
417.6185041125021
 20
98.5107995203905
 30
0.0
 11
417.8340726549826
 21
98.02057277478548
 31
0.0
  0
LINE
  5
233A
330
1F
100
AcDbEntity
  8
HEWI
  6
IMPORT
 62
     7
100
AcDbLine
 10
457.6185041125026
 20
98.5107995203905
 30
0.0
 11
457.8340726549826
 21
98.02057277478548
 31
0.0
  0
LINE
  5
233B
330
1F
100
AcDbEntity
  8
HEWI
  6
IMPORT
 62
     7
100
AcDbLine
 10
497.6185136492452
 20
98.5107995203905
 30
0.0
 11
497.8340726549826
 21
98.02057277478548
 31
0.0
  0
LINE
  5
233C
330
1F
100
AcDbEntity
  8
HEWI
  6
IMPORT
 62
     7
100
AcDbLine
 10
537.6185136492454
 20
98.5107995203905
 30
0.0
 11
537.8340726549827
 21
98.02057277478548
 31
0.0
  0
LINE
  5
233D
330
1F
100
AcDbEntity
  8
HEWI
  6
IMPORT
 62
     7
100
AcDbLine
 10
577.6185088808736
 20
98.5107995203905
 30
0.0
 11
577.8340678866116
 21
98.02057277478548
 31
0.0
  0
LINE
  5
233E
330
1F
100
AcDbEntity
  8
HEWI
  6
IMPORT
 62
     7
100
AcDbLine
 10
617.6185100729667
 20
98.5107995203905
 30
0.0
 11
617.8340702707965
 21
98.02057277478548
 31
0.0
  0
LINE
  5
233F
330
1F
100
AcDbEntity
  8
HEWI
  6
IMPORT
 62
     7
100
AcDbLine
 10
657.6185112650596
 20
98.5107995203905
 30
0.0
 11
657.8340702707963
 21
98.02057277478548
 31
0.0
  0
LINE
  5
2340
330
1F
100
AcDbEntity
  8
HEWI
  6
IMPORT
 62
     7
100
AcDbLine
 10
329.6238332445823
 20
99.32397853650357
 30
0.0
 11
330.9757047350609
 21
99.86665736951136
 31
0.0
  0
LINE
  5
2341
330
1F
100
AcDbEntity
  8
HEWI
  6
IMPORT
 62
     7
100
AcDbLine
 10
369.6238332445823
 20
99.32397853650357
 30
0.0
 11
370.9757047350614
 21
99.86665736951136
 31
0.0
  0
LINE
  5
2342
330
1F
100
AcDbEntity
  8
HEWI
  6
IMPORT
 62
     7
100
AcDbLine
 10
409.6238332445822
 20
99.32397853650357
 30
0.0
 11
410.9757047350613
 21
99.86665736951136
 31
0.0
  0
LINE
  5
2343
330
1F
100
AcDbEntity
  8
HEWI
  6
IMPORT
 62
     7
100
AcDbLine
 10
449.6238332445825
 20
99.32397853650357
 30
0.0
 11
450.9757047350611
 21
99.86665736951136
 31
0.0
  0
LINE
  5
2344
330
1F
100
AcDbEntity
  8
HEWI
  6
IMPORT
 62
     7
100
AcDbLine
 10
489.6238332445824
 20
99.32397853650357
 30
0.0
 11
490.9757142718043
 21
99.86665736951136
 31
0.0
  0
LINE
  5
2345
330
1F
100
AcDbEntity
  8
HEWI
  6
IMPORT
 62
     7
100
AcDbLine
 10
529.6238332445825
 20
99.32397853650357
 30
0.0
 11
530.9757142718035
 21
99.86665736951136
 31
0.0
  0
LINE
  5
2346
330
1F
100
AcDbEntity
  8
HEWI
  6
IMPORT
 62
     7
100
AcDbLine
 10
569.6238284762105
 20
99.32397853650357
 30
0.0
 11
570.9757095034326
 21
99.86665736951136
 31
0.0
  0
LINE
  5
2347
330
1F
100
AcDbEntity
  8
HEWI
  6
IMPORT
 62
     7
100
AcDbLine
 10
609.6238296683036
 20
99.32397853650357
 30
0.0
 11
610.9757106955258
 21
99.86665736951136
 31
0.0
  0
LINE
  5
2348
330
1F
100
AcDbEntity
  8
HEWI
  6
IMPORT
 62
     7
100
AcDbLine
 10
649.6238308603965
 20
99.32397853650357
 30
0.0
 11
650.9757095034326
 21
99.86665736951136
 31
0.0
  0
LINE
  5
2349
330
1F
100
AcDbEntity
  8
HEWI
  6
IMPORT
 62
     7
100
AcDbLine
 10
337.834072654983
 20
98.02057277478548
 30
0.0
 11
338.1690030749048
 21
97.0089150599415
 31
0.0
  0
LINE
  5
234A
330
1F
100
AcDbEntity
  8
HEWI
  6
IMPORT
 62
     7
100
AcDbLine
 10
377.8340726549827
 20
98.02057277478548
 30
0.0
 11
378.1690030749047
 21
97.0089150599415
 31
0.0
  0
LINE
  5
234B
330
1F
100
AcDbEntity
  8
HEWI
  6
IMPORT
 62
     7
100
AcDbLine
 10
417.8340726549826
 20
98.02057277478548
 30
0.0
 11
418.1690030749047
 21
97.0089150599415
 31
0.0
  0
LINE
  5
234C
330
1F
100
AcDbEntity
  8
HEWI
  6
IMPORT
 62
     7
100
AcDbLine
 10
457.8340726549826
 20
98.02057277478548
 30
0.0
 11
458.1690030749046
 21
97.0089150599415
 31
0.0
  0
LINE
  5
234D
330
1F
100
AcDbEntity
  8
HEWI
  6
IMPORT
 62
     7
100
AcDbLine
 10
497.8340726549826
 20
98.02057277478548
 30
0.0
 11
498.1690030749046
 21
97.0089150599415
 31
0.0
  0
LINE
  5
234E
330
1F
100
AcDbEntity
  8
HEWI
  6
IMPORT
 62
     7
100
AcDbLine
 10
537.8340726549827
 20
98.02057277478548
 30
0.0
 11
538.1690030749044
 21
97.0089150599415
 31
0.0
  0
LINE
  5
234F
330
1F
100
AcDbEntity
  8
HEWI
  6
IMPORT
 62
     7
100
AcDbLine
 10
577.8340678866116
 20
98.02057277478548
 30
0.0
 11
578.1689983065326
 21
97.0089150599415
 31
0.0
  0
LINE
  5
2350
330
1F
100
AcDbEntity
  8
HEWI
  6
IMPORT
 62
     7
100
AcDbLine
 10
617.8340702707965
 20
98.02057277478548
 30
0.0
 11
618.1690000946725
 21
97.0089150599415
 31
0.0
  0
LINE
  5
2351
330
1F
100
AcDbEntity
  8
HEWI
  6
IMPORT
 62
     7
100
AcDbLine
 10
657.8340702707963
 20
98.02057277478548
 30
0.0
 11
658.1690006907185
 21
97.0089150599415
 31
0.0
  0
LINE
  5
2352
330
1F
100
AcDbEntity
  8
HEWI
  6
IMPORT
 62
     7
100
AcDbLine
 10
336.5719557572913
 20
136.5458871058395
 30
0.0
 11
336.9068861772131
 21
135.1152230433395
 31
0.0
  0
LINE
  5
2353
330
1F
100
AcDbEntity
  8
HEWI
  6
IMPORT
 62
     7
100
AcDbLine
 10
328.1690030749047
 20
91.59219753064462
 30
0.0
 11
328.5039334948265
 21
90.16153346814462
 31
0.0
  0
LINE
  5
2354
330
1F
100
AcDbEntity
  8
HEWI
  6
IMPORT
 62
     7
100
AcDbLine
 10
326.9068861772132
 20
116.3537026575975
 30
0.0
 11
327.1352339555335
 21
115.3970147303516
 31
0.0
  0
LINE
  5
2355
330
1F
100
AcDbEntity
  8
HEWI
  6
IMPORT
 62
     7
100
AcDbLine
 10
376.5719557572911
 20
136.5458871058395
 30
0.0
 11
376.9068861772132
 21
135.1152230433395
 31
0.0
  0
LINE
  5
2356
330
1F
100
AcDbEntity
  8
HEWI
  6
IMPORT
 62
     7
100
AcDbLine
 10
368.1690030749048
 20
91.59219753064462
 30
0.0
 11
368.5039334948265
 21
90.16153346814462
 31
0.0
  0
LINE
  5
2357
330
1F
100
AcDbEntity
  8
HEWI
  6
IMPORT
 62
     7
100
AcDbLine
 10
366.9068861772132
 20
116.3537026575975
 30
0.0
 11
367.1352339555333
 21
115.3970147303516
 31
0.0
  0
LINE
  5
2358
330
1F
100
AcDbEntity
  8
HEWI
  6
IMPORT
 62
     7
100
AcDbLine
 10
416.5719557572913
 20
136.5458871058395
 30
0.0
 11
416.9068861772132
 21
135.1152230433395
 31
0.0
  0
LINE
  5
2359
330
1F
100
AcDbEntity
  8
HEWI
  6
IMPORT
 62
     7
100
AcDbLine
 10
408.1690030749047
 20
91.59219753064462
 30
0.0
 11
408.5039334948268
 21
90.16153346814462
 31
0.0
  0
LINE
  5
235A
330
1F
100
AcDbEntity
  8
HEWI
  6
IMPORT
 62
     7
100
AcDbLine
 10
406.9068861772132
 20
116.3537026575975
 30
0.0
 11
407.1352339555333
 21
115.3970147303516
 31
0.0
  0
LINE
  5
235B
330
1F
100
AcDbEntity
  8
HEWI
  6
IMPORT
 62
     7
100
AcDbLine
 10
456.5719557572906
 20
136.5458871058395
 30
0.0
 11
456.9068861772125
 21
135.1152230433395
 31
0.0
  0
LINE
  5
235C
330
1F
100
AcDbEntity
  8
HEWI
  6
IMPORT
 62
     7
100
AcDbLine
 10
448.1690030749048
 20
91.59219753064462
 30
0.0
 11
448.5039334948268
 21
90.16153346814462
 31
0.0
  0
LINE
  5
235D
330
1F
100
AcDbEntity
  8
HEWI
  6
IMPORT
 62
     7
100
AcDbLine
 10
446.9068861772131
 20
116.3537026575975
 30
0.0
 11
447.1352339555337
 21
115.3970147303516
 31
0.0
  0
LINE
  5
235E
330
1F
100
AcDbEntity
  8
HEWI
  6
IMPORT
 62
     7
100
AcDbLine
 10
496.5719557572906
 20
136.5458871058395
 30
0.0
 11
496.9068861772125
 21
135.1152230433395
 31
0.0
  0
LINE
  5
235F
330
1F
100
AcDbEntity
  8
HEWI
  6
IMPORT
 62
     7
100
AcDbLine
 10
488.1690030749044
 20
91.59219753064462
 30
0.0
 11
488.5039334948263
 21
90.16153346814462
 31
0.0
  0
LINE
  5
2360
330
1F
100
AcDbEntity
  8
HEWI
  6
IMPORT
 62
     7
100
AcDbLine
 10
486.9068861772125
 20
116.3537026575975
 30
0.0
 11
487.1352434922767
 21
115.3970147303516
 31
0.0
  0
LINE
  5
2361
330
1F
100
AcDbEntity
  8
HEWI
  6
IMPORT
 62
     7
100
AcDbLine
 10
536.5719557572906
 20
136.5458871058395
 30
0.0
 11
536.9068861772125
 21
135.1152230433395
 31
0.0
  0
LINE
  5
2362
330
1F
100
AcDbEntity
  8
HEWI
  6
IMPORT
 62
     7
100
AcDbLine
 10
528.1690030749046
 20
91.59219753064462
 30
0.0
 11
528.5039334948264
 21
90.16153346814462
 31
0.0
  0
LINE
  5
2363
330
1F
100
AcDbEntity
  8
HEWI
  6
IMPORT
 62
     7
100
AcDbLine
 10
526.9068861772125
 20
116.3537026575975
 30
0.0
 11
527.1352434922767
 21
115.3970147303516
 31
0.0
  0
LINE
  5
2364
330
1F
100
AcDbEntity
  8
HEWI
  6
IMPORT
 62
     7
100
AcDbLine
 10
576.5719509889195
 20
136.5458871058395
 30
0.0
 11
576.9068814088416
 21
135.1152230433395
 31
0.0
  0
LINE
  5
2365
330
1F
100
AcDbEntity
  8
HEWI
  6
IMPORT
 62
     7
100
AcDbLine
 10
568.1689983065325
 20
91.59219753064462
 30
0.0
 11
568.5039287264546
 21
90.16153346814462
 31
0.0
  0
LINE
  5
2366
330
1F
100
AcDbEntity
  8
HEWI
  6
IMPORT
 62
     7
100
AcDbLine
 10
566.9068814088416
 20
116.3537026575975
 30
0.0
 11
567.1352434922765
 21
115.3970147303516
 31
0.0
  0
LINE
  5
2367
330
1F
100
AcDbEntity
  8
HEWI
  6
IMPORT
 62
     7
100
AcDbLine
 10
616.5719533731054
 20
136.5458871058395
 30
0.0
 11
616.9068831969807
 21
135.1152230433395
 31
0.0
  0
LINE
  5
2368
330
1F
100
AcDbEntity
  8
HEWI
  6
IMPORT
 62
     7
100
AcDbLine
 10
608.1690006907185
 20
91.59219753064462
 30
0.0
 11
608.5039299185475
 21
90.16153346814462
 31
0.0
  0
LINE
  5
2369
330
1F
100
AcDbEntity
  8
HEWI
  6
IMPORT
 62
     7
100
AcDbLine
 10
606.9068837930276
 20
116.3537026575975
 30
0.0
 11
607.1352434922768
 21
115.3970147303516
 31
0.0
  0
LINE
  5
236A
330
1F
100
AcDbEntity
  8
HEWI
  6
IMPORT
 62
     7
100
AcDbLine
 10
656.5719533731054
 20
136.5458871058395
 30
0.0
 11
656.9068837930276
 21
135.1152230433395
 31
0.0
  0
LINE
  5
236B
330
1F
100
AcDbEntity
  8
HEWI
  6
IMPORT
 62
     7
100
AcDbLine
 10
648.1690006907186
 20
91.59219753064462
 30
0.0
 11
648.5039311106406
 21
90.16153346814462
 31
0.0
  0
LINE
  5
236C
330
1F
100
AcDbEntity
  8
HEWI
  6
IMPORT
 62
     7
100
AcDbLine
 10
646.9068837930276
 20
116.3537026575975
 30
0.0
 11
647.1352434922765
 21
115.3970147303516
 31
0.0
  0
LINE
  5
236D
330
1F
100
AcDbEntity
  8
HEWI
  6
IMPORT
 62
     7
100
AcDbLine
 10
333.7689977343286
 20
87.85367976941349
 30
0.0
 11
335.4528051073755
 21
88.13825618542955
 31
0.0
  0
LINE
  5
236E
330
1F
100
AcDbEntity
  8
HEWI
  6
IMPORT
 62
     7
100
AcDbLine
 10
329.6230650712562
 20
138.5691262415814
 30
0.0
 11
331.3068915177894
 21
138.8537026575975
 31
0.0
  0
LINE
  5
236F
330
1F
100
AcDbEntity
  8
HEWI
  6
IMPORT
 62
     7
100
AcDbLine
 10
333.9068747331213
 20
113.8537026575975
 30
0.0
 11
335.0549269486976
 21
114.0440179041795
 31
0.0
  0
LINE
  5
2370
330
1F
100
AcDbEntity
  8
HEWI
  6
IMPORT
 62
     7
100
AcDbLine
 10
373.7689977343288
 20
87.85367976941349
 30
0.0
 11
375.4528051073758
 21
88.13825618542955
 31
0.0
  0
LINE
  5
2371
330
1F
100
AcDbEntity
  8
HEWI
  6
IMPORT
 62
     7
100
AcDbLine
 10
369.623065071256
 20
138.5691262415814
 30
0.0
 11
371.3068915177891
 21
138.8537026575975
 31
0.0
  0
LINE
  5
2372
330
1F
100
AcDbEntity
  8
HEWI
  6
IMPORT
 62
     7
100
AcDbLine
 10
373.9068747331213
 20
113.8537026575975
 30
0.0
 11
375.0549269486977
 21
114.0440179041795
 31
0.0
  0
LINE
  5
2373
330
1F
100
AcDbEntity
  8
HEWI
  6
IMPORT
 62
     7
100
AcDbLine
 10
413.7689977343286
 20
87.85367976941349
 30
0.0
 11
415.4528051073753
 21
88.13825618542955
 31
0.0
  0
LINE
  5
2374
330
1F
100
AcDbEntity
  8
HEWI
  6
IMPORT
 62
     7
100
AcDbLine
 10
409.6230650712561
 20
138.5691262415814
 30
0.0
 11
411.3068915177891
 21
138.8537026575975
 31
0.0
  0
LINE
  5
2375
330
1F
100
AcDbEntity
  8
HEWI
  6
IMPORT
 62
     7
100
AcDbLine
 10
413.9068747331213
 20
113.8537026575975
 30
0.0
 11
415.0549269486975
 21
114.0440179041795
 31
0.0
  0
LINE
  5
2376
330
1F
100
AcDbEntity
  8
HEWI
  6
IMPORT
 62
     7
100
AcDbLine
 10
453.7689977343285
 20
87.85367976941349
 30
0.0
 11
455.4528051073754
 21
88.13825618542955
 31
0.0
  0
LINE
  5
2377
330
1F
100
AcDbEntity
  8
HEWI
  6
IMPORT
 62
     7
100
AcDbLine
 10
449.623065071256
 20
138.5691262415814
 30
0.0
 11
451.3068915177891
 21
138.8537026575975
 31
0.0
  0
LINE
  5
2378
330
1F
100
AcDbEntity
  8
HEWI
  6
IMPORT
 62
     7
100
AcDbLine
 10
453.9068747331213
 20
113.8537026575975
 30
0.0
 11
455.0549269486976
 21
114.0440179041795
 31
0.0
  0
LINE
  5
2379
330
1F
100
AcDbEntity
  8
HEWI
  6
IMPORT
 62
     7
100
AcDbLine
 10
493.7689977343286
 20
87.85367976941349
 30
0.0
 11
495.4527955706326
 21
88.13825618542955
 31
0.0
  0
LINE
  5
237A
330
1F
100
AcDbEntity
  8
HEWI
  6
IMPORT
 62
     7
100
AcDbLine
 10
489.6230746079996
 20
138.5691262415814
 30
0.0
 11
491.3068819810455
 21
138.8537026575975
 31
0.0
  0
LINE
  5
237B
330
1F
100
AcDbEntity
  8
HEWI
  6
IMPORT
 62
     7
100
AcDbLine
 10
493.9068842698644
 20
113.8537026575975
 30
0.0
 11
495.0549364854403
 21
114.0440179041795
 31
0.0
  0
LINE
  5
237C
330
1F
100
AcDbEntity
  8
HEWI
  6
IMPORT
 62
     7
100
AcDbLine
 10
533.7689977343286
 20
87.85367976941349
 30
0.0
 11
535.4527955706324
 21
88.13825618542955
 31
0.0
  0
LINE
  5
237D
330
1F
100
AcDbEntity
  8
HEWI
  6
IMPORT
 62
     7
100
AcDbLine
 10
529.6230746079986
 20
138.5691262415814
 30
0.0
 11
531.3068819810455
 21
138.8537026575975
 31
0.0
  0
LINE
  5
237E
330
1F
100
AcDbEntity
  8
HEWI
  6
IMPORT
 62
     7
100
AcDbLine
 10
533.9068842698647
 20
113.8537026575975
 30
0.0
 11
535.0549364854405
 21
114.0440179041795
 31
0.0
  0
LINE
  5
237F
330
1F
100
AcDbEntity
  8
HEWI
  6
IMPORT
 62
     7
100
AcDbLine
 10
573.7690025026995
 20
87.85367976941349
 30
0.0
 11
575.4528003390037
 21
88.13825618542955
 31
0.0
  0
LINE
  5
2380
330
1F
100
AcDbEntity
  8
HEWI
  6
IMPORT
 62
     7
100
AcDbLine
 10
569.6230746079995
 20
138.5691262415814
 30
0.0
 11
571.3068819810455
 21
138.8537026575975
 31
0.0
  0
LINE
  5
2381
330
1F
100
AcDbEntity
  8
HEWI
  6
IMPORT
 62
     7
100
AcDbLine
 10
573.9068842698644
 20
113.8537026575975
 30
0.0
 11
575.0549317170683
 21
114.0440179041795
 31
0.0
  0
LINE
  5
2382
330
1F
100
AcDbEntity
  8
HEWI
  6
IMPORT
 62
     7
100
AcDbLine
 10
613.7690001185148
 20
87.85367976941349
 30
0.0
 11
615.4528003390037
 21
88.13825618542955
 31
0.0
  0
LINE
  5
2383
330
1F
100
AcDbEntity
  8
HEWI
  6
IMPORT
 62
     7
100
AcDbLine
 10
609.6230734159068
 20
138.5691262415814
 30
0.0
 11
611.3068831731387
 21
138.8537026575975
 31
0.0
  0
LINE
  5
2384
330
1F
100
AcDbEntity
  8
HEWI
  6
IMPORT
 62
     7
100
AcDbLine
 10
613.9068830777715
 20
113.8537026575975
 30
0.0
 11
615.0549329091616
 21
114.0440179041795
 31
0.0
  0
LINE
  5
2385
330
1F
100
AcDbEntity
  8
HEWI
  6
IMPORT
 62
     7
100
AcDbLine
 10
653.7690001185146
 20
87.85367976941349
 30
0.0
 11
655.4528003390037
 21
88.13825618542955
 31
0.0
  0
LINE
  5
2386
330
1F
100
AcDbEntity
  8
HEWI
  6
IMPORT
 62
     7
100
AcDbLine
 10
649.6230722238138
 20
138.5691262415814
 30
0.0
 11
651.3068843652318
 21
138.8537026575975
 31
0.0
  0
LINE
  5
2387
330
1F
100
AcDbEntity
  8
HEWI
  6
IMPORT
 62
     7
100
AcDbLine
 10
653.9068842698647
 20
113.8537026575975
 30
0.0
 11
655.0549341012547
 21
114.0440179041795
 31
0.0
  0
LINE
  5
2388
330
1F
100
AcDbEntity
  8
HEWI
  6
IMPORT
 62
     7
100
AcDbLine
 10
331.4267926867212
 20
99.9889947108204
 30
0.0
 11
332.6572042162625
 21
100.1360512904095
 31
0.0
  0
LINE
  5
2389
330
1F
100
AcDbEntity
  8
HEWI
  6
IMPORT
 62
     7
100
AcDbLine
 10
371.4267926867212
 20
99.9889947108204
 30
0.0
 11
372.6572042162625
 21
100.1360512904095
 31
0.0
  0
LINE
  5
238A
330
1F
100
AcDbEntity
  8
HEWI
  6
IMPORT
 62
     7
100
AcDbLine
 10
411.4267926867212
 20
99.9889947108204
 30
0.0
 11
412.6572042162622
 21
100.1360512904095
 31
0.0
  0
LINE
  5
238B
330
1F
100
AcDbEntity
  8
HEWI
  6
IMPORT
 62
     7
100
AcDbLine
 10
451.4267926867211
 20
99.9889947108204
 30
0.0
 11
452.6572042162621
 21
100.1360512904095
 31
0.0
  0
LINE
  5
238C
330
1F
100
AcDbEntity
  8
HEWI
  6
IMPORT
 62
     7
100
AcDbLine
 10
491.4267926867204
 20
99.9889947108204
 30
0.0
 11
492.6572042162614
 21
100.1360512904095
 31
0.0
  0
LINE
  5
238D
330
1F
100
AcDbEntity
  8
HEWI
  6
IMPORT
 62
     7
100
AcDbLine
 10
531.4267926867205
 20
99.9889947108204
 30
0.0
 11
532.6572042162616
 21
100.1360512904095
 31
0.0
  0
LINE
  5
238E
330
1F
100
AcDbEntity
  8
HEWI
  6
IMPORT
 62
     7
100
AcDbLine
 10
571.4267879183496
 20
99.9889947108204
 30
0.0
 11
572.6571994478907
 21
100.1360512904095
 31
0.0
  0
LINE
  5
238F
330
1F
100
AcDbEntity
  8
HEWI
  6
IMPORT
 62
     7
100
AcDbLine
 10
611.4267903025356
 20
99.9889947108204
 30
0.0
 11
612.6572006399835
 21
100.1360512904095
 31
0.0
  0
LINE
  5
2390
330
1F
100
AcDbEntity
  8
HEWI
  6
IMPORT
 62
     7
100
AcDbLine
 10
651.4267903025356
 20
99.9889947108204
 30
0.0
 11
652.6571994478906
 21
100.1360512904095
 31
0.0
  0
LINE
  5
2391
330
1F
100
AcDbEntity
  8
HEWI
  6
IMPORT
 62
     7
100
AcDbLine
 10
333.8708692248072
 20
100.1133156947076
 30
0.0
 11
335.1045041735373
 21
99.9658776453905
 31
0.0
  0
LINE
  5
2392
330
1F
100
AcDbEntity
  8
HEWI
  6
IMPORT
 62
     7
100
AcDbLine
 10
373.8708692248072
 20
100.1133156947076
 30
0.0
 11
375.1045041735376
 21
99.9658776453905
 31
0.0
  0
LINE
  5
2393
330
1F
100
AcDbEntity
  8
HEWI
  6
IMPORT
 62
     7
100
AcDbLine
 10
413.8708692248071
 20
100.1133156947076
 30
0.0
 11
415.1045041735375
 21
99.9658776453905
 31
0.0
  0
LINE
  5
2394
330
1F
100
AcDbEntity
  8
HEWI
  6
IMPORT
 62
     7
100
AcDbLine
 10
453.8708692248071
 20
100.1133156947076
 30
0.0
 11
455.1045041735376
 21
99.9658776453905
 31
0.0
  0
LINE
  5
2395
330
1F
100
AcDbEntity
  8
HEWI
  6
IMPORT
 62
     7
100
AcDbLine
 10
493.8708596880634
 20
100.1133156947076
 30
0.0
 11
495.1045137102806
 21
99.9658776453905
 31
0.0
  0
LINE
  5
2396
330
1F
100
AcDbEntity
  8
HEWI
  6
IMPORT
 62
     7
100
AcDbLine
 10
533.8708596880635
 20
100.1133156947076
 30
0.0
 11
535.1045137102805
 21
99.9658776453905
 31
0.0
  0
LINE
  5
2397
330
1F
100
AcDbEntity
  8
HEWI
  6
IMPORT
 62
     7
100
AcDbLine
 10
573.8708596880635
 20
100.1133156947076
 30
0.0
 11
575.1045089419094
 21
99.9658776453905
 31
0.0
  0
LINE
  5
2398
330
1F
100
AcDbEntity
  8
HEWI
  6
IMPORT
 62
     7
100
AcDbLine
 10
613.8708596880635
 20
100.1133156947076
 30
0.0
 11
615.1045101340018
 21
99.9658776453905
 31
0.0
  0
LINE
  5
2399
330
1F
100
AcDbEntity
  8
HEWI
  6
IMPORT
 62
     7
100
AcDbLine
 10
653.8708596880635
 20
100.1133156947076
 30
0.0
 11
655.1045113260945
 21
99.9658776453905
 31
0.0
  0
LINE
  5
239A
330
1F
100
AcDbEntity
  8
HEWI
  6
IMPORT
 62
     7
100
AcDbLine
 10
332.5068808366371
 20
138.8537026575975
 30
0.0
 11
334.1906882096838
 21
138.5691262415814
 31
0.0
  0
LINE
  5
239B
330
1F
100
AcDbEntity
  8
HEWI
  6
IMPORT
 62
     7
100
AcDbLine
 10
330.8851819689479
 20
88.13825618542955
 30
0.0
 11
332.5690084154808
 21
87.85367976941349
 31
0.0
  0
LINE
  5
239C
330
1F
100
AcDbEntity
  8
HEWI
  6
IMPORT
 62
     7
100
AcDbLine
 10
328.7588263322425
 20
114.0440179041795
 30
0.0
 11
329.9068785478187
 21
113.8537026575975
 31
0.0
  0
LINE
  5
239D
330
1F
100
AcDbEntity
  8
HEWI
  6
IMPORT
 62
     7
100
AcDbLine
 10
372.506880836637
 20
138.8537026575975
 30
0.0
 11
374.1906882096841
 21
138.5691262415814
 31
0.0
  0
LINE
  5
239E
330
1F
100
AcDbEntity
  8
HEWI
  6
IMPORT
 62
     7
100
AcDbLine
 10
370.8851819689479
 20
88.13825618542955
 30
0.0
 11
372.569008415481
 21
87.85367976941349
 31
0.0
  0
LINE
  5
239F
330
1F
100
AcDbEntity
  8
HEWI
  6
IMPORT
 62
     7
100
AcDbLine
 10
368.7588263322423
 20
114.0440179041795
 30
0.0
 11
369.9068785478187
 21
113.8537026575975
 31
0.0
  0
LINE
  5
23A0
330
1F
100
AcDbEntity
  8
HEWI
  6
IMPORT
 62
     7
100
AcDbLine
 10
412.506880836637
 20
138.8537026575975
 30
0.0
 11
414.1906882096841
 21
138.5691262415814
 31
0.0
  0
LINE
  5
23A1
330
1F
100
AcDbEntity
  8
HEWI
  6
IMPORT
 62
     7
100
AcDbLine
 10
410.8851819689474
 20
88.13825618542955
 30
0.0
 11
412.5690084154808
 21
87.85367976941349
 31
0.0
  0
LINE
  5
23A2
330
1F
100
AcDbEntity
  8
HEWI
  6
IMPORT
 62
     7
100
AcDbLine
 10
408.7588263322421
 20
114.0440179041795
 30
0.0
 11
409.9068785478189
 21
113.8537026575975
 31
0.0
  0
LINE
  5
23A3
330
1F
100
AcDbEntity
  8
HEWI
  6
IMPORT
 62
     7
100
AcDbLine
 10
452.5068808366373
 20
138.8537026575975
 30
0.0
 11
454.1906882096841
 21
138.5691262415814
 31
0.0
  0
LINE
  5
23A4
330
1F
100
AcDbEntity
  8
HEWI
  6
IMPORT
 62
     7
100
AcDbLine
 10
450.8851819689475
 20
88.13825618542955
 30
0.0
 11
452.569008415481
 21
87.85367976941349
 31
0.0
  0
LINE
  5
23A5
330
1F
100
AcDbEntity
  8
HEWI
  6
IMPORT
 62
     7
100
AcDbLine
 10
448.7588263322423
 20
114.0440179041795
 30
0.0
 11
449.9068785478189
 21
113.8537026575975
 31
0.0
  0
LINE
  5
23A6
330
1F
100
AcDbEntity
  8
HEWI
  6
IMPORT
 62
     7
100
AcDbLine
 10
492.5068808366366
 20
138.8537026575975
 30
0.0
 11
494.1906786729405
 21
138.5691262415814
 31
0.0
  0
LINE
  5
23A7
330
1F
100
AcDbEntity
  8
HEWI
  6
IMPORT
 62
     7
100
AcDbLine
 10
490.8851915056906
 20
88.13825618542955
 30
0.0
 11
492.5689988787374
 21
87.85367976941349
 31
0.0
  0
LINE
  5
23A8
330
1F
100
AcDbEntity
  8
HEWI
  6
IMPORT
 62
     7
100
AcDbLine
 10
488.7588358689856
 20
114.0440179041795
 30
0.0
 11
489.9068880845616
 21
113.8537026575975
 31
0.0
  0
LINE
  5
23A9
330
1F
100
AcDbEntity
  8
HEWI
  6
IMPORT
 62
     7
100
AcDbLine
 10
532.5068808366364
 20
138.8537026575975
 30
0.0
 11
534.1906786729404
 21
138.5691262415814
 31
0.0
  0
LINE
  5
23AA
330
1F
100
AcDbEntity
  8
HEWI
  6
IMPORT
 62
     7
100
AcDbLine
 10
530.8851915056907
 20
88.13825618542955
 30
0.0
 11
532.5689988787376
 21
87.85367976941349
 31
0.0
  0
LINE
  5
23AB
330
1F
100
AcDbEntity
  8
HEWI
  6
IMPORT
 62
     7
100
AcDbLine
 10
528.7588358689855
 20
114.0440179041795
 30
0.0
 11
529.9068880845616
 21
113.8537026575975
 31
0.0
  0
LINE
  5
23AC
330
1F
100
AcDbEntity
  8
HEWI
  6
IMPORT
 62
     7
100
AcDbLine
 10
572.5068856050086
 20
138.8537026575975
 30
0.0
 11
574.1906834413116
 21
138.5691262415814
 31
0.0
  0
LINE
  5
23AD
330
1F
100
AcDbEntity
  8
HEWI
  6
IMPORT
 62
     7
100
AcDbLine
 10
570.8851915056907
 20
88.13825618542955
 30
0.0
 11
572.5689988787376
 21
87.85367976941349
 31
0.0
  0
LINE
  5
23AE
330
1F
100
AcDbEntity
  8
HEWI
  6
IMPORT
 62
     7
100
AcDbLine
 10
568.7588311006136
 20
114.0440179041795
 30
0.0
 11
569.9068833161894
 21
113.8537026575975
 31
0.0
  0
LINE
  5
23AF
330
1F
100
AcDbEntity
  8
HEWI
  6
IMPORT
 62
     7
100
AcDbLine
 10
612.5068832208226
 20
138.8537026575975
 30
0.0
 11
614.1906834413116
 21
138.5691262415814
 31
0.0
  0
LINE
  5
23B0
330
1F
100
AcDbEntity
  8
HEWI
  6
IMPORT
 62
     7
100
AcDbLine
 10
610.8851903135976
 20
88.13825618542955
 30
0.0
 11
612.5690000708305
 21
87.85367976941349
 31
0.0
  0
LINE
  5
23B1
330
1F
100
AcDbEntity
  8
HEWI
  6
IMPORT
 62
     7
100
AcDbLine
 10
608.7588334847996
 20
114.0440179041795
 30
0.0
 11
609.9068833161894
 21
113.8537026575975
 31
0.0
  0
LINE
  5
23B2
330
1F
100
AcDbEntity
  8
HEWI
  6
IMPORT
 62
     7
100
AcDbLine
 10
652.5068832208225
 20
138.8537026575975
 30
0.0
 11
654.1906834413116
 21
138.5691262415814
 31
0.0
  0
LINE
  5
23B3
330
1F
100
AcDbEntity
  8
HEWI
  6
IMPORT
 62
     7
100
AcDbLine
 10
650.8851891215043
 20
88.13825618542955
 30
0.0
 11
652.5690012629236
 21
87.85367976941349
 31
0.0
  0
LINE
  5
23B4
330
1F
100
AcDbEntity
  8
HEWI
  6
IMPORT
 62
     7
100
AcDbLine
 10
648.7588334847997
 20
114.0440179041795
 30
0.0
 11
649.9068833161897
 21
113.8537026575975
 31
0.0
  0
LINE
  5
23B5
330
1F
100
AcDbEntity
  8
HEWI
  6
IMPORT
 62
     7
100
AcDbLine
 10
337.834072654983
 20
90.16153346814462
 30
0.0
 11
338.1690030749048
 21
91.59219753064462
 31
0.0
  0
LINE
  5
23B6
330
1F
100
AcDbEntity
  8
HEWI
  6
IMPORT
 62
     7
100
AcDbLine
 10
326.9068861772132
 20
135.1152230433395
 30
0.0
 11
327.2418165971351
 21
136.5458871058395
 31
0.0
  0
LINE
  5
23B7
330
1F
100
AcDbEntity
  8
HEWI
  6
IMPORT
 62
     7
100
AcDbLine
 10
336.6785193254066
 20
115.3970147303516
 30
0.0
 11
336.9068861772131
 21
116.3537026575975
 31
0.0
  0
LINE
  5
23B8
330
1F
100
AcDbEntity
  8
HEWI
  6
IMPORT
 62
     7
100
AcDbLine
 10
377.8340726549827
 20
90.16153346814462
 30
0.0
 11
378.1690030749047
 21
91.59219753064462
 31
0.0
  0
LINE
  5
23B9
330
1F
100
AcDbEntity
  8
HEWI
  6
IMPORT
 62
     7
100
AcDbLine
 10
366.9068861772132
 20
135.1152230433395
 30
0.0
 11
367.2418165971353
 21
136.5458871058395
 31
0.0
  0
LINE
  5
23BA
330
1F
100
AcDbEntity
  8
HEWI
  6
IMPORT
 62
     7
100
AcDbLine
 10
376.6785193254066
 20
115.3970147303516
 30
0.0
 11
376.9068861772132
 21
116.3537026575975
 31
0.0
  0
LINE
  5
23BB
330
1F
100
AcDbEntity
  8
HEWI
  6
IMPORT
 62
     7
100
AcDbLine
 10
417.8340726549826
 20
90.16153346814462
 30
0.0
 11
418.1690030749047
 21
91.59219753064462
 31
0.0
  0
LINE
  5
23BC
330
1F
100
AcDbEntity
  8
HEWI
  6
IMPORT
 62
     7
100
AcDbLine
 10
406.9068861772132
 20
135.1152230433395
 30
0.0
 11
407.2418165971347
 21
136.5458871058395
 31
0.0
  0
LINE
  5
23BD
330
1F
100
AcDbEntity
  8
HEWI
  6
IMPORT
 62
     7
100
AcDbLine
 10
416.6785193254063
 20
115.3970147303516
 30
0.0
 11
416.9068861772132
 21
116.3537026575975
 31
0.0
  0
LINE
  5
23BE
330
1F
100
AcDbEntity
  8
HEWI
  6
IMPORT
 62
     7
100
AcDbLine
 10
457.8340726549826
 20
90.16153346814462
 30
0.0
 11
458.1690030749046
 21
91.59219753064462
 31
0.0
  0
LINE
  5
23BF
330
1F
100
AcDbEntity
  8
HEWI
  6
IMPORT
 62
     7
100
AcDbLine
 10
446.9068861772131
 20
135.1152230433395
 30
0.0
 11
447.2418165971348
 21
136.5458871058395
 31
0.0
  0
LINE
  5
23C0
330
1F
100
AcDbEntity
  8
HEWI
  6
IMPORT
 62
     7
100
AcDbLine
 10
456.6785193254065
 20
115.3970147303516
 30
0.0
 11
456.9068861772125
 21
116.3537026575975
 31
0.0
  0
LINE
  5
23C1
330
1F
100
AcDbEntity
  8
HEWI
  6
IMPORT
 62
     7
100
AcDbLine
 10
497.8340726549826
 20
90.16153346814462
 30
0.0
 11
498.1690030749046
 21
91.59219753064462
 31
0.0
  0
LINE
  5
23C2
330
1F
100
AcDbEntity
  8
HEWI
  6
IMPORT
 62
     7
100
AcDbLine
 10
486.9068861772125
 20
135.1152230433395
 30
0.0
 11
487.2418165971346
 21
136.5458871058395
 31
0.0
  0
LINE
  5
23C3
330
1F
100
AcDbEntity
  8
HEWI
  6
IMPORT
 62
     7
100
AcDbLine
 10
496.6785097886636
 20
115.3970147303516
 30
0.0
 11
496.9068861772125
 21
116.3537026575975
 31
0.0
  0
LINE
  5
23C4
330
1F
100
AcDbEntity
  8
HEWI
  6
IMPORT
 62
     7
100
AcDbLine
 10
537.8340726549827
 20
90.16153346814462
 30
0.0
 11
538.1690030749044
 21
91.59219753064462
 31
0.0
  0
LINE
  5
23C5
330
1F
100
AcDbEntity
  8
HEWI
  6
IMPORT
 62
     7
100
AcDbLine
 10
526.9068861772125
 20
135.1152230433395
 30
0.0
 11
527.2418165971346
 21
136.5458871058395
 31
0.0
  0
LINE
  5
23C6
330
1F
100
AcDbEntity
  8
HEWI
  6
IMPORT
 62
     7
100
AcDbLine
 10
536.6785097886636
 20
115.3970147303516
 30
0.0
 11
536.9068861772125
 21
116.3537026575975
 31
0.0
  0
LINE
  5
23C7
330
1F
100
AcDbEntity
  8
HEWI
  6
IMPORT
 62
     7
100
AcDbLine
 10
577.8340678866116
 20
90.16153346814462
 30
0.0
 11
578.1689983065326
 21
91.59219753064462
 31
0.0
  0
LINE
  5
23C8
330
1F
100
AcDbEntity
  8
HEWI
  6
IMPORT
 62
     7
100
AcDbLine
 10
566.9068814088416
 20
135.1152230433395
 30
0.0
 11
567.2418118287636
 21
136.5458871058395
 31
0.0
  0
LINE
  5
23C9
330
1F
100
AcDbEntity
  8
HEWI
  6
IMPORT
 62
     7
100
AcDbLine
 10
576.6785145570347
 20
115.3970147303516
 30
0.0
 11
576.9068814088416
 21
116.3537026575975
 31
0.0
  0
LINE
  5
23CA
330
1F
100
AcDbEntity
  8
HEWI
  6
IMPORT
 62
     7
100
AcDbLine
 10
617.8340702707965
 20
90.16153346814462
 30
0.0
 11
618.1690000946725
 21
91.59219753064462
 31
0.0
  0
LINE
  5
23CB
330
1F
100
AcDbEntity
  8
HEWI
  6
IMPORT
 62
     7
100
AcDbLine
 10
606.9068837930276
 20
135.1152230433395
 30
0.0
 11
607.2418130208566
 21
136.5458871058395
 31
0.0
  0
LINE
  5
23CC
330
1F
100
AcDbEntity
  8
HEWI
  6
IMPORT
 62
     7
100
AcDbLine
 10
616.6785133649416
 20
115.3970147303516
 30
0.0
 11
616.9068831969807
 21
116.3537026575975
 31
0.0
  0
LINE
  5
23CD
330
1F
100
AcDbEntity
  8
HEWI
  6
IMPORT
 62
     7
100
AcDbLine
 10
657.8340702707963
 20
90.16153346814462
 30
0.0
 11
658.1690006907185
 21
91.59219753064462
 31
0.0
  0
LINE
  5
23CE
330
1F
100
AcDbEntity
  8
HEWI
  6
IMPORT
 62
     7
100
AcDbLine
 10
646.9068837930276
 20
135.1152230433395
 30
0.0
 11
647.2418142129486
 21
136.5458871058395
 31
0.0
  0
LINE
  5
23CF
330
1F
100
AcDbEntity
  8
HEWI
  6
IMPORT
 62
     7
100
AcDbLine
 10
656.6785121728496
 20
115.3970147303516
 30
0.0
 11
656.9068837930276
 21
116.3537026575975
 31
0.0
  0
LINE
  5
23D0
330
1F
100
AcDbEntity
  8
HEWI
  6
IMPORT
 62
     7
100
AcDbLine
 10
328.1690030749047
 20
97.0089150599415
 30
0.0
 11
328.5039334948265
 21
98.02057277478548
 31
0.0
  0
LINE
  5
23D1
330
1F
100
AcDbEntity
  8
HEWI
  6
IMPORT
 62
     7
100
AcDbLine
 10
368.1690030749048
 20
97.0089150599415
 30
0.0
 11
368.5039334948265
 21
98.02057277478548
 31
0.0
  0
LINE
  5
23D2
330
1F
100
AcDbEntity
  8
HEWI
  6
IMPORT
 62
     7
100
AcDbLine
 10
408.1690030749047
 20
97.0089150599415
 30
0.0
 11
408.5039334948268
 21
98.02057277478548
 31
0.0
  0
LINE
  5
23D3
330
1F
100
AcDbEntity
  8
HEWI
  6
IMPORT
 62
     7
100
AcDbLine
 10
448.1690030749048
 20
97.0089150599415
 30
0.0
 11
448.5039334948268
 21
98.02057277478548
 31
0.0
  0
LINE
  5
23D4
330
1F
100
AcDbEntity
  8
HEWI
  6
IMPORT
 62
     7
100
AcDbLine
 10
488.1690030749044
 20
97.0089150599415
 30
0.0
 11
488.5039334948263
 21
98.02057277478548
 31
0.0
  0
LINE
  5
23D5
330
1F
100
AcDbEntity
  8
HEWI
  6
IMPORT
 62
     7
100
AcDbLine
 10
528.1690030749046
 20
97.0089150599415
 30
0.0
 11
528.5039334948264
 21
98.02057277478548
 31
0.0
  0
LINE
  5
23D6
330
1F
100
AcDbEntity
  8
HEWI
  6
IMPORT
 62
     7
100
AcDbLine
 10
568.1689983065325
 20
97.0089150599415
 30
0.0
 11
568.5039287264546
 21
98.02057277478548
 31
0.0
  0
LINE
  5
23D7
330
1F
100
AcDbEntity
  8
HEWI
  6
IMPORT
 62
     7
100
AcDbLine
 10
608.1690006907185
 20
97.0089150599415
 30
0.0
 11
608.5039299185475
 21
98.02057277478548
 31
0.0
  0
LINE
  5
23D8
330
1F
100
AcDbEntity
  8
HEWI
  6
IMPORT
 62
     7
100
AcDbLine
 10
648.1690006907186
 20
97.0089150599415
 30
0.0
 11
648.5039311106406
 21
98.02057277478548
 31
0.0
  0
LINE
  5
23D9
330
1F
100
AcDbEntity
  8
HEWI
  6
IMPORT
 62
     7
100
AcDbLine
 10
335.3622823412623
 20
99.86665736951136
 30
0.0
 11
336.7141538317408
 21
99.32397853650357
 31
0.0
  0
LINE
  5
23DA
330
1F
100
AcDbEntity
  8
HEWI
  6
IMPORT
 62
     7
100
AcDbLine
 10
375.3622823412622
 20
99.86665736951136
 30
0.0
 11
376.7141538317411
 21
99.32397853650357
 31
0.0
  0
LINE
  5
23DB
330
1F
100
AcDbEntity
  8
HEWI
  6
IMPORT
 62
     7
100
AcDbLine
 10
415.3622823412622
 20
99.86665736951136
 30
0.0
 11
416.714153831741
 21
99.32397853650357
 31
0.0
  0
LINE
  5
23DC
330
1F
100
AcDbEntity
  8
HEWI
  6
IMPORT
 62
     7
100
AcDbLine
 10
455.3622823412625
 20
99.86665736951136
 30
0.0
 11
456.7141538317405
 21
99.32397853650357
 31
0.0
  0
LINE
  5
23DD
330
1F
100
AcDbEntity
  8
HEWI
  6
IMPORT
 62
     7
100
AcDbLine
 10
495.3622823412614
 20
99.86665736951136
 30
0.0
 11
496.7141633684836
 21
99.32397853650357
 31
0.0
  0
LINE
  5
23DE
330
1F
100
AcDbEntity
  8
HEWI
  6
IMPORT
 62
     7
100
AcDbLine
 10
535.3622823412615
 20
99.86665736951136
 30
0.0
 11
536.7141633684837
 21
99.32397853650357
 31
0.0
  0
LINE
  5
23DF
330
1F
100
AcDbEntity
  8
HEWI
  6
IMPORT
 62
     7
100
AcDbLine
 10
575.3622823412615
 20
99.86665736951136
 30
0.0
 11
576.7141586001125
 21
99.32397853650357
 31
0.0
  0
LINE
  5
23E0
330
1F
100
AcDbEntity
  8
HEWI
  6
IMPORT
 62
     7
100
AcDbLine
 10
615.3622799570767
 20
99.86665736951136
 30
0.0
 11
616.7141597922046
 21
99.32397853650357
 31
0.0
  0
LINE
  5
23E1
330
1F
100
AcDbEntity
  8
HEWI
  6
IMPORT
 62
     7
100
AcDbLine
 10
655.3622799570766
 20
99.86665736951136
 30
0.0
 11
656.7141609842974
 21
99.32397853650357
 31
0.0
  0
LINE
  5
23E2
330
1F
100
AcDbEntity
  8
HEWI
  6
IMPORT
 62
     7
100
AcDbLine
 10
328.5039334948265
 20
98.02057277478548
 30
0.0
 11
328.7194829638208
 21
98.5107995203905
 31
0.0
  0
LINE
  5
23E3
330
1F
100
AcDbEntity
  8
HEWI
  6
IMPORT
 62
     7
100
AcDbLine
 10
368.5039334948265
 20
98.02057277478548
 30
0.0
 11
368.7194829638209
 21
98.5107995203905
 31
0.0
  0
LINE
  5
23E4
330
1F
100
AcDbEntity
  8
HEWI
  6
IMPORT
 62
     7
100
AcDbLine
 10
408.5039334948268
 20
98.02057277478548
 30
0.0
 11
408.7194829638208
 21
98.5107995203905
 31
0.0
  0
LINE
  5
23E5
330
1F
100
AcDbEntity
  8
HEWI
  6
IMPORT
 62
     7
100
AcDbLine
 10
448.5039334948268
 20
98.02057277478548
 30
0.0
 11
448.7194829638207
 21
98.5107995203905
 31
0.0
  0
LINE
  5
23E6
330
1F
100
AcDbEntity
  8
HEWI
  6
IMPORT
 62
     7
100
AcDbLine
 10
488.5039334948263
 20
98.02057277478548
 30
0.0
 11
488.7194829638207
 21
98.5107995203905
 31
0.0
  0
LINE
  5
23E7
330
1F
100
AcDbEntity
  8
HEWI
  6
IMPORT
 62
     7
100
AcDbLine
 10
528.5039334948264
 20
98.02057277478548
 30
0.0
 11
528.7194829638206
 21
98.5107995203905
 31
0.0
  0
LINE
  5
23E8
330
1F
100
AcDbEntity
  8
HEWI
  6
IMPORT
 62
     7
100
AcDbLine
 10
568.5039287264546
 20
98.02057277478548
 30
0.0
 11
568.7194781954485
 21
98.5107995203905
 31
0.0
  0
LINE
  5
23E9
330
1F
100
AcDbEntity
  8
HEWI
  6
IMPORT
 62
     7
100
AcDbLine
 10
608.5039299185475
 20
98.02057277478548
 30
0.0
 11
608.7194805796346
 21
98.5107995203905
 31
0.0
  0
LINE
  5
23EA
330
1F
100
AcDbEntity
  8
HEWI
  6
IMPORT
 62
     7
100
AcDbLine
 10
648.5039311106406
 20
98.02057277478548
 30
0.0
 11
648.7194805796344
 21
98.5107995203905
 31
0.0
  0
LINE
  5
23EB
330
1F
100
AcDbEntity
  8
HEWI
  6
IMPORT
 62
     7
100
AcDbLine
 10
327.7855635453773
 20
114.5859337977344
 30
0.0
 11
328.7588263322425
 21
114.0440179041795
 31
0.0
  0
LINE
  5
23EC
330
1F
100
AcDbEntity
  8
HEWI
  6
IMPORT
 62
     7
100
AcDbLine
 10
367.7855635453773
 20
114.5859337977344
 30
0.0
 11
368.7588263322423
 21
114.0440179041795
 31
0.0
  0
LINE
  5
23ED
330
1F
100
AcDbEntity
  8
HEWI
  6
IMPORT
 62
     7
100
AcDbLine
 10
407.7855635453771
 20
114.5859337977344
 30
0.0
 11
408.7588263322421
 21
114.0440179041795
 31
0.0
  0
LINE
  5
23EE
330
1F
100
AcDbEntity
  8
HEWI
  6
IMPORT
 62
     7
100
AcDbLine
 10
447.7855635453773
 20
114.5859337977344
 30
0.0
 11
448.7588263322423
 21
114.0440179041795
 31
0.0
  0
LINE
  5
23EF
330
1F
100
AcDbEntity
  8
HEWI
  6
IMPORT
 62
     7
100
AcDbLine
 10
487.7855635453766
 20
114.5859337977344
 30
0.0
 11
488.7588358689856
 21
114.0440179041795
 31
0.0
  0
LINE
  5
23F0
330
1F
100
AcDbEntity
  8
HEWI
  6
IMPORT
 62
     7
100
AcDbLine
 10
527.7855635453764
 20
114.5859337977344
 30
0.0
 11
528.7588358689855
 21
114.0440179041795
 31
0.0
  0
LINE
  5
23F1
330
1F
100
AcDbEntity
  8
HEWI
  6
IMPORT
 62
     7
100
AcDbLine
 10
567.7855635453766
 20
114.5859337977344
 30
0.0
 11
568.7588311006136
 21
114.0440179041795
 31
0.0
  0
LINE
  5
23F2
330
1F
100
AcDbEntity
  8
HEWI
  6
IMPORT
 62
     7
100
AcDbLine
 10
607.7855635453764
 20
114.5859337977344
 30
0.0
 11
608.7588334847996
 21
114.0440179041795
 31
0.0
  0
LINE
  5
23F3
330
1F
100
AcDbEntity
  8
HEWI
  6
IMPORT
 62
     7
100
AcDbLine
 10
647.7855635453765
 20
114.5859337977344
 30
0.0
 11
648.7588334847997
 21
114.0440179041795
 31
0.0
  0
LINE
  5
23F4
330
1F
100
AcDbEntity
  8
HEWI
  6
IMPORT
 62
     7
100
AcDbLine
 10
334.1906882096838
 20
138.5691262415814
 30
0.0
 11
335.6181479264809
 21
137.7587319544725
 31
0.0
  0
LINE
  5
23F5
330
1F
100
AcDbEntity
  8
HEWI
  6
IMPORT
 62
     7
100
AcDbLine
 10
329.4577222521509
 20
88.94868861951136
 30
0.0
 11
330.8851819689479
 21
88.13825618542955
 31
0.0
  0
LINE
  5
23F6
330
1F
100
AcDbEntity
  8
HEWI
  6
IMPORT
 62
     7
100
AcDbLine
 10
374.1906882096841
 20
138.5691262415814
 30
0.0
 11
375.618147926481
 21
137.7587319544725
 31
0.0
  0
LINE
  5
23F7
330
1F
100
AcDbEntity
  8
HEWI
  6
IMPORT
 62
     7
100
AcDbLine
 10
369.4577222521508
 20
88.94868861951136
 30
0.0
 11
370.8851819689479
 21
88.13825618542955
 31
0.0
  0
LINE
  5
23F8
330
1F
100
AcDbEntity
  8
HEWI
  6
IMPORT
 62
     7
100
AcDbLine
 10
414.1906882096841
 20
138.5691262415814
 30
0.0
 11
415.618147926481
 21
137.7587319544725
 31
0.0
  0
LINE
  5
23F9
330
1F
100
AcDbEntity
  8
HEWI
  6
IMPORT
 62
     7
100
AcDbLine
 10
409.4577222521508
 20
88.94868861951136
 30
0.0
 11
410.8851819689474
 21
88.13825618542955
 31
0.0
  0
LINE
  5
23FA
330
1F
100
AcDbEntity
  8
HEWI
  6
IMPORT
 62
     7
100
AcDbLine
 10
454.1906882096841
 20
138.5691262415814
 30
0.0
 11
455.618147926481
 21
137.7587319544725
 31
0.0
  0
LINE
  5
23FB
330
1F
100
AcDbEntity
  8
HEWI
  6
IMPORT
 62
     7
100
AcDbLine
 10
449.4577222521508
 20
88.94868861951136
 30
0.0
 11
450.8851819689475
 21
88.13825618542955
 31
0.0
  0
LINE
  5
23FC
330
1F
100
AcDbEntity
  8
HEWI
  6
IMPORT
 62
     7
100
AcDbLine
 10
494.1906786729405
 20
138.5691262415814
 30
0.0
 11
495.6181574632237
 21
137.7587319544725
 31
0.0
  0
LINE
  5
23FD
330
1F
100
AcDbEntity
  8
HEWI
  6
IMPORT
 62
     7
100
AcDbLine
 10
489.4577317888937
 20
88.94868861951136
 30
0.0
 11
490.8851915056906
 21
88.13825618542955
 31
0.0
  0
LINE
  5
23FE
330
1F
100
AcDbEntity
  8
HEWI
  6
IMPORT
 62
     7
100
AcDbLine
 10
534.1906786729404
 20
138.5691262415814
 30
0.0
 11
535.6181574632237
 21
137.7587319544725
 31
0.0
  0
LINE
  5
23FF
330
1F
100
AcDbEntity
  8
HEWI
  6
IMPORT
 62
     7
100
AcDbLine
 10
529.4577317888935
 20
88.94868861951136
 30
0.0
 11
530.8851915056907
 21
88.13825618542955
 31
0.0
  0
LINE
  5
2400
330
1F
100
AcDbEntity
  8
HEWI
  6
IMPORT
 62
     7
100
AcDbLine
 10
574.1906834413116
 20
138.5691262415814
 30
0.0
 11
575.6181526948526
 21
137.7587319544725
 31
0.0
  0
LINE
  5
2401
330
1F
100
AcDbEntity
  8
HEWI
  6
IMPORT
 62
     7
100
AcDbLine
 10
569.4577317888936
 20
88.94868861951136
 30
0.0
 11
570.8851915056907
 21
88.13825618542955
 31
0.0
  0
LINE
  5
2402
330
1F
100
AcDbEntity
  8
HEWI
  6
IMPORT
 62
     7
100
AcDbLine
 10
614.1906834413116
 20
138.5691262415814
 30
0.0
 11
615.6181532908986
 21
137.7587319544725
 31
0.0
  0
LINE
  5
2403
330
1F
100
AcDbEntity
  8
HEWI
  6
IMPORT
 62
     7
100
AcDbLine
 10
609.4577305968003
 20
88.94868861951136
 30
0.0
 11
610.8851903135976
 21
88.13825618542955
 31
0.0
  0
LINE
  5
2404
330
1F
100
AcDbEntity
  8
HEWI
  6
IMPORT
 62
     7
100
AcDbLine
 10
654.1906834413116
 20
138.5691262415814
 30
0.0
 11
655.6181526948526
 21
137.7587319544725
 31
0.0
  0
LINE
  5
2405
330
1F
100
AcDbEntity
  8
HEWI
  6
IMPORT
 62
     7
100
AcDbLine
 10
649.4577294047084
 20
88.94868861951136
 30
0.0
 11
650.8851891215043
 21
88.13825618542955
 31
0.0
  0
LINE
  5
2406
330
1F
100
AcDbEntity
  8
HEWI
  6
IMPORT
 62
     7
100
AcDbLine
 10
336.8802648241723
 20
88.94868861951136
 30
0.0
 11
337.834072654983
 21
90.16153346814462
 31
0.0
  0
LINE
  5
2407
330
1F
100
AcDbEntity
  8
HEWI
  6
IMPORT
 62
     7
100
AcDbLine
 10
327.2418165971351
 20
136.5458871058395
 30
0.0
 11
328.1956053544593
 21
137.7587319544725
 31
0.0
  0
LINE
  5
2408
330
1F
100
AcDbEntity
  8
HEWI
  6
IMPORT
 62
     7
100
AcDbLine
 10
376.8802648241723
 20
88.94868861951136
 30
0.0
 11
377.8340726549827
 21
90.16153346814462
 31
0.0
  0
LINE
  5
2409
330
1F
100
AcDbEntity
  8
HEWI
  6
IMPORT
 62
     7
100
AcDbLine
 10
367.2418165971353
 20
136.5458871058395
 30
0.0
 11
368.1956053544593
 21
137.7587319544725
 31
0.0
  0
LINE
  5
240A
330
1F
100
AcDbEntity
  8
HEWI
  6
IMPORT
 62
     7
100
AcDbLine
 10
416.8802648241722
 20
88.94868861951136
 30
0.0
 11
417.8340726549826
 21
90.16153346814462
 31
0.0
  0
LINE
  5
240B
330
1F
100
AcDbEntity
  8
HEWI
  6
IMPORT
 62
     7
100
AcDbLine
 10
407.2418165971347
 20
136.5458871058395
 30
0.0
 11
408.1956053544591
 21
137.7587319544725
 31
0.0
  0
LINE
  5
240C
330
1F
100
AcDbEntity
  8
HEWI
  6
IMPORT
 62
     7
100
AcDbLine
 10
456.8802648241725
 20
88.94868861951136
 30
0.0
 11
457.8340726549826
 21
90.16153346814462
 31
0.0
  0
LINE
  5
240D
330
1F
100
AcDbEntity
  8
HEWI
  6
IMPORT
 62
     7
100
AcDbLine
 10
447.2418165971348
 20
136.5458871058395
 30
0.0
 11
448.1956053544593
 21
137.7587319544725
 31
0.0
  0
LINE
  5
240E
330
1F
100
AcDbEntity
  8
HEWI
  6
IMPORT
 62
     7
100
AcDbLine
 10
496.8802743609158
 20
88.94868861951136
 30
0.0
 11
497.8340726549826
 21
90.16153346814462
 31
0.0
  0
LINE
  5
240F
330
1F
100
AcDbEntity
  8
HEWI
  6
IMPORT
 62
     7
100
AcDbLine
 10
487.2418165971346
 20
136.5458871058395
 30
0.0
 11
488.1956148912027
 21
137.7587319544725
 31
0.0
  0
LINE
  5
2410
330
1F
100
AcDbEntity
  8
HEWI
  6
IMPORT
 62
     7
100
AcDbLine
 10
536.8802743609156
 20
88.94868861951136
 30
0.0
 11
537.8340726549827
 21
90.16153346814462
 31
0.0
  0
LINE
  5
2411
330
1F
100
AcDbEntity
  8
HEWI
  6
IMPORT
 62
     7
100
AcDbLine
 10
527.2418165971346
 20
136.5458871058395
 30
0.0
 11
528.1956148912025
 21
137.7587319544725
 31
0.0
  0
LINE
  5
2412
330
1F
100
AcDbEntity
  8
HEWI
  6
IMPORT
 62
     7
100
AcDbLine
 10
576.8802695925435
 20
88.94868861951136
 30
0.0
 11
577.8340678866116
 21
90.16153346814462
 31
0.0
  0
LINE
  5
2413
330
1F
100
AcDbEntity
  8
HEWI
  6
IMPORT
 62
     7
100
AcDbLine
 10
567.2418118287636
 20
136.5458871058395
 30
0.0
 11
568.1956148912028
 21
137.7587319544725
 31
0.0
  0
LINE
  5
2414
330
1F
100
AcDbEntity
  8
HEWI
  6
IMPORT
 62
     7
100
AcDbLine
 10
616.8802701885907
 20
88.94868861951136
 30
0.0
 11
617.8340702707965
 21
90.16153346814462
 31
0.0
  0
LINE
  5
2415
330
1F
100
AcDbEntity
  8
HEWI
  6
IMPORT
 62
     7
100
AcDbLine
 10
607.2418130208566
 20
136.5458871058395
 30
0.0
 11
608.1956136991094
 21
137.7587319544725
 31
0.0
  0
LINE
  5
2416
330
1F
100
AcDbEntity
  8
HEWI
  6
IMPORT
 62
     7
100
AcDbLine
 10
656.8802695925435
 20
88.94868861951136
 30
0.0
 11
657.8340702707963
 21
90.16153346814462
 31
0.0
  0
LINE
  5
2417
330
1F
100
AcDbEntity
  8
HEWI
  6
IMPORT
 62
     7
100
AcDbLine
 10
647.2418142129486
 20
136.5458871058395
 30
0.0
 11
648.1956125070166
 21
137.7587319544725
 31
0.0
  0
LINE
  5
2418
330
1F
100
AcDbEntity
  8
HEWI
  6
IMPORT
 62
     7
100
AcDbLine
 10
336.0282088090492
 20
114.5859337977344
 30
0.0
 11
336.6785193254066
 21
115.3970147303516
 31
0.0
  0
LINE
  5
2419
330
1F
100
AcDbEntity
  8
HEWI
  6
IMPORT
 62
     7
100
AcDbLine
 10
376.0282088090494
 20
114.5859337977344
 30
0.0
 11
376.6785193254066
 21
115.3970147303516
 31
0.0
  0
LINE
  5
241A
330
1F
100
AcDbEntity
  8
HEWI
  6
IMPORT
 62
     7
100
AcDbLine
 10
416.0282088090488
 20
114.5859337977344
 30
0.0
 11
416.6785193254063
 21
115.3970147303516
 31
0.0
  0
LINE
  5
241B
330
1F
100
AcDbEntity
  8
HEWI
  6
IMPORT
 62
     7
100
AcDbLine
 10
456.0282088090493
 20
114.5859337977344
 30
0.0
 11
456.6785193254065
 21
115.3970147303516
 31
0.0
  0
LINE
  5
241C
330
1F
100
AcDbEntity
  8
HEWI
  6
IMPORT
 62
     7
100
AcDbLine
 10
496.0281992723055
 20
114.5859337977344
 30
0.0
 11
496.6785097886636
 21
115.3970147303516
 31
0.0
  0
LINE
  5
241D
330
1F
100
AcDbEntity
  8
HEWI
  6
IMPORT
 62
     7
100
AcDbLine
 10
536.0281992723055
 20
114.5859337977344
 30
0.0
 11
536.6785097886636
 21
115.3970147303516
 31
0.0
  0
LINE
  5
241E
330
1F
100
AcDbEntity
  8
HEWI
  6
IMPORT
 62
     7
100
AcDbLine
 10
576.0282040406774
 20
114.5859337977344
 30
0.0
 11
576.6785145570347
 21
115.3970147303516
 31
0.0
  0
LINE
  5
241F
330
1F
100
AcDbEntity
  8
HEWI
  6
IMPORT
 62
     7
100
AcDbLine
 10
616.0282034446306
 20
114.5859337977344
 30
0.0
 11
616.6785133649416
 21
115.3970147303516
 31
0.0
  0
LINE
  5
2420
330
1F
100
AcDbEntity
  8
HEWI
  6
IMPORT
 62
     7
100
AcDbLine
 10
656.0282040406774
 20
114.5859337977344
 30
0.0
 11
656.6785121728496
 21
115.3970147303516
 31
0.0
  0
LINE
  5
2421
330
1F
100
AcDbEntity
  8
HEWI
  6
IMPORT
 62
     7
100
AcDbLine
 10
336.7141538317408
 20
99.32397853650357
 30
0.0
 11
337.6185041125026
 21
98.5107995203905
 31
0.0
  0
LINE
  5
2422
330
1F
100
AcDbEntity
  8
HEWI
  6
IMPORT
 62
     7
100
AcDbLine
 10
376.7141538317411
 20
99.32397853650357
 30
0.0
 11
377.6185041125022
 21
98.5107995203905
 31
0.0
  0
LINE
  5
2423
330
1F
100
AcDbEntity
  8
HEWI
  6
IMPORT
 62
     7
100
AcDbLine
 10
416.714153831741
 20
99.32397853650357
 30
0.0
 11
417.6185041125021
 21
98.5107995203905
 31
0.0
  0
LINE
  5
2424
330
1F
100
AcDbEntity
  8
HEWI
  6
IMPORT
 62
     7
100
AcDbLine
 10
456.7141538317405
 20
99.32397853650357
 30
0.0
 11
457.6185041125026
 21
98.5107995203905
 31
0.0
  0
LINE
  5
2425
330
1F
100
AcDbEntity
  8
HEWI
  6
IMPORT
 62
     7
100
AcDbLine
 10
496.7141633684836
 20
99.32397853650357
 30
0.0
 11
497.6185136492452
 21
98.5107995203905
 31
0.0
  0
LINE
  5
2426
330
1F
100
AcDbEntity
  8
HEWI
  6
IMPORT
 62
     7
100
AcDbLine
 10
536.7141633684837
 20
99.32397853650357
 30
0.0
 11
537.6185136492454
 21
98.5107995203905
 31
0.0
  0
LINE
  5
2427
330
1F
100
AcDbEntity
  8
HEWI
  6
IMPORT
 62
     7
100
AcDbLine
 10
576.7141586001125
 20
99.32397853650357
 30
0.0
 11
577.6185088808736
 21
98.5107995203905
 31
0.0
  0
LINE
  5
2428
330
1F
100
AcDbEntity
  8
HEWI
  6
IMPORT
 62
     7
100
AcDbLine
 10
616.7141597922046
 20
99.32397853650357
 30
0.0
 11
617.6185100729667
 21
98.5107995203905
 31
0.0
  0
LINE
  5
2429
330
1F
100
AcDbEntity
  8
HEWI
  6
IMPORT
 62
     7
100
AcDbLine
 10
656.7141609842974
 20
99.32397853650357
 30
0.0
 11
657.6185112650596
 21
98.5107995203905
 31
0.0
  0
LINE
  5
242A
330
1F
100
AcDbEntity
  8
HEWI
  6
IMPORT
 62
     7
100
AcDbLine
 10
687.3886131770575
 20
113.8537026575975
 30
0.0
 11
691.3886141307316
 21
113.8537026575975
 31
0.0
  0
LINE
  5
242B
330
1F
100
AcDbEntity
  8
HEWI
  6
IMPORT
 62
     7
100
AcDbLine
 10
688.7886142260995
 20
138.8537026575975
 30
0.0
 11
689.9886130816907
 21
138.8537026575975
 31
0.0
  0
LINE
  5
242C
330
1F
100
AcDbEntity
  8
HEWI
  6
IMPORT
 62
     7
100
AcDbLine
 10
690.0507311237905
 20
87.85367976941349
 30
0.0
 11
691.2507299793816
 21
87.85367976941349
 31
0.0
  0
LINE
  5
242D
330
1F
100
AcDbEntity
  8
HEWI
  6
IMPORT
 62
     7
100
AcDbLine
 10
692.5862411869624
 20
99.9658776453905
 30
0.0
 11
692.8440098179436
 21
99.86665736951136
 31
0.0
  0
LINE
  5
242E
330
1F
100
AcDbEntity
  8
HEWI
  6
IMPORT
 62
     7
100
AcDbLine
 10
688.4574393642998
 20
99.86665736951136
 30
0.0
 11
688.9085201634023
 21
99.9889947108204
 31
0.0
  0
LINE
  5
242F
330
1F
100
AcDbEntity
  8
HEWI
  6
IMPORT
 62
     7
100
AcDbLine
 10
690.1389293087575
 20
100.1360512904095
 30
0.0
 11
691.3525895489314
 21
100.1133156947076
 31
0.0
  0
LINE
  5
2430
330
1F
100
AcDbEntity
  8
HEWI
  6
IMPORT
 62
     7
100
AcDbLine
 10
684.3886136538944
 20
116.3537026575975
 30
0.0
 11
684.3886136538944
 21
135.1152230433395
 31
0.0
  0
LINE
  5
2431
330
1F
100
AcDbEntity
  8
HEWI
  6
IMPORT
 62
     7
100
AcDbLine
 10
685.6507305515865
 20
91.59219753064462
 30
0.0
 11
685.6507305515865
 21
104.1721917323045
 31
0.0
  0
LINE
  5
2432
330
1F
100
AcDbEntity
  8
HEWI
  6
IMPORT
 62
     7
100
AcDbLine
 10
694.3886136538943
 20
116.3537026575975
 30
0.0
 11
694.3886136538943
 21
135.1152230433395
 31
0.0
  0
LINE
  5
2433
330
1F
100
AcDbEntity
  8
HEWI
  6
IMPORT
 62
     7
100
AcDbLine
 10
695.6507305515864
 20
91.59219753064462
 30
0.0
 11
695.6507305515864
 21
104.1721917323045
 31
0.0
  0
LINE
  5
2434
330
1F
100
AcDbEntity
  8
HEWI
  6
IMPORT
 62
     7
100
AcDbLine
 10
686.2012104405025
 20
98.5107995203905
 30
0.0
 11
687.1055607212645
 21
99.32397853650357
 31
0.0
  0
LINE
  5
2435
330
1F
100
AcDbEntity
  8
HEWI
  6
IMPORT
 62
     7
100
AcDbLine
 10
684.6169733531437
 20
115.3970147303516
 30
0.0
 11
685.2672934062447
 21
114.5859337977344
 31
0.0
  0
LINE
  5
2436
330
1F
100
AcDbEntity
  8
HEWI
  6
IMPORT
 62
     7
100
AcDbLine
 10
693.0998825557196
 20
137.7587319544725
 30
0.0
 11
694.0536832339724
 21
136.5458871058395
 31
0.0
  0
LINE
  5
2437
330
1F
100
AcDbEntity
  8
HEWI
  6
IMPORT
 62
     7
100
AcDbLine
 10
685.9856609715084
 20
90.16153346814462
 30
0.0
 11
686.9394592655757
 21
88.94868861951136
 31
0.0
  0
LINE
  5
2438
330
1F
100
AcDbEntity
  8
HEWI
  6
IMPORT
 62
     7
100
AcDbLine
 10
692.9345301998713
 20
88.13825618542955
 30
0.0
 11
694.3619994534116
 21
88.94868861951136
 31
0.0
  0
LINE
  5
2439
330
1F
100
AcDbEntity
  8
HEWI
  6
IMPORT
 62
     7
100
AcDbLine
 10
685.6773423678846
 20
137.7587319544725
 30
0.0
 11
687.1048020846806
 21
138.5691262415814
 31
0.0
  0
LINE
  5
243A
330
1F
100
AcDbEntity
  8
HEWI
  6
IMPORT
 62
     7
100
AcDbLine
 10
692.5366639621223
 20
114.0440179041795
 30
0.0
 11
693.5099339015446
 21
114.5859337977344
 31
0.0
  0
LINE
  5
243B
330
1F
100
AcDbEntity
  8
HEWI
  6
IMPORT
 62
     7
100
AcDbLine
 10
695.1002411259263
 20
98.5107995203905
 30
0.0
 11
695.3158001316645
 21
98.02057277478548
 31
0.0
  0
LINE
  5
243C
330
1F
100
AcDbEntity
  8
HEWI
  6
IMPORT
 62
     7
100
AcDbLine
 10
687.1055607212645
 20
99.32397853650357
 30
0.0
 11
688.4574393642998
 21
99.86665736951136
 31
0.0
  0
LINE
  5
243D
330
1F
100
AcDbEntity
  8
HEWI
  6
IMPORT
 62
     7
100
AcDbLine
 10
695.3158001316645
 20
98.02057277478548
 30
0.0
 11
695.6507305515864
 21
97.0089150599415
 31
0.0
  0
LINE
  5
243E
330
1F
100
AcDbEntity
  8
HEWI
  6
IMPORT
 62
     7
100
AcDbLine
 10
694.0536832339724
 20
136.5458871058395
 30
0.0
 11
694.3886136538943
 21
135.1152230433395
 31
0.0
  0
LINE
  5
243F
330
1F
100
AcDbEntity
  8
HEWI
  6
IMPORT
 62
     7
100
AcDbLine
 10
685.6507305515865
 20
91.59219753064462
 30
0.0
 11
685.9856609715084
 21
90.16153346814462
 31
0.0
  0
LINE
  5
2440
330
1F
100
AcDbEntity
  8
HEWI
  6
IMPORT
 62
     7
100
AcDbLine
 10
684.3886136538944
 20
116.3537026575975
 30
0.0
 11
684.6169733531437
 21
115.3970147303516
 31
0.0
  0
LINE
  5
2441
330
1F
100
AcDbEntity
  8
HEWI
  6
IMPORT
 62
     7
100
AcDbLine
 10
691.2507299793816
 20
87.85367976941349
 30
0.0
 11
692.9345301998713
 21
88.13825618542955
 31
0.0
  0
LINE
  5
2442
330
1F
100
AcDbEntity
  8
HEWI
  6
IMPORT
 62
     7
100
AcDbLine
 10
687.1048020846806
 20
138.5691262415814
 30
0.0
 11
688.7886142260995
 21
138.8537026575975
 31
0.0
  0
LINE
  5
2443
330
1F
100
AcDbEntity
  8
HEWI
  6
IMPORT
 62
     7
100
AcDbLine
 10
691.3886141307316
 20
113.8537026575975
 30
0.0
 11
692.5366639621223
 21
114.0440179041795
 31
0.0
  0
LINE
  5
2444
330
1F
100
AcDbEntity
  8
HEWI
  6
IMPORT
 62
     7
100
AcDbLine
 10
688.9085201634023
 20
99.9889947108204
 30
0.0
 11
690.1389293087575
 21
100.1360512904095
 31
0.0
  0
LINE
  5
2445
330
1F
100
AcDbEntity
  8
HEWI
  6
IMPORT
 62
     7
100
AcDbLine
 10
691.3525895489314
 20
100.1133156947076
 30
0.0
 11
692.5862411869624
 21
99.9658776453905
 31
0.0
  0
LINE
  5
2446
330
1F
100
AcDbEntity
  8
HEWI
  6
IMPORT
 62
     7
100
AcDbLine
 10
689.9886130816907
 20
138.8537026575975
 30
0.0
 11
691.6724133021796
 21
138.5691262415814
 31
0.0
  0
LINE
  5
2447
330
1F
100
AcDbEntity
  8
HEWI
  6
IMPORT
 62
     7
100
AcDbLine
 10
688.3669189823725
 20
88.13825618542955
 30
0.0
 11
690.0507311237905
 21
87.85367976941349
 31
0.0
  0
LINE
  5
2448
330
1F
100
AcDbEntity
  8
HEWI
  6
IMPORT
 62
     7
100
AcDbLine
 10
686.2405633456676
 20
114.0440179041795
 30
0.0
 11
687.3886131770575
 21
113.8537026575975
 31
0.0
  0
LINE
  5
2449
330
1F
100
AcDbEntity
  8
HEWI
  6
IMPORT
 62
     7
100
AcDbLine
 10
695.3158001316645
 20
90.16153346814462
 30
0.0
 11
695.6507305515864
 21
91.59219753064462
 31
0.0
  0
LINE
  5
244A
330
1F
100
AcDbEntity
  8
HEWI
  6
IMPORT
 62
     7
100
AcDbLine
 10
684.3886136538944
 20
135.1152230433395
 30
0.0
 11
684.7235440738166
 21
136.5458871058395
 31
0.0
  0
LINE
  5
244B
330
1F
100
AcDbEntity
  8
HEWI
  6
IMPORT
 62
     7
100
AcDbLine
 10
694.1602420337167
 20
115.3970147303516
 30
0.0
 11
694.3886136538943
 21
116.3537026575975
 31
0.0
  0
LINE
  5
244C
330
1F
100
AcDbEntity
  8
HEWI
  6
IMPORT
 62
     7
100
AcDbLine
 10
685.6507305515865
 20
97.0089150599415
 30
0.0
 11
685.9856609715084
 21
98.02057277478548
 31
0.0
  0
LINE
  5
244D
330
1F
100
AcDbEntity
  8
HEWI
  6
IMPORT
 62
     7
100
AcDbLine
 10
692.8440098179436
 20
99.86665736951136
 30
0.0
 11
694.1958908451655
 21
99.32397853650357
 31
0.0
  0
LINE
  5
244E
330
1F
100
AcDbEntity
  8
HEWI
  6
IMPORT
 62
     7
100
AcDbLine
 10
685.9856609715084
 20
98.02057277478548
 30
0.0
 11
686.2012104405025
 21
98.5107995203905
 31
0.0
  0
LINE
  5
244F
330
1F
100
AcDbEntity
  8
HEWI
  6
IMPORT
 62
     7
100
AcDbLine
 10
685.2672934062447
 20
114.5859337977344
 30
0.0
 11
686.2405633456676
 21
114.0440179041795
 31
0.0
  0
LINE
  5
2450
330
1F
100
AcDbEntity
  8
HEWI
  6
IMPORT
 62
     7
100
AcDbLine
 10
691.6724133021796
 20
138.5691262415814
 30
0.0
 11
693.0998825557196
 21
137.7587319544725
 31
0.0
  0
LINE
  5
2451
330
1F
100
AcDbEntity
  8
HEWI
  6
IMPORT
 62
     7
100
AcDbLine
 10
686.9394592655757
 20
88.94868861951136
 30
0.0
 11
688.3669189823725
 21
88.13825618542955
 31
0.0
  0
LINE
  5
2452
330
1F
100
AcDbEntity
  8
HEWI
  6
IMPORT
 62
     7
100
AcDbLine
 10
694.3619994534116
 20
88.94868861951136
 30
0.0
 11
695.3158001316645
 21
90.16153346814462
 31
0.0
  0
LINE
  5
2453
330
1F
100
AcDbEntity
  8
HEWI
  6
IMPORT
 62
     7
100
AcDbLine
 10
684.7235440738166
 20
136.5458871058395
 30
0.0
 11
685.6773423678846
 21
137.7587319544725
 31
0.0
  0
LINE
  5
2454
330
1F
100
AcDbEntity
  8
HEWI
  6
IMPORT
 62
     7
100
AcDbLine
 10
693.5099339015446
 20
114.5859337977344
 30
0.0
 11
694.1602420337167
 21
115.3970147303516
 31
0.0
  0
LINE
  5
2455
330
1F
100
AcDbEntity
  8
HEWI
  6
IMPORT
 62
     7
100
AcDbLine
 10
694.1958908451655
 20
99.32397853650357
 30
0.0
 11
695.1002411259263
 21
98.5107995203905
 31
0.0
  0
LINE
  5
2456
330
1F
100
AcDbEntity
  8
HEWI
  6
IMPORT
 62
     7
100
AcDbLine
 10
657.5068832208224
 20
129.1721917323045
 30
0.0
 11
684.3886136538944
 21
129.1721917323045
 31
0.0
  0
LWPOLYLINE
  5
2458
330
1F
100
AcDbEntity
  8
HEWI
100
AcDbPolyline
 90
        3
 70
     0
 43
0.0
 10
1139.988274996329
 20
1103.672191731741
 10
1127.488274995766
 20
1103.672191731741
 10
1127.488274995766
 20
1103.669666008493
  0
LWPOLYLINE
  5
2459
330
1F
100
AcDbEntity
  8
HEWI
100
AcDbPolyline
 90
        2
 70
     0
 43
0.0
 10
1127.488274995766
 20
1091.669665763528
 10
1127.488274995766
 20
221.025600786209
  0
LINE
  5
245A
330
1F
100
AcDbEntity
  8
HEWI
100
AcDbLine
 10
1104.99049834666
 20
1092.665119931338
 30
0.0
 11
1104.988275710245
 21
1103.665119706788
 31
0.0
  0
LINE
  5
245B
330
1F
100
AcDbEntity
  8
HEWI
100
AcDbLine
 10
1104.988275710245
 20
1103.665119706788
 30
0.0
 11
1174.988274281286
 21
1103.679263756694
 31
0.0
  0
LINE
  5
245C
330
1F
100
AcDbEntity
  8
HEWI
100
AcDbLine
 10
1174.988274281286
 20
1103.679263756694
 30
0.0
 11
1174.9904969177
 21
1092.679263981246
 31
0.0
  0
LWPOLYLINE
  5
245D
330
1F
100
AcDbEntity
  8
HEWI
100
AcDbPolyline
 90
        2
 70
     0
 43
0.0
 10
1173.99069899597
 20
1091.679061943804
 10
1105.990700384102
 20
1091.665322009609
  0
ARC
  5
245E
330
1F
100
AcDbEntity
  8
HEWI
100
AcDbCircle
 10
1105.990498326246
 20
1092.665321989195
 30
0.0
 40
1.0
100
AcDbArc
 50
180.0115770624369
 51
270.0115770624369
  0
ARC
  5
245F
330
1F
100
AcDbEntity
  8
HEWI
100
AcDbCircle
 10
1173.990496938114
 20
1092.679061923389
 30
0.0
 40
1.0
100
AcDbArc
 50
270.0115770624369
 51
0.0115770624369365
  0
LINE
  5
254D
330
1F
100
AcDbEntity
  8
DECKENABH
100
AcDbLine
 10
1072.141971728007
 20
1818.124439823552
 30
0.0
 11
1142.141971728007
 21
1818.124439823552
 31
0.0
  0
LINE
  5
254E
330
1F
100
AcDbEntity
  8
DECKENABH
100
AcDbLine
 10
1075.188236376445
 20
1803.124439823553
 30
0.0
 11
1139.095668932597
 21
1803.124439823553
 31
0.0
  0
LINE
  5
2555
330
1F
100
AcDbEntity
  8
DECKENABH
100
AcDbLine
 10
1095.141767110805
 20
1358.624621199575
 30
0.0
 11
1119.141782369594
 21
1358.624621199575
 31
0.0
  0
LINE
  5
2556
330
1F
100
AcDbEntity
  8
DECKENABH
100
AcDbLine
 10
1097.172635641079
 20
1344.624605940786
 30
0.0
 11
1117.110913839321
 21
1344.624605940786
 31
0.0
  0
LINE
  5
255B
330
1F
100
AcDbEntity
  8
DECKENABH
100
AcDbLine
 10
1072.141971728007
 20
1806.124470341132
 30
0.0
 11
1072.141971728007
 21
1818.124439823552
 31
0.0
  0
LINE
  5
255C
330
1F
100
AcDbEntity
  8
DECKENABH
100
AcDbLine
 10
1142.141971728007
 20
1806.124470341132
 30
0.0
 11
1142.141971728007
 21
1818.124439823552
 31
0.0
  0
LINE
  5
2567
330
1F
100
AcDbEntity
  8
DECKENABH
100
AcDbLine
 10
1097.172635641079
 20
1344.624605940786
 30
0.0
 11
1097.172635641079
 21
1358.624621199575
 31
0.0
  0
LINE
  5
2568
330
1F
100
AcDbEntity
  8
DECKENABH
100
AcDbLine
 10
1117.110913839321
 20
1344.624605940786
 30
0.0
 11
1117.110913839321
 21
1358.624621199575
 31
0.0
  0
LINE
  5
2569
330
1F
100
AcDbEntity
  8
DECKENABH
100
AcDbLine
 10
1101.234334554653
 20
1330.624628828969
 30
0.0
 11
1101.234334554653
 21
1344.624605940786
 31
0.0
  0
LINE
  5
256A
330
1F
100
AcDbEntity
  8
DECKENABH
100
AcDbLine
 10
1113.049214925747
 20
1330.624628828969
 30
0.0
 11
1113.049214925747
 21
1344.624605940786
 31
0.0
  0
LINE
  5
257A
330
1F
100
AcDbEntity
  8
DECKENABH
100
AcDbLine
 10
1072.373867174785
 20
1804.976399052069
 30
0.0
 11
1073.034191271464
 21
1804.003117191717
 31
0.0
  0
LINE
  5
257B
330
1F
100
AcDbEntity
  8
DECKENABH
100
AcDbLine
 10
1140.261440416972
 20
1803.352787601874
 30
0.0
 11
1141.24975218455
 21
1804.003117191717
 31
0.0
  0
LINE
  5
258A
330
1F
100
AcDbEntity
  8
DECKENABH
100
AcDbLine
 10
1072.141971728007
 20
1806.124470341132
 30
0.0
 11
1072.373867174785
 21
1804.976399052069
 31
0.0
  0
LINE
  5
258B
330
1F
100
AcDbEntity
  8
DECKENABH
100
AcDbLine
 10
1139.095668932597
 20
1803.124439823553
 30
0.0
 11
1140.261440416972
 21
1803.352787601874
 31
0.0
  0
LINE
  5
259D
330
1F
100
AcDbEntity
  8
DECKENABH
100
AcDbLine
 10
1141.91007628123
 20
1804.976399052069
 30
0.0
 11
1142.141971728007
 21
1806.124470341132
 31
0.0
  0
LINE
  5
259E
330
1F
100
AcDbEntity
  8
DECKENABH
100
AcDbLine
 10
1074.022503039042
 20
1803.352787601874
 30
0.0
 11
1075.188236376445
 21
1803.124439823553
 31
0.0
  0
LINE
  5
25B0
330
1F
100
AcDbEntity
  8
DECKENABH
100
AcDbLine
 10
1073.034191271464
 20
1804.003117191717
 30
0.0
 11
1074.022503039042
 21
1803.352787601874
 31
0.0
  0
LINE
  5
25B1
330
1F
100
AcDbEntity
  8
DECKENABH
100
AcDbLine
 10
1141.24975218455
 20
1804.003117191717
 30
0.0
 11
1141.91007628123
 21
1804.976399052069
 31
0.0
  0
ARC
  5
2720
330
1F
100
AcDbEntity
  8
0
100
AcDbCircle
 10
1032.54039043121
 20
224.1719028562275
 30
0.0
 40
119.9999999999999
100
AcDbArc
 50
269.8742804310954
 51
297.3948841352177
  0
ARC
  5
2721
330
1F
100
AcDbEntity
  8
0
100
AcDbCircle
 10
1032.54039043121
 20
224.1719028562276
 30
0.0
 40
95.0
100
AcDbArc
 50
269.8587033951711
 51
295.3278534621022
  0
LWPOLYLINE
  5
273E
330
1F
100
AcDbEntity
  8
HEWI
100
AcDbPolyline
 90
        2
 70
     0
 43
0.0
 10
1032.30611202594
 20
129.1721917323045
 10
694.3945671773556
 20
129.1721917323045
  0
LWPOLYLINE
  5
2740
330
1F
100
AcDbEntity
  8
HEWI
100
AcDbPolyline
 90
        2
 70
     0
 43
0.0
 10
1152.488274995766
 20
220.6356635419256
 10
1152.488274995766
 20
1091.674717210027
  0
CIRCLE
  5
2750
330
1F
100
AcDbEntity
  8
0
100
AcDbCircle
 10
1107.141971728007
 20
146.7691258348208
 30
0.0
 40
35.0
  0
CIRCLE
  5
2751
330
1F
100
AcDbEntity
  8
MITTELLINIE
100
AcDbCircle
 10
1107.141971728007
 20
146.7691258348207
 30
0.0
 40
12.5
  0
ARC
  5
2753
330
1F
100
AcDbEntity
  8
0
100
AcDbCircle
 10
1032.54039043121
 20
224.1719028562276
 30
0.0
 40
95.0
100
AcDbArc
 50
332.5606475050761
 51
1.897924223934576
  0
ARC
  5
2754
330
1F
100
AcDbEntity
  8
0
100
AcDbCircle
 10
1032.54039043121
 20
224.1719028562275
 30
0.0
 40
119.9999999999999
100
AcDbArc
 50
330.4936168319614
 51
358.311325631329
  0
ARC
  5
2769
330
1F
100
AcDbEntity
  8
0
100
AcDbCircle
 10
1139.988274995765
 20
1318.124439823553
 30
0.0
 40
35.0
100
AcDbArc
 50
200.9205829514792
 51
260.9803960458496
  0
ARC
  5
276C
330
1F
100
AcDbEntity
  8
HEWI
100
AcDbCircle
 10
1139.988274996329
 20
1318.124439823553
 30
0.0
 40
12.5
100
AcDbArc
 50
268.8714569326487
 51
89.99958292598824
  0
LWPOLYLINE
  5
277B
330
1F
100
AcDbEntity
  8
DECKENABH
100
AcDbPolyline
 90
        4
 70
     0
 43
0.0
 10
1094.6417747402
 20
1803.124439823553
 10
1094.6417747402
 20
1358.624621199575
 10
1119.6417747402
 20
1358.624621199575
 10
1119.6417747402
 20
1803.124439823553
  0
LINE
  5
2824
330
1F
100
AcDbEntity
  8
HEWI
100
AcDbLine
 10
1134.501241102682
 20
1273.020273449354
 30
0.0000000000000005
 11
1134.501241102682
 21
1289.934128512417
 31
0.0000000000000005
210
0.0
220
1.0
230
0.0
  0
ARC
  5
2825
330
1F
100
AcDbEntity
  8
HEWI
100
AcDbCircle
 10
1139.901241102683
 20
1273.020273449354
 30
-0.0000000000000002
 40
5.4
100
AcDbArc
 50
180.0
 51
0.0
  0
LINE
  5
2826
330
1F
100
AcDbEntity
  8
HEWI
100
AcDbLine
 10
1145.301241102683
 20
1273.020273449354
 30
-0.0000000000000008
 11
1145.301241102683
 21
1280.220273449354
 31
-0.0000000000000008
210
0.0
220
1.0
230
0.0
  0
ARC
  5
2827
330
1F
100
AcDbEntity
  8
HEWI
100
AcDbCircle
 10
1144.401241102683
 20
1280.220273449354
 30
-0.0000000000000007
 40
0.9
100
AcDbArc
 50
0.0
 51
90.0
  0
LINE
  5
2828
330
1F
100
AcDbEntity
  8
HEWI
100
AcDbLine
 10
1144.401241102683
 20
1281.120273449354
 30
-0.0000000000000007
 11
1143.886527170057
 21
1281.120273449354
 31
-0.0000000000000006
210
0.0
220
1.0
230
0.0
  0
ARC
  5
2829
330
1F
100
AcDbEntity
  8
HEWI
100
AcDbCircle
 10
1146.174141484111
 20
1277.245119162085
 30
-0.0000000000000009
 40
4.499999999999999
100
AcDbArc
 50
120.5545677147949
 51
215.8181402674209
  0
ARC
  5
282A
330
1F
100
AcDbEntity
  8
HEWI
100
AcDbCircle
 10
1140.340444929624
 20
1273.025180697573
 30
-0.0000000000000002
 40
2.7
100
AcDbArc
 50
151.0274090051416
 51
35.98566200571523
  0
ARC
  5
282B
330
1F
100
AcDbEntity
  8
HEWI
100
AcDbCircle
 10
1134.051241102683
 20
1276.530273449354
 30
0.0000000000000005
 40
4.5
100
AcDbArc
 50
330.7727478419856
 51
0.0
  0
LINE
  5
282C
330
1F
100
AcDbEntity
  8
HEWI
100
AcDbLine
 10
1138.551241102682
 20
1276.530273449354
 30
0.0
 11
1138.551241102682
 21
1289.596563797134
 31
0.0
210
0.0
220
1.0
230
0.0
  0
ARC
  5
282D
330
1F
100
AcDbEntity
  8
HEWI
100
AcDbCircle
 10
1138.731241102683
 20
1316.220273449354
 30
0.0
 40
26.62431812546027
100
AcDbArc
 50
260.8582628013159
 51
269.6126353797676
  0
ARC
  5
282E
330
1F
100
AcDbEntity
  8
HEWI
100
AcDbCircle
 10
1157.282297182807
 20
1328.952449944836
 30
-0.0000000000000023
 40
4.5
100
AcDbArc
 50
34.4630409671894
 51
214.4630409671945
  0
ARC
  5
282F
330
1F
100
AcDbEntity
  8
HEWI
100
AcDbCircle
 10
1129.387438108958
 20
1336.688379019105
 30
0.0000000000000012
 40
4.499999999999999
100
AcDbArc
 50
294.5369590328297
 51
114.5369590328296
  0
ARC
  5
2830
330
1F
100
AcDbEntity
  8
HEWI
100
AcDbCircle
 10
1138.731241102683
 20
1316.220273449354
 30
0.0
 40
18.0
100
AcDbArc
 50
235.5884913302326
 51
34.46304096719447
  0
ARC
  5
2831
330
1F
100
AcDbEntity
  8
HEWI
100
AcDbCircle
 10
1138.731241102683
 20
1316.220273449354
 30
0.0
 40
27.0
100
AcDbArc
 50
269.618025307102
 51
34.4630409671894
  0
ARC
  5
2832
330
1F
100
AcDbEntity
  8
HEWI
100
AcDbCircle
 10
1138.731241102683
 20
1316.220273449354
 30
0.0
 40
27.0
100
AcDbArc
 50
114.5369590328296
 51
146.6329870307761
  0
ARC
  5
2833
330
1F
100
AcDbEntity
  8
HEWI
100
AcDbCircle
 10
1138.731241102683
 20
1316.220273449354
 30
0.0
 40
27.0
100
AcDbArc
 50
269.618025307102
 51
34.46304096719447
  0
ARC
  5
2834
330
1F
100
AcDbEntity
  8
HEWI
100
AcDbCircle
 10
1138.731241102683
 20
1316.220273449354
 30
0.0
 40
18.0
100
AcDbArc
 50
114.5369590328278
 51
34.46304096719447
  0
LINE
  5
2835
330
1F
100
AcDbEntity
  8
HEWI
100
AcDbLine
 10
1138.551241102683
 20
1276.530273449354
 30
0.0
 11
1138.551241102683
 21
1289.596563797134
 31
0.0
210
0.0
220
1.0
230
0.0
  0
ARC
  5
2836
330
1F
100
AcDbEntity
  8
HEWI
100
AcDbCircle
 10
1146.174141484111
 20
1277.245119162085
 30
-0.0000000000000009
 40
4.499999999999999
100
AcDbArc
 50
120.5545677147949
 51
215.8181402674209
  0
LINE
  5
2837
330
1F
100
AcDbEntity
  8
HEWI
100
AcDbLine
 10
1145.301241102683
 20
1273.020273449354
 30
-0.0000000000000008
 11
1145.301241102683
 21
1280.220273449354
 31
-0.0000000000000008
210
0.0
220
1.0
230
0.0
  0
LINE
  5
2838
330
1F
100
AcDbEntity
  8
HEWI
100
AcDbLine
 10
1134.501241102682
 20
1273.020273449354
 30
0.0000000000000005
 11
1134.501241102682
 21
1289.934128512416
 31
0.0000000000000005
210
0.0
220
1.0
230
0.0
  0
ARC
  5
2839
330
1F
100
AcDbEntity
  8
HEWI
100
AcDbCircle
 10
1134.051241102683
 20
1276.530273449354
 30
0.0000000000000005
 40
4.5
100
AcDbArc
 50
330.7727478419856
 51
0.0
  0
ARC
  5
283A
330
1F
100
AcDbEntity
  8
HEWI
100
AcDbCircle
 10
1140.340444929626
 20
1273.025180697573
 30
-0.0000000000000002
 40
2.7
100
AcDbArc
 50
151.0274090051416
 51
35.98566200571523
  0
ARC
  5
283B
330
1F
100
AcDbEntity
  8
HEWI
100
AcDbCircle
 10
1139.901241102683
 20
1273.020273449354
 30
-0.0000000000000002
 40
5.4
100
AcDbArc
 50
180.0
 51
0.0
  0
ARC
  5
283C
330
1F
100
AcDbEntity
  8
HEWI
100
AcDbCircle
 10
1138.731241102683
 20
1316.220273449354
 30
0.0
 40
27.0
100
AcDbArc
 50
182.72074726306
 51
260.9865297376968
  0
ARC
  5
283D
330
1F
100
AcDbEntity
  8
HEWI
100
AcDbCircle
 10
1138.731241102683
 20
1316.220273449354
 30
0.0
 40
26.62431812546027
100
AcDbArc
 50
260.8582628013159
 51
269.6126353797676
  0
LINE
  5
283E
330
1F
100
AcDbEntity
  8
HEWI
100
AcDbLine
 10
1144.401241102683
 20
1281.120273449354
 30
-0.0000000000000007
 11
1143.886527170057
 21
1281.120273449354
 31
-0.0000000000000006
210
0.0
220
1.0
230
0.0
  0
ARC
  5
283F
330
1F
100
AcDbEntity
  8
HEWI
100
AcDbCircle
 10
1144.401241102683
 20
1280.220273449354
 30
-0.0000000000000007
 40
0.9
100
AcDbArc
 50
0.0
 51
90.0
  0
ARC
  5
2840
330
1F
100
AcDbEntity
  8
HEWI
100
AcDbCircle
 10
1138.731241102683
 20
1316.220273449354
 30
0.0
 40
27.0
100
AcDbArc
 50
114.5369590328296
 51
182.72074726306
  0
ARC
  5
2841
330
1F
100
AcDbEntity
  8
HEWI
100
AcDbCircle
 10
1129.387438108958
 20
1336.688379019105
 30
0.0000000000000012
 40
4.499999999999999
100
AcDbArc
 50
294.5369590328297
 51
114.5369590328296
  0
ARC
  5
2842
330
1F
100
AcDbEntity
  8
HEWI
100
AcDbCircle
 10
1157.282297182807
 20
1328.952449944835
 30
-0.0000000000000023
 40
4.5
100
AcDbArc
 50
34.46304096719447
 51
214.4630409671945
  0
LWPOLYLINE
  5
2844
330
1F
100
AcDbEntity
  8
HEWI
100
AcDbPolyline
 90
        2
 70
     0
 43
0.0
 10
1115.894093013358
 20
1330.623907266773
 10
694.3945671773558
 20
1330.626864517823
  0
LWPOLYLINE
  5
2845
330
1F
100
AcDbEntity
  8
HEWI
100
AcDbPolyline
 90
        2
 70
     0
 43
0.0
 10
1124.178588862992
 20
1305.626864517823
 10
1139.988274996329
 20
1305.626864517823
  0
ARC
  5
2846
330
1F
100
AcDbEntity
  8
0
100
AcDbCircle
 10
1139.988274995765
 20
1318.124439823553
 30
0.0
 40
35.0
100
AcDbArc
 50
267.6468820602829
 51
159.0747655837628
  0
ENDSEC
  0
SECTION
  2
OBJECTS
  0
DICTIONARY
  5
C
330
0
100
AcDbDictionary
281
     1
  3
ACAD_CIP_PREVIOUS_PRODUCT_INFO
350
1CC
  3
ACAD_COLOR
350
1AC
  3
ACAD_DETAILVIEWSTYLE
350
1C6
  3
ACAD_GROUP
350
D
  3
ACAD_LAYOUT
350
1A
  3
ACAD_MATERIAL
350
17A
  3
ACAD_MLEADERSTYLE
350
1C1
  3
ACAD_MLINESTYLE
350
17
  3
ACAD_PLOTSETTINGS
350
19
  3
ACAD_PLOTSTYLENAME
350
DF
  3
ACAD_SCALELIST
350
1AF
  3
ACAD_SECTIONVIEWSTYLE
350
1C3
  3
ACAD_TABLESTYLE
350
1AD
  3
ACAD_VISUALSTYLE
350
193
  3
ACDB_RECOMPOSE_DATA
350
2BF7
  3
AcDbVariableDictionary
350
2CB
  0
DICTIONARY
  5
1E1
330
2
100
AcDbDictionary
280
     1
281
     1
  3
ACAD_LAYERSTATES
360
1E2
  0
DICTIONARY
  5
1CD
330
10
100
AcDbDictionary
280
     1
281
     1
  3
ADSK_XREC_LAYER_RECONCILED
360
1CE
  0
DICTIONARY
  5
D9
330
1F
100
AcDbDictionary
280
     1
281
     1
  3
ACAD_LAYOUTSELFREF
360
177
  3
ACAD_SORTENTS
360
292
  0
DICTIONARY
  5
D7
330
1B
100
AcDbDictionary
280
     1
281
     1
  3
ACAD_LAYOUTSELFREF
360
176
  0
XRECORD
  5
1CC
102
{ACAD_REACTORS
330
C
102
}
330
C
100
AcDbXrecord
280
     1
300
ACDLT
300
2013
300
ACDLT_F_S
  0
DICTIONARY
  5
1AC
102
{ACAD_REACTORS
330
C
102
}
330
C
100
AcDbDictionary
281
     1
  0
DICTIONARY
  5
1C6
102
{ACAD_REACTORS
330
C
102
}
330
C
100
AcDbDictionary
281
     1
  3
Imperial24
350
1C7
  0
DICTIONARY
  5
D
102
{ACAD_REACTORS
330
C
102
}
330
C
100
AcDbDictionary
281
     1
  0
DICTIONARY
  5
1A
102
{ACAD_REACTORS
330
C
102
}
330
C
100
AcDbDictionary
281
     1
  3
Layout1
350
1C9
  3
Model
350
1C8
  0
DICTIONARY
  5
17A
102
{ACAD_REACTORS
330
C
102
}
330
C
100
AcDbDictionary
281
     1
  3
ByBlock
350
183
  3
ByLayer
350
17B
  3
Global
350
18B
  0
DICTIONARY
  5
1C1
102
{ACAD_REACTORS
330
C
102
}
330
C
100
AcDbDictionary
281
     1
  3
Standard
350
1C2
  0
DICTIONARY
  5
17
102
{ACAD_REACTORS
330
C
102
}
330
C
100
AcDbDictionary
281
     1
  3
STANDARD
350
18
  0
DICTIONARY
  5
19
102
{ACAD_REACTORS
330
C
102
}
330
C
100
AcDbDictionary
281
     1
  0
ACDBDICTIONARYWDFLT
  5
DF
102
{ACAD_REACTORS
330
C
102
}
330
C
100
AcDbDictionary
281
     1
  3
Normal
350
E0
100
AcDbDictionaryWithDefault
340
E0
  0
DICTIONARY
  5
1AF
102
{ACAD_REACTORS
330
C
102
}
330
C
100
AcDbDictionary
281
     1
  3
A0
350
1B0
  3
A1
350
1B1
  3
A2
350
1B2
  3
A3
350
1B3
  3
A4
350
1B4
  3
A5
350
1B5
  3
A6
350
1B6
  3
A7
350
1B7
  3
A8
350
1B8
  3
A9
350
1B9
  3
B0
350
1BA
  3
B1
350
1BB
  3
B2
350
1BC
  3
B3
350
1BD
  3
B4
350
1BE
  3
B5
350
1BF
  3
B6
350
1C0
  0
DICTIONARY
  5
1C3
102
{ACAD_REACTORS
330
C
102
}
330
C
100
AcDbDictionary
281
     1
  3
Imperial24
350
1C5
  0
DICTIONARY
  5
1AD
102
{ACAD_REACTORS
330
C
102
}
330
C
100
AcDbDictionary
281
     1
  3
Standard
350
1AE
  0
DICTIONARY
  5
193
102
{ACAD_REACTORS
330
C
102
}
330
C
100
AcDbDictionary
281
     1
  3
2dWireframe
350
199
  3
Basic
350
198
  3
Brighten
350
19F
  3
ColorChange
350
1A3
  3
Conceptual
350
19C
  3
Dim
350
19E
  3
EdgeColorOff
350
1AB
  3
Facepattern
350
1A2
  3
Flat
350
194
  3
FlatWithEdges
350
195
  3
Gouraud
350
196
  3
GouraudWithEdges
350
197
  3
Hidden
350
19B
  3
JitterOff
350
1A9
  3
Linepattern
350
1A1
  3
OverhangOff
350
1AA
  3
Realistic
350
19D
  3
Shaded
350
1A8
  3
Shaded with edges
350
1A7
  3
Shades of Gray
350
1A4
  3
Sketchy
350
1A5
  3
Thicken
350
1A0
  3
Wireframe
350
19A
  3
X-Ray
350
1A6
  0
XRECORD
  5
2BF7
102
{ACAD_REACTORS
330
C
102
}
330
C
100
AcDbXrecord
280
     1
 90
        1
330
1AE
  0
DICTIONARY
  5
2CB
102
{ACAD_REACTORS
330
C
102
}
330
C
100
AcDbDictionary
281
     1
  3
CANNOSCALE
350
2D1
  3
CMLEADERSTYLE
350
2CD
  3
CTABLESTYLE
350
2CC
  3
CVIEWDETAILSTYLE
350
2CE
  3
CVIEWSECTIONSTYLE
350
2CF
  3
LAYEREVAL
350
2D3
  3
LAYERNOTIFY
350
2D4
  3
LIGHTINGUNITS
350
2D2
  3
MSLTSCALE
350
2D0
  0
DICTIONARY
  5
1E2
102
{ACAD_REACTORS
330
1E1
102
}
330
1E1
100
AcDbDictionary
281
     1
  0
XRECORD
  5
1CE
102
{ACAD_REACTORS
330
1CD
102
}
330
1CD
100
AcDbXrecord
280
     1
290
     1
  0
XRECORD
  5
177
102
{ACAD_REACTORS
330
D9
102
}
330
D9
100
AcDbXrecord
280
     1
340
1F
  0
SORTENTSTABLE
  5
292
102
{ACAD_REACTORS
330
D9
102
}
330
D9
100
AcDbSortentsTable
330
1F
331
1EB8
  5
1EC0
331
1F43
  5
1F45
331
1F62
  5
1F64
331
1F81
  5
1F83
331
1FBF
  5
1FC1
331
1FDE
  5
1FE0
331
1FFD
  5
1FFF
331
20A7
  5
20A9
331
229E
  5
22A3
331
22BD
  5
22C2
331
22DC
  5
22E1
331
22FB
  5
2300
331
231A
  5
231F
331
2339
  5
233E
331
245F
  5
2552
331
259D
  5
25B4
331
2842
  5
2846
331
1EA8
  5
1EA8
331
200C
  5
200E
331
1F33
  5
1F35
331
1F52
  5
1F54
331
1F71
  5
1F73
331
1F90
  5
1F92
331
1FAF
  5
1FB1
331
1FCE
  5
1FD0
331
1FED
  5
1FEF
331
2348
  5
234D
331
2097
  5
2099
331
22AD
  5
22B2
331
22CC
  5
22D1
331
22EB
  5
22F0
331
230A
  5
230F
331
2329
  5
232E
331
244F
  5
2454
331
2556
  5
2560
331
2832
  5
2835
331
1FFC
  5
1FFE
331
1F42
  5
1F44
331
1F61
  5
1F63
331
1F80
  5
1F82
331
1FBE
  5
1FC0
331
1FDD
  5
1FDF
331
1F9F
  5
1FA1
331
2357
  5
235C
331
20A6
  5
20A8
331
229D
  5
22A2
331
22BC
  5
22C1
331
22DB
  5
22E0
331
22FA
  5
22FF
331
2319
  5
231E
331
2338
  5
233D
331
2841
  5
2845
331
245E
  5
2551
331
200B
  5
200D
331
1F32
  5
1F34
331
1F51
  5
1F53
331
1F70
  5
1F72
331
1F8F
  5
1F91
331
2087
  5
2089
331
1FAE
  5
1FB0
331
1FCD
  5
1FCF
331
1FEC
  5
1FEE
331
2347
  5
234C
331
2096
  5
2098
331
228D
  5
2292
331
22AC
  5
22B1
331
22CB
  5
22D0
331
22EA
  5
22EF
331
2309
  5
230E
331
2328
  5
232D
331
244E
  5
2453
331
2555
  5
255F
331
2831
  5
2834
331
1FFB
  5
1FFD
331
1F41
  5
1F43
331
1F60
  5
1F62
331
1F7F
  5
1F81
331
2077
  5
2079
331
1FBD
  5
1FBF
331
1FDC
  5
1FDE
331
1F9E
  5
1FA0
331
2337
  5
233C
331
2356
  5
235B
331
20A5
  5
20A7
331
229C
  5
22A1
331
22BB
  5
22C0
331
22F9
  5
22FE
331
2318
  5
231D
331
22DA
  5
22DF
331
2840
  5
2844
331
245D
  5
254E
331
1FEB
  5
1FED
331
200A
  5
200C
331
1F31
  5
1F33
331
1F50
  5
1F52
331
1F6F
  5
1F71
331
2067
  5
2069
331
2086
  5
2088
331
1FAD
  5
1FAF
331
1FCC
  5
1FCE
331
1F8E
  5
1F90
331
2346
  5
234B
331
2095
  5
2097
331
228C
  5
2291
331
22AB
  5
22B0
331
22CA
  5
22CF
331
22E9
  5
22EE
331
2308
  5
230D
331
2327
  5
232C
331
2830
  5
2833
331
244D
  5
2452
331
2769
  5
277B
331
257B
  5
258F
331
1F9D
  5
1F9F
331
1FFA
  5
1FFC
331
1F40
  5
1F42
331
1F5F
  5
1F61
331
1F7E
  5
1F80
331
2057
  5
2059
331
2076
  5
2078
331
1FBC
  5
1FBE
331
1FDB
  5
1FDD
331
2336
  5
233B
331
2355
  5
235A
331
20A4
  5
20A6
331
229B
  5
22A0
331
22BA
  5
22BF
331
22F8
  5
22FD
331
2317
  5
231C
331
22D9
  5
22DE
331
283F
  5
2842
331
245C
  5
254D
331
1FEA
  5
1FEC
331
2009
  5
200B
331
1F30
  5
1F32
331
1F4F
  5
1F51
331
1F6E
  5
1F70
331
2047
  5
2049
331
2066
  5
2068
331
2085
  5
2087
331
1FAC
  5
1FAE
331
1FCB
  5
1FCD
331
1F8D
  5
1F8F
331
2326
  5
232B
331
2345
  5
234A
331
2094
  5
2096
331
228B
  5
228D
331
22AA
  5
22AF
331
22E8
  5
22ED
331
2307
  5
230C
331
22C9
  5
22CE
331
2721
  5
2753
331
282F
  5
2832
331
244C
  5
2451
331
257A
  5
258E
331
1F9C
  5
1F9E
331
1FDA
  5
1FDC
331
1FF9
  5
1FFB
331
1F3F
  5
1F41
331
1F5E
  5
1F60
331
2037
  5
2039
331
2056
  5
2058
331
2075
  5
2077
331
1FBB
  5
1FBD
331
1F7D
  5
1F7F
331
22D8
  5
22DD
331
2335
  5
233A
331
2354
  5
2359
331
20A3
  5
20A5
331
229A
  5
229F
331
22B9
  5
22BE
331
22F7
  5
22FC
331
2316
  5
231B
331
2740
  5
245D
331
283E
  5
2841
331
245B
  5
254C
331
1F8C
  5
1F8E
331
1FE9
  5
1FEB
331
2008
  5
200A
331
1F2F
  5
1F31
331
1F4E
  5
1F50
331
1F6D
  5
1F6F
331
2027
  5
2029
331
2046
  5
2048
331
2065
  5
2067
331
2084
  5
2086
331
1FAB
  5
1FAD
331
1FCA
  5
1FCC
331
2325
  5
232A
331
2344
  5
2349
331
2093
  5
2095
331
22A9
  5
22AE
331
22E7
  5
22EC
331
2306
  5
230B
331
22C8
  5
22CD
331
2720
  5
2750
331
282E
  5
2831
331
244B
  5
2450
331
1F9B
  5
1F9D
331
1FD9
  5
1FDB
331
1FF8
  5
1FFA
331
2017
  5
2019
331
1F3E
  5
1F40
331
1F5D
  5
1F5F
331
2036
  5
2038
331
2055
  5
2057
331
2074
  5
2076
331
1FBA
  5
1FBC
331
1F7C
  5
1F7E
331
2315
  5
231A
331
2334
  5
2339
331
2353
  5
2358
331
20A2
  5
20A4
331
2299
  5
229E
331
22F6
  5
22FB
331
22B8
  5
22BD
331
283D
  5
2840
331
245A
  5
254B
331
1F8B
  5
1F8D
331
1FC9
  5
1FCB
331
1FE8
  5
1FEA
331
2007
  5
2009
331
1F2E
  5
1F30
331
1F4D
  5
1F4F
331
2026
  5
2028
331
2045
  5
2047
331
2064
  5
2066
331
2083
  5
2085
331
1FAA
  5
1FAC
331
1F6C
  5
1F6E
331
2324
  5
2329
331
2343
  5
2348
331
2092
  5
2094
331
22A8
  5
22AD
331
23C7
  5
23CC
331
22E6
  5
22EB
331
2305
  5
230A
331
282D
  5
2830
331
244A
  5
244F
331
1F7B
  5
1F7D
331
1F9A
  5
1F9C
331
1FD8
  5
1FDA
331
1FF7
  5
1FF9
331
2016
  5
2018
331
1F3D
  5
1F3F
331
1F5C
  5
1F5E
331
2035
  5
2037
331
2054
  5
2056
331
2073
  5
2075
331
1FB9
  5
1FBB
331
2314
  5
2319
331
2333
  5
2338
331
2352
  5
2357
331
20A1
  5
20A3
331
2298
  5
229D
331
23B7
  5
23BC
331
22F5
  5
22FA
331
283C
  5
283F
331
2459
  5
245F
331
1F8A
  5
1F8C
331
1FC8
  5
1FCA
331
1FE7
  5
1FE9
331
2006
  5
2008
331
1F2D
  5
1F2F
331
1F4C
  5
1F4E
331
2025
  5
2027
331
2044
  5
2046
331
2063
  5
2065
331
2082
  5
2084
331
1FA9
  5
1FAB
331
1F6B
  5
1F6D
331
2304
  5
2309
331
2323
  5
2328
331
2342
  5
2347
331
2091
  5
2093
331
23A7
  5
23AC
331
23C6
  5
23CB
331
22E5
  5
22EA
331
282C
  5
282F
331
2449
  5
244E
331
1F7A
  5
1F7C
331
1F99
  5
1F9B
331
1FB8
  5
1FBA
331
1FD7
  5
1FD9
331
1FF6
  5
1FF8
331
2015
  5
2017
331
2034
  5
2036
331
2053
  5
2055
331
2072
  5
2074
331
1F3C
  5
1F3E
331
1F5B
  5
1F5D
331
2313
  5
2318
331
2332
  5
2337
331
2351
  5
2356
331
20A0
  5
20A2
331
2397
  5
239C
331
23B6
  5
23BB
331
22F4
  5
22F9
331
283B
  5
283E
331
2458
  5
245E
331
1F6A
  5
1F6C
331
1F89
  5
1F8B
331
1FC7
  5
1FC9
331
1FE6
  5
1FE8
331
2005
  5
2007
331
1F2C
  5
1F2E
331
1F4B
  5
1F4D
331
2024
  5
2026
331
2043
  5
2045
331
2062
  5
2064
331
2081
  5
2083
331
1FA8
  5
1FAA
331
2303
  5
2308
331
2322
  5
2327
331
2341
  5
2346
331
2090
  5
2092
331
23A6
  5
23AB
331
23C5
  5
23CA
331
22E4
  5
22E9
331
2387
  5
238C
331
2754
  5
2751
331
282B
  5
282E
331
2448
  5
244D
331
1F79
  5
1F7B
331
1F98
  5
1F9A
331
1FB7
  5
1FB9
331
1FD6
  5
1FD8
331
1FF5
  5
1FF7
331
2014
  5
2016
331
2033
  5
2035
331
2052
  5
2054
331
2071
  5
2073
331
1F3B
  5
1F3D
331
1F5A
  5
1F5C
331
22F3
  5
22F8
331
2312
  5
2317
331
2396
  5
239B
331
23B5
  5
23BA
331
2331
  5
2336
331
2350
  5
2355
331
2377
  5
237C
331
277B
  5
2826
331
283A
  5
283D
331
1F69
  5
1F6B
331
1F88
  5
1F8A
331
1FA7
  5
1FA9
331
1FC6
  5
1FC8
331
1FE5
  5
1FE7
331
2004
  5
2006
331
1F2B
  5
1F2D
331
2023
  5
2025
331
2042
  5
2044
331
2061
  5
2063
331
2080
  5
2082
331
1F4A
  5
1F4C
331
2302
  5
2307
331
2321
  5
2326
331
2340
  5
2345
331
2386
  5
238B
331
23A5
  5
23AA
331
23C4
  5
23C9
331
2367
  5
236C
331
22E3
  5
22E8
331
2753
  5
2754
331
282A
  5
282D
331
1F59
  5
1F5B
331
1F78
  5
1F7A
331
1FB6
  5
1FB8
331
1FD5
  5
1FD7
331
1FF4
  5
1FF6
331
2013
  5
2015
331
1F3A
  5
1F3C
331
2032
  5
2034
331
2051
  5
2053
331
2070
  5
2072
331
208F
  5
2091
331
22F2
  5
22F7
331
2311
  5
2316
331
2395
  5
239A
331
23B4
  5
23B9
331
2330
  5
2335
331
2376
  5
237B
331
2839
  5
283C
331
1F68
  5
1F6A
331
1FA6
  5
1FA8
331
1FC5
  5
1FC7
331
1FE4
  5
1FE6
331
2003
  5
2005
331
1F2A
  5
1F2C
331
2022
  5
2024
331
2041
  5
2043
331
2060
  5
2062
331
207F
  5
2081
331
1F49
  5
1F4B
331
22E2
  5
22E7
331
2301
  5
2306
331
2320
  5
2325
331
2385
  5
238A
331
23A4
  5
23A9
331
23C3
  5
23C8
331
243F
  5
2444
331
2366
  5
236B
331
2829
  5
282C
331
1F58
  5
1F5A
331
208E
  5
2090
331
1FB5
  5
1FB7
331
1FD4
  5
1FD6
331
1FF3
  5
1FF5
331
2012
  5
2014
331
2031
  5
2033
331
2050
  5
2052
331
206F
  5
2071
331
1F39
  5
1F3B
331
22F1
  5
22F6
331
2310
  5
2315
331
2375
  5
237A
331
2394
  5
2399
331
23B3
  5
23B8
331
242F
  5
2434
331
2838
  5
283B
331
1F48
  5
1F4A
331
1FA5
  5
1FA7
331
1FC4
  5
1FC6
331
1FE3
  5
1FE5
331
2002
  5
2004
331
1F29
  5
1F2B
331
2021
  5
2023
331
2040
  5
2042
331
205F
  5
2061
331
207E
  5
2080
331
22E1
  5
22E6
331
2300
  5
2305
331
2384
  5
2389
331
23A3
  5
23A8
331
23C2
  5
23C7
331
241F
  5
2424
331
243E
  5
2443
331
2365
  5
236A
331
2751
  5
276C
331
2828
  5
282B
331
208D
  5
208F
331
1FB4
  5
1FB6
331
1FD3
  5
1FD5
331
1FF2
  5
1FF4
331
2011
  5
2013
331
2030
  5
2032
331
204F
  5
2051
331
206E
  5
2070
331
1F38
  5
1F3A
331
22F0
  5
22F5
331
2374
  5
2379
331
2393
  5
2398
331
23B2
  5
23B7
331
240F
  5
2414
331
242E
  5
2433
331
207D
  5
207F
331
1FA4
  5
1FA6
331
1FC3
  5
1FC5
331
1FE2
  5
1FE4
331
2001
  5
2003
331
2020
  5
2022
331
203F
  5
2041
331
205E
  5
2060
331
1F28
  5
1F2A
331
22E0
  5
22E5
331
2364
  5
2369
331
2383
  5
2388
331
23A2
  5
23A7
331
23C1
  5
23C6
331
23FF
  5
2404
331
241E
  5
2423
331
243D
  5
2442
331
2750
  5
2769
331
208C
  5
208E
331
1FB3
  5
1FB5
331
1FD2
  5
1FD4
331
1FF1
  5
1FF3
331
2010
  5
2012
331
202F
  5
2031
331
204E
  5
2050
331
206D
  5
206F
331
2373
  5
2378
331
2392
  5
2397
331
23B1
  5
23B6
331
23EF
  5
23F4
331
240E
  5
2413
331
242D
  5
2432
331
207C
  5
207E
331
1FA3
  5
1FA5
331
1FC2
  5
1FC4
331
1FE1
  5
1FE3
331
2000
  5
2002
331
201F
  5
2021
331
203E
  5
2040
331
205D
  5
205F
331
2363
  5
2368
331
2382
  5
2387
331
23A1
  5
23A6
331
23C0
  5
23C5
331
23DF
  5
23E4
331
23FE
  5
2403
331
241D
  5
2422
331
243C
  5
2441
331
206C
  5
206E
331
208B
  5
208D
331
1FB2
  5
1FB4
331
1FD1
  5
1FD3
331
1FF0
  5
1FF2
331
202E
  5
2030
331
204D
  5
204F
331
2372
  5
2377
331
2391
  5
2396
331
23B0
  5
23B5
331
23CF
  5
23D4
331
23EE
  5
23F3
331
240D
  5
2412
331
242C
  5
2431
331
1F1F
  5
1F21
331
207B
  5
207D
331
1FA2
  5
1FA4
331
1FC1
  5
1FC3
331
1FE0
  5
1FE2
331
201E
  5
2020
331
203D
  5
203F
331
205C
  5
205E
331
2362
  5
2367
331
2381
  5
2386
331
23A0
  5
23A5
331
23BF
  5
23C4
331
23DE
  5
23E3
331
23FD
  5
2402
331
241C
  5
2421
331
243B
  5
2440
331
1F0F
  5
1F11
331
206B
  5
206D
331
208A
  5
208C
331
1FB1
  5
1FB3
331
1FD0
  5
1FD2
331
202D
  5
202F
331
204C
  5
204E
331
2371
  5
2376
331
2390
  5
2395
331
23AF
  5
23B4
331
23CE
  5
23D3
331
23ED
  5
23F2
331
240C
  5
2411
331
242B
  5
2430
331
1EFF
  5
1F01
331
1F1E
  5
1F20
331
205B
  5
205D
331
207A
  5
207C
331
1FA1
  5
1FA3
331
1FC0
  5
1FC2
331
201D
  5
201F
331
203C
  5
203E
331
243A
  5
243F
331
2361
  5
2366
331
2380
  5
2385
331
239F
  5
23A4
331
23BE
  5
23C3
331
23DD
  5
23E2
331
23FC
  5
2401
331
241B
  5
2420
331
1EEF
  5
1EF1
331
1F0E
  5
1F10
331
206A
  5
206C
331
2089
  5
208B
331
1FB0
  5
1FB2
331
202C
  5
202E
331
204B
  5
204D
331
2370
  5
2375
331
238F
  5
2394
331
23AE
  5
23B3
331
23CD
  5
23D2
331
23EC
  5
23F1
331
240B
  5
2410
331
242A
  5
242F
331
1EDF
  5
1EE1
331
1EFE
  5
1F00
331
1F1D
  5
1F1F
331
205A
  5
205C
331
2079
  5
207B
331
1FA0
  5
1FA2
331
201C
  5
201E
331
203B
  5
203D
331
2439
  5
243E
331
2360
  5
2365
331
237F
  5
2384
331
239E
  5
23A3
331
23BD
  5
23C2
331
23DC
  5
23E1
331
23FB
  5
2400
331
241A
  5
241F
331
1ECF
  5
1ED1
331
1EEE
  5
1EF0
331
1F0D
  5
1F0F
331
204A
  5
204C
331
2069
  5
206B
331
2088
  5
208A
331
202B
  5
202D
331
2429
  5
242E
331
236F
  5
2374
331
238E
  5
2393
331
23AD
  5
23B2
331
23EB
  5
23F0
331
240A
  5
240F
331
23CC
  5
23D1
331
1EDE
  5
1EE0
331
1EFD
  5
1EFF
331
1F1C
  5
1F1E
331
2059
  5
205B
331
2078
  5
207A
331
201B
  5
201D
331
203A
  5
203C
331
2438
  5
243D
331
235F
  5
2364
331
237E
  5
2383
331
239D
  5
23A2
331
23BC
  5
23C1
331
23DB
  5
23E0
331
23FA
  5
23FF
331
2419
  5
241E
331
1ECE
  5
1ED0
331
1EED
  5
1EEF
331
1F0C
  5
1F0E
331
2049
  5
204B
331
2068
  5
206A
331
202A
  5
202C
331
2428
  5
242D
331
2447
  5
244C
331
236E
  5
2373
331
238D
  5
2392
331
23AC
  5
23B1
331
23EA
  5
23EF
331
2409
  5
240E
331
23CB
  5
23D0
331
1F1B
  5
1F1D
331
1EB7
  5
1EBF
331
1EDD
  5
1EDF
331
1EFC
  5
1EFE
331
2039
  5
203B
331
2058
  5
205A
331
201A
  5
201C
331
2418
  5
241D
331
2437
  5
243C
331
235E
  5
2363
331
237D
  5
2382
331
239C
  5
23A1
331
23DA
  5
23DF
331
23F9
  5
23FE
331
23BB
  5
23C0
331
1EA7
  5
1EA7
331
1ECD
  5
1ECF
331
1EEC
  5
1EEE
331
1F0B
  5
1F0D
331
2048
  5
204A
331
2029
  5
202B
331
23CA
  5
23CF
331
2427
  5
242C
331
2446
  5
244B
331
236D
  5
2372
331
238C
  5
2391
331
23AB
  5
23B0
331
23E9
  5
23EE
331
2408
  5
240D
331
1F1A
  5
1F1C
331
1EB6
  5
1EB8
331
1EDC
  5
1EDE
331
1EFB
  5
1EFD
331
2038
  5
203A
331
2019
  5
201B
331
2417
  5
241C
331
2436
  5
243B
331
235D
  5
2362
331
237C
  5
2381
331
239B
  5
23A0
331
23D9
  5
23DE
331
23F8
  5
23FD
331
23BA
  5
23BF
331
1F0A
  5
1F0C
331
1EA6
  5
1EA6
331
1ECC
  5
1ECE
331
1EEB
  5
1EED
331
2028
  5
202A
331
23C9
  5
23CE
331
2407
  5
240C
331
2426
  5
242B
331
2445
  5
244A
331
236C
  5
2371
331
238B
  5
2390
331
23E8
  5
23ED
331
23AA
  5
23AF
331
1F19
  5
1F1B
331
1EB5
  5
1EB7
331
1EDB
  5
1EDD
331
1EFA
  5
1EFC
331
2018
  5
201A
331
23B9
  5
23BE
331
2416
  5
241B
331
2435
  5
243A
331
235C
  5
2361
331
237B
  5
2380
331
239A
  5
239F
331
23D8
  5
23DD
331
23F7
  5
23FC
331
1F09
  5
1F0B
331
1EA5
  5
1EA5
331
1ECB
  5
1ECD
331
1EEA
  5
1EEC
331
23C8
  5
23CD
331
2406
  5
240B
331
2425
  5
242A
331
2444
  5
2449
331
236B
  5
2370
331
238A
  5
238F
331
23E7
  5
23EC
331
23A9
  5
23AE
331
1EF9
  5
1EFB
331
1F18
  5
1F1A
331
1EB4
  5
1EB6
331
1EDA
  5
1EDC
331
23B8
  5
23BD
331
23F6
  5
23FB
331
2415
  5
241A
331
2434
  5
2439
331
235B
  5
2360
331
237A
  5
237F
331
23D7
  5
23DC
331
2399
  5
239E
331
1F08
  5
1F0A
331
1F27
  5
1F29
331
1EA4
  5
1EA4
331
1ECA
  5
1ECC
331
1EE9
  5
1EEB
331
23A8
  5
23AD
331
2405
  5
240A
331
2424
  5
2429
331
2443
  5
2448
331
236A
  5
236F
331
2389
  5
238E
331
23E6
  5
23EB
331
1EF8
  5
1EFA
331
1F17
  5
1F19
331
1EB3
  5
1EB5
331
1ED9
  5
1EDB
331
22D7
  5
22DC
331
23F5
  5
23FA
331
2414
  5
2419
331
2433
  5
2438
331
235A
  5
235F
331
2379
  5
237E
331
23D6
  5
23DB
331
2398
  5
239D
331
1EE8
  5
1EEA
331
1F07
  5
1F09
331
1F26
  5
1F28
331
1EA3
  5
1EA3
331
1EC9
  5
1ECB
331
22C7
  5
22CC
331
23E5
  5
23EA
331
2404
  5
2409
331
2423
  5
2428
331
2442
  5
2447
331
2369
  5
236E
331
2388
  5
238D
331
1EF7
  5
1EF9
331
1F16
  5
1F18
331
1EB2
  5
1EB4
331
1ED8
  5
1EDA
331
22D6
  5
22DB
331
22B7
  5
22BC
331
23F4
  5
23F9
331
2413
  5
2418
331
2432
  5
2437
331
2359
  5
235E
331
2378
  5
237D
331
273E
  5
2293
331
23D5
  5
23DA
331
1EE7
  5
1EE9
331
1F06
  5
1F08
331
1F25
  5
1F27
331
1EA2
  5
1EA2
331
1EC8
  5
1ECA
331
22C6
  5
22CB
331
22A7
  5
22AC
331
23E4
  5
23E9
331
2403
  5
2408
331
2422
  5
2427
331
2441
  5
2446
331
2368
  5
236D
331
1ED7
  5
1ED9
331
1EF6
  5
1EF8
331
1F15
  5
1F17
331
1EB1
  5
1EB3
331
22B6
  5
22BB
331
22D5
  5
22DA
331
2297
  5
229C
331
23D4
  5
23D9
331
23F3
  5
23F8
331
2412
  5
2417
331
2431
  5
2436
331
2358
  5
235D
331
1EE6
  5
1EE8
331
1F05
  5
1F07
331
1F24
  5
1F26
331
1EA1
  5
1EA1
331
1EC7
  5
1EC9
331
22C5
  5
22CA
331
22A6
  5
22AB
331
23E3
  5
23E8
331
2402
  5
2407
331
2421
  5
2426
331
2440
  5
2445
331
1ED6
  5
1ED8
331
1EF5
  5
1EF7
331
1F14
  5
1F16
331
1EB0
  5
1EB2
331
22B5
  5
22BA
331
22D4
  5
22D9
331
209F
  5
20A1
331
2296
  5
229B
331
23D3
  5
23D8
331
23F2
  5
23F7
331
2411
  5
2416
331
2430
  5
2435
331
1EC6
  5
1EC8
331
1EE5
  5
1EE7
331
1F04
  5
1F06
331
1F23
  5
1F25
331
1EBF
  5
1EC1
331
22A5
  5
22AA
331
22C4
  5
22C9
331
254E
  5
255A
331
23E2
  5
23E7
331
2401
  5
2406
331
2420
  5
2425
331
1ED5
  5
1ED7
331
1EF4
  5
1EF6
331
1F13
  5
1F15
331
1F97
  5
1F99
331
1EAF
  5
1EB1
331
22B4
  5
22B9
331
22D3
  5
22D8
331
234F
  5
2354
331
209E
  5
20A0
331
2295
  5
229A
331
2456
  5
245C
331
23D2
  5
23D7
331
23F1
  5
23F6
331
2410
  5
2415
331
1EC5
  5
1EC7
331
1EE4
  5
1EE6
331
1F87
  5
1F89
331
1F03
  5
1F05
331
1F22
  5
1F24
331
22A4
  5
22A9
331
22C3
  5
22C8
331
233F
  5
2344
331
254D
  5
2559
331
23E1
  5
23E6
331
2400
  5
2405
331
1ED4
  5
1ED6
331
1EF3
  5
1EF5
331
1F12
  5
1F14
331
1F77
  5
1F79
331
1F96
  5
1F98
331
1EAE
  5
1EAF
331
2294
  5
2299
331
22B3
  5
22B8
331
22D2
  5
22D7
331
232F
  5
2334
331
234E
  5
2353
331
209D
  5
209F
331
23D1
  5
23D6
331
23F0
  5
23F5
331
2455
  5
245B
331
255C
  5
256C
331
258B
  5
25A2
331
1EC4
  5
1EC6
331
1EE3
  5
1EE5
331
1F67
  5
1F69
331
1F86
  5
1F88
331
1F02
  5
1F04
331
1F21
  5
1F23
331
22A3
  5
22A8
331
22C2
  5
22C7
331
231F
  5
2324
331
233E
  5
2343
331
20AC
  5
228C
331
23E0
  5
23E5
331
1ED3
  5
1ED5
331
1EF2
  5
1EF4
331
1F57
  5
1F59
331
1F76
  5
1F78
331
1F95
  5
1F97
331
1F11
  5
1F13
331
2293
  5
2298
331
22B2
  5
22B7
331
22D1
  5
22D6
331
230F
  5
2314
331
232E
  5
2333
331
234D
  5
2352
331
209C
  5
209E
331
23D0
  5
23D5
331
2454
  5
2459
331
255B
  5
256B
331
258A
  5
25A1
331
2837
  5
283A
331
1EC3
  5
1EC5
331
1EE2
  5
1EE4
331
1F47
  5
1F49
331
1F66
  5
1F68
331
1F85
  5
1F87
331
1F01
  5
1F03
331
1F20
  5
1F22
331
20AB
  5
228B
331
22A2
  5
22A7
331
22C1
  5
22C6
331
22FF
  5
2304
331
231E
  5
2323
331
233D
  5
2342
331
256A
  5
257F
331
25B1
  5
2741
331
2827
  5
282A
331
2846
  5
2824
331
1ED2
  5
1ED4
331
1EF1
  5
1EF3
331
1F10
  5
1F12
331
1F37
  5
1F39
331
1F56
  5
1F58
331
1F75
  5
1F77
331
1F94
  5
1F96
331
1EAC
  5
1EAC
331
2292
  5
2297
331
22B1
  5
22B6
331
22D0
  5
22D5
331
22EF
  5
22F4
331
230E
  5
2313
331
232D
  5
2332
331
234C
  5
2351
331
209B
  5
209D
331
2453
  5
2458
331
2836
  5
2839
331
1EC2
  5
1EC4
331
1EE1
  5
1EE3
331
1F46
  5
1F48
331
1F65
  5
1F67
331
1F84
  5
1F86
331
1F00
  5
1F02
331
20AA
  5
20AC
331
22A1
  5
22A6
331
22C0
  5
22C5
331
22DF
  5
22E4
331
22FE
  5
2303
331
231D
  5
2322
331
233C
  5
2341
331
2569
  5
257E
331
25B0
  5
2740
331
2826
  5
2829
331
2845
  5
1EAE
331
1EAB
  5
1EAB
331
1ED1
  5
1ED3
331
1EF0
  5
1EF2
331
1F36
  5
1F38
331
1F55
  5
1F57
331
1F74
  5
1F76
331
1F93
  5
1F95
331
200F
  5
2011
331
209A
  5
209C
331
2291
  5
2296
331
22B0
  5
22B5
331
22CF
  5
22D4
331
22EE
  5
22F3
331
230D
  5
2312
331
232C
  5
2331
331
234B
  5
2350
331
2452
  5
2457
331
2835
  5
2838
331
1EC1
  5
1EC3
331
1EE0
  5
1EE2
331
1F45
  5
1F47
331
1F64
  5
1F66
331
1F83
  5
1F85
331
1FFF
  5
2001
331
20A9
  5
20AB
331
22A0
  5
22A5
331
22BF
  5
22C4
331
22DE
  5
22E3
331
22FD
  5
2302
331
231C
  5
2321
331
233B
  5
2340
331
2568
  5
256E
331
2825
  5
2828
331
2844
  5
1EB0
331
1EAA
  5
1EAA
331
1ED0
  5
1ED2
331
1F35
  5
1F37
331
1F54
  5
1F56
331
1F73
  5
1F75
331
1F92
  5
1F94
331
1FEF
  5
1FF1
331
200E
  5
2010
331
2099
  5
209B
331
2290
  5
2295
331
22AF
  5
22B4
331
22CE
  5
22D3
331
22ED
  5
22F2
331
230C
  5
2311
331
232B
  5
2330
331
234A
  5
234F
331
2451
  5
2456
331
2834
  5
2837
331
1EC0
  5
1EC2
331
1F44
  5
1F46
331
1F63
  5
1F65
331
1F82
  5
1F84
331
1FDF
  5
1FE1
331
1FFE
  5
2000
331
20A8
  5
20AA
331
229F
  5
22A4
331
22BE
  5
22C3
331
22DD
  5
22E2
331
22FC
  5
2301
331
231B
  5
2320
331
233A
  5
233F
331
2567
  5
256D
331
2824
  5
2827
331
259E
  5
25B5
331
1EA9
  5
1EA9
331
200D
  5
200F
331
1F34
  5
1F36
331
1F53
  5
1F55
331
1F72
  5
1F74
331
1F91
  5
1F93
331
1FCF
  5
1FD1
331
1FEE
  5
1FF0
331
2098
  5
209A
331
228F
  5
2294
331
22AE
  5
22B3
331
22CD
  5
22D2
331
22EC
  5
22F1
331
230B
  5
2310
331
232A
  5
232F
331
2349
  5
234E
331
2450
  5
2455
331
276C
  5
2825
331
2833
  5
2836
  0
XRECORD
  5
176
102
{ACAD_REACTORS
330
D7
102
}
330
D7
100
AcDbXrecord
280
     1
340
1B
  0
ACDBDETAILVIEWSTYLE
  5
1C7
102
{ACAD_XDICTIONARY
360
468
102
}
102
{ACAD_REACTORS
330
1C6
102
}
330
1C6
100
AcDbModelDocViewStyle
 70
     0
  3
Imperial24
290
     0
100
AcDbDetailViewStyle
 70
     0
 71
     0
 90
        3
 71
     1
340
11
 62
   256
 40
0.24
340
0
 62
   256
 40
0.24
300

 40
0.36
280
     3
 71
     2
340
16
 90
       25
 62
   256
 71
     3
340
11
 62
   256
 40
0.24
 90
        1
 40
0.75
 90
        1
300
%<\AcVar ViewType \f "%tc1">% %<\AcVar ViewDetailId>%\PVARIA %<\AcVar ViewScale \f "%sn">%
 71
     4
340
16
 90
       25
 62
   256
340
16
 90
       25
 62
   256
280
     0
  0
LAYOUT
  5
1C9
102
{ACAD_REACTORS
330
1A
102
}
330
1A
100
AcDbPlotSettings
  1

  2
\\srvadruck01\MFSA15
  4

  6

 40
0.0
 41
0.0
 42
0.0
 43
0.0
 44
0.0
 45
0.0
 46
0.0
 47
0.0
 48
0.0
 49
0.0
140
0.0
141
0.0
142
1.0
143
1.0
 70
   688
 72
     0
 73
     0
 74
     5
  7

 75
    16
147
1.0
 76
     0
 77
     2
 78
   300
148
0.0
149
0.0
100
AcDbLayout
  1
Layout1
 70
     1
 71
     1
 10
0.0
 20
0.0
 11
12.0
 21
9.0
 12
0.0
 22
0.0
 32
0.0
 14
1.000000000000000E+20
 24
1.000000000000000E+20
 34
1.000000000000000E+20
 15
-1.000000000000000E+20
 25
-1.000000000000000E+20
 35
-1.000000000000000E+20
146
0.0
 13
0.0
 23
0.0
 33
0.0
 16
1.0
 26
0.0
 36
0.0
 17
0.0
 27
1.0
 37
0.0
 76
     0
330
1B
  0
LAYOUT
  5
1C8
102
{ACAD_REACTORS
330
1A
102
}
330
1A
100
AcDbPlotSettings
  1

  2
\\srvadruck01\MFSA15
  4
A4
  6

 40
5.027082920074462
 41
5.027099609375
 42
5.027069091796875
 43
5.027069091796875
 44
209.9733276367186
 45
296.9259948730469
 46
0.0
 47
0.0
 48
0.0
 49
0.0
140
0.0
141
0.0
142
1.0
143
250.9557649309207
 70
 11952
 72
     0
 73
     1
 74
     0
  7

 75
     0
147
0.003984766001591
 76
     0
 77
     2
 78
   300
148
18758.74732672532
149
6385.478578639141
100
AcDbLayout
  1
Model
 70
     1
 71
     0
 10
0.0
 20
0.0
 11
12.0
 21
9.0
 12
0.0
 22
0.0
 32
0.0
 14
0.0
 24
0.0
 34
0.0
 15
0.0
 25
0.0
 35
0.0
146
0.0
 13
0.0
 23
0.0
 33
0.0
 16
1.0
 26
0.0
 36
0.0
 17
0.0
 27
1.0
 37
0.0
 76
     0
330
1F
331
155
1001
ACAD_PSEXT
1000
\\srvadruck01\MFSA15
1000
KONICA MINOLTA C754SeriesPCL
1000
Marketing
1000

1070
     0
  0
MATERIAL
  5
183
102
{ACAD_XDICTIONARY
360
184
102
}
102
{ACAD_REACTORS
330
17A
102
}
330
17A
100
AcDbMaterial
  1
ByBlock
 72
     0
 43
0.0208333333333333
 43
0.0
 43
0.0
 43
0.0
 43
0.0
 43
0.0208333333333333
 43
0.0
 43
0.0
 43
0.0
 43
0.0
 43
1.0
 43
0.0
 43
0.0
 43
0.0
 43
0.0
 43
1.0
 77
     0
 47
0.0208333333333333
 47
0.0
 47
0.0
 47
0.0
 47
0.0
 47
0.0208333333333333
 47
0.0
 47
0.0
 47
0.0
 47
0.0
 47
1.0
 47
0.0
 47
0.0
 47
0.0
 47
0.0
 47
1.0
171
     0
 49
0.0208333333333333
 49
0.0
 49
0.0
 49
0.0
 49
0.0
 49
0.0208333333333333
 49
0.0
 49
0.0
 49
0.0
 49
0.0
 49
1.0
 49
0.0
 49
0.0
 49
0.0
 49
0.0
 49
1.0
175
     0
142
0.0208333333333333
142
0.0
142
0.0
142
0.0
142
0.0
142
0.0208333333333333
142
0.0
142
0.0
142
0.0
142
0.0
142
1.0
142
0.0
142
0.0
142
0.0
142
0.0
142
1.0
179
     0
144
0.0208333333333333
144
0.0
144
0.0
144
0.0
144
0.0
144
0.0208333333333333
144
0.0
144
0.0
144
0.0
144
0.0
144
1.0
144
0.0
144
0.0
144
0.0
144
0.0
144
1.0
147
0.0208333333333333
147
0.0
147
0.0
147
0.0
147
0.0
147
0.0208333333333333
147
0.0
147
0.0
147
0.0
147
0.0
147
1.0
147
0.0
147
0.0
147
0.0
147
0.0
147
1.0
  0
MATERIAL
  5
17B
102
{ACAD_XDICTIONARY
360
17C
102
}
102
{ACAD_REACTORS
330
17A
102
}
330
17A
100
AcDbMaterial
  1
ByLayer
 72
     0
 43
0.0208333333333333
 43
0.0
 43
0.0
 43
0.0
 43
0.0
 43
0.0208333333333333
 43
0.0
 43
0.0
 43
0.0
 43
0.0
 43
1.0
 43
0.0
 43
0.0
 43
0.0
 43
0.0
 43
1.0
 77
     0
 47
0.0208333333333333
 47
0.0
 47
0.0
 47
0.0
 47
0.0
 47
0.0208333333333333
 47
0.0
 47
0.0
 47
0.0
 47
0.0
 47
1.0
 47
0.0
 47
0.0
 47
0.0
 47
0.0
 47
1.0
171
     0
 49
0.0208333333333333
 49
0.0
 49
0.0
 49
0.0
 49
0.0
 49
0.0208333333333333
 49
0.0
 49
0.0
 49
0.0
 49
0.0
 49
1.0
 49
0.0
 49
0.0
 49
0.0
 49
0.0
 49
1.0
175
     0
142
0.0208333333333333
142
0.0
142
0.0
142
0.0
142
0.0
142
0.0208333333333333
142
0.0
142
0.0
142
0.0
142
0.0
142
1.0
142
0.0
142
0.0
142
0.0
142
0.0
142
1.0
179
     0
144
0.0208333333333333
144
0.0
144
0.0
144
0.0
144
0.0
144
0.0208333333333333
144
0.0
144
0.0
144
0.0
144
0.0
144
1.0
144
0.0
144
0.0
144
0.0
144
0.0
144
1.0
147
0.0208333333333333
147
0.0
147
0.0
147
0.0
147
0.0
147
0.0208333333333333
147
0.0
147
0.0
147
0.0
147
0.0
147
1.0
147
0.0
147
0.0
147
0.0
147
0.0
147
1.0
  0
MATERIAL
  5
18B
102
{ACAD_XDICTIONARY
360
18C
102
}
102
{ACAD_REACTORS
330
17A
102
}
330
17A
100
AcDbMaterial
  1
Global
 72
     0
 43
0.0208333333333333
 43
0.0
 43
0.0
 43
0.0
 43
0.0
 43
0.0208333333333333
 43
0.0
 43
0.0
 43
0.0
 43
0.0
 43
1.0
 43
0.0
 43
0.0
 43
0.0
 43
0.0
 43
1.0
 77
     0
 47
0.0208333333333333
 47
0.0
 47
0.0
 47
0.0
 47
0.0
 47
0.0208333333333333
 47
0.0
 47
0.0
 47
0.0
 47
0.0
 47
1.0
 47
0.0
 47
0.0
 47
0.0
 47
0.0
 47
1.0
171
     0
 49
0.0208333333333333
 49
0.0
 49
0.0
 49
0.0
 49
0.0
 49
0.0208333333333333
 49
0.0
 49
0.0
 49
0.0
 49
0.0
 49
1.0
 49
0.0
 49
0.0
 49
0.0
 49
0.0
 49
1.0
175
     0
142
0.0208333333333333
142
0.0
142
0.0
142
0.0
142
0.0
142
0.0208333333333333
142
0.0
142
0.0
142
0.0
142
0.0
142
1.0
142
0.0
142
0.0
142
0.0
142
0.0
142
1.0
179
     0
144
0.0208333333333333
144
0.0
144
0.0
144
0.0
144
0.0
144
0.0208333333333333
144
0.0
144
0.0
144
0.0
144
0.0
144
1.0
144
0.0
144
0.0
144
0.0
144
0.0
144
1.0
147
0.0208333333333333
147
0.0
147
0.0
147
0.0
147
0.0
147
0.0208333333333333
147
0.0
147
0.0
147
0.0
147
0.0
147
1.0
147
0.0
147
0.0
147
0.0
147
0.0
147
1.0
  0
MLEADERSTYLE
  5
1C2
102
{ACAD_REACTORS
330
1C1
102
}
330
1C1
100
AcDbMLeaderStyle
179
     2
170
     2
171
     1
172
     0
 90
        2
 40
0.0
 41
0.0
173
     1
 91
-1056964608
340
14
 92
       -2
290
     1
 42
0.09
291
     1
 43
0.36
  3
Standard
 44
0.18
300

342
11
174
     1
178
     6
175
     1
176
     0
 93
-1056964608
 45
0.18
292
     0
297
     0
 46
0.18
 94
-1056964608
 47
1.0
 49
1.0
140
1.0
293
     1
141
0.0
294
     1
177
     0
142
1.0
295
     0
296
     0
143
0.125
271
     0
272
     9
273
     9
  0
MLINESTYLE
  5
18
102
{ACAD_REACTORS
330
17
102
}
330
17
100
AcDbMlineStyle
  2
STANDARD
 70
     0
  3

 62
   256
 51
90.0
 52
90.0
 71
     2
 49
0.5
 62
   256
  6
BYLAYER
 49
-0.5
 62
   256
  6
BYLAYER
  0
ACDBPLACEHOLDER
  5
E0
102
{ACAD_REACTORS
330
DF
102
}
330
DF
  0
SCALE
  5
1B0
102
{ACAD_REACTORS
330
1AF
102
}
330
1AF
100
AcDbScale
 70
     0
300
1:1
140
1.0
141
1.0
290
     1
  0
SCALE
  5
1B1
102
{ACAD_REACTORS
330
1AF
102
}
330
1AF
100
AcDbScale
 70
     0
300
1/128" = 1'-0"
140
0.0078125
141
12.0
290
     0
  0
SCALE
  5
1B2
102
{ACAD_REACTORS
330
1AF
102
}
330
1AF
100
AcDbScale
 70
     0
300
1/64" = 1'-0"
140
0.015625
141
12.0
290
     0
  0
SCALE
  5
1B3
102
{ACAD_REACTORS
330
1AF
102
}
330
1AF
100
AcDbScale
 70
     0
300
1/32" = 1'-0"
140
0.03125
141
12.0
290
     0
  0
SCALE
  5
1B4
102
{ACAD_REACTORS
330
1AF
102
}
330
1AF
100
AcDbScale
 70
     0
300
1/16" = 1'-0"
140
0.0625
141
12.0
290
     0
  0
SCALE
  5
1B5
102
{ACAD_REACTORS
330
1AF
102
}
330
1AF
100
AcDbScale
 70
     0
300
3/32" = 1'-0"
140
0.09375
141
12.0
290
     0
  0
SCALE
  5
1B6
102
{ACAD_REACTORS
330
1AF
102
}
330
1AF
100
AcDbScale
 70
     0
300
1/8" = 1'-0"
140
0.125
141
12.0
290
     0
  0
SCALE
  5
1B7
102
{ACAD_REACTORS
330
1AF
102
}
330
1AF
100
AcDbScale
 70
     0
300
3/16" = 1'-0"
140
0.1875
141
12.0
290
     0
  0
SCALE
  5
1B8
102
{ACAD_REACTORS
330
1AF
102
}
330
1AF
100
AcDbScale
 70
     0
300
1/4" = 1'-0"
140
0.25
141
12.0
290
     0
  0
SCALE
  5
1B9
102
{ACAD_REACTORS
330
1AF
102
}
330
1AF
100
AcDbScale
 70
     0
300
3/8" = 1'-0"
140
0.375
141
12.0
290
     0
  0
SCALE
  5
1BA
102
{ACAD_REACTORS
330
1AF
102
}
330
1AF
100
AcDbScale
 70
     0
300
1/2" = 1'-0"
140
0.5
141
12.0
290
     0
  0
SCALE
  5
1BB
102
{ACAD_REACTORS
330
1AF
102
}
330
1AF
100
AcDbScale
 70
     0
300
3/4" = 1'-0"
140
0.75
141
12.0
290
     0
  0
SCALE
  5
1BC
102
{ACAD_REACTORS
330
1AF
102
}
330
1AF
100
AcDbScale
 70
     0
300
1" = 1'-0"
140
1.0
141
12.0
290
     0
  0
SCALE
  5
1BD
102
{ACAD_REACTORS
330
1AF
102
}
330
1AF
100
AcDbScale
 70
     0
300
1-1/2" = 1'-0"
140
1.5
141
12.0
290
     0
  0
SCALE
  5
1BE
102
{ACAD_REACTORS
330
1AF
102
}
330
1AF
100
AcDbScale
 70
     0
300
3" = 1'-0"
140
3.0
141
12.0
290
     0
  0
SCALE
  5
1BF
102
{ACAD_REACTORS
330
1AF
102
}
330
1AF
100
AcDbScale
 70
     0
300
6" = 1'-0"
140
6.0
141
12.0
290
     0
  0
SCALE
  5
1C0
102
{ACAD_REACTORS
330
1AF
102
}
330
1AF
100
AcDbScale
 70
     0
300
1'-0" = 1'-0"
140
12.0
141
12.0
290
     0
  0
ACDBSECTIONVIEWSTYLE
  5
1C5
102
{ACAD_XDICTIONARY
360
466
102
}
102
{ACAD_REACTORS
330
1C3
102
}
330
1C3
100
AcDbModelDocViewStyle
 70
     0
  3
Imperial24
290
     0
100
AcDbSectionViewStyle
 70
     0
 71
     0
 90
       78
 71
     1
340
11
 62
   256
 40
0.24
340
0
340
0
 62
   256
 40
0.24
300
I, O, Q, S, X, Z
 40
0.48
 90
        3
 40
0.18
 90
        1
 71
     2
340
1C4
 90
       25
 62
   256
340
16
 90
       50
 62
   256
 40
0.24
 40
0.0
 40
0.24
 71
     3
340
11
 62
   256
 40
0.24
 90
        1
 40
0.75
 90
        1
300
%<\AcVar ViewType \f "%tc1">% %<\AcVar ViewSectionStartId>%-%<\AcVar ViewSectionEndId>%\PVARIA %<\AcVar ViewScale \f "%sn">%
 71
     4
 62
   256
 62
   257
300
ANSI31
 40
1.0
 90
        0
290
     0
290
     0
 90
        6
 40
0.0
 40
1.570796326794896
 40
0.2617993877991494
 40
1.308996938995747
 40
-0.2617993877991494
 40
1.832595714594044
  0
TABLESTYLE
  5
1AE
102
{ACAD_XDICTIONARY
360
35F
102
}
102
{ACAD_REACTORS
330
1AD
102
}
330
1AD
100
AcDbTableStyle
280
     0
  3
Standard
 70
     0
 71
     0
 40
0.06
 41
0.06
280
     0
281
     0
  7
STANDARD
140
0.18
170
     2
 62
     0
 63
     7
283
     0
 90
      512
 91
        0
  1

274
    -2
284
     1
 64
     0
275
    -2
285
     1
 65
     0
276
    -2
286
     1
 66
     0
277
    -2
287
     1
 67
     0
278
    -2
288
     1
 68
     0
279
    -2
289
     1
 69
     0
  7
STANDARD
140
0.25
170
     5
 62
     0
 63
     7
283
     0
 90
      512
 91
        0
  1

274
    -2
284
     1
 64
     0
275
    -2
285
     1
 65
     0
276
    -2
286
     1
 66
     0
277
    -2
287
     1
 67
     0
278
    -2
288
     1
 68
     0
279
    -2
289
     1
 69
     0
  7
STANDARD
140
0.18
170
     5
 62
     0
 63
     7
283
     0
 90
      512
 91
        0
  1

274
    -2
284
     1
 64
     0
275
    -2
285
     1
 65
     0
276
    -2
286
     1
 66
     0
277
    -2
287
     1
 67
     0
278
    -2
288
     1
 68
     0
279
    -2
289
     1
 69
     0
  0
VISUALSTYLE
  5
199
102
{ACAD_XDICTIONARY
360
2C02
102
}
102
{ACAD_REACTORS
330
193
102
}
330
193
100
AcDbVisualStyle
  2
2dWireframe
 70
     4
177
     2
291
     0
 71
     0
176
     1
 72
     2
176
     1
 73
     0
176
     1
 90
        0
176
     1
 40
0.6
176
     1
 41
30.0
176
     1
 63
     7
421
 16777215
176
     1
 74
     1
176
     1
 91
        4
176
     1
 64
     7
176
     1
 65
   257
176
     1
 75
     1
176
     1
175
     1
176
     1
 42
1.0
176
     1
 92
        0
176
     1
 66
   257
176
     1
 43
1.0
176
     1
 76
     1
176
     1
 77
     6
176
     1
 78
     2
176
     1
 67
     7
176
     1
 79
     5
176
     1
170
     0
176
     1
171
     0
176
     1
290
     0
176
     1
 93
        1
176
     1
 44
0.0
176
     1
173
     0
176
     1
1001
ACAD
1000
AcDbSavedByObjectVersion
1070
     0
  0
VISUALSTYLE
  5
198
102
{ACAD_XDICTIONARY
360
2C00
102
}
102
{ACAD_REACTORS
330
193
102
}
330
193
100
AcDbVisualStyle
  2
Basic
 70
     7
177
     2
291
     1
 71
     1
176
     1
 72
     0
176
     1
 73
     1
176
     1
 90
        0
176
     1
 40
0.6
176
     1
 41
30.0
176
     1
 63
     7
421
 16777215
176
     1
 74
     0
176
     1
 91
        4
176
     1
 64
     7
176
     1
 65
   257
176
     1
 75
     1
176
     1
175
     1
176
     1
 42
1.0
176
     1
 92
        8
176
     1
 66
     7
176
     1
 43
1.0
176
     1
 76
     1
176
     1
 77
     6
176
     1
 78
     2
176
     1
 67
     7
176
     1
 79
     5
176
     1
170
     0
176
     1
171
     0
176
     1
290
     0
176
     1
 93
        1
176
     1
 44
0.0
176
     1
173
     0
176
     1
1001
ACAD
1000
AcDbSavedByObjectVersion
1070
     0
  0
VISUALSTYLE
  5
19F
102
{ACAD_XDICTIONARY
360
2C0E
102
}
102
{ACAD_REACTORS
330
193
102
}
330
193
100
AcDbVisualStyle
  2
Brighten
 70
    12
177
     2
291
     1
 71
     2
176
     1
 72
     2
176
     1
 73
     0
176
     1
 90
        0
176
     1
 40
0.6
176
     1
 41
30.0
176
     1
 63
     7
421
 16777215
176
     1
 74
     1
176
     1
 91
        4
176
     1
 64
     7
176
     1
 65
   257
176
     1
 75
     1
176
     1
175
     1
176
     1
 42
1.0
176
     1
 92
        8
176
     1
 66
     7
176
     1
 43
1.0
176
     1
 76
     1
176
     1
 77
     6
176
     1
 78
     2
176
     1
 67
     7
176
     1
 79
     5
176
     1
170
     0
176
     1
171
     0
176
     1
290
     0
176
     1
 93
        1
176
     1
 44
50.0
176
     1
173
     0
176
     1
1001
ACAD
1000
AcDbSavedByObjectVersion
1070
     0
  0
VISUALSTYLE
  5
1A3
102
{ACAD_XDICTIONARY
360
2C16
102
}
102
{ACAD_REACTORS
330
193
102
}
330
193
100
AcDbVisualStyle
  2
ColorChange
 70
    16
177
     2
291
     1
 71
     2
176
     1
 72
     2
176
     1
 73
     3
176
     1
 90
        0
176
     1
 40
0.6
176
     1
 41
30.0
176
     1
 63
     8
421
  8421504
176
     1
 74
     1
176
     1
 91
        4
176
     1
 64
     7
176
     1
 65
   257
176
     1
 75
     1
176
     1
175
     1
176
     1
 42
1.0
176
     1
 92
        8
176
     1
 66
     8
424
  8421504
176
     1
 43
1.0
176
     1
 76
     1
176
     1
 77
     6
176
     1
 78
     2
176
     1
 67
     7
176
     1
 79
     5
176
     1
170
     0
176
     1
171
     0
176
     1
290
     0
176
     1
 93
        1
176
     1
 44
0.0
176
     1
173
     0
176
     1
1001
ACAD
1000
AcDbSavedByObjectVersion
1070
     0
  0
VISUALSTYLE
  5
19C
102
{ACAD_XDICTIONARY
360
2C08
102
}
102
{ACAD_REACTORS
330
193
102
}
330
193
100
AcDbVisualStyle
  2
Conceptual
 70
     9
177
     2
291
     0
 71
     3
176
     1
 72
     2
176
     1
 73
     0
176
     1
 90
        0
176
     1
 40
0.6
176
     1
 41
30.0
176
     1
 63
     7
421
 16777215
176
     1
 74
     2
176
     1
 91
        2
176
     1
 64
     7
176
     1
 65
   257
176
     1
 75
     1
176
     1
175
     1
176
     1
 42
179.0
176
     1
 92
        8
176
     1
 66
     7
176
     1
 43
1.0
176
     1
 76
     1
176
     1
 77
     6
176
     1
 78
     2
176
     1
 67
     7
176
     1
 79
     3
176
     1
170
     0
176
     1
171
     0
176
     1
290
     0
176
     1
 93
        1
176
     1
 44
0.0
176
     1
173
     0
176
     1
1001
ACAD
1000
AcDbSavedByObjectVersion
1070
     0
  0
VISUALSTYLE
  5
19E
102
{ACAD_XDICTIONARY
360
2C0C
102
}
102
{ACAD_REACTORS
330
193
102
}
330
193
100
AcDbVisualStyle
  2
Dim
 70
    11
177
     2
291
     1
 71
     2
176
     1
 72
     2
176
     1
 73
     0
176
     1
 90
        0
176
     1
 40
0.6
176
     1
 41
30.0
176
     1
 63
     7
421
 16777215
176
     1
 74
     1
176
     1
 91
        4
176
     1
 64
     7
176
     1
 65
   257
176
     1
 75
     1
176
     1
175
     1
176
     1
 42
1.0
176
     1
 92
        8
176
     1
 66
     7
176
     1
 43
1.0
176
     1
 76
     1
176
     1
 77
     6
176
     1
 78
     2
176
     1
 67
     7
176
     1
 79
     5
176
     1
170
     0
176
     1
171
     0
176
     1
290
     0
176
     1
 93
        1
176
     1
 44
-50.0
176
     1
173
     0
176
     1
1001
ACAD
1000
AcDbSavedByObjectVersion
1070
     0
  0
VISUALSTYLE
  5
1AB
102
{ACAD_XDICTIONARY
360
2C26
102
}
102
{ACAD_REACTORS
330
193
102
}
330
193
100
AcDbVisualStyle
  2
EdgeColorOff
 70
    22
177
     2
291
     1
 71
     2
176
     0
 72
     2
176
     0
 73
     0
176
     0
 90
        0
176
     0
 40
0.6
176
     0
 41
30.0
176
     0
 63
     7
421
 16777215
176
     0
 74
     1
176
     0
 91
        4
176
     0
 64
     7
176
     0
 65
   257
176
     0
 75
     1
176
     0
175
     1
176
     0
 42
1.0
176
     0
 92
        8
176
     2
 66
     7
176
     0
 43
1.0
176
     0
 76
     1
176
     0
 77
     6
176
     0
 78
     2
176
     0
 67
     7
176
     0
 79
     5
176
     0
170
     0
176
     0
171
     0
176
     0
290
     0
176
     0
 93
        1
176
     0
 44
0.0
176
     0
173
     0
176
     0
1001
ACAD
1000
AcDbSavedByObjectVersion
1070
     0
  0
VISUALSTYLE
  5
1A2
102
{ACAD_XDICTIONARY
360
2C14
102
}
102
{ACAD_REACTORS
330
193
102
}
330
193
100
AcDbVisualStyle
  2
Facepattern
 70
    15
177
     2
291
     1
 71
     2
176
     1
 72
     2
176
     1
 73
     0
176
     1
 90
        0
176
     1
 40
0.6
176
     1
 41
30.0
176
     1
 63
     7
421
 16777215
176
     1
 74
     1
176
     1
 91
        4
176
     1
 64
     7
176
     1
 65
   257
176
     1
 75
     1
176
     1
175
     1
176
     1
 42
1.0
176
     1
 92
        8
176
     1
 66
     7
176
     1
 43
1.0
176
     1
 76
     1
176
     1
 77
     6
176
     1
 78
     2
176
     1
 67
     7
176
     1
 79
     5
176
     1
170
     0
176
     1
171
     0
176
     1
290
     0
176
     1
 93
        1
176
     1
 44
0.0
176
     1
173
     0
176
     1
1001
ACAD
1000
AcDbSavedByObjectVersion
1070
     0
  0
VISUALSTYLE
  5
194
102
{ACAD_XDICTIONARY
360
2BF8
102
}
102
{ACAD_REACTORS
330
193
102
}
330
193
100
AcDbVisualStyle
  2
Flat
 70
     0
177
     2
291
     1
 71
     2
176
     1
 72
     1
176
     1
 73
     1
176
     1
 90
        2
176
     1
 40
0.6
176
     1
 41
30.0
176
     1
 63
     7
421
 16777215
176
     1
 74
     0
176
     1
 91
        0
176
     1
 64
     7
176
     1
 65
   257
176
     1
 75
     1
176
     1
175
     1
176
     1
 42
1.0
176
     1
 92
        8
176
     1
 66
     7
176
     1
 43
1.0
176
     1
 76
     1
176
     1
 77
     6
176
     1
 78
     2
176
     1
 67
     7
176
     1
 79
     5
176
     1
170
     0
176
     1
171
     0
176
     1
290
     0
176
     1
 93
       13
176
     1
 44
0.0
176
     1
173
     0
176
     1
1001
ACAD
1000
AcDbSavedByObjectVersion
1070
     0
  0
VISUALSTYLE
  5
195
102
{ACAD_XDICTIONARY
360
2BFA
102
}
102
{ACAD_REACTORS
330
193
102
}
330
193
100
AcDbVisualStyle
  2
FlatWithEdges
 70
     1
177
     2
291
     1
 71
     2
176
     1
 72
     1
176
     1
 73
     1
176
     1
 90
        2
176
     1
 40
0.6
176
     1
 41
30.0
176
     1
 63
     7
421
 16777215
176
     1
 74
     1
176
     1
 91
        0
176
     1
 64
     7
176
     1
 65
   257
176
     1
 75
     1
176
     1
175
     1
176
     1
 42
1.0
176
     1
 92
        0
176
     1
 66
   257
176
     1
 43
1.0
176
     1
 76
     1
176
     1
 77
     6
176
     1
 78
     2
176
     1
 67
     7
176
     1
 79
     5
176
     1
170
     0
176
     1
171
     0
176
     1
290
     0
176
     1
 93
       13
176
     1
 44
0.0
176
     1
173
     0
176
     1
1001
ACAD
1000
AcDbSavedByObjectVersion
1070
     0
  0
VISUALSTYLE
  5
196
102
{ACAD_XDICTIONARY
360
2BFC
102
}
102
{ACAD_REACTORS
330
193
102
}
330
193
100
AcDbVisualStyle
  2
Gouraud
 70
     2
177
     2
291
     1
 71
     2
176
     1
 72
     2
176
     1
 73
     1
176
     1
 90
        2
176
     1
 40
0.6
176
     1
 41
30.0
176
     1
 63
     7
421
 16777215
176
     1
 74
     0
176
     1
 91
        0
176
     1
 64
     7
176
     1
 65
   257
176
     1
 75
     1
176
     1
175
     1
176
     1
 42
1.0
176
     1
 92
        0
176
     1
 66
     7
176
     1
 43
1.0
176
     1
 76
     1
176
     1
 77
     6
176
     1
 78
     2
176
     1
 67
     7
176
     1
 79
     5
176
     1
170
     0
176
     1
171
     0
176
     1
290
     0
176
     1
 93
       13
176
     1
 44
0.0
176
     1
173
     0
176
     1
1001
ACAD
1000
AcDbSavedByObjectVersion
1070
     0
  0
VISUALSTYLE
  5
197
102
{ACAD_XDICTIONARY
360
2BFE
102
}
102
{ACAD_REACTORS
330
193
102
}
330
193
100
AcDbVisualStyle
  2
GouraudWithEdges
 70
     3
177
     2
291
     1
 71
     2
176
     1
 72
     2
176
     1
 73
     1
176
     1
 90
        2
176
     1
 40
0.6
176
     1
 41
30.0
176
     1
 63
     7
421
 16777215
176
     1
 74
     1
176
     1
 91
        0
176
     1
 64
     7
176
     1
 65
   257
176
     1
 75
     1
176
     1
175
     1
176
     1
 42
1.0
176
     1
 92
        0
176
     1
 66
   257
176
     1
 43
1.0
176
     1
 76
     1
176
     1
 77
     6
176
     1
 78
     2
176
     1
 67
     7
176
     1
 79
     5
176
     1
170
     0
176
     1
171
     0
176
     1
290
     0
176
     1
 93
       13
176
     1
 44
0.0
176
     1
173
     0
176
     1
1001
ACAD
1000
AcDbSavedByObjectVersion
1070
     0
  0
VISUALSTYLE
  5
19B
102
{ACAD_XDICTIONARY
360
2C06
102
}
102
{ACAD_REACTORS
330
193
102
}
330
193
100
AcDbVisualStyle
  2
Hidden
 70
     6
177
     2
291
     0
 71
     1
176
     1
 72
     2
176
     1
 73
     2
176
     1
 90
        0
176
     1
 40
0.6
176
     1
 41
30.0
176
     1
 63
     7
421
 16777215
176
     1
 74
     2
176
     1
 91
        2
176
     1
 64
     7
176
     1
 65
   257
176
     1
 75
     2
176
     1
175
     1
176
     1
 42
40.0
176
     1
 92
        0
176
     1
 66
   257
176
     1
 43
1.0
176
     1
 76
     1
176
     1
 77
     6
176
     1
 78
     2
176
     1
 67
     7
176
     1
 79
     3
176
     1
170
     0
176
     1
171
     0
176
     1
290
     0
176
     1
 93
        1
176
     1
 44
0.0
176
     1
173
     0
176
     1
1001
ACAD
1000
AcDbSavedByObjectVersion
1070
     0
  0
VISUALSTYLE
  5
1A9
102
{ACAD_XDICTIONARY
360
2C22
102
}
102
{ACAD_REACTORS
330
193
102
}
330
193
100
AcDbVisualStyle
  2
JitterOff
 70
    20
177
     2
291
     1
 71
     2
176
     0
 72
     2
176
     0
 73
     0
176
     0
 90
        0
176
     0
 40
0.6
176
     0
 41
30.0
176
     0
 63
     7
421
 16777215
176
     0
 74
     1
176
     0
 91
        4
176
     0
 64
     7
176
     0
 65
   257
176
     0
 75
     1
176
     0
175
     1
176
     0
 42
1.0
176
     0
 92
       10
176
     2
 66
     7
176
     0
 43
1.0
176
     0
 76
     1
176
     0
 77
     6
176
     0
 78
     2
176
     0
 67
     7
176
     0
 79
     5
176
     0
170
     0
176
     0
171
     0
176
     0
290
     0
176
     0
 93
        1
176
     0
 44
0.0
176
     0
173
     0
176
     0
1001
ACAD
1000
AcDbSavedByObjectVersion
1070
     0
  0
VISUALSTYLE
  5
1A1
102
{ACAD_XDICTIONARY
360
2C12
102
}
102
{ACAD_REACTORS
330
193
102
}
330
193
100
AcDbVisualStyle
  2
Linepattern
 70
    14
177
     2
291
     1
 71
     2
176
     1
 72
     2
176
     1
 73
     0
176
     1
 90
        0
176
     1
 40
0.6
176
     1
 41
30.0
176
     1
 63
     7
421
 16777215
176
     1
 74
     1
176
     1
 91
        4
176
     1
 64
     7
176
     1
 65
   257
176
     1
 75
     7
176
     1
175
     7
176
     1
 42
1.0
176
     1
 92
        8
176
     1
 66
     7
176
     1
 43
1.0
176
     1
 76
     1
176
     1
 77
     6
176
     1
 78
     2
176
     1
 67
     7
176
     1
 79
     5
176
     1
170
     0
176
     1
171
     0
176
     1
290
     0
176
     1
 93
        1
176
     1
 44
0.0
176
     1
173
     0
176
     1
1001
ACAD
1000
AcDbSavedByObjectVersion
1070
     0
  0
VISUALSTYLE
  5
1AA
102
{ACAD_XDICTIONARY
360
2C24
102
}
102
{ACAD_REACTORS
330
193
102
}
330
193
100
AcDbVisualStyle
  2
OverhangOff
 70
    21
177
     2
291
     1
 71
     2
176
     0
 72
     2
176
     0
 73
     0
176
     0
 90
        0
176
     0
 40
0.6
176
     0
 41
30.0
176
     0
 63
     7
421
 16777215
176
     0
 74
     1
176
     0
 91
        4
176
     0
 64
     7
176
     0
 65
   257
176
     0
 75
     1
176
     0
175
     1
176
     0
 42
1.0
176
     0
 92
        9
176
     2
 66
     7
176
     0
 43
1.0
176
     0
 76
     1
176
     0
 77
     6
176
     0
 78
     2
176
     0
 67
     7
176
     0
 79
     5
176
     0
170
     0
176
     0
171
     0
176
     0
290
     0
176
     0
 93
        1
176
     0
 44
0.0
176
     0
173
     0
176
     0
1001
ACAD
1000
AcDbSavedByObjectVersion
1070
     0
  0
VISUALSTYLE
  5
19D
102
{ACAD_XDICTIONARY
360
2C0A
102
}
102
{ACAD_REACTORS
330
193
102
}
330
193
100
AcDbVisualStyle
  2
Realistic
 70
     8
177
     2
291
     0
 71
     2
176
     1
 72
     3
176
     1
 73
     0
176
     1
 90
        2
176
     1
 40
0.6
176
     1
 41
30.0
176
     1
 63
     7
421
 16777215
176
     1
 74
     0
176
     1
 91
        0
176
     1
 64
     7
176
     1
 65
   257
176
     1
 75
     1
176
     1
175
     1
176
     1
 42
1.0
176
     1
 92
        8
176
     1
 66
   257
176
     1
 43
1.0
176
     1
 76
     1
176
     1
 77
     6
176
     1
 78
     2
176
     1
 67
     7
176
     1
 79
     3
176
     1
170
     0
176
     1
171
     0
176
     1
290
     0
176
     1
 93
       13
176
     1
 44
0.0
176
     1
173
     0
176
     1
1001
ACAD
1000
AcDbSavedByObjectVersion
1070
     0
  0
VISUALSTYLE
  5
1A8
102
{ACAD_XDICTIONARY
360
2C20
102
}
102
{ACAD_REACTORS
330
193
102
}
330
193
100
AcDbVisualStyle
  2
Shaded
 70
    27
177
     2
291
     0
 71
     2
176
     1
 72
     2
176
     1
 73
     1
176
     1
 90
        2
176
     1
 40
0.6
176
     1
 41
30.0
176
     1
 63
     7
421
 16777215
176
     1
 74
     0
176
     1
 91
        4
176
     1
 64
     7
176
     1
 65
   257
176
     1
 75
     1
176
     1
175
     1
176
     1
 42
1.0
176
     1
 92
        8
176
     1
 66
   257
176
     1
 43
1.0
176
     1
 76
     1
176
     1
 77
     6
176
     1
 78
     2
176
     1
 67
     8
425
  7895160
176
     1
 79
     3
176
     1
170
     0
176
     1
171
     0
176
     1
290
     0
176
     1
 93
        5
176
     1
 44
0.0
176
     1
173
     0
176
     1
1001
ACAD
1000
AcDbSavedByObjectVersion
1070
     0
  0
VISUALSTYLE
  5
1A7
102
{ACAD_XDICTIONARY
360
2C1E
102
}
102
{ACAD_REACTORS
330
193
102
}
330
193
100
AcDbVisualStyle
  2
Shaded with edges
 70
    26
177
     2
291
     0
 71
     2
176
     1
 72
     2
176
     1
 73
     1
176
     1
 90
        2
176
     1
 40
0.6
176
     1
 41
30.0
176
     1
 63
     7
421
 16777215
176
     1
 74
     1
176
     1
 91
        2
176
     1
 64
     7
176
     1
 65
   257
176
     1
 75
     2
176
     1
175
     1
176
     1
 42
1.0
176
     1
 92
        8
176
     1
 66
   257
176
     1
 43
1.0
176
     1
 76
     1
176
     1
 77
     6
176
     1
 78
     2
176
     1
 67
     7
176
     1
 79
     3
176
     1
170
     0
176
     1
171
     0
176
     1
290
     0
176
     1
 93
        5
176
     1
 44
0.0
176
     1
173
     0
176
     1
1001
ACAD
1000
AcDbSavedByObjectVersion
1070
     0
  0
VISUALSTYLE
  5
1A4
102
{ACAD_XDICTIONARY
360
2C18
102
}
102
{ACAD_REACTORS
330
193
102
}
330
193
100
AcDbVisualStyle
  2
Shades of Gray
 70
    23
177
     2
291
     0
 71
     2
176
     1
 72
     2
176
     1
 73
     3
176
     1
 90
        0
176
     1
 40
0.6
176
     1
 41
30.0
176
     1
 63
     7
421
 16777215
176
     1
 74
     2
176
     1
 91
        2
176
     1
 64
     7
176
     1
 65
     7
176
     1
 75
     1
176
     1
175
     1
176
     1
 42
40.0
176
     1
 92
        8
176
     1
 66
     7
176
     1
 43
1.0
176
     1
 76
     1
176
     1
 77
     6
176
     1
 78
     2
176
     1
 67
     7
176
     1
 79
     3
176
     1
170
     0
176
     1
171
     0
176
     1
290
     0
176
     1
 93
        1
176
     1
 44
0.0
176
     1
173
     0
176
     1
1001
ACAD
1000
AcDbSavedByObjectVersion
1070
     0
  0
VISUALSTYLE
  5
1A5
102
{ACAD_XDICTIONARY
360
2C1A
102
}
102
{ACAD_REACTORS
330
193
102
}
330
193
100
AcDbVisualStyle
  2
Sketchy
 70
    24
177
     2
291
     0
 71
     1
176
     1
 72
     2
176
     1
 73
     2
176
     1
 90
        0
176
     1
 40
0.6
176
     1
 41
30.0
176
     1
 63
     7
421
 16777215
176
     1
 74
     2
176
     1
 91
        2
176
     1
 64
     7
176
     1
 65
     7
176
     1
 75
     1
176
     1
175
     1
176
     1
 42
40.0
176
     1
 92
       11
176
     1
 66
     7
176
     1
 43
1.0
176
     1
 76
     1
176
     1
 77
     6
176
     1
 78
     2
176
     1
 67
     7
176
     1
 79
     6
176
     1
170
     0
176
     1
171
     0
176
     1
290
     0
176
     1
 93
        1
176
     1
 44
0.0
176
     1
173
     0
176
     1
1001
ACAD
1000
AcDbSavedByObjectVersion
1070
     0
  0
VISUALSTYLE
  5
1A0
102
{ACAD_XDICTIONARY
360
2C10
102
}
102
{ACAD_REACTORS
330
193
102
}
330
193
100
AcDbVisualStyle
  2
Thicken
 70
    13
177
     2
291
     1
 71
     2
176
     1
 72
     2
176
     1
 73
     0
176
     1
 90
        0
176
     1
 40
0.6
176
     1
 41
30.0
176
     1
 63
     7
421
 16777215
176
     1
 74
     1
176
     1
 91
        4
176
     1
 64
     7
176
     1
 65
   257
176
     1
 75
     1
176
     1
175
     1
176
     1
 42
1.0
176
     1
 92
       12
176
     1
 66
     7
176
     1
 43
1.0
176
     1
 76
     1
176
     1
 77
     6
176
     1
 78
     2
176
     1
 67
     7
176
     1
 79
     5
176
     1
170
     0
176
     1
171
     0
176
     1
290
     0
176
     1
 93
        1
176
     1
 44
0.0
176
     1
173
     0
176
     1
1001
ACAD
1000
AcDbSavedByObjectVersion
1070
     0
  0
VISUALSTYLE
  5
19A
102
{ACAD_XDICTIONARY
360
2C04
102
}
102
{ACAD_REACTORS
330
193
102
}
330
193
100
AcDbVisualStyle
  2
Wireframe
 70
     5
177
     2
291
     0
 71
     0
176
     1
 72
     2
176
     1
 73
     0
176
     1
 90
        0
176
     1
 40
0.6
176
     1
 41
30.0
176
     1
 63
     7
421
 16777215
176
     1
 74
     1
176
     1
 91
        4
176
     1
 64
     7
176
     1
 65
   257
176
     1
 75
     1
176
     1
175
     1
176
     1
 42
1.0
176
     1
 92
        0
176
     1
 66
   257
176
     1
 43
1.0
176
     1
 76
     1
176
     1
 77
     6
176
     1
 78
     2
176
     1
 67
     7
176
     1
 79
     3
176
     1
170
     0
176
     1
171
     0
176
     1
290
     0
176
     1
 93
        1
176
     1
 44
0.0
176
     1
173
     0
176
     1
1001
ACAD
1000
AcDbSavedByObjectVersion
1070
     0
  0
VISUALSTYLE
  5
1A6
102
{ACAD_XDICTIONARY
360
2C1C
102
}
102
{ACAD_REACTORS
330
193
102
}
330
193
100
AcDbVisualStyle
  2
X-Ray
 70
    25
177
     2
291
     0
 71
     2
176
     1
 72
     2
176
     1
 73
     1
176
     1
 90
        1
176
     1
 40
0.5
176
     1
 41
30.0
176
     1
 63
     7
421
 16777215
176
     1
 74
     1
176
     1
 91
        0
176
     1
 64
     7
176
     1
 65
   257
176
     1
 75
     1
176
     1
175
     1
176
     1
 42
1.0
176
     1
 92
        8
176
     1
 66
     7
176
     1
 43
1.0
176
     1
 76
     1
176
     1
 77
     6
176
     1
 78
     2
176
     1
 67
     7
176
     1
 79
     3
176
     1
170
     0
176
     1
171
     0
176
     1
290
     0
176
     1
 93
       13
176
     1
 44
0.0
176
     1
173
     0
176
     1
1001
ACAD
1000
AcDbSavedByObjectVersion
1070
     0
  0
DICTIONARYVAR
  5
2D1
102
{ACAD_REACTORS
330
2CB
102
}
330
2CB
100
DictionaryVariables
280
     0
  1
1:1
  0
DICTIONARYVAR
  5
2CD
102
{ACAD_REACTORS
330
2CB
102
}
330
2CB
100
DictionaryVariables
280
     0
  1
STANDARD
  0
DICTIONARYVAR
  5
2CC
102
{ACAD_REACTORS
330
2CB
102
}
330
2CB
100
DictionaryVariables
280
     0
  1
STANDARD
  0
DICTIONARYVAR
  5
2CE
102
{ACAD_REACTORS
330
2CB
102
}
330
2CB
100
DictionaryVariables
280
     0
  1
Imperial24
  0
DICTIONARYVAR
  5
2CF
102
{ACAD_REACTORS
330
2CB
102
}
330
2CB
100
DictionaryVariables
280
     0
  1
Imperial24
  0
DICTIONARYVAR
  5
2D3
102
{ACAD_REACTORS
330
2CB
102
}
330
2CB
100
DictionaryVariables
280
     0
  1
1
  0
DICTIONARYVAR
  5
2D4
102
{ACAD_REACTORS
330
2CB
102
}
330
2CB
100
DictionaryVariables
280
     0
  1
15
  0
DICTIONARYVAR
  5
2D2
102
{ACAD_REACTORS
330
2CB
102
}
330
2CB
100
DictionaryVariables
280
     0
  1
0
  0
DICTIONARYVAR
  5
2D0
102
{ACAD_REACTORS
330
2CB
102
}
330
2CB
100
DictionaryVariables
280
     0
  1
0
  0
DICTIONARY
  5
468
330
1C7
100
AcDbDictionary
280
     1
281
     1
  3
ACAD_XREC_ROUNDTRIP
360
469
  0
DICTIONARY
  5
184
330
183
100
AcDbDictionary
280
     1
281
     1
  3
BUMPTILE
360
186
  3
DIFFUSETILE
360
185
  3
OPACITYTILE
360
189
  3
REFLECTIONTILE
360
188
  3
REFRACTIONTILE
360
18A
  3
SPECULARTILE
360
187
  0
DICTIONARY
  5
17C
330
17B
100
AcDbDictionary
280
     1
281
     1
  3
BUMPTILE
360
17E
  3
DIFFUSETILE
360
17D
  3
OPACITYTILE
360
181
  3
REFLECTIONTILE
360
180
  3
REFRACTIONTILE
360
182
  3
SPECULARTILE
360
17F
  0
DICTIONARY
  5
18C
330
18B
100
AcDbDictionary
280
     1
281
     1
  3
BUMPTILE
360
18E
  3
DIFFUSETILE
360
18D
  3
OPACITYTILE
360
191
  3
REFLECTIONTILE
360
190
  3
REFRACTIONTILE
360
192
  3
SPECULARTILE
360
18F
  0
DICTIONARY
  5
466
330
1C5
100
AcDbDictionary
280
     1
281
     1
  3
ACAD_XREC_ROUNDTRIP
360
467
  0
DICTIONARY
  5
35F
330
1AE
100
AcDbDictionary
280
     1
281
     1
  3
ACAD_ROUNDTRIP_2008_TABLESTYLE_CELLSTYLEMAP
360
2BF6
  0
DICTIONARY
  5
2C02
330
199
100
AcDbDictionary
280
     1
281
     1
  3
ACAD_XREC_ROUNDTRIP
360
2C03
  0
DICTIONARY
  5
2C00
330
198
100
AcDbDictionary
280
     1
281
     1
  3
ACAD_XREC_ROUNDTRIP
360
2C01
  0
DICTIONARY
  5
2C0E
330
19F
100
AcDbDictionary
280
     1
281
     1
  3
ACAD_XREC_ROUNDTRIP
360
2C0F
  0
DICTIONARY
  5
2C16
330
1A3
100
AcDbDictionary
280
     1
281
     1
  3
ACAD_XREC_ROUNDTRIP
360
2C17
  0
DICTIONARY
  5
2C08
330
19C
100
AcDbDictionary
280
     1
281
     1
  3
ACAD_XREC_ROUNDTRIP
360
2C09
  0
DICTIONARY
  5
2C0C
330
19E
100
AcDbDictionary
280
     1
281
     1
  3
ACAD_XREC_ROUNDTRIP
360
2C0D
  0
DICTIONARY
  5
2C26
330
1AB
100
AcDbDictionary
280
     1
281
     1
  3
ACAD_XREC_ROUNDTRIP
360
2C27
  0
DICTIONARY
  5
2C14
330
1A2
100
AcDbDictionary
280
     1
281
     1
  3
ACAD_XREC_ROUNDTRIP
360
2C15
  0
DICTIONARY
  5
2BF8
330
194
100
AcDbDictionary
280
     1
281
     1
  3
ACAD_XREC_ROUNDTRIP
360
2BF9
  0
DICTIONARY
  5
2BFA
330
195
100
AcDbDictionary
280
     1
281
     1
  3
ACAD_XREC_ROUNDTRIP
360
2BFB
  0
DICTIONARY
  5
2BFC
330
196
100
AcDbDictionary
280
     1
281
     1
  3
ACAD_XREC_ROUNDTRIP
360
2BFD
  0
DICTIONARY
  5
2BFE
330
197
100
AcDbDictionary
280
     1
281
     1
  3
ACAD_XREC_ROUNDTRIP
360
2BFF
  0
DICTIONARY
  5
2C06
330
19B
100
AcDbDictionary
280
     1
281
     1
  3
ACAD_XREC_ROUNDTRIP
360
2C07
  0
DICTIONARY
  5
2C22
330
1A9
100
AcDbDictionary
280
     1
281
     1
  3
ACAD_XREC_ROUNDTRIP
360
2C23
  0
DICTIONARY
  5
2C12
330
1A1
100
AcDbDictionary
280
     1
281
     1
  3
ACAD_XREC_ROUNDTRIP
360
2C13
  0
DICTIONARY
  5
2C24
330
1AA
100
AcDbDictionary
280
     1
281
     1
  3
ACAD_XREC_ROUNDTRIP
360
2C25
  0
DICTIONARY
  5
2C0A
330
19D
100
AcDbDictionary
280
     1
281
     1
  3
ACAD_XREC_ROUNDTRIP
360
2C0B
  0
DICTIONARY
  5
2C20
330
1A8
100
AcDbDictionary
280
     1
281
     1
  3
ACAD_XREC_ROUNDTRIP
360
2C21
  0
DICTIONARY
  5
2C1E
330
1A7
100
AcDbDictionary
280
     1
281
     1
  3
ACAD_XREC_ROUNDTRIP
360
2C1F
  0
DICTIONARY
  5
2C18
330
1A4
100
AcDbDictionary
280
     1
281
     1
  3
ACAD_XREC_ROUNDTRIP
360
2C19
  0
DICTIONARY
  5
2C1A
330
1A5
100
AcDbDictionary
280
     1
281
     1
  3
ACAD_XREC_ROUNDTRIP
360
2C1B
  0
DICTIONARY
  5
2C10
330
1A0
100
AcDbDictionary
280
     1
281
     1
  3
ACAD_XREC_ROUNDTRIP
360
2C11
  0
DICTIONARY
  5
2C04
330
19A
100
AcDbDictionary
280
     1
281
     1
  3
ACAD_XREC_ROUNDTRIP
360
2C05
  0
DICTIONARY
  5
2C1C
330
1A6
100
AcDbDictionary
280
     1
281
     1
  3
ACAD_XREC_ROUNDTRIP
360
2C1D
  0
XRECORD
  5
469
102
{ACAD_REACTORS
330
468
102
}
330
468
100
AcDbXrecord
280
     1
102
DISPLAYNAME
  1
Imperial24
102
FLAGS
 90
        0
  0
XRECORD
  5
186
102
{ACAD_REACTORS
330
184
102
}
330
184
100
AcDbXrecord
280
     1
270
     1
271
     1
  0
XRECORD
  5
185
102
{ACAD_REACTORS
330
184
102
}
330
184
100
AcDbXrecord
280
     1
270
     1
271
     1
  0
XRECORD
  5
189
102
{ACAD_REACTORS
330
184
102
}
330
184
100
AcDbXrecord
280
     1
270
     1
271
     1
  0
XRECORD
  5
188
102
{ACAD_REACTORS
330
184
102
}
330
184
100
AcDbXrecord
280
     1
270
     1
271
     1
  0
XRECORD
  5
18A
102
{ACAD_REACTORS
330
184
102
}
330
184
100
AcDbXrecord
280
     1
270
     1
271
     1
  0
XRECORD
  5
187
102
{ACAD_REACTORS
330
184
102
}
330
184
100
AcDbXrecord
280
     1
270
     1
271
     1
  0
XRECORD
  5
17E
102
{ACAD_REACTORS
330
17C
102
}
330
17C
100
AcDbXrecord
280
     1
270
     1
271
     1
  0
XRECORD
  5
17D
102
{ACAD_REACTORS
330
17C
102
}
330
17C
100
AcDbXrecord
280
     1
270
     1
271
     1
  0
XRECORD
  5
181
102
{ACAD_REACTORS
330
17C
102
}
330
17C
100
AcDbXrecord
280
     1
270
     1
271
     1
  0
XRECORD
  5
180
102
{ACAD_REACTORS
330
17C
102
}
330
17C
100
AcDbXrecord
280
     1
270
     1
271
     1
  0
XRECORD
  5
182
102
{ACAD_REACTORS
330
17C
102
}
330
17C
100
AcDbXrecord
280
     1
270
     1
271
     1
  0
XRECORD
  5
17F
102
{ACAD_REACTORS
330
17C
102
}
330
17C
100
AcDbXrecord
280
     1
270
     1
271
     1
  0
XRECORD
  5
18E
102
{ACAD_REACTORS
330
18C
102
}
330
18C
100
AcDbXrecord
280
     1
270
     1
271
     1
  0
XRECORD
  5
18D
102
{ACAD_REACTORS
330
18C
102
}
330
18C
100
AcDbXrecord
280
     1
270
     1
271
     1
  0
XRECORD
  5
191
102
{ACAD_REACTORS
330
18C
102
}
330
18C
100
AcDbXrecord
280
     1
270
     1
271
     1
  0
XRECORD
  5
190
102
{ACAD_REACTORS
330
18C
102
}
330
18C
100
AcDbXrecord
280
     1
270
     1
271
     1
  0
XRECORD
  5
192
102
{ACAD_REACTORS
330
18C
102
}
330
18C
100
AcDbXrecord
280
     1
270
     1
271
     1
  0
XRECORD
  5
18F
102
{ACAD_REACTORS
330
18C
102
}
330
18C
100
AcDbXrecord
280
     1
270
     1
271
     1
  0
XRECORD
  5
467
102
{ACAD_REACTORS
330
466
102
}
330
466
100
AcDbXrecord
280
     1
102
DISPLAYNAME
  1
Imperial24
102
FLAGS
 90
        0
  0
CELLSTYLEMAP
  5
2BF6
102
{ACAD_REACTORS
330
35F
102
}
330
35F
100
AcDbCellStyleMap
 90
        3
300
CELLSTYLE
  1
TABLEFORMAT_BEGIN
 90
        5
170
     1
 91
        0
 92
    32768
 62
   257
 93
        1
300
CONTENTFORMAT
  1
CONTENTFORMAT_BEGIN
 90
        0
 91
        0
 92
      512
 93
        0
300

 40
0.0
140
1.0
 94
        5
 62
     0
340
11
144
0.25
309
CONTENTFORMAT_END
171
     1
301
MARGIN
  1
CELLMARGIN_BEGIN
 40
0.06
 40
0.06
 40
0.06
 40
0.06
 40
0.18
 40
0.18
309
CELLMARGIN_END
 94
        6
 95
        1
302
GRIDFORMAT
  1
GRIDFORMAT_BEGIN
 90
        0
 91
        1
 62
     0
 92
       -2
340
0
 93
        0
 40
0.045
309
GRIDFORMAT_END
 95
        2
302
GRIDFORMAT
  1
GRIDFORMAT_BEGIN
 90
        0
 91
        1
 62
     0
 92
       -2
340
0
 93
        0
 40
0.045
309
GRIDFORMAT_END
 95
        4
302
GRIDFORMAT
  1
GRIDFORMAT_BEGIN
 90
        0
 91
        1
 62
     0
 92
       -2
340
0
 93
        0
 40
0.045
309
GRIDFORMAT_END
 95
        8
302
GRIDFORMAT
  1
GRIDFORMAT_BEGIN
 90
        0
 91
        1
 62
     0
 92
       -2
340
0
 93
        0
 40
0.045
309
GRIDFORMAT_END
 95
       16
302
GRIDFORMAT
  1
GRIDFORMAT_BEGIN
 90
        0
 91
        1
 62
     0
 92
       -2
340
0
 93
        0
 40
0.045
309
GRIDFORMAT_END
 95
       32
302
GRIDFORMAT
  1
GRIDFORMAT_BEGIN
 90
        0
 91
        1
 62
     0
 92
       -2
340
0
 93
        0
 40
0.045
309
GRIDFORMAT_END
309
TABLEFORMAT_END
  1
CELLSTYLE_BEGIN
 90
        1
 91
        1
300
_TITLE
309
CELLSTYLE_END
300
CELLSTYLE
  1
TABLEFORMAT_BEGIN
 90
        5
170
     1
 91
        0
 92
        0
 62
   257
 93
        1
300
CONTENTFORMAT
  1
CONTENTFORMAT_BEGIN
 90
        0
 91
        0
 92
      512
 93
        0
300

 40
0.0
140
1.0
 94
        5
 62
     0
340
11
144
0.18
309
CONTENTFORMAT_END
171
     1
301
MARGIN
  1
CELLMARGIN_BEGIN
 40
0.06
 40
0.06
 40
0.06
 40
0.06
 40
0.18
 40
0.18
309
CELLMARGIN_END
 94
        6
 95
        1
302
GRIDFORMAT
  1
GRIDFORMAT_BEGIN
 90
        0
 91
        1
 62
     0
 92
       -2
340
0
 93
        0
 40
0.045
309
GRIDFORMAT_END
 95
        2
302
GRIDFORMAT
  1
GRIDFORMAT_BEGIN
 90
        0
 91
        1
 62
     0
 92
       -2
340
0
 93
        0
 40
0.045
309
GRIDFORMAT_END
 95
        4
302
GRIDFORMAT
  1
GRIDFORMAT_BEGIN
 90
        0
 91
        1
 62
     0
 92
       -2
340
0
 93
        0
 40
0.045
309
GRIDFORMAT_END
 95
        8
302
GRIDFORMAT
  1
GRIDFORMAT_BEGIN
 90
        0
 91
        1
 62
     0
 92
       -2
340
0
 93
        0
 40
0.045
309
GRIDFORMAT_END
 95
       16
302
GRIDFORMAT
  1
GRIDFORMAT_BEGIN
 90
        0
 91
        1
 62
     0
 92
       -2
340
0
 93
        0
 40
0.045
309
GRIDFORMAT_END
 95
       32
302
GRIDFORMAT
  1
GRIDFORMAT_BEGIN
 90
        0
 91
        1
 62
     0
 92
       -2
340
0
 93
        0
 40
0.045
309
GRIDFORMAT_END
309
TABLEFORMAT_END
  1
CELLSTYLE_BEGIN
 90
        2
 91
        1
300
_HEADER
309
CELLSTYLE_END
300
CELLSTYLE
  1
TABLEFORMAT_BEGIN
 90
        5
170
     1
 91
        0
 92
        0
 62
   257
 93
        1
300
CONTENTFORMAT
  1
CONTENTFORMAT_BEGIN
 90
        0
 91
        0
 92
      512
 93
        0
300

 40
0.0
140
1.0
 94
        2
 62
     0
340
11
144
0.18
309
CONTENTFORMAT_END
171
     1
301
MARGIN
  1
CELLMARGIN_BEGIN
 40
0.06
 40
0.06
 40
0.06
 40
0.06
 40
0.18
 40
0.18
309
CELLMARGIN_END
 94
        6
 95
        1
302
GRIDFORMAT
  1
GRIDFORMAT_BEGIN
 90
        0
 91
        1
 62
     0
 92
       -2
340
0
 93
        0
 40
0.045
309
GRIDFORMAT_END
 95
        2
302
GRIDFORMAT
  1
GRIDFORMAT_BEGIN
 90
        0
 91
        1
 62
     0
 92
       -2
340
0
 93
        0
 40
0.045
309
GRIDFORMAT_END
 95
        4
302
GRIDFORMAT
  1
GRIDFORMAT_BEGIN
 90
        0
 91
        1
 62
     0
 92
       -2
340
0
 93
        0
 40
0.045
309
GRIDFORMAT_END
 95
        8
302
GRIDFORMAT
  1
GRIDFORMAT_BEGIN
 90
        0
 91
        1
 62
     0
 92
       -2
340
0
 93
        0
 40
0.045
309
GRIDFORMAT_END
 95
       16
302
GRIDFORMAT
  1
GRIDFORMAT_BEGIN
 90
        0
 91
        1
 62
     0
 92
       -2
340
0
 93
        0
 40
0.045
309
GRIDFORMAT_END
 95
       32
302
GRIDFORMAT
  1
GRIDFORMAT_BEGIN
 90
        0
 91
        1
 62
     0
 92
       -2
340
0
 93
        0
 40
0.045
309
GRIDFORMAT_END
309
TABLEFORMAT_END
  1
CELLSTYLE_BEGIN
 90
        3
 91
        2
300
_DATA
309
CELLSTYLE_END
  0
XRECORD
  5
2C03
102
{ACAD_REACTORS
330
2C02
102
}
330
2C02
100
AcDbXrecord
280
     1
102
RTVSPost2010Prop28
280
     1
102
RTVSPost2010PropOp28
 70
     1
102
RTVSPost2010Prop29
280
     1
102
RTVSPost2010PropOp29
 70
     1
102
RTVSPost2010Prop30
280
     0
102
RTVSPost2010PropOp30
 70
     1
102
RTVSPost2010Prop31
280
     0
102
RTVSPost2010PropOp31
 70
     1
102
RTVSPost2010Prop32
280
     0
102
RTVSPost2010PropOp32
 70
     1
102
RTVSPost2010Prop33
280
     0
102
RTVSPost2010PropOp33
 70
     1
102
RTVSPost2010Prop34
280
     0
102
RTVSPost2010PropOp34
 70
     1
102
RTVSPost2010Prop35
280
     0
102
RTVSPost2010PropOp35
 70
     1
102
RTVSPost2010Prop36
280
     0
102
RTVSPost2010PropOp36
 70
     1
102
RTVSPost2010Prop37
 90
       50
102
RTVSPost2010PropOp37
 70
     1
102
RTVSPost2010Prop38
140
0.0
102
RTVSPost2010PropOp38
 70
     1
102
RTVSPost2010Prop39
140
1.0
102
RTVSPost2010PropOp39
 70
     1
102
RTVSPost2010Prop40
 90
        0
102
RTVSPost2010PropOp40
 70
     1
102
RTVSPost2010Prop41ColorIndex
 90
       18
102
RTVSPost2010Prop41ColorRGB
 90
        0
102
RTVSPost2010PropOp41
 70
     1
102
RTVSPost2010Prop42
 90
       50
102
RTVSPost2010PropOp42
 70
     1
102
RTVSPost2010Prop43
 90
        3
102
RTVSPost2010PropOp43
 70
     1
102
RTVSPost2010Prop44ColorIndex
 90
        5
102
RTVSPost2010Prop44ColorRGB
 90
      255
102
RTVSPost2010PropOp44
 70
     1
102
RTVSPost2010Prop45
280
     0
102
RTVSPost2010PropOp45
 70
     1
102
RTVSPost2010Prop46
 90
       50
102
RTVSPost2010PropOp46
 70
     1
102
RTVSPost2010Prop47
 90
       50
102
RTVSPost2010PropOp47
 70
     1
102
RTVSPost2010Prop48
 90
       50
102
RTVSPost2010PropOp48
 70
     1
102
RTVSPost2010Prop49
280
     0
102
RTVSPost2010PropOp49
 70
     1
102
RTVSPost2010Prop50
 90
       50
102
RTVSPost2010PropOp50
 70
     1
102
RTVSPost2010Prop51ColorIndex
 90
      256
102
RTVSPost2010Prop51ColorRGB
 90
-16777216
102
RTVSPost2010PropOp51
 70
     0
102
RTVSPost2010Prop52
140
1.0
102
RTVSPost2010PropOp52
 70
     0
102
RTVSPost2010Prop53
 90
        2
102
RTVSPost2010PropOp53
 70
     1
102
RTVSPost2010Prop54
  1
strokes_ogs.tif
102
RTVSPost2010PropOp54
 70
     1
102
RTVSPost2010Prop55
280
     0
102
RTVSPost2010PropOp55
 70
     1
102
RTVSPost2010Prop56
140
1.0
102
RTVSPost2010PropOp56
 70
     1
102
RTVSPost2010Prop57
140
1.0
102
RTVSPost2010PropOp57
 70
     1
  0
XRECORD
  5
2C01
102
{ACAD_REACTORS
330
2C00
102
}
330
2C00
100
AcDbXrecord
280
     1
102
RTVSPost2010Prop28
280
     0
102
RTVSPost2010PropOp28
 70
     1
102
RTVSPost2010Prop29
280
     1
102
RTVSPost2010PropOp29
 70
     1
102
RTVSPost2010Prop30
280
     1
102
RTVSPost2010PropOp30
 70
     1
102
RTVSPost2010Prop31
280
     0
102
RTVSPost2010PropOp31
 70
     1
102
RTVSPost2010Prop32
280
     0
102
RTVSPost2010PropOp32
 70
     1
102
RTVSPost2010Prop33
280
     0
102
RTVSPost2010PropOp33
 70
     1
102
RTVSPost2010Prop34
280
     0
102
RTVSPost2010PropOp34
 70
     1
102
RTVSPost2010Prop35
280
     0
102
RTVSPost2010PropOp35
 70
     1
102
RTVSPost2010Prop36
280
     0
102
RTVSPost2010PropOp36
 70
     1
102
RTVSPost2010Prop37
 90
       50
102
RTVSPost2010PropOp37
 70
     1
102
RTVSPost2010Prop38
140
0.0
102
RTVSPost2010PropOp38
 70
     1
102
RTVSPost2010Prop39
140
1.0
102
RTVSPost2010PropOp39
 70
     1
102
RTVSPost2010Prop40
 90
        0
102
RTVSPost2010PropOp40
 70
     1
102
RTVSPost2010Prop41ColorIndex
 90
       18
102
RTVSPost2010Prop41ColorRGB
 90
        0
102
RTVSPost2010PropOp41
 70
     1
102
RTVSPost2010Prop42
 90
       50
102
RTVSPost2010PropOp42
 70
     1
102
RTVSPost2010Prop43
 90
        3
102
RTVSPost2010PropOp43
 70
     1
102
RTVSPost2010Prop44ColorIndex
 90
        5
102
RTVSPost2010Prop44ColorRGB
 90
      255
102
RTVSPost2010PropOp44
 70
     1
102
RTVSPost2010Prop45
280
     0
102
RTVSPost2010PropOp45
 70
     1
102
RTVSPost2010Prop46
 90
       50
102
RTVSPost2010PropOp46
 70
     1
102
RTVSPost2010Prop47
 90
       50
102
RTVSPost2010PropOp47
 70
     1
102
RTVSPost2010Prop48
 90
       50
102
RTVSPost2010PropOp48
 70
     1
102
RTVSPost2010Prop49
280
     0
102
RTVSPost2010PropOp49
 70
     1
102
RTVSPost2010Prop50
 90
       50
102
RTVSPost2010PropOp50
 70
     1
102
RTVSPost2010Prop51ColorIndex
 90
      256
102
RTVSPost2010Prop51ColorRGB
 90
-16777216
102
RTVSPost2010PropOp51
 70
     0
102
RTVSPost2010Prop52
140
1.0
102
RTVSPost2010PropOp52
 70
     0
102
RTVSPost2010Prop53
 90
        2
102
RTVSPost2010PropOp53
 70
     1
102
RTVSPost2010Prop54
  1
strokes_ogs.tif
102
RTVSPost2010PropOp54
 70
     1
102
RTVSPost2010Prop55
280
     0
102
RTVSPost2010PropOp55
 70
     1
102
RTVSPost2010Prop56
140
1.0
102
RTVSPost2010PropOp56
 70
     1
102
RTVSPost2010Prop57
140
1.0
102
RTVSPost2010PropOp57
 70
     1
  0
XRECORD
  5
2C0F
102
{ACAD_REACTORS
330
2C0E
102
}
330
2C0E
100
AcDbXrecord
280
     1
102
RTVSPost2010Prop28
280
     0
102
RTVSPost2010PropOp28
 70
     1
102
RTVSPost2010Prop29
280
     1
102
RTVSPost2010PropOp29
 70
     1
102
RTVSPost2010Prop30
280
     1
102
RTVSPost2010PropOp30
 70
     1
102
RTVSPost2010Prop31
280
     0
102
RTVSPost2010PropOp31
 70
     1
102
RTVSPost2010Prop32
280
     0
102
RTVSPost2010PropOp32
 70
     1
102
RTVSPost2010Prop33
280
     0
102
RTVSPost2010PropOp33
 70
     1
102
RTVSPost2010Prop34
280
     0
102
RTVSPost2010PropOp34
 70
     1
102
RTVSPost2010Prop35
280
     0
102
RTVSPost2010PropOp35
 70
     1
102
RTVSPost2010Prop36
280
     0
102
RTVSPost2010PropOp36
 70
     1
102
RTVSPost2010Prop37
 90
       50
102
RTVSPost2010PropOp37
 70
     1
102
RTVSPost2010Prop38
140
0.0
102
RTVSPost2010PropOp38
 70
     1
102
RTVSPost2010Prop39
140
1.0
102
RTVSPost2010PropOp39
 70
     1
102
RTVSPost2010Prop40
 90
        0
102
RTVSPost2010PropOp40
 70
     1
102
RTVSPost2010Prop41ColorIndex
 90
       18
102
RTVSPost2010Prop41ColorRGB
 90
        0
102
RTVSPost2010PropOp41
 70
     1
102
RTVSPost2010Prop42
 90
       50
102
RTVSPost2010PropOp42
 70
     1
102
RTVSPost2010Prop43
 90
        3
102
RTVSPost2010PropOp43
 70
     1
102
RTVSPost2010Prop44ColorIndex
 90
        5
102
RTVSPost2010Prop44ColorRGB
 90
      255
102
RTVSPost2010PropOp44
 70
     1
102
RTVSPost2010Prop45
280
     0
102
RTVSPost2010PropOp45
 70
     1
102
RTVSPost2010Prop46
 90
       50
102
RTVSPost2010PropOp46
 70
     1
102
RTVSPost2010Prop47
 90
       50
102
RTVSPost2010PropOp47
 70
     1
102
RTVSPost2010Prop48
 90
       50
102
RTVSPost2010PropOp48
 70
     1
102
RTVSPost2010Prop49
280
     0
102
RTVSPost2010PropOp49
 70
     1
102
RTVSPost2010Prop50
 90
       50
102
RTVSPost2010PropOp50
 70
     1
102
RTVSPost2010Prop51ColorIndex
 90
      256
102
RTVSPost2010Prop51ColorRGB
 90
-16777216
102
RTVSPost2010PropOp51
 70
     0
102
RTVSPost2010Prop52
140
1.0
102
RTVSPost2010PropOp52
 70
     0
102
RTVSPost2010Prop53
 90
        2
102
RTVSPost2010PropOp53
 70
     1
102
RTVSPost2010Prop54
  1
strokes_ogs.tif
102
RTVSPost2010PropOp54
 70
     1
102
RTVSPost2010Prop55
280
     0
102
RTVSPost2010PropOp55
 70
     1
102
RTVSPost2010Prop56
140
1.0
102
RTVSPost2010PropOp56
 70
     1
102
RTVSPost2010Prop57
140
1.0
102
RTVSPost2010PropOp57
 70
     1
  0
XRECORD
  5
2C17
102
{ACAD_REACTORS
330
2C16
102
}
330
2C16
100
AcDbXrecord
280
     1
102
RTVSPost2010Prop28
280
     0
102
RTVSPost2010PropOp28
 70
     1
102
RTVSPost2010Prop29
280
     1
102
RTVSPost2010PropOp29
 70
     1
102
RTVSPost2010Prop30
280
     1
102
RTVSPost2010PropOp30
 70
     1
102
RTVSPost2010Prop31
280
     0
102
RTVSPost2010PropOp31
 70
     1
102
RTVSPost2010Prop32
280
     0
102
RTVSPost2010PropOp32
 70
     1
102
RTVSPost2010Prop33
280
     0
102
RTVSPost2010PropOp33
 70
     1
102
RTVSPost2010Prop34
280
     0
102
RTVSPost2010PropOp34
 70
     1
102
RTVSPost2010Prop35
280
     0
102
RTVSPost2010PropOp35
 70
     1
102
RTVSPost2010Prop36
280
     0
102
RTVSPost2010PropOp36
 70
     1
102
RTVSPost2010Prop37
 90
       50
102
RTVSPost2010PropOp37
 70
     1
102
RTVSPost2010Prop38
140
0.0
102
RTVSPost2010PropOp38
 70
     1
102
RTVSPost2010Prop39
140
1.0
102
RTVSPost2010PropOp39
 70
     1
102
RTVSPost2010Prop40
 90
        0
102
RTVSPost2010PropOp40
 70
     1
102
RTVSPost2010Prop41ColorIndex
 90
       18
102
RTVSPost2010Prop41ColorRGB
 90
        0
102
RTVSPost2010PropOp41
 70
     1
102
RTVSPost2010Prop42
 90
       50
102
RTVSPost2010PropOp42
 70
     1
102
RTVSPost2010Prop43
 90
        3
102
RTVSPost2010PropOp43
 70
     1
102
RTVSPost2010Prop44ColorIndex
 90
        5
102
RTVSPost2010Prop44ColorRGB
 90
      255
102
RTVSPost2010PropOp44
 70
     1
102
RTVSPost2010Prop45
280
     0
102
RTVSPost2010PropOp45
 70
     1
102
RTVSPost2010Prop46
 90
       50
102
RTVSPost2010PropOp46
 70
     1
102
RTVSPost2010Prop47
 90
       50
102
RTVSPost2010PropOp47
 70
     1
102
RTVSPost2010Prop48
 90
       50
102
RTVSPost2010PropOp48
 70
     1
102
RTVSPost2010Prop49
280
     0
102
RTVSPost2010PropOp49
 70
     1
102
RTVSPost2010Prop50
 90
       50
102
RTVSPost2010PropOp50
 70
     1
102
RTVSPost2010Prop51ColorIndex
 90
      256
102
RTVSPost2010Prop51ColorRGB
 90
-16777216
102
RTVSPost2010PropOp51
 70
     0
102
RTVSPost2010Prop52
140
1.0
102
RTVSPost2010PropOp52
 70
     0
102
RTVSPost2010Prop53
 90
        2
102
RTVSPost2010PropOp53
 70
     1
102
RTVSPost2010Prop54
  1
strokes_ogs.tif
102
RTVSPost2010PropOp54
 70
     1
102
RTVSPost2010Prop55
280
     0
102
RTVSPost2010PropOp55
 70
     1
102
RTVSPost2010Prop56
140
1.0
102
RTVSPost2010PropOp56
 70
     1
102
RTVSPost2010Prop57
140
1.0
102
RTVSPost2010PropOp57
 70
     1
  0
XRECORD
  5
2C09
102
{ACAD_REACTORS
330
2C08
102
}
330
2C08
100
AcDbXrecord
280
     1
102
RTVSPost2010Prop28
280
     0
102
RTVSPost2010PropOp28
 70
     1
102
RTVSPost2010Prop29
280
     1
102
RTVSPost2010PropOp29
 70
     1
102
RTVSPost2010Prop30
280
     1
102
RTVSPost2010PropOp30
 70
     1
102
RTVSPost2010Prop31
280
     0
102
RTVSPost2010PropOp31
 70
     1
102
RTVSPost2010Prop32
280
     0
102
RTVSPost2010PropOp32
 70
     1
102
RTVSPost2010Prop33
280
     0
102
RTVSPost2010PropOp33
 70
     1
102
RTVSPost2010Prop34
280
     0
102
RTVSPost2010PropOp34
 70
     1
102
RTVSPost2010Prop35
280
     0
102
RTVSPost2010PropOp35
 70
     1
102
RTVSPost2010Prop36
280
     0
102
RTVSPost2010PropOp36
 70
     1
102
RTVSPost2010Prop37
 90
       50
102
RTVSPost2010PropOp37
 70
     1
102
RTVSPost2010Prop38
140
0.0
102
RTVSPost2010PropOp38
 70
     1
102
RTVSPost2010Prop39
140
1.0
102
RTVSPost2010PropOp39
 70
     1
102
RTVSPost2010Prop40
 90
        0
102
RTVSPost2010PropOp40
 70
     1
102
RTVSPost2010Prop41ColorIndex
 90
       18
102
RTVSPost2010Prop41ColorRGB
 90
        0
102
RTVSPost2010PropOp41
 70
     1
102
RTVSPost2010Prop42
 90
       50
102
RTVSPost2010PropOp42
 70
     1
102
RTVSPost2010Prop43
 90
        3
102
RTVSPost2010PropOp43
 70
     1
102
RTVSPost2010Prop44ColorIndex
 90
        5
102
RTVSPost2010Prop44ColorRGB
 90
      255
102
RTVSPost2010PropOp44
 70
     1
102
RTVSPost2010Prop45
280
     0
102
RTVSPost2010PropOp45
 70
     1
102
RTVSPost2010Prop46
 90
       50
102
RTVSPost2010PropOp46
 70
     1
102
RTVSPost2010Prop47
 90
       50
102
RTVSPost2010PropOp47
 70
     1
102
RTVSPost2010Prop48
 90
       50
102
RTVSPost2010PropOp48
 70
     1
102
RTVSPost2010Prop49
280
     0
102
RTVSPost2010PropOp49
 70
     1
102
RTVSPost2010Prop50
 90
       50
102
RTVSPost2010PropOp50
 70
     1
102
RTVSPost2010Prop51ColorIndex
 90
      256
102
RTVSPost2010Prop51ColorRGB
 90
-16777216
102
RTVSPost2010PropOp51
 70
     0
102
RTVSPost2010Prop52
140
1.0
102
RTVSPost2010PropOp52
 70
     0
102
RTVSPost2010Prop53
 90
        2
102
RTVSPost2010PropOp53
 70
     1
102
RTVSPost2010Prop54
  1
strokes_ogs.tif
102
RTVSPost2010PropOp54
 70
     1
102
RTVSPost2010Prop55
280
     0
102
RTVSPost2010PropOp55
 70
     1
102
RTVSPost2010Prop56
140
1.0
102
RTVSPost2010PropOp56
 70
     1
102
RTVSPost2010Prop57
140
1.0
102
RTVSPost2010PropOp57
 70
     1
  0
XRECORD
  5
2C0D
102
{ACAD_REACTORS
330
2C0C
102
}
330
2C0C
100
AcDbXrecord
280
     1
102
RTVSPost2010Prop28
280
     0
102
RTVSPost2010PropOp28
 70
     1
102
RTVSPost2010Prop29
280
     1
102
RTVSPost2010PropOp29
 70
     1
102
RTVSPost2010Prop30
280
     1
102
RTVSPost2010PropOp30
 70
     1
102
RTVSPost2010Prop31
280
     0
102
RTVSPost2010PropOp31
 70
     1
102
RTVSPost2010Prop32
280
     0
102
RTVSPost2010PropOp32
 70
     1
102
RTVSPost2010Prop33
280
     0
102
RTVSPost2010PropOp33
 70
     1
102
RTVSPost2010Prop34
280
     0
102
RTVSPost2010PropOp34
 70
     1
102
RTVSPost2010Prop35
280
     0
102
RTVSPost2010PropOp35
 70
     1
102
RTVSPost2010Prop36
280
     0
102
RTVSPost2010PropOp36
 70
     1
102
RTVSPost2010Prop37
 90
       50
102
RTVSPost2010PropOp37
 70
     1
102
RTVSPost2010Prop38
140
0.0
102
RTVSPost2010PropOp38
 70
     1
102
RTVSPost2010Prop39
140
1.0
102
RTVSPost2010PropOp39
 70
     1
102
RTVSPost2010Prop40
 90
        0
102
RTVSPost2010PropOp40
 70
     1
102
RTVSPost2010Prop41ColorIndex
 90
       18
102
RTVSPost2010Prop41ColorRGB
 90
        0
102
RTVSPost2010PropOp41
 70
     1
102
RTVSPost2010Prop42
 90
       50
102
RTVSPost2010PropOp42
 70
     1
102
RTVSPost2010Prop43
 90
        3
102
RTVSPost2010PropOp43
 70
     1
102
RTVSPost2010Prop44ColorIndex
 90
        5
102
RTVSPost2010Prop44ColorRGB
 90
      255
102
RTVSPost2010PropOp44
 70
     1
102
RTVSPost2010Prop45
280
     0
102
RTVSPost2010PropOp45
 70
     1
102
RTVSPost2010Prop46
 90
       50
102
RTVSPost2010PropOp46
 70
     1
102
RTVSPost2010Prop47
 90
       50
102
RTVSPost2010PropOp47
 70
     1
102
RTVSPost2010Prop48
 90
       50
102
RTVSPost2010PropOp48
 70
     1
102
RTVSPost2010Prop49
280
     0
102
RTVSPost2010PropOp49
 70
     1
102
RTVSPost2010Prop50
 90
       50
102
RTVSPost2010PropOp50
 70
     1
102
RTVSPost2010Prop51ColorIndex
 90
      256
102
RTVSPost2010Prop51ColorRGB
 90
-16777216
102
RTVSPost2010PropOp51
 70
     0
102
RTVSPost2010Prop52
140
1.0
102
RTVSPost2010PropOp52
 70
     0
102
RTVSPost2010Prop53
 90
        2
102
RTVSPost2010PropOp53
 70
     1
102
RTVSPost2010Prop54
  1
strokes_ogs.tif
102
RTVSPost2010PropOp54
 70
     1
102
RTVSPost2010Prop55
280
     0
102
RTVSPost2010PropOp55
 70
     1
102
RTVSPost2010Prop56
140
1.0
102
RTVSPost2010PropOp56
 70
     1
102
RTVSPost2010Prop57
140
1.0
102
RTVSPost2010PropOp57
 70
     1
  0
XRECORD
  5
2C27
102
{ACAD_REACTORS
330
2C26
102
}
330
2C26
100
AcDbXrecord
280
     1
102
RTVSPost2010Prop28
280
     0
102
RTVSPost2010PropOp28
 70
     1
102
RTVSPost2010Prop29
280
     1
102
RTVSPost2010PropOp29
 70
     1
102
RTVSPost2010Prop30
280
     1
102
RTVSPost2010PropOp30
 70
     1
102
RTVSPost2010Prop31
280
     0
102
RTVSPost2010PropOp31
 70
     1
102
RTVSPost2010Prop32
280
     0
102
RTVSPost2010PropOp32
 70
     1
102
RTVSPost2010Prop33
280
     0
102
RTVSPost2010PropOp33
 70
     1
102
RTVSPost2010Prop34
280
     0
102
RTVSPost2010PropOp34
 70
     1
102
RTVSPost2010Prop35
280
     0
102
RTVSPost2010PropOp35
 70
     1
102
RTVSPost2010Prop36
280
     0
102
RTVSPost2010PropOp36
 70
     1
102
RTVSPost2010Prop37
 90
       50
102
RTVSPost2010PropOp37
 70
     0
102
RTVSPost2010Prop38
140
0.0
102
RTVSPost2010PropOp38
 70
     0
102
RTVSPost2010Prop39
140
1.0
102
RTVSPost2010PropOp39
 70
     0
102
RTVSPost2010Prop40
 90
        0
102
RTVSPost2010PropOp40
 70
     0
102
RTVSPost2010Prop41ColorIndex
 90
       18
102
RTVSPost2010Prop41ColorRGB
 90
        0
102
RTVSPost2010PropOp41
 70
     0
102
RTVSPost2010Prop42
 90
       50
102
RTVSPost2010PropOp42
 70
     0
102
RTVSPost2010Prop43
 90
        3
102
RTVSPost2010PropOp43
 70
     0
102
RTVSPost2010Prop44ColorIndex
 90
        5
102
RTVSPost2010Prop44ColorRGB
 90
      255
102
RTVSPost2010PropOp44
 70
     0
102
RTVSPost2010Prop45
280
     0
102
RTVSPost2010PropOp45
 70
     1
102
RTVSPost2010Prop46
 90
       50
102
RTVSPost2010PropOp46
 70
     0
102
RTVSPost2010Prop47
 90
       50
102
RTVSPost2010PropOp47
 70
     0
102
RTVSPost2010Prop48
 90
       50
102
RTVSPost2010PropOp48
 70
     0
102
RTVSPost2010Prop49
280
     0
102
RTVSPost2010PropOp49
 70
     1
102
RTVSPost2010Prop50
 90
       50
102
RTVSPost2010PropOp50
 70
     0
102
RTVSPost2010Prop51ColorIndex
 90
      256
102
RTVSPost2010Prop51ColorRGB
 90
-16777216
102
RTVSPost2010PropOp51
 70
     0
102
RTVSPost2010Prop52
140
1.0
102
RTVSPost2010PropOp52
 70
     0
102
RTVSPost2010Prop53
 90
        2
102
RTVSPost2010PropOp53
 70
     0
102
RTVSPost2010Prop54
  1
strokes_ogs.tif
102
RTVSPost2010PropOp54
 70
     0
102
RTVSPost2010Prop55
280
     0
102
RTVSPost2010PropOp55
 70
     1
102
RTVSPost2010Prop56
140
1.0
102
RTVSPost2010PropOp56
 70
     0
102
RTVSPost2010Prop57
140
1.0
102
RTVSPost2010PropOp57
 70
     0
  0
XRECORD
  5
2C15
102
{ACAD_REACTORS
330
2C14
102
}
330
2C14
100
AcDbXrecord
280
     1
102
RTVSPost2010Prop28
280
     0
102
RTVSPost2010PropOp28
 70
     1
102
RTVSPost2010Prop29
280
     1
102
RTVSPost2010PropOp29
 70
     1
102
RTVSPost2010Prop30
280
     1
102
RTVSPost2010PropOp30
 70
     1
102
RTVSPost2010Prop31
280
     0
102
RTVSPost2010PropOp31
 70
     1
102
RTVSPost2010Prop32
280
     0
102
RTVSPost2010PropOp32
 70
     1
102
RTVSPost2010Prop33
280
     0
102
RTVSPost2010PropOp33
 70
     1
102
RTVSPost2010Prop34
280
     0
102
RTVSPost2010PropOp34
 70
     1
102
RTVSPost2010Prop35
280
     0
102
RTVSPost2010PropOp35
 70
     1
102
RTVSPost2010Prop36
280
     0
102
RTVSPost2010PropOp36
 70
     1
102
RTVSPost2010Prop37
 90
       50
102
RTVSPost2010PropOp37
 70
     1
102
RTVSPost2010Prop38
140
0.0
102
RTVSPost2010PropOp38
 70
     1
102
RTVSPost2010Prop39
140
1.0
102
RTVSPost2010PropOp39
 70
     1
102
RTVSPost2010Prop40
 90
        0
102
RTVSPost2010PropOp40
 70
     1
102
RTVSPost2010Prop41ColorIndex
 90
       18
102
RTVSPost2010Prop41ColorRGB
 90
        0
102
RTVSPost2010PropOp41
 70
     1
102
RTVSPost2010Prop42
 90
       50
102
RTVSPost2010PropOp42
 70
     1
102
RTVSPost2010Prop43
 90
        3
102
RTVSPost2010PropOp43
 70
     1
102
RTVSPost2010Prop44ColorIndex
 90
        5
102
RTVSPost2010Prop44ColorRGB
 90
      255
102
RTVSPost2010PropOp44
 70
     1
102
RTVSPost2010Prop45
280
     0
102
RTVSPost2010PropOp45
 70
     1
102
RTVSPost2010Prop46
 90
       50
102
RTVSPost2010PropOp46
 70
     1
102
RTVSPost2010Prop47
 90
       50
102
RTVSPost2010PropOp47
 70
     1
102
RTVSPost2010Prop48
 90
       50
102
RTVSPost2010PropOp48
 70
     1
102
RTVSPost2010Prop49
280
     0
102
RTVSPost2010PropOp49
 70
     1
102
RTVSPost2010Prop50
 90
       50
102
RTVSPost2010PropOp50
 70
     1
102
RTVSPost2010Prop51ColorIndex
 90
      256
102
RTVSPost2010Prop51ColorRGB
 90
-16777216
102
RTVSPost2010PropOp51
 70
     0
102
RTVSPost2010Prop52
140
1.0
102
RTVSPost2010PropOp52
 70
     0
102
RTVSPost2010Prop53
 90
        2
102
RTVSPost2010PropOp53
 70
     1
102
RTVSPost2010Prop54
  1
strokes_ogs.tif
102
RTVSPost2010PropOp54
 70
     1
102
RTVSPost2010Prop55
280
     0
102
RTVSPost2010PropOp55
 70
     1
102
RTVSPost2010Prop56
140
1.0
102
RTVSPost2010PropOp56
 70
     1
102
RTVSPost2010Prop57
140
1.0
102
RTVSPost2010PropOp57
 70
     1
  0
XRECORD
  5
2BF9
102
{ACAD_REACTORS
330
2BF8
102
}
330
2BF8
100
AcDbXrecord
280
     1
102
RTVSPost2010Prop28
280
     0
102
RTVSPost2010PropOp28
 70
     1
102
RTVSPost2010Prop29
280
     1
102
RTVSPost2010PropOp29
 70
     1
102
RTVSPost2010Prop30
280
     1
102
RTVSPost2010PropOp30
 70
     1
102
RTVSPost2010Prop31
280
     0
102
RTVSPost2010PropOp31
 70
     1
102
RTVSPost2010Prop32
280
     0
102
RTVSPost2010PropOp32
 70
     1
102
RTVSPost2010Prop33
280
     0
102
RTVSPost2010PropOp33
 70
     1
102
RTVSPost2010Prop34
280
     0
102
RTVSPost2010PropOp34
 70
     1
102
RTVSPost2010Prop35
280
     0
102
RTVSPost2010PropOp35
 70
     1
102
RTVSPost2010Prop36
280
     0
102
RTVSPost2010PropOp36
 70
     1
102
RTVSPost2010Prop37
 90
       50
102
RTVSPost2010PropOp37
 70
     1
102
RTVSPost2010Prop38
140
0.0
102
RTVSPost2010PropOp38
 70
     1
102
RTVSPost2010Prop39
140
1.0
102
RTVSPost2010PropOp39
 70
     1
102
RTVSPost2010Prop40
 90
        0
102
RTVSPost2010PropOp40
 70
     1
102
RTVSPost2010Prop41ColorIndex
 90
       18
102
RTVSPost2010Prop41ColorRGB
 90
        0
102
RTVSPost2010PropOp41
 70
     1
102
RTVSPost2010Prop42
 90
       50
102
RTVSPost2010PropOp42
 70
     1
102
RTVSPost2010Prop43
 90
        3
102
RTVSPost2010PropOp43
 70
     1
102
RTVSPost2010Prop44ColorIndex
 90
        5
102
RTVSPost2010Prop44ColorRGB
 90
      255
102
RTVSPost2010PropOp44
 70
     1
102
RTVSPost2010Prop45
280
     0
102
RTVSPost2010PropOp45
 70
     1
102
RTVSPost2010Prop46
 90
       50
102
RTVSPost2010PropOp46
 70
     1
102
RTVSPost2010Prop47
 90
       50
102
RTVSPost2010PropOp47
 70
     1
102
RTVSPost2010Prop48
 90
       50
102
RTVSPost2010PropOp48
 70
     1
102
RTVSPost2010Prop49
280
     0
102
RTVSPost2010PropOp49
 70
     1
102
RTVSPost2010Prop50
 90
       50
102
RTVSPost2010PropOp50
 70
     1
102
RTVSPost2010Prop51ColorIndex
 90
      256
102
RTVSPost2010Prop51ColorRGB
 90
-16777216
102
RTVSPost2010PropOp51
 70
     0
102
RTVSPost2010Prop52
140
1.0
102
RTVSPost2010PropOp52
 70
     0
102
RTVSPost2010Prop53
 90
        2
102
RTVSPost2010PropOp53
 70
     1
102
RTVSPost2010Prop54
  1
strokes_ogs.tif
102
RTVSPost2010PropOp54
 70
     1
102
RTVSPost2010Prop55
280
     0
102
RTVSPost2010PropOp55
 70
     1
102
RTVSPost2010Prop56
140
1.0
102
RTVSPost2010PropOp56
 70
     1
102
RTVSPost2010Prop57
140
1.0
102
RTVSPost2010PropOp57
 70
     1
  0
XRECORD
  5
2BFB
102
{ACAD_REACTORS
330
2BFA
102
}
330
2BFA
100
AcDbXrecord
280
     1
102
RTVSPost2010Prop28
280
     0
102
RTVSPost2010PropOp28
 70
     1
102
RTVSPost2010Prop29
280
     1
102
RTVSPost2010PropOp29
 70
     1
102
RTVSPost2010Prop30
280
     1
102
RTVSPost2010PropOp30
 70
     1
102
RTVSPost2010Prop31
280
     0
102
RTVSPost2010PropOp31
 70
     1
102
RTVSPost2010Prop32
280
     0
102
RTVSPost2010PropOp32
 70
     1
102
RTVSPost2010Prop33
280
     0
102
RTVSPost2010PropOp33
 70
     1
102
RTVSPost2010Prop34
280
     0
102
RTVSPost2010PropOp34
 70
     1
102
RTVSPost2010Prop35
280
     0
102
RTVSPost2010PropOp35
 70
     1
102
RTVSPost2010Prop36
280
     0
102
RTVSPost2010PropOp36
 70
     1
102
RTVSPost2010Prop37
 90
       50
102
RTVSPost2010PropOp37
 70
     1
102
RTVSPost2010Prop38
140
0.0
102
RTVSPost2010PropOp38
 70
     1
102
RTVSPost2010Prop39
140
1.0
102
RTVSPost2010PropOp39
 70
     1
102
RTVSPost2010Prop40
 90
        0
102
RTVSPost2010PropOp40
 70
     1
102
RTVSPost2010Prop41ColorIndex
 90
       18
102
RTVSPost2010Prop41ColorRGB
 90
        0
102
RTVSPost2010PropOp41
 70
     1
102
RTVSPost2010Prop42
 90
       50
102
RTVSPost2010PropOp42
 70
     1
102
RTVSPost2010Prop43
 90
        3
102
RTVSPost2010PropOp43
 70
     1
102
RTVSPost2010Prop44ColorIndex
 90
        5
102
RTVSPost2010Prop44ColorRGB
 90
      255
102
RTVSPost2010PropOp44
 70
     1
102
RTVSPost2010Prop45
280
     0
102
RTVSPost2010PropOp45
 70
     1
102
RTVSPost2010Prop46
 90
       50
102
RTVSPost2010PropOp46
 70
     1
102
RTVSPost2010Prop47
 90
       50
102
RTVSPost2010PropOp47
 70
     1
102
RTVSPost2010Prop48
 90
       50
102
RTVSPost2010PropOp48
 70
     1
102
RTVSPost2010Prop49
280
     0
102
RTVSPost2010PropOp49
 70
     1
102
RTVSPost2010Prop50
 90
       50
102
RTVSPost2010PropOp50
 70
     1
102
RTVSPost2010Prop51ColorIndex
 90
      256
102
RTVSPost2010Prop51ColorRGB
 90
-16777216
102
RTVSPost2010PropOp51
 70
     0
102
RTVSPost2010Prop52
140
1.0
102
RTVSPost2010PropOp52
 70
     0
102
RTVSPost2010Prop53
 90
        2
102
RTVSPost2010PropOp53
 70
     1
102
RTVSPost2010Prop54
  1
strokes_ogs.tif
102
RTVSPost2010PropOp54
 70
     1
102
RTVSPost2010Prop55
280
     0
102
RTVSPost2010PropOp55
 70
     1
102
RTVSPost2010Prop56
140
1.0
102
RTVSPost2010PropOp56
 70
     1
102
RTVSPost2010Prop57
140
1.0
102
RTVSPost2010PropOp57
 70
     1
  0
XRECORD
  5
2BFD
102
{ACAD_REACTORS
330
2BFC
102
}
330
2BFC
100
AcDbXrecord
280
     1
102
RTVSPost2010Prop28
280
     0
102
RTVSPost2010PropOp28
 70
     1
102
RTVSPost2010Prop29
280
     1
102
RTVSPost2010PropOp29
 70
     1
102
RTVSPost2010Prop30
280
     1
102
RTVSPost2010PropOp30
 70
     1
102
RTVSPost2010Prop31
280
     0
102
RTVSPost2010PropOp31
 70
     1
102
RTVSPost2010Prop32
280
     0
102
RTVSPost2010PropOp32
 70
     1
102
RTVSPost2010Prop33
280
     0
102
RTVSPost2010PropOp33
 70
     1
102
RTVSPost2010Prop34
280
     0
102
RTVSPost2010PropOp34
 70
     1
102
RTVSPost2010Prop35
280
     0
102
RTVSPost2010PropOp35
 70
     1
102
RTVSPost2010Prop36
280
     0
102
RTVSPost2010PropOp36
 70
     1
102
RTVSPost2010Prop37
 90
       50
102
RTVSPost2010PropOp37
 70
     1
102
RTVSPost2010Prop38
140
0.0
102
RTVSPost2010PropOp38
 70
     1
102
RTVSPost2010Prop39
140
1.0
102
RTVSPost2010PropOp39
 70
     1
102
RTVSPost2010Prop40
 90
        0
102
RTVSPost2010PropOp40
 70
     1
102
RTVSPost2010Prop41ColorIndex
 90
       18
102
RTVSPost2010Prop41ColorRGB
 90
        0
102
RTVSPost2010PropOp41
 70
     1
102
RTVSPost2010Prop42
 90
       50
102
RTVSPost2010PropOp42
 70
     1
102
RTVSPost2010Prop43
 90
        3
102
RTVSPost2010PropOp43
 70
     1
102
RTVSPost2010Prop44ColorIndex
 90
        5
102
RTVSPost2010Prop44ColorRGB
 90
      255
102
RTVSPost2010PropOp44
 70
     1
102
RTVSPost2010Prop45
280
     0
102
RTVSPost2010PropOp45
 70
     1
102
RTVSPost2010Prop46
 90
       50
102
RTVSPost2010PropOp46
 70
     1
102
RTVSPost2010Prop47
 90
       50
102
RTVSPost2010PropOp47
 70
     1
102
RTVSPost2010Prop48
 90
       50
102
RTVSPost2010PropOp48
 70
     1
102
RTVSPost2010Prop49
280
     0
102
RTVSPost2010PropOp49
 70
     1
102
RTVSPost2010Prop50
 90
       50
102
RTVSPost2010PropOp50
 70
     1
102
RTVSPost2010Prop51ColorIndex
 90
      256
102
RTVSPost2010Prop51ColorRGB
 90
-16777216
102
RTVSPost2010PropOp51
 70
     0
102
RTVSPost2010Prop52
140
1.0
102
RTVSPost2010PropOp52
 70
     0
102
RTVSPost2010Prop53
 90
        2
102
RTVSPost2010PropOp53
 70
     1
102
RTVSPost2010Prop54
  1
strokes_ogs.tif
102
RTVSPost2010PropOp54
 70
     1
102
RTVSPost2010Prop55
280
     0
102
RTVSPost2010PropOp55
 70
     1
102
RTVSPost2010Prop56
140
1.0
102
RTVSPost2010PropOp56
 70
     1
102
RTVSPost2010Prop57
140
1.0
102
RTVSPost2010PropOp57
 70
     1
  0
XRECORD
  5
2BFF
102
{ACAD_REACTORS
330
2BFE
102
}
330
2BFE
100
AcDbXrecord
280
     1
102
RTVSPost2010Prop28
280
     0
102
RTVSPost2010PropOp28
 70
     1
102
RTVSPost2010Prop29
280
     1
102
RTVSPost2010PropOp29
 70
     1
102
RTVSPost2010Prop30
280
     1
102
RTVSPost2010PropOp30
 70
     1
102
RTVSPost2010Prop31
280
     0
102
RTVSPost2010PropOp31
 70
     1
102
RTVSPost2010Prop32
280
     0
102
RTVSPost2010PropOp32
 70
     1
102
RTVSPost2010Prop33
280
     0
102
RTVSPost2010PropOp33
 70
     1
102
RTVSPost2010Prop34
280
     0
102
RTVSPost2010PropOp34
 70
     1
102
RTVSPost2010Prop35
280
     0
102
RTVSPost2010PropOp35
 70
     1
102
RTVSPost2010Prop36
280
     0
102
RTVSPost2010PropOp36
 70
     1
102
RTVSPost2010Prop37
 90
       50
102
RTVSPost2010PropOp37
 70
     1
102
RTVSPost2010Prop38
140
0.0
102
RTVSPost2010PropOp38
 70
     1
102
RTVSPost2010Prop39
140
1.0
102
RTVSPost2010PropOp39
 70
     1
102
RTVSPost2010Prop40
 90
        0
102
RTVSPost2010PropOp40
 70
     1
102
RTVSPost2010Prop41ColorIndex
 90
       18
102
RTVSPost2010Prop41ColorRGB
 90
        0
102
RTVSPost2010PropOp41
 70
     1
102
RTVSPost2010Prop42
 90
       50
102
RTVSPost2010PropOp42
 70
     1
102
RTVSPost2010Prop43
 90
        3
102
RTVSPost2010PropOp43
 70
     1
102
RTVSPost2010Prop44ColorIndex
 90
        5
102
RTVSPost2010Prop44ColorRGB
 90
      255
102
RTVSPost2010PropOp44
 70
     1
102
RTVSPost2010Prop45
280
     0
102
RTVSPost2010PropOp45
 70
     1
102
RTVSPost2010Prop46
 90
       50
102
RTVSPost2010PropOp46
 70
     1
102
RTVSPost2010Prop47
 90
       50
102
RTVSPost2010PropOp47
 70
     1
102
RTVSPost2010Prop48
 90
       50
102
RTVSPost2010PropOp48
 70
     1
102
RTVSPost2010Prop49
280
     0
102
RTVSPost2010PropOp49
 70
     1
102
RTVSPost2010Prop50
 90
       50
102
RTVSPost2010PropOp50
 70
     1
102
RTVSPost2010Prop51ColorIndex
 90
      256
102
RTVSPost2010Prop51ColorRGB
 90
-16777216
102
RTVSPost2010PropOp51
 70
     0
102
RTVSPost2010Prop52
140
1.0
102
RTVSPost2010PropOp52
 70
     0
102
RTVSPost2010Prop53
 90
        2
102
RTVSPost2010PropOp53
 70
     1
102
RTVSPost2010Prop54
  1
strokes_ogs.tif
102
RTVSPost2010PropOp54
 70
     1
102
RTVSPost2010Prop55
280
     0
102
RTVSPost2010PropOp55
 70
     1
102
RTVSPost2010Prop56
140
1.0
102
RTVSPost2010PropOp56
 70
     1
102
RTVSPost2010Prop57
140
1.0
102
RTVSPost2010PropOp57
 70
     1
  0
XRECORD
  5
2C07
102
{ACAD_REACTORS
330
2C06
102
}
330
2C06
100
AcDbXrecord
280
     1
102
RTVSPost2010Prop28
280
     0
102
RTVSPost2010PropOp28
 70
     1
102
RTVSPost2010Prop29
280
     1
102
RTVSPost2010PropOp29
 70
     1
102
RTVSPost2010Prop30
280
     1
102
RTVSPost2010PropOp30
 70
     1
102
RTVSPost2010Prop31
280
     0
102
RTVSPost2010PropOp31
 70
     1
102
RTVSPost2010Prop32
280
     0
102
RTVSPost2010PropOp32
 70
     1
102
RTVSPost2010Prop33
280
     0
102
RTVSPost2010PropOp33
 70
     1
102
RTVSPost2010Prop34
280
     0
102
RTVSPost2010PropOp34
 70
     1
102
RTVSPost2010Prop35
280
     0
102
RTVSPost2010PropOp35
 70
     1
102
RTVSPost2010Prop36
280
     0
102
RTVSPost2010PropOp36
 70
     1
102
RTVSPost2010Prop37
 90
       50
102
RTVSPost2010PropOp37
 70
     1
102
RTVSPost2010Prop38
140
0.0
102
RTVSPost2010PropOp38
 70
     1
102
RTVSPost2010Prop39
140
1.0
102
RTVSPost2010PropOp39
 70
     1
102
RTVSPost2010Prop40
 90
        0
102
RTVSPost2010PropOp40
 70
     1
102
RTVSPost2010Prop41ColorIndex
 90
       18
102
RTVSPost2010Prop41ColorRGB
 90
        0
102
RTVSPost2010PropOp41
 70
     1
102
RTVSPost2010Prop42
 90
       50
102
RTVSPost2010PropOp42
 70
     1
102
RTVSPost2010Prop43
 90
        3
102
RTVSPost2010PropOp43
 70
     1
102
RTVSPost2010Prop44ColorIndex
 90
        5
102
RTVSPost2010Prop44ColorRGB
 90
      255
102
RTVSPost2010PropOp44
 70
     1
102
RTVSPost2010Prop45
280
     0
102
RTVSPost2010PropOp45
 70
     1
102
RTVSPost2010Prop46
 90
       50
102
RTVSPost2010PropOp46
 70
     1
102
RTVSPost2010Prop47
 90
       50
102
RTVSPost2010PropOp47
 70
     1
102
RTVSPost2010Prop48
 90
       50
102
RTVSPost2010PropOp48
 70
     1
102
RTVSPost2010Prop49
280
     0
102
RTVSPost2010PropOp49
 70
     1
102
RTVSPost2010Prop50
 90
       50
102
RTVSPost2010PropOp50
 70
     1
102
RTVSPost2010Prop51ColorIndex
 90
      256
102
RTVSPost2010Prop51ColorRGB
 90
-16777216
102
RTVSPost2010PropOp51
 70
     0
102
RTVSPost2010Prop52
140
1.0
102
RTVSPost2010PropOp52
 70
     0
102
RTVSPost2010Prop53
 90
        2
102
RTVSPost2010PropOp53
 70
     1
102
RTVSPost2010Prop54
  1
strokes_ogs.tif
102
RTVSPost2010PropOp54
 70
     1
102
RTVSPost2010Prop55
280
     0
102
RTVSPost2010PropOp55
 70
     1
102
RTVSPost2010Prop56
140
1.0
102
RTVSPost2010PropOp56
 70
     1
102
RTVSPost2010Prop57
140
1.0
102
RTVSPost2010PropOp57
 70
     1
  0
XRECORD
  5
2C23
102
{ACAD_REACTORS
330
2C22
102
}
330
2C22
100
AcDbXrecord
280
     1
102
RTVSPost2010Prop28
280
     0
102
RTVSPost2010PropOp28
 70
     1
102
RTVSPost2010Prop29
280
     1
102
RTVSPost2010PropOp29
 70
     1
102
RTVSPost2010Prop30
280
     1
102
RTVSPost2010PropOp30
 70
     1
102
RTVSPost2010Prop31
280
     0
102
RTVSPost2010PropOp31
 70
     1
102
RTVSPost2010Prop32
280
     0
102
RTVSPost2010PropOp32
 70
     1
102
RTVSPost2010Prop33
280
     0
102
RTVSPost2010PropOp33
 70
     1
102
RTVSPost2010Prop34
280
     0
102
RTVSPost2010PropOp34
 70
     1
102
RTVSPost2010Prop35
280
     0
102
RTVSPost2010PropOp35
 70
     1
102
RTVSPost2010Prop36
280
     0
102
RTVSPost2010PropOp36
 70
     1
102
RTVSPost2010Prop37
 90
       50
102
RTVSPost2010PropOp37
 70
     0
102
RTVSPost2010Prop38
140
0.0
102
RTVSPost2010PropOp38
 70
     0
102
RTVSPost2010Prop39
140
1.0
102
RTVSPost2010PropOp39
 70
     0
102
RTVSPost2010Prop40
 90
        0
102
RTVSPost2010PropOp40
 70
     0
102
RTVSPost2010Prop41ColorIndex
 90
       18
102
RTVSPost2010Prop41ColorRGB
 90
        0
102
RTVSPost2010PropOp41
 70
     0
102
RTVSPost2010Prop42
 90
       50
102
RTVSPost2010PropOp42
 70
     0
102
RTVSPost2010Prop43
 90
        3
102
RTVSPost2010PropOp43
 70
     0
102
RTVSPost2010Prop44ColorIndex
 90
        5
102
RTVSPost2010Prop44ColorRGB
 90
      255
102
RTVSPost2010PropOp44
 70
     0
102
RTVSPost2010Prop45
280
     0
102
RTVSPost2010PropOp45
 70
     1
102
RTVSPost2010Prop46
 90
       50
102
RTVSPost2010PropOp46
 70
     0
102
RTVSPost2010Prop47
 90
       50
102
RTVSPost2010PropOp47
 70
     0
102
RTVSPost2010Prop48
 90
       50
102
RTVSPost2010PropOp48
 70
     0
102
RTVSPost2010Prop49
280
     0
102
RTVSPost2010PropOp49
 70
     1
102
RTVSPost2010Prop50
 90
       50
102
RTVSPost2010PropOp50
 70
     0
102
RTVSPost2010Prop51ColorIndex
 90
      256
102
RTVSPost2010Prop51ColorRGB
 90
-16777216
102
RTVSPost2010PropOp51
 70
     0
102
RTVSPost2010Prop52
140
1.0
102
RTVSPost2010PropOp52
 70
     0
102
RTVSPost2010Prop53
 90
        2
102
RTVSPost2010PropOp53
 70
     0
102
RTVSPost2010Prop54
  1
strokes_ogs.tif
102
RTVSPost2010PropOp54
 70
     0
102
RTVSPost2010Prop55
280
     0
102
RTVSPost2010PropOp55
 70
     1
102
RTVSPost2010Prop56
140
1.0
102
RTVSPost2010PropOp56
 70
     0
102
RTVSPost2010Prop57
140
1.0
102
RTVSPost2010PropOp57
 70
     0
  0
XRECORD
  5
2C13
102
{ACAD_REACTORS
330
2C12
102
}
330
2C12
100
AcDbXrecord
280
     1
102
RTVSPost2010Prop28
280
     0
102
RTVSPost2010PropOp28
 70
     1
102
RTVSPost2010Prop29
280
     1
102
RTVSPost2010PropOp29
 70
     1
102
RTVSPost2010Prop30
280
     1
102
RTVSPost2010PropOp30
 70
     1
102
RTVSPost2010Prop31
280
     0
102
RTVSPost2010PropOp31
 70
     1
102
RTVSPost2010Prop32
280
     0
102
RTVSPost2010PropOp32
 70
     1
102
RTVSPost2010Prop33
280
     0
102
RTVSPost2010PropOp33
 70
     1
102
RTVSPost2010Prop34
280
     0
102
RTVSPost2010PropOp34
 70
     1
102
RTVSPost2010Prop35
280
     0
102
RTVSPost2010PropOp35
 70
     1
102
RTVSPost2010Prop36
280
     0
102
RTVSPost2010PropOp36
 70
     1
102
RTVSPost2010Prop37
 90
       50
102
RTVSPost2010PropOp37
 70
     1
102
RTVSPost2010Prop38
140
0.0
102
RTVSPost2010PropOp38
 70
     1
102
RTVSPost2010Prop39
140
1.0
102
RTVSPost2010PropOp39
 70
     1
102
RTVSPost2010Prop40
 90
        0
102
RTVSPost2010PropOp40
 70
     1
102
RTVSPost2010Prop41ColorIndex
 90
       18
102
RTVSPost2010Prop41ColorRGB
 90
        0
102
RTVSPost2010PropOp41
 70
     1
102
RTVSPost2010Prop42
 90
       50
102
RTVSPost2010PropOp42
 70
     1
102
RTVSPost2010Prop43
 90
        3
102
RTVSPost2010PropOp43
 70
     1
102
RTVSPost2010Prop44ColorIndex
 90
        5
102
RTVSPost2010Prop44ColorRGB
 90
      255
102
RTVSPost2010PropOp44
 70
     1
102
RTVSPost2010Prop45
280
     0
102
RTVSPost2010PropOp45
 70
     1
102
RTVSPost2010Prop46
 90
       50
102
RTVSPost2010PropOp46
 70
     1
102
RTVSPost2010Prop47
 90
       50
102
RTVSPost2010PropOp47
 70
     1
102
RTVSPost2010Prop48
 90
       50
102
RTVSPost2010PropOp48
 70
     1
102
RTVSPost2010Prop49
280
     0
102
RTVSPost2010PropOp49
 70
     1
102
RTVSPost2010Prop50
 90
       50
102
RTVSPost2010PropOp50
 70
     1
102
RTVSPost2010Prop51ColorIndex
 90
      256
102
RTVSPost2010Prop51ColorRGB
 90
-16777216
102
RTVSPost2010PropOp51
 70
     0
102
RTVSPost2010Prop52
140
1.0
102
RTVSPost2010PropOp52
 70
     0
102
RTVSPost2010Prop53
 90
        2
102
RTVSPost2010PropOp53
 70
     1
102
RTVSPost2010Prop54
  1
strokes_ogs.tif
102
RTVSPost2010PropOp54
 70
     1
102
RTVSPost2010Prop55
280
     0
102
RTVSPost2010PropOp55
 70
     1
102
RTVSPost2010Prop56
140
1.0
102
RTVSPost2010PropOp56
 70
     1
102
RTVSPost2010Prop57
140
1.0
102
RTVSPost2010PropOp57
 70
     1
  0
XRECORD
  5
2C25
102
{ACAD_REACTORS
330
2C24
102
}
330
2C24
100
AcDbXrecord
280
     1
102
RTVSPost2010Prop28
280
     0
102
RTVSPost2010PropOp28
 70
     1
102
RTVSPost2010Prop29
280
     1
102
RTVSPost2010PropOp29
 70
     1
102
RTVSPost2010Prop30
280
     1
102
RTVSPost2010PropOp30
 70
     1
102
RTVSPost2010Prop31
280
     0
102
RTVSPost2010PropOp31
 70
     1
102
RTVSPost2010Prop32
280
     0
102
RTVSPost2010PropOp32
 70
     1
102
RTVSPost2010Prop33
280
     0
102
RTVSPost2010PropOp33
 70
     1
102
RTVSPost2010Prop34
280
     0
102
RTVSPost2010PropOp34
 70
     1
102
RTVSPost2010Prop35
280
     0
102
RTVSPost2010PropOp35
 70
     1
102
RTVSPost2010Prop36
280
     0
102
RTVSPost2010PropOp36
 70
     1
102
RTVSPost2010Prop37
 90
       50
102
RTVSPost2010PropOp37
 70
     0
102
RTVSPost2010Prop38
140
0.0
102
RTVSPost2010PropOp38
 70
     0
102
RTVSPost2010Prop39
140
1.0
102
RTVSPost2010PropOp39
 70
     0
102
RTVSPost2010Prop40
 90
        0
102
RTVSPost2010PropOp40
 70
     0
102
RTVSPost2010Prop41ColorIndex
 90
       18
102
RTVSPost2010Prop41ColorRGB
 90
        0
102
RTVSPost2010PropOp41
 70
     0
102
RTVSPost2010Prop42
 90
       50
102
RTVSPost2010PropOp42
 70
     0
102
RTVSPost2010Prop43
 90
        3
102
RTVSPost2010PropOp43
 70
     0
102
RTVSPost2010Prop44ColorIndex
 90
        5
102
RTVSPost2010Prop44ColorRGB
 90
      255
102
RTVSPost2010PropOp44
 70
     0
102
RTVSPost2010Prop45
280
     0
102
RTVSPost2010PropOp45
 70
     1
102
RTVSPost2010Prop46
 90
       50
102
RTVSPost2010PropOp46
 70
     0
102
RTVSPost2010Prop47
 90
       50
102
RTVSPost2010PropOp47
 70
     0
102
RTVSPost2010Prop48
 90
       50
102
RTVSPost2010PropOp48
 70
     0
102
RTVSPost2010Prop49
280
     0
102
RTVSPost2010PropOp49
 70
     1
102
RTVSPost2010Prop50
 90
       50
102
RTVSPost2010PropOp50
 70
     0
102
RTVSPost2010Prop51ColorIndex
 90
      256
102
RTVSPost2010Prop51ColorRGB
 90
-16777216
102
RTVSPost2010PropOp51
 70
     0
102
RTVSPost2010Prop52
140
1.0
102
RTVSPost2010PropOp52
 70
     0
102
RTVSPost2010Prop53
 90
        2
102
RTVSPost2010PropOp53
 70
     0
102
RTVSPost2010Prop54
  1
strokes_ogs.tif
102
RTVSPost2010PropOp54
 70
     0
102
RTVSPost2010Prop55
280
     0
102
RTVSPost2010PropOp55
 70
     1
102
RTVSPost2010Prop56
140
1.0
102
RTVSPost2010PropOp56
 70
     0
102
RTVSPost2010Prop57
140
1.0
102
RTVSPost2010PropOp57
 70
     0
  0
XRECORD
  5
2C0B
102
{ACAD_REACTORS
330
2C0A
102
}
330
2C0A
100
AcDbXrecord
280
     1
102
RTVSPost2010Prop28
280
     0
102
RTVSPost2010PropOp28
 70
     1
102
RTVSPost2010Prop29
280
     1
102
RTVSPost2010PropOp29
 70
     1
102
RTVSPost2010Prop30
280
     1
102
RTVSPost2010PropOp30
 70
     1
102
RTVSPost2010Prop31
280
     0
102
RTVSPost2010PropOp31
 70
     1
102
RTVSPost2010Prop32
280
     0
102
RTVSPost2010PropOp32
 70
     1
102
RTVSPost2010Prop33
280
     0
102
RTVSPost2010PropOp33
 70
     1
102
RTVSPost2010Prop34
280
     0
102
RTVSPost2010PropOp34
 70
     1
102
RTVSPost2010Prop35
280
     0
102
RTVSPost2010PropOp35
 70
     1
102
RTVSPost2010Prop36
280
     0
102
RTVSPost2010PropOp36
 70
     1
102
RTVSPost2010Prop37
 90
       50
102
RTVSPost2010PropOp37
 70
     1
102
RTVSPost2010Prop38
140
0.0
102
RTVSPost2010PropOp38
 70
     1
102
RTVSPost2010Prop39
140
1.0
102
RTVSPost2010PropOp39
 70
     1
102
RTVSPost2010Prop40
 90
        0
102
RTVSPost2010PropOp40
 70
     1
102
RTVSPost2010Prop41ColorIndex
 90
       18
102
RTVSPost2010Prop41ColorRGB
 90
        0
102
RTVSPost2010PropOp41
 70
     1
102
RTVSPost2010Prop42
 90
       50
102
RTVSPost2010PropOp42
 70
     1
102
RTVSPost2010Prop43
 90
        3
102
RTVSPost2010PropOp43
 70
     1
102
RTVSPost2010Prop44ColorIndex
 90
        5
102
RTVSPost2010Prop44ColorRGB
 90
      255
102
RTVSPost2010PropOp44
 70
     1
102
RTVSPost2010Prop45
280
     0
102
RTVSPost2010PropOp45
 70
     1
102
RTVSPost2010Prop46
 90
       50
102
RTVSPost2010PropOp46
 70
     1
102
RTVSPost2010Prop47
 90
       50
102
RTVSPost2010PropOp47
 70
     1
102
RTVSPost2010Prop48
 90
       50
102
RTVSPost2010PropOp48
 70
     1
102
RTVSPost2010Prop49
280
     0
102
RTVSPost2010PropOp49
 70
     1
102
RTVSPost2010Prop50
 90
       50
102
RTVSPost2010PropOp50
 70
     1
102
RTVSPost2010Prop51ColorIndex
 90
      256
102
RTVSPost2010Prop51ColorRGB
 90
-16777216
102
RTVSPost2010PropOp51
 70
     0
102
RTVSPost2010Prop52
140
1.0
102
RTVSPost2010PropOp52
 70
     0
102
RTVSPost2010Prop53
 90
        2
102
RTVSPost2010PropOp53
 70
     1
102
RTVSPost2010Prop54
  1
strokes_ogs.tif
102
RTVSPost2010PropOp54
 70
     1
102
RTVSPost2010Prop55
280
     0
102
RTVSPost2010PropOp55
 70
     1
102
RTVSPost2010Prop56
140
1.0
102
RTVSPost2010PropOp56
 70
     1
102
RTVSPost2010Prop57
140
1.0
102
RTVSPost2010PropOp57
 70
     1
  0
XRECORD
  5
2C21
102
{ACAD_REACTORS
330
2C20
102
}
330
2C20
100
AcDbXrecord
280
     1
102
RTVSPost2010Prop28
280
     0
102
RTVSPost2010PropOp28
 70
     1
102
RTVSPost2010Prop29
280
     1
102
RTVSPost2010PropOp29
 70
     1
102
RTVSPost2010Prop30
280
     1
102
RTVSPost2010PropOp30
 70
     1
102
RTVSPost2010Prop31
280
     0
102
RTVSPost2010PropOp31
 70
     1
102
RTVSPost2010Prop32
280
     0
102
RTVSPost2010PropOp32
 70
     1
102
RTVSPost2010Prop33
280
     0
102
RTVSPost2010PropOp33
 70
     1
102
RTVSPost2010Prop34
280
     0
102
RTVSPost2010PropOp34
 70
     1
102
RTVSPost2010Prop35
280
     0
102
RTVSPost2010PropOp35
 70
     1
102
RTVSPost2010Prop36
280
     0
102
RTVSPost2010PropOp36
 70
     1
102
RTVSPost2010Prop37
 90
       50
102
RTVSPost2010PropOp37
 70
     1
102
RTVSPost2010Prop38
140
0.0
102
RTVSPost2010PropOp38
 70
     1
102
RTVSPost2010Prop39
140
1.0
102
RTVSPost2010PropOp39
 70
     1
102
RTVSPost2010Prop40
 90
        0
102
RTVSPost2010PropOp40
 70
     1
102
RTVSPost2010Prop41ColorIndex
 90
       18
102
RTVSPost2010Prop41ColorRGB
 90
        0
102
RTVSPost2010PropOp41
 70
     1
102
RTVSPost2010Prop42
 90
       50
102
RTVSPost2010PropOp42
 70
     1
102
RTVSPost2010Prop43
 90
        3
102
RTVSPost2010PropOp43
 70
     1
102
RTVSPost2010Prop44ColorIndex
 90
        5
102
RTVSPost2010Prop44ColorRGB
 90
      255
102
RTVSPost2010PropOp44
 70
     1
102
RTVSPost2010Prop45
280
     0
102
RTVSPost2010PropOp45
 70
     1
102
RTVSPost2010Prop46
 90
       50
102
RTVSPost2010PropOp46
 70
     1
102
RTVSPost2010Prop47
 90
       50
102
RTVSPost2010PropOp47
 70
     1
102
RTVSPost2010Prop48
 90
       50
102
RTVSPost2010PropOp48
 70
     1
102
RTVSPost2010Prop49
280
     0
102
RTVSPost2010PropOp49
 70
     1
102
RTVSPost2010Prop50
 90
       50
102
RTVSPost2010PropOp50
 70
     1
102
RTVSPost2010Prop51ColorIndex
 90
      256
102
RTVSPost2010Prop51ColorRGB
 90
-16777216
102
RTVSPost2010PropOp51
 70
     0
102
RTVSPost2010Prop52
140
1.0
102
RTVSPost2010PropOp52
 70
     0
102
RTVSPost2010Prop53
 90
        2
102
RTVSPost2010PropOp53
 70
     1
102
RTVSPost2010Prop54
  1
strokes_ogs.tif
102
RTVSPost2010PropOp54
 70
     1
102
RTVSPost2010Prop55
280
     0
102
RTVSPost2010PropOp55
 70
     1
102
RTVSPost2010Prop56
140
1.0
102
RTVSPost2010PropOp56
 70
     1
102
RTVSPost2010Prop57
140
1.0
102
RTVSPost2010PropOp57
 70
     1
  0
XRECORD
  5
2C1F
102
{ACAD_REACTORS
330
2C1E
102
}
330
2C1E
100
AcDbXrecord
280
     1
102
RTVSPost2010Prop28
280
     0
102
RTVSPost2010PropOp28
 70
     1
102
RTVSPost2010Prop29
280
     1
102
RTVSPost2010PropOp29
 70
     1
102
RTVSPost2010Prop30
280
     1
102
RTVSPost2010PropOp30
 70
     1
102
RTVSPost2010Prop31
280
     0
102
RTVSPost2010PropOp31
 70
     1
102
RTVSPost2010Prop32
280
     0
102
RTVSPost2010PropOp32
 70
     1
102
RTVSPost2010Prop33
280
     0
102
RTVSPost2010PropOp33
 70
     1
102
RTVSPost2010Prop34
280
     0
102
RTVSPost2010PropOp34
 70
     1
102
RTVSPost2010Prop35
280
     0
102
RTVSPost2010PropOp35
 70
     1
102
RTVSPost2010Prop36
280
     0
102
RTVSPost2010PropOp36
 70
     1
102
RTVSPost2010Prop37
 90
       50
102
RTVSPost2010PropOp37
 70
     1
102
RTVSPost2010Prop38
140
0.0
102
RTVSPost2010PropOp38
 70
     1
102
RTVSPost2010Prop39
140
1.0
102
RTVSPost2010PropOp39
 70
     1
102
RTVSPost2010Prop40
 90
        0
102
RTVSPost2010PropOp40
 70
     1
102
RTVSPost2010Prop41ColorIndex
 90
       18
102
RTVSPost2010Prop41ColorRGB
 90
        0
102
RTVSPost2010PropOp41
 70
     1
102
RTVSPost2010Prop42
 90
       50
102
RTVSPost2010PropOp42
 70
     1
102
RTVSPost2010Prop43
 90
        3
102
RTVSPost2010PropOp43
 70
     1
102
RTVSPost2010Prop44ColorIndex
 90
        5
102
RTVSPost2010Prop44ColorRGB
 90
      255
102
RTVSPost2010PropOp44
 70
     1
102
RTVSPost2010Prop45
280
     0
102
RTVSPost2010PropOp45
 70
     1
102
RTVSPost2010Prop46
 90
       50
102
RTVSPost2010PropOp46
 70
     1
102
RTVSPost2010Prop47
 90
       50
102
RTVSPost2010PropOp47
 70
     1
102
RTVSPost2010Prop48
 90
       50
102
RTVSPost2010PropOp48
 70
     1
102
RTVSPost2010Prop49
280
     0
102
RTVSPost2010PropOp49
 70
     1
102
RTVSPost2010Prop50
 90
       50
102
RTVSPost2010PropOp50
 70
     1
102
RTVSPost2010Prop51ColorIndex
 90
      256
102
RTVSPost2010Prop51ColorRGB
 90
-16777216
102
RTVSPost2010PropOp51
 70
     0
102
RTVSPost2010Prop52
140
1.0
102
RTVSPost2010PropOp52
 70
     0
102
RTVSPost2010Prop53
 90
        2
102
RTVSPost2010PropOp53
 70
     1
102
RTVSPost2010Prop54
  1
strokes_ogs.tif
102
RTVSPost2010PropOp54
 70
     1
102
RTVSPost2010Prop55
280
     0
102
RTVSPost2010PropOp55
 70
     1
102
RTVSPost2010Prop56
140
1.0
102
RTVSPost2010PropOp56
 70
     1
102
RTVSPost2010Prop57
140
1.0
102
RTVSPost2010PropOp57
 70
     1
  0
XRECORD
  5
2C19
102
{ACAD_REACTORS
330
2C18
102
}
330
2C18
100
AcDbXrecord
280
     1
102
RTVSPost2010Prop28
280
     0
102
RTVSPost2010PropOp28
 70
     1
102
RTVSPost2010Prop29
280
     1
102
RTVSPost2010PropOp29
 70
     1
102
RTVSPost2010Prop30
280
     1
102
RTVSPost2010PropOp30
 70
     1
102
RTVSPost2010Prop31
280
     0
102
RTVSPost2010PropOp31
 70
     1
102
RTVSPost2010Prop32
280
     0
102
RTVSPost2010PropOp32
 70
     1
102
RTVSPost2010Prop33
280
     0
102
RTVSPost2010PropOp33
 70
     1
102
RTVSPost2010Prop34
280
     0
102
RTVSPost2010PropOp34
 70
     1
102
RTVSPost2010Prop35
280
     0
102
RTVSPost2010PropOp35
 70
     1
102
RTVSPost2010Prop36
280
     0
102
RTVSPost2010PropOp36
 70
     1
102
RTVSPost2010Prop37
 90
       50
102
RTVSPost2010PropOp37
 70
     1
102
RTVSPost2010Prop38
140
0.0
102
RTVSPost2010PropOp38
 70
     1
102
RTVSPost2010Prop39
140
1.0
102
RTVSPost2010PropOp39
 70
     1
102
RTVSPost2010Prop40
 90
        0
102
RTVSPost2010PropOp40
 70
     1
102
RTVSPost2010Prop41ColorIndex
 90
       18
102
RTVSPost2010Prop41ColorRGB
 90
        0
102
RTVSPost2010PropOp41
 70
     1
102
RTVSPost2010Prop42
 90
       50
102
RTVSPost2010PropOp42
 70
     1
102
RTVSPost2010Prop43
 90
        3
102
RTVSPost2010PropOp43
 70
     1
102
RTVSPost2010Prop44ColorIndex
 90
        5
102
RTVSPost2010Prop44ColorRGB
 90
      255
102
RTVSPost2010PropOp44
 70
     1
102
RTVSPost2010Prop45
280
     0
102
RTVSPost2010PropOp45
 70
     1
102
RTVSPost2010Prop46
 90
       50
102
RTVSPost2010PropOp46
 70
     1
102
RTVSPost2010Prop47
 90
       50
102
RTVSPost2010PropOp47
 70
     1
102
RTVSPost2010Prop48
 90
       50
102
RTVSPost2010PropOp48
 70
     1
102
RTVSPost2010Prop49
280
     0
102
RTVSPost2010PropOp49
 70
     1
102
RTVSPost2010Prop50
 90
       50
102
RTVSPost2010PropOp50
 70
     1
102
RTVSPost2010Prop51ColorIndex
 90
      256
102
RTVSPost2010Prop51ColorRGB
 90
-16777216
102
RTVSPost2010PropOp51
 70
     0
102
RTVSPost2010Prop52
140
1.0
102
RTVSPost2010PropOp52
 70
     0
102
RTVSPost2010Prop53
 90
        2
102
RTVSPost2010PropOp53
 70
     1
102
RTVSPost2010Prop54
  1
strokes_ogs.tif
102
RTVSPost2010PropOp54
 70
     1
102
RTVSPost2010Prop55
280
     0
102
RTVSPost2010PropOp55
 70
     1
102
RTVSPost2010Prop56
140
1.0
102
RTVSPost2010PropOp56
 70
     1
102
RTVSPost2010Prop57
140
1.0
102
RTVSPost2010PropOp57
 70
     1
  0
XRECORD
  5
2C1B
102
{ACAD_REACTORS
330
2C1A
102
}
330
2C1A
100
AcDbXrecord
280
     1
102
RTVSPost2010Prop28
280
     0
102
RTVSPost2010PropOp28
 70
     1
102
RTVSPost2010Prop29
280
     1
102
RTVSPost2010PropOp29
 70
     1
102
RTVSPost2010Prop30
280
     1
102
RTVSPost2010PropOp30
 70
     1
102
RTVSPost2010Prop31
280
     0
102
RTVSPost2010PropOp31
 70
     1
102
RTVSPost2010Prop32
280
     0
102
RTVSPost2010PropOp32
 70
     1
102
RTVSPost2010Prop33
280
     0
102
RTVSPost2010PropOp33
 70
     1
102
RTVSPost2010Prop34
280
     0
102
RTVSPost2010PropOp34
 70
     1
102
RTVSPost2010Prop35
280
     0
102
RTVSPost2010PropOp35
 70
     1
102
RTVSPost2010Prop36
280
     0
102
RTVSPost2010PropOp36
 70
     1
102
RTVSPost2010Prop37
 90
       50
102
RTVSPost2010PropOp37
 70
     1
102
RTVSPost2010Prop38
140
0.0
102
RTVSPost2010PropOp38
 70
     1
102
RTVSPost2010Prop39
140
1.0
102
RTVSPost2010PropOp39
 70
     1
102
RTVSPost2010Prop40
 90
        0
102
RTVSPost2010PropOp40
 70
     1
102
RTVSPost2010Prop41ColorIndex
 90
       18
102
RTVSPost2010Prop41ColorRGB
 90
        0
102
RTVSPost2010PropOp41
 70
     1
102
RTVSPost2010Prop42
 90
       50
102
RTVSPost2010PropOp42
 70
     1
102
RTVSPost2010Prop43
 90
        3
102
RTVSPost2010PropOp43
 70
     1
102
RTVSPost2010Prop44ColorIndex
 90
        5
102
RTVSPost2010Prop44ColorRGB
 90
      255
102
RTVSPost2010PropOp44
 70
     1
102
RTVSPost2010Prop45
280
     0
102
RTVSPost2010PropOp45
 70
     1
102
RTVSPost2010Prop46
 90
       50
102
RTVSPost2010PropOp46
 70
     1
102
RTVSPost2010Prop47
 90
       50
102
RTVSPost2010PropOp47
 70
     1
102
RTVSPost2010Prop48
 90
       50
102
RTVSPost2010PropOp48
 70
     1
102
RTVSPost2010Prop49
280
     0
102
RTVSPost2010PropOp49
 70
     1
102
RTVSPost2010Prop50
 90
       50
102
RTVSPost2010PropOp50
 70
     1
102
RTVSPost2010Prop51ColorIndex
 90
      256
102
RTVSPost2010Prop51ColorRGB
 90
-16777216
102
RTVSPost2010PropOp51
 70
     0
102
RTVSPost2010Prop52
140
1.0
102
RTVSPost2010PropOp52
 70
     0
102
RTVSPost2010Prop53
 90
        2
102
RTVSPost2010PropOp53
 70
     1
102
RTVSPost2010Prop54
  1
strokes_ogs.tif
102
RTVSPost2010PropOp54
 70
     1
102
RTVSPost2010Prop55
280
     0
102
RTVSPost2010PropOp55
 70
     1
102
RTVSPost2010Prop56
140
1.0
102
RTVSPost2010PropOp56
 70
     1
102
RTVSPost2010Prop57
140
1.0
102
RTVSPost2010PropOp57
 70
     1
  0
XRECORD
  5
2C11
102
{ACAD_REACTORS
330
2C10
102
}
330
2C10
100
AcDbXrecord
280
     1
102
RTVSPost2010Prop28
280
     0
102
RTVSPost2010PropOp28
 70
     1
102
RTVSPost2010Prop29
280
     1
102
RTVSPost2010PropOp29
 70
     1
102
RTVSPost2010Prop30
280
     1
102
RTVSPost2010PropOp30
 70
     1
102
RTVSPost2010Prop31
280
     0
102
RTVSPost2010PropOp31
 70
     1
102
RTVSPost2010Prop32
280
     0
102
RTVSPost2010PropOp32
 70
     1
102
RTVSPost2010Prop33
280
     0
102
RTVSPost2010PropOp33
 70
     1
102
RTVSPost2010Prop34
280
     0
102
RTVSPost2010PropOp34
 70
     1
102
RTVSPost2010Prop35
280
     0
102
RTVSPost2010PropOp35
 70
     1
102
RTVSPost2010Prop36
280
     0
102
RTVSPost2010PropOp36
 70
     1
102
RTVSPost2010Prop37
 90
       50
102
RTVSPost2010PropOp37
 70
     1
102
RTVSPost2010Prop38
140
0.0
102
RTVSPost2010PropOp38
 70
     1
102
RTVSPost2010Prop39
140
1.0
102
RTVSPost2010PropOp39
 70
     1
102
RTVSPost2010Prop40
 90
        0
102
RTVSPost2010PropOp40
 70
     1
102
RTVSPost2010Prop41ColorIndex
 90
       18
102
RTVSPost2010Prop41ColorRGB
 90
        0
102
RTVSPost2010PropOp41
 70
     1
102
RTVSPost2010Prop42
 90
       50
102
RTVSPost2010PropOp42
 70
     1
102
RTVSPost2010Prop43
 90
        3
102
RTVSPost2010PropOp43
 70
     1
102
RTVSPost2010Prop44ColorIndex
 90
        5
102
RTVSPost2010Prop44ColorRGB
 90
      255
102
RTVSPost2010PropOp44
 70
     1
102
RTVSPost2010Prop45
280
     0
102
RTVSPost2010PropOp45
 70
     1
102
RTVSPost2010Prop46
 90
       50
102
RTVSPost2010PropOp46
 70
     1
102
RTVSPost2010Prop47
 90
       50
102
RTVSPost2010PropOp47
 70
     1
102
RTVSPost2010Prop48
 90
       50
102
RTVSPost2010PropOp48
 70
     1
102
RTVSPost2010Prop49
280
     0
102
RTVSPost2010PropOp49
 70
     1
102
RTVSPost2010Prop50
 90
       50
102
RTVSPost2010PropOp50
 70
     1
102
RTVSPost2010Prop51ColorIndex
 90
      256
102
RTVSPost2010Prop51ColorRGB
 90
-16777216
102
RTVSPost2010PropOp51
 70
     0
102
RTVSPost2010Prop52
140
1.0
102
RTVSPost2010PropOp52
 70
     0
102
RTVSPost2010Prop53
 90
        2
102
RTVSPost2010PropOp53
 70
     1
102
RTVSPost2010Prop54
  1
strokes_ogs.tif
102
RTVSPost2010PropOp54
 70
     1
102
RTVSPost2010Prop55
280
     0
102
RTVSPost2010PropOp55
 70
     1
102
RTVSPost2010Prop56
140
1.0
102
RTVSPost2010PropOp56
 70
     1
102
RTVSPost2010Prop57
140
1.0
102
RTVSPost2010PropOp57
 70
     1
  0
XRECORD
  5
2C05
102
{ACAD_REACTORS
330
2C04
102
}
330
2C04
100
AcDbXrecord
280
     1
102
RTVSPost2010Prop28
280
     0
102
RTVSPost2010PropOp28
 70
     1
102
RTVSPost2010Prop29
280
     1
102
RTVSPost2010PropOp29
 70
     1
102
RTVSPost2010Prop30
280
     1
102
RTVSPost2010PropOp30
 70
     1
102
RTVSPost2010Prop31
280
     0
102
RTVSPost2010PropOp31
 70
     1
102
RTVSPost2010Prop32
280
     0
102
RTVSPost2010PropOp32
 70
     1
102
RTVSPost2010Prop33
280
     0
102
RTVSPost2010PropOp33
 70
     1
102
RTVSPost2010Prop34
280
     0
102
RTVSPost2010PropOp34
 70
     1
102
RTVSPost2010Prop35
280
     0
102
RTVSPost2010PropOp35
 70
     1
102
RTVSPost2010Prop36
280
     0
102
RTVSPost2010PropOp36
 70
     1
102
RTVSPost2010Prop37
 90
       50
102
RTVSPost2010PropOp37
 70
     1
102
RTVSPost2010Prop38
140
0.0
102
RTVSPost2010PropOp38
 70
     1
102
RTVSPost2010Prop39
140
1.0
102
RTVSPost2010PropOp39
 70
     1
102
RTVSPost2010Prop40
 90
        0
102
RTVSPost2010PropOp40
 70
     1
102
RTVSPost2010Prop41ColorIndex
 90
       18
102
RTVSPost2010Prop41ColorRGB
 90
        0
102
RTVSPost2010PropOp41
 70
     1
102
RTVSPost2010Prop42
 90
       50
102
RTVSPost2010PropOp42
 70
     1
102
RTVSPost2010Prop43
 90
        3
102
RTVSPost2010PropOp43
 70
     1
102
RTVSPost2010Prop44ColorIndex
 90
        5
102
RTVSPost2010Prop44ColorRGB
 90
      255
102
RTVSPost2010PropOp44
 70
     1
102
RTVSPost2010Prop45
280
     0
102
RTVSPost2010PropOp45
 70
     1
102
RTVSPost2010Prop46
 90
       50
102
RTVSPost2010PropOp46
 70
     1
102
RTVSPost2010Prop47
 90
       50
102
RTVSPost2010PropOp47
 70
     1
102
RTVSPost2010Prop48
 90
       50
102
RTVSPost2010PropOp48
 70
     1
102
RTVSPost2010Prop49
280
     0
102
RTVSPost2010PropOp49
 70
     1
102
RTVSPost2010Prop50
 90
       50
102
RTVSPost2010PropOp50
 70
     1
102
RTVSPost2010Prop51ColorIndex
 90
      256
102
RTVSPost2010Prop51ColorRGB
 90
-16777216
102
RTVSPost2010PropOp51
 70
     0
102
RTVSPost2010Prop52
140
1.0
102
RTVSPost2010PropOp52
 70
     0
102
RTVSPost2010Prop53
 90
        2
102
RTVSPost2010PropOp53
 70
     1
102
RTVSPost2010Prop54
  1
strokes_ogs.tif
102
RTVSPost2010PropOp54
 70
     1
102
RTVSPost2010Prop55
280
     0
102
RTVSPost2010PropOp55
 70
     1
102
RTVSPost2010Prop56
140
1.0
102
RTVSPost2010PropOp56
 70
     1
102
RTVSPost2010Prop57
140
1.0
102
RTVSPost2010PropOp57
 70
     1
  0
XRECORD
  5
2C1D
102
{ACAD_REACTORS
330
2C1C
102
}
330
2C1C
100
AcDbXrecord
280
     1
102
RTVSPost2010Prop28
280
     0
102
RTVSPost2010PropOp28
 70
     1
102
RTVSPost2010Prop29
280
     1
102
RTVSPost2010PropOp29
 70
     1
102
RTVSPost2010Prop30
280
     1
102
RTVSPost2010PropOp30
 70
     1
102
RTVSPost2010Prop31
280
     0
102
RTVSPost2010PropOp31
 70
     1
102
RTVSPost2010Prop32
280
     0
102
RTVSPost2010PropOp32
 70
     1
102
RTVSPost2010Prop33
280
     0
102
RTVSPost2010PropOp33
 70
     1
102
RTVSPost2010Prop34
280
     0
102
RTVSPost2010PropOp34
 70
     1
102
RTVSPost2010Prop35
280
     0
102
RTVSPost2010PropOp35
 70
     1
102
RTVSPost2010Prop36
280
     0
102
RTVSPost2010PropOp36
 70
     1
102
RTVSPost2010Prop37
 90
       50
102
RTVSPost2010PropOp37
 70
     1
102
RTVSPost2010Prop38
140
0.0
102
RTVSPost2010PropOp38
 70
     1
102
RTVSPost2010Prop39
140
1.0
102
RTVSPost2010PropOp39
 70
     1
102
RTVSPost2010Prop40
 90
        0
102
RTVSPost2010PropOp40
 70
     1
102
RTVSPost2010Prop41ColorIndex
 90
       18
102
RTVSPost2010Prop41ColorRGB
 90
        0
102
RTVSPost2010PropOp41
 70
     1
102
RTVSPost2010Prop42
 90
       50
102
RTVSPost2010PropOp42
 70
     1
102
RTVSPost2010Prop43
 90
        3
102
RTVSPost2010PropOp43
 70
     1
102
RTVSPost2010Prop44ColorIndex
 90
        5
102
RTVSPost2010Prop44ColorRGB
 90
      255
102
RTVSPost2010PropOp44
 70
     1
102
RTVSPost2010Prop45
280
     0
102
RTVSPost2010PropOp45
 70
     1
102
RTVSPost2010Prop46
 90
       50
102
RTVSPost2010PropOp46
 70
     1
102
RTVSPost2010Prop47
 90
       50
102
RTVSPost2010PropOp47
 70
     1
102
RTVSPost2010Prop48
 90
       50
102
RTVSPost2010PropOp48
 70
     1
102
RTVSPost2010Prop49
280
     0
102
RTVSPost2010PropOp49
 70
     1
102
RTVSPost2010Prop50
 90
       50
102
RTVSPost2010PropOp50
 70
     1
102
RTVSPost2010Prop51ColorIndex
 90
      256
102
RTVSPost2010Prop51ColorRGB
 90
-16777216
102
RTVSPost2010PropOp51
 70
     0
102
RTVSPost2010Prop52
140
1.0
102
RTVSPost2010PropOp52
 70
     0
102
RTVSPost2010Prop53
 90
        2
102
RTVSPost2010PropOp53
 70
     1
102
RTVSPost2010Prop54
  1
strokes_ogs.tif
102
RTVSPost2010PropOp54
 70
     1
102
RTVSPost2010Prop55
280
     0
102
RTVSPost2010PropOp55
 70
     1
102
RTVSPost2010Prop56
140
1.0
102
RTVSPost2010PropOp56
 70
     1
102
RTVSPost2010Prop57
140
1.0
102
RTVSPost2010PropOp57
 70
     1
  0
ENDSEC
  0
EOF
