  0
SECTION
  2
HEADER
  9
$ACADVER
  1
AC1024
  9
$ACADMAINTVER
 70
   109
  9
$DWGCODEPAGE
  3
ANSI_1252
  9
$LASTSAVEDBY
  1
kaschu
  9
$INSBASE
 10
0.0
 20
0.0
 30
0.0
  9
$EXTMIN
 10
-1383.610468695055
 20
-198.1059983936325
 30
-0.0000000000000219
  9
$EXTMAX
 10
3331.659711640284
 20
2318.124439823553
 30
0.0000000000001295
  9
$LIMMIN
 10
0.0
 20
0.0
  9
$LIMMAX
 10
12.0
 20
9.0
  9
$ORTHOMODE
 70
     1
  9
$REGENMODE
 70
     1
  9
$FILLMODE
 70
     1
  9
$QTEXTMODE
 70
     0
  9
$MIRRTEXT
 70
     1
  9
$LTSCALE
 40
1.0
  9
$ATTMODE
 70
     1
  9
$TEXTSIZE
 40
0.2
  9
$TRACEWID
 40
0.05
  9
$TEXTSTYLE
  7
STANDARD
  9
$CLAYER
  8
0
  9
$CELTYPE
  6
BYLAYER
  9
$CECOLOR
 62
   256
  9
$CELTSCALE
 40
1.0
  9
$DISPSILH
 70
     0
  9
$DIMSCALE
 40
1.0
  9
$DIMASZ
 40
0.18
  9
$DIMEXO
 40
0.0625
  9
$DIMDLI
 40
0.38
  9
$DIMRND
 40
0.0
  9
$DIMDLE
 40
0.0
  9
$DIMEXE
 40
0.18
  9
$DIMTP
 40
0.0
  9
$DIMTM
 40
0.0
  9
$DIMTXT
 40
0.18
  9
$DIMCEN
 40
0.09
  9
$DIMTSZ
 40
0.0
  9
$DIMTOL
 70
     0
  9
$DIMLIM
 70
     0
  9
$DIMTIH
 70
     1
  9
$DIMTOH
 70
     1
  9
$DIMSE1
 70
     0
  9
$DIMSE2
 70
     0
  9
$DIMTAD
 70
     0
  9
$DIMZIN
 70
     0
  9
$DIMBLK
  1

  9
$DIMASO
 70
     1
  9
$DIMSHO
 70
     1
  9
$DIMPOST
  1

  9
$DIMAPOST
  1

  9
$DIMALT
 70
     0
  9
$DIMALTD
 70
     2
  9
$DIMALTF
 40
25.4
  9
$DIMLFAC
 40
1.0
  9
$DIMTOFL
 70
     0
  9
$DIMTVP
 40
0.0
  9
$DIMTIX
 70
     0
  9
$DIMSOXD
 70
     0
  9
$DIMSAH
 70
     0
  9
$DIMBLK1
  1

  9
$DIMBLK2
  1

  9
$DIMSTYLE
  2
STANDARD
  9
$DIMCLRD
 70
     0
  9
$DIMCLRE
 70
     0
  9
$DIMCLRT
 70
     0
  9
$DIMTFAC
 40
1.0
  9
$DIMGAP
 40
0.09
  9
$DIMJUST
 70
     0
  9
$DIMSD1
 70
     0
  9
$DIMSD2
 70
     0
  9
$DIMTOLJ
 70
     1
  9
$DIMTZIN
 70
     0
  9
$DIMALTZ
 70
     0
  9
$DIMALTTZ
 70
     0
  9
$DIMUPT
 70
     0
  9
$DIMDEC
 70
     4
  9
$DIMTDEC
 70
     4
  9
$DIMALTU
 70
     2
  9
$DIMALTTD
 70
     2
  9
$DIMTXSTY
  7
STANDARD
  9
$DIMAUNIT
 70
     0
  9
$DIMADEC
 70
     0
  9
$DIMALTRND
 40
0.0
  9
$DIMAZIN
 70
     0
  9
$DIMDSEP
 70
    46
  9
$DIMATFIT
 70
     3
  9
$DIMFRAC
 70
     0
  9
$DIMLDRBLK
  1

  9
$DIMLUNIT
 70
     2
  9
$DIMLWD
 70
    -2
  9
$DIMLWE
 70
    -2
  9
$DIMTMOVE
 70
     0
  9
$DIMFXL
 40
1.0
  9
$DIMFXLON
 70
     0
  9
$DIMJOGANG
 40
0.7853981633974483
  9
$DIMTFILL
 70
     0
  9
$DIMTFILLCLR
 70
     0
  9
$DIMARCSYM
 70
     0
  9
$DIMLTYPE
  6

  9
$DIMLTEX1
  6

  9
$DIMLTEX2
  6

  9
$DIMTXTDIRECTION
 70
     0
  9
$LUNITS
 70
     2
  9
$LUPREC
 70
     4
  9
$SKETCHINC
 40
0.1
  9
$FILLETRAD
 40
0.5
  9
$AUNITS
 70
     0
  9
$AUPREC
 70
     0
  9
$MENU
  1
.
  9
$ELEVATION
 40
0.0
  9
$PELEVATION
 40
0.0
  9
$THICKNESS
 40
0.0
  9
$LIMCHECK
 70
     0
  9
$CHAMFERA
 40
0.5
  9
$CHAMFERB
 40
0.5
  9
$CHAMFERC
 40
1.0
  9
$CHAMFERD
 40
0.0
  9
$SKPOLY
 70
     0
  9
$TDCREATE
 40
2451762.415066667
  9
$TDUCREATE
 40
2451762.373400000
  9
$TDUPDATE
 40
2458169.483353218
  9
$TDUUPDATE
 40
2458169.441686551
  9
$TDINDWG
 40
0.1978290278
  9
$TDUSRTIMER
 40
0.1978287269
  9
$USRTIMER
 70
     1
  9
$ANGBASE
 50
0.0
  9
$ANGDIR
 70
     0
  9
$PDMODE
 70
     0
  9
$PDSIZE
 40
0.0
  9
$PLINEWID
 40
0.0
  9
$SPLFRAME
 70
     0
  9
$SPLINETYPE
 70
     6
  9
$SPLINESEGS
 70
     8
  9
$HANDSEED
  5
2CA8
  9
$SURFTAB1
 70
     6
  9
$SURFTAB2
 70
     6
  9
$SURFTYPE
 70
     6
  9
$SURFU
 70
     6
  9
$SURFV
 70
     6
  9
$UCSBASE
  2

  9
$UCSNAME
  2

  9
$UCSORG
 10
0.0
 20
0.0
 30
0.0
  9
$UCSXDIR
 10
1.0
 20
0.0
 30
0.0
  9
$UCSYDIR
 10
0.0
 20
1.0
 30
0.0
  9
$UCSORTHOREF
  2

  9
$UCSORTHOVIEW
 70
     0
  9
$UCSORGTOP
 10
0.0
 20
0.0
 30
0.0
  9
$UCSORGBOTTOM
 10
0.0
 20
0.0
 30
0.0
  9
$UCSORGLEFT
 10
0.0
 20
0.0
 30
0.0
  9
$UCSORGRIGHT
 10
0.0
 20
0.0
 30
0.0
  9
$UCSORGFRONT
 10
0.0
 20
0.0
 30
0.0
  9
$UCSORGBACK
 10
0.0
 20
0.0
 30
0.0
  9
$PUCSBASE
  2

  9
$PUCSNAME
  2

  9
$PUCSORG
 10
0.0
 20
0.0
 30
0.0
  9
$PUCSXDIR
 10
1.0
 20
0.0
 30
0.0
  9
$PUCSYDIR
 10
0.0
 20
1.0
 30
0.0
  9
$PUCSORTHOREF
  2

  9
$PUCSORTHOVIEW
 70
     0
  9
$PUCSORGTOP
 10
0.0
 20
0.0
 30
0.0
  9
$PUCSORGBOTTOM
 10
0.0
 20
0.0
 30
0.0
  9
$PUCSORGLEFT
 10
0.0
 20
0.0
 30
0.0
  9
$PUCSORGRIGHT
 10
0.0
 20
0.0
 30
0.0
  9
$PUCSORGFRONT
 10
0.0
 20
0.0
 30
0.0
  9
$PUCSORGBACK
 10
0.0
 20
0.0
 30
0.0
  9
$USERI1
 70
     0
  9
$USERI2
 70
     0
  9
$USERI3
 70
     0
  9
$USERI4
 70
     0
  9
$USERI5
 70
     0
  9
$USERR1
 40
0.0
  9
$USERR2
 40
0.0
  9
$USERR3
 40
0.0
  9
$USERR4
 40
0.0
  9
$USERR5
 40
0.0
  9
$WORLDVIEW
 70
     1
  9
$SHADEDGE
 70
     3
  9
$SHADEDIF
 70
    70
  9
$TILEMODE
 70
     1
  9
$MAXACTVP
 70
    64
  9
$PINSBASE
 10
0.0
 20
0.0
 30
0.0
  9
$PLIMCHECK
 70
     0
  9
$PEXTMIN
 10
1.000000000000000E+20
 20
1.000000000000000E+20
 30
1.000000000000000E+20
  9
$PEXTMAX
 10
-1.000000000000000E+20
 20
-1.000000000000000E+20
 30
-1.000000000000000E+20
  9
$PLIMMIN
 10
0.0
 20
0.0
  9
$PLIMMAX
 10
12.0
 20
9.0
  9
$UNITMODE
 70
     0
  9
$VISRETAIN
 70
     1
  9
$PLINEGEN
 70
     0
  9
$PSLTSCALE
 70
     1
  9
$TREEDEPTH
 70
  3020
  9
$CMLSTYLE
  2
STANDARD
  9
$CMLJUST
 70
     0
  9
$CMLSCALE
 40
1.0
  9
$PROXYGRAPHICS
 70
     1
  9
$MEASUREMENT
 70
     0
  9
$CELWEIGHT
370
    -1
  9
$ENDCAPS
280
     0
  9
$JOINSTYLE
280
     0
  9
$LWDISPLAY
290
     0
  9
$INSUNITS
 70
     0
  9
$HYPERLINKBASE
  1

  9
$STYLESHEET
  1

  9
$XEDIT
290
     1
  9
$CEPSNTYPE
380
     0
  9
$PSTYLEMODE
290
     1
  9
$FINGERPRINTGUID
  2
{A42321FD-4D3B-470A-B3BE-A3689E04D828}
  9
$VERSIONGUID
  2
{9B1C31BB-3DAE-4A03-A50C-338BA9888F8A}
  9
$EXTNAMES
290
     1
  9
$PSVPSCALE
 40
0.0
  9
$OLESTARTUP
290
     0
  9
$SORTENTS
280
   127
  9
$INDEXCTL
280
     0
  9
$HIDETEXT
280
     0
  9
$XCLIPFRAME
280
     2
  9
$HALOGAP
280
     0
  9
$OBSCOLOR
 70
   257
  9
$OBSLTYPE
280
     0
  9
$INTERSECTIONDISPLAY
280
     0
  9
$INTERSECTIONCOLOR
 70
   257
  9
$DIMASSOC
280
     1
  9
$PROJECTNAME
  1

  9
$CAMERADISPLAY
290
     0
  9
$LENSLENGTH
 40
50.0
  9
$CAMERAHEIGHT
 40
0.0
  9
$STEPSPERSEC
 40
2.0
  9
$STEPSIZE
 40
6.0
  9
$3DDWFPREC
 40
2.0
  9
$PSOLWIDTH
 40
0.25
  9
$PSOLHEIGHT
 40
4.0
  9
$LOFTANG1
 40
1.570796326794896
  9
$LOFTANG2
 40
1.570796326794896
  9
$LOFTMAG1
 40
0.0
  9
$LOFTMAG2
 40
0.0
  9
$LOFTPARAM
 70
     7
  9
$LOFTNORMALS
280
     1
  9
$LATITUDE
 40
37.795
  9
$LONGITUDE
 40
-122.394
  9
$NORTHDIRECTION
 40
0.0
  9
$TIMEZONE
 70
 -8000
  9
$LIGHTGLYPHDISPLAY
280
     1
  9
$TILEMODELIGHTSYNCH
280
     1
  9
$CMATERIAL
347
17B
  9
$SOLIDHIST
280
     0
  9
$SHOWHIST
280
     1
  9
$DWFFRAME
280
     2
  9
$DGNFRAME
280
     0
  9
$REALWORLDSCALE
290
     1
  9
$INTERFERECOLOR
 62
     1
  9
$INTERFEREOBJVS
345
19D
  9
$INTERFEREVPVS
346
19A
  9
$CSHADOW
280
     0
  9
$SHADOWPLANELOCATION
 40
0.0
  0
ENDSEC
  0
SECTION
  2
CLASSES
  0
CLASS
  1
ACDBDICTIONARYWDFLT
  2
AcDbDictionaryWithDefault
  3
ObjectDBX Classes
 90
        0
 91
        1
280
     0
281
     0
  0
CLASS
  1
MATERIAL
  2
AcDbMaterial
  3
ObjectDBX Classes
 90
     1153
 91
        3
280
     0
281
     0
  0
CLASS
  1
VISUALSTYLE
  2
AcDbVisualStyle
  3
ObjectDBX Classes
 90
     4095
 91
       24
280
     0
281
     0
  0
CLASS
  1
TABLESTYLE
  2
AcDbTableStyle
  3
ObjectDBX Classes
 90
     4095
 91
        1
280
     0
281
     0
  0
CLASS
  1
SCALE
  2
AcDbScale
  3
ObjectDBX Classes
 90
     1153
 91
       17
280
     0
281
     0
  0
CLASS
  1
MLEADERSTYLE
  2
AcDbMLeaderStyle
  3
ACDB_MLEADERSTYLE_CLASS
 90
     4095
 91
        1
280
     0
281
     0
  0
CLASS
  1
ACDBSECTIONVIEWSTYLE
  2
AcDbSectionViewStyle
  3
ObjectDBX Classes
 90
     1025
 91
        1
280
     0
281
     0
  0
CLASS
  1
ACDBDETAILVIEWSTYLE
  2
AcDbDetailViewStyle
  3
ObjectDBX Classes
 90
     1025
 91
        1
280
     0
281
     0
  0
CLASS
  1
DICTIONARYVAR
  2
AcDbDictionaryVar
  3
ObjectDBX Classes
 90
        0
 91
        9
280
     0
281
     0
  0
CLASS
  1
SORTENTSTABLE
  2
AcDbSortentsTable
  3
ObjectDBX Classes
 90
        0
 91
        3
280
     0
281
     0
  0
CLASS
  1
CELLSTYLEMAP
  2
AcDbCellStyleMap
  3
ObjectDBX Classes
 90
     1152
 91
        9
280
     0
281
     0
  0
ENDSEC
  0
SECTION
  2
TABLES
  0
TABLE
  2
VPORT
  5
8
330
0
100
AcDbSymbolTable
 70
     1
  0
VPORT
  5
155
330
8
100
AcDbSymbolTableRecord
100
AcDbViewportTableRecord
  2
*ACTIVE
 70
     0
 10
0.0
 20
0.0
 11
1.0
 21
1.0
 12
858.888473746555
 22
1194.708570236219
 13
0.0
 23
0.0
 14
0.5
 24
0.5
 15
0.5
 25
0.5
 16
0.0
 26
0.0
 36
1.0
 17
0.0
 27
0.0
 37
0.0
 40
2365.556894089346
 41
1.875432525951557
 42
50.0
 43
0.0
 44
0.0
 50
0.0
 51
0.0
 71
     0
 72
 10000
 73
     1
 74
     3
 75
     0
 76
     0
 77
     0
 78
     0
281
     0
 65
     1
110
0.0
120
0.0
130
0.0
111
1.0
121
0.0
131
0.0
112
0.0
122
1.0
132
0.0
 79
     0
146
0.0
348
199
 60
     3
 61
     5
292
     1
282
     1
141
0.0
142
0.0
 63
   250
421
  3355443
1001
ACAD_NAV_VCDISPLAY
1070
     3
  0
ENDTAB
  0
TABLE
  2
LTYPE
  5
5
330
0
100
AcDbSymbolTable
 70
     6
  0
LTYPE
  5
14
330
5
100
AcDbSymbolTableRecord
100
AcDbLinetypeTableRecord
  2
BYBLOCK
 70
     0
  3

 72
    65
 73
     0
 40
0.0
  0
LTYPE
  5
15
330
5
100
AcDbSymbolTableRecord
100
AcDbLinetypeTableRecord
  2
BYLAYER
 70
     0
  3

 72
    65
 73
     0
 40
0.0
  0
LTYPE
  5
16
330
5
100
AcDbSymbolTableRecord
100
AcDbLinetypeTableRecord
  2
CONTINUOUS
 70
     0
  3
Solid line
 72
    65
 73
     0
 40
0.0
  0
LTYPE
  5
1C4
330
5
100
AcDbSymbolTableRecord
100
AcDbLinetypeTableRecord
  2
PHANTOM2
 70
     0
  3
___ _ _ ___ _ _ ___ _ _ ___ _ _
 72
    65
 73
     6
 40
1.25
 49
0.625
 74
     0
 49
-0.125
 74
     0
 49
0.125
 74
     0
 49
-0.125
 74
     0
 49
0.125
 74
     0
 49
-0.125
 74
     0
  0
LTYPE
  5
192A
330
5
100
AcDbSymbolTableRecord
100
AcDbLinetypeTableRecord
  2
ACAD_ISO02W100
 70
     0
  3
ISO Strichlinie __ __ __ __ __ __ __ __ __ __ _
 72
    65
 73
     2
 40
15.0
 49
12.0
 74
     0
 49
-3.0
 74
     0
  0
LTYPE
  5
1ABB
330
5
100
AcDbSymbolTableRecord
100
AcDbLinetypeTableRecord
  2
IMPORT
 70
     0
  3

 72
    65
 73
     0
 40
0.0
  0
LTYPE
  5
2466
330
5
100
AcDbSymbolTableRecord
100
AcDbLinetypeTableRecord
  2
ACAD_ISO03W100
 70
     0
  3
ISO Gestrichelt mit Abstand __    __    __    _
 72
    65
 73
     2
 40
30.0
 49
12.0
 74
     0
 49
-18.0
 74
     0
  0
ENDTAB
  0
TABLE
  2
LAYER
  5
2
102
{ACAD_XDICTIONARY
360
1E1
102
}
330
0
100
AcDbSymbolTable
 70
     7
  0
LAYER
  5
10
102
{ACAD_XDICTIONARY
360
1CD
102
}
330
2
100
AcDbSymbolTableRecord
100
AcDbLayerTableRecord
  2
0
 70
     0
 62
     7
  6
CONTINUOUS
370
    -3
390
E0
347
18B
  0
LAYER
  5
296
330
2
100
AcDbSymbolTableRecord
100
AcDbLayerTableRecord
  2
HEWI
 70
     0
 62
     7
  6
CONTINUOUS
370
     9
390
E0
347
18B
1001
AcAecLayerStandard
1000

1000

1001
AcCmTransparency
1071
        0
  0
LAYER
  5
309
330
2
100
AcDbSymbolTableRecord
100
AcDbLayerTableRecord
  2
Defpoints
 70
     0
 62
     7
  6
CONTINUOUS
290
     0
370
    -3
390
E0
347
18B
  0
LAYER
  5
192C
330
2
100
AcDbSymbolTableRecord
100
AcDbLayerTableRecord
  2
MITTELLINIE
 70
     0
 62
     4
  6
ACAD_ISO02W100
370
    -3
390
E0
347
18B
  0
LAYER
  5
2468
330
2
100
AcDbSymbolTableRecord
100
AcDbLayerTableRecord
  2
DECKENABH
 70
     0
 62
     4
  6
ACAD_ISO03W100
370
    -3
390
E0
347
18B
  0
ENDTAB
  0
TABLE
  2
STYLE
  5
3
330
0
100
AcDbSymbolTable
 70
     2
  0
STYLE
  5
11
330
3
100
AcDbSymbolTableRecord
100
AcDbTextStyleTableRecord
  2
STANDARD
 70
     0
 40
0.0
 41
1.0
 50
0.0
 71
     0
 42
0.2
  3
txt
  4

  0
ENDTAB
  0
TABLE
  2
VIEW
  5
6
330
0
100
AcDbSymbolTable
 70
     8
  0
ENDTAB
  0
TABLE
  2
UCS
  5
7
330
0
100
AcDbSymbolTable
 70
     0
  0
ENDTAB
  0
TABLE
  2
APPID
  5
9
330
0
100
AcDbSymbolTable
 70
     7
  0
APPID
  5
12
330
9
100
AcDbSymbolTableRecord
100
AcDbRegAppTableRecord
  2
ACAD
 70
     0
  0
APPID
  5
1D1
330
9
100
AcDbSymbolTableRecord
100
AcDbRegAppTableRecord
  2
ACAD_NAV_VCDISPLAY
 70
     0
  0
APPID
  5
297
330
9
100
AcDbSymbolTableRecord
100
AcDbRegAppTableRecord
  2
AcAecLayerStandard
 70
     0
  0
APPID
  5
298
330
9
100
AcDbSymbolTableRecord
100
AcDbRegAppTableRecord
  2
AcCmTransparency
 70
     0
  0
APPID
  5
2AA
330
9
100
AcDbSymbolTableRecord
100
AcDbRegAppTableRecord
  2
ACAD_PSEXT
 70
     0
  0
APPID
  5
4A0
330
9
100
AcDbSymbolTableRecord
100
AcDbRegAppTableRecord
  2
ACAD_EXEMPT_FROM_CAD_STANDARDS
 70
     0
  0
APPID
  5
26FB
330
9
100
AcDbSymbolTableRecord
100
AcDbRegAppTableRecord
  2
ACAD_DSTYLE_DIMRADIAL_EXTENSION
 70
     0
  0
ENDTAB
  0
TABLE
  2
DIMSTYLE
  5
A
330
0
100
AcDbSymbolTable
 70
     2
100
AcDbDimStyleTable
 71
     1
340
27
  0
DIMSTYLE
105
27
330
A
100
AcDbSymbolTableRecord
100
AcDbDimStyleTableRecord
  2
STANDARD
 70
     0
340
11
  0
ENDTAB
  0
TABLE
  2
BLOCK_RECORD
  5
1
330
0
100
AcDbSymbolTable
 70
    18
  0
BLOCK_RECORD
  5
1F
102
{ACAD_XDICTIONARY
360
D9
102
}
330
1
100
AcDbSymbolTableRecord
100
AcDbBlockTableRecord
  2
*MODEL_SPACE
340
1C8
 70
     0
280
     1
281
     0
  0
BLOCK_RECORD
  5
1B
102
{ACAD_XDICTIONARY
360
D7
102
}
330
1
100
AcDbSymbolTableRecord
100
AcDbBlockTableRecord
  2
*PAPER_SPACE
340
1C9
 70
     0
280
     1
281
     0
  0
ENDTAB
  0
ENDSEC
  0
SECTION
  2
BLOCKS
  0
BLOCK
  5
20
330
1F
100
AcDbEntity
  8
0
100
AcDbBlockBegin
  2
*MODEL_SPACE
 70
     0
 10
0.0
 20
0.0
 30
0.0
  3
*MODEL_SPACE
  1

  0
ENDBLK
  5
21
330
1F
100
AcDbEntity
  8
0
100
AcDbBlockEnd
  0
BLOCK
  5
1C
330
1B
100
AcDbEntity
 67
     1
  8
0
100
AcDbBlockBegin
  2
*PAPER_SPACE
 70
     0
 10
0.0
 20
0.0
 30
0.0
  3
*PAPER_SPACE
  1

  0
ENDBLK
  5
1D
330
1B
100
AcDbEntity
 67
     1
  8
0
100
AcDbBlockEnd
  0
ENDSEC
  0
SECTION
  2
ENTITIES
  0
LWPOLYLINE
  5
1EA1
330
1F
100
AcDbEntity
  8
HEWI
100
AcDbPolyline
 90
        3
 70
     0
 43
0.0
 10
196.1225797195467
 20
1830.626864517823
 10
196.1200539962975
 20
1830.626864517823
 10
196.1200539962975
 20
1818.12686451726
  0
LWPOLYLINE
  5
1EA2
330
1F
100
AcDbEntity
  8
HEWI
100
AcDbPolyline
 90
        2
 70
     0
 43
0.0
 10
208.1175285180126
 20
1805.626864517823
 10
868.7825113396945
 20
1805.626864517823
  0
LWPOLYLINE
  5
1EA3
330
1F
100
AcDbEntity
  8
HEWI
100
AcDbPolyline
 90
        2
 70
     0
 43
0.0
 10
878.7825113396944
 20
1805.626864517823
 10
908.7825113396943
 20
1805.626864517823
  0
LWPOLYLINE
  5
1EA4
330
1F
100
AcDbEntity
  8
HEWI
100
AcDbPolyline
 90
        2
 70
     0
 43
0.0
 10
918.7825113396945
 20
1805.626864517823
 10
948.7825113396944
 20
1805.626864517823
  0
LWPOLYLINE
  5
1EA5
330
1F
100
AcDbEntity
  8
HEWI
100
AcDbPolyline
 90
        2
 70
     0
 43
0.0
 10
958.7825113396943
 20
1805.626864517823
 10
988.7825113396944
 20
1805.626864517823
  0
LWPOLYLINE
  5
1EA6
330
1F
100
AcDbEntity
  8
HEWI
100
AcDbPolyline
 90
        2
 70
     0
 43
0.0
 10
998.7825113396944
 20
1805.626864517823
 10
1028.782511339694
 20
1805.626864517823
  0
LWPOLYLINE
  5
1EA7
330
1F
100
AcDbEntity
  8
HEWI
100
AcDbPolyline
 90
        2
 70
     0
 43
0.0
 10
1038.782511339694
 20
1805.626864517823
 10
1068.782511339694
 20
1805.626864517823
  0
LWPOLYLINE
  5
1EA8
330
1F
100
AcDbEntity
  8
HEWI
100
AcDbPolyline
 90
        2
 70
     0
 43
0.0
 10
1078.782511339694
 20
1805.626864517823
 10
1108.782506571322
 20
1805.626864517823
  0
LWPOLYLINE
  5
1EA9
330
1F
100
AcDbEntity
  8
HEWI
100
AcDbPolyline
 90
        2
 70
     0
 43
0.0
 10
1118.782506571322
 20
1805.626864517823
 10
1148.782508955508
 20
1805.626864517823
  0
LWPOLYLINE
  5
1EAA
330
1F
100
AcDbEntity
  8
HEWI
100
AcDbPolyline
 90
        2
 70
     0
 43
0.0
 10
1158.782508359462
 20
1805.626864517823
 10
1188.782508955508
 20
1805.626864517823
  0
LWPOLYLINE
  5
1EAB
330
1F
100
AcDbEntity
  8
HEWI
100
AcDbPolyline
 90
        2
 70
     0
 43
0.0
 10
1198.782508955508
 20
1805.626864517823
 10
1228.782509551555
 20
1805.626864517823
  0
LWPOLYLINE
  5
1EAC
330
1F
100
AcDbEntity
  8
HEWI
100
AcDbPolyline
 90
        2
 70
     0
 43
0.0
 10
1238.782509551555
 20
1805.626864517823
 10
1657.027970531342
 20
1805.626864517823
  0
LWPOLYLINE
  5
1EAE
330
1F
100
AcDbEntity
  8
HEWI
100
AcDbPolyline
 90
        2
 70
     0
 43
0.0
 10
1683.120144987731
 20
1830.624439823222
 10
1671.068690330632
 20
1830.624524376524
  0
LWPOLYLINE
  5
1EAF
330
1F
100
AcDbEntity
  8
HEWI
100
AcDbPolyline
 90
        2
 70
     0
 43
0.0
 10
1230.038663389042
 20
1830.626864517823
 10
1197.526345581278
 20
1830.626864517823
  0
LWPOLYLINE
  5
1EB0
330
1F
100
AcDbEntity
  8
HEWI
100
AcDbPolyline
 90
        2
 70
     0
 43
0.0
 10
1190.038662792996
 20
1830.626864517823
 10
1157.526344389185
 20
1830.626864517823
  0
LWPOLYLINE
  5
1EB1
330
1F
100
AcDbEntity
  8
HEWI
100
AcDbPolyline
 90
        2
 70
     0
 43
0.0
 10
1150.038661862793
 20
1830.626864517823
 10
1117.526343197092
 20
1830.626864517823
  0
LWPOLYLINE
  5
1EB2
330
1F
100
AcDbEntity
  8
HEWI
100
AcDbPolyline
 90
        2
 70
     0
 43
0.0
 10
1110.03866040881
 20
1830.626864517823
 10
1077.526347965464
 20
1830.626864517823
  0
LWPOLYLINE
  5
1EB3
330
1F
100
AcDbEntity
  8
HEWI
100
AcDbPolyline
 90
        2
 70
     0
 43
0.0
 10
1070.038665177181
 20
1830.626864517823
 10
1037.526347965464
 20
1830.626864517823
  0
LWPOLYLINE
  5
1EB4
330
1F
100
AcDbEntity
  8
HEWI
100
AcDbPolyline
 90
        2
 70
     0
 43
0.0
 10
1030.038665177181
 20
1830.626864517823
 10
997.5263384287206
 20
1830.626864517823
  0
LWPOLYLINE
  5
1EB5
330
1F
100
AcDbEntity
  8
HEWI
100
AcDbPolyline
 90
        2
 70
     0
 43
0.0
 10
990.0386651771817
 20
1830.626864517823
 10
957.5263384287209
 20
1830.626864517823
  0
LWPOLYLINE
  5
1EB6
330
1F
100
AcDbEntity
  8
HEWI
100
AcDbPolyline
 90
        2
 70
     0
 43
0.0
 10
950.0386651771817
 20
1830.626864517823
 10
917.5263384287211
 20
1830.626864517823
  0
LWPOLYLINE
  5
1EB7
330
1F
100
AcDbEntity
  8
HEWI
100
AcDbPolyline
 90
        2
 70
     0
 43
0.0
 10
910.0386651771817
 20
1830.626864517823
 10
877.5263384287205
 20
1830.626864517823
  0
LWPOLYLINE
  5
1EB8
330
1F
100
AcDbEntity
  8
HEWI
100
AcDbPolyline
 90
        2
 70
     0
 43
0.0
 10
870.0386651771818
 20
1830.626864517823
 10
208.1225799645109
 20
1830.626864517823
  0
LINE
  5
1EBF
330
1F
100
AcDbEntity
  8
HEWI
100
AcDbLine
 10
207.1271257967006
 20
1853.12464116693
 30
0.0
 11
196.1271260212507
 21
1853.126863803344
 31
0.0
  0
LINE
  5
1EC0
330
1F
100
AcDbEntity
  8
HEWI
100
AcDbLine
 10
196.1271260212507
 20
1853.126863803344
 30
0.0
 11
196.1129819713443
 21
1783.126865232303
 31
0.0
  0
LINE
  5
1EC1
330
1F
100
AcDbEntity
  8
HEWI
100
AcDbLine
 10
196.1129819713443
 20
1783.126865232303
 30
0.0
 11
207.1129817467937
 21
1783.124642595889
 31
0.0
  0
LWPOLYLINE
  5
1EC2
330
1F
100
AcDbEntity
  8
HEWI
100
AcDbPolyline
 90
        2
 70
     0
 43
0.0
 10
208.1131837842357
 20
1784.124440517619
 10
208.1269237184307
 20
1852.124439129488
  0
ARC
  5
1EC3
330
1F
100
AcDbEntity
  8
HEWI
100
AcDbCircle
 10
207.1269237388436
 20
1852.124641187344
 30
0.0
 40
1.0
100
AcDbArc
 50
359.9884229375631
 51
89.98842293756306
  0
ARC
  5
1EC4
330
1F
100
AcDbEntity
  8
HEWI
100
AcDbCircle
 10
207.1131838046496
 20
1784.124642575475
 30
0.0
 40
1.0
100
AcDbArc
 50
269.9884229375631
 51
359.9884229375631
  0
LINE
  5
1EC5
330
1F
100
AcDbEntity
  8
HEWI
  6
IMPORT
 62
     7
100
AcDbLine
 10
1157.526358352214
 20
1830.626864517823
 30
0.0
 11
1190.03864823392
 21
1830.626864517823
 31
0.0
  0
LINE
  5
1EC6
330
1F
100
AcDbEntity
  8
HEWI
  6
IMPORT
 62
     7
100
AcDbLine
 10
1117.526360140353
 20
1830.626864517823
 30
0.0
 11
1150.03864823392
 21
1830.626864517823
 31
0.0
  0
LINE
  5
1EC7
330
1F
100
AcDbEntity
  8
HEWI
  6
IMPORT
 62
     7
100
AcDbLine
 10
1077.526360140353
 20
1830.626864517823
 30
0.0
 11
1110.03864823392
 21
1830.626864517823
 31
0.0
  0
LINE
  5
1EC8
330
1F
100
AcDbEntity
  8
HEWI
  6
IMPORT
 62
     7
100
AcDbLine
 10
1037.526360140353
 20
1830.626864517823
 30
0.0
 11
1070.038653002292
 21
1830.626864517823
 31
0.0
  0
LINE
  5
1EC9
330
1F
100
AcDbEntity
  8
HEWI
  6
IMPORT
 62
     7
100
AcDbLine
 10
997.5263506036105
 20
1830.626864517823
 30
0.0
 11
1030.038653002292
 21
1830.626864517823
 31
0.0
  0
LINE
  5
1ECA
330
1F
100
AcDbEntity
  8
HEWI
  6
IMPORT
 62
     7
100
AcDbLine
 10
957.5263506036105
 20
1830.626864517823
 30
0.0
 11
990.038653002292
 21
1830.626864517823
 31
0.0
  0
LINE
  5
1ECB
330
1F
100
AcDbEntity
  8
HEWI
  6
IMPORT
 62
     7
100
AcDbLine
 10
917.5263506036104
 20
1830.626864517823
 30
0.0
 11
950.038653002292
 21
1830.626864517823
 31
0.0
  0
LINE
  5
1ECC
330
1F
100
AcDbEntity
  8
HEWI
  6
IMPORT
 62
     7
100
AcDbLine
 10
877.5263506036104
 20
1830.626864517823
 30
0.0
 11
910.0386530022921
 21
1830.626864517823
 31
0.0
  0
LINE
  5
1ECD
330
1F
100
AcDbEntity
  8
HEWI
  6
IMPORT
 62
     7
100
AcDbLine
 10
1193.182509527713
 20
1788.849177445069
 30
0.0
 11
1194.382508383304
 21
1788.849177445069
 31
0.0
  0
LINE
  5
1ECE
330
1F
100
AcDbEntity
  8
HEWI
  6
IMPORT
 62
     7
100
AcDbLine
 10
1153.18250833562
 20
1788.849177445069
 30
0.0
 11
1154.382508383304
 21
1788.849177445069
 31
0.0
  0
LINE
  5
1ECF
330
1F
100
AcDbEntity
  8
HEWI
  6
IMPORT
 62
     7
100
AcDbLine
 10
1113.182507143527
 20
1788.849177445069
 30
0.0
 11
1114.382510767489
 21
1788.849177445069
 31
0.0
  0
LINE
  5
1ED0
330
1F
100
AcDbEntity
  8
HEWI
  6
IMPORT
 62
     7
100
AcDbLine
 10
1073.182507143527
 20
1788.849177445069
 30
0.0
 11
1074.382505999118
 21
1788.849177445069
 31
0.0
  0
LINE
  5
1ED1
330
1F
100
AcDbEntity
  8
HEWI
  6
IMPORT
 62
     7
100
AcDbLine
 10
1033.182507143527
 20
1788.849177445069
 30
0.0
 11
1034.382505999118
 21
1788.849177445069
 31
0.0
  0
LINE
  5
1ED2
330
1F
100
AcDbEntity
  8
HEWI
  6
IMPORT
 62
     7
100
AcDbLine
 10
993.1825166802706
 20
1788.849177445069
 30
0.0
 11
994.3825059991182
 21
1788.849177445069
 31
0.0
  0
LINE
  5
1ED3
330
1F
100
AcDbEntity
  8
HEWI
  6
IMPORT
 62
     7
100
AcDbLine
 10
953.1825166802706
 20
1788.849177445069
 30
0.0
 11
954.3825059991183
 21
1788.849177445069
 31
0.0
  0
LINE
  5
1ED4
330
1F
100
AcDbEntity
  8
HEWI
  6
IMPORT
 62
     7
100
AcDbLine
 10
913.1825166802705
 20
1788.849177445069
 30
0.0
 11
914.3825059991183
 21
1788.849177445069
 31
0.0
  0
LINE
  5
1ED5
330
1F
100
AcDbEntity
  8
HEWI
  6
IMPORT
 62
     7
100
AcDbLine
 10
873.1825166802705
 20
1788.849177445069
 30
0.0
 11
874.3825059991182
 21
1788.849177445069
 31
0.0
  0
LINE
  5
1ED6
330
1F
100
AcDbEntity
  8
HEWI
  6
IMPORT
 62
     7
100
AcDbLine
 10
1191.282508955508
 20
1783.389887894288
 30
0.0
 11
1196.282508955508
 21
1783.389887894288
 31
0.0
  0
LINE
  5
1ED7
330
1F
100
AcDbEntity
  8
HEWI
  6
IMPORT
 62
     7
100
AcDbLine
 10
1151.282508955508
 20
1783.389887894288
 30
0.0
 11
1156.282508955508
 21
1783.389887894288
 31
0.0
  0
LINE
  5
1ED8
330
1F
100
AcDbEntity
  8
HEWI
  6
IMPORT
 62
     7
100
AcDbLine
 10
1111.282506571322
 20
1783.389887894288
 30
0.0
 11
1116.282506571323
 21
1783.389887894288
 31
0.0
  0
LINE
  5
1ED9
330
1F
100
AcDbEntity
  8
HEWI
  6
IMPORT
 62
     7
100
AcDbLine
 10
1071.282511339694
 20
1783.389887894288
 30
0.0
 11
1076.282511339694
 21
1783.389887894288
 31
0.0
  0
LINE
  5
1EDA
330
1F
100
AcDbEntity
  8
HEWI
  6
IMPORT
 62
     7
100
AcDbLine
 10
1031.282511339694
 20
1783.389887894288
 30
0.0
 11
1036.282511339694
 21
1783.389887894288
 31
0.0
  0
LINE
  5
1EDB
330
1F
100
AcDbEntity
  8
HEWI
  6
IMPORT
 62
     7
100
AcDbLine
 10
991.2825113396944
 20
1783.389887894288
 30
0.0
 11
996.2825113396943
 21
1783.389887894288
 31
0.0
  0
LINE
  5
1EDC
330
1F
100
AcDbEntity
  8
HEWI
  6
IMPORT
 62
     7
100
AcDbLine
 10
951.2825113396944
 20
1783.389887894288
 30
0.0
 11
956.2825113396945
 21
1783.389887894288
 31
0.0
  0
LINE
  5
1EDD
330
1F
100
AcDbEntity
  8
HEWI
  6
IMPORT
 62
     7
100
AcDbLine
 10
911.2825113396944
 20
1783.389887894288
 30
0.0
 11
916.2825113396944
 21
1783.389887894288
 31
0.0
  0
LINE
  5
1EDE
330
1F
100
AcDbEntity
  8
HEWI
  6
IMPORT
 62
     7
100
AcDbLine
 10
871.2825113396943
 20
1783.389887894288
 30
0.0
 11
876.2825113396944
 21
1783.389887894288
 31
0.0
  0
LINE
  5
1EDF
330
1F
100
AcDbEntity
  8
HEWI
  6
IMPORT
 62
     7
100
AcDbLine
 10
1193.182509527713
 20
1840.340876663819
 30
0.0
 11
1194.827569113284
 21
1840.261340225831
 31
0.0
  0
LINE
  5
1EE0
330
1F
100
AcDbEntity
  8
HEWI
  6
IMPORT
 62
     7
100
AcDbLine
 10
1153.18250833562
 20
1840.340876663819
 30
0.0
 11
1154.827567921191
 21
1840.261340225831
 31
0.0
  0
LINE
  5
1EE1
330
1F
100
AcDbEntity
  8
HEWI
  6
IMPORT
 62
     7
100
AcDbLine
 10
1113.182507143527
 20
1840.340876663819
 30
0.0
 11
1114.827566729098
 21
1840.261340225831
 31
0.0
  0
LINE
  5
1EE2
330
1F
100
AcDbEntity
  8
HEWI
  6
IMPORT
 62
     7
100
AcDbLine
 10
1073.182507143527
 20
1840.340876663819
 30
0.0
 11
1074.827566729098
 21
1840.261340225831
 31
0.0
  0
LINE
  5
1EE3
330
1F
100
AcDbEntity
  8
HEWI
  6
IMPORT
 62
     7
100
AcDbLine
 10
1033.182507143527
 20
1840.340876663819
 30
0.0
 11
1034.827566729098
 21
1840.261340225831
 31
0.0
  0
LINE
  5
1EE4
330
1F
100
AcDbEntity
  8
HEWI
  6
IMPORT
 62
     7
100
AcDbLine
 10
993.1825166802706
 20
1840.340876663819
 30
0.0
 11
994.8275667290985
 21
1840.261340225831
 31
0.0
  0
LINE
  5
1EE5
330
1F
100
AcDbEntity
  8
HEWI
  6
IMPORT
 62
     7
100
AcDbLine
 10
953.1825166802706
 20
1840.340876663819
 30
0.0
 11
954.8275667290987
 21
1840.261340225831
 31
0.0
  0
LINE
  5
1EE6
330
1F
100
AcDbEntity
  8
HEWI
  6
IMPORT
 62
     7
100
AcDbLine
 10
913.1825166802705
 20
1840.340876663819
 30
0.0
 11
914.8275667290986
 21
1840.261340225831
 31
0.0
  0
LINE
  5
1EE7
330
1F
100
AcDbEntity
  8
HEWI
  6
IMPORT
 62
     7
100
AcDbLine
 10
873.1825166802705
 20
1840.340876663819
 30
0.0
 11
874.8275667290988
 21
1840.261340225831
 31
0.0
  0
LINE
  5
1EE8
330
1F
100
AcDbEntity
  8
HEWI
  6
IMPORT
 62
     7
100
AcDbLine
 10
1191.498697386294
 20
1840.039858902589
 30
0.0
 11
1191.938698874026
 21
1840.118517960206
 31
0.0
  0
LINE
  5
1EE9
330
1F
100
AcDbEntity
  8
HEWI
  6
IMPORT
 62
     7
100
AcDbLine
 10
1151.498698578387
 20
1840.039858902589
 30
0.0
 11
1151.938698874026
 21
1840.118517960206
 31
0.0
  0
LINE
  5
1EEA
330
1F
100
AcDbEntity
  8
HEWI
  6
IMPORT
 62
     7
100
AcDbLine
 10
1111.49869977048
 20
1840.039858902589
 30
0.0
 11
1111.938696489841
 21
1840.118517960206
 31
0.0
  0
LINE
  5
1EEB
330
1F
100
AcDbEntity
  8
HEWI
  6
IMPORT
 62
     7
100
AcDbLine
 10
1071.49869977048
 20
1840.039858902589
 30
0.0
 11
1071.938696489841
 21
1840.118517960206
 31
0.0
  0
LINE
  5
1EEC
330
1F
100
AcDbEntity
  8
HEWI
  6
IMPORT
 62
     7
100
AcDbLine
 10
1031.49869977048
 20
1840.039858902589
 30
0.0
 11
1031.938696489841
 21
1840.118517960206
 31
0.0
  0
LINE
  5
1EED
330
1F
100
AcDbEntity
  8
HEWI
  6
IMPORT
 62
     7
100
AcDbLine
 10
991.4986902337373
 20
1840.039858902589
 30
0.0
 11
991.9386964898409
 21
1840.118517960206
 31
0.0
  0
LINE
  5
1EEE
330
1F
100
AcDbEntity
  8
HEWI
  6
IMPORT
 62
     7
100
AcDbLine
 10
951.4986902337374
 20
1840.039858902589
 30
0.0
 11
951.9386964898409
 21
1840.118517960206
 31
0.0
  0
LINE
  5
1EEF
330
1F
100
AcDbEntity
  8
HEWI
  6
IMPORT
 62
     7
100
AcDbLine
 10
911.4986902337374
 20
1840.039858902589
 30
0.0
 11
911.9386964898408
 21
1840.118517960206
 31
0.0
  0
LINE
  5
1EF0
330
1F
100
AcDbEntity
  8
HEWI
  6
IMPORT
 62
     7
100
AcDbLine
 10
871.4986902337374
 20
1840.039858902589
 30
0.0
 11
871.938696489841
 21
1840.118517960206
 31
0.0
  0
LINE
  5
1EF1
330
1F
100
AcDbEntity
  8
HEWI
  6
IMPORT
 62
     7
100
AcDbLine
 10
1195.589149580508
 20
1831.752619827882
 30
0.0
 11
1195.718019590884
 21
1831.736292923585
 31
0.0
  0
LINE
  5
1EF2
330
1F
100
AcDbEntity
  8
HEWI
  6
IMPORT
 62
     7
100
AcDbLine
 10
1191.732729063541
 20
1831.687769974366
 30
0.0
 11
1191.846988783389
 21
1831.736292923585
 31
0.0
  0
LINE
  5
1EF3
330
1F
100
AcDbEntity
  8
HEWI
  6
IMPORT
 62
     7
100
AcDbLine
 10
1155.589148388415
 20
1831.752619827882
 30
0.0
 11
1155.718018398791
 21
1831.736292923585
 31
0.0
  0
LINE
  5
1EF4
330
1F
100
AcDbEntity
  8
HEWI
  6
IMPORT
 62
     7
100
AcDbLine
 10
1151.73272906354
 20
1831.687769974366
 30
0.0
 11
1151.846988783389
 21
1831.736292923585
 31
0.0
  0
LINE
  5
1EF5
330
1F
100
AcDbEntity
  8
HEWI
  6
IMPORT
 62
     7
100
AcDbLine
 10
1115.589147196322
 20
1831.752619827882
 30
0.0
 11
1115.718017206698
 21
1831.736292923585
 31
0.0
  0
LINE
  5
1EF6
330
1F
100
AcDbEntity
  8
HEWI
  6
IMPORT
 62
     7
100
AcDbLine
 10
1111.732726679355
 20
1831.687769974366
 30
0.0
 11
1111.846986399203
 21
1831.736292923585
 31
0.0
  0
LINE
  5
1EF7
330
1F
100
AcDbEntity
  8
HEWI
  6
IMPORT
 62
     7
100
AcDbLine
 10
1075.589151964694
 20
1831.752619827882
 30
0.0
 11
1075.71802197507
 21
1831.736292923585
 31
0.0
  0
LINE
  5
1EF8
330
1F
100
AcDbEntity
  8
HEWI
  6
IMPORT
 62
     7
100
AcDbLine
 10
1071.732731447726
 20
1831.687769974366
 30
0.0
 11
1071.846991167575
 21
1831.736292923585
 31
0.0
  0
LINE
  5
1EF9
330
1F
100
AcDbEntity
  8
HEWI
  6
IMPORT
 62
     7
100
AcDbLine
 10
1035.589151964694
 20
1831.752619827882
 30
0.0
 11
1035.71802197507
 21
1831.736292923585
 31
0.0
  0
LINE
  5
1EFA
330
1F
100
AcDbEntity
  8
HEWI
  6
IMPORT
 62
     7
100
AcDbLine
 10
1031.732731447726
 20
1831.687769974366
 30
0.0
 11
1031.846991167575
 21
1831.736292923585
 31
0.0
  0
LINE
  5
1EFB
330
1F
100
AcDbEntity
  8
HEWI
  6
IMPORT
 62
     7
100
AcDbLine
 10
995.5891519646945
 20
1831.752619827882
 30
0.0
 11
995.7180124383272
 21
1831.736292923585
 31
0.0
  0
LINE
  5
1EFC
330
1F
100
AcDbEntity
  8
HEWI
  6
IMPORT
 62
     7
100
AcDbLine
 10
991.7327219109834
 20
1831.687769974366
 30
0.0
 11
991.8469911675753
 21
1831.736292923585
 31
0.0
  0
LINE
  5
1EFD
330
1F
100
AcDbEntity
  8
HEWI
  6
IMPORT
 62
     7
100
AcDbLine
 10
955.5891519646944
 20
1831.752619827882
 30
0.0
 11
955.7180124383272
 21
1831.736292923585
 31
0.0
  0
LINE
  5
1EFE
330
1F
100
AcDbEntity
  8
HEWI
  6
IMPORT
 62
     7
100
AcDbLine
 10
951.7327219109835
 20
1831.687769974366
 30
0.0
 11
951.8469911675751
 21
1831.736292923585
 31
0.0
  0
LINE
  5
1EFF
330
1F
100
AcDbEntity
  8
HEWI
  6
IMPORT
 62
     7
100
AcDbLine
 10
915.5891519646944
 20
1831.752619827882
 30
0.0
 11
915.7180124383272
 21
1831.736292923585
 31
0.0
  0
LINE
  5
1F00
330
1F
100
AcDbEntity
  8
HEWI
  6
IMPORT
 62
     7
100
AcDbLine
 10
911.7327219109835
 20
1831.687769974366
 30
0.0
 11
911.8469911675752
 21
1831.736292923585
 31
0.0
  0
LINE
  5
1F01
330
1F
100
AcDbEntity
  8
HEWI
  6
IMPORT
 62
     7
100
AcDbLine
 10
875.5891519646944
 20
1831.752619827882
 30
0.0
 11
875.7180124383273
 21
1831.736292923585
 31
0.0
  0
LINE
  5
1F02
330
1F
100
AcDbEntity
  8
HEWI
  6
IMPORT
 62
     7
100
AcDbLine
 10
871.7327219109835
 20
1831.687769974366
 30
0.0
 11
871.8469911675752
 21
1831.736292923585
 31
0.0
  0
LINE
  5
1F03
330
1F
100
AcDbEntity
  8
HEWI
  6
IMPORT
 62
     7
100
AcDbLine
 10
1193.140347586185
 20
1831.899828995362
 30
0.0
 11
1194.294298277408
 21
1831.91630848755
 31
0.0
  0
LINE
  5
1F04
330
1F
100
AcDbEntity
  8
HEWI
  6
IMPORT
 62
     7
100
AcDbLine
 10
1153.140348778278
 20
1831.899828995362
 30
0.0
 11
1154.294298277408
 21
1831.91630848755
 31
0.0
  0
LINE
  5
1F05
330
1F
100
AcDbEntity
  8
HEWI
  6
IMPORT
 62
     7
100
AcDbLine
 10
1113.14034997037
 20
1831.899828995362
 30
0.0
 11
1114.294300661593
 21
1831.91630848755
 31
0.0
  0
LINE
  5
1F06
330
1F
100
AcDbEntity
  8
HEWI
  6
IMPORT
 62
     7
100
AcDbLine
 10
1073.140345201999
 20
1831.899828995362
 30
0.0
 11
1074.294300661594
 21
1831.91630848755
 31
0.0
  0
LINE
  5
1F07
330
1F
100
AcDbEntity
  8
HEWI
  6
IMPORT
 62
     7
100
AcDbLine
 10
1033.140345201999
 20
1831.899828995362
 30
0.0
 11
1034.294300661594
 21
1831.91630848755
 31
0.0
  0
LINE
  5
1F08
330
1F
100
AcDbEntity
  8
HEWI
  6
IMPORT
 62
     7
100
AcDbLine
 10
993.140345201999
 20
1831.899828995362
 30
0.0
 11
994.2942911248504
 21
1831.91630848755
 31
0.0
  0
LINE
  5
1F09
330
1F
100
AcDbEntity
  8
HEWI
  6
IMPORT
 62
     7
100
AcDbLine
 10
953.1403452019988
 20
1831.899828995362
 30
0.0
 11
954.2942911248504
 21
1831.91630848755
 31
0.0
  0
LINE
  5
1F0A
330
1F
100
AcDbEntity
  8
HEWI
  6
IMPORT
 62
     7
100
AcDbLine
 10
913.140345201999
 20
1831.899828995362
 30
0.0
 11
914.2942911248505
 21
1831.91630848755
 31
0.0
  0
LINE
  5
1F0B
330
1F
100
AcDbEntity
  8
HEWI
  6
IMPORT
 62
     7
100
AcDbLine
 10
873.1403452019991
 20
1831.899828995362
 30
0.0
 11
874.2942911248505
 21
1831.91630848755
 31
0.0
  0
LINE
  5
1F0C
330
1F
100
AcDbEntity
  8
HEWI
  6
IMPORT
 62
     7
100
AcDbLine
 10
1196.744118319064
 20
1831.300540054933
 30
0.0
 11
1196.854639635592
 21
1831.253619278565
 31
0.0
  0
LINE
  5
1F0D
330
1F
100
AcDbEntity
  8
HEWI
  6
IMPORT
 62
     7
100
AcDbLine
 10
1156.744118319064
 20
1831.300540054933
 30
0.0
 11
1156.8546384435
 21
1831.253619278565
 31
0.0
  0
LINE
  5
1F0E
330
1F
100
AcDbEntity
  8
HEWI
  6
IMPORT
 62
     7
100
AcDbLine
 10
1116.744118319064
 20
1831.300540054933
 30
0.0
 11
1116.854639635593
 21
1831.253619278565
 31
0.0
  0
LINE
  5
1F0F
330
1F
100
AcDbEntity
  8
HEWI
  6
IMPORT
 62
     7
100
AcDbLine
 10
1076.744118319064
 20
1831.300540054933
 30
0.0
 11
1076.854639635593
 21
1831.253619278565
 31
0.0
  0
LINE
  5
1F10
330
1F
100
AcDbEntity
  8
HEWI
  6
IMPORT
 62
     7
100
AcDbLine
 10
1036.744118319064
 20
1831.300540054933
 30
0.0
 11
1036.854639635593
 21
1831.253619278565
 31
0.0
  0
LINE
  5
1F11
330
1F
100
AcDbEntity
  8
HEWI
  6
IMPORT
 62
     7
100
AcDbLine
 10
996.7441278558077
 20
1831.300540054933
 30
0.0
 11
996.8546396355929
 21
1831.253619278565
 31
0.0
  0
LINE
  5
1F12
330
1F
100
AcDbEntity
  8
HEWI
  6
IMPORT
 62
     7
100
AcDbLine
 10
956.7441278558076
 20
1831.300540054933
 30
0.0
 11
956.8546396355928
 21
1831.253619278565
 31
0.0
  0
LINE
  5
1F13
330
1F
100
AcDbEntity
  8
HEWI
  6
IMPORT
 62
     7
100
AcDbLine
 10
916.7441278558078
 20
1831.300540054933
 30
0.0
 11
916.8546396355928
 21
1831.253619278565
 31
0.0
  0
LINE
  5
1F14
330
1F
100
AcDbEntity
  8
HEWI
  6
IMPORT
 62
     7
100
AcDbLine
 10
876.7441278558077
 20
1831.300540054933
 30
0.0
 11
876.8546396355928
 21
1831.253619278565
 31
0.0
  0
LINE
  5
1F15
330
1F
100
AcDbEntity
  8
HEWI
  6
IMPORT
 62
     7
100
AcDbLine
 10
1191.282508955508
 20
1780.66157826294
 30
0.0
 11
1196.282508955508
 21
1780.66157826294
 31
0.0
  0
LINE
  5
1F16
330
1F
100
AcDbEntity
  8
HEWI
  6
IMPORT
 62
     7
100
AcDbLine
 10
1151.282508955508
 20
1780.66157826294
 30
0.0
 11
1156.282508955508
 21
1780.66157826294
 31
0.0
  0
LINE
  5
1F17
330
1F
100
AcDbEntity
  8
HEWI
  6
IMPORT
 62
     7
100
AcDbLine
 10
1111.282506571322
 20
1780.66157826294
 30
0.0
 11
1116.282506571323
 21
1780.66157826294
 31
0.0
  0
LINE
  5
1F18
330
1F
100
AcDbEntity
  8
HEWI
  6
IMPORT
 62
     7
100
AcDbLine
 10
1071.282511339694
 20
1780.66157826294
 30
0.0
 11
1076.282511339694
 21
1780.66157826294
 31
0.0
  0
LINE
  5
1F19
330
1F
100
AcDbEntity
  8
HEWI
  6
IMPORT
 62
     7
100
AcDbLine
 10
1031.282511339694
 20
1780.66157826294
 30
0.0
 11
1036.282511339694
 21
1780.66157826294
 31
0.0
  0
LINE
  5
1F1A
330
1F
100
AcDbEntity
  8
HEWI
  6
IMPORT
 62
     7
100
AcDbLine
 10
991.2825113396944
 20
1780.66157826294
 30
0.0
 11
996.2825113396943
 21
1780.66157826294
 31
0.0
  0
LINE
  5
1F1B
330
1F
100
AcDbEntity
  8
HEWI
  6
IMPORT
 62
     7
100
AcDbLine
 10
951.2825113396944
 20
1780.66157826294
 30
0.0
 11
956.2825113396945
 21
1780.66157826294
 31
0.0
  0
LINE
  5
1F1C
330
1F
100
AcDbEntity
  8
HEWI
  6
IMPORT
 62
     7
100
AcDbLine
 10
911.2825113396944
 20
1780.66157826294
 30
0.0
 11
916.2825113396944
 21
1780.66157826294
 31
0.0
  0
LINE
  5
1F1D
330
1F
100
AcDbEntity
  8
HEWI
  6
IMPORT
 62
     7
100
AcDbLine
 10
871.2825113396943
 20
1780.66157826294
 30
0.0
 11
876.2825113396944
 21
1780.66157826294
 31
0.0
  0
LINE
  5
1F1E
330
1F
100
AcDbEntity
  8
HEWI
  6
IMPORT
 62
     7
100
AcDbLine
 10
1191.282508955508
 20
1770.340876663819
 30
0.0
 11
1196.282508955508
 21
1770.340876663819
 31
0.0
  0
LINE
  5
1F1F
330
1F
100
AcDbEntity
  8
HEWI
  6
IMPORT
 62
     7
100
AcDbLine
 10
1151.282508955508
 20
1770.340876663819
 30
0.0
 11
1156.282508955508
 21
1770.340876663819
 31
0.0
  0
LINE
  5
1F20
330
1F
100
AcDbEntity
  8
HEWI
  6
IMPORT
 62
     7
100
AcDbLine
 10
1111.282506571322
 20
1770.340876663819
 30
0.0
 11
1116.282506571323
 21
1770.340876663819
 31
0.0
  0
LINE
  5
1F21
330
1F
100
AcDbEntity
  8
HEWI
  6
IMPORT
 62
     7
100
AcDbLine
 10
1071.282511339694
 20
1770.340876663819
 30
0.0
 11
1076.282511339694
 21
1770.340876663819
 31
0.0
  0
LINE
  5
1F22
330
1F
100
AcDbEntity
  8
HEWI
  6
IMPORT
 62
     7
100
AcDbLine
 10
1031.282511339694
 20
1770.340876663819
 30
0.0
 11
1036.282511339694
 21
1770.340876663819
 31
0.0
  0
LINE
  5
1F23
330
1F
100
AcDbEntity
  8
HEWI
  6
IMPORT
 62
     7
100
AcDbLine
 10
991.2825113396944
 20
1770.340876663819
 30
0.0
 11
996.2825113396943
 21
1770.340876663819
 31
0.0
  0
LINE
  5
1F24
330
1F
100
AcDbEntity
  8
HEWI
  6
IMPORT
 62
     7
100
AcDbLine
 10
951.2825113396944
 20
1770.340876663819
 30
0.0
 11
956.2825113396945
 21
1770.340876663819
 31
0.0
  0
LINE
  5
1F25
330
1F
100
AcDbEntity
  8
HEWI
  6
IMPORT
 62
     7
100
AcDbLine
 10
911.2825113396944
 20
1770.340876663819
 30
0.0
 11
916.2825113396944
 21
1770.340876663819
 31
0.0
  0
LINE
  5
1F26
330
1F
100
AcDbEntity
  8
HEWI
  6
IMPORT
 62
     7
100
AcDbLine
 10
871.2825113396943
 20
1770.340876663819
 30
0.0
 11
876.2825113396944
 21
1770.340876663819
 31
0.0
  0
LINE
  5
1F27
330
1F
100
AcDbEntity
  8
HEWI
  6
IMPORT
 62
     7
100
AcDbLine
 10
1196.282508955508
 20
1770.340876663819
 30
0.0
 11
1196.282508955508
 21
1789.280085648194
 31
0.0
  0
LINE
  5
1F28
330
1F
100
AcDbEntity
  8
HEWI
  6
IMPORT
 62
     7
100
AcDbLine
 10
1191.282508955508
 20
1770.340876663819
 30
0.0
 11
1191.282508955508
 21
1789.280085648194
 31
0.0
  0
LINE
  5
1F29
330
1F
100
AcDbEntity
  8
HEWI
  6
IMPORT
 62
     7
100
AcDbLine
 10
1188.782508955508
 20
1830.626864517823
 30
0.0
 11
1188.878927813083
 21
1836.821665848389
 31
0.0
  0
LINE
  5
1F2A
330
1F
100
AcDbEntity
  8
HEWI
  6
IMPORT
 62
     7
100
AcDbLine
 10
1188.782508955508
 20
1791.927332962647
 30
0.0
 11
1188.782508955508
 21
1828.082079971925
 31
0.0
  0
LINE
  5
1F2B
330
1F
100
AcDbEntity
  8
HEWI
  6
IMPORT
 62
     7
100
AcDbLine
 10
1198.782508955508
 20
1830.626864517823
 30
0.0
 11
1198.782508955508
 21
1836.38595112671
 31
0.0
  0
LINE
  5
1F2C
330
1F
100
AcDbEntity
  8
HEWI
  6
IMPORT
 62
     7
100
AcDbLine
 10
1198.782508955508
 20
1791.927332962647
 30
0.0
 11
1198.782508955508
 21
1828.082079971925
 31
0.0
  0
LINE
  5
1F2D
330
1F
100
AcDbEntity
  8
HEWI
  6
IMPORT
 62
     7
100
AcDbLine
 10
1189.26946936658
 20
1829.75265034546
 30
0.0
 11
1189.332988844424
 21
1829.955630386964
 31
0.0
  0
LINE
  5
1F2E
330
1F
100
AcDbEntity
  8
HEWI
  6
IMPORT
 62
     7
100
AcDbLine
 10
1198.494618521243
 20
1828.926348770753
 30
0.0
 11
1198.55413733533
 21
1829.116549576417
 31
0.0
  0
LINE
  5
1F2F
330
1F
100
AcDbEntity
  8
HEWI
  6
IMPORT
 62
     7
100
AcDbLine
 10
876.2825113396944
 20
1770.340876663819
 30
0.0
 11
876.2825113396944
 21
1789.280085648194
 31
0.0
  0
LINE
  5
1F30
330
1F
100
AcDbEntity
  8
HEWI
  6
IMPORT
 62
     7
100
AcDbLine
 10
871.2825113396943
 20
1770.340876663819
 30
0.0
 11
871.2825113396943
 21
1789.280085648194
 31
0.0
  0
LINE
  5
1F31
330
1F
100
AcDbEntity
  8
HEWI
  6
IMPORT
 62
     7
100
AcDbLine
 10
868.7825113396945
 20
1830.626864517823
 30
0.0
 11
868.8789278130832
 21
1836.821665848389
 31
0.0
  0
LINE
  5
1F32
330
1F
100
AcDbEntity
  8
HEWI
  6
IMPORT
 62
     7
100
AcDbLine
 10
868.7825113396945
 20
1791.927332962647
 30
0.0
 11
868.7825113396945
 21
1828.082079971925
 31
0.0
  0
LINE
  5
1F33
330
1F
100
AcDbEntity
  8
HEWI
  6
IMPORT
 62
     7
100
AcDbLine
 10
878.7825113396944
 20
1830.626864517823
 30
0.0
 11
878.7825113396944
 21
1836.38595112671
 31
0.0
  0
LINE
  5
1F34
330
1F
100
AcDbEntity
  8
HEWI
  6
IMPORT
 62
     7
100
AcDbLine
 10
878.7825113396944
 20
1791.927332962647
 30
0.0
 11
878.7825113396944
 21
1828.082079971925
 31
0.0
  0
LINE
  5
1F35
330
1F
100
AcDbEntity
  8
HEWI
  6
IMPORT
 62
     7
100
AcDbLine
 10
869.2694765191376
 20
1829.75265034546
 30
0.0
 11
869.3329912286104
 21
1829.955630386964
 31
0.0
  0
LINE
  5
1F36
330
1F
100
AcDbEntity
  8
HEWI
  6
IMPORT
 62
     7
100
AcDbLine
 10
878.4946161370577
 20
1828.926348770753
 30
0.0
 11
878.5541444878878
 21
1829.116549576417
 31
0.0
  0
LINE
  5
1F37
330
1F
100
AcDbEntity
  8
HEWI
  6
IMPORT
 62
     7
100
AcDbLine
 10
916.2825113396944
 20
1770.340876663819
 30
0.0
 11
916.2825113396944
 21
1789.280085648194
 31
0.0
  0
LINE
  5
1F38
330
1F
100
AcDbEntity
  8
HEWI
  6
IMPORT
 62
     7
100
AcDbLine
 10
911.2825113396944
 20
1770.340876663819
 30
0.0
 11
911.2825113396944
 21
1789.280085648194
 31
0.0
  0
LINE
  5
1F39
330
1F
100
AcDbEntity
  8
HEWI
  6
IMPORT
 62
     7
100
AcDbLine
 10
908.7825113396943
 20
1830.626864517823
 30
0.0
 11
908.878927813083
 21
1836.821665848389
 31
0.0
  0
LINE
  5
1F3A
330
1F
100
AcDbEntity
  8
HEWI
  6
IMPORT
 62
     7
100
AcDbLine
 10
908.7825113396943
 20
1791.927332962647
 30
0.0
 11
908.7825113396943
 21
1828.082079971925
 31
0.0
  0
LINE
  5
1F3B
330
1F
100
AcDbEntity
  8
HEWI
  6
IMPORT
 62
     7
100
AcDbLine
 10
918.7825113396945
 20
1830.626864517823
 30
0.0
 11
918.7825113396945
 21
1836.38595112671
 31
0.0
  0
LINE
  5
1F3C
330
1F
100
AcDbEntity
  8
HEWI
  6
IMPORT
 62
     7
100
AcDbLine
 10
918.7825113396945
 20
1791.927332962647
 30
0.0
 11
918.7825113396945
 21
1828.082079971925
 31
0.0
  0
LINE
  5
1F3D
330
1F
100
AcDbEntity
  8
HEWI
  6
IMPORT
 62
     7
100
AcDbLine
 10
909.2694765191378
 20
1829.75265034546
 30
0.0
 11
909.3329912286105
 21
1829.955630386964
 31
0.0
  0
LINE
  5
1F3E
330
1F
100
AcDbEntity
  8
HEWI
  6
IMPORT
 62
     7
100
AcDbLine
 10
918.4946161370577
 20
1828.926348770753
 30
0.0
 11
918.5541444878877
 21
1829.116549576417
 31
0.0
  0
LINE
  5
1F3F
330
1F
100
AcDbEntity
  8
HEWI
  6
IMPORT
 62
     7
100
AcDbLine
 10
956.2825113396945
 20
1770.340876663819
 30
0.0
 11
956.2825113396945
 21
1789.280085648194
 31
0.0
  0
LINE
  5
1F40
330
1F
100
AcDbEntity
  8
HEWI
  6
IMPORT
 62
     7
100
AcDbLine
 10
951.2825113396944
 20
1770.340876663819
 30
0.0
 11
951.2825113396944
 21
1789.280085648194
 31
0.0
  0
LINE
  5
1F41
330
1F
100
AcDbEntity
  8
HEWI
  6
IMPORT
 62
     7
100
AcDbLine
 10
948.7825113396944
 20
1830.626864517823
 30
0.0
 11
948.878927813083
 21
1836.821665848389
 31
0.0
  0
LINE
  5
1F42
330
1F
100
AcDbEntity
  8
HEWI
  6
IMPORT
 62
     7
100
AcDbLine
 10
948.7825113396944
 20
1791.927332962647
 30
0.0
 11
948.7825113396944
 21
1828.082079971925
 31
0.0
  0
LINE
  5
1F43
330
1F
100
AcDbEntity
  8
HEWI
  6
IMPORT
 62
     7
100
AcDbLine
 10
958.7825113396943
 20
1830.626864517823
 30
0.0
 11
958.7825113396943
 21
1836.38595112671
 31
0.0
  0
LINE
  5
1F44
330
1F
100
AcDbEntity
  8
HEWI
  6
IMPORT
 62
     7
100
AcDbLine
 10
958.7825113396943
 20
1791.927332962647
 30
0.0
 11
958.7825113396943
 21
1828.082079971925
 31
0.0
  0
LINE
  5
1F45
330
1F
100
AcDbEntity
  8
HEWI
  6
IMPORT
 62
     7
100
AcDbLine
 10
949.2694765191378
 20
1829.75265034546
 30
0.0
 11
949.3329912286105
 21
1829.955630386964
 31
0.0
  0
LINE
  5
1F46
330
1F
100
AcDbEntity
  8
HEWI
  6
IMPORT
 62
     7
100
AcDbLine
 10
958.4946161370577
 20
1828.926348770753
 30
0.0
 11
958.5541444878877
 21
1829.116549576417
 31
0.0
  0
LINE
  5
1F47
330
1F
100
AcDbEntity
  8
HEWI
  6
IMPORT
 62
     7
100
AcDbLine
 10
996.2825113396943
 20
1770.340876663819
 30
0.0
 11
996.2825113396943
 21
1789.280085648194
 31
0.0
  0
LINE
  5
1F48
330
1F
100
AcDbEntity
  8
HEWI
  6
IMPORT
 62
     7
100
AcDbLine
 10
991.2825113396944
 20
1770.340876663819
 30
0.0
 11
991.2825113396944
 21
1789.280085648194
 31
0.0
  0
LINE
  5
1F49
330
1F
100
AcDbEntity
  8
HEWI
  6
IMPORT
 62
     7
100
AcDbLine
 10
988.7825113396944
 20
1830.626864517823
 30
0.0
 11
988.8789278130829
 21
1836.821665848389
 31
0.0
  0
LINE
  5
1F4A
330
1F
100
AcDbEntity
  8
HEWI
  6
IMPORT
 62
     7
100
AcDbLine
 10
988.7825113396944
 20
1791.927332962647
 30
0.0
 11
988.7825113396944
 21
1828.082079971925
 31
0.0
  0
LINE
  5
1F4B
330
1F
100
AcDbEntity
  8
HEWI
  6
IMPORT
 62
     7
100
AcDbLine
 10
998.7825113396944
 20
1830.626864517823
 30
0.0
 11
998.7825113396944
 21
1836.38595112671
 31
0.0
  0
LINE
  5
1F4C
330
1F
100
AcDbEntity
  8
HEWI
  6
IMPORT
 62
     7
100
AcDbLine
 10
998.7825113396944
 20
1791.927332962647
 30
0.0
 11
998.7825113396944
 21
1828.082079971925
 31
0.0
  0
LINE
  5
1F4D
330
1F
100
AcDbEntity
  8
HEWI
  6
IMPORT
 62
     7
100
AcDbLine
 10
989.2694765191377
 20
1829.75265034546
 30
0.0
 11
989.3329912286104
 21
1829.955630386964
 31
0.0
  0
LINE
  5
1F4E
330
1F
100
AcDbEntity
  8
HEWI
  6
IMPORT
 62
     7
100
AcDbLine
 10
998.4946161370578
 20
1828.926348770753
 30
0.0
 11
998.5541444878878
 21
1829.116549576417
 31
0.0
  0
LINE
  5
1F4F
330
1F
100
AcDbEntity
  8
HEWI
  6
IMPORT
 62
     7
100
AcDbLine
 10
1036.282511339694
 20
1770.340876663819
 30
0.0
 11
1036.282511339694
 21
1789.280085648194
 31
0.0
  0
LINE
  5
1F50
330
1F
100
AcDbEntity
  8
HEWI
  6
IMPORT
 62
     7
100
AcDbLine
 10
1031.282511339694
 20
1770.340876663819
 30
0.0
 11
1031.282511339694
 21
1789.280085648194
 31
0.0
  0
LINE
  5
1F51
330
1F
100
AcDbEntity
  8
HEWI
  6
IMPORT
 62
     7
100
AcDbLine
 10
1028.782511339694
 20
1830.626864517823
 30
0.0
 11
1028.878927813083
 21
1836.821665848389
 31
0.0
  0
LINE
  5
1F52
330
1F
100
AcDbEntity
  8
HEWI
  6
IMPORT
 62
     7
100
AcDbLine
 10
1028.782511339694
 20
1791.927332962647
 30
0.0
 11
1028.782511339694
 21
1828.082079971925
 31
0.0
  0
LINE
  5
1F53
330
1F
100
AcDbEntity
  8
HEWI
  6
IMPORT
 62
     7
100
AcDbLine
 10
1038.782511339694
 20
1830.626864517823
 30
0.0
 11
1038.782511339694
 21
1836.38595112671
 31
0.0
  0
LINE
  5
1F54
330
1F
100
AcDbEntity
  8
HEWI
  6
IMPORT
 62
     7
100
AcDbLine
 10
1038.782511339694
 20
1791.927332962647
 30
0.0
 11
1038.782511339694
 21
1828.082079971925
 31
0.0
  0
LINE
  5
1F55
330
1F
100
AcDbEntity
  8
HEWI
  6
IMPORT
 62
     7
100
AcDbLine
 10
1029.269466982394
 20
1829.75265034546
 30
0.0
 11
1029.33299122861
 21
1829.955630386964
 31
0.0
  0
LINE
  5
1F56
330
1F
100
AcDbEntity
  8
HEWI
  6
IMPORT
 62
     7
100
AcDbLine
 10
1038.494616137057
 20
1828.926348770753
 30
0.0
 11
1038.554134951144
 21
1829.116549576417
 31
0.0
  0
LINE
  5
1F57
330
1F
100
AcDbEntity
  8
HEWI
  6
IMPORT
 62
     7
100
AcDbLine
 10
1076.282511339694
 20
1770.340876663819
 30
0.0
 11
1076.282511339694
 21
1789.280085648194
 31
0.0
  0
LINE
  5
1F58
330
1F
100
AcDbEntity
  8
HEWI
  6
IMPORT
 62
     7
100
AcDbLine
 10
1071.282511339694
 20
1770.340876663819
 30
0.0
 11
1071.282511339694
 21
1789.280085648194
 31
0.0
  0
LINE
  5
1F59
330
1F
100
AcDbEntity
  8
HEWI
  6
IMPORT
 62
     7
100
AcDbLine
 10
1068.782511339694
 20
1830.626864517823
 30
0.0
 11
1068.878927813083
 21
1836.821665848389
 31
0.0
  0
LINE
  5
1F5A
330
1F
100
AcDbEntity
  8
HEWI
  6
IMPORT
 62
     7
100
AcDbLine
 10
1068.782511339694
 20
1791.927332962647
 30
0.0
 11
1068.782511339694
 21
1828.082079971925
 31
0.0
  0
LINE
  5
1F5B
330
1F
100
AcDbEntity
  8
HEWI
  6
IMPORT
 62
     7
100
AcDbLine
 10
1078.782511339694
 20
1830.626864517823
 30
0.0
 11
1078.782511339694
 21
1836.38595112671
 31
0.0
  0
LINE
  5
1F5C
330
1F
100
AcDbEntity
  8
HEWI
  6
IMPORT
 62
     7
100
AcDbLine
 10
1078.782511339694
 20
1791.927332962647
 30
0.0
 11
1078.782511339694
 21
1828.082079971925
 31
0.0
  0
LINE
  5
1F5D
330
1F
100
AcDbEntity
  8
HEWI
  6
IMPORT
 62
     7
100
AcDbLine
 10
1069.269466982394
 20
1829.75265034546
 30
0.0
 11
1069.33299122861
 21
1829.955630386964
 31
0.0
  0
LINE
  5
1F5E
330
1F
100
AcDbEntity
  8
HEWI
  6
IMPORT
 62
     7
100
AcDbLine
 10
1078.494616137058
 20
1828.926348770753
 30
0.0
 11
1078.554134951144
 21
1829.116549576417
 31
0.0
  0
LINE
  5
1F5F
330
1F
100
AcDbEntity
  8
HEWI
  6
IMPORT
 62
     7
100
AcDbLine
 10
1116.282506571323
 20
1770.340876663819
 30
0.0
 11
1116.282506571323
 21
1789.280085648194
 31
0.0
  0
LINE
  5
1F60
330
1F
100
AcDbEntity
  8
HEWI
  6
IMPORT
 62
     7
100
AcDbLine
 10
1111.282506571322
 20
1770.340876663819
 30
0.0
 11
1111.282506571322
 21
1789.280085648194
 31
0.0
  0
LINE
  5
1F61
330
1F
100
AcDbEntity
  8
HEWI
  6
IMPORT
 62
     7
100
AcDbLine
 10
1108.782506571322
 20
1830.626864517823
 30
0.0
 11
1108.878927813083
 21
1836.821665848389
 31
0.0
  0
LINE
  5
1F62
330
1F
100
AcDbEntity
  8
HEWI
  6
IMPORT
 62
     7
100
AcDbLine
 10
1108.782506571322
 20
1791.927332962647
 30
0.0
 11
1108.782506571322
 21
1828.082079971925
 31
0.0
  0
LINE
  5
1F63
330
1F
100
AcDbEntity
  8
HEWI
  6
IMPORT
 62
     7
100
AcDbLine
 10
1118.782506571322
 20
1830.626864517823
 30
0.0
 11
1118.782506571322
 21
1836.38595112671
 31
0.0
  0
LINE
  5
1F64
330
1F
100
AcDbEntity
  8
HEWI
  6
IMPORT
 62
     7
100
AcDbLine
 10
1118.782506571322
 20
1791.927332962647
 30
0.0
 11
1118.782506571322
 21
1828.082079971925
 31
0.0
  0
LINE
  5
1F65
330
1F
100
AcDbEntity
  8
HEWI
  6
IMPORT
 62
     7
100
AcDbLine
 10
1109.269466982394
 20
1829.75265034546
 30
0.0
 11
1109.332986460239
 21
1829.955630386964
 31
0.0
  0
LINE
  5
1F66
330
1F
100
AcDbEntity
  8
HEWI
  6
IMPORT
 62
     7
100
AcDbLine
 10
1118.494616137057
 20
1828.926348770753
 30
0.0
 11
1118.554139719516
 21
1829.116549576417
 31
0.0
  0
LINE
  5
1F67
330
1F
100
AcDbEntity
  8
HEWI
  6
IMPORT
 62
     7
100
AcDbLine
 10
1156.282508955508
 20
1770.340876663819
 30
0.0
 11
1156.282508955508
 21
1789.280085648194
 31
0.0
  0
LINE
  5
1F68
330
1F
100
AcDbEntity
  8
HEWI
  6
IMPORT
 62
     7
100
AcDbLine
 10
1151.282508955508
 20
1770.340876663819
 30
0.0
 11
1151.282508955508
 21
1789.280085648194
 31
0.0
  0
LINE
  5
1F69
330
1F
100
AcDbEntity
  8
HEWI
  6
IMPORT
 62
     7
100
AcDbLine
 10
1148.782508955508
 20
1830.626864517823
 30
0.0
 11
1148.878929005176
 21
1836.821665848389
 31
0.0
  0
LINE
  5
1F6A
330
1F
100
AcDbEntity
  8
HEWI
  6
IMPORT
 62
     7
100
AcDbLine
 10
1148.782508955508
 20
1791.927332962647
 30
0.0
 11
1148.782508955508
 21
1828.082079971925
 31
0.0
  0
LINE
  5
1F6B
330
1F
100
AcDbEntity
  8
HEWI
  6
IMPORT
 62
     7
100
AcDbLine
 10
1158.782508359462
 20
1830.626864517823
 30
0.0
 11
1158.782508359462
 21
1836.38595112671
 31
0.0
  0
LINE
  5
1F6C
330
1F
100
AcDbEntity
  8
HEWI
  6
IMPORT
 62
     7
100
AcDbLine
 10
1158.782508359462
 20
1791.927332962647
 30
0.0
 11
1158.782508359462
 21
1828.082079971925
 31
0.0
  0
LINE
  5
1F6D
330
1F
100
AcDbEntity
  8
HEWI
  6
IMPORT
 62
     7
100
AcDbLine
 10
1149.269468174487
 20
1829.75265034546
 30
0.0
 11
1149.332988844424
 21
1829.955630386964
 31
0.0
  0
LINE
  5
1F6E
330
1F
100
AcDbEntity
  8
HEWI
  6
IMPORT
 62
     7
100
AcDbLine
 10
1158.494618521243
 20
1828.926348770753
 30
0.0
 11
1158.554138527423
 21
1829.116549576417
 31
0.0
  0
LINE
  5
1F6F
330
1F
100
AcDbEntity
  8
HEWI
  6
IMPORT
 62
     7
100
AcDbLine
 10
1189.332988844424
 20
1829.955630386964
 30
0.0
 11
1190.237339125186
 21
1830.815844620362
 31
0.0
  0
LINE
  5
1F70
330
1F
100
AcDbEntity
  8
HEWI
  6
IMPORT
 62
     7
100
AcDbLine
 10
869.3329912286104
 20
1829.955630386964
 30
0.0
 11
870.2373415093722
 21
1830.815844620362
 31
0.0
  0
LINE
  5
1F71
330
1F
100
AcDbEntity
  8
HEWI
  6
IMPORT
 62
     7
100
AcDbLine
 10
909.3329912286105
 20
1829.955630386964
 30
0.0
 11
910.2373415093721
 21
1830.815844620362
 31
0.0
  0
LINE
  5
1F72
330
1F
100
AcDbEntity
  8
HEWI
  6
IMPORT
 62
     7
100
AcDbLine
 10
949.3329912286105
 20
1829.955630386964
 30
0.0
 11
950.2373415093721
 21
1830.815844620362
 31
0.0
  0
LINE
  5
1F73
330
1F
100
AcDbEntity
  8
HEWI
  6
IMPORT
 62
     7
100
AcDbLine
 10
989.3329912286104
 20
1829.955630386964
 30
0.0
 11
990.2373415093721
 21
1830.815844620362
 31
0.0
  0
LINE
  5
1F74
330
1F
100
AcDbEntity
  8
HEWI
  6
IMPORT
 62
     7
100
AcDbLine
 10
1029.33299122861
 20
1829.955630386964
 30
0.0
 11
1030.237341509372
 21
1830.815844620362
 31
0.0
  0
LINE
  5
1F75
330
1F
100
AcDbEntity
  8
HEWI
  6
IMPORT
 62
     7
100
AcDbLine
 10
1069.33299122861
 20
1829.955630386964
 30
0.0
 11
1070.237341509372
 21
1830.815844620362
 31
0.0
  0
LINE
  5
1F76
330
1F
100
AcDbEntity
  8
HEWI
  6
IMPORT
 62
     7
100
AcDbLine
 10
1109.332986460239
 20
1829.955630386964
 30
0.0
 11
1110.237336741
 21
1830.815844620362
 31
0.0
  0
LINE
  5
1F77
330
1F
100
AcDbEntity
  8
HEWI
  6
IMPORT
 62
     7
100
AcDbLine
 10
1149.332988844424
 20
1829.955630386964
 30
0.0
 11
1150.237337933093
 21
1830.815844620362
 31
0.0
  0
LINE
  5
1F78
330
1F
100
AcDbEntity
  8
HEWI
  6
IMPORT
 62
     7
100
AcDbLine
 10
1190.237339125186
 20
1830.815844620362
 30
0.0
 11
1190.710378275424
 21
1831.253619278565
 31
0.0
  0
LINE
  5
1F79
330
1F
100
AcDbEntity
  8
HEWI
  6
IMPORT
 62
     7
100
AcDbLine
 10
870.2373415093722
 20
1830.815844620362
 30
0.0
 11
870.710383043796
 21
1831.253619278565
 31
0.0
  0
LINE
  5
1F7A
330
1F
100
AcDbEntity
  8
HEWI
  6
IMPORT
 62
     7
100
AcDbLine
 10
910.2373415093721
 20
1830.815844620362
 30
0.0
 11
910.710383043796
 21
1831.253619278565
 31
0.0
  0
LINE
  5
1F7B
330
1F
100
AcDbEntity
  8
HEWI
  6
IMPORT
 62
     7
100
AcDbLine
 10
950.2373415093721
 20
1830.815844620362
 30
0.0
 11
950.710383043796
 21
1831.253619278565
 31
0.0
  0
LINE
  5
1F7C
330
1F
100
AcDbEntity
  8
HEWI
  6
IMPORT
 62
     7
100
AcDbLine
 10
990.2373415093721
 20
1830.815844620362
 30
0.0
 11
990.7103830437959
 21
1831.253619278565
 31
0.0
  0
LINE
  5
1F7D
330
1F
100
AcDbEntity
  8
HEWI
  6
IMPORT
 62
     7
100
AcDbLine
 10
1030.237341509372
 20
1830.815844620362
 30
0.0
 11
1030.710383043796
 21
1831.253619278565
 31
0.0
  0
LINE
  5
1F7E
330
1F
100
AcDbEntity
  8
HEWI
  6
IMPORT
 62
     7
100
AcDbLine
 10
1070.237341509372
 20
1830.815844620362
 30
0.0
 11
1070.710383043795
 21
1831.253619278565
 31
0.0
  0
LINE
  5
1F7F
330
1F
100
AcDbEntity
  8
HEWI
  6
IMPORT
 62
     7
100
AcDbLine
 10
1110.237336741
 20
1830.815844620362
 30
0.0
 11
1110.710378275424
 21
1831.253619278565
 31
0.0
  0
LINE
  5
1F80
330
1F
100
AcDbEntity
  8
HEWI
  6
IMPORT
 62
     7
100
AcDbLine
 10
1150.237337933093
 20
1830.815844620362
 30
0.0
 11
1150.710378275424
 21
1831.253619278565
 31
0.0
  0
LINE
  5
1F81
330
1F
100
AcDbEntity
  8
HEWI
  6
IMPORT
 62
     7
100
AcDbLine
 10
1189.11743937543
 20
1790.413851822511
 30
0.0
 11
1190.071237669498
 21
1789.130778397218
 31
0.0
  0
LINE
  5
1F82
330
1F
100
AcDbEntity
  8
HEWI
  6
IMPORT
 62
     7
100
AcDbLine
 10
1197.493777857333
 20
1839.18250569214
 30
0.0
 11
1198.447578535586
 21
1837.899470413819
 31
0.0
  0
LINE
  5
1F83
330
1F
100
AcDbEntity
  8
HEWI
  6
IMPORT
 62
     7
100
AcDbLine
 10
869.1174417596164
 20
1790.413851822511
 30
0.0
 11
870.0712305169403
 21
1789.130778397218
 31
0.0
  0
LINE
  5
1F84
330
1F
100
AcDbEntity
  8
HEWI
  6
IMPORT
 62
     7
100
AcDbLine
 10
877.493773088962
 20
1839.18250569214
 30
0.0
 11
878.4475809197724
 21
1837.899470413819
 31
0.0
  0
LINE
  5
1F85
330
1F
100
AcDbEntity
  8
HEWI
  6
IMPORT
 62
     7
100
AcDbLine
 10
909.1174417596162
 20
1790.413851822511
 30
0.0
 11
910.0712305169405
 21
1789.130778397218
 31
0.0
  0
LINE
  5
1F86
330
1F
100
AcDbEntity
  8
HEWI
  6
IMPORT
 62
     7
100
AcDbLine
 10
917.493773088962
 20
1839.18250569214
 30
0.0
 11
918.4475809197726
 21
1837.899470413819
 31
0.0
  0
LINE
  5
1F87
330
1F
100
AcDbEntity
  8
HEWI
  6
IMPORT
 62
     7
100
AcDbLine
 10
949.1174417596162
 20
1790.413851822511
 30
0.0
 11
950.0712305169406
 21
1789.130778397218
 31
0.0
  0
LINE
  5
1F88
330
1F
100
AcDbEntity
  8
HEWI
  6
IMPORT
 62
     7
100
AcDbLine
 10
957.4937730889621
 20
1839.18250569214
 30
0.0
 11
958.4475809197725
 21
1837.899470413819
 31
0.0
  0
LINE
  5
1F89
330
1F
100
AcDbEntity
  8
HEWI
  6
IMPORT
 62
     7
100
AcDbLine
 10
989.1174417596161
 20
1790.413851822511
 30
0.0
 11
990.0712305169404
 21
1789.130778397218
 31
0.0
  0
LINE
  5
1F8A
330
1F
100
AcDbEntity
  8
HEWI
  6
IMPORT
 62
     7
100
AcDbLine
 10
997.4937730889619
 20
1839.18250569214
 30
0.0
 11
998.4475809197725
 21
1837.899470413819
 31
0.0
  0
LINE
  5
1F8B
330
1F
100
AcDbEntity
  8
HEWI
  6
IMPORT
 62
     7
100
AcDbLine
 10
1029.117441759616
 20
1790.413851822511
 30
0.0
 11
1030.071240053683
 21
1789.130778397218
 31
0.0
  0
LINE
  5
1F8C
330
1F
100
AcDbEntity
  8
HEWI
  6
IMPORT
 62
     7
100
AcDbLine
 10
1037.493782625705
 20
1839.18250569214
 30
0.0
 11
1038.447580919772
 21
1837.899470413819
 31
0.0
  0
LINE
  5
1F8D
330
1F
100
AcDbEntity
  8
HEWI
  6
IMPORT
 62
     7
100
AcDbLine
 10
1069.117441759616
 20
1790.413851822511
 30
0.0
 11
1070.071240053683
 21
1789.130778397218
 31
0.0
  0
LINE
  5
1F8E
330
1F
100
AcDbEntity
  8
HEWI
  6
IMPORT
 62
     7
100
AcDbLine
 10
1077.493782625705
 20
1839.18250569214
 30
0.0
 11
1078.447580919772
 21
1837.899470413819
 31
0.0
  0
LINE
  5
1F8F
330
1F
100
AcDbEntity
  8
HEWI
  6
IMPORT
 62
     7
100
AcDbLine
 10
1109.117436991244
 20
1790.413851822511
 30
0.0
 11
1110.071240053683
 21
1789.130778397218
 31
0.0
  0
LINE
  5
1F90
330
1F
100
AcDbEntity
  8
HEWI
  6
IMPORT
 62
     7
100
AcDbLine
 10
1117.493777857333
 20
1839.18250569214
 30
0.0
 11
1118.447576151401
 21
1837.899470413819
 31
0.0
  0
LINE
  5
1F91
330
1F
100
AcDbEntity
  8
HEWI
  6
IMPORT
 62
     7
100
AcDbLine
 10
1149.117438183337
 20
1790.413851822511
 30
0.0
 11
1150.07123886159
 21
1789.130778397218
 31
0.0
  0
LINE
  5
1F92
330
1F
100
AcDbEntity
  8
HEWI
  6
IMPORT
 62
     7
100
AcDbLine
 10
1157.49377845338
 20
1839.18250569214
 30
0.0
 11
1158.447578535586
 21
1837.899470413819
 31
0.0
  0
LINE
  5
1F93
330
1F
100
AcDbEntity
  8
HEWI
  6
IMPORT
 62
     7
100
AcDbLine
 10
1196.066308603793
 20
1789.150233353272
 30
0.0
 11
1196.282508955508
 21
1789.280085648194
 31
0.0
  0
LINE
  5
1F94
330
1F
100
AcDbEntity
  8
HEWI
  6
IMPORT
 62
     7
100
AcDbLine
 10
1196.282508955508
 20
1788.403315628663
 30
0.0
 11
1197.493777857333
 21
1789.130778397218
 31
0.0
  0
LINE
  5
1F95
330
1F
100
AcDbEntity
  8
HEWI
  6
IMPORT
 62
     7
100
AcDbLine
 10
1190.071237669498
 20
1839.18250569214
 30
0.0
 11
1191.498697386294
 21
1840.039858902589
 31
0.0
  0
LINE
  5
1F96
330
1F
100
AcDbEntity
  8
HEWI
  6
IMPORT
 62
     7
100
AcDbLine
 10
876.0663133721651
 20
1789.150233353272
 30
0.0
 11
876.2825113396944
 21
1789.280085648194
 31
0.0
  0
LINE
  5
1F97
330
1F
100
AcDbEntity
  8
HEWI
  6
IMPORT
 62
     7
100
AcDbLine
 10
876.2825113396944
 20
1788.403315628663
 30
0.0
 11
877.493773088962
 21
1789.130778397218
 31
0.0
  0
LINE
  5
1F98
330
1F
100
AcDbEntity
  8
HEWI
  6
IMPORT
 62
     7
100
AcDbLine
 10
870.0712305169403
 20
1839.18250569214
 30
0.0
 11
871.4986902337374
 21
1840.039858902589
 31
0.0
  0
LINE
  5
1F99
330
1F
100
AcDbEntity
  8
HEWI
  6
IMPORT
 62
     7
100
AcDbLine
 10
916.066313372165
 20
1789.150233353272
 30
0.0
 11
916.2825113396944
 21
1789.280085648194
 31
0.0
  0
LINE
  5
1F9A
330
1F
100
AcDbEntity
  8
HEWI
  6
IMPORT
 62
     7
100
AcDbLine
 10
916.2825113396944
 20
1788.403315628663
 30
0.0
 11
917.493773088962
 21
1789.130778397218
 31
0.0
  0
LINE
  5
1F9B
330
1F
100
AcDbEntity
  8
HEWI
  6
IMPORT
 62
     7
100
AcDbLine
 10
910.0712305169405
 20
1839.18250569214
 30
0.0
 11
911.4986902337374
 21
1840.039858902589
 31
0.0
  0
LINE
  5
1F9C
330
1F
100
AcDbEntity
  8
HEWI
  6
IMPORT
 62
     7
100
AcDbLine
 10
956.0663133721652
 20
1789.150233353272
 30
0.0
 11
956.2825113396945
 21
1789.280085648194
 31
0.0
  0
LINE
  5
1F9D
330
1F
100
AcDbEntity
  8
HEWI
  6
IMPORT
 62
     7
100
AcDbLine
 10
956.2825113396945
 20
1788.403315628663
 30
0.0
 11
957.4937730889621
 21
1789.130778397218
 31
0.0
  0
LINE
  5
1F9E
330
1F
100
AcDbEntity
  8
HEWI
  6
IMPORT
 62
     7
100
AcDbLine
 10
950.0712305169406
 20
1839.18250569214
 30
0.0
 11
951.4986902337374
 21
1840.039858902589
 31
0.0
  0
LINE
  5
1F9F
330
1F
100
AcDbEntity
  8
HEWI
  6
IMPORT
 62
     7
100
AcDbLine
 10
996.066313372165
 20
1789.150233353272
 30
0.0
 11
996.2825113396943
 21
1789.280085648194
 31
0.0
  0
LINE
  5
1FA0
330
1F
100
AcDbEntity
  8
HEWI
  6
IMPORT
 62
     7
100
AcDbLine
 10
996.2825113396943
 20
1788.403315628663
 30
0.0
 11
997.4937730889619
 21
1789.130778397218
 31
0.0
  0
LINE
  5
1FA1
330
1F
100
AcDbEntity
  8
HEWI
  6
IMPORT
 62
     7
100
AcDbLine
 10
990.0712305169404
 20
1839.18250569214
 30
0.0
 11
991.4986902337373
 21
1840.039858902589
 31
0.0
  0
LINE
  5
1FA2
330
1F
100
AcDbEntity
  8
HEWI
  6
IMPORT
 62
     7
100
AcDbLine
 10
1036.066303835422
 20
1789.150233353272
 30
0.0
 11
1036.282511339694
 21
1789.280085648194
 31
0.0
  0
LINE
  5
1FA3
330
1F
100
AcDbEntity
  8
HEWI
  6
IMPORT
 62
     7
100
AcDbLine
 10
1036.282511339694
 20
1788.403315628663
 30
0.0
 11
1037.493782625705
 21
1789.130778397218
 31
0.0
  0
LINE
  5
1FA4
330
1F
100
AcDbEntity
  8
HEWI
  6
IMPORT
 62
     7
100
AcDbLine
 10
1030.071240053683
 20
1839.18250569214
 30
0.0
 11
1031.49869977048
 21
1840.039858902589
 31
0.0
  0
LINE
  5
1FA5
330
1F
100
AcDbEntity
  8
HEWI
  6
IMPORT
 62
     7
100
AcDbLine
 10
1076.066303835422
 20
1789.150233353272
 30
0.0
 11
1076.282511339694
 21
1789.280085648194
 31
0.0
  0
LINE
  5
1FA6
330
1F
100
AcDbEntity
  8
HEWI
  6
IMPORT
 62
     7
100
AcDbLine
 10
1076.282511339694
 20
1788.403315628663
 30
0.0
 11
1077.493782625705
 21
1789.130778397218
 31
0.0
  0
LINE
  5
1FA7
330
1F
100
AcDbEntity
  8
HEWI
  6
IMPORT
 62
     7
100
AcDbLine
 10
1070.071240053683
 20
1839.18250569214
 30
0.0
 11
1071.49869977048
 21
1840.039858902589
 31
0.0
  0
LINE
  5
1FA8
330
1F
100
AcDbEntity
  8
HEWI
  6
IMPORT
 62
     7
100
AcDbLine
 10
1116.066308603793
 20
1789.150233353272
 30
0.0
 11
1116.282506571323
 21
1789.280085648194
 31
0.0
  0
LINE
  5
1FA9
330
1F
100
AcDbEntity
  8
HEWI
  6
IMPORT
 62
     7
100
AcDbLine
 10
1116.282506571323
 20
1788.403315628663
 30
0.0
 11
1117.493777857333
 21
1789.130778397218
 31
0.0
  0
LINE
  5
1FAA
330
1F
100
AcDbEntity
  8
HEWI
  6
IMPORT
 62
     7
100
AcDbLine
 10
1110.071240053683
 20
1839.18250569214
 30
0.0
 11
1111.49869977048
 21
1840.039858902589
 31
0.0
  0
LINE
  5
1FAB
330
1F
100
AcDbEntity
  8
HEWI
  6
IMPORT
 62
     7
100
AcDbLine
 10
1156.066308603793
 20
1789.150233353272
 30
0.0
 11
1156.282508955508
 21
1789.280085648194
 31
0.0
  0
LINE
  5
1FAC
330
1F
100
AcDbEntity
  8
HEWI
  6
IMPORT
 62
     7
100
AcDbLine
 10
1156.282508955508
 20
1788.403315628663
 30
0.0
 11
1157.49377845338
 21
1789.130778397218
 31
0.0
  0
LINE
  5
1FAD
330
1F
100
AcDbEntity
  8
HEWI
  6
IMPORT
 62
     7
100
AcDbLine
 10
1150.07123886159
 20
1839.18250569214
 30
0.0
 11
1151.498698578387
 21
1840.039858902589
 31
0.0
  0
LINE
  5
1FAE
330
1F
100
AcDbEntity
  8
HEWI
  6
IMPORT
 62
     7
100
AcDbLine
 10
1190.710378275424
 20
1831.253619278565
 30
0.0
 11
1191.732729063541
 21
1831.687769974366
 31
0.0
  0
LINE
  5
1FAF
330
1F
100
AcDbEntity
  8
HEWI
  6
IMPORT
 62
     7
100
AcDbLine
 10
870.710383043796
 20
1831.253619278565
 30
0.0
 11
871.7327219109835
 21
1831.687769974366
 31
0.0
  0
LINE
  5
1FB0
330
1F
100
AcDbEntity
  8
HEWI
  6
IMPORT
 62
     7
100
AcDbLine
 10
910.710383043796
 20
1831.253619278565
 30
0.0
 11
911.7327219109835
 21
1831.687769974366
 31
0.0
  0
LINE
  5
1FB1
330
1F
100
AcDbEntity
  8
HEWI
  6
IMPORT
 62
     7
100
AcDbLine
 10
950.710383043796
 20
1831.253619278565
 30
0.0
 11
951.7327219109835
 21
1831.687769974366
 31
0.0
  0
LINE
  5
1FB2
330
1F
100
AcDbEntity
  8
HEWI
  6
IMPORT
 62
     7
100
AcDbLine
 10
990.7103830437959
 20
1831.253619278565
 30
0.0
 11
991.7327219109834
 21
1831.687769974366
 31
0.0
  0
LINE
  5
1FB3
330
1F
100
AcDbEntity
  8
HEWI
  6
IMPORT
 62
     7
100
AcDbLine
 10
1030.710383043796
 20
1831.253619278565
 30
0.0
 11
1031.732731447726
 21
1831.687769974366
 31
0.0
  0
LINE
  5
1FB4
330
1F
100
AcDbEntity
  8
HEWI
  6
IMPORT
 62
     7
100
AcDbLine
 10
1070.710383043795
 20
1831.253619278565
 30
0.0
 11
1071.732731447726
 21
1831.687769974366
 31
0.0
  0
LINE
  5
1FB5
330
1F
100
AcDbEntity
  8
HEWI
  6
IMPORT
 62
     7
100
AcDbLine
 10
1110.710378275424
 20
1831.253619278565
 30
0.0
 11
1111.732726679355
 21
1831.687769974366
 31
0.0
  0
LINE
  5
1FB6
330
1F
100
AcDbEntity
  8
HEWI
  6
IMPORT
 62
     7
100
AcDbLine
 10
1150.710378275424
 20
1831.253619278565
 30
0.0
 11
1151.73272906354
 21
1831.687769974366
 31
0.0
  0
LINE
  5
1FB7
330
1F
100
AcDbEntity
  8
HEWI
  6
IMPORT
 62
     7
100
AcDbLine
 10
1198.232019529849
 20
1829.955630386964
 30
0.0
 11
1198.494618521243
 21
1829.116549576417
 31
0.0
  0
LINE
  5
1FB8
330
1F
100
AcDbEntity
  8
HEWI
  6
IMPORT
 62
     7
100
AcDbLine
 10
878.2320123772919
 20
1829.955630386964
 30
0.0
 11
878.4946161370577
 21
1829.116549576417
 31
0.0
  0
LINE
  5
1FB9
330
1F
100
AcDbEntity
  8
HEWI
  6
IMPORT
 62
     7
100
AcDbLine
 10
918.2320123772921
 20
1829.955630386964
 30
0.0
 11
918.4946161370577
 21
1829.116549576417
 31
0.0
  0
LINE
  5
1FBA
330
1F
100
AcDbEntity
  8
HEWI
  6
IMPORT
 62
     7
100
AcDbLine
 10
958.2320123772921
 20
1829.955630386964
 30
0.0
 11
958.4946161370577
 21
1829.116549576417
 31
0.0
  0
LINE
  5
1FBB
330
1F
100
AcDbEntity
  8
HEWI
  6
IMPORT
 62
     7
100
AcDbLine
 10
998.232012377292
 20
1829.955630386964
 30
0.0
 11
998.4946161370578
 21
1829.116549576417
 31
0.0
  0
LINE
  5
1FBC
330
1F
100
AcDbEntity
  8
HEWI
  6
IMPORT
 62
     7
100
AcDbLine
 10
1038.232021914035
 20
1829.955630386964
 30
0.0
 11
1038.494616137057
 21
1829.116549576417
 31
0.0
  0
LINE
  5
1FBD
330
1F
100
AcDbEntity
  8
HEWI
  6
IMPORT
 62
     7
100
AcDbLine
 10
1078.232021914035
 20
1829.955630386964
 30
0.0
 11
1078.494616137058
 21
1829.116549576417
 31
0.0
  0
LINE
  5
1FBE
330
1F
100
AcDbEntity
  8
HEWI
  6
IMPORT
 62
     7
100
AcDbLine
 10
1118.232017145663
 20
1829.955630386964
 30
0.0
 11
1118.494616137057
 21
1829.116549576417
 31
0.0
  0
LINE
  5
1FBF
330
1F
100
AcDbEntity
  8
HEWI
  6
IMPORT
 62
     7
100
AcDbLine
 10
1158.232018337756
 20
1829.955630386964
 30
0.0
 11
1158.494618521243
 21
1829.116549576417
 31
0.0
  0
LINE
  5
1FC0
330
1F
100
AcDbEntity
  8
HEWI
  6
IMPORT
 62
     7
100
AcDbLine
 10
1198.55413733533
 20
1828.926348770753
 30
0.0
 11
1198.782508955508
 21
1828.082079971925
 31
0.0
  0
LINE
  5
1FC1
330
1F
100
AcDbEntity
  8
HEWI
  6
IMPORT
 62
     7
100
AcDbLine
 10
878.5541444878878
 20
1828.926348770753
 30
0.0
 11
878.7825113396944
 21
1828.082079971925
 31
0.0
  0
LINE
  5
1FC2
330
1F
100
AcDbEntity
  8
HEWI
  6
IMPORT
 62
     7
100
AcDbLine
 10
918.5541444878877
 20
1828.926348770753
 30
0.0
 11
918.7825113396945
 21
1828.082079971925
 31
0.0
  0
LINE
  5
1FC3
330
1F
100
AcDbEntity
  8
HEWI
  6
IMPORT
 62
     7
100
AcDbLine
 10
958.5541444878877
 20
1828.926348770753
 30
0.0
 11
958.7825113396943
 21
1828.082079971925
 31
0.0
  0
LINE
  5
1FC4
330
1F
100
AcDbEntity
  8
HEWI
  6
IMPORT
 62
     7
100
AcDbLine
 10
998.5541444878878
 20
1828.926348770753
 30
0.0
 11
998.7825113396944
 21
1828.082079971925
 31
0.0
  0
LINE
  5
1FC5
330
1F
100
AcDbEntity
  8
HEWI
  6
IMPORT
 62
     7
100
AcDbLine
 10
1038.554134951144
 20
1828.926348770753
 30
0.0
 11
1038.782511339694
 21
1828.082079971925
 31
0.0
  0
LINE
  5
1FC6
330
1F
100
AcDbEntity
  8
HEWI
  6
IMPORT
 62
     7
100
AcDbLine
 10
1078.554134951144
 20
1828.926348770753
 30
0.0
 11
1078.782511339694
 21
1828.082079971925
 31
0.0
  0
LINE
  5
1FC7
330
1F
100
AcDbEntity
  8
HEWI
  6
IMPORT
 62
     7
100
AcDbLine
 10
1118.554139719516
 20
1828.926348770753
 30
0.0
 11
1118.782506571322
 21
1828.082079971925
 31
0.0
  0
LINE
  5
1FC8
330
1F
100
AcDbEntity
  8
HEWI
  6
IMPORT
 62
     7
100
AcDbLine
 10
1158.554138527423
 20
1828.926348770753
 30
0.0
 11
1158.782508359462
 21
1828.082079971925
 31
0.0
  0
LINE
  5
1FC9
330
1F
100
AcDbEntity
  8
HEWI
  6
IMPORT
 62
     7
100
AcDbLine
 10
1188.782508955508
 20
1791.927332962647
 30
0.0
 11
1189.11743937543
 21
1790.413851822511
 31
0.0
  0
LINE
  5
1FCA
330
1F
100
AcDbEntity
  8
HEWI
  6
IMPORT
 62
     7
100
AcDbLine
 10
1198.447578535586
 20
1837.899470413819
 30
0.0
 11
1198.782508955508
 21
1836.38595112671
 31
0.0
  0
LINE
  5
1FCB
330
1F
100
AcDbEntity
  8
HEWI
  6
IMPORT
 62
     7
100
AcDbLine
 10
868.7825113396945
 20
1791.927332962647
 30
0.0
 11
869.1174417596164
 21
1790.413851822511
 31
0.0
  0
LINE
  5
1FCC
330
1F
100
AcDbEntity
  8
HEWI
  6
IMPORT
 62
     7
100
AcDbLine
 10
878.4475809197724
 20
1837.899470413819
 30
0.0
 11
878.7825113396944
 21
1836.38595112671
 31
0.0
  0
LINE
  5
1FCD
330
1F
100
AcDbEntity
  8
HEWI
  6
IMPORT
 62
     7
100
AcDbLine
 10
908.7825113396943
 20
1791.927332962647
 30
0.0
 11
909.1174417596162
 21
1790.413851822511
 31
0.0
  0
LINE
  5
1FCE
330
1F
100
AcDbEntity
  8
HEWI
  6
IMPORT
 62
     7
100
AcDbLine
 10
918.4475809197726
 20
1837.899470413819
 30
0.0
 11
918.7825113396945
 21
1836.38595112671
 31
0.0
  0
LINE
  5
1FCF
330
1F
100
AcDbEntity
  8
HEWI
  6
IMPORT
 62
     7
100
AcDbLine
 10
948.7825113396944
 20
1791.927332962647
 30
0.0
 11
949.1174417596162
 21
1790.413851822511
 31
0.0
  0
LINE
  5
1FD0
330
1F
100
AcDbEntity
  8
HEWI
  6
IMPORT
 62
     7
100
AcDbLine
 10
958.4475809197725
 20
1837.899470413819
 30
0.0
 11
958.7825113396943
 21
1836.38595112671
 31
0.0
  0
LINE
  5
1FD1
330
1F
100
AcDbEntity
  8
HEWI
  6
IMPORT
 62
     7
100
AcDbLine
 10
988.7825113396944
 20
1791.927332962647
 30
0.0
 11
989.1174417596161
 21
1790.413851822511
 31
0.0
  0
LINE
  5
1FD2
330
1F
100
AcDbEntity
  8
HEWI
  6
IMPORT
 62
     7
100
AcDbLine
 10
998.4475809197725
 20
1837.899470413819
 30
0.0
 11
998.7825113396944
 21
1836.38595112671
 31
0.0
  0
LINE
  5
1FD3
330
1F
100
AcDbEntity
  8
HEWI
  6
IMPORT
 62
     7
100
AcDbLine
 10
1028.782511339694
 20
1791.927332962647
 30
0.0
 11
1029.117441759616
 21
1790.413851822511
 31
0.0
  0
LINE
  5
1FD4
330
1F
100
AcDbEntity
  8
HEWI
  6
IMPORT
 62
     7
100
AcDbLine
 10
1038.447580919772
 20
1837.899470413819
 30
0.0
 11
1038.782511339694
 21
1836.38595112671
 31
0.0
  0
LINE
  5
1FD5
330
1F
100
AcDbEntity
  8
HEWI
  6
IMPORT
 62
     7
100
AcDbLine
 10
1068.782511339694
 20
1791.927332962647
 30
0.0
 11
1069.117441759616
 21
1790.413851822511
 31
0.0
  0
LINE
  5
1FD6
330
1F
100
AcDbEntity
  8
HEWI
  6
IMPORT
 62
     7
100
AcDbLine
 10
1078.447580919772
 20
1837.899470413819
 30
0.0
 11
1078.782511339694
 21
1836.38595112671
 31
0.0
  0
LINE
  5
1FD7
330
1F
100
AcDbEntity
  8
HEWI
  6
IMPORT
 62
     7
100
AcDbLine
 10
1108.782506571322
 20
1791.927332962647
 30
0.0
 11
1109.117436991244
 21
1790.413851822511
 31
0.0
  0
LINE
  5
1FD8
330
1F
100
AcDbEntity
  8
HEWI
  6
IMPORT
 62
     7
100
AcDbLine
 10
1118.447576151401
 20
1837.899470413819
 30
0.0
 11
1118.782506571322
 21
1836.38595112671
 31
0.0
  0
LINE
  5
1FD9
330
1F
100
AcDbEntity
  8
HEWI
  6
IMPORT
 62
     7
100
AcDbLine
 10
1148.782508955508
 20
1791.927332962647
 30
0.0
 11
1149.117438183337
 21
1790.413851822511
 31
0.0
  0
LINE
  5
1FDA
330
1F
100
AcDbEntity
  8
HEWI
  6
IMPORT
 62
     7
100
AcDbLine
 10
1158.447578535586
 20
1837.899470413819
 30
0.0
 11
1158.782508359462
 21
1836.38595112671
 31
0.0
  0
LINE
  5
1FDB
330
1F
100
AcDbEntity
  8
HEWI
  6
IMPORT
 62
     7
100
AcDbLine
 10
1194.382508383304
 20
1788.849177445069
 30
0.0
 11
1196.066308603793
 21
1789.150233353272
 31
0.0
  0
LINE
  5
1FDC
330
1F
100
AcDbEntity
  8
HEWI
  6
IMPORT
 62
     7
100
AcDbLine
 10
1191.938698874026
 20
1840.118517960206
 30
0.0
 11
1193.182509527713
 21
1840.340876663819
 31
0.0
  0
LINE
  5
1FDD
330
1F
100
AcDbEntity
  8
HEWI
  6
IMPORT
 62
     7
100
AcDbLine
 10
874.3825059991182
 20
1788.849177445069
 30
0.0
 11
876.0663133721651
 21
1789.150233353272
 31
0.0
  0
LINE
  5
1FDE
330
1F
100
AcDbEntity
  8
HEWI
  6
IMPORT
 62
     7
100
AcDbLine
 10
871.938696489841
 20
1840.118517960206
 30
0.0
 11
873.1825166802705
 21
1840.340876663819
 31
0.0
  0
LINE
  5
1FDF
330
1F
100
AcDbEntity
  8
HEWI
  6
IMPORT
 62
     7
100
AcDbLine
 10
914.3825059991183
 20
1788.849177445069
 30
0.0
 11
916.066313372165
 21
1789.150233353272
 31
0.0
  0
LINE
  5
1FE0
330
1F
100
AcDbEntity
  8
HEWI
  6
IMPORT
 62
     7
100
AcDbLine
 10
911.9386964898408
 20
1840.118517960206
 30
0.0
 11
913.1825166802705
 21
1840.340876663819
 31
0.0
  0
LINE
  5
1FE1
330
1F
100
AcDbEntity
  8
HEWI
  6
IMPORT
 62
     7
100
AcDbLine
 10
954.3825059991183
 20
1788.849177445069
 30
0.0
 11
956.0663133721652
 21
1789.150233353272
 31
0.0
  0
LINE
  5
1FE2
330
1F
100
AcDbEntity
  8
HEWI
  6
IMPORT
 62
     7
100
AcDbLine
 10
951.9386964898409
 20
1840.118517960206
 30
0.0
 11
953.1825166802706
 21
1840.340876663819
 31
0.0
  0
LINE
  5
1FE3
330
1F
100
AcDbEntity
  8
HEWI
  6
IMPORT
 62
     7
100
AcDbLine
 10
994.3825059991182
 20
1788.849177445069
 30
0.0
 11
996.066313372165
 21
1789.150233353272
 31
0.0
  0
LINE
  5
1FE4
330
1F
100
AcDbEntity
  8
HEWI
  6
IMPORT
 62
     7
100
AcDbLine
 10
991.9386964898409
 20
1840.118517960206
 30
0.0
 11
993.1825166802706
 21
1840.340876663819
 31
0.0
  0
LINE
  5
1FE5
330
1F
100
AcDbEntity
  8
HEWI
  6
IMPORT
 62
     7
100
AcDbLine
 10
1034.382505999118
 20
1788.849177445069
 30
0.0
 11
1036.066303835422
 21
1789.150233353272
 31
0.0
  0
LINE
  5
1FE6
330
1F
100
AcDbEntity
  8
HEWI
  6
IMPORT
 62
     7
100
AcDbLine
 10
1031.938696489841
 20
1840.118517960206
 30
0.0
 11
1033.182507143527
 21
1840.340876663819
 31
0.0
  0
LINE
  5
1FE7
330
1F
100
AcDbEntity
  8
HEWI
  6
IMPORT
 62
     7
100
AcDbLine
 10
1074.382505999118
 20
1788.849177445069
 30
0.0
 11
1076.066303835422
 21
1789.150233353272
 31
0.0
  0
LINE
  5
1FE8
330
1F
100
AcDbEntity
  8
HEWI
  6
IMPORT
 62
     7
100
AcDbLine
 10
1071.938696489841
 20
1840.118517960206
 30
0.0
 11
1073.182507143527
 21
1840.340876663819
 31
0.0
  0
LINE
  5
1FE9
330
1F
100
AcDbEntity
  8
HEWI
  6
IMPORT
 62
     7
100
AcDbLine
 10
1114.382510767489
 20
1788.849177445069
 30
0.0
 11
1116.066308603793
 21
1789.150233353272
 31
0.0
  0
LINE
  5
1FEA
330
1F
100
AcDbEntity
  8
HEWI
  6
IMPORT
 62
     7
100
AcDbLine
 10
1111.938696489841
 20
1840.118517960206
 30
0.0
 11
1113.182507143527
 21
1840.340876663819
 31
0.0
  0
LINE
  5
1FEB
330
1F
100
AcDbEntity
  8
HEWI
  6
IMPORT
 62
     7
100
AcDbLine
 10
1154.382508383304
 20
1788.849177445069
 30
0.0
 11
1156.066308603793
 21
1789.150233353272
 31
0.0
  0
LINE
  5
1FEC
330
1F
100
AcDbEntity
  8
HEWI
  6
IMPORT
 62
     7
100
AcDbLine
 10
1151.938698874026
 20
1840.118517960206
 30
0.0
 11
1153.18250833562
 21
1840.340876663819
 31
0.0
  0
LINE
  5
1FED
330
1F
100
AcDbEntity
  8
HEWI
  6
IMPORT
 62
     7
100
AcDbLine
 10
1191.846988783389
 20
1831.736292923585
 30
0.0
 11
1193.140347586185
 21
1831.899828995362
 31
0.0
  0
LINE
  5
1FEE
330
1F
100
AcDbEntity
  8
HEWI
  6
IMPORT
 62
     7
100
AcDbLine
 10
871.8469911675752
 20
1831.736292923585
 30
0.0
 11
873.1403452019991
 21
1831.899828995362
 31
0.0
  0
LINE
  5
1FEF
330
1F
100
AcDbEntity
  8
HEWI
  6
IMPORT
 62
     7
100
AcDbLine
 10
911.8469911675752
 20
1831.736292923585
 30
0.0
 11
913.140345201999
 21
1831.899828995362
 31
0.0
  0
LINE
  5
1FF0
330
1F
100
AcDbEntity
  8
HEWI
  6
IMPORT
 62
     7
100
AcDbLine
 10
951.8469911675751
 20
1831.736292923585
 30
0.0
 11
953.1403452019988
 21
1831.899828995362
 31
0.0
  0
LINE
  5
1FF1
330
1F
100
AcDbEntity
  8
HEWI
  6
IMPORT
 62
     7
100
AcDbLine
 10
991.8469911675753
 20
1831.736292923585
 30
0.0
 11
993.140345201999
 21
1831.899828995362
 31
0.0
  0
LINE
  5
1FF2
330
1F
100
AcDbEntity
  8
HEWI
  6
IMPORT
 62
     7
100
AcDbLine
 10
1031.846991167575
 20
1831.736292923585
 30
0.0
 11
1033.140345201999
 21
1831.899828995362
 31
0.0
  0
LINE
  5
1FF3
330
1F
100
AcDbEntity
  8
HEWI
  6
IMPORT
 62
     7
100
AcDbLine
 10
1071.846991167575
 20
1831.736292923585
 30
0.0
 11
1073.140345201999
 21
1831.899828995362
 31
0.0
  0
LINE
  5
1FF4
330
1F
100
AcDbEntity
  8
HEWI
  6
IMPORT
 62
     7
100
AcDbLine
 10
1111.846986399203
 20
1831.736292923585
 30
0.0
 11
1113.14034997037
 21
1831.899828995362
 31
0.0
  0
LINE
  5
1FF5
330
1F
100
AcDbEntity
  8
HEWI
  6
IMPORT
 62
     7
100
AcDbLine
 10
1151.846988783389
 20
1831.736292923585
 30
0.0
 11
1153.140348778278
 21
1831.899828995362
 31
0.0
  0
LINE
  5
1FF6
330
1F
100
AcDbEntity
  8
HEWI
  6
IMPORT
 62
     7
100
AcDbLine
 10
1194.294298277408
 20
1831.91630848755
 30
0.0
 11
1195.589149580508
 21
1831.752619827882
 31
0.0
  0
LINE
  5
1FF7
330
1F
100
AcDbEntity
  8
HEWI
  6
IMPORT
 62
     7
100
AcDbLine
 10
874.2942911248505
 20
1831.91630848755
 30
0.0
 11
875.5891519646944
 21
1831.752619827882
 31
0.0
  0
LINE
  5
1FF8
330
1F
100
AcDbEntity
  8
HEWI
  6
IMPORT
 62
     7
100
AcDbLine
 10
914.2942911248505
 20
1831.91630848755
 30
0.0
 11
915.5891519646944
 21
1831.752619827882
 31
0.0
  0
LINE
  5
1FF9
330
1F
100
AcDbEntity
  8
HEWI
  6
IMPORT
 62
     7
100
AcDbLine
 10
954.2942911248504
 20
1831.91630848755
 30
0.0
 11
955.5891519646944
 21
1831.752619827882
 31
0.0
  0
LINE
  5
1FFA
330
1F
100
AcDbEntity
  8
HEWI
  6
IMPORT
 62
     7
100
AcDbLine
 10
994.2942911248504
 20
1831.91630848755
 30
0.0
 11
995.5891519646945
 21
1831.752619827882
 31
0.0
  0
LINE
  5
1FFB
330
1F
100
AcDbEntity
  8
HEWI
  6
IMPORT
 62
     7
100
AcDbLine
 10
1034.294300661594
 20
1831.91630848755
 30
0.0
 11
1035.589151964694
 21
1831.752619827882
 31
0.0
  0
LINE
  5
1FFC
330
1F
100
AcDbEntity
  8
HEWI
  6
IMPORT
 62
     7
100
AcDbLine
 10
1074.294300661594
 20
1831.91630848755
 30
0.0
 11
1075.589151964694
 21
1831.752619827882
 31
0.0
  0
LINE
  5
1FFD
330
1F
100
AcDbEntity
  8
HEWI
  6
IMPORT
 62
     7
100
AcDbLine
 10
1114.294300661593
 20
1831.91630848755
 30
0.0
 11
1115.589147196322
 21
1831.752619827882
 31
0.0
  0
LINE
  5
1FFE
330
1F
100
AcDbEntity
  8
HEWI
  6
IMPORT
 62
     7
100
AcDbLine
 10
1154.294298277408
 20
1831.91630848755
 30
0.0
 11
1155.589148388415
 21
1831.752619827882
 31
0.0
  0
LINE
  5
1FFF
330
1F
100
AcDbEntity
  8
HEWI
  6
IMPORT
 62
     7
100
AcDbLine
 10
1191.498697386294
 20
1789.150233353272
 30
0.0
 11
1193.182509527713
 21
1788.849177445069
 31
0.0
  0
LINE
  5
2000
330
1F
100
AcDbEntity
  8
HEWI
  6
IMPORT
 62
     7
100
AcDbLine
 10
1194.827569113284
 20
1840.261340225831
 30
0.0
 11
1196.066308603793
 21
1840.039858902589
 31
0.0
  0
LINE
  5
2001
330
1F
100
AcDbEntity
  8
HEWI
  6
IMPORT
 62
     7
100
AcDbLine
 10
871.4986902337374
 20
1789.150233353272
 30
0.0
 11
873.1825166802705
 21
1788.849177445069
 31
0.0
  0
LINE
  5
2002
330
1F
100
AcDbEntity
  8
HEWI
  6
IMPORT
 62
     7
100
AcDbLine
 10
874.8275667290988
 20
1840.261340225831
 30
0.0
 11
876.0663133721651
 21
1840.039858902589
 31
0.0
  0
LINE
  5
2003
330
1F
100
AcDbEntity
  8
HEWI
  6
IMPORT
 62
     7
100
AcDbLine
 10
911.4986902337374
 20
1789.150233353272
 30
0.0
 11
913.1825166802705
 21
1788.849177445069
 31
0.0
  0
LINE
  5
2004
330
1F
100
AcDbEntity
  8
HEWI
  6
IMPORT
 62
     7
100
AcDbLine
 10
914.8275667290986
 20
1840.261340225831
 30
0.0
 11
916.066313372165
 21
1840.039858902589
 31
0.0
  0
LINE
  5
2005
330
1F
100
AcDbEntity
  8
HEWI
  6
IMPORT
 62
     7
100
AcDbLine
 10
951.4986902337374
 20
1789.150233353272
 30
0.0
 11
953.1825166802706
 21
1788.849177445069
 31
0.0
  0
LINE
  5
2006
330
1F
100
AcDbEntity
  8
HEWI
  6
IMPORT
 62
     7
100
AcDbLine
 10
954.8275667290987
 20
1840.261340225831
 30
0.0
 11
956.0663133721652
 21
1840.039858902589
 31
0.0
  0
LINE
  5
2007
330
1F
100
AcDbEntity
  8
HEWI
  6
IMPORT
 62
     7
100
AcDbLine
 10
991.4986902337373
 20
1789.150233353272
 30
0.0
 11
993.1825166802706
 21
1788.849177445069
 31
0.0
  0
LINE
  5
2008
330
1F
100
AcDbEntity
  8
HEWI
  6
IMPORT
 62
     7
100
AcDbLine
 10
994.8275667290985
 20
1840.261340225831
 30
0.0
 11
996.066313372165
 21
1840.039858902589
 31
0.0
  0
LINE
  5
2009
330
1F
100
AcDbEntity
  8
HEWI
  6
IMPORT
 62
     7
100
AcDbLine
 10
1031.49869977048
 20
1789.150233353272
 30
0.0
 11
1033.182507143527
 21
1788.849177445069
 31
0.0
  0
LINE
  5
200A
330
1F
100
AcDbEntity
  8
HEWI
  6
IMPORT
 62
     7
100
AcDbLine
 10
1034.827566729098
 20
1840.261340225831
 30
0.0
 11
1036.066303835422
 21
1840.039858902589
 31
0.0
  0
LINE
  5
200B
330
1F
100
AcDbEntity
  8
HEWI
  6
IMPORT
 62
     7
100
AcDbLine
 10
1071.49869977048
 20
1789.150233353272
 30
0.0
 11
1073.182507143527
 21
1788.849177445069
 31
0.0
  0
LINE
  5
200C
330
1F
100
AcDbEntity
  8
HEWI
  6
IMPORT
 62
     7
100
AcDbLine
 10
1074.827566729098
 20
1840.261340225831
 30
0.0
 11
1076.066303835422
 21
1840.039858902589
 31
0.0
  0
LINE
  5
200D
330
1F
100
AcDbEntity
  8
HEWI
  6
IMPORT
 62
     7
100
AcDbLine
 10
1111.49869977048
 20
1789.150233353272
 30
0.0
 11
1113.182507143527
 21
1788.849177445069
 31
0.0
  0
LINE
  5
200E
330
1F
100
AcDbEntity
  8
HEWI
  6
IMPORT
 62
     7
100
AcDbLine
 10
1114.827566729098
 20
1840.261340225831
 30
0.0
 11
1116.066308603793
 21
1840.039858902589
 31
0.0
  0
LINE
  5
200F
330
1F
100
AcDbEntity
  8
HEWI
  6
IMPORT
 62
     7
100
AcDbLine
 10
1151.498698578387
 20
1789.150233353272
 30
0.0
 11
1153.18250833562
 21
1788.849177445069
 31
0.0
  0
LINE
  5
2010
330
1F
100
AcDbEntity
  8
HEWI
  6
IMPORT
 62
     7
100
AcDbLine
 10
1154.827567921191
 20
1840.261340225831
 30
0.0
 11
1156.066308603793
 21
1840.039858902589
 31
0.0
  0
LINE
  5
2011
330
1F
100
AcDbEntity
  8
HEWI
  6
IMPORT
 62
     7
100
AcDbLine
 10
1198.447578535586
 20
1790.413851822511
 30
0.0
 11
1198.782508955508
 21
1791.927332962647
 31
0.0
  0
LINE
  5
2012
330
1F
100
AcDbEntity
  8
HEWI
  6
IMPORT
 62
     7
100
AcDbLine
 10
1188.878927813083
 20
1836.821665848389
 30
0.0
 11
1189.11743937543
 21
1837.899470413819
 31
0.0
  0
LINE
  5
2013
330
1F
100
AcDbEntity
  8
HEWI
  6
IMPORT
 62
     7
100
AcDbLine
 10
878.4475809197724
 20
1790.413851822511
 30
0.0
 11
878.7825113396944
 21
1791.927332962647
 31
0.0
  0
LINE
  5
2014
330
1F
100
AcDbEntity
  8
HEWI
  6
IMPORT
 62
     7
100
AcDbLine
 10
868.8789278130832
 20
1836.821665848389
 30
0.0
 11
869.1174417596164
 21
1837.899470413819
 31
0.0
  0
LINE
  5
2015
330
1F
100
AcDbEntity
  8
HEWI
  6
IMPORT
 62
     7
100
AcDbLine
 10
918.4475809197726
 20
1790.413851822511
 30
0.0
 11
918.7825113396945
 21
1791.927332962647
 31
0.0
  0
LINE
  5
2016
330
1F
100
AcDbEntity
  8
HEWI
  6
IMPORT
 62
     7
100
AcDbLine
 10
908.878927813083
 20
1836.821665848389
 30
0.0
 11
909.1174417596162
 21
1837.899470413819
 31
0.0
  0
LINE
  5
2017
330
1F
100
AcDbEntity
  8
HEWI
  6
IMPORT
 62
     7
100
AcDbLine
 10
958.4475809197725
 20
1790.413851822511
 30
0.0
 11
958.7825113396943
 21
1791.927332962647
 31
0.0
  0
LINE
  5
2018
330
1F
100
AcDbEntity
  8
HEWI
  6
IMPORT
 62
     7
100
AcDbLine
 10
948.878927813083
 20
1836.821665848389
 30
0.0
 11
949.1174417596162
 21
1837.899470413819
 31
0.0
  0
LINE
  5
2019
330
1F
100
AcDbEntity
  8
HEWI
  6
IMPORT
 62
     7
100
AcDbLine
 10
998.4475809197725
 20
1790.413851822511
 30
0.0
 11
998.7825113396944
 21
1791.927332962647
 31
0.0
  0
LINE
  5
201A
330
1F
100
AcDbEntity
  8
HEWI
  6
IMPORT
 62
     7
100
AcDbLine
 10
988.8789278130829
 20
1836.821665848389
 30
0.0
 11
989.1174417596161
 21
1837.899470413819
 31
0.0
  0
LINE
  5
201B
330
1F
100
AcDbEntity
  8
HEWI
  6
IMPORT
 62
     7
100
AcDbLine
 10
1038.447580919772
 20
1790.413851822511
 30
0.0
 11
1038.782511339694
 21
1791.927332962647
 31
0.0
  0
LINE
  5
201C
330
1F
100
AcDbEntity
  8
HEWI
  6
IMPORT
 62
     7
100
AcDbLine
 10
1028.878927813083
 20
1836.821665848389
 30
0.0
 11
1029.117441759616
 21
1837.899470413819
 31
0.0
  0
LINE
  5
201D
330
1F
100
AcDbEntity
  8
HEWI
  6
IMPORT
 62
     7
100
AcDbLine
 10
1078.447580919772
 20
1790.413851822511
 30
0.0
 11
1078.782511339694
 21
1791.927332962647
 31
0.0
  0
LINE
  5
201E
330
1F
100
AcDbEntity
  8
HEWI
  6
IMPORT
 62
     7
100
AcDbLine
 10
1068.878927813083
 20
1836.821665848389
 30
0.0
 11
1069.117441759616
 21
1837.899470413819
 31
0.0
  0
LINE
  5
201F
330
1F
100
AcDbEntity
  8
HEWI
  6
IMPORT
 62
     7
100
AcDbLine
 10
1118.447576151401
 20
1790.413851822511
 30
0.0
 11
1118.782506571322
 21
1791.927332962647
 31
0.0
  0
LINE
  5
2020
330
1F
100
AcDbEntity
  8
HEWI
  6
IMPORT
 62
     7
100
AcDbLine
 10
1108.878927813083
 20
1836.821665848389
 30
0.0
 11
1109.117436991244
 21
1837.899470413819
 31
0.0
  0
LINE
  5
2021
330
1F
100
AcDbEntity
  8
HEWI
  6
IMPORT
 62
     7
100
AcDbLine
 10
1158.447578535586
 20
1790.413851822511
 30
0.0
 11
1158.782508359462
 21
1791.927332962647
 31
0.0
  0
LINE
  5
2022
330
1F
100
AcDbEntity
  8
HEWI
  6
IMPORT
 62
     7
100
AcDbLine
 10
1148.878929005176
 20
1836.821665848389
 30
0.0
 11
1149.117438183337
 21
1837.899470413819
 31
0.0
  0
LINE
  5
2023
330
1F
100
AcDbEntity
  8
HEWI
  6
IMPORT
 62
     7
100
AcDbLine
 10
1188.782508955508
 20
1828.082079971925
 30
0.0
 11
1189.010868654757
 21
1828.926348770753
 31
0.0
  0
LINE
  5
2024
330
1F
100
AcDbEntity
  8
HEWI
  6
IMPORT
 62
     7
100
AcDbLine
 10
868.7825113396945
 20
1828.082079971925
 30
0.0
 11
869.0108591180147
 21
1828.926348770753
 31
0.0
  0
LINE
  5
2025
330
1F
100
AcDbEntity
  8
HEWI
  6
IMPORT
 62
     7
100
AcDbLine
 10
908.7825113396943
 20
1828.082079971925
 30
0.0
 11
909.0108591180147
 21
1828.926348770753
 31
0.0
  0
LINE
  5
2026
330
1F
100
AcDbEntity
  8
HEWI
  6
IMPORT
 62
     7
100
AcDbLine
 10
948.7825113396944
 20
1828.082079971925
 30
0.0
 11
949.0108591180145
 21
1828.926348770753
 31
0.0
  0
LINE
  5
2027
330
1F
100
AcDbEntity
  8
HEWI
  6
IMPORT
 62
     7
100
AcDbLine
 10
988.7825113396944
 20
1828.082079971925
 30
0.0
 11
989.0108591180146
 21
1828.926348770753
 31
0.0
  0
LINE
  5
2028
330
1F
100
AcDbEntity
  8
HEWI
  6
IMPORT
 62
     7
100
AcDbLine
 10
1028.782511339694
 20
1828.082079971925
 30
0.0
 11
1029.010868654758
 21
1828.926348770753
 31
0.0
  0
LINE
  5
2029
330
1F
100
AcDbEntity
  8
HEWI
  6
IMPORT
 62
     7
100
AcDbLine
 10
1068.782511339694
 20
1828.082079971925
 30
0.0
 11
1069.010868654758
 21
1828.926348770753
 31
0.0
  0
LINE
  5
202A
330
1F
100
AcDbEntity
  8
HEWI
  6
IMPORT
 62
     7
100
AcDbLine
 10
1108.782506571322
 20
1828.082079971925
 30
0.0
 11
1109.010868654758
 21
1828.926348770753
 31
0.0
  0
LINE
  5
202B
330
1F
100
AcDbEntity
  8
HEWI
  6
IMPORT
 62
     7
100
AcDbLine
 10
1148.782508955508
 20
1828.082079971925
 30
0.0
 11
1149.010868654758
 21
1828.926348770753
 31
0.0
  0
LINE
  5
202C
330
1F
100
AcDbEntity
  8
HEWI
  6
IMPORT
 62
     7
100
AcDbLine
 10
1189.010868654757
 20
1828.926348770753
 30
0.0
 11
1189.26946936658
 21
1829.75265034546
 31
0.0
  0
LINE
  5
202D
330
1F
100
AcDbEntity
  8
HEWI
  6
IMPORT
 62
     7
100
AcDbLine
 10
869.0108591180147
 20
1828.926348770753
 30
0.0
 11
869.2694765191376
 21
1829.75265034546
 31
0.0
  0
LINE
  5
202E
330
1F
100
AcDbEntity
  8
HEWI
  6
IMPORT
 62
     7
100
AcDbLine
 10
909.0108591180147
 20
1828.926348770753
 30
0.0
 11
909.2694765191378
 21
1829.75265034546
 31
0.0
  0
LINE
  5
202F
330
1F
100
AcDbEntity
  8
HEWI
  6
IMPORT
 62
     7
100
AcDbLine
 10
949.0108591180145
 20
1828.926348770753
 30
0.0
 11
949.2694765191378
 21
1829.75265034546
 31
0.0
  0
LINE
  5
2030
330
1F
100
AcDbEntity
  8
HEWI
  6
IMPORT
 62
     7
100
AcDbLine
 10
989.0108591180146
 20
1828.926348770753
 30
0.0
 11
989.2694765191377
 21
1829.75265034546
 31
0.0
  0
LINE
  5
2031
330
1F
100
AcDbEntity
  8
HEWI
  6
IMPORT
 62
     7
100
AcDbLine
 10
1029.010868654758
 20
1828.926348770753
 30
0.0
 11
1029.269466982394
 21
1829.75265034546
 31
0.0
  0
LINE
  5
2032
330
1F
100
AcDbEntity
  8
HEWI
  6
IMPORT
 62
     7
100
AcDbLine
 10
1069.010868654758
 20
1828.926348770753
 30
0.0
 11
1069.269466982394
 21
1829.75265034546
 31
0.0
  0
LINE
  5
2033
330
1F
100
AcDbEntity
  8
HEWI
  6
IMPORT
 62
     7
100
AcDbLine
 10
1109.010868654758
 20
1828.926348770753
 30
0.0
 11
1109.269466982394
 21
1829.75265034546
 31
0.0
  0
LINE
  5
2034
330
1F
100
AcDbEntity
  8
HEWI
  6
IMPORT
 62
     7
100
AcDbLine
 10
1149.010868654758
 20
1828.926348770753
 30
0.0
 11
1149.269468174487
 21
1829.75265034546
 31
0.0
  0
LINE
  5
2035
330
1F
100
AcDbEntity
  8
HEWI
  6
IMPORT
 62
     7
100
AcDbLine
 10
1195.718019590884
 20
1831.736292923585
 30
0.0
 11
1196.744118319064
 21
1831.300540054933
 31
0.0
  0
LINE
  5
2036
330
1F
100
AcDbEntity
  8
HEWI
  6
IMPORT
 62
     7
100
AcDbLine
 10
875.7180124383273
 20
1831.736292923585
 30
0.0
 11
876.7441278558077
 21
1831.300540054933
 31
0.0
  0
LINE
  5
2037
330
1F
100
AcDbEntity
  8
HEWI
  6
IMPORT
 62
     7
100
AcDbLine
 10
915.7180124383272
 20
1831.736292923585
 30
0.0
 11
916.7441278558078
 21
1831.300540054933
 31
0.0
  0
LINE
  5
2038
330
1F
100
AcDbEntity
  8
HEWI
  6
IMPORT
 62
     7
100
AcDbLine
 10
955.7180124383272
 20
1831.736292923585
 30
0.0
 11
956.7441278558076
 21
1831.300540054933
 31
0.0
  0
LINE
  5
2039
330
1F
100
AcDbEntity
  8
HEWI
  6
IMPORT
 62
     7
100
AcDbLine
 10
995.7180124383272
 20
1831.736292923585
 30
0.0
 11
996.7441278558077
 21
1831.300540054933
 31
0.0
  0
LINE
  5
203A
330
1F
100
AcDbEntity
  8
HEWI
  6
IMPORT
 62
     7
100
AcDbLine
 10
1035.71802197507
 20
1831.736292923585
 30
0.0
 11
1036.744118319064
 21
1831.300540054933
 31
0.0
  0
LINE
  5
203B
330
1F
100
AcDbEntity
  8
HEWI
  6
IMPORT
 62
     7
100
AcDbLine
 10
1075.71802197507
 20
1831.736292923585
 30
0.0
 11
1076.744118319064
 21
1831.300540054933
 31
0.0
  0
LINE
  5
203C
330
1F
100
AcDbEntity
  8
HEWI
  6
IMPORT
 62
     7
100
AcDbLine
 10
1115.718017206698
 20
1831.736292923585
 30
0.0
 11
1116.744118319064
 21
1831.300540054933
 31
0.0
  0
LINE
  5
203D
330
1F
100
AcDbEntity
  8
HEWI
  6
IMPORT
 62
     7
100
AcDbLine
 10
1155.718018398791
 20
1831.736292923585
 30
0.0
 11
1156.744118319064
 21
1831.300540054933
 31
0.0
  0
LINE
  5
203E
330
1F
100
AcDbEntity
  8
HEWI
  6
IMPORT
 62
     7
100
AcDbLine
 10
1191.282508955508
 20
1789.280085648194
 30
0.0
 11
1191.498697386294
 21
1789.150233353272
 31
0.0
  0
LINE
  5
203F
330
1F
100
AcDbEntity
  8
HEWI
  6
IMPORT
 62
     7
100
AcDbLine
 10
1190.071237669498
 20
1789.130778397218
 30
0.0
 11
1191.282508955508
 21
1788.403315628663
 31
0.0
  0
LINE
  5
2040
330
1F
100
AcDbEntity
  8
HEWI
  6
IMPORT
 62
     7
100
AcDbLine
 10
1196.066308603793
 20
1840.039858902589
 30
0.0
 11
1197.493777857333
 21
1839.18250569214
 31
0.0
  0
LINE
  5
2041
330
1F
100
AcDbEntity
  8
HEWI
  6
IMPORT
 62
     7
100
AcDbLine
 10
871.2825113396943
 20
1789.280085648194
 30
0.0
 11
871.4986902337374
 21
1789.150233353272
 31
0.0
  0
LINE
  5
2042
330
1F
100
AcDbEntity
  8
HEWI
  6
IMPORT
 62
     7
100
AcDbLine
 10
870.0712305169403
 20
1789.130778397218
 30
0.0
 11
871.2825113396943
 21
1788.403315628663
 31
0.0
  0
LINE
  5
2043
330
1F
100
AcDbEntity
  8
HEWI
  6
IMPORT
 62
     7
100
AcDbLine
 10
876.0663133721651
 20
1840.039858902589
 30
0.0
 11
877.493773088962
 21
1839.18250569214
 31
0.0
  0
LINE
  5
2044
330
1F
100
AcDbEntity
  8
HEWI
  6
IMPORT
 62
     7
100
AcDbLine
 10
911.2825113396944
 20
1789.280085648194
 30
0.0
 11
911.4986902337374
 21
1789.150233353272
 31
0.0
  0
LINE
  5
2045
330
1F
100
AcDbEntity
  8
HEWI
  6
IMPORT
 62
     7
100
AcDbLine
 10
910.0712305169405
 20
1789.130778397218
 30
0.0
 11
911.2825113396944
 21
1788.403315628663
 31
0.0
  0
LINE
  5
2046
330
1F
100
AcDbEntity
  8
HEWI
  6
IMPORT
 62
     7
100
AcDbLine
 10
916.066313372165
 20
1840.039858902589
 30
0.0
 11
917.493773088962
 21
1839.18250569214
 31
0.0
  0
LINE
  5
2047
330
1F
100
AcDbEntity
  8
HEWI
  6
IMPORT
 62
     7
100
AcDbLine
 10
951.2825113396944
 20
1789.280085648194
 30
0.0
 11
951.4986902337374
 21
1789.150233353272
 31
0.0
  0
LINE
  5
2048
330
1F
100
AcDbEntity
  8
HEWI
  6
IMPORT
 62
     7
100
AcDbLine
 10
950.0712305169406
 20
1789.130778397218
 30
0.0
 11
951.2825113396944
 21
1788.403315628663
 31
0.0
  0
LINE
  5
2049
330
1F
100
AcDbEntity
  8
HEWI
  6
IMPORT
 62
     7
100
AcDbLine
 10
956.0663133721652
 20
1840.039858902589
 30
0.0
 11
957.4937730889621
 21
1839.18250569214
 31
0.0
  0
LINE
  5
204A
330
1F
100
AcDbEntity
  8
HEWI
  6
IMPORT
 62
     7
100
AcDbLine
 10
991.2825113396944
 20
1789.280085648194
 30
0.0
 11
991.4986902337373
 21
1789.150233353272
 31
0.0
  0
LINE
  5
204B
330
1F
100
AcDbEntity
  8
HEWI
  6
IMPORT
 62
     7
100
AcDbLine
 10
990.0712305169404
 20
1789.130778397218
 30
0.0
 11
991.2825113396944
 21
1788.403315628663
 31
0.0
  0
LINE
  5
204C
330
1F
100
AcDbEntity
  8
HEWI
  6
IMPORT
 62
     7
100
AcDbLine
 10
996.066313372165
 20
1840.039858902589
 30
0.0
 11
997.4937730889619
 21
1839.18250569214
 31
0.0
  0
LINE
  5
204D
330
1F
100
AcDbEntity
  8
HEWI
  6
IMPORT
 62
     7
100
AcDbLine
 10
1031.282511339694
 20
1789.280085648194
 30
0.0
 11
1031.49869977048
 21
1789.150233353272
 31
0.0
  0
LINE
  5
204E
330
1F
100
AcDbEntity
  8
HEWI
  6
IMPORT
 62
     7
100
AcDbLine
 10
1030.071240053683
 20
1789.130778397218
 30
0.0
 11
1031.282511339694
 21
1788.403315628663
 31
0.0
  0
LINE
  5
204F
330
1F
100
AcDbEntity
  8
HEWI
  6
IMPORT
 62
     7
100
AcDbLine
 10
1036.066303835422
 20
1840.039858902589
 30
0.0
 11
1037.493782625705
 21
1839.18250569214
 31
0.0
  0
LINE
  5
2050
330
1F
100
AcDbEntity
  8
HEWI
  6
IMPORT
 62
     7
100
AcDbLine
 10
1071.282511339694
 20
1789.280085648194
 30
0.0
 11
1071.49869977048
 21
1789.150233353272
 31
0.0
  0
LINE
  5
2051
330
1F
100
AcDbEntity
  8
HEWI
  6
IMPORT
 62
     7
100
AcDbLine
 10
1070.071240053683
 20
1789.130778397218
 30
0.0
 11
1071.282511339694
 21
1788.403315628663
 31
0.0
  0
LINE
  5
2052
330
1F
100
AcDbEntity
  8
HEWI
  6
IMPORT
 62
     7
100
AcDbLine
 10
1076.066303835422
 20
1840.039858902589
 30
0.0
 11
1077.493782625705
 21
1839.18250569214
 31
0.0
  0
LINE
  5
2053
330
1F
100
AcDbEntity
  8
HEWI
  6
IMPORT
 62
     7
100
AcDbLine
 10
1111.282506571322
 20
1789.280085648194
 30
0.0
 11
1111.49869977048
 21
1789.150233353272
 31
0.0
  0
LINE
  5
2054
330
1F
100
AcDbEntity
  8
HEWI
  6
IMPORT
 62
     7
100
AcDbLine
 10
1110.071240053683
 20
1789.130778397218
 30
0.0
 11
1111.282506571322
 21
1788.403315628663
 31
0.0
  0
LINE
  5
2055
330
1F
100
AcDbEntity
  8
HEWI
  6
IMPORT
 62
     7
100
AcDbLine
 10
1116.066308603793
 20
1840.039858902589
 30
0.0
 11
1117.493777857333
 21
1839.18250569214
 31
0.0
  0
LINE
  5
2056
330
1F
100
AcDbEntity
  8
HEWI
  6
IMPORT
 62
     7
100
AcDbLine
 10
1151.282508955508
 20
1789.280085648194
 30
0.0
 11
1151.498698578387
 21
1789.150233353272
 31
0.0
  0
LINE
  5
2057
330
1F
100
AcDbEntity
  8
HEWI
  6
IMPORT
 62
     7
100
AcDbLine
 10
1150.07123886159
 20
1789.130778397218
 30
0.0
 11
1151.282508955508
 21
1788.403315628663
 31
0.0
  0
LINE
  5
2058
330
1F
100
AcDbEntity
  8
HEWI
  6
IMPORT
 62
     7
100
AcDbLine
 10
1156.066308603793
 20
1840.039858902589
 30
0.0
 11
1157.49377845338
 21
1839.18250569214
 31
0.0
  0
LINE
  5
2059
330
1F
100
AcDbEntity
  8
HEWI
  6
IMPORT
 62
     7
100
AcDbLine
 10
1197.493777857333
 20
1789.130778397218
 30
0.0
 11
1198.447578535586
 21
1790.413851822511
 31
0.0
  0
LINE
  5
205A
330
1F
100
AcDbEntity
  8
HEWI
  6
IMPORT
 62
     7
100
AcDbLine
 10
1189.11743937543
 20
1837.899470413819
 30
0.0
 11
1190.071237669498
 21
1839.18250569214
 31
0.0
  0
LINE
  5
205B
330
1F
100
AcDbEntity
  8
HEWI
  6
IMPORT
 62
     7
100
AcDbLine
 10
877.493773088962
 20
1789.130778397218
 30
0.0
 11
878.4475809197724
 21
1790.413851822511
 31
0.0
  0
LINE
  5
205C
330
1F
100
AcDbEntity
  8
HEWI
  6
IMPORT
 62
     7
100
AcDbLine
 10
869.1174417596164
 20
1837.899470413819
 30
0.0
 11
870.0712305169403
 21
1839.18250569214
 31
0.0
  0
LINE
  5
205D
330
1F
100
AcDbEntity
  8
HEWI
  6
IMPORT
 62
     7
100
AcDbLine
 10
917.493773088962
 20
1789.130778397218
 30
0.0
 11
918.4475809197726
 21
1790.413851822511
 31
0.0
  0
LINE
  5
205E
330
1F
100
AcDbEntity
  8
HEWI
  6
IMPORT
 62
     7
100
AcDbLine
 10
909.1174417596162
 20
1837.899470413819
 30
0.0
 11
910.0712305169405
 21
1839.18250569214
 31
0.0
  0
LINE
  5
205F
330
1F
100
AcDbEntity
  8
HEWI
  6
IMPORT
 62
     7
100
AcDbLine
 10
957.4937730889621
 20
1789.130778397218
 30
0.0
 11
958.4475809197725
 21
1790.413851822511
 31
0.0
  0
LINE
  5
2060
330
1F
100
AcDbEntity
  8
HEWI
  6
IMPORT
 62
     7
100
AcDbLine
 10
949.1174417596162
 20
1837.899470413819
 30
0.0
 11
950.0712305169406
 21
1839.18250569214
 31
0.0
  0
LINE
  5
2061
330
1F
100
AcDbEntity
  8
HEWI
  6
IMPORT
 62
     7
100
AcDbLine
 10
997.4937730889619
 20
1789.130778397218
 30
0.0
 11
998.4475809197725
 21
1790.413851822511
 31
0.0
  0
LINE
  5
2062
330
1F
100
AcDbEntity
  8
HEWI
  6
IMPORT
 62
     7
100
AcDbLine
 10
989.1174417596161
 20
1837.899470413819
 30
0.0
 11
990.0712305169404
 21
1839.18250569214
 31
0.0
  0
LINE
  5
2063
330
1F
100
AcDbEntity
  8
HEWI
  6
IMPORT
 62
     7
100
AcDbLine
 10
1037.493782625705
 20
1789.130778397218
 30
0.0
 11
1038.447580919772
 21
1790.413851822511
 31
0.0
  0
LINE
  5
2064
330
1F
100
AcDbEntity
  8
HEWI
  6
IMPORT
 62
     7
100
AcDbLine
 10
1029.117441759616
 20
1837.899470413819
 30
0.0
 11
1030.071240053683
 21
1839.18250569214
 31
0.0
  0
LINE
  5
2065
330
1F
100
AcDbEntity
  8
HEWI
  6
IMPORT
 62
     7
100
AcDbLine
 10
1077.493782625705
 20
1789.130778397218
 30
0.0
 11
1078.447580919772
 21
1790.413851822511
 31
0.0
  0
LINE
  5
2066
330
1F
100
AcDbEntity
  8
HEWI
  6
IMPORT
 62
     7
100
AcDbLine
 10
1069.117441759616
 20
1837.899470413819
 30
0.0
 11
1070.071240053683
 21
1839.18250569214
 31
0.0
  0
LINE
  5
2067
330
1F
100
AcDbEntity
  8
HEWI
  6
IMPORT
 62
     7
100
AcDbLine
 10
1117.493777857333
 20
1789.130778397218
 30
0.0
 11
1118.447576151401
 21
1790.413851822511
 31
0.0
  0
LINE
  5
2068
330
1F
100
AcDbEntity
  8
HEWI
  6
IMPORT
 62
     7
100
AcDbLine
 10
1109.117436991244
 20
1837.899470413819
 30
0.0
 11
1110.071240053683
 21
1839.18250569214
 31
0.0
  0
LINE
  5
2069
330
1F
100
AcDbEntity
  8
HEWI
  6
IMPORT
 62
     7
100
AcDbLine
 10
1157.49377845338
 20
1789.130778397218
 30
0.0
 11
1158.447578535586
 21
1790.413851822511
 31
0.0
  0
LINE
  5
206A
330
1F
100
AcDbEntity
  8
HEWI
  6
IMPORT
 62
     7
100
AcDbLine
 10
1149.117438183337
 20
1837.899470413819
 30
0.0
 11
1150.07123886159
 21
1839.18250569214
 31
0.0
  0
LINE
  5
206B
330
1F
100
AcDbEntity
  8
HEWI
  6
IMPORT
 62
     7
100
AcDbLine
 10
1196.854639635592
 20
1831.253619278565
 30
0.0
 11
1197.327669249087
 21
1830.815844620362
 31
0.0
  0
LINE
  5
206C
330
1F
100
AcDbEntity
  8
HEWI
  6
IMPORT
 62
     7
100
AcDbLine
 10
876.8546396355928
 20
1831.253619278565
 30
0.0
 11
877.3276620965303
 21
1830.815844620362
 31
0.0
  0
LINE
  5
206D
330
1F
100
AcDbEntity
  8
HEWI
  6
IMPORT
 62
     7
100
AcDbLine
 10
916.8546396355928
 20
1831.253619278565
 30
0.0
 11
917.3276620965303
 21
1830.815844620362
 31
0.0
  0
LINE
  5
206E
330
1F
100
AcDbEntity
  8
HEWI
  6
IMPORT
 62
     7
100
AcDbLine
 10
956.8546396355928
 20
1831.253619278565
 30
0.0
 11
957.3276620965302
 21
1830.815844620362
 31
0.0
  0
LINE
  5
206F
330
1F
100
AcDbEntity
  8
HEWI
  6
IMPORT
 62
     7
100
AcDbLine
 10
996.8546396355929
 20
1831.253619278565
 30
0.0
 11
997.3276620965304
 21
1830.815844620362
 31
0.0
  0
LINE
  5
2070
330
1F
100
AcDbEntity
  8
HEWI
  6
IMPORT
 62
     7
100
AcDbLine
 10
1036.854639635593
 20
1831.253619278565
 30
0.0
 11
1037.327671633273
 21
1830.815844620362
 31
0.0
  0
LINE
  5
2071
330
1F
100
AcDbEntity
  8
HEWI
  6
IMPORT
 62
     7
100
AcDbLine
 10
1076.854639635593
 20
1831.253619278565
 30
0.0
 11
1077.327671633273
 21
1830.815844620362
 31
0.0
  0
LINE
  5
2072
330
1F
100
AcDbEntity
  8
HEWI
  6
IMPORT
 62
     7
100
AcDbLine
 10
1116.854639635593
 20
1831.253619278565
 30
0.0
 11
1117.327666864902
 21
1830.815844620362
 31
0.0
  0
LINE
  5
2073
330
1F
100
AcDbEntity
  8
HEWI
  6
IMPORT
 62
     7
100
AcDbLine
 10
1156.8546384435
 20
1831.253619278565
 30
0.0
 11
1157.327668056994
 21
1830.815844620362
 31
0.0
  0
LINE
  5
2074
330
1F
100
AcDbEntity
  8
HEWI
  6
IMPORT
 62
     7
100
AcDbLine
 10
1197.327669249087
 20
1830.815844620362
 30
0.0
 11
1198.232019529849
 21
1829.955630386964
 31
0.0
  0
LINE
  5
2075
330
1F
100
AcDbEntity
  8
HEWI
  6
IMPORT
 62
     7
100
AcDbLine
 10
877.3276620965303
 20
1830.815844620362
 30
0.0
 11
878.2320123772919
 21
1829.955630386964
 31
0.0
  0
LINE
  5
2076
330
1F
100
AcDbEntity
  8
HEWI
  6
IMPORT
 62
     7
100
AcDbLine
 10
917.3276620965303
 20
1830.815844620362
 30
0.0
 11
918.2320123772921
 21
1829.955630386964
 31
0.0
  0
LINE
  5
2077
330
1F
100
AcDbEntity
  8
HEWI
  6
IMPORT
 62
     7
100
AcDbLine
 10
957.3276620965302
 20
1830.815844620362
 30
0.0
 11
958.2320123772921
 21
1829.955630386964
 31
0.0
  0
LINE
  5
2078
330
1F
100
AcDbEntity
  8
HEWI
  6
IMPORT
 62
     7
100
AcDbLine
 10
997.3276620965304
 20
1830.815844620362
 30
0.0
 11
998.232012377292
 21
1829.955630386964
 31
0.0
  0
LINE
  5
2079
330
1F
100
AcDbEntity
  8
HEWI
  6
IMPORT
 62
     7
100
AcDbLine
 10
1037.327671633273
 20
1830.815844620362
 30
0.0
 11
1038.232021914035
 21
1829.955630386964
 31
0.0
  0
LINE
  5
207A
330
1F
100
AcDbEntity
  8
HEWI
  6
IMPORT
 62
     7
100
AcDbLine
 10
1077.327671633273
 20
1830.815844620362
 30
0.0
 11
1078.232021914035
 21
1829.955630386964
 31
0.0
  0
LINE
  5
207B
330
1F
100
AcDbEntity
  8
HEWI
  6
IMPORT
 62
     7
100
AcDbLine
 10
1117.327666864902
 20
1830.815844620362
 30
0.0
 11
1118.232017145663
 21
1829.955630386964
 31
0.0
  0
LINE
  5
207C
330
1F
100
AcDbEntity
  8
HEWI
  6
IMPORT
 62
     7
100
AcDbLine
 10
1157.327668056994
 20
1830.815844620362
 30
0.0
 11
1158.232018337756
 21
1829.955630386964
 31
0.0
  0
LINE
  5
207D
330
1F
100
AcDbEntity
  8
HEWI
  6
IMPORT
 62
     7
100
AcDbLine
 10
1233.182510123759
 20
1788.849177445069
 30
0.0
 11
1234.38250897935
 21
1788.849177445069
 31
0.0
  0
LINE
  5
207E
330
1F
100
AcDbEntity
  8
HEWI
  6
IMPORT
 62
     7
100
AcDbLine
 10
1231.282509551555
 20
1783.389887894288
 30
0.0
 11
1236.282509551555
 21
1783.389887894288
 31
0.0
  0
LINE
  5
207F
330
1F
100
AcDbEntity
  8
HEWI
  6
IMPORT
 62
     7
100
AcDbLine
 10
1233.182510123759
 20
1840.340876663819
 30
0.0
 11
1234.827569709331
 21
1840.261340225831
 31
0.0
  0
LINE
  5
2080
330
1F
100
AcDbEntity
  8
HEWI
  6
IMPORT
 62
     7
100
AcDbLine
 10
1231.498697982341
 20
1840.039858902589
 30
0.0
 11
1231.938699470073
 21
1840.118517960206
 31
0.0
  0
LINE
  5
2081
330
1F
100
AcDbEntity
  8
HEWI
  6
IMPORT
 62
     7
100
AcDbLine
 10
1235.589150176555
 20
1831.752619827882
 30
0.0
 11
1235.718020186931
 21
1831.736292923585
 31
0.0
  0
LINE
  5
2082
330
1F
100
AcDbEntity
  8
HEWI
  6
IMPORT
 62
     7
100
AcDbLine
 10
1231.732729659587
 20
1831.687769974366
 30
0.0
 11
1231.846989379436
 21
1831.736292923585
 31
0.0
  0
LINE
  5
2083
330
1F
100
AcDbEntity
  8
HEWI
  6
IMPORT
 62
     7
100
AcDbLine
 10
1233.140348182231
 20
1831.899828995362
 30
0.0
 11
1234.294298873454
 21
1831.91630848755
 31
0.0
  0
LINE
  5
2084
330
1F
100
AcDbEntity
  8
HEWI
  6
IMPORT
 62
     7
100
AcDbLine
 10
1236.744118915111
 20
1831.300540054933
 30
0.0
 11
1236.854640231639
 21
1831.253619278565
 31
0.0
  0
LINE
  5
2085
330
1F
100
AcDbEntity
  8
HEWI
  6
IMPORT
 62
     7
100
AcDbLine
 10
1231.282509551555
 20
1780.66157826294
 30
0.0
 11
1236.282509551555
 21
1780.66157826294
 31
0.0
  0
LINE
  5
2086
330
1F
100
AcDbEntity
  8
HEWI
  6
IMPORT
 62
     7
100
AcDbLine
 10
1231.282509551555
 20
1770.340876663819
 30
0.0
 11
1236.282509551555
 21
1770.340876663819
 31
0.0
  0
LINE
  5
2087
330
1F
100
AcDbEntity
  8
HEWI
  6
IMPORT
 62
     7
100
AcDbLine
 10
1236.282509551555
 20
1770.340876663819
 30
0.0
 11
1236.282509551555
 21
1789.280085648194
 31
0.0
  0
LINE
  5
2088
330
1F
100
AcDbEntity
  8
HEWI
  6
IMPORT
 62
     7
100
AcDbLine
 10
1231.282509551555
 20
1770.340876663819
 30
0.0
 11
1231.282509551555
 21
1789.280085648194
 31
0.0
  0
LINE
  5
2089
330
1F
100
AcDbEntity
  8
HEWI
  6
IMPORT
 62
     7
100
AcDbLine
 10
1228.782509551555
 20
1830.626864517823
 30
0.0
 11
1228.878928409129
 21
1836.821665848389
 31
0.0
  0
LINE
  5
208A
330
1F
100
AcDbEntity
  8
HEWI
  6
IMPORT
 62
     7
100
AcDbLine
 10
1228.782509551555
 20
1791.927332962647
 30
0.0
 11
1228.782509551555
 21
1828.082079971925
 31
0.0
  0
LINE
  5
208B
330
1F
100
AcDbEntity
  8
HEWI
  6
IMPORT
 62
     7
100
AcDbLine
 10
1238.782509551555
 20
1830.626864517823
 30
0.0
 11
1238.782509551555
 21
1836.38595112671
 31
0.0
  0
LINE
  5
208C
330
1F
100
AcDbEntity
  8
HEWI
  6
IMPORT
 62
     7
100
AcDbLine
 10
1238.782509551555
 20
1791.927332962647
 30
0.0
 11
1238.782509551555
 21
1828.082079971925
 31
0.0
  0
LINE
  5
208D
330
1F
100
AcDbEntity
  8
HEWI
  6
IMPORT
 62
     7
100
AcDbLine
 10
1229.269469962626
 20
1829.75265034546
 30
0.0
 11
1229.332989440471
 21
1829.955630386964
 31
0.0
  0
LINE
  5
208E
330
1F
100
AcDbEntity
  8
HEWI
  6
IMPORT
 62
     7
100
AcDbLine
 10
1238.49461911729
 20
1828.926348770753
 30
0.0
 11
1238.554137931377
 21
1829.116549576417
 31
0.0
  0
LINE
  5
208F
330
1F
100
AcDbEntity
  8
HEWI
  6
IMPORT
 62
     7
100
AcDbLine
 10
1229.332989440471
 20
1829.955630386964
 30
0.0
 11
1230.237339721233
 21
1830.815844620362
 31
0.0
  0
LINE
  5
2090
330
1F
100
AcDbEntity
  8
HEWI
  6
IMPORT
 62
     7
100
AcDbLine
 10
1230.237339721233
 20
1830.815844620362
 30
0.0
 11
1230.71037887147
 21
1831.253619278565
 31
0.0
  0
LINE
  5
2091
330
1F
100
AcDbEntity
  8
HEWI
  6
IMPORT
 62
     7
100
AcDbLine
 10
1229.117439971477
 20
1790.413851822511
 30
0.0
 11
1230.071238265544
 21
1789.130778397218
 31
0.0
  0
LINE
  5
2092
330
1F
100
AcDbEntity
  8
HEWI
  6
IMPORT
 62
     7
100
AcDbLine
 10
1237.49377845338
 20
1839.18250569214
 30
0.0
 11
1238.447579131633
 21
1837.899470413819
 31
0.0
  0
LINE
  5
2093
330
1F
100
AcDbEntity
  8
HEWI
  6
IMPORT
 62
     7
100
AcDbLine
 10
1236.06630919984
 20
1789.150233353272
 30
0.0
 11
1236.282509551555
 21
1789.280085648194
 31
0.0
  0
LINE
  5
2094
330
1F
100
AcDbEntity
  8
HEWI
  6
IMPORT
 62
     7
100
AcDbLine
 10
1236.282509551555
 20
1788.403315628663
 30
0.0
 11
1237.49377845338
 21
1789.130778397218
 31
0.0
  0
LINE
  5
2095
330
1F
100
AcDbEntity
  8
HEWI
  6
IMPORT
 62
     7
100
AcDbLine
 10
1230.071238265544
 20
1839.18250569214
 30
0.0
 11
1231.498697982341
 21
1840.039858902589
 31
0.0
  0
LINE
  5
2096
330
1F
100
AcDbEntity
  8
HEWI
  6
IMPORT
 62
     7
100
AcDbLine
 10
1230.71037887147
 20
1831.253619278565
 30
0.0
 11
1231.732729659587
 21
1831.687769974366
 31
0.0
  0
LINE
  5
2097
330
1F
100
AcDbEntity
  8
HEWI
  6
IMPORT
 62
     7
100
AcDbLine
 10
1238.232020125895
 20
1829.955630386964
 30
0.0
 11
1238.49461911729
 21
1829.116549576417
 31
0.0
  0
LINE
  5
2098
330
1F
100
AcDbEntity
  8
HEWI
  6
IMPORT
 62
     7
100
AcDbLine
 10
1238.554137931377
 20
1828.926348770753
 30
0.0
 11
1238.782509551555
 21
1828.082079971925
 31
0.0
  0
LINE
  5
2099
330
1F
100
AcDbEntity
  8
HEWI
  6
IMPORT
 62
     7
100
AcDbLine
 10
1228.782509551555
 20
1791.927332962647
 30
0.0
 11
1229.117439971477
 21
1790.413851822511
 31
0.0
  0
LINE
  5
209A
330
1F
100
AcDbEntity
  8
HEWI
  6
IMPORT
 62
     7
100
AcDbLine
 10
1238.447579131633
 20
1837.899470413819
 30
0.0
 11
1238.782509551555
 21
1836.38595112671
 31
0.0
  0
LINE
  5
209B
330
1F
100
AcDbEntity
  8
HEWI
  6
IMPORT
 62
     7
100
AcDbLine
 10
1234.38250897935
 20
1788.849177445069
 30
0.0
 11
1236.06630919984
 21
1789.150233353272
 31
0.0
  0
LINE
  5
209C
330
1F
100
AcDbEntity
  8
HEWI
  6
IMPORT
 62
     7
100
AcDbLine
 10
1231.938699470073
 20
1840.118517960206
 30
0.0
 11
1233.182510123759
 21
1840.340876663819
 31
0.0
  0
LINE
  5
209D
330
1F
100
AcDbEntity
  8
HEWI
  6
IMPORT
 62
     7
100
AcDbLine
 10
1231.846989379436
 20
1831.736292923585
 30
0.0
 11
1233.140348182231
 21
1831.899828995362
 31
0.0
  0
LINE
  5
209E
330
1F
100
AcDbEntity
  8
HEWI
  6
IMPORT
 62
     7
100
AcDbLine
 10
1234.294298873454
 20
1831.91630848755
 30
0.0
 11
1235.589150176555
 21
1831.752619827882
 31
0.0
  0
LINE
  5
209F
330
1F
100
AcDbEntity
  8
HEWI
  6
IMPORT
 62
     7
100
AcDbLine
 10
1231.498697982341
 20
1789.150233353272
 30
0.0
 11
1233.182510123759
 21
1788.849177445069
 31
0.0
  0
LINE
  5
20A0
330
1F
100
AcDbEntity
  8
HEWI
  6
IMPORT
 62
     7
100
AcDbLine
 10
1234.827569709331
 20
1840.261340225831
 30
0.0
 11
1236.06630919984
 21
1840.039858902589
 31
0.0
  0
LINE
  5
20A1
330
1F
100
AcDbEntity
  8
HEWI
  6
IMPORT
 62
     7
100
AcDbLine
 10
1238.447579131633
 20
1790.413851822511
 30
0.0
 11
1238.782509551555
 21
1791.927332962647
 31
0.0
  0
LINE
  5
20A2
330
1F
100
AcDbEntity
  8
HEWI
  6
IMPORT
 62
     7
100
AcDbLine
 10
1228.878928409129
 20
1836.821665848389
 30
0.0
 11
1229.117439971477
 21
1837.899470413819
 31
0.0
  0
LINE
  5
20A3
330
1F
100
AcDbEntity
  8
HEWI
  6
IMPORT
 62
     7
100
AcDbLine
 10
1228.782509551555
 20
1828.082079971925
 30
0.0
 11
1229.010869250804
 21
1828.926348770753
 31
0.0
  0
LINE
  5
20A4
330
1F
100
AcDbEntity
  8
HEWI
  6
IMPORT
 62
     7
100
AcDbLine
 10
1229.010869250804
 20
1828.926348770753
 30
0.0
 11
1229.269469962626
 21
1829.75265034546
 31
0.0
  0
LINE
  5
20A5
330
1F
100
AcDbEntity
  8
HEWI
  6
IMPORT
 62
     7
100
AcDbLine
 10
1235.718020186931
 20
1831.736292923585
 30
0.0
 11
1236.744118915111
 21
1831.300540054933
 31
0.0
  0
LINE
  5
20A6
330
1F
100
AcDbEntity
  8
HEWI
  6
IMPORT
 62
     7
100
AcDbLine
 10
1231.282509551555
 20
1789.280085648194
 30
0.0
 11
1231.498697982341
 21
1789.150233353272
 31
0.0
  0
LINE
  5
20A7
330
1F
100
AcDbEntity
  8
HEWI
  6
IMPORT
 62
     7
100
AcDbLine
 10
1230.071238265544
 20
1789.130778397218
 30
0.0
 11
1231.282509551555
 21
1788.403315628663
 31
0.0
  0
LINE
  5
20A8
330
1F
100
AcDbEntity
  8
HEWI
  6
IMPORT
 62
     7
100
AcDbLine
 10
1236.06630919984
 20
1840.039858902589
 30
0.0
 11
1237.49377845338
 21
1839.18250569214
 31
0.0
  0
LINE
  5
20A9
330
1F
100
AcDbEntity
  8
HEWI
  6
IMPORT
 62
     7
100
AcDbLine
 10
1237.49377845338
 20
1789.130778397218
 30
0.0
 11
1238.447579131633
 21
1790.413851822511
 31
0.0
  0
LINE
  5
20AA
330
1F
100
AcDbEntity
  8
HEWI
  6
IMPORT
 62
     7
100
AcDbLine
 10
1229.117439971477
 20
1837.899470413819
 30
0.0
 11
1230.071238265544
 21
1839.18250569214
 31
0.0
  0
LINE
  5
20AB
330
1F
100
AcDbEntity
  8
HEWI
  6
IMPORT
 62
     7
100
AcDbLine
 10
1236.854640231639
 20
1831.253619278565
 30
0.0
 11
1237.327669845134
 21
1830.815844620362
 31
0.0
  0
LINE
  5
20AC
330
1F
100
AcDbEntity
  8
HEWI
  6
IMPORT
 62
     7
100
AcDbLine
 10
1237.327669845134
 20
1830.815844620362
 30
0.0
 11
1238.232020125895
 21
1829.955630386964
 31
0.0
  0
LWPOLYLINE
  5
228B
330
1F
100
AcDbEntity
  8
HEWI
100
AcDbPolyline
 90
        3
 70
     0
 43
0.0
 10
196.1225797195466
 20
129.1721917323045
 10
196.1200539962974
 20
129.1721917323045
 10
196.1200539962974
 20
116.6721917317415
  0
LWPOLYLINE
  5
228C
330
1F
100
AcDbEntity
  8
HEWI
100
AcDbPolyline
 90
        2
 70
     0
 43
0.0
 10
208.1175285180125
 20
104.1721917323045
 10
868.7825113396943
 20
104.1721917323045
  0
LWPOLYLINE
  5
228D
330
1F
100
AcDbEntity
  8
HEWI
100
AcDbPolyline
 90
        2
 70
     0
 43
0.0
 10
868.7825113396943
 20
104.1721917323045
 10
1575.40886319308
 20
104.1721917323045
  0
LWPOLYLINE
  5
228F
330
1F
100
AcDbEntity
  8
HEWI
100
AcDbPolyline
 90
        2
 70
     0
 43
0.0
 10
870.0386651771816
 20
129.1721917323045
 10
208.1225799645108
 20
129.1721917323045
  0
LINE
  5
2290
330
1F
100
AcDbEntity
  8
HEWI
100
AcDbLine
 10
207.1271257967005
 20
151.6699683814106
 30
0.0
 11
196.1271260212506
 21
151.6721910178255
 31
0.0
  0
LINE
  5
2291
330
1F
100
AcDbEntity
  8
HEWI
100
AcDbLine
 10
196.1271260212506
 20
151.6721910178255
 30
0.0
 11
196.1129819713442
 21
81.67219244678449
 31
0.0
  0
LINE
  5
2292
330
1F
100
AcDbEntity
  8
HEWI
100
AcDbLine
 10
196.1129819713442
 20
81.67219244678449
 30
0.0
 11
207.1129817467936
 21
81.66996981037049
 31
0.0
  0
LWPOLYLINE
  5
2293
330
1F
100
AcDbEntity
  8
HEWI
100
AcDbPolyline
 90
        2
 70
     0
 43
0.0
 10
208.1131837842356
 20
82.66976773210059
 10
208.1269237184306
 20
150.6697663439686
  0
ARC
  5
2294
330
1F
100
AcDbEntity
  8
HEWI
100
AcDbCircle
 10
207.1269237388435
 20
150.6699684018244
 30
0.0
 40
1.0
100
AcDbArc
 50
359.9884229375631
 51
89.98842293756306
  0
ARC
  5
2295
330
1F
100
AcDbEntity
  8
HEWI
100
AcDbCircle
 10
207.1131838046495
 20
82.66996978995644
 30
0.0
 40
1.0
100
AcDbArc
 50
269.9884229375631
 51
359.9884229375631
  0
LINE
  5
2296
330
1F
100
AcDbEntity
  8
HEWI
  6
IMPORT
 62
     7
100
AcDbLine
 10
1160.038662196949
 20
129.1721917323045
 30
0.0
 11
1190.038662792996
 21
129.1721917323045
 31
0.0
  0
LINE
  5
2297
330
1F
100
AcDbEntity
  8
HEWI
  6
IMPORT
 62
     7
100
AcDbLine
 10
1120.03866040881
 20
129.1721917323045
 30
0.0
 11
1150.038662792996
 21
129.1721917323045
 31
0.0
  0
LINE
  5
2298
330
1F
100
AcDbEntity
  8
HEWI
  6
IMPORT
 62
     7
100
AcDbLine
 10
1080.038665177181
 20
129.1721917323045
 30
0.0
 11
1110.03866040881
 21
129.1721917323045
 31
0.0
  0
LINE
  5
2299
330
1F
100
AcDbEntity
  8
HEWI
  6
IMPORT
 62
     7
100
AcDbLine
 10
1040.038665177181
 20
129.1721917323045
 30
0.0
 11
1070.038665177181
 21
129.1721917323045
 31
0.0
  0
LINE
  5
229A
330
1F
100
AcDbEntity
  8
HEWI
  6
IMPORT
 62
     7
100
AcDbLine
 10
1000.038665177181
 20
129.1721917323045
 30
0.0
 11
1030.038665177181
 21
129.1721917323045
 31
0.0
  0
LINE
  5
229B
330
1F
100
AcDbEntity
  8
HEWI
  6
IMPORT
 62
     7
100
AcDbLine
 10
960.0386651771817
 20
129.1721917323045
 30
0.0
 11
990.0386651771816
 21
129.1721917323045
 31
0.0
  0
LINE
  5
229C
330
1F
100
AcDbEntity
  8
HEWI
  6
IMPORT
 62
     7
100
AcDbLine
 10
920.0386651771816
 20
129.1721917323045
 30
0.0
 11
950.0386651771817
 21
129.1721917323045
 31
0.0
  0
LINE
  5
229D
330
1F
100
AcDbEntity
  8
HEWI
  6
IMPORT
 62
     7
100
AcDbLine
 10
880.0386651771816
 20
129.1721917323045
 30
0.0
 11
910.0386651771817
 21
129.1721917323045
 31
0.0
  0
LINE
  5
229E
330
1F
100
AcDbEntity
  8
HEWI
  6
IMPORT
 62
     7
100
AcDbLine
 10
1193.038662316158
 20
113.8537026575975
 30
0.0
 11
1197.038663269833
 21
113.8537026575975
 31
0.0
  0
LINE
  5
229F
330
1F
100
AcDbEntity
  8
HEWI
  6
IMPORT
 62
     7
100
AcDbLine
 10
1153.038662316158
 20
113.8537026575975
 30
0.0
 11
1157.03866207774
 21
113.8537026575975
 31
0.0
  0
LINE
  5
22A0
330
1F
100
AcDbEntity
  8
HEWI
  6
IMPORT
 62
     7
100
AcDbLine
 10
1113.038662316158
 20
113.8537026575975
 30
0.0
 11
1117.038663269833
 21
113.8537026575975
 31
0.0
  0
LINE
  5
22A1
330
1F
100
AcDbEntity
  8
HEWI
  6
IMPORT
 62
     7
100
AcDbLine
 10
1073.03866708453
 20
113.8537026575975
 30
0.0
 11
1077.038663269833
 21
113.8537026575975
 31
0.0
  0
LINE
  5
22A2
330
1F
100
AcDbEntity
  8
HEWI
  6
IMPORT
 62
     7
100
AcDbLine
 10
1033.03866708453
 20
113.8537026575975
 30
0.0
 11
1037.038663269833
 21
113.8537026575975
 31
0.0
  0
LINE
  5
22A3
330
1F
100
AcDbEntity
  8
HEWI
  6
IMPORT
 62
     7
100
AcDbLine
 10
993.0386575477873
 20
113.8537026575975
 30
0.0
 11
997.0386537330899
 21
113.8537026575975
 31
0.0
  0
LINE
  5
22A4
330
1F
100
AcDbEntity
  8
HEWI
  6
IMPORT
 62
     7
100
AcDbLine
 10
953.0386575477873
 20
113.8537026575975
 30
0.0
 11
957.0386537330898
 21
113.8537026575975
 31
0.0
  0
LINE
  5
22A5
330
1F
100
AcDbEntity
  8
HEWI
  6
IMPORT
 62
     7
100
AcDbLine
 10
913.0386575477871
 20
113.8537026575975
 30
0.0
 11
917.0386537330898
 21
113.8537026575975
 31
0.0
  0
LINE
  5
22A6
330
1F
100
AcDbEntity
  8
HEWI
  6
IMPORT
 62
     7
100
AcDbLine
 10
873.038657547787
 20
113.8537026575975
 30
0.0
 11
877.0386537330898
 21
113.8537026575975
 31
0.0
  0
LINE
  5
22A7
330
1F
100
AcDbEntity
  8
HEWI
  6
IMPORT
 62
     7
100
AcDbLine
 10
1194.4386633652
 20
138.8537026575975
 30
0.0
 11
1195.638662220791
 21
138.8537026575975
 31
0.0
  0
LINE
  5
22A8
330
1F
100
AcDbEntity
  8
HEWI
  6
IMPORT
 62
     7
100
AcDbLine
 10
1154.438662173107
 20
138.8537026575975
 30
0.0
 11
1155.638662220791
 21
138.8537026575975
 31
0.0
  0
LINE
  5
22A9
330
1F
100
AcDbEntity
  8
HEWI
  6
IMPORT
 62
     7
100
AcDbLine
 10
1114.438660981014
 20
138.8537026575975
 30
0.0
 11
1115.638664604977
 21
138.8537026575975
 31
0.0
  0
LINE
  5
22AA
330
1F
100
AcDbEntity
  8
HEWI
  6
IMPORT
 62
     7
100
AcDbLine
 10
1074.438660981014
 20
138.8537026575975
 30
0.0
 11
1075.638659836605
 21
138.8537026575975
 31
0.0
  0
LINE
  5
22AB
330
1F
100
AcDbEntity
  8
HEWI
  6
IMPORT
 62
     7
100
AcDbLine
 10
1034.438660981014
 20
138.8537026575975
 30
0.0
 11
1035.638659836605
 21
138.8537026575975
 31
0.0
  0
LINE
  5
22AC
330
1F
100
AcDbEntity
  8
HEWI
  6
IMPORT
 62
     7
100
AcDbLine
 10
994.4386705177576
 20
138.8537026575975
 30
0.0
 11
995.6386598366057
 21
138.8537026575975
 31
0.0
  0
LINE
  5
22AD
330
1F
100
AcDbEntity
  8
HEWI
  6
IMPORT
 62
     7
100
AcDbLine
 10
954.4386705177576
 20
138.8537026575975
 30
0.0
 11
955.6386598366055
 21
138.8537026575975
 31
0.0
  0
LINE
  5
22AE
330
1F
100
AcDbEntity
  8
HEWI
  6
IMPORT
 62
     7
100
AcDbLine
 10
914.4386705177575
 20
138.8537026575975
 30
0.0
 11
915.6386598366054
 21
138.8537026575975
 31
0.0
  0
LINE
  5
22AF
330
1F
100
AcDbEntity
  8
HEWI
  6
IMPORT
 62
     7
100
AcDbLine
 10
874.4386705177578
 20
138.8537026575975
 30
0.0
 11
875.6386598366054
 21
138.8537026575975
 31
0.0
  0
LINE
  5
22B0
330
1F
100
AcDbEntity
  8
HEWI
  6
IMPORT
 62
     7
100
AcDbLine
 10
1195.700780262892
 20
87.85367976941348
 30
0.0
 11
1196.900779118483
 21
87.85367976941348
 31
0.0
  0
LINE
  5
22B1
330
1F
100
AcDbEntity
  8
HEWI
  6
IMPORT
 62
     7
100
AcDbLine
 10
1155.700779070799
 20
87.85367976941348
 30
0.0
 11
1156.900779118483
 21
87.85367976941348
 31
0.0
  0
LINE
  5
22B2
330
1F
100
AcDbEntity
  8
HEWI
  6
IMPORT
 62
     7
100
AcDbLine
 10
1115.700777878706
 20
87.85367976941348
 30
0.0
 11
1116.900781502668
 21
87.85367976941348
 31
0.0
  0
LINE
  5
22B3
330
1F
100
AcDbEntity
  8
HEWI
  6
IMPORT
 62
     7
100
AcDbLine
 10
1075.700777878706
 20
87.85367976941348
 30
0.0
 11
1076.900776734297
 21
87.85367976941348
 31
0.0
  0
LINE
  5
22B4
330
1F
100
AcDbEntity
  8
HEWI
  6
IMPORT
 62
     7
100
AcDbLine
 10
1035.700777878706
 20
87.85367976941348
 30
0.0
 11
1036.900776734297
 21
87.85367976941348
 31
0.0
  0
LINE
  5
22B5
330
1F
100
AcDbEntity
  8
HEWI
  6
IMPORT
 62
     7
100
AcDbLine
 10
995.7007874154495
 20
87.85367976941348
 30
0.0
 11
996.900776734297
 21
87.85367976941348
 31
0.0
  0
LINE
  5
22B6
330
1F
100
AcDbEntity
  8
HEWI
  6
IMPORT
 62
     7
100
AcDbLine
 10
955.7007874154495
 20
87.85367976941348
 30
0.0
 11
956.900776734297
 21
87.85367976941348
 31
0.0
  0
LINE
  5
22B7
330
1F
100
AcDbEntity
  8
HEWI
  6
IMPORT
 62
     7
100
AcDbLine
 10
915.7007874154494
 20
87.85367976941348
 30
0.0
 11
916.9007767342973
 21
87.85367976941348
 31
0.0
  0
LINE
  5
22B8
330
1F
100
AcDbEntity
  8
HEWI
  6
IMPORT
 62
     7
100
AcDbLine
 10
875.7007874154492
 20
87.85367976941348
 30
0.0
 11
876.9007767342971
 21
87.85367976941348
 31
0.0
  0
LINE
  5
22B9
330
1F
100
AcDbEntity
  8
HEWI
  6
IMPORT
 62
     7
100
AcDbLine
 10
1198.236290326063
 20
99.9658776453905
 30
0.0
 11
1198.494058957045
 21
99.86665736951136
 31
0.0
  0
LINE
  5
22BA
330
1F
100
AcDbEntity
  8
HEWI
  6
IMPORT
 62
     7
100
AcDbLine
 10
1194.107488503401
 20
99.86665736951136
 30
0.0
 11
1194.558569302504
 21
99.9889947108204
 31
0.0
  0
LINE
  5
22BB
330
1F
100
AcDbEntity
  8
HEWI
  6
IMPORT
 62
     7
100
AcDbLine
 10
1158.23628913397
 20
99.9658776453905
 30
0.0
 11
1158.494058957045
 21
99.86665736951136
 31
0.0
  0
LINE
  5
22BC
330
1F
100
AcDbEntity
  8
HEWI
  6
IMPORT
 62
     7
100
AcDbLine
 10
1154.107489695494
 20
99.86665736951136
 30
0.0
 11
1154.558569302504
 21
99.9889947108204
 31
0.0
  0
LINE
  5
22BD
330
1F
100
AcDbEntity
  8
HEWI
  6
IMPORT
 62
     7
100
AcDbLine
 10
1118.236287941878
 20
99.9658776453905
 30
0.0
 11
1118.49406134123
 21
99.86665736951136
 31
0.0
  0
LINE
  5
22BE
330
1F
100
AcDbEntity
  8
HEWI
  6
IMPORT
 62
     7
100
AcDbLine
 10
1114.107488503401
 20
99.86665736951136
 30
0.0
 11
1114.558566918318
 21
99.9889947108204
 31
0.0
  0
LINE
  5
22BF
330
1F
100
AcDbEntity
  8
HEWI
  6
IMPORT
 62
     7
100
AcDbLine
 10
1078.236292710249
 20
99.9658776453905
 30
0.0
 11
1078.49406134123
 21
99.86665736951136
 31
0.0
  0
LINE
  5
22C0
330
1F
100
AcDbEntity
  8
HEWI
  6
IMPORT
 62
     7
100
AcDbLine
 10
1074.107493271772
 20
99.86665736951136
 30
0.0
 11
1074.558571686689
 21
99.9889947108204
 31
0.0
  0
LINE
  5
22C1
330
1F
100
AcDbEntity
  8
HEWI
  6
IMPORT
 62
     7
100
AcDbLine
 10
1038.236292710249
 20
99.9658776453905
 30
0.0
 11
1038.49406134123
 21
99.86665736951136
 31
0.0
  0
LINE
  5
22C2
330
1F
100
AcDbEntity
  8
HEWI
  6
IMPORT
 62
     7
100
AcDbLine
 10
1034.107493271773
 20
99.86665736951136
 30
0.0
 11
1034.558571686689
 21
99.9889947108204
 31
0.0
  0
LINE
  5
22C3
330
1F
100
AcDbEntity
  8
HEWI
  6
IMPORT
 62
     7
100
AcDbLine
 10
998.2362831735061
 20
99.9658776453905
 30
0.0
 11
998.4940613412309
 21
99.86665736951136
 31
0.0
  0
LINE
  5
22C4
330
1F
100
AcDbEntity
  8
HEWI
  6
IMPORT
 62
     7
100
AcDbLine
 10
994.1074837350297
 20
99.86665736951136
 30
0.0
 11
994.5585716866897
 21
99.9889947108204
 31
0.0
  0
LINE
  5
22C5
330
1F
100
AcDbEntity
  8
HEWI
  6
IMPORT
 62
     7
100
AcDbLine
 10
958.2362831735061
 20
99.9658776453905
 30
0.0
 11
958.4940613412307
 21
99.86665736951136
 31
0.0
  0
LINE
  5
22C6
330
1F
100
AcDbEntity
  8
HEWI
  6
IMPORT
 62
     7
100
AcDbLine
 10
954.1074837350297
 20
99.86665736951136
 30
0.0
 11
954.5585716866897
 21
99.9889947108204
 31
0.0
  0
LINE
  5
22C7
330
1F
100
AcDbEntity
  8
HEWI
  6
IMPORT
 62
     7
100
AcDbLine
 10
918.236283173506
 20
99.9658776453905
 30
0.0
 11
918.4940613412306
 21
99.86665736951136
 31
0.0
  0
LINE
  5
22C8
330
1F
100
AcDbEntity
  8
HEWI
  6
IMPORT
 62
     7
100
AcDbLine
 10
914.1074837350297
 20
99.86665736951136
 30
0.0
 11
914.5585716866897
 21
99.9889947108204
 31
0.0
  0
LINE
  5
22C9
330
1F
100
AcDbEntity
  8
HEWI
  6
IMPORT
 62
     7
100
AcDbLine
 10
878.2362831735058
 20
99.9658776453905
 30
0.0
 11
878.4940613412306
 21
99.86665736951136
 31
0.0
  0
LINE
  5
22CA
330
1F
100
AcDbEntity
  8
HEWI
  6
IMPORT
 62
     7
100
AcDbLine
 10
874.1074837350293
 20
99.86665736951136
 30
0.0
 11
874.5585716866896
 21
99.9889947108204
 31
0.0
  0
LINE
  5
22CB
330
1F
100
AcDbEntity
  8
HEWI
  6
IMPORT
 62
     7
100
AcDbLine
 10
1195.788978447859
 20
100.1360512904095
 30
0.0
 11
1197.002638688032
 21
100.1133156947076
 31
0.0
  0
LINE
  5
22CC
330
1F
100
AcDbEntity
  8
HEWI
  6
IMPORT
 62
     7
100
AcDbLine
 10
1155.788979639952
 20
100.1360512904095
 30
0.0
 11
1157.002638688032
 21
100.1133156947076
 31
0.0
  0
LINE
  5
22CD
330
1F
100
AcDbEntity
  8
HEWI
  6
IMPORT
 62
     7
100
AcDbLine
 10
1115.788978447859
 20
100.1360512904095
 30
0.0
 11
1117.002638688032
 21
100.1133156947076
 31
0.0
  0
LINE
  5
22CE
330
1F
100
AcDbEntity
  8
HEWI
  6
IMPORT
 62
     7
100
AcDbLine
 10
1075.78898321623
 20
100.1360512904095
 30
0.0
 11
1077.002638688032
 21
100.1133156947076
 31
0.0
  0
LINE
  5
22CF
330
1F
100
AcDbEntity
  8
HEWI
  6
IMPORT
 62
     7
100
AcDbLine
 10
1035.78898321623
 20
100.1360512904095
 30
0.0
 11
1037.002638688032
 21
100.1133156947076
 31
0.0
  0
LINE
  5
22D0
330
1F
100
AcDbEntity
  8
HEWI
  6
IMPORT
 62
     7
100
AcDbLine
 10
995.7889832162306
 20
100.1360512904095
 30
0.0
 11
997.0026482247757
 21
100.1133156947076
 31
0.0
  0
LINE
  5
22D1
330
1F
100
AcDbEntity
  8
HEWI
  6
IMPORT
 62
     7
100
AcDbLine
 10
955.7889832162306
 20
100.1360512904095
 30
0.0
 11
957.0026482247756
 21
100.1133156947076
 31
0.0
  0
LINE
  5
22D2
330
1F
100
AcDbEntity
  8
HEWI
  6
IMPORT
 62
     7
100
AcDbLine
 10
915.7889832162309
 20
100.1360512904095
 30
0.0
 11
917.0026482247756
 21
100.1133156947076
 31
0.0
  0
LINE
  5
22D3
330
1F
100
AcDbEntity
  8
HEWI
  6
IMPORT
 62
     7
100
AcDbLine
 10
875.7889832162309
 20
100.1360512904095
 30
0.0
 11
877.0026482247756
 21
100.1133156947076
 31
0.0
  0
LINE
  5
22D4
330
1F
100
AcDbEntity
  8
HEWI
  6
IMPORT
 62
     7
100
AcDbLine
 10
870.0386651771816
 20
116.3537026575975
 30
0.0
 11
870.0386651771816
 21
135.1152230433395
 31
0.0
  0
LINE
  5
22D5
330
1F
100
AcDbEntity
  8
HEWI
  6
IMPORT
 62
     7
100
AcDbLine
 10
871.300782074873
 20
91.59219753064462
 30
0.0
 11
871.300782074873
 21
104.1721917323045
 31
0.0
  0
LINE
  5
22D6
330
1F
100
AcDbEntity
  8
HEWI
  6
IMPORT
 62
     7
100
AcDbLine
 10
880.0386651771816
 20
116.3537026575975
 30
0.0
 11
880.0386651771816
 21
135.1152230433395
 31
0.0
  0
LINE
  5
22D7
330
1F
100
AcDbEntity
  8
HEWI
  6
IMPORT
 62
     7
100
AcDbLine
 10
881.3007820748733
 20
91.59219753064462
 30
0.0
 11
881.3007820748733
 21
104.1721917323045
 31
0.0
  0
LINE
  5
22D8
330
1F
100
AcDbEntity
  8
HEWI
  6
IMPORT
 62
     7
100
AcDbLine
 10
910.0386651771817
 20
116.3537026575975
 30
0.0
 11
910.0386651771817
 21
135.1152230433395
 31
0.0
  0
LINE
  5
22D9
330
1F
100
AcDbEntity
  8
HEWI
  6
IMPORT
 62
     7
100
AcDbLine
 10
911.3007820748732
 20
91.59219753064462
 30
0.0
 11
911.3007820748732
 21
104.1721917323045
 31
0.0
  0
LINE
  5
22DA
330
1F
100
AcDbEntity
  8
HEWI
  6
IMPORT
 62
     7
100
AcDbLine
 10
920.0386651771816
 20
116.3537026575975
 30
0.0
 11
920.0386651771816
 21
135.1152230433395
 31
0.0
  0
LINE
  5
22DB
330
1F
100
AcDbEntity
  8
HEWI
  6
IMPORT
 62
     7
100
AcDbLine
 10
921.3007820748732
 20
91.59219753064462
 30
0.0
 11
921.3007820748732
 21
104.1721917323045
 31
0.0
  0
LINE
  5
22DC
330
1F
100
AcDbEntity
  8
HEWI
  6
IMPORT
 62
     7
100
AcDbLine
 10
950.0386651771817
 20
116.3537026575975
 30
0.0
 11
950.0386651771817
 21
135.1152230433395
 31
0.0
  0
LINE
  5
22DD
330
1F
100
AcDbEntity
  8
HEWI
  6
IMPORT
 62
     7
100
AcDbLine
 10
951.3007820748732
 20
91.59219753064462
 30
0.0
 11
951.3007820748732
 21
104.1721917323045
 31
0.0
  0
LINE
  5
22DE
330
1F
100
AcDbEntity
  8
HEWI
  6
IMPORT
 62
     7
100
AcDbLine
 10
960.0386651771817
 20
116.3537026575975
 30
0.0
 11
960.0386651771817
 21
135.1152230433395
 31
0.0
  0
LINE
  5
22DF
330
1F
100
AcDbEntity
  8
HEWI
  6
IMPORT
 62
     7
100
AcDbLine
 10
961.3007820748732
 20
91.59219753064462
 30
0.0
 11
961.3007820748732
 21
104.1721917323045
 31
0.0
  0
LINE
  5
22E0
330
1F
100
AcDbEntity
  8
HEWI
  6
IMPORT
 62
     7
100
AcDbLine
 10
990.0386651771816
 20
116.3537026575975
 30
0.0
 11
990.0386651771816
 21
135.1152230433395
 31
0.0
  0
LINE
  5
22E1
330
1F
100
AcDbEntity
  8
HEWI
  6
IMPORT
 62
     7
100
AcDbLine
 10
991.3007820748733
 20
91.59219753064462
 30
0.0
 11
991.3007820748733
 21
104.1721917323045
 31
0.0
  0
LINE
  5
22E2
330
1F
100
AcDbEntity
  8
HEWI
  6
IMPORT
 62
     7
100
AcDbLine
 10
1000.038665177181
 20
116.3537026575975
 30
0.0
 11
1000.038665177181
 21
135.1152230433395
 31
0.0
  0
LINE
  5
22E3
330
1F
100
AcDbEntity
  8
HEWI
  6
IMPORT
 62
     7
100
AcDbLine
 10
1001.300782074873
 20
91.59219753064462
 30
0.0
 11
1001.300782074873
 21
104.1721917323045
 31
0.0
  0
LINE
  5
22E4
330
1F
100
AcDbEntity
  8
HEWI
  6
IMPORT
 62
     7
100
AcDbLine
 10
1030.038665177181
 20
116.3537026575975
 30
0.0
 11
1030.038665177181
 21
135.1152230433395
 31
0.0
  0
LINE
  5
22E5
330
1F
100
AcDbEntity
  8
HEWI
  6
IMPORT
 62
     7
100
AcDbLine
 10
1031.300782074873
 20
91.59219753064462
 30
0.0
 11
1031.300782074873
 21
104.1721917323045
 31
0.0
  0
LINE
  5
22E6
330
1F
100
AcDbEntity
  8
HEWI
  6
IMPORT
 62
     7
100
AcDbLine
 10
1040.038665177181
 20
116.3537026575975
 30
0.0
 11
1040.038665177181
 21
135.1152230433395
 31
0.0
  0
LINE
  5
22E7
330
1F
100
AcDbEntity
  8
HEWI
  6
IMPORT
 62
     7
100
AcDbLine
 10
1041.300782074873
 20
91.59219753064462
 30
0.0
 11
1041.300782074873
 21
104.1721917323045
 31
0.0
  0
LINE
  5
22E8
330
1F
100
AcDbEntity
  8
HEWI
  6
IMPORT
 62
     7
100
AcDbLine
 10
1070.038665177181
 20
116.3537026575975
 30
0.0
 11
1070.038665177181
 21
135.1152230433395
 31
0.0
  0
LINE
  5
22E9
330
1F
100
AcDbEntity
  8
HEWI
  6
IMPORT
 62
     7
100
AcDbLine
 10
1071.300782074873
 20
91.59219753064462
 30
0.0
 11
1071.300782074873
 21
104.1721917323045
 31
0.0
  0
LINE
  5
22EA
330
1F
100
AcDbEntity
  8
HEWI
  6
IMPORT
 62
     7
100
AcDbLine
 10
1080.038665177181
 20
116.3537026575975
 30
0.0
 11
1080.038665177181
 21
135.1152230433395
 31
0.0
  0
LINE
  5
22EB
330
1F
100
AcDbEntity
  8
HEWI
  6
IMPORT
 62
     7
100
AcDbLine
 10
1081.300782074873
 20
91.59219753064462
 30
0.0
 11
1081.300782074873
 21
104.1721917323045
 31
0.0
  0
LINE
  5
22EC
330
1F
100
AcDbEntity
  8
HEWI
  6
IMPORT
 62
     7
100
AcDbLine
 10
1110.03866040881
 20
116.3537026575975
 30
0.0
 11
1110.03866040881
 21
135.1152230433395
 31
0.0
  0
LINE
  5
22ED
330
1F
100
AcDbEntity
  8
HEWI
  6
IMPORT
 62
     7
100
AcDbLine
 10
1111.300777306501
 20
91.59219753064462
 30
0.0
 11
1111.300777306501
 21
104.1721917323045
 31
0.0
  0
LINE
  5
22EE
330
1F
100
AcDbEntity
  8
HEWI
  6
IMPORT
 62
     7
100
AcDbLine
 10
1120.03866040881
 20
116.3537026575975
 30
0.0
 11
1120.03866040881
 21
135.1152230433395
 31
0.0
  0
LINE
  5
22EF
330
1F
100
AcDbEntity
  8
HEWI
  6
IMPORT
 62
     7
100
AcDbLine
 10
1121.300777306501
 20
91.59219753064462
 30
0.0
 11
1121.300777306501
 21
104.1721917323045
 31
0.0
  0
LINE
  5
22F0
330
1F
100
AcDbEntity
  8
HEWI
  6
IMPORT
 62
     7
100
AcDbLine
 10
1150.038662792996
 20
116.3537026575975
 30
0.0
 11
1150.038662792996
 21
135.1152230433395
 31
0.0
  0
LINE
  5
22F1
330
1F
100
AcDbEntity
  8
HEWI
  6
IMPORT
 62
     7
100
AcDbLine
 10
1151.300779690687
 20
91.59219753064462
 30
0.0
 11
1151.300779690687
 21
104.1721917323045
 31
0.0
  0
LINE
  5
22F2
330
1F
100
AcDbEntity
  8
HEWI
  6
IMPORT
 62
     7
100
AcDbLine
 10
1160.038662196949
 20
116.3537026575975
 30
0.0
 11
1160.038662196949
 21
135.1152230433395
 31
0.0
  0
LINE
  5
22F3
330
1F
100
AcDbEntity
  8
HEWI
  6
IMPORT
 62
     7
100
AcDbLine
 10
1161.300779094641
 20
91.59219753064462
 30
0.0
 11
1161.300779094641
 21
104.1721917323045
 31
0.0
  0
LINE
  5
22F4
330
1F
100
AcDbEntity
  8
HEWI
  6
IMPORT
 62
     7
100
AcDbLine
 10
1190.038662792996
 20
116.3537026575975
 30
0.0
 11
1190.038662792996
 21
135.1152230433395
 31
0.0
  0
LINE
  5
22F5
330
1F
100
AcDbEntity
  8
HEWI
  6
IMPORT
 62
     7
100
AcDbLine
 10
1191.300779690687
 20
91.59219753064462
 30
0.0
 11
1191.300779690687
 21
104.1721917323045
 31
0.0
  0
LINE
  5
22F6
330
1F
100
AcDbEntity
  8
HEWI
  6
IMPORT
 62
     7
100
AcDbLine
 10
1200.038662792996
 20
116.3537026575975
 30
0.0
 11
1200.038662792996
 21
135.1152230433395
 31
0.0
  0
LINE
  5
22F7
330
1F
100
AcDbEntity
  8
HEWI
  6
IMPORT
 62
     7
100
AcDbLine
 10
1201.300779690687
 20
91.59219753064462
 30
0.0
 11
1201.300779690687
 21
104.1721917323045
 31
0.0
  0
LINE
  5
22F8
330
1F
100
AcDbEntity
  8
HEWI
  6
IMPORT
 62
     7
100
AcDbLine
 10
871.8512619637893
 20
98.5107995203905
 30
0.0
 11
872.7556122445507
 21
99.32397853650355
 31
0.0
  0
LINE
  5
22F9
330
1F
100
AcDbEntity
  8
HEWI
  6
IMPORT
 62
     7
100
AcDbLine
 10
911.8512619637893
 20
98.5107995203905
 30
0.0
 11
912.7556122445508
 21
99.32397853650355
 31
0.0
  0
LINE
  5
22FA
330
1F
100
AcDbEntity
  8
HEWI
  6
IMPORT
 62
     7
100
AcDbLine
 10
951.8512619637892
 20
98.5107995203905
 30
0.0
 11
952.7556122445508
 21
99.32397853650355
 31
0.0
  0
LINE
  5
22FB
330
1F
100
AcDbEntity
  8
HEWI
  6
IMPORT
 62
     7
100
AcDbLine
 10
991.8512619637892
 20
98.5107995203905
 30
0.0
 11
992.755612244551
 21
99.32397853650355
 31
0.0
  0
LINE
  5
22FC
330
1F
100
AcDbEntity
  8
HEWI
  6
IMPORT
 62
     7
100
AcDbLine
 10
1031.851261963789
 20
98.5107995203905
 30
0.0
 11
1032.755612244551
 21
99.32397853650355
 31
0.0
  0
LINE
  5
22FD
330
1F
100
AcDbEntity
  8
HEWI
  6
IMPORT
 62
     7
100
AcDbLine
 10
1071.851261963789
 20
98.5107995203905
 30
0.0
 11
1072.755612244551
 21
99.32397853650355
 31
0.0
  0
LINE
  5
22FE
330
1F
100
AcDbEntity
  8
HEWI
  6
IMPORT
 62
     7
100
AcDbLine
 10
1111.851257195417
 20
98.5107995203905
 30
0.0
 11
1112.755607476179
 21
99.32397853650355
 31
0.0
  0
LINE
  5
22FF
330
1F
100
AcDbEntity
  8
HEWI
  6
IMPORT
 62
     7
100
AcDbLine
 10
1151.851259579603
 20
98.5107995203905
 30
0.0
 11
1152.755608668272
 21
99.32397853650355
 31
0.0
  0
LINE
  5
2300
330
1F
100
AcDbEntity
  8
HEWI
  6
IMPORT
 62
     7
100
AcDbLine
 10
1191.851259579603
 20
98.5107995203905
 30
0.0
 11
1192.755609860365
 21
99.32397853650355
 31
0.0
  0
LINE
  5
2301
330
1F
100
AcDbEntity
  8
HEWI
  6
IMPORT
 62
     7
100
AcDbLine
 10
870.267012955502
 20
115.3970147303516
 30
0.0
 11
870.9173425453457
 21
114.5859337977344
 31
0.0
  0
LINE
  5
2302
330
1F
100
AcDbEntity
  8
HEWI
  6
IMPORT
 62
     7
100
AcDbLine
 10
910.2670129555017
 20
115.3970147303516
 30
0.0
 11
910.9173425453457
 21
114.5859337977344
 31
0.0
  0
LINE
  5
2303
330
1F
100
AcDbEntity
  8
HEWI
  6
IMPORT
 62
     7
100
AcDbLine
 10
950.2670129555017
 20
115.3970147303516
 30
0.0
 11
950.9173425453457
 21
114.5859337977344
 31
0.0
  0
LINE
  5
2304
330
1F
100
AcDbEntity
  8
HEWI
  6
IMPORT
 62
     7
100
AcDbLine
 10
990.2670129555021
 20
115.3970147303516
 30
0.0
 11
990.9173425453458
 21
114.5859337977344
 31
0.0
  0
LINE
  5
2305
330
1F
100
AcDbEntity
  8
HEWI
  6
IMPORT
 62
     7
100
AcDbLine
 10
1030.267022492245
 20
115.3970147303516
 30
0.0
 11
1030.917342545345
 21
114.5859337977344
 31
0.0
  0
LINE
  5
2306
330
1F
100
AcDbEntity
  8
HEWI
  6
IMPORT
 62
     7
100
AcDbLine
 10
1070.267022492245
 20
115.3970147303516
 30
0.0
 11
1070.917342545345
 21
114.5859337977344
 31
0.0
  0
LINE
  5
2307
330
1F
100
AcDbEntity
  8
HEWI
  6
IMPORT
 62
     7
100
AcDbLine
 10
1110.267022492245
 20
115.3970147303516
 30
0.0
 11
1110.917342545345
 21
114.5859337977344
 31
0.0
  0
LINE
  5
2308
330
1F
100
AcDbEntity
  8
HEWI
  6
IMPORT
 62
     7
100
AcDbLine
 10
1150.267022492245
 20
115.3970147303516
 30
0.0
 11
1150.917342545345
 21
114.5859337977344
 31
0.0
  0
LINE
  5
2309
330
1F
100
AcDbEntity
  8
HEWI
  6
IMPORT
 62
     7
100
AcDbLine
 10
1190.267022492245
 20
115.3970147303516
 30
0.0
 11
1190.917342545345
 21
114.5859337977344
 31
0.0
  0
LINE
  5
230A
330
1F
100
AcDbEntity
  8
HEWI
  6
IMPORT
 62
     7
100
AcDbLine
 10
878.7499269264491
 20
137.7587319544725
 30
0.0
 11
879.7037347572597
 21
136.5458871058395
 31
0.0
  0
LINE
  5
230B
330
1F
100
AcDbEntity
  8
HEWI
  6
IMPORT
 62
     7
100
AcDbLine
 10
871.6357124947949
 20
90.16153346814462
 30
0.0
 11
872.5895012521194
 21
88.94868861951136
 31
0.0
  0
LINE
  5
230C
330
1F
100
AcDbEntity
  8
HEWI
  6
IMPORT
 62
     7
100
AcDbLine
 10
918.7499269264494
 20
137.7587319544725
 30
0.0
 11
919.7037347572596
 21
136.5458871058395
 31
0.0
  0
LINE
  5
230D
330
1F
100
AcDbEntity
  8
HEWI
  6
IMPORT
 62
     7
100
AcDbLine
 10
911.6357124947949
 20
90.16153346814462
 30
0.0
 11
912.5895012521194
 21
88.94868861951136
 31
0.0
  0
LINE
  5
230E
330
1F
100
AcDbEntity
  8
HEWI
  6
IMPORT
 62
     7
100
AcDbLine
 10
958.7499269264494
 20
137.7587319544725
 30
0.0
 11
959.7037347572598
 21
136.5458871058395
 31
0.0
  0
LINE
  5
230F
330
1F
100
AcDbEntity
  8
HEWI
  6
IMPORT
 62
     7
100
AcDbLine
 10
951.6357124947953
 20
90.16153346814462
 30
0.0
 11
952.5895012521193
 21
88.94868861951136
 31
0.0
  0
LINE
  5
2310
330
1F
100
AcDbEntity
  8
HEWI
  6
IMPORT
 62
     7
100
AcDbLine
 10
998.7499269264494
 20
137.7587319544725
 30
0.0
 11
999.7037347572591
 21
136.5458871058395
 31
0.0
  0
LINE
  5
2311
330
1F
100
AcDbEntity
  8
HEWI
  6
IMPORT
 62
     7
100
AcDbLine
 10
991.6357124947953
 20
90.16153346814462
 30
0.0
 11
992.5895012521193
 21
88.94868861951136
 31
0.0
  0
LINE
  5
2312
330
1F
100
AcDbEntity
  8
HEWI
  6
IMPORT
 62
     7
100
AcDbLine
 10
1038.749936463192
 20
137.7587319544725
 30
0.0
 11
1039.703734757259
 21
136.5458871058395
 31
0.0
  0
LINE
  5
2313
330
1F
100
AcDbEntity
  8
HEWI
  6
IMPORT
 62
     7
100
AcDbLine
 10
1031.635712494795
 20
90.16153346814462
 30
0.0
 11
1032.589510788862
 21
88.94868861951136
 31
0.0
  0
LINE
  5
2314
330
1F
100
AcDbEntity
  8
HEWI
  6
IMPORT
 62
     7
100
AcDbLine
 10
1078.749936463192
 20
137.7587319544725
 30
0.0
 11
1079.703734757259
 21
136.5458871058395
 31
0.0
  0
LINE
  5
2315
330
1F
100
AcDbEntity
  8
HEWI
  6
IMPORT
 62
     7
100
AcDbLine
 10
1071.635712494795
 20
90.16153346814462
 30
0.0
 11
1072.589510788862
 21
88.94868861951136
 31
0.0
  0
LINE
  5
2316
330
1F
100
AcDbEntity
  8
HEWI
  6
IMPORT
 62
     7
100
AcDbLine
 10
1118.749931694821
 20
137.7587319544725
 30
0.0
 11
1119.703729988888
 21
136.5458871058395
 31
0.0
  0
LINE
  5
2317
330
1F
100
AcDbEntity
  8
HEWI
  6
IMPORT
 62
     7
100
AcDbLine
 10
1111.635707726423
 20
90.16153346814462
 30
0.0
 11
1112.589510788862
 21
88.94868861951136
 31
0.0
  0
LINE
  5
2318
330
1F
100
AcDbEntity
  8
HEWI
  6
IMPORT
 62
     7
100
AcDbLine
 10
1158.749932290867
 20
137.7587319544725
 30
0.0
 11
1159.703732373074
 21
136.5458871058395
 31
0.0
  0
LINE
  5
2319
330
1F
100
AcDbEntity
  8
HEWI
  6
IMPORT
 62
     7
100
AcDbLine
 10
1151.635708918516
 20
90.16153346814462
 30
0.0
 11
1152.589509596769
 21
88.94868861951136
 31
0.0
  0
LINE
  5
231A
330
1F
100
AcDbEntity
  8
HEWI
  6
IMPORT
 62
     7
100
AcDbLine
 10
1198.749931694821
 20
137.7587319544725
 30
0.0
 11
1199.703732373074
 21
136.5458871058395
 31
0.0
  0
LINE
  5
231B
330
1F
100
AcDbEntity
  8
HEWI
  6
IMPORT
 62
     7
100
AcDbLine
 10
1191.635710110609
 20
90.16153346814462
 30
0.0
 11
1192.589508404677
 21
88.94868861951136
 31
0.0
  0
LINE
  5
231C
330
1F
100
AcDbEntity
  8
HEWI
  6
IMPORT
 62
     7
100
AcDbLine
 10
878.584584107344
 20
88.13825618542955
 30
0.0
 11
880.0120438241409
 21
88.94868861951136
 31
0.0
  0
LINE
  5
231D
330
1F
100
AcDbEntity
  8
HEWI
  6
IMPORT
 62
     7
100
AcDbLine
 10
871.3273843544277
 20
137.7587319544725
 30
0.0
 11
872.7548440712245
 21
138.5691262415814
 31
0.0
  0
LINE
  5
231E
330
1F
100
AcDbEntity
  8
HEWI
  6
IMPORT
 62
     7
100
AcDbLine
 10
918.5845841073442
 20
88.13825618542955
 30
0.0
 11
920.0120438241409
 21
88.94868861951136
 31
0.0
  0
LINE
  5
231F
330
1F
100
AcDbEntity
  8
HEWI
  6
IMPORT
 62
     7
100
AcDbLine
 10
911.3273843544277
 20
137.7587319544725
 30
0.0
 11
912.7548440712244
 21
138.5691262415814
 31
0.0
  0
LINE
  5
2320
330
1F
100
AcDbEntity
  8
HEWI
  6
IMPORT
 62
     7
100
AcDbLine
 10
958.5845841073437
 20
88.13825618542955
 30
0.0
 11
960.0120438241408
 21
88.94868861951136
 31
0.0
  0
LINE
  5
2321
330
1F
100
AcDbEntity
  8
HEWI
  6
IMPORT
 62
     7
100
AcDbLine
 10
951.3273843544277
 20
137.7587319544725
 30
0.0
 11
952.7548440712246
 21
138.5691262415814
 31
0.0
  0
LINE
  5
2322
330
1F
100
AcDbEntity
  8
HEWI
  6
IMPORT
 62
     7
100
AcDbLine
 10
998.5845841073439
 20
88.13825618542955
 30
0.0
 11
1000.012043824141
 21
88.94868861951136
 31
0.0
  0
LINE
  5
2323
330
1F
100
AcDbEntity
  8
HEWI
  6
IMPORT
 62
     7
100
AcDbLine
 10
991.3273843544278
 20
137.7587319544725
 30
0.0
 11
992.7548440712246
 21
138.5691262415814
 31
0.0
  0
LINE
  5
2324
330
1F
100
AcDbEntity
  8
HEWI
  6
IMPORT
 62
     7
100
AcDbLine
 10
1038.584574570601
 20
88.13825618542955
 30
0.0
 11
1040.012053360884
 21
88.94868861951136
 31
0.0
  0
LINE
  5
2325
330
1F
100
AcDbEntity
  8
HEWI
  6
IMPORT
 62
     7
100
AcDbLine
 10
1031.327393891171
 20
137.7587319544725
 30
0.0
 11
1032.754853607968
 21
138.5691262415814
 31
0.0
  0
LINE
  5
2326
330
1F
100
AcDbEntity
  8
HEWI
  6
IMPORT
 62
     7
100
AcDbLine
 10
1078.584574570601
 20
88.13825618542955
 30
0.0
 11
1080.012053360884
 21
88.94868861951136
 31
0.0
  0
LINE
  5
2327
330
1F
100
AcDbEntity
  8
HEWI
  6
IMPORT
 62
     7
100
AcDbLine
 10
1071.327393891171
 20
137.7587319544725
 30
0.0
 11
1072.754853607967
 21
138.5691262415814
 31
0.0
  0
LINE
  5
2328
330
1F
100
AcDbEntity
  8
HEWI
  6
IMPORT
 62
     7
100
AcDbLine
 10
1118.584579338972
 20
88.13825618542955
 30
0.0
 11
1120.012048592512
 21
88.94868861951136
 31
0.0
  0
LINE
  5
2329
330
1F
100
AcDbEntity
  8
HEWI
  6
IMPORT
 62
     7
100
AcDbLine
 10
1111.327393891171
 20
137.7587319544725
 30
0.0
 11
1112.754853607968
 21
138.5691262415814
 31
0.0
  0
LINE
  5
232A
330
1F
100
AcDbEntity
  8
HEWI
  6
IMPORT
 62
     7
100
AcDbLine
 10
1158.584579338972
 20
88.13825618542955
 30
0.0
 11
1160.012049188559
 21
88.94868861951136
 31
0.0
  0
LINE
  5
232B
330
1F
100
AcDbEntity
  8
HEWI
  6
IMPORT
 62
     7
100
AcDbLine
 10
1151.327392699078
 20
137.7587319544725
 30
0.0
 11
1152.754852415875
 21
138.5691262415814
 31
0.0
  0
LINE
  5
232C
330
1F
100
AcDbEntity
  8
HEWI
  6
IMPORT
 62
     7
100
AcDbLine
 10
1198.584579338972
 20
88.13825618542955
 30
0.0
 11
1200.012048592512
 21
88.94868861951136
 31
0.0
  0
LINE
  5
232D
330
1F
100
AcDbEntity
  8
HEWI
  6
IMPORT
 62
     7
100
AcDbLine
 10
1191.327391506985
 20
137.7587319544725
 30
0.0
 11
1192.754851223782
 21
138.5691262415814
 31
0.0
  0
LINE
  5
232E
330
1F
100
AcDbEntity
  8
HEWI
  6
IMPORT
 62
     7
100
AcDbLine
 10
878.1867059486661
 20
114.0440179041795
 30
0.0
 11
879.1599878090176
 21
114.5859337977344
 31
0.0
  0
LINE
  5
232F
330
1F
100
AcDbEntity
  8
HEWI
  6
IMPORT
 62
     7
100
AcDbLine
 10
918.1867059486661
 20
114.0440179041795
 30
0.0
 11
919.1599878090178
 21
114.5859337977344
 31
0.0
  0
LINE
  5
2330
330
1F
100
AcDbEntity
  8
HEWI
  6
IMPORT
 62
     7
100
AcDbLine
 10
958.1867059486659
 20
114.0440179041795
 30
0.0
 11
959.1599878090173
 21
114.5859337977344
 31
0.0
  0
LINE
  5
2331
330
1F
100
AcDbEntity
  8
HEWI
  6
IMPORT
 62
     7
100
AcDbLine
 10
998.186705948666
 20
114.0440179041795
 30
0.0
 11
999.1599878090179
 21
114.5859337977344
 31
0.0
  0
LINE
  5
2332
330
1F
100
AcDbEntity
  8
HEWI
  6
IMPORT
 62
     7
100
AcDbLine
 10
1038.186715485409
 20
114.0440179041795
 30
0.0
 11
1039.159978272274
 21
114.5859337977344
 31
0.0
  0
LINE
  5
2333
330
1F
100
AcDbEntity
  8
HEWI
  6
IMPORT
 62
     7
100
AcDbLine
 10
1078.186715485409
 20
114.0440179041795
 30
0.0
 11
1079.159978272274
 21
114.5859337977344
 31
0.0
  0
LINE
  5
2334
330
1F
100
AcDbEntity
  8
HEWI
  6
IMPORT
 62
     7
100
AcDbLine
 10
1118.186710717037
 20
114.0440179041795
 30
0.0
 11
1119.159983040646
 21
114.5859337977344
 31
0.0
  0
LINE
  5
2335
330
1F
100
AcDbEntity
  8
HEWI
  6
IMPORT
 62
     7
100
AcDbLine
 10
1158.18671190913
 20
114.0440179041795
 30
0.0
 11
1159.159982444599
 21
114.5859337977344
 31
0.0
  0
LINE
  5
2336
330
1F
100
AcDbEntity
  8
HEWI
  6
IMPORT
 62
     7
100
AcDbLine
 10
1198.186713101223
 20
114.0440179041795
 30
0.0
 11
1199.159983040646
 21
114.5859337977344
 31
0.0
  0
LINE
  5
2337
330
1F
100
AcDbEntity
  8
HEWI
  6
IMPORT
 62
     7
100
AcDbLine
 10
880.7502831124709
 20
98.5107995203905
 30
0.0
 11
880.9658516549514
 21
98.02057277478548
 31
0.0
  0
LINE
  5
2338
330
1F
100
AcDbEntity
  8
HEWI
  6
IMPORT
 62
     7
100
AcDbLine
 10
920.7502831124706
 20
98.5107995203905
 30
0.0
 11
920.9658516549511
 21
98.02057277478548
 31
0.0
  0
LINE
  5
2339
330
1F
100
AcDbEntity
  8
HEWI
  6
IMPORT
 62
     7
100
AcDbLine
 10
960.7502831124707
 20
98.5107995203905
 30
0.0
 11
960.9658516549512
 21
98.02057277478548
 31
0.0
  0
LINE
  5
233A
330
1F
100
AcDbEntity
  8
HEWI
  6
IMPORT
 62
     7
100
AcDbLine
 10
1000.750283112471
 20
98.5107995203905
 30
0.0
 11
1000.965851654951
 21
98.02057277478548
 31
0.0
  0
LINE
  5
233B
330
1F
100
AcDbEntity
  8
HEWI
  6
IMPORT
 62
     7
100
AcDbLine
 10
1040.750292649214
 20
98.5107995203905
 30
0.0
 11
1040.965851654951
 21
98.02057277478548
 31
0.0
  0
LINE
  5
233C
330
1F
100
AcDbEntity
  8
HEWI
  6
IMPORT
 62
     7
100
AcDbLine
 10
1080.750292649214
 20
98.5107995203905
 30
0.0
 11
1080.965851654951
 21
98.02057277478548
 31
0.0
  0
LINE
  5
233D
330
1F
100
AcDbEntity
  8
HEWI
  6
IMPORT
 62
     7
100
AcDbLine
 10
1120.750287880842
 20
98.5107995203905
 30
0.0
 11
1120.96584688658
 21
98.02057277478548
 31
0.0
  0
LINE
  5
233E
330
1F
100
AcDbEntity
  8
HEWI
  6
IMPORT
 62
     7
100
AcDbLine
 10
1160.750289072935
 20
98.5107995203905
 30
0.0
 11
1160.965849270765
 21
98.02057277478548
 31
0.0
  0
LINE
  5
233F
330
1F
100
AcDbEntity
  8
HEWI
  6
IMPORT
 62
     7
100
AcDbLine
 10
1200.750290265028
 20
98.5107995203905
 30
0.0
 11
1200.965849270765
 21
98.02057277478548
 31
0.0
  0
LINE
  5
2340
330
1F
100
AcDbEntity
  8
HEWI
  6
IMPORT
 62
     7
100
AcDbLine
 10
872.7556122445507
 20
99.32397853650355
 30
0.0
 11
874.1074837350293
 21
99.86665736951136
 31
0.0
  0
LINE
  5
2341
330
1F
100
AcDbEntity
  8
HEWI
  6
IMPORT
 62
     7
100
AcDbLine
 10
912.7556122445508
 20
99.32397853650355
 30
0.0
 11
914.1074837350297
 21
99.86665736951136
 31
0.0
  0
LINE
  5
2342
330
1F
100
AcDbEntity
  8
HEWI
  6
IMPORT
 62
     7
100
AcDbLine
 10
952.7556122445508
 20
99.32397853650355
 30
0.0
 11
954.1074837350297
 21
99.86665736951136
 31
0.0
  0
LINE
  5
2343
330
1F
100
AcDbEntity
  8
HEWI
  6
IMPORT
 62
     7
100
AcDbLine
 10
992.755612244551
 20
99.32397853650355
 30
0.0
 11
994.1074837350297
 21
99.86665736951136
 31
0.0
  0
LINE
  5
2344
330
1F
100
AcDbEntity
  8
HEWI
  6
IMPORT
 62
     7
100
AcDbLine
 10
1032.755612244551
 20
99.32397853650355
 30
0.0
 11
1034.107493271773
 21
99.86665736951136
 31
0.0
  0
LINE
  5
2345
330
1F
100
AcDbEntity
  8
HEWI
  6
IMPORT
 62
     7
100
AcDbLine
 10
1072.755612244551
 20
99.32397853650355
 30
0.0
 11
1074.107493271772
 21
99.86665736951136
 31
0.0
  0
LINE
  5
2346
330
1F
100
AcDbEntity
  8
HEWI
  6
IMPORT
 62
     7
100
AcDbLine
 10
1112.755607476179
 20
99.32397853650355
 30
0.0
 11
1114.107488503401
 21
99.86665736951136
 31
0.0
  0
LINE
  5
2347
330
1F
100
AcDbEntity
  8
HEWI
  6
IMPORT
 62
     7
100
AcDbLine
 10
1152.755608668272
 20
99.32397853650355
 30
0.0
 11
1154.107489695494
 21
99.86665736951136
 31
0.0
  0
LINE
  5
2348
330
1F
100
AcDbEntity
  8
HEWI
  6
IMPORT
 62
     7
100
AcDbLine
 10
1192.755609860365
 20
99.32397853650355
 30
0.0
 11
1194.107488503401
 21
99.86665736951136
 31
0.0
  0
LINE
  5
2349
330
1F
100
AcDbEntity
  8
HEWI
  6
IMPORT
 62
     7
100
AcDbLine
 10
880.9658516549514
 20
98.02057277478548
 30
0.0
 11
881.3007820748733
 21
97.0089150599415
 31
0.0
  0
LINE
  5
234A
330
1F
100
AcDbEntity
  8
HEWI
  6
IMPORT
 62
     7
100
AcDbLine
 10
920.9658516549511
 20
98.02057277478548
 30
0.0
 11
921.3007820748732
 21
97.0089150599415
 31
0.0
  0
LINE
  5
234B
330
1F
100
AcDbEntity
  8
HEWI
  6
IMPORT
 62
     7
100
AcDbLine
 10
960.9658516549512
 20
98.02057277478548
 30
0.0
 11
961.3007820748732
 21
97.0089150599415
 31
0.0
  0
LINE
  5
234C
330
1F
100
AcDbEntity
  8
HEWI
  6
IMPORT
 62
     7
100
AcDbLine
 10
1000.965851654951
 20
98.02057277478548
 30
0.0
 11
1001.300782074873
 21
97.0089150599415
 31
0.0
  0
LINE
  5
234D
330
1F
100
AcDbEntity
  8
HEWI
  6
IMPORT
 62
     7
100
AcDbLine
 10
1040.965851654951
 20
98.02057277478548
 30
0.0
 11
1041.300782074873
 21
97.0089150599415
 31
0.0
  0
LINE
  5
234E
330
1F
100
AcDbEntity
  8
HEWI
  6
IMPORT
 62
     7
100
AcDbLine
 10
1080.965851654951
 20
98.02057277478548
 30
0.0
 11
1081.300782074873
 21
97.0089150599415
 31
0.0
  0
LINE
  5
234F
330
1F
100
AcDbEntity
  8
HEWI
  6
IMPORT
 62
     7
100
AcDbLine
 10
1120.96584688658
 20
98.02057277478548
 30
0.0
 11
1121.300777306501
 21
97.0089150599415
 31
0.0
  0
LINE
  5
2350
330
1F
100
AcDbEntity
  8
HEWI
  6
IMPORT
 62
     7
100
AcDbLine
 10
1160.965849270765
 20
98.02057277478548
 30
0.0
 11
1161.300779094641
 21
97.0089150599415
 31
0.0
  0
LINE
  5
2351
330
1F
100
AcDbEntity
  8
HEWI
  6
IMPORT
 62
     7
100
AcDbLine
 10
1200.965849270765
 20
98.02057277478548
 30
0.0
 11
1201.300779690687
 21
97.0089150599415
 31
0.0
  0
LINE
  5
2352
330
1F
100
AcDbEntity
  8
HEWI
  6
IMPORT
 62
     7
100
AcDbLine
 10
879.7037347572597
 20
136.5458871058395
 30
0.0
 11
880.0386651771816
 21
135.1152230433395
 31
0.0
  0
LINE
  5
2353
330
1F
100
AcDbEntity
  8
HEWI
  6
IMPORT
 62
     7
100
AcDbLine
 10
871.300782074873
 20
91.59219753064462
 30
0.0
 11
871.6357124947949
 21
90.16153346814462
 31
0.0
  0
LINE
  5
2354
330
1F
100
AcDbEntity
  8
HEWI
  6
IMPORT
 62
     7
100
AcDbLine
 10
870.0386651771816
 20
116.3537026575975
 30
0.0
 11
870.267012955502
 21
115.3970147303516
 31
0.0
  0
LINE
  5
2355
330
1F
100
AcDbEntity
  8
HEWI
  6
IMPORT
 62
     7
100
AcDbLine
 10
919.7037347572596
 20
136.5458871058395
 30
0.0
 11
920.0386651771816
 21
135.1152230433395
 31
0.0
  0
LINE
  5
2356
330
1F
100
AcDbEntity
  8
HEWI
  6
IMPORT
 62
     7
100
AcDbLine
 10
911.3007820748732
 20
91.59219753064462
 30
0.0
 11
911.6357124947949
 21
90.16153346814462
 31
0.0
  0
LINE
  5
2357
330
1F
100
AcDbEntity
  8
HEWI
  6
IMPORT
 62
     7
100
AcDbLine
 10
910.0386651771817
 20
116.3537026575975
 30
0.0
 11
910.2670129555017
 21
115.3970147303516
 31
0.0
  0
LINE
  5
2358
330
1F
100
AcDbEntity
  8
HEWI
  6
IMPORT
 62
     7
100
AcDbLine
 10
959.7037347572598
 20
136.5458871058395
 30
0.0
 11
960.0386651771817
 21
135.1152230433395
 31
0.0
  0
LINE
  5
2359
330
1F
100
AcDbEntity
  8
HEWI
  6
IMPORT
 62
     7
100
AcDbLine
 10
951.3007820748732
 20
91.59219753064462
 30
0.0
 11
951.6357124947953
 21
90.16153346814462
 31
0.0
  0
LINE
  5
235A
330
1F
100
AcDbEntity
  8
HEWI
  6
IMPORT
 62
     7
100
AcDbLine
 10
950.0386651771817
 20
116.3537026575975
 30
0.0
 11
950.2670129555017
 21
115.3970147303516
 31
0.0
  0
LINE
  5
235B
330
1F
100
AcDbEntity
  8
HEWI
  6
IMPORT
 62
     7
100
AcDbLine
 10
999.7037347572591
 20
136.5458871058395
 30
0.0
 11
1000.038665177181
 21
135.1152230433395
 31
0.0
  0
LINE
  5
235C
330
1F
100
AcDbEntity
  8
HEWI
  6
IMPORT
 62
     7
100
AcDbLine
 10
991.3007820748733
 20
91.59219753064462
 30
0.0
 11
991.6357124947953
 21
90.16153346814462
 31
0.0
  0
LINE
  5
235D
330
1F
100
AcDbEntity
  8
HEWI
  6
IMPORT
 62
     7
100
AcDbLine
 10
990.0386651771816
 20
116.3537026575975
 30
0.0
 11
990.2670129555021
 21
115.3970147303516
 31
0.0
  0
LINE
  5
235E
330
1F
100
AcDbEntity
  8
HEWI
  6
IMPORT
 62
     7
100
AcDbLine
 10
1039.703734757259
 20
136.5458871058395
 30
0.0
 11
1040.038665177181
 21
135.1152230433395
 31
0.0
  0
LINE
  5
235F
330
1F
100
AcDbEntity
  8
HEWI
  6
IMPORT
 62
     7
100
AcDbLine
 10
1031.300782074873
 20
91.59219753064462
 30
0.0
 11
1031.635712494795
 21
90.16153346814462
 31
0.0
  0
LINE
  5
2360
330
1F
100
AcDbEntity
  8
HEWI
  6
IMPORT
 62
     7
100
AcDbLine
 10
1030.038665177181
 20
116.3537026575975
 30
0.0
 11
1030.267022492245
 21
115.3970147303516
 31
0.0
  0
LINE
  5
2361
330
1F
100
AcDbEntity
  8
HEWI
  6
IMPORT
 62
     7
100
AcDbLine
 10
1079.703734757259
 20
136.5458871058395
 30
0.0
 11
1080.038665177181
 21
135.1152230433395
 31
0.0
  0
LINE
  5
2362
330
1F
100
AcDbEntity
  8
HEWI
  6
IMPORT
 62
     7
100
AcDbLine
 10
1071.300782074873
 20
91.59219753064462
 30
0.0
 11
1071.635712494795
 21
90.16153346814462
 31
0.0
  0
LINE
  5
2363
330
1F
100
AcDbEntity
  8
HEWI
  6
IMPORT
 62
     7
100
AcDbLine
 10
1070.038665177181
 20
116.3537026575975
 30
0.0
 11
1070.267022492245
 21
115.3970147303516
 31
0.0
  0
LINE
  5
2364
330
1F
100
AcDbEntity
  8
HEWI
  6
IMPORT
 62
     7
100
AcDbLine
 10
1119.703729988888
 20
136.5458871058395
 30
0.0
 11
1120.03866040881
 21
135.1152230433395
 31
0.0
  0
LINE
  5
2365
330
1F
100
AcDbEntity
  8
HEWI
  6
IMPORT
 62
     7
100
AcDbLine
 10
1111.300777306501
 20
91.59219753064462
 30
0.0
 11
1111.635707726423
 21
90.16153346814462
 31
0.0
  0
LINE
  5
2366
330
1F
100
AcDbEntity
  8
HEWI
  6
IMPORT
 62
     7
100
AcDbLine
 10
1110.03866040881
 20
116.3537026575975
 30
0.0
 11
1110.267022492245
 21
115.3970147303516
 31
0.0
  0
LINE
  5
2367
330
1F
100
AcDbEntity
  8
HEWI
  6
IMPORT
 62
     7
100
AcDbLine
 10
1159.703732373074
 20
136.5458871058395
 30
0.0
 11
1160.038662196949
 21
135.1152230433395
 31
0.0
  0
LINE
  5
2368
330
1F
100
AcDbEntity
  8
HEWI
  6
IMPORT
 62
     7
100
AcDbLine
 10
1151.300779690687
 20
91.59219753064462
 30
0.0
 11
1151.635708918516
 21
90.16153346814462
 31
0.0
  0
LINE
  5
2369
330
1F
100
AcDbEntity
  8
HEWI
  6
IMPORT
 62
     7
100
AcDbLine
 10
1150.038662792996
 20
116.3537026575975
 30
0.0
 11
1150.267022492245
 21
115.3970147303516
 31
0.0
  0
LINE
  5
236A
330
1F
100
AcDbEntity
  8
HEWI
  6
IMPORT
 62
     7
100
AcDbLine
 10
1199.703732373074
 20
136.5458871058395
 30
0.0
 11
1200.038662792996
 21
135.1152230433395
 31
0.0
  0
LINE
  5
236B
330
1F
100
AcDbEntity
  8
HEWI
  6
IMPORT
 62
     7
100
AcDbLine
 10
1191.300779690687
 20
91.59219753064462
 30
0.0
 11
1191.635710110609
 21
90.16153346814462
 31
0.0
  0
LINE
  5
236C
330
1F
100
AcDbEntity
  8
HEWI
  6
IMPORT
 62
     7
100
AcDbLine
 10
1190.038662792996
 20
116.3537026575975
 30
0.0
 11
1190.267022492245
 21
115.3970147303516
 31
0.0
  0
LINE
  5
236D
330
1F
100
AcDbEntity
  8
HEWI
  6
IMPORT
 62
     7
100
AcDbLine
 10
876.9007767342971
 20
87.85367976941348
 30
0.0
 11
878.584584107344
 21
88.13825618542955
 31
0.0
  0
LINE
  5
236E
330
1F
100
AcDbEntity
  8
HEWI
  6
IMPORT
 62
     7
100
AcDbLine
 10
872.7548440712245
 20
138.5691262415814
 30
0.0
 11
874.4386705177578
 21
138.8537026575975
 31
0.0
  0
LINE
  5
236F
330
1F
100
AcDbEntity
  8
HEWI
  6
IMPORT
 62
     7
100
AcDbLine
 10
877.0386537330898
 20
113.8537026575975
 30
0.0
 11
878.1867059486661
 21
114.0440179041795
 31
0.0
  0
LINE
  5
2370
330
1F
100
AcDbEntity
  8
HEWI
  6
IMPORT
 62
     7
100
AcDbLine
 10
916.9007767342973
 20
87.85367976941348
 30
0.0
 11
918.5845841073442
 21
88.13825618542955
 31
0.0
  0
LINE
  5
2371
330
1F
100
AcDbEntity
  8
HEWI
  6
IMPORT
 62
     7
100
AcDbLine
 10
912.7548440712244
 20
138.5691262415814
 30
0.0
 11
914.4386705177575
 21
138.8537026575975
 31
0.0
  0
LINE
  5
2372
330
1F
100
AcDbEntity
  8
HEWI
  6
IMPORT
 62
     7
100
AcDbLine
 10
917.0386537330898
 20
113.8537026575975
 30
0.0
 11
918.1867059486661
 21
114.0440179041795
 31
0.0
  0
LINE
  5
2373
330
1F
100
AcDbEntity
  8
HEWI
  6
IMPORT
 62
     7
100
AcDbLine
 10
956.900776734297
 20
87.85367976941348
 30
0.0
 11
958.5845841073437
 21
88.13825618542955
 31
0.0
  0
LINE
  5
2374
330
1F
100
AcDbEntity
  8
HEWI
  6
IMPORT
 62
     7
100
AcDbLine
 10
952.7548440712246
 20
138.5691262415814
 30
0.0
 11
954.4386705177576
 21
138.8537026575975
 31
0.0
  0
LINE
  5
2375
330
1F
100
AcDbEntity
  8
HEWI
  6
IMPORT
 62
     7
100
AcDbLine
 10
957.0386537330898
 20
113.8537026575975
 30
0.0
 11
958.1867059486659
 21
114.0440179041795
 31
0.0
  0
LINE
  5
2376
330
1F
100
AcDbEntity
  8
HEWI
  6
IMPORT
 62
     7
100
AcDbLine
 10
996.900776734297
 20
87.85367976941348
 30
0.0
 11
998.5845841073439
 21
88.13825618542955
 31
0.0
  0
LINE
  5
2377
330
1F
100
AcDbEntity
  8
HEWI
  6
IMPORT
 62
     7
100
AcDbLine
 10
992.7548440712246
 20
138.5691262415814
 30
0.0
 11
994.4386705177576
 21
138.8537026575975
 31
0.0
  0
LINE
  5
2378
330
1F
100
AcDbEntity
  8
HEWI
  6
IMPORT
 62
     7
100
AcDbLine
 10
997.0386537330899
 20
113.8537026575975
 30
0.0
 11
998.186705948666
 21
114.0440179041795
 31
0.0
  0
LINE
  5
2379
330
1F
100
AcDbEntity
  8
HEWI
  6
IMPORT
 62
     7
100
AcDbLine
 10
1036.900776734297
 20
87.85367976941348
 30
0.0
 11
1038.584574570601
 21
88.13825618542955
 31
0.0
  0
LINE
  5
237A
330
1F
100
AcDbEntity
  8
HEWI
  6
IMPORT
 62
     7
100
AcDbLine
 10
1032.754853607968
 20
138.5691262415814
 30
0.0
 11
1034.438660981014
 21
138.8537026575975
 31
0.0
  0
LINE
  5
237B
330
1F
100
AcDbEntity
  8
HEWI
  6
IMPORT
 62
     7
100
AcDbLine
 10
1037.038663269833
 20
113.8537026575975
 30
0.0
 11
1038.186715485409
 21
114.0440179041795
 31
0.0
  0
LINE
  5
237C
330
1F
100
AcDbEntity
  8
HEWI
  6
IMPORT
 62
     7
100
AcDbLine
 10
1076.900776734297
 20
87.85367976941348
 30
0.0
 11
1078.584574570601
 21
88.13825618542955
 31
0.0
  0
LINE
  5
237D
330
1F
100
AcDbEntity
  8
HEWI
  6
IMPORT
 62
     7
100
AcDbLine
 10
1072.754853607967
 20
138.5691262415814
 30
0.0
 11
1074.438660981014
 21
138.8537026575975
 31
0.0
  0
LINE
  5
237E
330
1F
100
AcDbEntity
  8
HEWI
  6
IMPORT
 62
     7
100
AcDbLine
 10
1077.038663269833
 20
113.8537026575975
 30
0.0
 11
1078.186715485409
 21
114.0440179041795
 31
0.0
  0
LINE
  5
237F
330
1F
100
AcDbEntity
  8
HEWI
  6
IMPORT
 62
     7
100
AcDbLine
 10
1116.900781502668
 20
87.85367976941348
 30
0.0
 11
1118.584579338972
 21
88.13825618542955
 31
0.0
  0
LINE
  5
2380
330
1F
100
AcDbEntity
  8
HEWI
  6
IMPORT
 62
     7
100
AcDbLine
 10
1112.754853607968
 20
138.5691262415814
 30
0.0
 11
1114.438660981014
 21
138.8537026575975
 31
0.0
  0
LINE
  5
2381
330
1F
100
AcDbEntity
  8
HEWI
  6
IMPORT
 62
     7
100
AcDbLine
 10
1117.038663269833
 20
113.8537026575975
 30
0.0
 11
1118.186710717037
 21
114.0440179041795
 31
0.0
  0
LINE
  5
2382
330
1F
100
AcDbEntity
  8
HEWI
  6
IMPORT
 62
     7
100
AcDbLine
 10
1156.900779118483
 20
87.85367976941348
 30
0.0
 11
1158.584579338972
 21
88.13825618542955
 31
0.0
  0
LINE
  5
2383
330
1F
100
AcDbEntity
  8
HEWI
  6
IMPORT
 62
     7
100
AcDbLine
 10
1152.754852415875
 20
138.5691262415814
 30
0.0
 11
1154.438662173107
 21
138.8537026575975
 31
0.0
  0
LINE
  5
2384
330
1F
100
AcDbEntity
  8
HEWI
  6
IMPORT
 62
     7
100
AcDbLine
 10
1157.03866207774
 20
113.8537026575975
 30
0.0
 11
1158.18671190913
 21
114.0440179041795
 31
0.0
  0
LINE
  5
2385
330
1F
100
AcDbEntity
  8
HEWI
  6
IMPORT
 62
     7
100
AcDbLine
 10
1196.900779118483
 20
87.85367976941348
 30
0.0
 11
1198.584579338972
 21
88.13825618542955
 31
0.0
  0
LINE
  5
2386
330
1F
100
AcDbEntity
  8
HEWI
  6
IMPORT
 62
     7
100
AcDbLine
 10
1192.754851223782
 20
138.5691262415814
 30
0.0
 11
1194.4386633652
 21
138.8537026575975
 31
0.0
  0
LINE
  5
2387
330
1F
100
AcDbEntity
  8
HEWI
  6
IMPORT
 62
     7
100
AcDbLine
 10
1197.038663269833
 20
113.8537026575975
 30
0.0
 11
1198.186713101223
 21
114.0440179041795
 31
0.0
  0
LINE
  5
2388
330
1F
100
AcDbEntity
  8
HEWI
  6
IMPORT
 62
     7
100
AcDbLine
 10
874.5585716866896
 20
99.9889947108204
 30
0.0
 11
875.7889832162309
 21
100.1360512904095
 31
0.0
  0
LINE
  5
2389
330
1F
100
AcDbEntity
  8
HEWI
  6
IMPORT
 62
     7
100
AcDbLine
 10
914.5585716866897
 20
99.9889947108204
 30
0.0
 11
915.7889832162309
 21
100.1360512904095
 31
0.0
  0
LINE
  5
238A
330
1F
100
AcDbEntity
  8
HEWI
  6
IMPORT
 62
     7
100
AcDbLine
 10
954.5585716866897
 20
99.9889947108204
 30
0.0
 11
955.7889832162306
 21
100.1360512904095
 31
0.0
  0
LINE
  5
238B
330
1F
100
AcDbEntity
  8
HEWI
  6
IMPORT
 62
     7
100
AcDbLine
 10
994.5585716866897
 20
99.9889947108204
 30
0.0
 11
995.7889832162306
 21
100.1360512904095
 31
0.0
  0
LINE
  5
238C
330
1F
100
AcDbEntity
  8
HEWI
  6
IMPORT
 62
     7
100
AcDbLine
 10
1034.558571686689
 20
99.9889947108204
 30
0.0
 11
1035.78898321623
 21
100.1360512904095
 31
0.0
  0
LINE
  5
238D
330
1F
100
AcDbEntity
  8
HEWI
  6
IMPORT
 62
     7
100
AcDbLine
 10
1074.558571686689
 20
99.9889947108204
 30
0.0
 11
1075.78898321623
 21
100.1360512904095
 31
0.0
  0
LINE
  5
238E
330
1F
100
AcDbEntity
  8
HEWI
  6
IMPORT
 62
     7
100
AcDbLine
 10
1114.558566918318
 20
99.9889947108204
 30
0.0
 11
1115.788978447859
 21
100.1360512904095
 31
0.0
  0
LINE
  5
238F
330
1F
100
AcDbEntity
  8
HEWI
  6
IMPORT
 62
     7
100
AcDbLine
 10
1154.558569302504
 20
99.9889947108204
 30
0.0
 11
1155.788979639952
 21
100.1360512904095
 31
0.0
  0
LINE
  5
2390
330
1F
100
AcDbEntity
  8
HEWI
  6
IMPORT
 62
     7
100
AcDbLine
 10
1194.558569302504
 20
99.9889947108204
 30
0.0
 11
1195.788978447859
 21
100.1360512904095
 31
0.0
  0
LINE
  5
2391
330
1F
100
AcDbEntity
  8
HEWI
  6
IMPORT
 62
     7
100
AcDbLine
 10
877.0026482247756
 20
100.1133156947076
 30
0.0
 11
878.2362831735058
 21
99.9658776453905
 31
0.0
  0
LINE
  5
2392
330
1F
100
AcDbEntity
  8
HEWI
  6
IMPORT
 62
     7
100
AcDbLine
 10
917.0026482247756
 20
100.1133156947076
 30
0.0
 11
918.236283173506
 21
99.9658776453905
 31
0.0
  0
LINE
  5
2393
330
1F
100
AcDbEntity
  8
HEWI
  6
IMPORT
 62
     7
100
AcDbLine
 10
957.0026482247756
 20
100.1133156947076
 30
0.0
 11
958.2362831735061
 21
99.9658776453905
 31
0.0
  0
LINE
  5
2394
330
1F
100
AcDbEntity
  8
HEWI
  6
IMPORT
 62
     7
100
AcDbLine
 10
997.0026482247757
 20
100.1133156947076
 30
0.0
 11
998.2362831735061
 21
99.9658776453905
 31
0.0
  0
LINE
  5
2395
330
1F
100
AcDbEntity
  8
HEWI
  6
IMPORT
 62
     7
100
AcDbLine
 10
1037.002638688032
 20
100.1133156947076
 30
0.0
 11
1038.236292710249
 21
99.9658776453905
 31
0.0
  0
LINE
  5
2396
330
1F
100
AcDbEntity
  8
HEWI
  6
IMPORT
 62
     7
100
AcDbLine
 10
1077.002638688032
 20
100.1133156947076
 30
0.0
 11
1078.236292710249
 21
99.9658776453905
 31
0.0
  0
LINE
  5
2397
330
1F
100
AcDbEntity
  8
HEWI
  6
IMPORT
 62
     7
100
AcDbLine
 10
1117.002638688032
 20
100.1133156947076
 30
0.0
 11
1118.236287941878
 21
99.9658776453905
 31
0.0
  0
LINE
  5
2398
330
1F
100
AcDbEntity
  8
HEWI
  6
IMPORT
 62
     7
100
AcDbLine
 10
1157.002638688032
 20
100.1133156947076
 30
0.0
 11
1158.23628913397
 21
99.9658776453905
 31
0.0
  0
LINE
  5
2399
330
1F
100
AcDbEntity
  8
HEWI
  6
IMPORT
 62
     7
100
AcDbLine
 10
1197.002638688032
 20
100.1133156947076
 30
0.0
 11
1198.236290326063
 21
99.9658776453905
 31
0.0
  0
LINE
  5
239A
330
1F
100
AcDbEntity
  8
HEWI
  6
IMPORT
 62
     7
100
AcDbLine
 10
875.6386598366054
 20
138.8537026575975
 30
0.0
 11
877.3224672096523
 21
138.5691262415814
 31
0.0
  0
LINE
  5
239B
330
1F
100
AcDbEntity
  8
HEWI
  6
IMPORT
 62
     7
100
AcDbLine
 10
874.0169609689163
 20
88.13825618542955
 30
0.0
 11
875.7007874154492
 21
87.85367976941348
 31
0.0
  0
LINE
  5
239C
330
1F
100
AcDbEntity
  8
HEWI
  6
IMPORT
 62
     7
100
AcDbLine
 10
871.8906053322109
 20
114.0440179041795
 30
0.0
 11
873.038657547787
 21
113.8537026575975
 31
0.0
  0
LINE
  5
239D
330
1F
100
AcDbEntity
  8
HEWI
  6
IMPORT
 62
     7
100
AcDbLine
 10
915.6386598366054
 20
138.8537026575975
 30
0.0
 11
917.3224672096525
 21
138.5691262415814
 31
0.0
  0
LINE
  5
239E
330
1F
100
AcDbEntity
  8
HEWI
  6
IMPORT
 62
     7
100
AcDbLine
 10
914.0169609689163
 20
88.13825618542955
 30
0.0
 11
915.7007874154494
 21
87.85367976941348
 31
0.0
  0
LINE
  5
239F
330
1F
100
AcDbEntity
  8
HEWI
  6
IMPORT
 62
     7
100
AcDbLine
 10
911.8906053322106
 20
114.0440179041795
 30
0.0
 11
913.0386575477871
 21
113.8537026575975
 31
0.0
  0
LINE
  5
23A0
330
1F
100
AcDbEntity
  8
HEWI
  6
IMPORT
 62
     7
100
AcDbLine
 10
955.6386598366055
 20
138.8537026575975
 30
0.0
 11
957.3224672096525
 21
138.5691262415814
 31
0.0
  0
LINE
  5
23A1
330
1F
100
AcDbEntity
  8
HEWI
  6
IMPORT
 62
     7
100
AcDbLine
 10
954.016960968916
 20
88.13825618542955
 30
0.0
 11
955.7007874154495
 21
87.85367976941348
 31
0.0
  0
LINE
  5
23A2
330
1F
100
AcDbEntity
  8
HEWI
  6
IMPORT
 62
     7
100
AcDbLine
 10
951.8906053322107
 20
114.0440179041795
 30
0.0
 11
953.0386575477873
 21
113.8537026575975
 31
0.0
  0
LINE
  5
23A3
330
1F
100
AcDbEntity
  8
HEWI
  6
IMPORT
 62
     7
100
AcDbLine
 10
995.6386598366057
 20
138.8537026575975
 30
0.0
 11
997.3224672096526
 21
138.5691262415814
 31
0.0
  0
LINE
  5
23A4
330
1F
100
AcDbEntity
  8
HEWI
  6
IMPORT
 62
     7
100
AcDbLine
 10
994.016960968916
 20
88.13825618542955
 30
0.0
 11
995.7007874154495
 21
87.85367976941348
 31
0.0
  0
LINE
  5
23A5
330
1F
100
AcDbEntity
  8
HEWI
  6
IMPORT
 62
     7
100
AcDbLine
 10
991.8906053322107
 20
114.0440179041795
 30
0.0
 11
993.0386575477873
 21
113.8537026575975
 31
0.0
  0
LINE
  5
23A6
330
1F
100
AcDbEntity
  8
HEWI
  6
IMPORT
 62
     7
100
AcDbLine
 10
1035.638659836605
 20
138.8537026575975
 30
0.0
 11
1037.322457672909
 21
138.5691262415814
 31
0.0
  0
LINE
  5
23A7
330
1F
100
AcDbEntity
  8
HEWI
  6
IMPORT
 62
     7
100
AcDbLine
 10
1034.016970505659
 20
88.13825618542955
 30
0.0
 11
1035.700777878706
 21
87.85367976941348
 31
0.0
  0
LINE
  5
23A8
330
1F
100
AcDbEntity
  8
HEWI
  6
IMPORT
 62
     7
100
AcDbLine
 10
1031.890614868954
 20
114.0440179041795
 30
0.0
 11
1033.03866708453
 21
113.8537026575975
 31
0.0
  0
LINE
  5
23A9
330
1F
100
AcDbEntity
  8
HEWI
  6
IMPORT
 62
     7
100
AcDbLine
 10
1075.638659836605
 20
138.8537026575975
 30
0.0
 11
1077.322457672909
 21
138.5691262415814
 31
0.0
  0
LINE
  5
23AA
330
1F
100
AcDbEntity
  8
HEWI
  6
IMPORT
 62
     7
100
AcDbLine
 10
1074.016970505659
 20
88.13825618542955
 30
0.0
 11
1075.700777878706
 21
87.85367976941348
 31
0.0
  0
LINE
  5
23AB
330
1F
100
AcDbEntity
  8
HEWI
  6
IMPORT
 62
     7
100
AcDbLine
 10
1071.890614868954
 20
114.0440179041795
 30
0.0
 11
1073.03866708453
 21
113.8537026575975
 31
0.0
  0
LINE
  5
23AC
330
1F
100
AcDbEntity
  8
HEWI
  6
IMPORT
 62
     7
100
AcDbLine
 10
1115.638664604977
 20
138.8537026575975
 30
0.0
 11
1117.32246244128
 21
138.5691262415814
 31
0.0
  0
LINE
  5
23AD
330
1F
100
AcDbEntity
  8
HEWI
  6
IMPORT
 62
     7
100
AcDbLine
 10
1114.016970505659
 20
88.13825618542955
 30
0.0
 11
1115.700777878706
 21
87.85367976941348
 31
0.0
  0
LINE
  5
23AE
330
1F
100
AcDbEntity
  8
HEWI
  6
IMPORT
 62
     7
100
AcDbLine
 10
1111.890610100582
 20
114.0440179041795
 30
0.0
 11
1113.038662316158
 21
113.8537026575975
 31
0.0
  0
LINE
  5
23AF
330
1F
100
AcDbEntity
  8
HEWI
  6
IMPORT
 62
     7
100
AcDbLine
 10
1155.638662220791
 20
138.8537026575975
 30
0.0
 11
1157.32246244128
 21
138.5691262415814
 31
0.0
  0
LINE
  5
23B0
330
1F
100
AcDbEntity
  8
HEWI
  6
IMPORT
 62
     7
100
AcDbLine
 10
1154.016969313566
 20
88.13825618542955
 30
0.0
 11
1155.700779070799
 21
87.85367976941348
 31
0.0
  0
LINE
  5
23B1
330
1F
100
AcDbEntity
  8
HEWI
  6
IMPORT
 62
     7
100
AcDbLine
 10
1151.890612484768
 20
114.0440179041795
 30
0.0
 11
1153.038662316158
 21
113.8537026575975
 31
0.0
  0
LINE
  5
23B2
330
1F
100
AcDbEntity
  8
HEWI
  6
IMPORT
 62
     7
100
AcDbLine
 10
1195.638662220791
 20
138.8537026575975
 30
0.0
 11
1197.32246244128
 21
138.5691262415814
 31
0.0
  0
LINE
  5
23B3
330
1F
100
AcDbEntity
  8
HEWI
  6
IMPORT
 62
     7
100
AcDbLine
 10
1194.016968121473
 20
88.13825618542955
 30
0.0
 11
1195.700780262892
 21
87.85367976941348
 31
0.0
  0
LINE
  5
23B4
330
1F
100
AcDbEntity
  8
HEWI
  6
IMPORT
 62
     7
100
AcDbLine
 10
1191.890612484768
 20
114.0440179041795
 30
0.0
 11
1193.038662316158
 21
113.8537026575975
 31
0.0
  0
LINE
  5
23B5
330
1F
100
AcDbEntity
  8
HEWI
  6
IMPORT
 62
     7
100
AcDbLine
 10
880.9658516549514
 20
90.16153346814462
 30
0.0
 11
881.3007820748733
 21
91.59219753064462
 31
0.0
  0
LINE
  5
23B6
330
1F
100
AcDbEntity
  8
HEWI
  6
IMPORT
 62
     7
100
AcDbLine
 10
870.0386651771816
 20
135.1152230433395
 30
0.0
 11
870.3735955971035
 21
136.5458871058395
 31
0.0
  0
LINE
  5
23B7
330
1F
100
AcDbEntity
  8
HEWI
  6
IMPORT
 62
     7
100
AcDbLine
 10
879.810298325375
 20
115.3970147303516
 30
0.0
 11
880.0386651771816
 21
116.3537026575975
 31
0.0
  0
LINE
  5
23B8
330
1F
100
AcDbEntity
  8
HEWI
  6
IMPORT
 62
     7
100
AcDbLine
 10
920.9658516549511
 20
90.16153346814462
 30
0.0
 11
921.3007820748732
 21
91.59219753064462
 31
0.0
  0
LINE
  5
23B9
330
1F
100
AcDbEntity
  8
HEWI
  6
IMPORT
 62
     7
100
AcDbLine
 10
910.0386651771817
 20
135.1152230433395
 30
0.0
 11
910.3735955971037
 21
136.5458871058395
 31
0.0
  0
LINE
  5
23BA
330
1F
100
AcDbEntity
  8
HEWI
  6
IMPORT
 62
     7
100
AcDbLine
 10
919.810298325375
 20
115.3970147303516
 30
0.0
 11
920.0386651771816
 21
116.3537026575975
 31
0.0
  0
LINE
  5
23BB
330
1F
100
AcDbEntity
  8
HEWI
  6
IMPORT
 62
     7
100
AcDbLine
 10
960.9658516549512
 20
90.16153346814462
 30
0.0
 11
961.3007820748732
 21
91.59219753064462
 31
0.0
  0
LINE
  5
23BC
330
1F
100
AcDbEntity
  8
HEWI
  6
IMPORT
 62
     7
100
AcDbLine
 10
950.0386651771817
 20
135.1152230433395
 30
0.0
 11
950.3735955971032
 21
136.5458871058395
 31
0.0
  0
LINE
  5
23BD
330
1F
100
AcDbEntity
  8
HEWI
  6
IMPORT
 62
     7
100
AcDbLine
 10
959.8102983253747
 20
115.3970147303516
 30
0.0
 11
960.0386651771817
 21
116.3537026575975
 31
0.0
  0
LINE
  5
23BE
330
1F
100
AcDbEntity
  8
HEWI
  6
IMPORT
 62
     7
100
AcDbLine
 10
1000.965851654951
 20
90.16153346814462
 30
0.0
 11
1001.300782074873
 21
91.59219753064462
 31
0.0
  0
LINE
  5
23BF
330
1F
100
AcDbEntity
  8
HEWI
  6
IMPORT
 62
     7
100
AcDbLine
 10
990.0386651771816
 20
135.1152230433395
 30
0.0
 11
990.3735955971033
 21
136.5458871058395
 31
0.0
  0
LINE
  5
23C0
330
1F
100
AcDbEntity
  8
HEWI
  6
IMPORT
 62
     7
100
AcDbLine
 10
999.8102983253749
 20
115.3970147303516
 30
0.0
 11
1000.038665177181
 21
116.3537026575975
 31
0.0
  0
LINE
  5
23C1
330
1F
100
AcDbEntity
  8
HEWI
  6
IMPORT
 62
     7
100
AcDbLine
 10
1040.965851654951
 20
90.16153346814462
 30
0.0
 11
1041.300782074873
 21
91.59219753064462
 31
0.0
  0
LINE
  5
23C2
330
1F
100
AcDbEntity
  8
HEWI
  6
IMPORT
 62
     7
100
AcDbLine
 10
1030.038665177181
 20
135.1152230433395
 30
0.0
 11
1030.373595597103
 21
136.5458871058395
 31
0.0
  0
LINE
  5
23C3
330
1F
100
AcDbEntity
  8
HEWI
  6
IMPORT
 62
     7
100
AcDbLine
 10
1039.810288788632
 20
115.3970147303516
 30
0.0
 11
1040.038665177181
 21
116.3537026575975
 31
0.0
  0
LINE
  5
23C4
330
1F
100
AcDbEntity
  8
HEWI
  6
IMPORT
 62
     7
100
AcDbLine
 10
1080.965851654951
 20
90.16153346814462
 30
0.0
 11
1081.300782074873
 21
91.59219753064462
 31
0.0
  0
LINE
  5
23C5
330
1F
100
AcDbEntity
  8
HEWI
  6
IMPORT
 62
     7
100
AcDbLine
 10
1070.038665177181
 20
135.1152230433395
 30
0.0
 11
1070.373595597103
 21
136.5458871058395
 31
0.0
  0
LINE
  5
23C6
330
1F
100
AcDbEntity
  8
HEWI
  6
IMPORT
 62
     7
100
AcDbLine
 10
1079.810288788632
 20
115.3970147303516
 30
0.0
 11
1080.038665177181
 21
116.3537026575975
 31
0.0
  0
LINE
  5
23C7
330
1F
100
AcDbEntity
  8
HEWI
  6
IMPORT
 62
     7
100
AcDbLine
 10
1120.96584688658
 20
90.16153346814462
 30
0.0
 11
1121.300777306501
 21
91.59219753064462
 31
0.0
  0
LINE
  5
23C8
330
1F
100
AcDbEntity
  8
HEWI
  6
IMPORT
 62
     7
100
AcDbLine
 10
1110.03866040881
 20
135.1152230433395
 30
0.0
 11
1110.373590828732
 21
136.5458871058395
 31
0.0
  0
LINE
  5
23C9
330
1F
100
AcDbEntity
  8
HEWI
  6
IMPORT
 62
     7
100
AcDbLine
 10
1119.810293557003
 20
115.3970147303516
 30
0.0
 11
1120.03866040881
 21
116.3537026575975
 31
0.0
  0
LINE
  5
23CA
330
1F
100
AcDbEntity
  8
HEWI
  6
IMPORT
 62
     7
100
AcDbLine
 10
1160.965849270765
 20
90.16153346814462
 30
0.0
 11
1161.300779094641
 21
91.59219753064462
 31
0.0
  0
LINE
  5
23CB
330
1F
100
AcDbEntity
  8
HEWI
  6
IMPORT
 62
     7
100
AcDbLine
 10
1150.038662792996
 20
135.1152230433395
 30
0.0
 11
1150.373592020825
 21
136.5458871058395
 31
0.0
  0
LINE
  5
23CC
330
1F
100
AcDbEntity
  8
HEWI
  6
IMPORT
 62
     7
100
AcDbLine
 10
1159.81029236491
 20
115.3970147303516
 30
0.0
 11
1160.038662196949
 21
116.3537026575975
 31
0.0
  0
LINE
  5
23CD
330
1F
100
AcDbEntity
  8
HEWI
  6
IMPORT
 62
     7
100
AcDbLine
 10
1200.965849270765
 20
90.16153346814462
 30
0.0
 11
1201.300779690687
 21
91.59219753064462
 31
0.0
  0
LINE
  5
23CE
330
1F
100
AcDbEntity
  8
HEWI
  6
IMPORT
 62
     7
100
AcDbLine
 10
1190.038662792996
 20
135.1152230433395
 30
0.0
 11
1190.373593212917
 21
136.5458871058395
 31
0.0
  0
LINE
  5
23CF
330
1F
100
AcDbEntity
  8
HEWI
  6
IMPORT
 62
     7
100
AcDbLine
 10
1199.810291172818
 20
115.3970147303516
 30
0.0
 11
1200.038662792996
 21
116.3537026575975
 31
0.0
  0
LINE
  5
23D0
330
1F
100
AcDbEntity
  8
HEWI
  6
IMPORT
 62
     7
100
AcDbLine
 10
871.300782074873
 20
97.0089150599415
 30
0.0
 11
871.6357124947949
 21
98.02057277478548
 31
0.0
  0
LINE
  5
23D1
330
1F
100
AcDbEntity
  8
HEWI
  6
IMPORT
 62
     7
100
AcDbLine
 10
911.3007820748732
 20
97.0089150599415
 30
0.0
 11
911.6357124947949
 21
98.02057277478548
 31
0.0
  0
LINE
  5
23D2
330
1F
100
AcDbEntity
  8
HEWI
  6
IMPORT
 62
     7
100
AcDbLine
 10
951.3007820748732
 20
97.0089150599415
 30
0.0
 11
951.6357124947953
 21
98.02057277478548
 31
0.0
  0
LINE
  5
23D3
330
1F
100
AcDbEntity
  8
HEWI
  6
IMPORT
 62
     7
100
AcDbLine
 10
991.3007820748733
 20
97.0089150599415
 30
0.0
 11
991.6357124947953
 21
98.02057277478548
 31
0.0
  0
LINE
  5
23D4
330
1F
100
AcDbEntity
  8
HEWI
  6
IMPORT
 62
     7
100
AcDbLine
 10
1031.300782074873
 20
97.0089150599415
 30
0.0
 11
1031.635712494795
 21
98.02057277478548
 31
0.0
  0
LINE
  5
23D5
330
1F
100
AcDbEntity
  8
HEWI
  6
IMPORT
 62
     7
100
AcDbLine
 10
1071.300782074873
 20
97.0089150599415
 30
0.0
 11
1071.635712494795
 21
98.02057277478548
 31
0.0
  0
LINE
  5
23D6
330
1F
100
AcDbEntity
  8
HEWI
  6
IMPORT
 62
     7
100
AcDbLine
 10
1111.300777306501
 20
97.0089150599415
 30
0.0
 11
1111.635707726423
 21
98.02057277478548
 31
0.0
  0
LINE
  5
23D7
330
1F
100
AcDbEntity
  8
HEWI
  6
IMPORT
 62
     7
100
AcDbLine
 10
1151.300779690687
 20
97.0089150599415
 30
0.0
 11
1151.635708918516
 21
98.02057277478548
 31
0.0
  0
LINE
  5
23D8
330
1F
100
AcDbEntity
  8
HEWI
  6
IMPORT
 62
     7
100
AcDbLine
 10
1191.300779690687
 20
97.0089150599415
 30
0.0
 11
1191.635710110609
 21
98.02057277478548
 31
0.0
  0
LINE
  5
23D9
330
1F
100
AcDbEntity
  8
HEWI
  6
IMPORT
 62
     7
100
AcDbLine
 10
878.4940613412306
 20
99.86665736951136
 30
0.0
 11
879.8459328317091
 21
99.32397853650355
 31
0.0
  0
LINE
  5
23DA
330
1F
100
AcDbEntity
  8
HEWI
  6
IMPORT
 62
     7
100
AcDbLine
 10
918.4940613412306
 20
99.86665736951136
 30
0.0
 11
919.8459328317094
 21
99.32397853650355
 31
0.0
  0
LINE
  5
23DB
330
1F
100
AcDbEntity
  8
HEWI
  6
IMPORT
 62
     7
100
AcDbLine
 10
958.4940613412307
 20
99.86665736951136
 30
0.0
 11
959.8459328317094
 21
99.32397853650355
 31
0.0
  0
LINE
  5
23DC
330
1F
100
AcDbEntity
  8
HEWI
  6
IMPORT
 62
     7
100
AcDbLine
 10
998.4940613412309
 20
99.86665736951136
 30
0.0
 11
999.8459328317089
 21
99.32397853650355
 31
0.0
  0
LINE
  5
23DD
330
1F
100
AcDbEntity
  8
HEWI
  6
IMPORT
 62
     7
100
AcDbLine
 10
1038.49406134123
 20
99.86665736951136
 30
0.0
 11
1039.845942368452
 21
99.32397853650355
 31
0.0
  0
LINE
  5
23DE
330
1F
100
AcDbEntity
  8
HEWI
  6
IMPORT
 62
     7
100
AcDbLine
 10
1078.49406134123
 20
99.86665736951136
 30
0.0
 11
1079.845942368452
 21
99.32397853650355
 31
0.0
  0
LINE
  5
23DF
330
1F
100
AcDbEntity
  8
HEWI
  6
IMPORT
 62
     7
100
AcDbLine
 10
1118.49406134123
 20
99.86665736951136
 30
0.0
 11
1119.845937600081
 21
99.32397853650355
 31
0.0
  0
LINE
  5
23E0
330
1F
100
AcDbEntity
  8
HEWI
  6
IMPORT
 62
     7
100
AcDbLine
 10
1158.494058957045
 20
99.86665736951136
 30
0.0
 11
1159.845938792173
 21
99.32397853650355
 31
0.0
  0
LINE
  5
23E1
330
1F
100
AcDbEntity
  8
HEWI
  6
IMPORT
 62
     7
100
AcDbLine
 10
1198.494058957045
 20
99.86665736951136
 30
0.0
 11
1199.845939984266
 21
99.32397853650355
 31
0.0
  0
LINE
  5
23E2
330
1F
100
AcDbEntity
  8
HEWI
  6
IMPORT
 62
     7
100
AcDbLine
 10
871.6357124947949
 20
98.02057277478548
 30
0.0
 11
871.8512619637893
 21
98.5107995203905
 31
0.0
  0
LINE
  5
23E3
330
1F
100
AcDbEntity
  8
HEWI
  6
IMPORT
 62
     7
100
AcDbLine
 10
911.6357124947949
 20
98.02057277478548
 30
0.0
 11
911.8512619637893
 21
98.5107995203905
 31
0.0
  0
LINE
  5
23E4
330
1F
100
AcDbEntity
  8
HEWI
  6
IMPORT
 62
     7
100
AcDbLine
 10
951.6357124947953
 20
98.02057277478548
 30
0.0
 11
951.8512619637892
 21
98.5107995203905
 31
0.0
  0
LINE
  5
23E5
330
1F
100
AcDbEntity
  8
HEWI
  6
IMPORT
 62
     7
100
AcDbLine
 10
991.6357124947953
 20
98.02057277478548
 30
0.0
 11
991.8512619637892
 21
98.5107995203905
 31
0.0
  0
LINE
  5
23E6
330
1F
100
AcDbEntity
  8
HEWI
  6
IMPORT
 62
     7
100
AcDbLine
 10
1031.635712494795
 20
98.02057277478548
 30
0.0
 11
1031.851261963789
 21
98.5107995203905
 31
0.0
  0
LINE
  5
23E7
330
1F
100
AcDbEntity
  8
HEWI
  6
IMPORT
 62
     7
100
AcDbLine
 10
1071.635712494795
 20
98.02057277478548
 30
0.0
 11
1071.851261963789
 21
98.5107995203905
 31
0.0
  0
LINE
  5
23E8
330
1F
100
AcDbEntity
  8
HEWI
  6
IMPORT
 62
     7
100
AcDbLine
 10
1111.635707726423
 20
98.02057277478548
 30
0.0
 11
1111.851257195417
 21
98.5107995203905
 31
0.0
  0
LINE
  5
23E9
330
1F
100
AcDbEntity
  8
HEWI
  6
IMPORT
 62
     7
100
AcDbLine
 10
1151.635708918516
 20
98.02057277478548
 30
0.0
 11
1151.851259579603
 21
98.5107995203905
 31
0.0
  0
LINE
  5
23EA
330
1F
100
AcDbEntity
  8
HEWI
  6
IMPORT
 62
     7
100
AcDbLine
 10
1191.635710110609
 20
98.02057277478548
 30
0.0
 11
1191.851259579603
 21
98.5107995203905
 31
0.0
  0
LINE
  5
23EB
330
1F
100
AcDbEntity
  8
HEWI
  6
IMPORT
 62
     7
100
AcDbLine
 10
870.9173425453457
 20
114.5859337977344
 30
0.0
 11
871.8906053322109
 21
114.0440179041795
 31
0.0
  0
LINE
  5
23EC
330
1F
100
AcDbEntity
  8
HEWI
  6
IMPORT
 62
     7
100
AcDbLine
 10
910.9173425453457
 20
114.5859337977344
 30
0.0
 11
911.8906053322106
 21
114.0440179041795
 31
0.0
  0
LINE
  5
23ED
330
1F
100
AcDbEntity
  8
HEWI
  6
IMPORT
 62
     7
100
AcDbLine
 10
950.9173425453457
 20
114.5859337977344
 30
0.0
 11
951.8906053322107
 21
114.0440179041795
 31
0.0
  0
LINE
  5
23EE
330
1F
100
AcDbEntity
  8
HEWI
  6
IMPORT
 62
     7
100
AcDbLine
 10
990.9173425453458
 20
114.5859337977344
 30
0.0
 11
991.8906053322107
 21
114.0440179041795
 31
0.0
  0
LINE
  5
23EF
330
1F
100
AcDbEntity
  8
HEWI
  6
IMPORT
 62
     7
100
AcDbLine
 10
1030.917342545345
 20
114.5859337977344
 30
0.0
 11
1031.890614868954
 21
114.0440179041795
 31
0.0
  0
LINE
  5
23F0
330
1F
100
AcDbEntity
  8
HEWI
  6
IMPORT
 62
     7
100
AcDbLine
 10
1070.917342545345
 20
114.5859337977344
 30
0.0
 11
1071.890614868954
 21
114.0440179041795
 31
0.0
  0
LINE
  5
23F1
330
1F
100
AcDbEntity
  8
HEWI
  6
IMPORT
 62
     7
100
AcDbLine
 10
1110.917342545345
 20
114.5859337977344
 30
0.0
 11
1111.890610100582
 21
114.0440179041795
 31
0.0
  0
LINE
  5
23F2
330
1F
100
AcDbEntity
  8
HEWI
  6
IMPORT
 62
     7
100
AcDbLine
 10
1150.917342545345
 20
114.5859337977344
 30
0.0
 11
1151.890612484768
 21
114.0440179041795
 31
0.0
  0
LINE
  5
23F3
330
1F
100
AcDbEntity
  8
HEWI
  6
IMPORT
 62
     7
100
AcDbLine
 10
1190.917342545345
 20
114.5859337977344
 30
0.0
 11
1191.890612484768
 21
114.0440179041795
 31
0.0
  0
LINE
  5
23F4
330
1F
100
AcDbEntity
  8
HEWI
  6
IMPORT
 62
     7
100
AcDbLine
 10
877.3224672096523
 20
138.5691262415814
 30
0.0
 11
878.7499269264491
 21
137.7587319544725
 31
0.0
  0
LINE
  5
23F5
330
1F
100
AcDbEntity
  8
HEWI
  6
IMPORT
 62
     7
100
AcDbLine
 10
872.5895012521194
 20
88.94868861951136
 30
0.0
 11
874.0169609689163
 21
88.13825618542955
 31
0.0
  0
LINE
  5
23F6
330
1F
100
AcDbEntity
  8
HEWI
  6
IMPORT
 62
     7
100
AcDbLine
 10
917.3224672096525
 20
138.5691262415814
 30
0.0
 11
918.7499269264494
 21
137.7587319544725
 31
0.0
  0
LINE
  5
23F7
330
1F
100
AcDbEntity
  8
HEWI
  6
IMPORT
 62
     7
100
AcDbLine
 10
912.5895012521194
 20
88.94868861951136
 30
0.0
 11
914.0169609689163
 21
88.13825618542955
 31
0.0
  0
LINE
  5
23F8
330
1F
100
AcDbEntity
  8
HEWI
  6
IMPORT
 62
     7
100
AcDbLine
 10
957.3224672096525
 20
138.5691262415814
 30
0.0
 11
958.7499269264494
 21
137.7587319544725
 31
0.0
  0
LINE
  5
23F9
330
1F
100
AcDbEntity
  8
HEWI
  6
IMPORT
 62
     7
100
AcDbLine
 10
952.5895012521193
 20
88.94868861951136
 30
0.0
 11
954.016960968916
 21
88.13825618542955
 31
0.0
  0
LINE
  5
23FA
330
1F
100
AcDbEntity
  8
HEWI
  6
IMPORT
 62
     7
100
AcDbLine
 10
997.3224672096526
 20
138.5691262415814
 30
0.0
 11
998.7499269264494
 21
137.7587319544725
 31
0.0
  0
LINE
  5
23FB
330
1F
100
AcDbEntity
  8
HEWI
  6
IMPORT
 62
     7
100
AcDbLine
 10
992.5895012521193
 20
88.94868861951136
 30
0.0
 11
994.016960968916
 21
88.13825618542955
 31
0.0
  0
LINE
  5
23FC
330
1F
100
AcDbEntity
  8
HEWI
  6
IMPORT
 62
     7
100
AcDbLine
 10
1037.322457672909
 20
138.5691262415814
 30
0.0
 11
1038.749936463192
 21
137.7587319544725
 31
0.0
  0
LINE
  5
23FD
330
1F
100
AcDbEntity
  8
HEWI
  6
IMPORT
 62
     7
100
AcDbLine
 10
1032.589510788862
 20
88.94868861951136
 30
0.0
 11
1034.016970505659
 21
88.13825618542955
 31
0.0
  0
LINE
  5
23FE
330
1F
100
AcDbEntity
  8
HEWI
  6
IMPORT
 62
     7
100
AcDbLine
 10
1077.322457672909
 20
138.5691262415814
 30
0.0
 11
1078.749936463192
 21
137.7587319544725
 31
0.0
  0
LINE
  5
23FF
330
1F
100
AcDbEntity
  8
HEWI
  6
IMPORT
 62
     7
100
AcDbLine
 10
1072.589510788862
 20
88.94868861951136
 30
0.0
 11
1074.016970505659
 21
88.13825618542955
 31
0.0
  0
LINE
  5
2400
330
1F
100
AcDbEntity
  8
HEWI
  6
IMPORT
 62
     7
100
AcDbLine
 10
1117.32246244128
 20
138.5691262415814
 30
0.0
 11
1118.749931694821
 21
137.7587319544725
 31
0.0
  0
LINE
  5
2401
330
1F
100
AcDbEntity
  8
HEWI
  6
IMPORT
 62
     7
100
AcDbLine
 10
1112.589510788862
 20
88.94868861951136
 30
0.0
 11
1114.016970505659
 21
88.13825618542955
 31
0.0
  0
LINE
  5
2402
330
1F
100
AcDbEntity
  8
HEWI
  6
IMPORT
 62
     7
100
AcDbLine
 10
1157.32246244128
 20
138.5691262415814
 30
0.0
 11
1158.749932290867
 21
137.7587319544725
 31
0.0
  0
LINE
  5
2403
330
1F
100
AcDbEntity
  8
HEWI
  6
IMPORT
 62
     7
100
AcDbLine
 10
1152.589509596769
 20
88.94868861951136
 30
0.0
 11
1154.016969313566
 21
88.13825618542955
 31
0.0
  0
LINE
  5
2404
330
1F
100
AcDbEntity
  8
HEWI
  6
IMPORT
 62
     7
100
AcDbLine
 10
1197.32246244128
 20
138.5691262415814
 30
0.0
 11
1198.749931694821
 21
137.7587319544725
 31
0.0
  0
LINE
  5
2405
330
1F
100
AcDbEntity
  8
HEWI
  6
IMPORT
 62
     7
100
AcDbLine
 10
1192.589508404677
 20
88.94868861951136
 30
0.0
 11
1194.016968121473
 21
88.13825618542955
 31
0.0
  0
LINE
  5
2406
330
1F
100
AcDbEntity
  8
HEWI
  6
IMPORT
 62
     7
100
AcDbLine
 10
880.0120438241409
 20
88.94868861951136
 30
0.0
 11
880.9658516549514
 21
90.16153346814462
 31
0.0
  0
LINE
  5
2407
330
1F
100
AcDbEntity
  8
HEWI
  6
IMPORT
 62
     7
100
AcDbLine
 10
870.3735955971035
 20
136.5458871058395
 30
0.0
 11
871.3273843544277
 21
137.7587319544725
 31
0.0
  0
LINE
  5
2408
330
1F
100
AcDbEntity
  8
HEWI
  6
IMPORT
 62
     7
100
AcDbLine
 10
920.0120438241409
 20
88.94868861951136
 30
0.0
 11
920.9658516549511
 21
90.16153346814462
 31
0.0
  0
LINE
  5
2409
330
1F
100
AcDbEntity
  8
HEWI
  6
IMPORT
 62
     7
100
AcDbLine
 10
910.3735955971037
 20
136.5458871058395
 30
0.0
 11
911.3273843544277
 21
137.7587319544725
 31
0.0
  0
LINE
  5
240A
330
1F
100
AcDbEntity
  8
HEWI
  6
IMPORT
 62
     7
100
AcDbLine
 10
960.0120438241408
 20
88.94868861951136
 30
0.0
 11
960.9658516549512
 21
90.16153346814462
 31
0.0
  0
LINE
  5
240B
330
1F
100
AcDbEntity
  8
HEWI
  6
IMPORT
 62
     7
100
AcDbLine
 10
950.3735955971032
 20
136.5458871058395
 30
0.0
 11
951.3273843544277
 21
137.7587319544725
 31
0.0
  0
LINE
  5
240C
330
1F
100
AcDbEntity
  8
HEWI
  6
IMPORT
 62
     7
100
AcDbLine
 10
1000.012043824141
 20
88.94868861951136
 30
0.0
 11
1000.965851654951
 21
90.16153346814462
 31
0.0
  0
LINE
  5
240D
330
1F
100
AcDbEntity
  8
HEWI
  6
IMPORT
 62
     7
100
AcDbLine
 10
990.3735955971033
 20
136.5458871058395
 30
0.0
 11
991.3273843544278
 21
137.7587319544725
 31
0.0
  0
LINE
  5
240E
330
1F
100
AcDbEntity
  8
HEWI
  6
IMPORT
 62
     7
100
AcDbLine
 10
1040.012053360884
 20
88.94868861951136
 30
0.0
 11
1040.965851654951
 21
90.16153346814462
 31
0.0
  0
LINE
  5
240F
330
1F
100
AcDbEntity
  8
HEWI
  6
IMPORT
 62
     7
100
AcDbLine
 10
1030.373595597103
 20
136.5458871058395
 30
0.0
 11
1031.327393891171
 21
137.7587319544725
 31
0.0
  0
LINE
  5
2410
330
1F
100
AcDbEntity
  8
HEWI
  6
IMPORT
 62
     7
100
AcDbLine
 10
1080.012053360884
 20
88.94868861951136
 30
0.0
 11
1080.965851654951
 21
90.16153346814462
 31
0.0
  0
LINE
  5
2411
330
1F
100
AcDbEntity
  8
HEWI
  6
IMPORT
 62
     7
100
AcDbLine
 10
1070.373595597103
 20
136.5458871058395
 30
0.0
 11
1071.327393891171
 21
137.7587319544725
 31
0.0
  0
LINE
  5
2412
330
1F
100
AcDbEntity
  8
HEWI
  6
IMPORT
 62
     7
100
AcDbLine
 10
1120.012048592512
 20
88.94868861951136
 30
0.0
 11
1120.96584688658
 21
90.16153346814462
 31
0.0
  0
LINE
  5
2413
330
1F
100
AcDbEntity
  8
HEWI
  6
IMPORT
 62
     7
100
AcDbLine
 10
1110.373590828732
 20
136.5458871058395
 30
0.0
 11
1111.327393891171
 21
137.7587319544725
 31
0.0
  0
LINE
  5
2414
330
1F
100
AcDbEntity
  8
HEWI
  6
IMPORT
 62
     7
100
AcDbLine
 10
1160.012049188559
 20
88.94868861951136
 30
0.0
 11
1160.965849270765
 21
90.16153346814462
 31
0.0
  0
LINE
  5
2415
330
1F
100
AcDbEntity
  8
HEWI
  6
IMPORT
 62
     7
100
AcDbLine
 10
1150.373592020825
 20
136.5458871058395
 30
0.0
 11
1151.327392699078
 21
137.7587319544725
 31
0.0
  0
LINE
  5
2416
330
1F
100
AcDbEntity
  8
HEWI
  6
IMPORT
 62
     7
100
AcDbLine
 10
1200.012048592512
 20
88.94868861951136
 30
0.0
 11
1200.965849270765
 21
90.16153346814462
 31
0.0
  0
LINE
  5
2417
330
1F
100
AcDbEntity
  8
HEWI
  6
IMPORT
 62
     7
100
AcDbLine
 10
1190.373593212917
 20
136.5458871058395
 30
0.0
 11
1191.327391506985
 21
137.7587319544725
 31
0.0
  0
LINE
  5
2418
330
1F
100
AcDbEntity
  8
HEWI
  6
IMPORT
 62
     7
100
AcDbLine
 10
879.1599878090176
 20
114.5859337977344
 30
0.0
 11
879.810298325375
 21
115.3970147303516
 31
0.0
  0
LINE
  5
2419
330
1F
100
AcDbEntity
  8
HEWI
  6
IMPORT
 62
     7
100
AcDbLine
 10
919.1599878090178
 20
114.5859337977344
 30
0.0
 11
919.810298325375
 21
115.3970147303516
 31
0.0
  0
LINE
  5
241A
330
1F
100
AcDbEntity
  8
HEWI
  6
IMPORT
 62
     7
100
AcDbLine
 10
959.1599878090173
 20
114.5859337977344
 30
0.0
 11
959.8102983253747
 21
115.3970147303516
 31
0.0
  0
LINE
  5
241B
330
1F
100
AcDbEntity
  8
HEWI
  6
IMPORT
 62
     7
100
AcDbLine
 10
999.1599878090179
 20
114.5859337977344
 30
0.0
 11
999.8102983253749
 21
115.3970147303516
 31
0.0
  0
LINE
  5
241C
330
1F
100
AcDbEntity
  8
HEWI
  6
IMPORT
 62
     7
100
AcDbLine
 10
1039.159978272274
 20
114.5859337977344
 30
0.0
 11
1039.810288788632
 21
115.3970147303516
 31
0.0
  0
LINE
  5
241D
330
1F
100
AcDbEntity
  8
HEWI
  6
IMPORT
 62
     7
100
AcDbLine
 10
1079.159978272274
 20
114.5859337977344
 30
0.0
 11
1079.810288788632
 21
115.3970147303516
 31
0.0
  0
LINE
  5
241E
330
1F
100
AcDbEntity
  8
HEWI
  6
IMPORT
 62
     7
100
AcDbLine
 10
1119.159983040646
 20
114.5859337977344
 30
0.0
 11
1119.810293557003
 21
115.3970147303516
 31
0.0
  0
LINE
  5
241F
330
1F
100
AcDbEntity
  8
HEWI
  6
IMPORT
 62
     7
100
AcDbLine
 10
1159.159982444599
 20
114.5859337977344
 30
0.0
 11
1159.81029236491
 21
115.3970147303516
 31
0.0
  0
LINE
  5
2420
330
1F
100
AcDbEntity
  8
HEWI
  6
IMPORT
 62
     7
100
AcDbLine
 10
1199.159983040646
 20
114.5859337977344
 30
0.0
 11
1199.810291172818
 21
115.3970147303516
 31
0.0
  0
LINE
  5
2421
330
1F
100
AcDbEntity
  8
HEWI
  6
IMPORT
 62
     7
100
AcDbLine
 10
879.8459328317091
 20
99.32397853650355
 30
0.0
 11
880.7502831124709
 21
98.5107995203905
 31
0.0
  0
LINE
  5
2422
330
1F
100
AcDbEntity
  8
HEWI
  6
IMPORT
 62
     7
100
AcDbLine
 10
919.8459328317094
 20
99.32397853650355
 30
0.0
 11
920.7502831124706
 21
98.5107995203905
 31
0.0
  0
LINE
  5
2423
330
1F
100
AcDbEntity
  8
HEWI
  6
IMPORT
 62
     7
100
AcDbLine
 10
959.8459328317094
 20
99.32397853650355
 30
0.0
 11
960.7502831124707
 21
98.5107995203905
 31
0.0
  0
LINE
  5
2424
330
1F
100
AcDbEntity
  8
HEWI
  6
IMPORT
 62
     7
100
AcDbLine
 10
999.8459328317089
 20
99.32397853650355
 30
0.0
 11
1000.750283112471
 21
98.5107995203905
 31
0.0
  0
LINE
  5
2425
330
1F
100
AcDbEntity
  8
HEWI
  6
IMPORT
 62
     7
100
AcDbLine
 10
1039.845942368452
 20
99.32397853650355
 30
0.0
 11
1040.750292649214
 21
98.5107995203905
 31
0.0
  0
LINE
  5
2426
330
1F
100
AcDbEntity
  8
HEWI
  6
IMPORT
 62
     7
100
AcDbLine
 10
1079.845942368452
 20
99.32397853650355
 30
0.0
 11
1080.750292649214
 21
98.5107995203905
 31
0.0
  0
LINE
  5
2427
330
1F
100
AcDbEntity
  8
HEWI
  6
IMPORT
 62
     7
100
AcDbLine
 10
1119.845937600081
 20
99.32397853650355
 30
0.0
 11
1120.750287880842
 21
98.5107995203905
 31
0.0
  0
LINE
  5
2428
330
1F
100
AcDbEntity
  8
HEWI
  6
IMPORT
 62
     7
100
AcDbLine
 10
1159.845938792173
 20
99.32397853650355
 30
0.0
 11
1160.750289072935
 21
98.5107995203905
 31
0.0
  0
LINE
  5
2429
330
1F
100
AcDbEntity
  8
HEWI
  6
IMPORT
 62
     7
100
AcDbLine
 10
1199.845939984266
 20
99.32397853650355
 30
0.0
 11
1200.750290265028
 21
98.5107995203905
 31
0.0
  0
LINE
  5
242A
330
1F
100
AcDbEntity
  8
HEWI
  6
IMPORT
 62
     7
100
AcDbLine
 10
1230.520392177026
 20
113.8537026575975
 30
0.0
 11
1234.5203931307
 21
113.8537026575975
 31
0.0
  0
LINE
  5
242B
330
1F
100
AcDbEntity
  8
HEWI
  6
IMPORT
 62
     7
100
AcDbLine
 10
1231.920393226068
 20
138.8537026575975
 30
0.0
 11
1233.120392081659
 21
138.8537026575975
 31
0.0
  0
LINE
  5
242C
330
1F
100
AcDbEntity
  8
HEWI
  6
IMPORT
 62
     7
100
AcDbLine
 10
1233.182510123759
 20
87.85367976941348
 30
0.0
 11
1234.38250897935
 21
87.85367976941348
 31
0.0
  0
LINE
  5
242D
330
1F
100
AcDbEntity
  8
HEWI
  6
IMPORT
 62
     7
100
AcDbLine
 10
1235.718020186931
 20
99.9658776453905
 30
0.0
 11
1235.975788817912
 21
99.86665736951136
 31
0.0
  0
LINE
  5
242E
330
1F
100
AcDbEntity
  8
HEWI
  6
IMPORT
 62
     7
100
AcDbLine
 10
1231.589218364268
 20
99.86665736951136
 30
0.0
 11
1232.040299163371
 21
99.9889947108204
 31
0.0
  0
LINE
  5
242F
330
1F
100
AcDbEntity
  8
HEWI
  6
IMPORT
 62
     7
100
AcDbLine
 10
1233.270708308726
 20
100.1360512904095
 30
0.0
 11
1234.4843685489
 21
100.1133156947076
 31
0.0
  0
LINE
  5
2430
330
1F
100
AcDbEntity
  8
HEWI
  6
IMPORT
 62
     7
100
AcDbLine
 10
1227.520392653863
 20
116.3537026575975
 30
0.0
 11
1227.520392653863
 21
135.1152230433395
 31
0.0
  0
LINE
  5
2431
330
1F
100
AcDbEntity
  8
HEWI
  6
IMPORT
 62
     7
100
AcDbLine
 10
1228.782509551555
 20
91.59219753064462
 30
0.0
 11
1228.782509551555
 21
104.1721917323045
 31
0.0
  0
LINE
  5
2432
330
1F
100
AcDbEntity
  8
HEWI
  6
IMPORT
 62
     7
100
AcDbLine
 10
1237.520392653863
 20
116.3537026575975
 30
0.0
 11
1237.520392653863
 21
135.1152230433395
 31
0.0
  0
LINE
  5
2433
330
1F
100
AcDbEntity
  8
HEWI
  6
IMPORT
 62
     7
100
AcDbLine
 10
1238.782509551555
 20
91.59219753064462
 30
0.0
 11
1238.782509551555
 21
104.1721917323045
 31
0.0
  0
LINE
  5
2434
330
1F
100
AcDbEntity
  8
HEWI
  6
IMPORT
 62
     7
100
AcDbLine
 10
1229.332989440471
 20
98.5107995203905
 30
0.0
 11
1230.237339721233
 21
99.32397853650355
 31
0.0
  0
LINE
  5
2435
330
1F
100
AcDbEntity
  8
HEWI
  6
IMPORT
 62
     7
100
AcDbLine
 10
1227.748752353112
 20
115.3970147303516
 30
0.0
 11
1228.399072406213
 21
114.5859337977344
 31
0.0
  0
LINE
  5
2436
330
1F
100
AcDbEntity
  8
HEWI
  6
IMPORT
 62
     7
100
AcDbLine
 10
1236.231661555688
 20
137.7587319544725
 30
0.0
 11
1237.185462233941
 21
136.5458871058395
 31
0.0
  0
LINE
  5
2437
330
1F
100
AcDbEntity
  8
HEWI
  6
IMPORT
 62
     7
100
AcDbLine
 10
1229.117439971477
 20
90.16153346814462
 30
0.0
 11
1230.071238265544
 21
88.94868861951136
 31
0.0
  0
LINE
  5
2438
330
1F
100
AcDbEntity
  8
HEWI
  6
IMPORT
 62
     7
100
AcDbLine
 10
1236.06630919984
 20
88.13825618542955
 30
0.0
 11
1237.49377845338
 21
88.94868861951136
 31
0.0
  0
LINE
  5
2439
330
1F
100
AcDbEntity
  8
HEWI
  6
IMPORT
 62
     7
100
AcDbLine
 10
1228.809121367853
 20
137.7587319544725
 30
0.0
 11
1230.236581084649
 21
138.5691262415814
 31
0.0
  0
LINE
  5
243A
330
1F
100
AcDbEntity
  8
HEWI
  6
IMPORT
 62
     7
100
AcDbLine
 10
1235.668442962091
 20
114.0440179041795
 30
0.0
 11
1236.641712901513
 21
114.5859337977344
 31
0.0
  0
LINE
  5
243B
330
1F
100
AcDbEntity
  8
HEWI
  6
IMPORT
 62
     7
100
AcDbLine
 10
1238.232020125895
 20
98.5107995203905
 30
0.0
 11
1238.447579131633
 21
98.02057277478548
 31
0.0
  0
LINE
  5
243C
330
1F
100
AcDbEntity
  8
HEWI
  6
IMPORT
 62
     7
100
AcDbLine
 10
1230.237339721233
 20
99.32397853650355
 30
0.0
 11
1231.589218364268
 21
99.86665736951136
 31
0.0
  0
LINE
  5
243D
330
1F
100
AcDbEntity
  8
HEWI
  6
IMPORT
 62
     7
100
AcDbLine
 10
1238.447579131633
 20
98.02057277478548
 30
0.0
 11
1238.782509551555
 21
97.0089150599415
 31
0.0
  0
LINE
  5
243E
330
1F
100
AcDbEntity
  8
HEWI
  6
IMPORT
 62
     7
100
AcDbLine
 10
1237.185462233941
 20
136.5458871058395
 30
0.0
 11
1237.520392653863
 21
135.1152230433395
 31
0.0
  0
LINE
  5
243F
330
1F
100
AcDbEntity
  8
HEWI
  6
IMPORT
 62
     7
100
AcDbLine
 10
1228.782509551555
 20
91.59219753064462
 30
0.0
 11
1229.117439971477
 21
90.16153346814462
 31
0.0
  0
LINE
  5
2440
330
1F
100
AcDbEntity
  8
HEWI
  6
IMPORT
 62
     7
100
AcDbLine
 10
1227.520392653863
 20
116.3537026575975
 30
0.0
 11
1227.748752353112
 21
115.3970147303516
 31
0.0
  0
LINE
  5
2441
330
1F
100
AcDbEntity
  8
HEWI
  6
IMPORT
 62
     7
100
AcDbLine
 10
1234.38250897935
 20
87.85367976941348
 30
0.0
 11
1236.06630919984
 21
88.13825618542955
 31
0.0
  0
LINE
  5
2442
330
1F
100
AcDbEntity
  8
HEWI
  6
IMPORT
 62
     7
100
AcDbLine
 10
1230.236581084649
 20
138.5691262415814
 30
0.0
 11
1231.920393226068
 21
138.8537026575975
 31
0.0
  0
LINE
  5
2443
330
1F
100
AcDbEntity
  8
HEWI
  6
IMPORT
 62
     7
100
AcDbLine
 10
1234.5203931307
 20
113.8537026575975
 30
0.0
 11
1235.668442962091
 21
114.0440179041795
 31
0.0
  0
LINE
  5
2444
330
1F
100
AcDbEntity
  8
HEWI
  6
IMPORT
 62
     7
100
AcDbLine
 10
1232.040299163371
 20
99.9889947108204
 30
0.0
 11
1233.270708308726
 21
100.1360512904095
 31
0.0
  0
LINE
  5
2445
330
1F
100
AcDbEntity
  8
HEWI
  6
IMPORT
 62
     7
100
AcDbLine
 10
1234.4843685489
 20
100.1133156947076
 30
0.0
 11
1235.718020186931
 21
99.9658776453905
 31
0.0
  0
LINE
  5
2446
330
1F
100
AcDbEntity
  8
HEWI
  6
IMPORT
 62
     7
100
AcDbLine
 10
1233.120392081659
 20
138.8537026575975
 30
0.0
 11
1234.804192302148
 21
138.5691262415814
 31
0.0
  0
LINE
  5
2447
330
1F
100
AcDbEntity
  8
HEWI
  6
IMPORT
 62
     7
100
AcDbLine
 10
1231.498697982341
 20
88.13825618542955
 30
0.0
 11
1233.182510123759
 21
87.85367976941348
 31
0.0
  0
LINE
  5
2448
330
1F
100
AcDbEntity
  8
HEWI
  6
IMPORT
 62
     7
100
AcDbLine
 10
1229.372342345636
 20
114.0440179041795
 30
0.0
 11
1230.520392177026
 21
113.8537026575975
 31
0.0
  0
LINE
  5
2449
330
1F
100
AcDbEntity
  8
HEWI
  6
IMPORT
 62
     7
100
AcDbLine
 10
1238.447579131633
 20
90.16153346814462
 30
0.0
 11
1238.782509551555
 21
91.59219753064462
 31
0.0
  0
LINE
  5
244A
330
1F
100
AcDbEntity
  8
HEWI
  6
IMPORT
 62
     7
100
AcDbLine
 10
1227.520392653863
 20
135.1152230433395
 30
0.0
 11
1227.855323073785
 21
136.5458871058395
 31
0.0
  0
LINE
  5
244B
330
1F
100
AcDbEntity
  8
HEWI
  6
IMPORT
 62
     7
100
AcDbLine
 10
1237.292021033685
 20
115.3970147303516
 30
0.0
 11
1237.520392653863
 21
116.3537026575975
 31
0.0
  0
LINE
  5
244C
330
1F
100
AcDbEntity
  8
HEWI
  6
IMPORT
 62
     7
100
AcDbLine
 10
1228.782509551555
 20
97.0089150599415
 30
0.0
 11
1229.117439971477
 21
98.02057277478548
 31
0.0
  0
LINE
  5
244D
330
1F
100
AcDbEntity
  8
HEWI
  6
IMPORT
 62
     7
100
AcDbLine
 10
1235.975788817912
 20
99.86665736951136
 30
0.0
 11
1237.327669845134
 21
99.32397853650355
 31
0.0
  0
LINE
  5
244E
330
1F
100
AcDbEntity
  8
HEWI
  6
IMPORT
 62
     7
100
AcDbLine
 10
1229.117439971477
 20
98.02057277478548
 30
0.0
 11
1229.332989440471
 21
98.5107995203905
 31
0.0
  0
LINE
  5
244F
330
1F
100
AcDbEntity
  8
HEWI
  6
IMPORT
 62
     7
100
AcDbLine
 10
1228.399072406213
 20
114.5859337977344
 30
0.0
 11
1229.372342345636
 21
114.0440179041795
 31
0.0
  0
LINE
  5
2450
330
1F
100
AcDbEntity
  8
HEWI
  6
IMPORT
 62
     7
100
AcDbLine
 10
1234.804192302148
 20
138.5691262415814
 30
0.0
 11
1236.231661555688
 21
137.7587319544725
 31
0.0
  0
LINE
  5
2451
330
1F
100
AcDbEntity
  8
HEWI
  6
IMPORT
 62
     7
100
AcDbLine
 10
1230.071238265544
 20
88.94868861951136
 30
0.0
 11
1231.498697982341
 21
88.13825618542955
 31
0.0
  0
LINE
  5
2452
330
1F
100
AcDbEntity
  8
HEWI
  6
IMPORT
 62
     7
100
AcDbLine
 10
1237.49377845338
 20
88.94868861951136
 30
0.0
 11
1238.447579131633
 21
90.16153346814462
 31
0.0
  0
LINE
  5
2453
330
1F
100
AcDbEntity
  8
HEWI
  6
IMPORT
 62
     7
100
AcDbLine
 10
1227.855323073785
 20
136.5458871058395
 30
0.0
 11
1228.809121367853
 21
137.7587319544725
 31
0.0
  0
LINE
  5
2454
330
1F
100
AcDbEntity
  8
HEWI
  6
IMPORT
 62
     7
100
AcDbLine
 10
1236.641712901513
 20
114.5859337977344
 30
0.0
 11
1237.292021033685
 21
115.3970147303516
 31
0.0
  0
LINE
  5
2455
330
1F
100
AcDbEntity
  8
HEWI
  6
IMPORT
 62
     7
100
AcDbLine
 10
1237.327669845134
 20
99.32397853650355
 30
0.0
 11
1238.232020125895
 21
98.5107995203905
 31
0.0
  0
LINE
  5
2456
330
1F
100
AcDbEntity
  8
HEWI
  6
IMPORT
 62
     7
100
AcDbLine
 10
1200.638662220791
 20
129.1721917323045
 30
0.0
 11
1227.520392653863
 21
129.1721917323045
 31
0.0
  0
LWPOLYLINE
  5
2458
330
1F
100
AcDbEntity
  8
HEWI
100
AcDbPolyline
 90
        3
 70
     0
 43
0.0
 10
1683.120053996297
 20
1603.672191731741
 10
1670.620053995734
 20
1603.672191731741
 10
1670.620053995734
 20
1603.669666008492
  0
LWPOLYLINE
  5
2459
330
1F
100
AcDbEntity
  8
HEWI
100
AcDbPolyline
 90
        2
 70
     0
 43
0.0
 10
1670.620053995734
 20
1591.669665763529
 10
1670.620053995734
 20
221.025600786209
  0
LINE
  5
245A
330
1F
100
AcDbEntity
  8
HEWI
100
AcDbLine
 10
1648.122277346628
 20
1592.665119931338
 30
0.0
 11
1648.120054710213
 21
1603.665119706788
 31
0.0
  0
LINE
  5
245B
330
1F
100
AcDbEntity
  8
HEWI
100
AcDbLine
 10
1648.120054710213
 20
1603.665119706788
 30
0.0
 11
1718.120053281255
 21
1603.679263756695
 31
0.0
  0
LINE
  5
245C
330
1F
100
AcDbEntity
  8
HEWI
100
AcDbLine
 10
1718.120053281255
 20
1603.679263756695
 30
0.0
 11
1718.122275917668
 21
1592.679263981246
 31
0.0
  0
LWPOLYLINE
  5
245D
330
1F
100
AcDbEntity
  8
HEWI
100
AcDbPolyline
 90
        2
 70
     0
 43
0.0
 10
1717.122477995938
 20
1591.679061943804
 10
1649.12247938407
 20
1591.665322009609
  0
ARC
  5
245E
330
1F
100
AcDbEntity
  8
HEWI
100
AcDbCircle
 10
1649.122277326214
 20
1592.665321989195
 30
0.0
 40
1.0
100
AcDbArc
 50
180.0115770624369
 51
270.0115770624369
  0
ARC
  5
245F
330
1F
100
AcDbEntity
  8
HEWI
100
AcDbCircle
 10
1717.122275938082
 20
1592.679061923389
 30
0.0
 40
1.0
100
AcDbArc
 50
270.0115770624369
 51
0.0115770624369365
  0
LINE
  5
254D
330
1F
100
AcDbEntity
  8
DECKENABH
100
AcDbLine
 10
1615.273750727976
 20
2318.124439823553
 30
0.0
 11
1685.273750727976
 21
2318.124439823553
 31
0.0
  0
LINE
  5
254E
330
1F
100
AcDbEntity
  8
DECKENABH
100
AcDbLine
 10
1618.320015376413
 20
2303.124439823553
 30
0.0
 11
1682.227447932566
 21
2303.124439823553
 31
0.0
  0
LINE
  5
2555
330
1F
100
AcDbEntity
  8
DECKENABH
100
AcDbLine
 10
1638.273546110774
 20
1858.624621199575
 30
0.0
 11
1662.273561369563
 21
1858.624621199575
 31
0.0
  0
LINE
  5
2556
330
1F
100
AcDbEntity
  8
DECKENABH
100
AcDbLine
 10
1640.304414641047
 20
1844.624605940786
 30
0.0
 11
1660.24269283929
 21
1844.624605940786
 31
0.0
  0
LINE
  5
255B
330
1F
100
AcDbEntity
  8
DECKENABH
100
AcDbLine
 10
1615.273750727976
 20
2306.124470341132
 30
0.0
 11
1615.273750727976
 21
2318.124439823553
 31
0.0
  0
LINE
  5
255C
330
1F
100
AcDbEntity
  8
DECKENABH
100
AcDbLine
 10
1685.273750727976
 20
2306.124470341132
 30
0.0
 11
1685.273750727976
 21
2318.124439823553
 31
0.0
  0
LINE
  5
2567
330
1F
100
AcDbEntity
  8
DECKENABH
100
AcDbLine
 10
1640.304414641047
 20
1844.624605940786
 30
0.0
 11
1640.304414641047
 21
1858.624621199575
 31
0.0
  0
LINE
  5
2568
330
1F
100
AcDbEntity
  8
DECKENABH
100
AcDbLine
 10
1660.24269283929
 20
1844.624605940786
 30
0.0
 11
1660.24269283929
 21
1858.624621199575
 31
0.0
  0
LINE
  5
2569
330
1F
100
AcDbEntity
  8
DECKENABH
100
AcDbLine
 10
1644.366113554622
 20
1830.624628828969
 30
0.0
 11
1644.366113554622
 21
1844.624605940786
 31
0.0
  0
LINE
  5
256A
330
1F
100
AcDbEntity
  8
DECKENABH
100
AcDbLine
 10
1656.180993925715
 20
1830.624628828969
 30
0.0
 11
1656.180993925715
 21
1844.624605940786
 31
0.0
  0
LINE
  5
257A
330
1F
100
AcDbEntity
  8
DECKENABH
100
AcDbLine
 10
1615.505646174753
 20
2304.976399052069
 30
0.0
 11
1616.165970271433
 21
2304.003117191717
 31
0.0
  0
LINE
  5
257B
330
1F
100
AcDbEntity
  8
DECKENABH
100
AcDbLine
 10
1683.393219416941
 20
2303.352787601875
 30
0.0
 11
1684.381531184519
 21
2304.003117191717
 31
0.0
  0
LINE
  5
258A
330
1F
100
AcDbEntity
  8
DECKENABH
100
AcDbLine
 10
1615.273750727976
 20
2306.124470341132
 30
0.0
 11
1615.505646174753
 21
2304.976399052069
 31
0.0
  0
LINE
  5
258B
330
1F
100
AcDbEntity
  8
DECKENABH
100
AcDbLine
 10
1682.227447932566
 20
2303.124439823553
 30
0.0
 11
1683.393219416941
 21
2303.352787601875
 31
0.0
  0
LINE
  5
259D
330
1F
100
AcDbEntity
  8
DECKENABH
100
AcDbLine
 10
1685.041855281198
 20
2304.976399052069
 30
0.0
 11
1685.273750727976
 21
2306.124470341132
 31
0.0
  0
LINE
  5
259E
330
1F
100
AcDbEntity
  8
DECKENABH
100
AcDbLine
 10
1617.154282039011
 20
2303.352787601875
 30
0.0
 11
1618.320015376413
 21
2303.124439823553
 31
0.0
  0
LINE
  5
25B0
330
1F
100
AcDbEntity
  8
DECKENABH
100
AcDbLine
 10
1616.165970271433
 20
2304.003117191717
 30
0.0
 11
1617.154282039011
 21
2303.352787601875
 31
0.0
  0
LINE
  5
25B1
330
1F
100
AcDbEntity
  8
DECKENABH
100
AcDbLine
 10
1684.381531184519
 20
2304.003117191717
 30
0.0
 11
1685.041855281198
 21
2304.976399052069
 31
0.0
  0
ARC
  5
2720
330
1F
100
AcDbEntity
  8
0
100
AcDbCircle
 10
1575.672169431179
 20
224.1719028562275
 30
0.0
 40
119.9999999999999
100
AcDbArc
 50
269.8742804310954
 51
297.3948841352177
  0
ARC
  5
2721
330
1F
100
AcDbEntity
  8
0
100
AcDbCircle
 10
1575.672169431179
 20
224.1719028562276
 30
0.0
 40
95.0
100
AcDbArc
 50
269.8587033951711
 51
295.3278534621021
  0
LWPOLYLINE
  5
273E
330
1F
100
AcDbEntity
  8
HEWI
100
AcDbPolyline
 90
        2
 70
     0
 43
0.0
 10
1575.437891025909
 20
129.1721917323045
 10
1237.526346177324
 20
129.1721917323045
  0
LWPOLYLINE
  5
2740
330
1F
100
AcDbEntity
  8
HEWI
100
AcDbPolyline
 90
        2
 70
     0
 43
0.0
 10
1695.620053995734
 20
220.6356635419256
 10
1695.620053995734
 20
1591.674717210027
  0
CIRCLE
  5
2750
330
1F
100
AcDbEntity
  8
0
100
AcDbCircle
 10
1650.273750727976
 20
146.7691258348208
 30
0.0
 40
35.0
  0
CIRCLE
  5
2751
330
1F
100
AcDbEntity
  8
MITTELLINIE
100
AcDbCircle
 10
1650.273750727976
 20
146.7691258348207
 30
0.0
 40
12.5
  0
ARC
  5
2753
330
1F
100
AcDbEntity
  8
0
100
AcDbCircle
 10
1575.672169431179
 20
224.1719028562276
 30
0.0
 40
95.0
100
AcDbArc
 50
332.5606475050756
 51
1.897924223934577
  0
ARC
  5
2754
330
1F
100
AcDbEntity
  8
0
100
AcDbCircle
 10
1575.672169431179
 20
224.1719028562275
 30
0.0
 40
119.9999999999999
100
AcDbArc
 50
330.4936168319617
 51
358.311325631329
  0
ARC
  5
2769
330
1F
100
AcDbEntity
  8
0
100
AcDbCircle
 10
1683.120053995734
 20
1818.124439823553
 30
0.0
 40
35.0
100
AcDbArc
 50
200.9205829514792
 51
260.9803960458478
  0
ARC
  5
276C
330
1F
100
AcDbEntity
  8
HEWI
100
AcDbCircle
 10
1683.120053996297
 20
1818.124439823553
 30
0.0
 40
12.5
100
AcDbArc
 50
268.8714569326487
 51
89.99958292598824
  0
LWPOLYLINE
  5
277B
330
1F
100
AcDbEntity
  8
DECKENABH
100
AcDbPolyline
 90
        4
 70
     0
 43
0.0
 10
1637.773553740168
 20
2303.124439823553
 10
1637.773553740168
 20
1858.624621199575
 10
1662.773553740169
 20
1858.624621199575
 10
1662.773553740169
 20
2303.124439823553
  0
LINE
  5
2824
330
1F
100
AcDbEntity
  8
HEWI
100
AcDbLine
 10
1677.633020102651
 20
1773.020273449354
 30
0.0000000000000005
 11
1677.633020102651
 21
1789.934128512417
 31
0.0000000000000005
210
0.0
220
1.0
230
0.0
  0
ARC
  5
2825
330
1F
100
AcDbEntity
  8
HEWI
100
AcDbCircle
 10
1683.033020102651
 20
1773.020273449354
 30
-0.0000000000000002
 40
5.4
100
AcDbArc
 50
180.0
 51
0.0
  0
LINE
  5
2826
330
1F
100
AcDbEntity
  8
HEWI
100
AcDbLine
 10
1688.433020102651
 20
1773.020273449354
 30
-0.0000000000000008
 11
1688.433020102651
 21
1780.220273449354
 31
-0.0000000000000008
210
0.0
220
1.0
230
0.0
  0
ARC
  5
2827
330
1F
100
AcDbEntity
  8
HEWI
100
AcDbCircle
 10
1687.533020102651
 20
1780.220273449354
 30
-0.0000000000000007
 40
0.9
100
AcDbArc
 50
0.0
 51
90.0
  0
LINE
  5
2828
330
1F
100
AcDbEntity
  8
HEWI
100
AcDbLine
 10
1687.533020102651
 20
1781.120273449354
 30
-0.0000000000000007
 11
1687.018306170025
 21
1781.120273449354
 31
-0.0000000000000006
210
0.0
220
1.0
230
0.0
  0
ARC
  5
2829
330
1F
100
AcDbEntity
  8
HEWI
100
AcDbCircle
 10
1689.305920484079
 20
1777.245119162085
 30
-0.0000000000000009
 40
4.499999999999999
100
AcDbArc
 50
120.5545677147957
 51
215.8181402674228
  0
ARC
  5
282A
330
1F
100
AcDbEntity
  8
HEWI
100
AcDbCircle
 10
1683.472223929593
 20
1773.025180697572
 30
-0.0000000000000002
 40
2.7
100
AcDbArc
 50
151.0274090051415
 51
35.98566200571627
  0
ARC
  5
282B
330
1F
100
AcDbEntity
  8
HEWI
100
AcDbCircle
 10
1677.183020102651
 20
1776.530273449354
 30
0.0000000000000005
 40
4.5
100
AcDbArc
 50
330.7727478419838
 51
0.0
  0
LINE
  5
282C
330
1F
100
AcDbEntity
  8
HEWI
100
AcDbLine
 10
1681.68302010265
 20
1776.530273449354
 30
0.0
 11
1681.68302010265
 21
1789.596563797134
 31
0.0
210
0.0
220
1.0
230
0.0
  0
ARC
  5
282D
330
1F
100
AcDbEntity
  8
HEWI
100
AcDbCircle
 10
1681.863020102651
 20
1816.220273449354
 30
0.0
 40
26.62431812546027
100
AcDbArc
 50
260.8582628013162
 51
269.6126353797676
  0
ARC
  5
282E
330
1F
100
AcDbEntity
  8
HEWI
100
AcDbCircle
 10
1700.414076182775
 20
1828.952449944836
 30
-0.0000000000000023
 40
4.5
100
AcDbArc
 50
34.4630409671894
 51
214.4630409671935
  0
ARC
  5
282F
330
1F
100
AcDbEntity
  8
HEWI
100
AcDbCircle
 10
1672.519217108926
 20
1836.688379019105
 30
0.0000000000000012
 40
4.499999999999999
100
AcDbArc
 50
294.5369590328297
 51
114.5369590328297
  0
ARC
  5
2830
330
1F
100
AcDbEntity
  8
HEWI
100
AcDbCircle
 10
1681.863020102651
 20
1816.220273449354
 30
0.0
 40
18.0
100
AcDbArc
 50
235.5884913302331
 51
34.4630409671935
  0
ARC
  5
2831
330
1F
100
AcDbEntity
  8
HEWI
100
AcDbCircle
 10
1681.863020102651
 20
1816.220273449354
 30
0.0
 40
27.0
100
AcDbArc
 50
269.618025307102
 51
34.4630409671894
  0
ARC
  5
2832
330
1F
100
AcDbEntity
  8
HEWI
100
AcDbCircle
 10
1681.863020102651
 20
1816.220273449354
 30
0.0
 40
27.0
100
AcDbArc
 50
114.5369590328297
 51
146.6329870307754
  0
ARC
  5
2833
330
1F
100
AcDbEntity
  8
HEWI
100
AcDbCircle
 10
1681.863020102651
 20
1816.220273449354
 30
0.0
 40
27.0
100
AcDbArc
 50
269.618025307102
 51
34.4630409671935
  0
ARC
  5
2834
330
1F
100
AcDbEntity
  8
HEWI
100
AcDbCircle
 10
1681.863020102651
 20
1816.220273449354
 30
0.0
 40
18.0
100
AcDbArc
 50
114.5369590328294
 51
34.4630409671935
  0
LINE
  5
2835
330
1F
100
AcDbEntity
  8
HEWI
100
AcDbLine
 10
1681.683020102651
 20
1776.530273449354
 30
0.0
 11
1681.683020102651
 21
1789.596563797134
 31
0.0
210
0.0
220
1.0
230
0.0
  0
ARC
  5
2836
330
1F
100
AcDbEntity
  8
HEWI
100
AcDbCircle
 10
1689.305920484079
 20
1777.245119162085
 30
-0.0000000000000009
 40
4.499999999999999
100
AcDbArc
 50
120.5545677147957
 51
215.8181402674228
  0
LINE
  5
2837
330
1F
100
AcDbEntity
  8
HEWI
100
AcDbLine
 10
1688.433020102651
 20
1773.020273449354
 30
-0.0000000000000008
 11
1688.433020102651
 21
1780.220273449354
 31
-0.0000000000000008
210
0.0
220
1.0
230
0.0
  0
LINE
  5
2838
330
1F
100
AcDbEntity
  8
HEWI
100
AcDbLine
 10
1677.633020102651
 20
1773.020273449354
 30
0.0000000000000005
 11
1677.633020102651
 21
1789.934128512416
 31
0.0000000000000005
210
0.0
220
1.0
230
0.0
  0
ARC
  5
2839
330
1F
100
AcDbEntity
  8
HEWI
100
AcDbCircle
 10
1677.183020102651
 20
1776.530273449354
 30
0.0000000000000005
 40
4.5
100
AcDbArc
 50
330.7727478419838
 51
0.0
  0
ARC
  5
283A
330
1F
100
AcDbEntity
  8
HEWI
100
AcDbCircle
 10
1683.472223929594
 20
1773.025180697572
 30
-0.0000000000000002
 40
2.7
100
AcDbArc
 50
151.0274090051415
 51
35.98566200571627
  0
ARC
  5
283B
330
1F
100
AcDbEntity
  8
HEWI
100
AcDbCircle
 10
1683.033020102651
 20
1773.020273449354
 30
-0.0000000000000002
 40
5.4
100
AcDbArc
 50
180.0
 51
0.0
  0
ARC
  5
283C
330
1F
100
AcDbEntity
  8
HEWI
100
AcDbCircle
 10
1681.863020102651
 20
1816.220273449354
 30
0.0
 40
27.0
100
AcDbArc
 50
182.72074726306
 51
260.9865297376966
  0
ARC
  5
283D
330
1F
100
AcDbEntity
  8
HEWI
100
AcDbCircle
 10
1681.863020102651
 20
1816.220273449354
 30
0.0
 40
26.62431812546027
100
AcDbArc
 50
260.8582628013162
 51
269.6126353797676
  0
LINE
  5
283E
330
1F
100
AcDbEntity
  8
HEWI
100
AcDbLine
 10
1687.533020102651
 20
1781.120273449354
 30
-0.0000000000000007
 11
1687.018306170025
 21
1781.120273449354
 31
-0.0000000000000006
210
0.0
220
1.0
230
0.0
  0
ARC
  5
283F
330
1F
100
AcDbEntity
  8
HEWI
100
AcDbCircle
 10
1687.533020102651
 20
1780.220273449354
 30
-0.0000000000000007
 40
0.9
100
AcDbArc
 50
0.0
 51
90.0
  0
ARC
  5
2840
330
1F
100
AcDbEntity
  8
HEWI
100
AcDbCircle
 10
1681.863020102651
 20
1816.220273449354
 30
0.0
 40
27.0
100
AcDbArc
 50
114.5369590328297
 51
182.72074726306
  0
ARC
  5
2841
330
1F
100
AcDbEntity
  8
HEWI
100
AcDbCircle
 10
1672.519217108926
 20
1836.688379019105
 30
0.0000000000000012
 40
4.499999999999999
100
AcDbArc
 50
294.5369590328297
 51
114.5369590328297
  0
ARC
  5
2842
330
1F
100
AcDbEntity
  8
HEWI
100
AcDbCircle
 10
1700.414076182775
 20
1828.952449944835
 30
-0.0000000000000023
 40
4.5
100
AcDbArc
 50
34.4630409671935
 51
214.4630409671935
  0
LWPOLYLINE
  5
2844
330
1F
100
AcDbEntity
  8
HEWI
100
AcDbPolyline
 90
        2
 70
     0
 43
0.0
 10
1659.025872013327
 20
1830.623907266772
 10
1237.526346177324
 20
1830.626864517823
  0
LWPOLYLINE
  5
2845
330
1F
100
AcDbEntity
  8
HEWI
100
AcDbPolyline
 90
        2
 70
     0
 43
0.0
 10
1667.310367862961
 20
1805.626864517823
 10
1683.120053996297
 20
1805.626864517823
  0
ARC
  5
2846
330
1F
100
AcDbEntity
  8
0
100
AcDbCircle
 10
1683.120053995734
 20
1818.124439823553
 30
0.0
 40
35.0
100
AcDbArc
 50
267.6468820602813
 51
159.0747655837645
  0
ENDSEC
  0
SECTION
  2
OBJECTS
  0
DICTIONARY
  5
C
330
0
100
AcDbDictionary
281
     1
  3
ACAD_CIP_PREVIOUS_PRODUCT_INFO
350
1CC
  3
ACAD_COLOR
350
1AC
  3
ACAD_DETAILVIEWSTYLE
350
1C6
  3
ACAD_GROUP
350
D
  3
ACAD_LAYOUT
350
1A
  3
ACAD_MATERIAL
350
17A
  3
ACAD_MLEADERSTYLE
350
1C1
  3
ACAD_MLINESTYLE
350
17
  3
ACAD_PLOTSETTINGS
350
19
  3
ACAD_PLOTSTYLENAME
350
DF
  3
ACAD_SCALELIST
350
1AF
  3
ACAD_SECTIONVIEWSTYLE
350
1C3
  3
ACAD_TABLESTYLE
350
1AD
  3
ACAD_VISUALSTYLE
350
193
  3
ACDB_RECOMPOSE_DATA
350
2C6F
  3
AcDbVariableDictionary
350
2CB
  3
AcDsDecomposeData
350
2C75
  0
DICTIONARY
  5
1E1
330
2
100
AcDbDictionary
280
     1
281
     1
  3
ACAD_LAYERSTATES
360
1E2
  0
DICTIONARY
  5
1CD
330
10
100
AcDbDictionary
280
     1
281
     1
  3
ADSK_XREC_LAYER_RECONCILED
360
1CE
  0
DICTIONARY
  5
D9
330
1F
100
AcDbDictionary
280
     1
281
     1
  3
ACAD_LAYOUTSELFREF
360
177
  3
ACAD_SORTENTS
360
292
  0
DICTIONARY
  5
D7
330
1B
100
AcDbDictionary
280
     1
281
     1
  3
ACAD_LAYOUTSELFREF
360
176
  0
XRECORD
  5
1CC
102
{ACAD_REACTORS
330
C
102
}
330
C
100
AcDbXrecord
280
     1
300
ACDLT
300
2013
300
ACDLT_F_S
  0
DICTIONARY
  5
1AC
102
{ACAD_REACTORS
330
C
102
}
330
C
100
AcDbDictionary
281
     1
  0
DICTIONARY
  5
1C6
102
{ACAD_REACTORS
330
C
102
}
330
C
100
AcDbDictionary
281
     1
  3
Imperial24
350
1C7
  0
DICTIONARY
  5
D
102
{ACAD_REACTORS
330
C
102
}
330
C
100
AcDbDictionary
281
     1
  0
DICTIONARY
  5
1A
102
{ACAD_REACTORS
330
C
102
}
330
C
100
AcDbDictionary
281
     1
  3
Layout1
350
1C9
  3
Model
350
1C8
  0
DICTIONARY
  5
17A
102
{ACAD_REACTORS
330
C
102
}
330
C
100
AcDbDictionary
281
     1
  3
ByBlock
350
183
  3
ByLayer
350
17B
  3
Global
350
18B
  0
DICTIONARY
  5
1C1
102
{ACAD_REACTORS
330
C
102
}
330
C
100
AcDbDictionary
281
     1
  3
Standard
350
1C2
  0
DICTIONARY
  5
17
102
{ACAD_REACTORS
330
C
102
}
330
C
100
AcDbDictionary
281
     1
  3
STANDARD
350
18
  0
DICTIONARY
  5
19
102
{ACAD_REACTORS
330
C
102
}
330
C
100
AcDbDictionary
281
     1
  0
ACDBDICTIONARYWDFLT
  5
DF
102
{ACAD_REACTORS
330
C
102
}
330
C
100
AcDbDictionary
281
     1
  3
Normal
350
E0
100
AcDbDictionaryWithDefault
340
E0
  0
DICTIONARY
  5
1AF
102
{ACAD_REACTORS
330
C
102
}
330
C
100
AcDbDictionary
281
     1
  3
A0
350
1B0
  3
A1
350
1B1
  3
A2
350
1B2
  3
A3
350
1B3
  3
A4
350
1B4
  3
A5
350
1B5
  3
A6
350
1B6
  3
A7
350
1B7
  3
A8
350
1B8
  3
A9
350
1B9
  3
B0
350
1BA
  3
B1
350
1BB
  3
B2
350
1BC
  3
B3
350
1BD
  3
B4
350
1BE
  3
B5
350
1BF
  3
B6
350
1C0
  0
DICTIONARY
  5
1C3
102
{ACAD_REACTORS
330
C
102
}
330
C
100
AcDbDictionary
281
     1
  3
Imperial24
350
1C5
  0
DICTIONARY
  5
1AD
102
{ACAD_REACTORS
330
C
102
}
330
C
100
AcDbDictionary
281
     1
  3
Standard
350
1AE
  0
DICTIONARY
  5
193
102
{ACAD_REACTORS
330
C
102
}
330
C
100
AcDbDictionary
281
     1
  3
2dWireframe
350
199
  3
Basic
350
198
  3
Brighten
350
19F
  3
ColorChange
350
1A3
  3
Conceptual
350
19C
  3
Dim
350
19E
  3
EdgeColorOff
350
1AB
  3
Facepattern
350
1A2
  3
Flat
350
194
  3
FlatWithEdges
350
195
  3
Gouraud
350
196
  3
GouraudWithEdges
350
197
  3
Hidden
350
19B
  3
JitterOff
350
1A9
  3
Linepattern
350
1A1
  3
OverhangOff
350
1AA
  3
Realistic
350
19D
  3
Shaded
350
1A8
  3
Shaded with edges
350
1A7
  3
Shades of Gray
350
1A4
  3
Sketchy
350
1A5
  3
Thicken
350
1A0
  3
Wireframe
350
19A
  3
X-Ray
350
1A6
  0
XRECORD
  5
2C6F
102
{ACAD_REACTORS
330
C
102
}
330
C
100
AcDbXrecord
280
     1
 90
        1
330
1AE
  0
DICTIONARY
  5
2CB
102
{ACAD_REACTORS
330
C
102
}
330
C
100
AcDbDictionary
281
     1
  3
CANNOSCALE
350
2D1
  3
CMLEADERSTYLE
350
2CD
  3
CTABLESTYLE
350
2CC
  3
CVIEWDETAILSTYLE
350
2CE
  3
CVIEWSECTIONSTYLE
350
2CF
  3
LAYEREVAL
350
2D3
  3
LAYERNOTIFY
350
2D4
  3
LIGHTINGUNITS
350
2D2
  3
MSLTSCALE
350
2D0
  0
DICTIONARY
  5
2C75
102
{ACAD_REACTORS
330
C
102
}
330
C
100
AcDbDictionary
281
     1
  3
AcDsRecords
350
2C77
  3
AcDsSchemas
350
2C76
1001
ACAD
1070
     2
  0
DICTIONARY
  5
1E2
102
{ACAD_REACTORS
330
1E1
102
}
330
1E1
100
AcDbDictionary
281
     1
  0
XRECORD
  5
1CE
102
{ACAD_REACTORS
330
1CD
102
}
330
1CD
100
AcDbXrecord
280
     1
290
     1
  0
XRECORD
  5
177
102
{ACAD_REACTORS
330
D9
102
}
330
D9
100
AcDbXrecord
280
     1
340
1F
  0
SORTENTSTABLE
  5
292
102
{ACAD_REACTORS
330
D9
102
}
330
D9
100
AcDbSortentsTable
330
1F
331
2440
  5
2445
331
2050
  5
2052
331
2401
  5
2406
331
1F19
  5
1F1B
331
2344
  5
2349
331
1FA3
  5
1FA5
331
1EDA
  5
1EDC
331
2305
  5
230A
331
1F64
  5
1F66
331
254D
  5
2559
331
201D
  5
201F
331
237F
  5
2384
331
1FDE
  5
1FE0
331
23BE
  5
23C3
331
2290
  5
2295
331
1EB7
  5
1EBF
331
2068
  5
206A
331
2419
  5
241E
331
235C
  5
2361
331
20A3
  5
20A5
331
1EF2
  5
1EF4
331
231D
  5
2322
331
1F7C
  5
1F7E
331
2029
  5
202B
331
22CF
  5
22D4
331
2825
  5
2828
331
1F3D
  5
1F3F
331
2397
  5
239C
331
1FF6
  5
1FF8
331
22E7
  5
22EC
331
1FB7
  5
1FB9
331
23D6
  5
23DB
331
2340
  5
2345
331
2301
  5
2306
331
1F60
  5
1F62
331
23BA
  5
23BF
331
2019
  5
201B
331
237B
  5
2380
331
22CB
  5
22D0
331
1FDA
  5
1FDC
331
228C
  5
2291
331
2454
  5
2459
331
2064
  5
2066
331
2025
  5
2027
331
2415
  5
241A
331
2358
  5
235D
331
209F
  5
20A1
331
1EEE
  5
1EF0
331
1F2D
  5
1F2F
331
1EB3
  5
1EB5
331
2319
  5
231E
331
1F78
  5
1F7A
331
23D2
  5
23D7
331
1F39
  5
1F3B
331
2393
  5
2398
331
22E3
  5
22E8
331
22A4
  5
22A9
331
1FB3
  5
1FB5
331
242D
  5
2432
331
203D
  5
203F
331
23EE
  5
23F3
331
1F06
  5
1F08
331
1EC7
  5
1EC9
331
207C
  5
207E
331
1FF2
  5
1FF4
331
2450
  5
2455
331
2060
  5
2062
331
2021
  5
2023
331
2411
  5
2416
331
2354
  5
2359
331
209B
  5
209D
331
1EEA
  5
1EEC
331
1F29
  5
1F2B
331
2315
  5
231A
331
1F74
  5
1F76
331
23CE
  5
23D3
331
238F
  5
2394
331
1FEE
  5
1FF0
331
22DF
  5
22E4
331
22A0
  5
22A5
331
1FAF
  5
1FB1
331
2429
  5
242E
331
2039
  5
203B
331
23EA
  5
23EF
331
1F02
  5
1F04
331
232D
  5
2332
331
1F8C
  5
1F8E
331
1EC3
  5
1EC5
331
2835
  5
2838
331
23A7
  5
23AC
331
2006
  5
2008
331
1FC7
  5
1FC9
331
1F4D
  5
1F4F
331
2078
  5
207A
331
1F35
  5
1F37
331
2350
  5
2355
331
2311
  5
2316
331
1F70
  5
1F72
331
23CA
  5
23CF
331
1F31
  5
1F33
331
238B
  5
2390
331
22DB
  5
22E0
331
1FEA
  5
1FEC
331
229C
  5
22A1
331
1FAB
  5
1FAD
331
2425
  5
242A
331
2035
  5
2037
331
23E6
  5
23EB
331
1EFE
  5
1F00
331
25B0
  5
2740
331
1F88
  5
1F8A
331
1EBF
  5
1EC1
331
2831
  5
2834
331
1F49
  5
1F4B
331
2329
  5
232E
331
2074
  5
2076
331
23A3
  5
23A8
331
22B4
  5
22B9
331
1FC3
  5
1FC5
331
208C
  5
208E
331
243D
  5
2442
331
23FE
  5
2403
331
1F16
  5
1F18
331
1ED7
  5
1ED9
331
204D
  5
204F
331
2002
  5
2004
331
2298
  5
229D
331
2070
  5
2072
331
2421
  5
2426
331
2031
  5
2033
331
23E2
  5
23E7
331
1EFA
  5
1EFC
331
2364
  5
2369
331
20AB
  5
228B
331
245C
  5
254D
331
1F84
  5
1F86
331
282D
  5
2830
331
1F45
  5
1F47
331
2325
  5
232A
331
239F
  5
23A4
331
1FFE
  5
2000
331
22EF
  5
22F4
331
22B0
  5
22B5
331
2088
  5
208A
331
2439
  5
243E
331
23FA
  5
23FF
331
1F12
  5
1F14
331
2753
  5
2754
331
1ED3
  5
1ED5
331
2049
  5
204B
331
233D
  5
2342
331
1F5D
  5
1F5F
331
22FE
  5
2303
331
23B7
  5
23BC
331
2016
  5
2018
331
2845
  5
1EAE
331
1F9C
  5
1F9E
331
1FBF
  5
1FC1
331
1FD7
  5
1FD9
331
23DE
  5
23E3
331
2360
  5
2365
331
2458
  5
245E
331
1F80
  5
1F82
331
2321
  5
2326
331
2829
  5
282C
331
2569
  5
257E
331
1F41
  5
1F43
331
239B
  5
23A0
331
1FFA
  5
1FFC
331
23DA
  5
23DF
331
22EB
  5
22F0
331
22AC
  5
22B1
331
2084
  5
2086
331
2435
  5
243A
331
23F6
  5
23FB
331
1F0E
  5
1F10
331
2339
  5
233E
331
1F98
  5
1F9A
331
1ECF
  5
1ED1
331
2045
  5
2047
331
2841
  5
2845
331
1F59
  5
1F5B
331
1FBB
  5
1FBD
331
23B3
  5
23B8
331
2012
  5
2014
331
2374
  5
2379
331
22C4
  5
22C9
331
1FD3
  5
1FD5
331
244D
  5
2452
331
205D
  5
205F
331
240E
  5
2413
331
1F26
  5
1F28
331
1EE7
  5
1EE9
331
1EAC
  5
1EAC
331
22FA
  5
22FF
331
22A8
  5
22AD
331
2080
  5
2082
331
2431
  5
2436
331
2041
  5
2043
331
23F2
  5
23F7
331
1F0A
  5
1F0C
331
2335
  5
233A
331
1F94
  5
1F96
331
1ECB
  5
1ECD
331
283D
  5
2840
331
1F55
  5
1F57
331
23AF
  5
23B4
331
200E
  5
2010
331
2370
  5
2375
331
22C0
  5
22C5
331
1FCF
  5
1FD1
331
2449
  5
244E
331
2059
  5
205B
331
240A
  5
240F
331
1F22
  5
1F24
331
234D
  5
2352
331
1EE3
  5
1EE5
331
2556
  5
2560
331
230E
  5
2313
331
1F6D
  5
1F6F
331
23C7
  5
23CC
331
1FE7
  5
1FE9
331
1EA8
  5
1EA8
331
22F6
  5
22FB
331
2331
  5
2336
331
1F90
  5
1F92
331
2839
  5
283C
331
1F51
  5
1F53
331
23AB
  5
23B0
331
200A
  5
200C
331
22F2
  5
22F7
331
236C
  5
2371
331
22BC
  5
22C1
331
1FCB
  5
1FCD
331
2094
  5
2096
331
2445
  5
244A
331
2055
  5
2057
331
2406
  5
240B
331
1F1E
  5
1F20
331
2349
  5
234E
331
1EDF
  5
1EE1
331
23C3
  5
23C8
331
230A
  5
230F
331
1F69
  5
1F6B
331
2384
  5
2389
331
1FE3
  5
1FE5
331
22D4
  5
22D9
331
206D
  5
206F
331
241E
  5
2423
331
1EF7
  5
1EF9
331
202E
  5
2030
331
2295
  5
229A
331
1EA4
  5
1EA4
331
2368
  5
236D
331
22B8
  5
22BD
331
2720
  5
2750
331
2090
  5
2092
331
2441
  5
2446
331
2402
  5
2407
331
1F1A
  5
1F1C
331
2051
  5
2053
331
2345
  5
234A
331
1FA4
  5
1FA6
331
1EDB
  5
1EDD
331
2306
  5
230B
331
1F65
  5
1F67
331
254E
  5
255A
331
201E
  5
2020
331
2380
  5
2385
331
1FDF
  5
1FE1
331
23BF
  5
23C4
331
2291
  5
2296
331
2069
  5
206B
331
241A
  5
241F
331
235D
  5
2362
331
20A4
  5
20A6
331
1EF3
  5
1EF5
331
231E
  5
2323
331
1F7D
  5
1F7F
331
2826
  5
2829
331
1F3E
  5
1F40
331
202A
  5
202C
331
22D0
  5
22D5
331
1FF7
  5
1FF9
331
23D7
  5
23DC
331
2341
  5
2346
331
1FA0
  5
1FA2
331
2302
  5
2307
331
1F61
  5
1F63
331
23BB
  5
23C0
331
201A
  5
201C
331
237C
  5
2381
331
22CC
  5
22D1
331
1FDB
  5
1FDD
331
228D
  5
2292
331
2455
  5
245B
331
2065
  5
2067
331
2026
  5
2028
331
2416
  5
241B
331
2359
  5
235E
331
20A0
  5
20A2
331
1EEF
  5
1EF1
331
1F2E
  5
1F30
331
1EB4
  5
1EB6
331
231A
  5
231F
331
1F79
  5
1F7B
331
23D3
  5
23D8
331
1F3A
  5
1F3C
331
2394
  5
2399
331
22E4
  5
22E9
331
22A5
  5
22AA
331
1FB4
  5
1FB6
331
242E
  5
2433
331
203E
  5
2040
331
23EF
  5
23F4
331
1F07
  5
1F09
331
207D
  5
207F
331
1FF3
  5
1FF5
331
2378
  5
237D
331
22C8
  5
22CD
331
2451
  5
2456
331
2061
  5
2063
331
1EB0
  5
1EB2
331
2412
  5
2417
331
2355
  5
235A
331
209C
  5
209E
331
1EEB
  5
1EED
331
1F2A
  5
1F2C
331
2022
  5
2024
331
259D
  5
25B4
331
1F75
  5
1F77
331
23CF
  5
23D4
331
1F36
  5
1F38
331
2390
  5
2395
331
22E0
  5
22E5
331
1FEF
  5
1FF1
331
22A1
  5
22A6
331
1FB0
  5
1FB2
331
242A
  5
242F
331
203A
  5
203C
331
23EB
  5
23F0
331
1F03
  5
1F05
331
232E
  5
2333
331
1F8D
  5
1F8F
331
1EC4
  5
1EC6
331
2836
  5
2839
331
2007
  5
2009
331
1F4E
  5
1F50
331
2079
  5
207B
331
2316
  5
231B
331
2351
  5
2356
331
2098
  5
209A
331
2312
  5
2317
331
1F71
  5
1F73
331
23CB
  5
23D0
331
1F32
  5
1F34
331
238C
  5
2391
331
22DC
  5
22E1
331
1FEB
  5
1FED
331
229D
  5
22A2
331
1FAC
  5
1FAE
331
2426
  5
242B
331
2036
  5
2038
331
23E7
  5
23EC
331
1EFF
  5
1F01
331
2740
  5
245D
331
1EC0
  5
1EC2
331
25B1
  5
2741
331
232A
  5
232F
331
2832
  5
2835
331
1F4A
  5
1F4C
331
1F89
  5
1F8B
331
2075
  5
2077
331
23A4
  5
23A9
331
22B5
  5
22BA
331
1FC4
  5
1FC6
331
208D
  5
208F
331
243E
  5
2443
331
23FF
  5
2404
331
1F17
  5
1F19
331
204E
  5
2050
331
2003
  5
2005
331
2388
  5
238D
331
22D8
  5
22DD
331
2299
  5
229E
331
1FA8
  5
1FAA
331
2071
  5
2073
331
2422
  5
2427
331
277B
  5
2826
331
1EFB
  5
1EFD
331
2365
  5
236A
331
20AC
  5
228C
331
23E3
  5
23E8
331
2032
  5
2034
331
245D
  5
254E
331
2326
  5
232B
331
282E
  5
2831
331
1F46
  5
1F48
331
23A0
  5
23A5
331
1FFF
  5
2001
331
22B1
  5
22B6
331
1FC0
  5
1FC2
331
243A
  5
243F
331
204A
  5
204C
331
23FB
  5
2400
331
1F13
  5
1F15
331
2754
  5
2751
331
1ED4
  5
1ED6
331
233E
  5
2343
331
2846
  5
2824
331
22FF
  5
2304
331
1F5E
  5
1F60
331
1F9D
  5
1F9F
331
2089
  5
208B
331
2017
  5
2019
331
23DF
  5
23E4
331
1F85
  5
1F87
331
20A8
  5
20AA
331
2361
  5
2366
331
1EB8
  5
1EC0
331
2459
  5
245F
331
1F81
  5
1F83
331
282A
  5
282D
331
256A
  5
257F
331
1F42
  5
1F44
331
2322
  5
2327
331
239C
  5
23A1
331
1FFB
  5
1FFD
331
22EC
  5
22F1
331
22AD
  5
22B2
331
2085
  5
2087
331
2436
  5
243B
331
23F7
  5
23FC
331
1F0F
  5
1F11
331
2750
  5
2769
331
1ED0
  5
1ED2
331
2046
  5
2048
331
233A
  5
233F
331
2842
  5
2846
331
1F5A
  5
1F5C
331
1F99
  5
1F9B
331
1FBC
  5
1FBE
331
23DB
  5
23E0
331
23B4
  5
23B9
331
2013
  5
2015
331
2375
  5
237A
331
22C5
  5
22CA
331
1FD4
  5
1FD6
331
244E
  5
2453
331
240F
  5
2414
331
1F27
  5
1F29
331
205E
  5
2060
331
22FB
  5
2300
331
2398
  5
239D
331
22E8
  5
22ED
331
22A9
  5
22AE
331
1FB8
  5
1FBA
331
2081
  5
2083
331
2432
  5
2437
331
23F3
  5
23F8
331
1F0B
  5
1F0D
331
2336
  5
233B
331
1F95
  5
1F97
331
1ECC
  5
1ECE
331
2042
  5
2044
331
283E
  5
2841
331
1F56
  5
1F58
331
23B0
  5
23B5
331
200F
  5
2011
331
2371
  5
2376
331
22C1
  5
22C6
331
1FD0
  5
1FD2
331
244A
  5
244F
331
205A
  5
205C
331
240B
  5
2410
331
1F23
  5
1F25
331
234E
  5
2353
331
1EE4
  5
1EE6
331
230F
  5
2314
331
1F6E
  5
1F70
331
1EA9
  5
1EA9
331
22F7
  5
22FC
331
2332
  5
2337
331
1F91
  5
1F93
331
1EC8
  5
1ECA
331
283A
  5
283D
331
257A
  5
258E
331
1F52
  5
1F54
331
23AC
  5
23B1
331
200B
  5
200D
331
22F3
  5
22F8
331
236D
  5
2372
331
22BD
  5
22C2
331
1FCC
  5
1FCE
331
2095
  5
2097
331
2446
  5
244B
331
2056
  5
2058
331
2407
  5
240C
331
1F1F
  5
1F21
331
234A
  5
234F
331
1EE0
  5
1EE2
331
23C4
  5
23C9
331
230B
  5
2310
331
1F6A
  5
1F6C
331
2385
  5
238A
331
1FE4
  5
1FE6
331
22D5
  5
22DA
331
206E
  5
2070
331
241F
  5
2424
331
202F
  5
2031
331
2296
  5
229B
331
1EA5
  5
1EA5
331
23A8
  5
23AD
331
2369
  5
236E
331
1FC8
  5
1FCA
331
22B9
  5
22BE
331
2091
  5
2093
331
2721
  5
2753
331
2442
  5
2447
331
2052
  5
2054
331
2403
  5
2408
331
1F1B
  5
1F1D
331
2346
  5
234B
331
1FA5
  5
1FA7
331
1EDC
  5
1EDE
331
2307
  5
230C
331
1F66
  5
1F68
331
23C0
  5
23C5
331
201F
  5
2021
331
2381
  5
2386
331
22D1
  5
22D6
331
1FE0
  5
1FE2
331
206A
  5
206C
331
241B
  5
2420
331
235E
  5
2363
331
20A5
  5
20A7
331
1EF4
  5
1EF6
331
231F
  5
2324
331
1F7E
  5
1F80
331
2827
  5
282A
331
2567
  5
256D
331
1F3F
  5
1F41
331
202B
  5
202D
331
2292
  5
2297
331
1EA1
  5
1EA1
331
2342
  5
2347
331
1FA1
  5
1FA3
331
1ED8
  5
1EDA
331
258A
  5
25A1
331
1F62
  5
1F64
331
23BC
  5
23C1
331
201B
  5
201D
331
2303
  5
2308
331
237D
  5
2382
331
22CD
  5
22D2
331
1FDC
  5
1FDE
331
2456
  5
245C
331
2066
  5
2068
331
2027
  5
2029
331
2417
  5
241C
331
235A
  5
235F
331
20A1
  5
20A3
331
1EF0
  5
1EF2
331
1F2F
  5
1F31
331
231B
  5
2320
331
1F7A
  5
1F7C
331
1EB5
  5
1EB7
331
23D4
  5
23D9
331
1F3B
  5
1F3D
331
2395
  5
239A
331
22E5
  5
22EA
331
22A6
  5
22AB
331
1FB5
  5
1FB7
331
242F
  5
2434
331
203F
  5
2041
331
207E
  5
2080
331
1FF4
  5
1FF6
331
23B8
  5
23BD
331
2379
  5
237E
331
1FD8
  5
1FDA
331
22C9
  5
22CE
331
2452
  5
2457
331
2062
  5
2064
331
1EB1
  5
1EB3
331
2413
  5
2418
331
276C
  5
2825
331
1EEC
  5
1EEE
331
1F2B
  5
1F2D
331
2023
  5
2025
331
2356
  5
235B
331
259E
  5
25B5
331
1F76
  5
1F78
331
209D
  5
209F
331
23D0
  5
23D5
331
1F37
  5
1F39
331
2391
  5
2396
331
22E1
  5
22E6
331
1FF0
  5
1FF2
331
22A2
  5
22A7
331
1FB1
  5
1FB3
331
242B
  5
2430
331
203B
  5
203D
331
23EC
  5
23F1
331
1F04
  5
1F06
331
232F
  5
2334
331
1F8E
  5
1F90
331
1EC5
  5
1EC7
331
2837
  5
283A
331
1F4F
  5
1F51
331
207A
  5
207C
331
2317
  5
231C
331
2352
  5
2357
331
2099
  5
209B
331
1EE8
  5
1EEA
331
2313
  5
2318
331
1F72
  5
1F74
331
255B
  5
256B
331
1F33
  5
1F35
331
238D
  5
2392
331
1FEC
  5
1FEE
331
23CC
  5
23D1
331
22DD
  5
22E2
331
229E
  5
22A3
331
2076
  5
2078
331
2427
  5
242C
331
23E8
  5
23ED
331
1F00
  5
1F02
331
232B
  5
2330
331
1F8A
  5
1F8C
331
1EC1
  5
1EC3
331
2037
  5
2039
331
2833
  5
2836
331
23A5
  5
23AA
331
2004
  5
2006
331
22B6
  5
22BB
331
1FC5
  5
1FC7
331
1F4B
  5
1F4D
331
1FAD
  5
1FAF
331
243F
  5
2444
331
204F
  5
2051
331
208E
  5
2090
331
23C8
  5
23CD
331
2389
  5
238E
331
1FE8
  5
1FEA
331
22D9
  5
22DE
331
229A
  5
229F
331
1FA9
  5
1FAB
331
2072
  5
2074
331
2423
  5
2428
331
23E4
  5
23E9
331
1EFC
  5
1EFE
331
2366
  5
236B
331
2033
  5
2035
331
245E
  5
2551
331
1F86
  5
1F88
331
282F
  5
2832
331
1F47
  5
1F49
331
23A1
  5
23A6
331
22B2
  5
22B7
331
1FC1
  5
1FC3
331
2000
  5
2002
331
208A
  5
208C
331
243B
  5
2440
331
23FC
  5
2401
331
1F14
  5
1F16
331
233F
  5
2344
331
1F9E
  5
1FA0
331
1ED5
  5
1ED7
331
1F5F
  5
1F61
331
204B
  5
204D
331
2327
  5
232C
331
23E0
  5
23E5
331
1EF8
  5
1EFA
331
2362
  5
2367
331
20A9
  5
20AB
331
245A
  5
254B
331
1F82
  5
1F84
331
282B
  5
282E
331
1F43
  5
1F45
331
2323
  5
2328
331
239D
  5
23A2
331
1FFC
  5
1FFE
331
22ED
  5
22F2
331
22AE
  5
22B3
331
2086
  5
2088
331
2437
  5
243C
331
23F8
  5
23FD
331
1F10
  5
1F12
331
2751
  5
276C
331
1ED1
  5
1ED3
331
2047
  5
2049
331
233B
  5
2340
331
22FC
  5
2301
331
1F5B
  5
1F5D
331
1F9A
  5
1F9C
331
1FBD
  5
1FBF
331
23B5
  5
23BA
331
2014
  5
2016
331
2376
  5
237B
331
22C6
  5
22CB
331
244F
  5
2454
331
205F
  5
2061
331
1EAE
  5
1EAF
331
1FD5
  5
1FD7
331
23DC
  5
23E1
331
23D8
  5
23DD
331
2399
  5
239E
331
1FF8
  5
1FFA
331
22E9
  5
22EE
331
22AA
  5
22AF
331
1FB9
  5
1FBB
331
2082
  5
2084
331
2433
  5
2438
331
23F4
  5
23F9
331
1F0C
  5
1F0E
331
2337
  5
233C
331
1F96
  5
1F98
331
1ECD
  5
1ECF
331
2043
  5
2045
331
283F
  5
2842
331
1F57
  5
1F59
331
23B1
  5
23B6
331
2010
  5
2012
331
2372
  5
2377
331
22C2
  5
22C7
331
1FD1
  5
1FD3
331
244B
  5
2450
331
205B
  5
205D
331
240C
  5
2411
331
1F24
  5
1F26
331
234F
  5
2354
331
1EE5
  5
1EE7
331
1F6F
  5
1F71
331
1EAA
  5
1EAA
331
22F8
  5
22FD
331
23F0
  5
23F5
331
1F08
  5
1F0A
331
2333
  5
2338
331
1F92
  5
1F94
331
1EC9
  5
1ECB
331
283B
  5
283E
331
257B
  5
258F
331
1F53
  5
1F55
331
23AD
  5
23B2
331
200C
  5
200E
331
22F4
  5
22F9
331
236E
  5
2373
331
22BE
  5
22C3
331
2096
  5
2098
331
1FCD
  5
1FCF
331
2447
  5
244C
331
2057
  5
2059
331
2408
  5
240D
331
1F20
  5
1F22
331
234B
  5
2350
331
1EE1
  5
1EE3
331
23C5
  5
23CA
331
230C
  5
2311
331
1F6B
  5
1F6D
331
2386
  5
238B
331
1FE5
  5
1FE7
331
22D6
  5
22DB
331
206F
  5
2071
331
2297
  5
229C
331
1EA6
  5
1EA6
331
22F0
  5
22F5
331
23A9
  5
23AE
331
2008
  5
200A
331
236A
  5
236F
331
1FC9
  5
1FCB
331
22BA
  5
22BF
331
2092
  5
2094
331
2443
  5
2448
331
2053
  5
2055
331
2404
  5
2409
331
1F1C
  5
1F1E
331
2347
  5
234C
331
1FA6
  5
1FA8
331
1EDD
  5
1EDF
331
23C1
  5
23C6
331
2308
  5
230D
331
1F67
  5
1F69
331
2382
  5
2387
331
1FE1
  5
1FE3
331
22D2
  5
22D7
331
206B
  5
206D
331
241C
  5
2421
331
235F
  5
2364
331
20A6
  5
20A8
331
1EF5
  5
1EF7
331
1F7F
  5
1F81
331
202C
  5
202E
331
2293
  5
2298
331
1EA2
  5
1EA2
331
2400
  5
2405
331
1F18
  5
1F1A
331
2343
  5
2348
331
1FA2
  5
1FA4
331
1ED9
  5
1EDB
331
258B
  5
25A2
331
1F63
  5
1F65
331
23BD
  5
23C2
331
201C
  5
201E
331
2304
  5
2309
331
237E
  5
2383
331
22CE
  5
22D3
331
228F
  5
2294
331
1EB6
  5
1EB8
331
2067
  5
2069
331
2418
  5
241D
331
235B
  5
2360
331
20A2
  5
20A4
331
1EF1
  5
1EF3
331
231C
  5
2321
331
1F7B
  5
1F7D
331
2028
  5
202A
331
1FDD
  5
1FDF
331
2824
  5
2827
331
1F3C
  5
1F3E
331
2396
  5
239B
331
1FF5
  5
1FF7
331
22E6
  5
22EB
331
22A7
  5
22AC
331
207F
  5
2081
331
1FB6
  5
1FB8
331
23D5
  5
23DA
331
2300
  5
2305
331
23B9
  5
23BE
331
2018
  5
201A
331
237A
  5
237F
331
1FD9
  5
1FDB
331
22CA
  5
22CF
331
228B
  5
228D
331
1EB2
  5
1EB4
331
2453
  5
2458
331
2024
  5
2026
331
2414
  5
2419
331
2357
  5
235C
331
209E
  5
20A0
331
1EED
  5
1EEF
331
1F2C
  5
1F2E
331
2063
  5
2065
331
2318
  5
231D
331
23D1
  5
23D6
331
1F38
  5
1F3A
331
1F77
  5
1F79
331
2392
  5
2397
331
22E2
  5
22E7
331
22A3
  5
22A8
331
1FB2
  5
1FB4
331
242C
  5
2431
331
203C
  5
203E
331
23ED
  5
23F2
331
1F05
  5
1F07
331
1F8F
  5
1F91
331
1EC6
  5
1EC8
331
207B
  5
207D
331
1FF1
  5
1FF3
331
2020
  5
2022
331
2410
  5
2415
331
1F28
  5
1F2A
331
2769
  5
277B
331
1EE9
  5
1EEB
331
2353
  5
2358
331
2314
  5
2319
331
1F73
  5
1F75
331
209A
  5
209C
331
255C
  5
256C
331
23CD
  5
23D2
331
238E
  5
2393
331
1FED
  5
1FEF
331
22DE
  5
22E3
331
229F
  5
22A4
331
2077
  5
2079
331
2428
  5
242D
331
23E9
  5
23EE
331
1F01
  5
1F03
331
232C
  5
2331
331
1F8B
  5
1F8D
331
1EC2
  5
1EC4
331
2038
  5
203A
331
2834
  5
2837
331
1F4C
  5
1F4E
331
1FAE
  5
1FB0
331
23A6
  5
23AB
331
22B7
  5
22BC
331
1FC6
  5
1FC8
331
208F
  5
2091
331
2005
  5
2007
331
1F34
  5
1F36
331
2310
  5
2315
331
23C9
  5
23CE
331
1F30
  5
1F32
331
238A
  5
238F
331
1FE9
  5
1FEB
331
22DA
  5
22DF
331
229B
  5
22A0
331
1FAA
  5
1FAC
331
2424
  5
2429
331
2034
  5
2036
331
23E5
  5
23EA
331
1EFD
  5
1EFF
331
2367
  5
236C
331
273E
  5
2293
331
245F
  5
2552
331
2328
  5
232D
331
2830
  5
2833
331
1F48
  5
1F4A
331
1F87
  5
1F89
331
2073
  5
2075
331
23A2
  5
23A7
331
22B3
  5
22B8
331
1FC2
  5
1FC4
331
208B
  5
208D
331
243C
  5
2441
331
23FD
  5
2402
331
1F15
  5
1F17
331
1F9F
  5
1FA1
331
1ED6
  5
1ED8
331
204C
  5
204E
331
2001
  5
2003
331
2420
  5
2425
331
2030
  5
2032
331
23E1
  5
23E6
331
1EF9
  5
1EFB
331
2363
  5
2368
331
20AA
  5
20AC
331
245B
  5
254C
331
1F83
  5
1F85
331
282C
  5
282F
331
1F44
  5
1F46
331
2324
  5
2329
331
239E
  5
23A3
331
1FFD
  5
1FFF
331
22EE
  5
22F3
331
22AF
  5
22B4
331
2087
  5
2089
331
2438
  5
243D
331
23F9
  5
23FE
331
1F11
  5
1F13
331
233C
  5
2341
331
1F9B
  5
1F9D
331
1ED2
  5
1ED4
331
2048
  5
204A
331
22FD
  5
2302
331
23B6
  5
23BB
331
2015
  5
2017
331
2844
  5
1EB0
331
1F5C
  5
1F5E
331
1FBE
  5
1FC0
331
2377
  5
237C
331
22C7
  5
22CC
331
1FD6
  5
1FD8
331
1EAF
  5
1EB1
331
23DD
  5
23E2
331
2320
  5
2325
331
2828
  5
282B
331
2568
  5
256E
331
1F40
  5
1F42
331
23D9
  5
23DE
331
239A
  5
239F
331
1FF9
  5
1FFB
331
22EA
  5
22EF
331
22AB
  5
22B0
331
2083
  5
2085
331
2434
  5
2439
331
23F5
  5
23FA
331
1F0D
  5
1F0F
331
2338
  5
233D
331
1F97
  5
1F99
331
1ECE
  5
1ED0
331
2044
  5
2046
331
2840
  5
2844
331
1F58
  5
1F5A
331
1FBA
  5
1FBC
331
23B2
  5
23B7
331
2011
  5
2013
331
2373
  5
2378
331
22C3
  5
22C8
331
1FD2
  5
1FD4
331
244C
  5
2451
331
205C
  5
205E
331
240D
  5
2412
331
1F25
  5
1F27
331
1EE6
  5
1EE8
331
1EAB
  5
1EAB
331
22F9
  5
22FE
331
2430
  5
2435
331
2040
  5
2042
331
23F1
  5
23F6
331
1F09
  5
1F0B
331
2334
  5
2339
331
1F93
  5
1F95
331
1ECA
  5
1ECC
331
283C
  5
283F
331
1F54
  5
1F56
331
23AE
  5
23B3
331
200D
  5
200F
331
22F5
  5
22FA
331
236F
  5
2374
331
22BF
  5
22C4
331
2097
  5
2099
331
1FCE
  5
1FD0
331
2448
  5
244D
331
2058
  5
205A
331
2409
  5
240E
331
1F21
  5
1F23
331
234C
  5
2351
331
1EE2
  5
1EE4
331
2555
  5
255F
331
230D
  5
2312
331
1F6C
  5
1F6E
331
23C6
  5
23CB
331
2387
  5
238C
331
1FE6
  5
1FE8
331
22D7
  5
22DC
331
1EA7
  5
1EA7
331
2330
  5
2335
331
2838
  5
283B
331
1F50
  5
1F52
331
22F1
  5
22F6
331
23AA
  5
23AF
331
2009
  5
200B
331
236B
  5
2370
331
22BB
  5
22C0
331
1FCA
  5
1FCC
331
2093
  5
2095
331
2444
  5
2449
331
2054
  5
2056
331
2405
  5
240A
331
1F1D
  5
1F1F
331
2348
  5
234D
331
1FA7
  5
1FA9
331
1EDE
  5
1EE0
331
23C2
  5
23C7
331
2309
  5
230E
331
1F68
  5
1F6A
331
2383
  5
2388
331
1FE2
  5
1FE4
331
22D3
  5
22D8
331
206C
  5
206E
331
241D
  5
2422
331
20A7
  5
20A9
331
1EF6
  5
1EF8
331
202D
  5
202F
331
2294
  5
2299
331
1EA3
  5
1EA3
  0
XRECORD
  5
176
102
{ACAD_REACTORS
330
D7
102
}
330
D7
100
AcDbXrecord
280
     1
340
1B
  0
ACDBDETAILVIEWSTYLE
  5
1C7
102
{ACAD_XDICTIONARY
360
468
102
}
102
{ACAD_REACTORS
330
1C6
102
}
330
1C6
100
AcDbModelDocViewStyle
 70
     0
  3
Imperial24
290
     0
100
AcDbDetailViewStyle
 70
     0
 71
     0
 90
        3
 71
     1
340
11
 62
   256
 40
0.24
340
0
 62
   256
 40
0.24
300

 40
0.36
280
     3
 71
     2
340
16
 90
       25
 62
   256
 71
     3
340
11
 62
   256
 40
0.24
 90
        1
 40
0.75
 90
        1
300
%<\AcVar ViewType \f "%tc1">% %<\AcVar ViewDetailId>%\PVARIA %<\AcVar ViewScale \f "%sn">%
 71
     4
340
16
 90
       25
 62
   256
340
16
 90
       25
 62
   256
280
     0
  0
LAYOUT
  5
1C9
102
{ACAD_REACTORS
330
1A
102
}
330
1A
100
AcDbPlotSettings
  1

  2
\\srvadruck01\MFSA15
  4

  6

 40
0.0
 41
0.0
 42
0.0
 43
0.0
 44
0.0
 45
0.0
 46
0.0
 47
0.0
 48
0.0
 49
0.0
140
0.0
141
0.0
142
1.0
143
1.0
 70
   688
 72
     0
 73
     0
 74
     5
  7

 75
    16
147
1.0
 76
     0
 77
     2
 78
   300
148
0.0
149
0.0
100
AcDbLayout
  1
Layout1
 70
     1
 71
     1
 10
0.0
 20
0.0
 11
12.0
 21
9.0
 12
0.0
 22
0.0
 32
0.0
 14
1.000000000000000E+20
 24
1.000000000000000E+20
 34
1.000000000000000E+20
 15
-1.000000000000000E+20
 25
-1.000000000000000E+20
 35
-1.000000000000000E+20
146
0.0
 13
0.0
 23
0.0
 33
0.0
 16
1.0
 26
0.0
 36
0.0
 17
0.0
 27
1.0
 37
0.0
 76
     0
330
1B
  0
LAYOUT
  5
1C8
102
{ACAD_REACTORS
330
1A
102
}
330
1A
100
AcDbPlotSettings
  1

  2
\\srvadruck01\MFSA15
  4
A4
  6

 40
5.027082920074462
 41
5.027099609375
 42
5.027069091796875
 43
5.027069091796875
 44
209.9733276367186
 45
296.9259948730469
 46
0.0
 47
0.0
 48
0.0
 49
0.0
140
0.0
141
0.0
142
1.0
143
250.9557649309207
 70
 11952
 72
     0
 73
     1
 74
     0
  7

 75
     0
147
0.003984766001591
 76
     0
 77
     2
 78
   300
148
18758.74732672532
149
6385.478578639141
100
AcDbLayout
  1
Model
 70
     1
 71
     0
 10
0.0
 20
0.0
 11
12.0
 21
9.0
 12
0.0
 22
0.0
 32
0.0
 14
0.0
 24
0.0
 34
0.0
 15
0.0
 25
0.0
 35
0.0
146
0.0
 13
0.0
 23
0.0
 33
0.0
 16
1.0
 26
0.0
 36
0.0
 17
0.0
 27
1.0
 37
0.0
 76
     0
330
1F
331
155
1001
ACAD_PSEXT
1000
\\srvadruck01\MFSA15
1000
KONICA MINOLTA C754SeriesPCL
1000
Marketing
1000

1070
     0
  0
MATERIAL
  5
183
102
{ACAD_XDICTIONARY
360
184
102
}
102
{ACAD_REACTORS
330
17A
102
}
330
17A
100
AcDbMaterial
  1
ByBlock
 72
     0
 43
0.0208333333333333
 43
0.0
 43
0.0
 43
0.0
 43
0.0
 43
0.0208333333333333
 43
0.0
 43
0.0
 43
0.0
 43
0.0
 43
1.0
 43
0.0
 43
0.0
 43
0.0
 43
0.0
 43
1.0
 77
     0
 47
0.0208333333333333
 47
0.0
 47
0.0
 47
0.0
 47
0.0
 47
0.0208333333333333
 47
0.0
 47
0.0
 47
0.0
 47
0.0
 47
1.0
 47
0.0
 47
0.0
 47
0.0
 47
0.0
 47
1.0
171
     0
 49
0.0208333333333333
 49
0.0
 49
0.0
 49
0.0
 49
0.0
 49
0.0208333333333333
 49
0.0
 49
0.0
 49
0.0
 49
0.0
 49
1.0
 49
0.0
 49
0.0
 49
0.0
 49
0.0
 49
1.0
175
     0
142
0.0208333333333333
142
0.0
142
0.0
142
0.0
142
0.0
142
0.0208333333333333
142
0.0
142
0.0
142
0.0
142
0.0
142
1.0
142
0.0
142
0.0
142
0.0
142
0.0
142
1.0
179
     0
144
0.0208333333333333
144
0.0
144
0.0
144
0.0
144
0.0
144
0.0208333333333333
144
0.0
144
0.0
144
0.0
144
0.0
144
1.0
144
0.0
144
0.0
144
0.0
144
0.0
144
1.0
147
0.0208333333333333
147
0.0
147
0.0
147
0.0
147
0.0
147
0.0208333333333333
147
0.0
147
0.0
147
0.0
147
0.0
147
1.0
147
0.0
147
0.0
147
0.0
147
0.0
147
1.0
  0
MATERIAL
  5
17B
102
{ACAD_XDICTIONARY
360
17C
102
}
102
{ACAD_REACTORS
330
17A
102
}
330
17A
100
AcDbMaterial
  1
ByLayer
 72
     0
 43
0.0208333333333333
 43
0.0
 43
0.0
 43
0.0
 43
0.0
 43
0.0208333333333333
 43
0.0
 43
0.0
 43
0.0
 43
0.0
 43
1.0
 43
0.0
 43
0.0
 43
0.0
 43
0.0
 43
1.0
 77
     0
 47
0.0208333333333333
 47
0.0
 47
0.0
 47
0.0
 47
0.0
 47
0.0208333333333333
 47
0.0
 47
0.0
 47
0.0
 47
0.0
 47
1.0
 47
0.0
 47
0.0
 47
0.0
 47
0.0
 47
1.0
171
     0
 49
0.0208333333333333
 49
0.0
 49
0.0
 49
0.0
 49
0.0
 49
0.0208333333333333
 49
0.0
 49
0.0
 49
0.0
 49
0.0
 49
1.0
 49
0.0
 49
0.0
 49
0.0
 49
0.0
 49
1.0
175
     0
142
0.0208333333333333
142
0.0
142
0.0
142
0.0
142
0.0
142
0.0208333333333333
142
0.0
142
0.0
142
0.0
142
0.0
142
1.0
142
0.0
142
0.0
142
0.0
142
0.0
142
1.0
179
     0
144
0.0208333333333333
144
0.0
144
0.0
144
0.0
144
0.0
144
0.0208333333333333
144
0.0
144
0.0
144
0.0
144
0.0
144
1.0
144
0.0
144
0.0
144
0.0
144
0.0
144
1.0
147
0.0208333333333333
147
0.0
147
0.0
147
0.0
147
0.0
147
0.0208333333333333
147
0.0
147
0.0
147
0.0
147
0.0
147
1.0
147
0.0
147
0.0
147
0.0
147
0.0
147
1.0
  0
MATERIAL
  5
18B
102
{ACAD_XDICTIONARY
360
18C
102
}
102
{ACAD_REACTORS
330
17A
102
}
330
17A
100
AcDbMaterial
  1
Global
 72
     0
 43
0.0208333333333333
 43
0.0
 43
0.0
 43
0.0
 43
0.0
 43
0.0208333333333333
 43
0.0
 43
0.0
 43
0.0
 43
0.0
 43
1.0
 43
0.0
 43
0.0
 43
0.0
 43
0.0
 43
1.0
 77
     0
 47
0.0208333333333333
 47
0.0
 47
0.0
 47
0.0
 47
0.0
 47
0.0208333333333333
 47
0.0
 47
0.0
 47
0.0
 47
0.0
 47
1.0
 47
0.0
 47
0.0
 47
0.0
 47
0.0
 47
1.0
171
     0
 49
0.0208333333333333
 49
0.0
 49
0.0
 49
0.0
 49
0.0
 49
0.0208333333333333
 49
0.0
 49
0.0
 49
0.0
 49
0.0
 49
1.0
 49
0.0
 49
0.0
 49
0.0
 49
0.0
 49
1.0
175
     0
142
0.0208333333333333
142
0.0
142
0.0
142
0.0
142
0.0
142
0.0208333333333333
142
0.0
142
0.0
142
0.0
142
0.0
142
1.0
142
0.0
142
0.0
142
0.0
142
0.0
142
1.0
179
     0
144
0.0208333333333333
144
0.0
144
0.0
144
0.0
144
0.0
144
0.0208333333333333
144
0.0
144
0.0
144
0.0
144
0.0
144
1.0
144
0.0
144
0.0
144
0.0
144
0.0
144
1.0
147
0.0208333333333333
147
0.0
147
0.0
147
0.0
147
0.0
147
0.0208333333333333
147
0.0
147
0.0
147
0.0
147
0.0
147
1.0
147
0.0
147
0.0
147
0.0
147
0.0
147
1.0
  0
MLEADERSTYLE
  5
1C2
102
{ACAD_REACTORS
330
1C1
102
}
330
1C1
100
AcDbMLeaderStyle
179
     2
170
     2
171
     1
172
     0
 90
        2
 40
0.0
 41
0.0
173
     1
 91
-1056964608
340
14
 92
       -2
290
     1
 42
0.09
291
     1
 43
0.36
  3
Standard
 44
0.18
300

342
11
174
     1
178
     6
175
     1
176
     0
 93
-1056964608
 45
0.18
292
     0
297
     0
 46
0.18
 94
-1056964608
 47
1.0
 49
1.0
140
1.0
293
     1
141
0.0
294
     1
177
     0
142
1.0
295
     0
296
     0
143
0.125
271
     0
272
     9
273
     9
  0
MLINESTYLE
  5
18
102
{ACAD_REACTORS
330
17
102
}
330
17
100
AcDbMlineStyle
  2
STANDARD
 70
     0
  3

 62
   256
 51
90.0
 52
90.0
 71
     2
 49
0.5
 62
   256
  6
BYLAYER
 49
-0.5
 62
   256
  6
BYLAYER
  0
ACDBPLACEHOLDER
  5
E0
102
{ACAD_REACTORS
330
DF
102
}
330
DF
  0
SCALE
  5
1B0
102
{ACAD_REACTORS
330
1AF
102
}
330
1AF
100
AcDbScale
 70
     0
300
1:1
140
1.0
141
1.0
290
     1
  0
SCALE
  5
1B1
102
{ACAD_REACTORS
330
1AF
102
}
330
1AF
100
AcDbScale
 70
     0
300
1/128" = 1'-0"
140
0.0078125
141
12.0
290
     0
  0
SCALE
  5
1B2
102
{ACAD_REACTORS
330
1AF
102
}
330
1AF
100
AcDbScale
 70
     0
300
1/64" = 1'-0"
140
0.015625
141
12.0
290
     0
  0
SCALE
  5
1B3
102
{ACAD_REACTORS
330
1AF
102
}
330
1AF
100
AcDbScale
 70
     0
300
1/32" = 1'-0"
140
0.03125
141
12.0
290
     0
  0
SCALE
  5
1B4
102
{ACAD_REACTORS
330
1AF
102
}
330
1AF
100
AcDbScale
 70
     0
300
1/16" = 1'-0"
140
0.0625
141
12.0
290
     0
  0
SCALE
  5
1B5
102
{ACAD_REACTORS
330
1AF
102
}
330
1AF
100
AcDbScale
 70
     0
300
3/32" = 1'-0"
140
0.09375
141
12.0
290
     0
  0
SCALE
  5
1B6
102
{ACAD_REACTORS
330
1AF
102
}
330
1AF
100
AcDbScale
 70
     0
300
1/8" = 1'-0"
140
0.125
141
12.0
290
     0
  0
SCALE
  5
1B7
102
{ACAD_REACTORS
330
1AF
102
}
330
1AF
100
AcDbScale
 70
     0
300
3/16" = 1'-0"
140
0.1875
141
12.0
290
     0
  0
SCALE
  5
1B8
102
{ACAD_REACTORS
330
1AF
102
}
330
1AF
100
AcDbScale
 70
     0
300
1/4" = 1'-0"
140
0.25
141
12.0
290
     0
  0
SCALE
  5
1B9
102
{ACAD_REACTORS
330
1AF
102
}
330
1AF
100
AcDbScale
 70
     0
300
3/8" = 1'-0"
140
0.375
141
12.0
290
     0
  0
SCALE
  5
1BA
102
{ACAD_REACTORS
330
1AF
102
}
330
1AF
100
AcDbScale
 70
     0
300
1/2" = 1'-0"
140
0.5
141
12.0
290
     0
  0
SCALE
  5
1BB
102
{ACAD_REACTORS
330
1AF
102
}
330
1AF
100
AcDbScale
 70
     0
300
3/4" = 1'-0"
140
0.75
141
12.0
290
     0
  0
SCALE
  5
1BC
102
{ACAD_REACTORS
330
1AF
102
}
330
1AF
100
AcDbScale
 70
     0
300
1" = 1'-0"
140
1.0
141
12.0
290
     0
  0
SCALE
  5
1BD
102
{ACAD_REACTORS
330
1AF
102
}
330
1AF
100
AcDbScale
 70
     0
300
1-1/2" = 1'-0"
140
1.5
141
12.0
290
     0
  0
SCALE
  5
1BE
102
{ACAD_REACTORS
330
1AF
102
}
330
1AF
100
AcDbScale
 70
     0
300
3" = 1'-0"
140
3.0
141
12.0
290
     0
  0
SCALE
  5
1BF
102
{ACAD_REACTORS
330
1AF
102
}
330
1AF
100
AcDbScale
 70
     0
300
6" = 1'-0"
140
6.0
141
12.0
290
     0
  0
SCALE
  5
1C0
102
{ACAD_REACTORS
330
1AF
102
}
330
1AF
100
AcDbScale
 70
     0
300
1'-0" = 1'-0"
140
12.0
141
12.0
290
     0
  0
ACDBSECTIONVIEWSTYLE
  5
1C5
102
{ACAD_XDICTIONARY
360
466
102
}
102
{ACAD_REACTORS
330
1C3
102
}
330
1C3
100
AcDbModelDocViewStyle
 70
     0
  3
Imperial24
290
     0
100
AcDbSectionViewStyle
 70
     0
 71
     0
 90
       78
 71
     1
340
11
 62
   256
 40
0.24
340
0
340
0
 62
   256
 40
0.24
300
I, O, Q, S, X, Z
 40
0.48
 90
        3
 40
0.18
 90
        1
 71
     2
340
1C4
 90
       25
 62
   256
340
16
 90
       50
 62
   256
 40
0.24
 40
0.0
 40
0.24
 71
     3
340
11
 62
   256
 40
0.24
 90
        1
 40
0.75
 90
        1
300
%<\AcVar ViewType \f "%tc1">% %<\AcVar ViewSectionStartId>%-%<\AcVar ViewSectionEndId>%\PVARIA %<\AcVar ViewScale \f "%sn">%
 71
     4
 62
   256
 62
   257
300
ANSI31
 40
1.0
 90
        0
290
     0
290
     0
 90
        6
 40
0.0
 40
1.570796326794896
 40
0.2617993877991494
 40
1.308996938995747
 40
-0.2617993877991494
 40
1.832595714594044
  0
TABLESTYLE
  5
1AE
102
{ACAD_XDICTIONARY
360
35F
102
}
102
{ACAD_REACTORS
330
1AD
102
}
330
1AD
100
AcDbTableStyle
280
     0
  3
Standard
 70
     0
 71
     0
 40
0.06
 41
0.06
280
     0
281
     0
  7
STANDARD
140
0.18
170
     2
 62
     0
 63
     7
283
     0
 90
      512
 91
        0
  1

274
    -2
284
     1
 64
     0
275
    -2
285
     1
 65
     0
276
    -2
286
     1
 66
     0
277
    -2
287
     1
 67
     0
278
    -2
288
     1
 68
     0
279
    -2
289
     1
 69
     0
  7
STANDARD
140
0.25
170
     5
 62
     0
 63
     7
283
     0
 90
      512
 91
        0
  1

274
    -2
284
     1
 64
     0
275
    -2
285
     1
 65
     0
276
    -2
286
     1
 66
     0
277
    -2
287
     1
 67
     0
278
    -2
288
     1
 68
     0
279
    -2
289
     1
 69
     0
  7
STANDARD
140
0.18
170
     5
 62
     0
 63
     7
283
     0
 90
      512
 91
        0
  1

274
    -2
284
     1
 64
     0
275
    -2
285
     1
 65
     0
276
    -2
286
     1
 66
     0
277
    -2
287
     1
 67
     0
278
    -2
288
     1
 68
     0
279
    -2
289
     1
 69
     0
  0
VISUALSTYLE
  5
199
102
{ACAD_XDICTIONARY
360
2C82
102
}
102
{ACAD_REACTORS
330
193
102
}
330
193
100
AcDbVisualStyle
  2
2dWireframe
 70
     4
177
     2
291
     0
 71
     0
176
     1
 72
     2
176
     1
 73
     0
176
     1
 90
        0
176
     1
 40
0.6
176
     1
 41
30.0
176
     1
 63
     7
421
 16777215
176
     1
 74
     1
176
     1
 91
        4
176
     1
 64
     7
176
     1
 65
   257
176
     1
 75
     1
176
     1
175
     1
176
     1
 42
1.0
176
     1
 92
        0
176
     1
 66
   257
176
     1
 43
1.0
176
     1
 76
     1
176
     1
 77
     6
176
     1
 78
     2
176
     1
 67
     7
176
     1
 79
     5
176
     1
170
     0
176
     1
171
     0
176
     1
290
     0
176
     1
 93
        1
176
     1
 44
0.0
176
     1
173
     0
176
     1
1001
ACAD
1000
AcDbSavedByObjectVersion
1070
     0
  0
VISUALSTYLE
  5
198
102
{ACAD_XDICTIONARY
360
2C80
102
}
102
{ACAD_REACTORS
330
193
102
}
330
193
100
AcDbVisualStyle
  2
Basic
 70
     7
177
     2
291
     1
 71
     1
176
     1
 72
     0
176
     1
 73
     1
176
     1
 90
        0
176
     1
 40
0.6
176
     1
 41
30.0
176
     1
 63
     7
421
 16777215
176
     1
 74
     0
176
     1
 91
        4
176
     1
 64
     7
176
     1
 65
   257
176
     1
 75
     1
176
     1
175
     1
176
     1
 42
1.0
176
     1
 92
        8
176
     1
 66
     7
176
     1
 43
1.0
176
     1
 76
     1
176
     1
 77
     6
176
     1
 78
     2
176
     1
 67
     7
176
     1
 79
     5
176
     1
170
     0
176
     1
171
     0
176
     1
290
     0
176
     1
 93
        1
176
     1
 44
0.0
176
     1
173
     0
176
     1
1001
ACAD
1000
AcDbSavedByObjectVersion
1070
     0
  0
VISUALSTYLE
  5
19F
102
{ACAD_XDICTIONARY
360
2C8E
102
}
102
{ACAD_REACTORS
330
193
102
}
330
193
100
AcDbVisualStyle
  2
Brighten
 70
    12
177
     2
291
     1
 71
     2
176
     1
 72
     2
176
     1
 73
     0
176
     1
 90
        0
176
     1
 40
0.6
176
     1
 41
30.0
176
     1
 63
     7
421
 16777215
176
     1
 74
     1
176
     1
 91
        4
176
     1
 64
     7
176
     1
 65
   257
176
     1
 75
     1
176
     1
175
     1
176
     1
 42
1.0
176
     1
 92
        8
176
     1
 66
     7
176
     1
 43
1.0
176
     1
 76
     1
176
     1
 77
     6
176
     1
 78
     2
176
     1
 67
     7
176
     1
 79
     5
176
     1
170
     0
176
     1
171
     0
176
     1
290
     0
176
     1
 93
        1
176
     1
 44
50.0
176
     1
173
     0
176
     1
1001
ACAD
1000
AcDbSavedByObjectVersion
1070
     0
  0
VISUALSTYLE
  5
1A3
102
{ACAD_XDICTIONARY
360
2C96
102
}
102
{ACAD_REACTORS
330
193
102
}
330
193
100
AcDbVisualStyle
  2
ColorChange
 70
    16
177
     2
291
     1
 71
     2
176
     1
 72
     2
176
     1
 73
     3
176
     1
 90
        0
176
     1
 40
0.6
176
     1
 41
30.0
176
     1
 63
     8
421
  8421504
176
     1
 74
     1
176
     1
 91
        4
176
     1
 64
     7
176
     1
 65
   257
176
     1
 75
     1
176
     1
175
     1
176
     1
 42
1.0
176
     1
 92
        8
176
     1
 66
     8
424
  8421504
176
     1
 43
1.0
176
     1
 76
     1
176
     1
 77
     6
176
     1
 78
     2
176
     1
 67
     7
176
     1
 79
     5
176
     1
170
     0
176
     1
171
     0
176
     1
290
     0
176
     1
 93
        1
176
     1
 44
0.0
176
     1
173
     0
176
     1
1001
ACAD
1000
AcDbSavedByObjectVersion
1070
     0
  0
VISUALSTYLE
  5
19C
102
{ACAD_XDICTIONARY
360
2C88
102
}
102
{ACAD_REACTORS
330
193
102
}
330
193
100
AcDbVisualStyle
  2
Conceptual
 70
     9
177
     2
291
     0
 71
     3
176
     1
 72
     2
176
     1
 73
     0
176
     1
 90
        0
176
     1
 40
0.6
176
     1
 41
30.0
176
     1
 63
     7
421
 16777215
176
     1
 74
     2
176
     1
 91
        2
176
     1
 64
     7
176
     1
 65
   257
176
     1
 75
     1
176
     1
175
     1
176
     1
 42
179.0
176
     1
 92
        8
176
     1
 66
     7
176
     1
 43
1.0
176
     1
 76
     1
176
     1
 77
     6
176
     1
 78
     2
176
     1
 67
     7
176
     1
 79
     3
176
     1
170
     0
176
     1
171
     0
176
     1
290
     0
176
     1
 93
        1
176
     1
 44
0.0
176
     1
173
     0
176
     1
1001
ACAD
1000
AcDbSavedByObjectVersion
1070
     0
  0
VISUALSTYLE
  5
19E
102
{ACAD_XDICTIONARY
360
2C8C
102
}
102
{ACAD_REACTORS
330
193
102
}
330
193
100
AcDbVisualStyle
  2
Dim
 70
    11
177
     2
291
     1
 71
     2
176
     1
 72
     2
176
     1
 73
     0
176
     1
 90
        0
176
     1
 40
0.6
176
     1
 41
30.0
176
     1
 63
     7
421
 16777215
176
     1
 74
     1
176
     1
 91
        4
176
     1
 64
     7
176
     1
 65
   257
176
     1
 75
     1
176
     1
175
     1
176
     1
 42
1.0
176
     1
 92
        8
176
     1
 66
     7
176
     1
 43
1.0
176
     1
 76
     1
176
     1
 77
     6
176
     1
 78
     2
176
     1
 67
     7
176
     1
 79
     5
176
     1
170
     0
176
     1
171
     0
176
     1
290
     0
176
     1
 93
        1
176
     1
 44
-50.0
176
     1
173
     0
176
     1
1001
ACAD
1000
AcDbSavedByObjectVersion
1070
     0
  0
VISUALSTYLE
  5
1AB
102
{ACAD_XDICTIONARY
360
2CA6
102
}
102
{ACAD_REACTORS
330
193
102
}
330
193
100
AcDbVisualStyle
  2
EdgeColorOff
 70
    22
177
     2
291
     1
 71
     2
176
     0
 72
     2
176
     0
 73
     0
176
     0
 90
        0
176
     0
 40
0.6
176
     0
 41
30.0
176
     0
 63
     7
421
 16777215
176
     0
 74
     1
176
     0
 91
        4
176
     0
 64
     7
176
     0
 65
   257
176
     0
 75
     1
176
     0
175
     1
176
     0
 42
1.0
176
     0
 92
        8
176
     2
 66
     7
176
     0
 43
1.0
176
     0
 76
     1
176
     0
 77
     6
176
     0
 78
     2
176
     0
 67
     7
176
     0
 79
     5
176
     0
170
     0
176
     0
171
     0
176
     0
290
     0
176
     0
 93
        1
176
     0
 44
0.0
176
     0
173
     0
176
     0
1001
ACAD
1000
AcDbSavedByObjectVersion
1070
     0
  0
VISUALSTYLE
  5
1A2
102
{ACAD_XDICTIONARY
360
2C94
102
}
102
{ACAD_REACTORS
330
193
102
}
330
193
100
AcDbVisualStyle
  2
Facepattern
 70
    15
177
     2
291
     1
 71
     2
176
     1
 72
     2
176
     1
 73
     0
176
     1
 90
        0
176
     1
 40
0.6
176
     1
 41
30.0
176
     1
 63
     7
421
 16777215
176
     1
 74
     1
176
     1
 91
        4
176
     1
 64
     7
176
     1
 65
   257
176
     1
 75
     1
176
     1
175
     1
176
     1
 42
1.0
176
     1
 92
        8
176
     1
 66
     7
176
     1
 43
1.0
176
     1
 76
     1
176
     1
 77
     6
176
     1
 78
     2
176
     1
 67
     7
176
     1
 79
     5
176
     1
170
     0
176
     1
171
     0
176
     1
290
     0
176
     1
 93
        1
176
     1
 44
0.0
176
     1
173
     0
176
     1
1001
ACAD
1000
AcDbSavedByObjectVersion
1070
     0
  0
VISUALSTYLE
  5
194
102
{ACAD_XDICTIONARY
360
2C78
102
}
102
{ACAD_REACTORS
330
193
102
}
330
193
100
AcDbVisualStyle
  2
Flat
 70
     0
177
     2
291
     1
 71
     2
176
     1
 72
     1
176
     1
 73
     1
176
     1
 90
        2
176
     1
 40
0.6
176
     1
 41
30.0
176
     1
 63
     7
421
 16777215
176
     1
 74
     0
176
     1
 91
        0
176
     1
 64
     7
176
     1
 65
   257
176
     1
 75
     1
176
     1
175
     1
176
     1
 42
1.0
176
     1
 92
        8
176
     1
 66
     7
176
     1
 43
1.0
176
     1
 76
     1
176
     1
 77
     6
176
     1
 78
     2
176
     1
 67
     7
176
     1
 79
     5
176
     1
170
     0
176
     1
171
     0
176
     1
290
     0
176
     1
 93
       13
176
     1
 44
0.0
176
     1
173
     0
176
     1
1001
ACAD
1000
AcDbSavedByObjectVersion
1070
     0
  0
VISUALSTYLE
  5
195
102
{ACAD_XDICTIONARY
360
2C7A
102
}
102
{ACAD_REACTORS
330
193
102
}
330
193
100
AcDbVisualStyle
  2
FlatWithEdges
 70
     1
177
     2
291
     1
 71
     2
176
     1
 72
     1
176
     1
 73
     1
176
     1
 90
        2
176
     1
 40
0.6
176
     1
 41
30.0
176
     1
 63
     7
421
 16777215
176
     1
 74
     1
176
     1
 91
        0
176
     1
 64
     7
176
     1
 65
   257
176
     1
 75
     1
176
     1
175
     1
176
     1
 42
1.0
176
     1
 92
        0
176
     1
 66
   257
176
     1
 43
1.0
176
     1
 76
     1
176
     1
 77
     6
176
     1
 78
     2
176
     1
 67
     7
176
     1
 79
     5
176
     1
170
     0
176
     1
171
     0
176
     1
290
     0
176
     1
 93
       13
176
     1
 44
0.0
176
     1
173
     0
176
     1
1001
ACAD
1000
AcDbSavedByObjectVersion
1070
     0
  0
VISUALSTYLE
  5
196
102
{ACAD_XDICTIONARY
360
2C7C
102
}
102
{ACAD_REACTORS
330
193
102
}
330
193
100
AcDbVisualStyle
  2
Gouraud
 70
     2
177
     2
291
     1
 71
     2
176
     1
 72
     2
176
     1
 73
     1
176
     1
 90
        2
176
     1
 40
0.6
176
     1
 41
30.0
176
     1
 63
     7
421
 16777215
176
     1
 74
     0
176
     1
 91
        0
176
     1
 64
     7
176
     1
 65
   257
176
     1
 75
     1
176
     1
175
     1
176
     1
 42
1.0
176
     1
 92
        0
176
     1
 66
     7
176
     1
 43
1.0
176
     1
 76
     1
176
     1
 77
     6
176
     1
 78
     2
176
     1
 67
     7
176
     1
 79
     5
176
     1
170
     0
176
     1
171
     0
176
     1
290
     0
176
     1
 93
       13
176
     1
 44
0.0
176
     1
173
     0
176
     1
1001
ACAD
1000
AcDbSavedByObjectVersion
1070
     0
  0
VISUALSTYLE
  5
197
102
{ACAD_XDICTIONARY
360
2C7E
102
}
102
{ACAD_REACTORS
330
193
102
}
330
193
100
AcDbVisualStyle
  2
GouraudWithEdges
 70
     3
177
     2
291
     1
 71
     2
176
     1
 72
     2
176
     1
 73
     1
176
     1
 90
        2
176
     1
 40
0.6
176
     1
 41
30.0
176
     1
 63
     7
421
 16777215
176
     1
 74
     1
176
     1
 91
        0
176
     1
 64
     7
176
     1
 65
   257
176
     1
 75
     1
176
     1
175
     1
176
     1
 42
1.0
176
     1
 92
        0
176
     1
 66
   257
176
     1
 43
1.0
176
     1
 76
     1
176
     1
 77
     6
176
     1
 78
     2
176
     1
 67
     7
176
     1
 79
     5
176
     1
170
     0
176
     1
171
     0
176
     1
290
     0
176
     1
 93
       13
176
     1
 44
0.0
176
     1
173
     0
176
     1
1001
ACAD
1000
AcDbSavedByObjectVersion
1070
     0
  0
VISUALSTYLE
  5
19B
102
{ACAD_XDICTIONARY
360
2C86
102
}
102
{ACAD_REACTORS
330
193
102
}
330
193
100
AcDbVisualStyle
  2
Hidden
 70
     6
177
     2
291
     0
 71
     1
176
     1
 72
     2
176
     1
 73
     2
176
     1
 90
        0
176
     1
 40
0.6
176
     1
 41
30.0
176
     1
 63
     7
421
 16777215
176
     1
 74
     2
176
     1
 91
        2
176
     1
 64
     7
176
     1
 65
   257
176
     1
 75
     2
176
     1
175
     1
176
     1
 42
40.0
176
     1
 92
        0
176
     1
 66
   257
176
     1
 43
1.0
176
     1
 76
     1
176
     1
 77
     6
176
     1
 78
     2
176
     1
 67
     7
176
     1
 79
     3
176
     1
170
     0
176
     1
171
     0
176
     1
290
     0
176
     1
 93
        1
176
     1
 44
0.0
176
     1
173
     0
176
     1
1001
ACAD
1000
AcDbSavedByObjectVersion
1070
     0
  0
VISUALSTYLE
  5
1A9
102
{ACAD_XDICTIONARY
360
2CA2
102
}
102
{ACAD_REACTORS
330
193
102
}
330
193
100
AcDbVisualStyle
  2
JitterOff
 70
    20
177
     2
291
     1
 71
     2
176
     0
 72
     2
176
     0
 73
     0
176
     0
 90
        0
176
     0
 40
0.6
176
     0
 41
30.0
176
     0
 63
     7
421
 16777215
176
     0
 74
     1
176
     0
 91
        4
176
     0
 64
     7
176
     0
 65
   257
176
     0
 75
     1
176
     0
175
     1
176
     0
 42
1.0
176
     0
 92
       10
176
     2
 66
     7
176
     0
 43
1.0
176
     0
 76
     1
176
     0
 77
     6
176
     0
 78
     2
176
     0
 67
     7
176
     0
 79
     5
176
     0
170
     0
176
     0
171
     0
176
     0
290
     0
176
     0
 93
        1
176
     0
 44
0.0
176
     0
173
     0
176
     0
1001
ACAD
1000
AcDbSavedByObjectVersion
1070
     0
  0
VISUALSTYLE
  5
1A1
102
{ACAD_XDICTIONARY
360
2C92
102
}
102
{ACAD_REACTORS
330
193
102
}
330
193
100
AcDbVisualStyle
  2
Linepattern
 70
    14
177
     2
291
     1
 71
     2
176
     1
 72
     2
176
     1
 73
     0
176
     1
 90
        0
176
     1
 40
0.6
176
     1
 41
30.0
176
     1
 63
     7
421
 16777215
176
     1
 74
     1
176
     1
 91
        4
176
     1
 64
     7
176
     1
 65
   257
176
     1
 75
     7
176
     1
175
     7
176
     1
 42
1.0
176
     1
 92
        8
176
     1
 66
     7
176
     1
 43
1.0
176
     1
 76
     1
176
     1
 77
     6
176
     1
 78
     2
176
     1
 67
     7
176
     1
 79
     5
176
     1
170
     0
176
     1
171
     0
176
     1
290
     0
176
     1
 93
        1
176
     1
 44
0.0
176
     1
173
     0
176
     1
1001
ACAD
1000
AcDbSavedByObjectVersion
1070
     0
  0
VISUALSTYLE
  5
1AA
102
{ACAD_XDICTIONARY
360
2CA4
102
}
102
{ACAD_REACTORS
330
193
102
}
330
193
100
AcDbVisualStyle
  2
OverhangOff
 70
    21
177
     2
291
     1
 71
     2
176
     0
 72
     2
176
     0
 73
     0
176
     0
 90
        0
176
     0
 40
0.6
176
     0
 41
30.0
176
     0
 63
     7
421
 16777215
176
     0
 74
     1
176
     0
 91
        4
176
     0
 64
     7
176
     0
 65
   257
176
     0
 75
     1
176
     0
175
     1
176
     0
 42
1.0
176
     0
 92
        9
176
     2
 66
     7
176
     0
 43
1.0
176
     0
 76
     1
176
     0
 77
     6
176
     0
 78
     2
176
     0
 67
     7
176
     0
 79
     5
176
     0
170
     0
176
     0
171
     0
176
     0
290
     0
176
     0
 93
        1
176
     0
 44
0.0
176
     0
173
     0
176
     0
1001
ACAD
1000
AcDbSavedByObjectVersion
1070
     0
  0
VISUALSTYLE
  5
19D
102
{ACAD_XDICTIONARY
360
2C8A
102
}
102
{ACAD_REACTORS
330
193
102
}
330
193
100
AcDbVisualStyle
  2
Realistic
 70
     8
177
     2
291
     0
 71
     2
176
     1
 72
     3
176
     1
 73
     0
176
     1
 90
        2
176
     1
 40
0.6
176
     1
 41
30.0
176
     1
 63
     7
421
 16777215
176
     1
 74
     0
176
     1
 91
        0
176
     1
 64
     7
176
     1
 65
   257
176
     1
 75
     1
176
     1
175
     1
176
     1
 42
1.0
176
     1
 92
        8
176
     1
 66
   257
176
     1
 43
1.0
176
     1
 76
     1
176
     1
 77
     6
176
     1
 78
     2
176
     1
 67
     7
176
     1
 79
     3
176
     1
170
     0
176
     1
171
     0
176
     1
290
     0
176
     1
 93
       13
176
     1
 44
0.0
176
     1
173
     0
176
     1
1001
ACAD
1000
AcDbSavedByObjectVersion
1070
     0
  0
VISUALSTYLE
  5
1A8
102
{ACAD_XDICTIONARY
360
2CA0
102
}
102
{ACAD_REACTORS
330
193
102
}
330
193
100
AcDbVisualStyle
  2
Shaded
 70
    27
177
     2
291
     0
 71
     2
176
     1
 72
     2
176
     1
 73
     1
176
     1
 90
        2
176
     1
 40
0.6
176
     1
 41
30.0
176
     1
 63
     7
421
 16777215
176
     1
 74
     0
176
     1
 91
        4
176
     1
 64
     7
176
     1
 65
   257
176
     1
 75
     1
176
     1
175
     1
176
     1
 42
1.0
176
     1
 92
        8
176
     1
 66
   257
176
     1
 43
1.0
176
     1
 76
     1
176
     1
 77
     6
176
     1
 78
     2
176
     1
 67
     8
425
  7895160
176
     1
 79
     3
176
     1
170
     0
176
     1
171
     0
176
     1
290
     0
176
     1
 93
        5
176
     1
 44
0.0
176
     1
173
     0
176
     1
1001
ACAD
1000
AcDbSavedByObjectVersion
1070
     0
  0
VISUALSTYLE
  5
1A7
102
{ACAD_XDICTIONARY
360
2C9E
102
}
102
{ACAD_REACTORS
330
193
102
}
330
193
100
AcDbVisualStyle
  2
Shaded with edges
 70
    26
177
     2
291
     0
 71
     2
176
     1
 72
     2
176
     1
 73
     1
176
     1
 90
        2
176
     1
 40
0.6
176
     1
 41
30.0
176
     1
 63
     7
421
 16777215
176
     1
 74
     1
176
     1
 91
        2
176
     1
 64
     7
176
     1
 65
   257
176
     1
 75
     2
176
     1
175
     1
176
     1
 42
1.0
176
     1
 92
        8
176
     1
 66
   257
176
     1
 43
1.0
176
     1
 76
     1
176
     1
 77
     6
176
     1
 78
     2
176
     1
 67
     7
176
     1
 79
     3
176
     1
170
     0
176
     1
171
     0
176
     1
290
     0
176
     1
 93
        5
176
     1
 44
0.0
176
     1
173
     0
176
     1
1001
ACAD
1000
AcDbSavedByObjectVersion
1070
     0
  0
VISUALSTYLE
  5
1A4
102
{ACAD_XDICTIONARY
360
2C98
102
}
102
{ACAD_REACTORS
330
193
102
}
330
193
100
AcDbVisualStyle
  2
Shades of Gray
 70
    23
177
     2
291
     0
 71
     2
176
     1
 72
     2
176
     1
 73
     3
176
     1
 90
        0
176
     1
 40
0.6
176
     1
 41
30.0
176
     1
 63
     7
421
 16777215
176
     1
 74
     2
176
     1
 91
        2
176
     1
 64
     7
176
     1
 65
     7
176
     1
 75
     1
176
     1
175
     1
176
     1
 42
40.0
176
     1
 92
        8
176
     1
 66
     7
176
     1
 43
1.0
176
     1
 76
     1
176
     1
 77
     6
176
     1
 78
     2
176
     1
 67
     7
176
     1
 79
     3
176
     1
170
     0
176
     1
171
     0
176
     1
290
     0
176
     1
 93
        1
176
     1
 44
0.0
176
     1
173
     0
176
     1
1001
ACAD
1000
AcDbSavedByObjectVersion
1070
     0
  0
VISUALSTYLE
  5
1A5
102
{ACAD_XDICTIONARY
360
2C9A
102
}
102
{ACAD_REACTORS
330
193
102
}
330
193
100
AcDbVisualStyle
  2
Sketchy
 70
    24
177
     2
291
     0
 71
     1
176
     1
 72
     2
176
     1
 73
     2
176
     1
 90
        0
176
     1
 40
0.6
176
     1
 41
30.0
176
     1
 63
     7
421
 16777215
176
     1
 74
     2
176
     1
 91
        2
176
     1
 64
     7
176
     1
 65
     7
176
     1
 75
     1
176
     1
175
     1
176
     1
 42
40.0
176
     1
 92
       11
176
     1
 66
     7
176
     1
 43
1.0
176
     1
 76
     1
176
     1
 77
     6
176
     1
 78
     2
176
     1
 67
     7
176
     1
 79
     6
176
     1
170
     0
176
     1
171
     0
176
     1
290
     0
176
     1
 93
        1
176
     1
 44
0.0
176
     1
173
     0
176
     1
1001
ACAD
1000
AcDbSavedByObjectVersion
1070
     0
  0
VISUALSTYLE
  5
1A0
102
{ACAD_XDICTIONARY
360
2C90
102
}
102
{ACAD_REACTORS
330
193
102
}
330
193
100
AcDbVisualStyle
  2
Thicken
 70
    13
177
     2
291
     1
 71
     2
176
     1
 72
     2
176
     1
 73
     0
176
     1
 90
        0
176
     1
 40
0.6
176
     1
 41
30.0
176
     1
 63
     7
421
 16777215
176
     1
 74
     1
176
     1
 91
        4
176
     1
 64
     7
176
     1
 65
   257
176
     1
 75
     1
176
     1
175
     1
176
     1
 42
1.0
176
     1
 92
       12
176
     1
 66
     7
176
     1
 43
1.0
176
     1
 76
     1
176
     1
 77
     6
176
     1
 78
     2
176
     1
 67
     7
176
     1
 79
     5
176
     1
170
     0
176
     1
171
     0
176
     1
290
     0
176
     1
 93
        1
176
     1
 44
0.0
176
     1
173
     0
176
     1
1001
ACAD
1000
AcDbSavedByObjectVersion
1070
     0
  0
VISUALSTYLE
  5
19A
102
{ACAD_XDICTIONARY
360
2C84
102
}
102
{ACAD_REACTORS
330
193
102
}
330
193
100
AcDbVisualStyle
  2
Wireframe
 70
     5
177
     2
291
     0
 71
     0
176
     1
 72
     2
176
     1
 73
     0
176
     1
 90
        0
176
     1
 40
0.6
176
     1
 41
30.0
176
     1
 63
     7
421
 16777215
176
     1
 74
     1
176
     1
 91
        4
176
     1
 64
     7
176
     1
 65
   257
176
     1
 75
     1
176
     1
175
     1
176
     1
 42
1.0
176
     1
 92
        0
176
     1
 66
   257
176
     1
 43
1.0
176
     1
 76
     1
176
     1
 77
     6
176
     1
 78
     2
176
     1
 67
     7
176
     1
 79
     3
176
     1
170
     0
176
     1
171
     0
176
     1
290
     0
176
     1
 93
        1
176
     1
 44
0.0
176
     1
173
     0
176
     1
1001
ACAD
1000
AcDbSavedByObjectVersion
1070
     0
  0
VISUALSTYLE
  5
1A6
102
{ACAD_XDICTIONARY
360
2C9C
102
}
102
{ACAD_REACTORS
330
193
102
}
330
193
100
AcDbVisualStyle
  2
X-Ray
 70
    25
177
     2
291
     0
 71
     2
176
     1
 72
     2
176
     1
 73
     1
176
     1
 90
        1
176
     1
 40
0.5
176
     1
 41
30.0
176
     1
 63
     7
421
 16777215
176
     1
 74
     1
176
     1
 91
        0
176
     1
 64
     7
176
     1
 65
   257
176
     1
 75
     1
176
     1
175
     1
176
     1
 42
1.0
176
     1
 92
        8
176
     1
 66
     7
176
     1
 43
1.0
176
     1
 76
     1
176
     1
 77
     6
176
     1
 78
     2
176
     1
 67
     7
176
     1
 79
     3
176
     1
170
     0
176
     1
171
     0
176
     1
290
     0
176
     1
 93
       13
176
     1
 44
0.0
176
     1
173
     0
176
     1
1001
ACAD
1000
AcDbSavedByObjectVersion
1070
     0
  0
DICTIONARYVAR
  5
2D1
102
{ACAD_REACTORS
330
2CB
102
}
330
2CB
100
DictionaryVariables
280
     0
  1
1:1
  0
DICTIONARYVAR
  5
2CD
102
{ACAD_REACTORS
330
2CB
102
}
330
2CB
100
DictionaryVariables
280
     0
  1
STANDARD
  0
DICTIONARYVAR
  5
2CC
102
{ACAD_REACTORS
330
2CB
102
}
330
2CB
100
DictionaryVariables
280
     0
  1
STANDARD
  0
DICTIONARYVAR
  5
2CE
102
{ACAD_REACTORS
330
2CB
102
}
330
2CB
100
DictionaryVariables
280
     0
  1
Imperial24
  0
DICTIONARYVAR
  5
2CF
102
{ACAD_REACTORS
330
2CB
102
}
330
2CB
100
DictionaryVariables
280
     0
  1
Imperial24
  0
DICTIONARYVAR
  5
2D3
102
{ACAD_REACTORS
330
2CB
102
}
330
2CB
100
DictionaryVariables
280
     0
  1
1
  0
DICTIONARYVAR
  5
2D4
102
{ACAD_REACTORS
330
2CB
102
}
330
2CB
100
DictionaryVariables
280
     0
  1
15
  0
DICTIONARYVAR
  5
2D2
102
{ACAD_REACTORS
330
2CB
102
}
330
2CB
100
DictionaryVariables
280
     0
  1
0
  0
DICTIONARYVAR
  5
2D0
102
{ACAD_REACTORS
330
2CB
102
}
330
2CB
100
DictionaryVariables
280
     0
  1
0
  0
DICTIONARY
  5
2C77
102
{ACAD_REACTORS
330
2C75
102
}
330
2C75
100
AcDbDictionary
281
     1
  0
DICTIONARY
  5
2C76
102
{ACAD_REACTORS
330
2C75
102
}
330
2C75
100
AcDbDictionary
281
     1
  3
8796084933120
350
2C70
  3
8796084933136
350
2C71
  3
8796084933152
350
2C72
  3
8796084933168
350
2C73
  3
8796084933184
350
2C74
  0
DICTIONARY
  5
468
330
1C7
100
AcDbDictionary
280
     1
281
     1
  3
ACAD_XREC_ROUNDTRIP
360
469
  0
DICTIONARY
  5
184
330
183
100
AcDbDictionary
280
     1
281
     1
  3
BUMPTILE
360
186
  3
DIFFUSETILE
360
185
  3
OPACITYTILE
360
189
  3
REFLECTIONTILE
360
188
  3
REFRACTIONTILE
360
18A
  3
SPECULARTILE
360
187
  0
DICTIONARY
  5
17C
330
17B
100
AcDbDictionary
280
     1
281
     1
  3
BUMPTILE
360
17E
  3
DIFFUSETILE
360
17D
  3
OPACITYTILE
360
181
  3
REFLECTIONTILE
360
180
  3
REFRACTIONTILE
360
182
  3
SPECULARTILE
360
17F
  0
DICTIONARY
  5
18C
330
18B
100
AcDbDictionary
280
     1
281
     1
  3
BUMPTILE
360
18E
  3
DIFFUSETILE
360
18D
  3
OPACITYTILE
360
191
  3
REFLECTIONTILE
360
190
  3
REFRACTIONTILE
360
192
  3
SPECULARTILE
360
18F
  0
DICTIONARY
  5
466
330
1C5
100
AcDbDictionary
280
     1
281
     1
  3
ACAD_XREC_ROUNDTRIP
360
467
  0
DICTIONARY
  5
35F
330
1AE
100
AcDbDictionary
280
     1
281
     1
  3
ACAD_ROUNDTRIP_2008_TABLESTYLE_CELLSTYLEMAP
360
2C6E
  0
DICTIONARY
  5
2C82
330
199
100
AcDbDictionary
280
     1
281
     1
  3
ACAD_XREC_ROUNDTRIP
360
2C83
  0
DICTIONARY
  5
2C80
330
198
100
AcDbDictionary
280
     1
281
     1
  3
ACAD_XREC_ROUNDTRIP
360
2C81
  0
DICTIONARY
  5
2C8E
330
19F
100
AcDbDictionary
280
     1
281
     1
  3
ACAD_XREC_ROUNDTRIP
360
2C8F
  0
DICTIONARY
  5
2C96
330
1A3
100
AcDbDictionary
280
     1
281
     1
  3
ACAD_XREC_ROUNDTRIP
360
2C97
  0
DICTIONARY
  5
2C88
330
19C
100
AcDbDictionary
280
     1
281
     1
  3
ACAD_XREC_ROUNDTRIP
360
2C89
  0
DICTIONARY
  5
2C8C
330
19E
100
AcDbDictionary
280
     1
281
     1
  3
ACAD_XREC_ROUNDTRIP
360
2C8D
  0
DICTIONARY
  5
2CA6
330
1AB
100
AcDbDictionary
280
     1
281
     1
  3
ACAD_XREC_ROUNDTRIP
360
2CA7
  0
DICTIONARY
  5
2C94
330
1A2
100
AcDbDictionary
280
     1
281
     1
  3
ACAD_XREC_ROUNDTRIP
360
2C95
  0
DICTIONARY
  5
2C78
330
194
100
AcDbDictionary
280
     1
281
     1
  3
ACAD_XREC_ROUNDTRIP
360
2C79
  0
DICTIONARY
  5
2C7A
330
195
100
AcDbDictionary
280
     1
281
     1
  3
ACAD_XREC_ROUNDTRIP
360
2C7B
  0
DICTIONARY
  5
2C7C
330
196
100
AcDbDictionary
280
     1
281
     1
  3
ACAD_XREC_ROUNDTRIP
360
2C7D
  0
DICTIONARY
  5
2C7E
330
197
100
AcDbDictionary
280
     1
281
     1
  3
ACAD_XREC_ROUNDTRIP
360
2C7F
  0
DICTIONARY
  5
2C86
330
19B
100
AcDbDictionary
280
     1
281
     1
  3
ACAD_XREC_ROUNDTRIP
360
2C87
  0
DICTIONARY
  5
2CA2
330
1A9
100
AcDbDictionary
280
     1
281
     1
  3
ACAD_XREC_ROUNDTRIP
360
2CA3
  0
DICTIONARY
  5
2C92
330
1A1
100
AcDbDictionary
280
     1
281
     1
  3
ACAD_XREC_ROUNDTRIP
360
2C93
  0
DICTIONARY
  5
2CA4
330
1AA
100
AcDbDictionary
280
     1
281
     1
  3
ACAD_XREC_ROUNDTRIP
360
2CA5
  0
DICTIONARY
  5
2C8A
330
19D
100
AcDbDictionary
280
     1
281
     1
  3
ACAD_XREC_ROUNDTRIP
360
2C8B
  0
DICTIONARY
  5
2CA0
330
1A8
100
AcDbDictionary
280
     1
281
     1
  3
ACAD_XREC_ROUNDTRIP
360
2CA1
  0
DICTIONARY
  5
2C9E
330
1A7
100
AcDbDictionary
280
     1
281
     1
  3
ACAD_XREC_ROUNDTRIP
360
2C9F
  0
DICTIONARY
  5
2C98
330
1A4
100
AcDbDictionary
280
     1
281
     1
  3
ACAD_XREC_ROUNDTRIP
360
2C99
  0
DICTIONARY
  5
2C9A
330
1A5
100
AcDbDictionary
280
     1
281
     1
  3
ACAD_XREC_ROUNDTRIP
360
2C9B
  0
DICTIONARY
  5
2C90
330
1A0
100
AcDbDictionary
280
     1
281
     1
  3
ACAD_XREC_ROUNDTRIP
360
2C91
  0
DICTIONARY
  5
2C84
330
19A
100
AcDbDictionary
280
     1
281
     1
  3
ACAD_XREC_ROUNDTRIP
360
2C85
  0
DICTIONARY
  5
2C9C
330
1A6
100
AcDbDictionary
280
     1
281
     1
  3
ACAD_XREC_ROUNDTRIP
360
2C9D
  0
XRECORD
  5
2C70
102
{ACAD_REACTORS
330
2C76
102
}
330
2C76
100
AcDbXrecord
280
     1
  1
AcDb_Thumbnail_Schema
102
{ATTRRECORD
341
2C71
  2
AcDbDs::TreatedAsObjectData
280
     1
291
     1
102
ATTRRECORD}
102
{ATTRRECORD
341
2C72
  2
AcDbDs::Legacy
280
     1
291
     1
102
ATTRRECORD}
  2
AcDbDs::ID
280
    10
 91
        8
102
{ATTRRECORD
341
2C73
  2
AcDs:Indexable
280
     1
291
     1
102
ATTRRECORD}
102
{ATTRRECORD
341
2C74
  2
AcDbDs::HandleAttribute
280
     7
282
     1
102
ATTRRECORD}
  2
Thumbnail_Data
280
    15
 91
        0
  0
XRECORD
  5
2C71
102
{ACAD_REACTORS
330
2C76
102
}
330
2C76
100
AcDbXrecord
280
     1
  1
AcDbDs::TreatedAsObjectDataSchema
  2
AcDbDs::TreatedAsObjectData
280
     1
 91
        0
  0
XRECORD
  5
2C72
102
{ACAD_REACTORS
330
2C76
102
}
330
2C76
100
AcDbXrecord
280
     1
  1
AcDbDs::LegacySchema
  2
AcDbDs::Legacy
280
     1
 91
        0
  0
XRECORD
  5
2C73
102
{ACAD_REACTORS
330
2C76
102
}
330
2C76
100
AcDbXrecord
280
     1
  1
AcDbDs::IndexedPropertySchema
  2
AcDs:Indexable
280
     1
 91
        0
  0
XRECORD
  5
2C74
102
{ACAD_REACTORS
330
2C76
102
}
330
2C76
100
AcDbXrecord
280
     1
  1
AcDbDs::HandleAttributeSchema
  2
AcDbDs::HandleAttribute
280
     7
 91
        1
284
     1
  0
XRECORD
  5
469
102
{ACAD_REACTORS
330
468
102
}
330
468
100
AcDbXrecord
280
     1
102
DISPLAYNAME
  1
Imperial24
102
FLAGS
 90
        0
  0
XRECORD
  5
186
102
{ACAD_REACTORS
330
184
102
}
330
184
100
AcDbXrecord
280
     1
270
     1
271
     1
  0
XRECORD
  5
185
102
{ACAD_REACTORS
330
184
102
}
330
184
100
AcDbXrecord
280
     1
270
     1
271
     1
  0
XRECORD
  5
189
102
{ACAD_REACTORS
330
184
102
}
330
184
100
AcDbXrecord
280
     1
270
     1
271
     1
  0
XRECORD
  5
188
102
{ACAD_REACTORS
330
184
102
}
330
184
100
AcDbXrecord
280
     1
270
     1
271
     1
  0
XRECORD
  5
18A
102
{ACAD_REACTORS
330
184
102
}
330
184
100
AcDbXrecord
280
     1
270
     1
271
     1
  0
XRECORD
  5
187
102
{ACAD_REACTORS
330
184
102
}
330
184
100
AcDbXrecord
280
     1
270
     1
271
     1
  0
XRECORD
  5
17E
102
{ACAD_REACTORS
330
17C
102
}
330
17C
100
AcDbXrecord
280
     1
270
     1
271
     1
  0
XRECORD
  5
17D
102
{ACAD_REACTORS
330
17C
102
}
330
17C
100
AcDbXrecord
280
     1
270
     1
271
     1
  0
XRECORD
  5
181
102
{ACAD_REACTORS
330
17C
102
}
330
17C
100
AcDbXrecord
280
     1
270
     1
271
     1
  0
XRECORD
  5
180
102
{ACAD_REACTORS
330
17C
102
}
330
17C
100
AcDbXrecord
280
     1
270
     1
271
     1
  0
XRECORD
  5
182
102
{ACAD_REACTORS
330
17C
102
}
330
17C
100
AcDbXrecord
280
     1
270
     1
271
     1
  0
XRECORD
  5
17F
102
{ACAD_REACTORS
330
17C
102
}
330
17C
100
AcDbXrecord
280
     1
270
     1
271
     1
  0
XRECORD
  5
18E
102
{ACAD_REACTORS
330
18C
102
}
330
18C
100
AcDbXrecord
280
     1
270
     1
271
     1
  0
XRECORD
  5
18D
102
{ACAD_REACTORS
330
18C
102
}
330
18C
100
AcDbXrecord
280
     1
270
     1
271
     1
  0
XRECORD
  5
191
102
{ACAD_REACTORS
330
18C
102
}
330
18C
100
AcDbXrecord
280
     1
270
     1
271
     1
  0
XRECORD
  5
190
102
{ACAD_REACTORS
330
18C
102
}
330
18C
100
AcDbXrecord
280
     1
270
     1
271
     1
  0
XRECORD
  5
192
102
{ACAD_REACTORS
330
18C
102
}
330
18C
100
AcDbXrecord
280
     1
270
     1
271
     1
  0
XRECORD
  5
18F
102
{ACAD_REACTORS
330
18C
102
}
330
18C
100
AcDbXrecord
280
     1
270
     1
271
     1
  0
XRECORD
  5
467
102
{ACAD_REACTORS
330
466
102
}
330
466
100
AcDbXrecord
280
     1
102
DISPLAYNAME
  1
Imperial24
102
FLAGS
 90
        0
  0
CELLSTYLEMAP
  5
2C6E
102
{ACAD_REACTORS
330
35F
102
}
330
35F
100
AcDbCellStyleMap
 90
        3
300
CELLSTYLE
  1
TABLEFORMAT_BEGIN
 90
        5
170
     1
 91
        0
 92
    32768
 62
   257
 93
        1
300
CONTENTFORMAT
  1
CONTENTFORMAT_BEGIN
 90
        0
 91
        0
 92
      512
 93
        0
300

 40
0.0
140
1.0
 94
        5
 62
     0
340
11
144
0.25
309
CONTENTFORMAT_END
171
     1
301
MARGIN
  1
CELLMARGIN_BEGIN
 40
0.06
 40
0.06
 40
0.06
 40
0.06
 40
0.18
 40
0.18
309
CELLMARGIN_END
 94
        6
 95
        1
302
GRIDFORMAT
  1
GRIDFORMAT_BEGIN
 90
        0
 91
        1
 62
     0
 92
       -2
340
0
 93
        0
 40
0.045
309
GRIDFORMAT_END
 95
        2
302
GRIDFORMAT
  1
GRIDFORMAT_BEGIN
 90
        0
 91
        1
 62
     0
 92
       -2
340
0
 93
        0
 40
0.045
309
GRIDFORMAT_END
 95
        4
302
GRIDFORMAT
  1
GRIDFORMAT_BEGIN
 90
        0
 91
        1
 62
     0
 92
       -2
340
0
 93
        0
 40
0.045
309
GRIDFORMAT_END
 95
        8
302
GRIDFORMAT
  1
GRIDFORMAT_BEGIN
 90
        0
 91
        1
 62
     0
 92
       -2
340
0
 93
        0
 40
0.045
309
GRIDFORMAT_END
 95
       16
302
GRIDFORMAT
  1
GRIDFORMAT_BEGIN
 90
        0
 91
        1
 62
     0
 92
       -2
340
0
 93
        0
 40
0.045
309
GRIDFORMAT_END
 95
       32
302
GRIDFORMAT
  1
GRIDFORMAT_BEGIN
 90
        0
 91
        1
 62
     0
 92
       -2
340
0
 93
        0
 40
0.045
309
GRIDFORMAT_END
309
TABLEFORMAT_END
  1
CELLSTYLE_BEGIN
 90
        1
 91
        1
300
_TITLE
309
CELLSTYLE_END
300
CELLSTYLE
  1
TABLEFORMAT_BEGIN
 90
        5
170
     1
 91
        0
 92
        0
 62
   257
 93
        1
300
CONTENTFORMAT
  1
CONTENTFORMAT_BEGIN
 90
        0
 91
        0
 92
      512
 93
        0
300

 40
0.0
140
1.0
 94
        5
 62
     0
340
11
144
0.18
309
CONTENTFORMAT_END
171
     1
301
MARGIN
  1
CELLMARGIN_BEGIN
 40
0.06
 40
0.06
 40
0.06
 40
0.06
 40
0.18
 40
0.18
309
CELLMARGIN_END
 94
        6
 95
        1
302
GRIDFORMAT
  1
GRIDFORMAT_BEGIN
 90
        0
 91
        1
 62
     0
 92
       -2
340
0
 93
        0
 40
0.045
309
GRIDFORMAT_END
 95
        2
302
GRIDFORMAT
  1
GRIDFORMAT_BEGIN
 90
        0
 91
        1
 62
     0
 92
       -2
340
0
 93
        0
 40
0.045
309
GRIDFORMAT_END
 95
        4
302
GRIDFORMAT
  1
GRIDFORMAT_BEGIN
 90
        0
 91
        1
 62
     0
 92
       -2
340
0
 93
        0
 40
0.045
309
GRIDFORMAT_END
 95
        8
302
GRIDFORMAT
  1
GRIDFORMAT_BEGIN
 90
        0
 91
        1
 62
     0
 92
       -2
340
0
 93
        0
 40
0.045
309
GRIDFORMAT_END
 95
       16
302
GRIDFORMAT
  1
GRIDFORMAT_BEGIN
 90
        0
 91
        1
 62
     0
 92
       -2
340
0
 93
        0
 40
0.045
309
GRIDFORMAT_END
 95
       32
302
GRIDFORMAT
  1
GRIDFORMAT_BEGIN
 90
        0
 91
        1
 62
     0
 92
       -2
340
0
 93
        0
 40
0.045
309
GRIDFORMAT_END
309
TABLEFORMAT_END
  1
CELLSTYLE_BEGIN
 90
        2
 91
        1
300
_HEADER
309
CELLSTYLE_END
300
CELLSTYLE
  1
TABLEFORMAT_BEGIN
 90
        5
170
     1
 91
        0
 92
        0
 62
   257
 93
        1
300
CONTENTFORMAT
  1
CONTENTFORMAT_BEGIN
 90
        0
 91
        0
 92
      512
 93
        0
300

 40
0.0
140
1.0
 94
        2
 62
     0
340
11
144
0.18
309
CONTENTFORMAT_END
171
     1
301
MARGIN
  1
CELLMARGIN_BEGIN
 40
0.06
 40
0.06
 40
0.06
 40
0.06
 40
0.18
 40
0.18
309
CELLMARGIN_END
 94
        6
 95
        1
302
GRIDFORMAT
  1
GRIDFORMAT_BEGIN
 90
        0
 91
        1
 62
     0
 92
       -2
340
0
 93
        0
 40
0.045
309
GRIDFORMAT_END
 95
        2
302
GRIDFORMAT
  1
GRIDFORMAT_BEGIN
 90
        0
 91
        1
 62
     0
 92
       -2
340
0
 93
        0
 40
0.045
309
GRIDFORMAT_END
 95
        4
302
GRIDFORMAT
  1
GRIDFORMAT_BEGIN
 90
        0
 91
        1
 62
     0
 92
       -2
340
0
 93
        0
 40
0.045
309
GRIDFORMAT_END
 95
        8
302
GRIDFORMAT
  1
GRIDFORMAT_BEGIN
 90
        0
 91
        1
 62
     0
 92
       -2
340
0
 93
        0
 40
0.045
309
GRIDFORMAT_END
 95
       16
302
GRIDFORMAT
  1
GRIDFORMAT_BEGIN
 90
        0
 91
        1
 62
     0
 92
       -2
340
0
 93
        0
 40
0.045
309
GRIDFORMAT_END
 95
       32
302
GRIDFORMAT
  1
GRIDFORMAT_BEGIN
 90
        0
 91
        1
 62
     0
 92
       -2
340
0
 93
        0
 40
0.045
309
GRIDFORMAT_END
309
TABLEFORMAT_END
  1
CELLSTYLE_BEGIN
 90
        3
 91
        2
300
_DATA
309
CELLSTYLE_END
  0
XRECORD
  5
2C83
102
{ACAD_REACTORS
330
2C82
102
}
330
2C82
100
AcDbXrecord
280
     1
102
RTVSPost2010Prop28
280
     1
102
RTVSPost2010PropOp28
 70
     1
102
RTVSPost2010Prop29
280
     1
102
RTVSPost2010PropOp29
 70
     1
102
RTVSPost2010Prop30
280
     0
102
RTVSPost2010PropOp30
 70
     1
102
RTVSPost2010Prop31
280
     0
102
RTVSPost2010PropOp31
 70
     1
102
RTVSPost2010Prop32
280
     0
102
RTVSPost2010PropOp32
 70
     1
102
RTVSPost2010Prop33
280
     0
102
RTVSPost2010PropOp33
 70
     1
102
RTVSPost2010Prop34
280
     0
102
RTVSPost2010PropOp34
 70
     1
102
RTVSPost2010Prop35
280
     0
102
RTVSPost2010PropOp35
 70
     1
102
RTVSPost2010Prop36
280
     0
102
RTVSPost2010PropOp36
 70
     1
102
RTVSPost2010Prop37
 90
       50
102
RTVSPost2010PropOp37
 70
     1
102
RTVSPost2010Prop38
140
0.0
102
RTVSPost2010PropOp38
 70
     1
102
RTVSPost2010Prop39
140
1.0
102
RTVSPost2010PropOp39
 70
     1
102
RTVSPost2010Prop40
 90
        0
102
RTVSPost2010PropOp40
 70
     1
102
RTVSPost2010Prop41ColorIndex
 90
       18
102
RTVSPost2010Prop41ColorRGB
 90
        0
102
RTVSPost2010PropOp41
 70
     1
102
RTVSPost2010Prop42
 90
       50
102
RTVSPost2010PropOp42
 70
     1
102
RTVSPost2010Prop43
 90
        3
102
RTVSPost2010PropOp43
 70
     1
102
RTVSPost2010Prop44ColorIndex
 90
        5
102
RTVSPost2010Prop44ColorRGB
 90
      255
102
RTVSPost2010PropOp44
 70
     1
102
RTVSPost2010Prop45
280
     0
102
RTVSPost2010PropOp45
 70
     1
102
RTVSPost2010Prop46
 90
       50
102
RTVSPost2010PropOp46
 70
     1
102
RTVSPost2010Prop47
 90
       50
102
RTVSPost2010PropOp47
 70
     1
102
RTVSPost2010Prop48
 90
       50
102
RTVSPost2010PropOp48
 70
     1
102
RTVSPost2010Prop49
280
     0
102
RTVSPost2010PropOp49
 70
     1
102
RTVSPost2010Prop50
 90
       50
102
RTVSPost2010PropOp50
 70
     1
102
RTVSPost2010Prop51ColorIndex
 90
      256
102
RTVSPost2010Prop51ColorRGB
 90
-16777216
102
RTVSPost2010PropOp51
 70
     0
102
RTVSPost2010Prop52
140
1.0
102
RTVSPost2010PropOp52
 70
     0
102
RTVSPost2010Prop53
 90
        2
102
RTVSPost2010PropOp53
 70
     1
102
RTVSPost2010Prop54
  1
strokes_ogs.tif
102
RTVSPost2010PropOp54
 70
     1
102
RTVSPost2010Prop55
280
     0
102
RTVSPost2010PropOp55
 70
     1
102
RTVSPost2010Prop56
140
1.0
102
RTVSPost2010PropOp56
 70
     1
102
RTVSPost2010Prop57
140
1.0
102
RTVSPost2010PropOp57
 70
     1
  0
XRECORD
  5
2C81
102
{ACAD_REACTORS
330
2C80
102
}
330
2C80
100
AcDbXrecord
280
     1
102
RTVSPost2010Prop28
280
     0
102
RTVSPost2010PropOp28
 70
     1
102
RTVSPost2010Prop29
280
     1
102
RTVSPost2010PropOp29
 70
     1
102
RTVSPost2010Prop30
280
     1
102
RTVSPost2010PropOp30
 70
     1
102
RTVSPost2010Prop31
280
     0
102
RTVSPost2010PropOp31
 70
     1
102
RTVSPost2010Prop32
280
     0
102
RTVSPost2010PropOp32
 70
     1
102
RTVSPost2010Prop33
280
     0
102
RTVSPost2010PropOp33
 70
     1
102
RTVSPost2010Prop34
280
     0
102
RTVSPost2010PropOp34
 70
     1
102
RTVSPost2010Prop35
280
     0
102
RTVSPost2010PropOp35
 70
     1
102
RTVSPost2010Prop36
280
     0
102
RTVSPost2010PropOp36
 70
     1
102
RTVSPost2010Prop37
 90
       50
102
RTVSPost2010PropOp37
 70
     1
102
RTVSPost2010Prop38
140
0.0
102
RTVSPost2010PropOp38
 70
     1
102
RTVSPost2010Prop39
140
1.0
102
RTVSPost2010PropOp39
 70
     1
102
RTVSPost2010Prop40
 90
        0
102
RTVSPost2010PropOp40
 70
     1
102
RTVSPost2010Prop41ColorIndex
 90
       18
102
RTVSPost2010Prop41ColorRGB
 90
        0
102
RTVSPost2010PropOp41
 70
     1
102
RTVSPost2010Prop42
 90
       50
102
RTVSPost2010PropOp42
 70
     1
102
RTVSPost2010Prop43
 90
        3
102
RTVSPost2010PropOp43
 70
     1
102
RTVSPost2010Prop44ColorIndex
 90
        5
102
RTVSPost2010Prop44ColorRGB
 90
      255
102
RTVSPost2010PropOp44
 70
     1
102
RTVSPost2010Prop45
280
     0
102
RTVSPost2010PropOp45
 70
     1
102
RTVSPost2010Prop46
 90
       50
102
RTVSPost2010PropOp46
 70
     1
102
RTVSPost2010Prop47
 90
       50
102
RTVSPost2010PropOp47
 70
     1
102
RTVSPost2010Prop48
 90
       50
102
RTVSPost2010PropOp48
 70
     1
102
RTVSPost2010Prop49
280
     0
102
RTVSPost2010PropOp49
 70
     1
102
RTVSPost2010Prop50
 90
       50
102
RTVSPost2010PropOp50
 70
     1
102
RTVSPost2010Prop51ColorIndex
 90
      256
102
RTVSPost2010Prop51ColorRGB
 90
-16777216
102
RTVSPost2010PropOp51
 70
     0
102
RTVSPost2010Prop52
140
1.0
102
RTVSPost2010PropOp52
 70
     0
102
RTVSPost2010Prop53
 90
        2
102
RTVSPost2010PropOp53
 70
     1
102
RTVSPost2010Prop54
  1
strokes_ogs.tif
102
RTVSPost2010PropOp54
 70
     1
102
RTVSPost2010Prop55
280
     0
102
RTVSPost2010PropOp55
 70
     1
102
RTVSPost2010Prop56
140
1.0
102
RTVSPost2010PropOp56
 70
     1
102
RTVSPost2010Prop57
140
1.0
102
RTVSPost2010PropOp57
 70
     1
  0
XRECORD
  5
2C8F
102
{ACAD_REACTORS
330
2C8E
102
}
330
2C8E
100
AcDbXrecord
280
     1
102
RTVSPost2010Prop28
280
     0
102
RTVSPost2010PropOp28
 70
     1
102
RTVSPost2010Prop29
280
     1
102
RTVSPost2010PropOp29
 70
     1
102
RTVSPost2010Prop30
280
     1
102
RTVSPost2010PropOp30
 70
     1
102
RTVSPost2010Prop31
280
     0
102
RTVSPost2010PropOp31
 70
     1
102
RTVSPost2010Prop32
280
     0
102
RTVSPost2010PropOp32
 70
     1
102
RTVSPost2010Prop33
280
     0
102
RTVSPost2010PropOp33
 70
     1
102
RTVSPost2010Prop34
280
     0
102
RTVSPost2010PropOp34
 70
     1
102
RTVSPost2010Prop35
280
     0
102
RTVSPost2010PropOp35
 70
     1
102
RTVSPost2010Prop36
280
     0
102
RTVSPost2010PropOp36
 70
     1
102
RTVSPost2010Prop37
 90
       50
102
RTVSPost2010PropOp37
 70
     1
102
RTVSPost2010Prop38
140
0.0
102
RTVSPost2010PropOp38
 70
     1
102
RTVSPost2010Prop39
140
1.0
102
RTVSPost2010PropOp39
 70
     1
102
RTVSPost2010Prop40
 90
        0
102
RTVSPost2010PropOp40
 70
     1
102
RTVSPost2010Prop41ColorIndex
 90
       18
102
RTVSPost2010Prop41ColorRGB
 90
        0
102
RTVSPost2010PropOp41
 70
     1
102
RTVSPost2010Prop42
 90
       50
102
RTVSPost2010PropOp42
 70
     1
102
RTVSPost2010Prop43
 90
        3
102
RTVSPost2010PropOp43
 70
     1
102
RTVSPost2010Prop44ColorIndex
 90
        5
102
RTVSPost2010Prop44ColorRGB
 90
      255
102
RTVSPost2010PropOp44
 70
     1
102
RTVSPost2010Prop45
280
     0
102
RTVSPost2010PropOp45
 70
     1
102
RTVSPost2010Prop46
 90
       50
102
RTVSPost2010PropOp46
 70
     1
102
RTVSPost2010Prop47
 90
       50
102
RTVSPost2010PropOp47
 70
     1
102
RTVSPost2010Prop48
 90
       50
102
RTVSPost2010PropOp48
 70
     1
102
RTVSPost2010Prop49
280
     0
102
RTVSPost2010PropOp49
 70
     1
102
RTVSPost2010Prop50
 90
       50
102
RTVSPost2010PropOp50
 70
     1
102
RTVSPost2010Prop51ColorIndex
 90
      256
102
RTVSPost2010Prop51ColorRGB
 90
-16777216
102
RTVSPost2010PropOp51
 70
     0
102
RTVSPost2010Prop52
140
1.0
102
RTVSPost2010PropOp52
 70
     0
102
RTVSPost2010Prop53
 90
        2
102
RTVSPost2010PropOp53
 70
     1
102
RTVSPost2010Prop54
  1
strokes_ogs.tif
102
RTVSPost2010PropOp54
 70
     1
102
RTVSPost2010Prop55
280
     0
102
RTVSPost2010PropOp55
 70
     1
102
RTVSPost2010Prop56
140
1.0
102
RTVSPost2010PropOp56
 70
     1
102
RTVSPost2010Prop57
140
1.0
102
RTVSPost2010PropOp57
 70
     1
  0
XRECORD
  5
2C97
102
{ACAD_REACTORS
330
2C96
102
}
330
2C96
100
AcDbXrecord
280
     1
102
RTVSPost2010Prop28
280
     0
102
RTVSPost2010PropOp28
 70
     1
102
RTVSPost2010Prop29
280
     1
102
RTVSPost2010PropOp29
 70
     1
102
RTVSPost2010Prop30
280
     1
102
RTVSPost2010PropOp30
 70
     1
102
RTVSPost2010Prop31
280
     0
102
RTVSPost2010PropOp31
 70
     1
102
RTVSPost2010Prop32
280
     0
102
RTVSPost2010PropOp32
 70
     1
102
RTVSPost2010Prop33
280
     0
102
RTVSPost2010PropOp33
 70
     1
102
RTVSPost2010Prop34
280
     0
102
RTVSPost2010PropOp34
 70
     1
102
RTVSPost2010Prop35
280
     0
102
RTVSPost2010PropOp35
 70
     1
102
RTVSPost2010Prop36
280
     0
102
RTVSPost2010PropOp36
 70
     1
102
RTVSPost2010Prop37
 90
       50
102
RTVSPost2010PropOp37
 70
     1
102
RTVSPost2010Prop38
140
0.0
102
RTVSPost2010PropOp38
 70
     1
102
RTVSPost2010Prop39
140
1.0
102
RTVSPost2010PropOp39
 70
     1
102
RTVSPost2010Prop40
 90
        0
102
RTVSPost2010PropOp40
 70
     1
102
RTVSPost2010Prop41ColorIndex
 90
       18
102
RTVSPost2010Prop41ColorRGB
 90
        0
102
RTVSPost2010PropOp41
 70
     1
102
RTVSPost2010Prop42
 90
       50
102
RTVSPost2010PropOp42
 70
     1
102
RTVSPost2010Prop43
 90
        3
102
RTVSPost2010PropOp43
 70
     1
102
RTVSPost2010Prop44ColorIndex
 90
        5
102
RTVSPost2010Prop44ColorRGB
 90
      255
102
RTVSPost2010PropOp44
 70
     1
102
RTVSPost2010Prop45
280
     0
102
RTVSPost2010PropOp45
 70
     1
102
RTVSPost2010Prop46
 90
       50
102
RTVSPost2010PropOp46
 70
     1
102
RTVSPost2010Prop47
 90
       50
102
RTVSPost2010PropOp47
 70
     1
102
RTVSPost2010Prop48
 90
       50
102
RTVSPost2010PropOp48
 70
     1
102
RTVSPost2010Prop49
280
     0
102
RTVSPost2010PropOp49
 70
     1
102
RTVSPost2010Prop50
 90
       50
102
RTVSPost2010PropOp50
 70
     1
102
RTVSPost2010Prop51ColorIndex
 90
      256
102
RTVSPost2010Prop51ColorRGB
 90
-16777216
102
RTVSPost2010PropOp51
 70
     0
102
RTVSPost2010Prop52
140
1.0
102
RTVSPost2010PropOp52
 70
     0
102
RTVSPost2010Prop53
 90
        2
102
RTVSPost2010PropOp53
 70
     1
102
RTVSPost2010Prop54
  1
strokes_ogs.tif
102
RTVSPost2010PropOp54
 70
     1
102
RTVSPost2010Prop55
280
     0
102
RTVSPost2010PropOp55
 70
     1
102
RTVSPost2010Prop56
140
1.0
102
RTVSPost2010PropOp56
 70
     1
102
RTVSPost2010Prop57
140
1.0
102
RTVSPost2010PropOp57
 70
     1
  0
XRECORD
  5
2C89
102
{ACAD_REACTORS
330
2C88
102
}
330
2C88
100
AcDbXrecord
280
     1
102
RTVSPost2010Prop28
280
     0
102
RTVSPost2010PropOp28
 70
     1
102
RTVSPost2010Prop29
280
     1
102
RTVSPost2010PropOp29
 70
     1
102
RTVSPost2010Prop30
280
     1
102
RTVSPost2010PropOp30
 70
     1
102
RTVSPost2010Prop31
280
     0
102
RTVSPost2010PropOp31
 70
     1
102
RTVSPost2010Prop32
280
     0
102
RTVSPost2010PropOp32
 70
     1
102
RTVSPost2010Prop33
280
     0
102
RTVSPost2010PropOp33
 70
     1
102
RTVSPost2010Prop34
280
     0
102
RTVSPost2010PropOp34
 70
     1
102
RTVSPost2010Prop35
280
     0
102
RTVSPost2010PropOp35
 70
     1
102
RTVSPost2010Prop36
280
     0
102
RTVSPost2010PropOp36
 70
     1
102
RTVSPost2010Prop37
 90
       50
102
RTVSPost2010PropOp37
 70
     1
102
RTVSPost2010Prop38
140
0.0
102
RTVSPost2010PropOp38
 70
     1
102
RTVSPost2010Prop39
140
1.0
102
RTVSPost2010PropOp39
 70
     1
102
RTVSPost2010Prop40
 90
        0
102
RTVSPost2010PropOp40
 70
     1
102
RTVSPost2010Prop41ColorIndex
 90
       18
102
RTVSPost2010Prop41ColorRGB
 90
        0
102
RTVSPost2010PropOp41
 70
     1
102
RTVSPost2010Prop42
 90
       50
102
RTVSPost2010PropOp42
 70
     1
102
RTVSPost2010Prop43
 90
        3
102
RTVSPost2010PropOp43
 70
     1
102
RTVSPost2010Prop44ColorIndex
 90
        5
102
RTVSPost2010Prop44ColorRGB
 90
      255
102
RTVSPost2010PropOp44
 70
     1
102
RTVSPost2010Prop45
280
     0
102
RTVSPost2010PropOp45
 70
     1
102
RTVSPost2010Prop46
 90
       50
102
RTVSPost2010PropOp46
 70
     1
102
RTVSPost2010Prop47
 90
       50
102
RTVSPost2010PropOp47
 70
     1
102
RTVSPost2010Prop48
 90
       50
102
RTVSPost2010PropOp48
 70
     1
102
RTVSPost2010Prop49
280
     0
102
RTVSPost2010PropOp49
 70
     1
102
RTVSPost2010Prop50
 90
       50
102
RTVSPost2010PropOp50
 70
     1
102
RTVSPost2010Prop51ColorIndex
 90
      256
102
RTVSPost2010Prop51ColorRGB
 90
-16777216
102
RTVSPost2010PropOp51
 70
     0
102
RTVSPost2010Prop52
140
1.0
102
RTVSPost2010PropOp52
 70
     0
102
RTVSPost2010Prop53
 90
        2
102
RTVSPost2010PropOp53
 70
     1
102
RTVSPost2010Prop54
  1
strokes_ogs.tif
102
RTVSPost2010PropOp54
 70
     1
102
RTVSPost2010Prop55
280
     0
102
RTVSPost2010PropOp55
 70
     1
102
RTVSPost2010Prop56
140
1.0
102
RTVSPost2010PropOp56
 70
     1
102
RTVSPost2010Prop57
140
1.0
102
RTVSPost2010PropOp57
 70
     1
  0
XRECORD
  5
2C8D
102
{ACAD_REACTORS
330
2C8C
102
}
330
2C8C
100
AcDbXrecord
280
     1
102
RTVSPost2010Prop28
280
     0
102
RTVSPost2010PropOp28
 70
     1
102
RTVSPost2010Prop29
280
     1
102
RTVSPost2010PropOp29
 70
     1
102
RTVSPost2010Prop30
280
     1
102
RTVSPost2010PropOp30
 70
     1
102
RTVSPost2010Prop31
280
     0
102
RTVSPost2010PropOp31
 70
     1
102
RTVSPost2010Prop32
280
     0
102
RTVSPost2010PropOp32
 70
     1
102
RTVSPost2010Prop33
280
     0
102
RTVSPost2010PropOp33
 70
     1
102
RTVSPost2010Prop34
280
     0
102
RTVSPost2010PropOp34
 70
     1
102
RTVSPost2010Prop35
280
     0
102
RTVSPost2010PropOp35
 70
     1
102
RTVSPost2010Prop36
280
     0
102
RTVSPost2010PropOp36
 70
     1
102
RTVSPost2010Prop37
 90
       50
102
RTVSPost2010PropOp37
 70
     1
102
RTVSPost2010Prop38
140
0.0
102
RTVSPost2010PropOp38
 70
     1
102
RTVSPost2010Prop39
140
1.0
102
RTVSPost2010PropOp39
 70
     1
102
RTVSPost2010Prop40
 90
        0
102
RTVSPost2010PropOp40
 70
     1
102
RTVSPost2010Prop41ColorIndex
 90
       18
102
RTVSPost2010Prop41ColorRGB
 90
        0
102
RTVSPost2010PropOp41
 70
     1
102
RTVSPost2010Prop42
 90
       50
102
RTVSPost2010PropOp42
 70
     1
102
RTVSPost2010Prop43
 90
        3
102
RTVSPost2010PropOp43
 70
     1
102
RTVSPost2010Prop44ColorIndex
 90
        5
102
RTVSPost2010Prop44ColorRGB
 90
      255
102
RTVSPost2010PropOp44
 70
     1
102
RTVSPost2010Prop45
280
     0
102
RTVSPost2010PropOp45
 70
     1
102
RTVSPost2010Prop46
 90
       50
102
RTVSPost2010PropOp46
 70
     1
102
RTVSPost2010Prop47
 90
       50
102
RTVSPost2010PropOp47
 70
     1
102
RTVSPost2010Prop48
 90
       50
102
RTVSPost2010PropOp48
 70
     1
102
RTVSPost2010Prop49
280
     0
102
RTVSPost2010PropOp49
 70
     1
102
RTVSPost2010Prop50
 90
       50
102
RTVSPost2010PropOp50
 70
     1
102
RTVSPost2010Prop51ColorIndex
 90
      256
102
RTVSPost2010Prop51ColorRGB
 90
-16777216
102
RTVSPost2010PropOp51
 70
     0
102
RTVSPost2010Prop52
140
1.0
102
RTVSPost2010PropOp52
 70
     0
102
RTVSPost2010Prop53
 90
        2
102
RTVSPost2010PropOp53
 70
     1
102
RTVSPost2010Prop54
  1
strokes_ogs.tif
102
RTVSPost2010PropOp54
 70
     1
102
RTVSPost2010Prop55
280
     0
102
RTVSPost2010PropOp55
 70
     1
102
RTVSPost2010Prop56
140
1.0
102
RTVSPost2010PropOp56
 70
     1
102
RTVSPost2010Prop57
140
1.0
102
RTVSPost2010PropOp57
 70
     1
  0
XRECORD
  5
2CA7
102
{ACAD_REACTORS
330
2CA6
102
}
330
2CA6
100
AcDbXrecord
280
     1
102
RTVSPost2010Prop28
280
     0
102
RTVSPost2010PropOp28
 70
     1
102
RTVSPost2010Prop29
280
     1
102
RTVSPost2010PropOp29
 70
     1
102
RTVSPost2010Prop30
280
     1
102
RTVSPost2010PropOp30
 70
     1
102
RTVSPost2010Prop31
280
     0
102
RTVSPost2010PropOp31
 70
     1
102
RTVSPost2010Prop32
280
     0
102
RTVSPost2010PropOp32
 70
     1
102
RTVSPost2010Prop33
280
     0
102
RTVSPost2010PropOp33
 70
     1
102
RTVSPost2010Prop34
280
     0
102
RTVSPost2010PropOp34
 70
     1
102
RTVSPost2010Prop35
280
     0
102
RTVSPost2010PropOp35
 70
     1
102
RTVSPost2010Prop36
280
     0
102
RTVSPost2010PropOp36
 70
     1
102
RTVSPost2010Prop37
 90
       50
102
RTVSPost2010PropOp37
 70
     0
102
RTVSPost2010Prop38
140
0.0
102
RTVSPost2010PropOp38
 70
     0
102
RTVSPost2010Prop39
140
1.0
102
RTVSPost2010PropOp39
 70
     0
102
RTVSPost2010Prop40
 90
        0
102
RTVSPost2010PropOp40
 70
     0
102
RTVSPost2010Prop41ColorIndex
 90
       18
102
RTVSPost2010Prop41ColorRGB
 90
        0
102
RTVSPost2010PropOp41
 70
     0
102
RTVSPost2010Prop42
 90
       50
102
RTVSPost2010PropOp42
 70
     0
102
RTVSPost2010Prop43
 90
        3
102
RTVSPost2010PropOp43
 70
     0
102
RTVSPost2010Prop44ColorIndex
 90
        5
102
RTVSPost2010Prop44ColorRGB
 90
      255
102
RTVSPost2010PropOp44
 70
     0
102
RTVSPost2010Prop45
280
     0
102
RTVSPost2010PropOp45
 70
     1
102
RTVSPost2010Prop46
 90
       50
102
RTVSPost2010PropOp46
 70
     0
102
RTVSPost2010Prop47
 90
       50
102
RTVSPost2010PropOp47
 70
     0
102
RTVSPost2010Prop48
 90
       50
102
RTVSPost2010PropOp48
 70
     0
102
RTVSPost2010Prop49
280
     0
102
RTVSPost2010PropOp49
 70
     1
102
RTVSPost2010Prop50
 90
       50
102
RTVSPost2010PropOp50
 70
     0
102
RTVSPost2010Prop51ColorIndex
 90
      256
102
RTVSPost2010Prop51ColorRGB
 90
-16777216
102
RTVSPost2010PropOp51
 70
     0
102
RTVSPost2010Prop52
140
1.0
102
RTVSPost2010PropOp52
 70
     0
102
RTVSPost2010Prop53
 90
        2
102
RTVSPost2010PropOp53
 70
     0
102
RTVSPost2010Prop54
  1
strokes_ogs.tif
102
RTVSPost2010PropOp54
 70
     0
102
RTVSPost2010Prop55
280
     0
102
RTVSPost2010PropOp55
 70
     1
102
RTVSPost2010Prop56
140
1.0
102
RTVSPost2010PropOp56
 70
     0
102
RTVSPost2010Prop57
140
1.0
102
RTVSPost2010PropOp57
 70
     0
  0
XRECORD
  5
2C95
102
{ACAD_REACTORS
330
2C94
102
}
330
2C94
100
AcDbXrecord
280
     1
102
RTVSPost2010Prop28
280
     0
102
RTVSPost2010PropOp28
 70
     1
102
RTVSPost2010Prop29
280
     1
102
RTVSPost2010PropOp29
 70
     1
102
RTVSPost2010Prop30
280
     1
102
RTVSPost2010PropOp30
 70
     1
102
RTVSPost2010Prop31
280
     0
102
RTVSPost2010PropOp31
 70
     1
102
RTVSPost2010Prop32
280
     0
102
RTVSPost2010PropOp32
 70
     1
102
RTVSPost2010Prop33
280
     0
102
RTVSPost2010PropOp33
 70
     1
102
RTVSPost2010Prop34
280
     0
102
RTVSPost2010PropOp34
 70
     1
102
RTVSPost2010Prop35
280
     0
102
RTVSPost2010PropOp35
 70
     1
102
RTVSPost2010Prop36
280
     0
102
RTVSPost2010PropOp36
 70
     1
102
RTVSPost2010Prop37
 90
       50
102
RTVSPost2010PropOp37
 70
     1
102
RTVSPost2010Prop38
140
0.0
102
RTVSPost2010PropOp38
 70
     1
102
RTVSPost2010Prop39
140
1.0
102
RTVSPost2010PropOp39
 70
     1
102
RTVSPost2010Prop40
 90
        0
102
RTVSPost2010PropOp40
 70
     1
102
RTVSPost2010Prop41ColorIndex
 90
       18
102
RTVSPost2010Prop41ColorRGB
 90
        0
102
RTVSPost2010PropOp41
 70
     1
102
RTVSPost2010Prop42
 90
       50
102
RTVSPost2010PropOp42
 70
     1
102
RTVSPost2010Prop43
 90
        3
102
RTVSPost2010PropOp43
 70
     1
102
RTVSPost2010Prop44ColorIndex
 90
        5
102
RTVSPost2010Prop44ColorRGB
 90
      255
102
RTVSPost2010PropOp44
 70
     1
102
RTVSPost2010Prop45
280
     0
102
RTVSPost2010PropOp45
 70
     1
102
RTVSPost2010Prop46
 90
       50
102
RTVSPost2010PropOp46
 70
     1
102
RTVSPost2010Prop47
 90
       50
102
RTVSPost2010PropOp47
 70
     1
102
RTVSPost2010Prop48
 90
       50
102
RTVSPost2010PropOp48
 70
     1
102
RTVSPost2010Prop49
280
     0
102
RTVSPost2010PropOp49
 70
     1
102
RTVSPost2010Prop50
 90
       50
102
RTVSPost2010PropOp50
 70
     1
102
RTVSPost2010Prop51ColorIndex
 90
      256
102
RTVSPost2010Prop51ColorRGB
 90
-16777216
102
RTVSPost2010PropOp51
 70
     0
102
RTVSPost2010Prop52
140
1.0
102
RTVSPost2010PropOp52
 70
     0
102
RTVSPost2010Prop53
 90
        2
102
RTVSPost2010PropOp53
 70
     1
102
RTVSPost2010Prop54
  1
strokes_ogs.tif
102
RTVSPost2010PropOp54
 70
     1
102
RTVSPost2010Prop55
280
     0
102
RTVSPost2010PropOp55
 70
     1
102
RTVSPost2010Prop56
140
1.0
102
RTVSPost2010PropOp56
 70
     1
102
RTVSPost2010Prop57
140
1.0
102
RTVSPost2010PropOp57
 70
     1
  0
XRECORD
  5
2C79
102
{ACAD_REACTORS
330
2C78
102
}
330
2C78
100
AcDbXrecord
280
     1
102
RTVSPost2010Prop28
280
     0
102
RTVSPost2010PropOp28
 70
     1
102
RTVSPost2010Prop29
280
     1
102
RTVSPost2010PropOp29
 70
     1
102
RTVSPost2010Prop30
280
     1
102
RTVSPost2010PropOp30
 70
     1
102
RTVSPost2010Prop31
280
     0
102
RTVSPost2010PropOp31
 70
     1
102
RTVSPost2010Prop32
280
     0
102
RTVSPost2010PropOp32
 70
     1
102
RTVSPost2010Prop33
280
     0
102
RTVSPost2010PropOp33
 70
     1
102
RTVSPost2010Prop34
280
     0
102
RTVSPost2010PropOp34
 70
     1
102
RTVSPost2010Prop35
280
     0
102
RTVSPost2010PropOp35
 70
     1
102
RTVSPost2010Prop36
280
     0
102
RTVSPost2010PropOp36
 70
     1
102
RTVSPost2010Prop37
 90
       50
102
RTVSPost2010PropOp37
 70
     1
102
RTVSPost2010Prop38
140
0.0
102
RTVSPost2010PropOp38
 70
     1
102
RTVSPost2010Prop39
140
1.0
102
RTVSPost2010PropOp39
 70
     1
102
RTVSPost2010Prop40
 90
        0
102
RTVSPost2010PropOp40
 70
     1
102
RTVSPost2010Prop41ColorIndex
 90
       18
102
RTVSPost2010Prop41ColorRGB
 90
        0
102
RTVSPost2010PropOp41
 70
     1
102
RTVSPost2010Prop42
 90
       50
102
RTVSPost2010PropOp42
 70
     1
102
RTVSPost2010Prop43
 90
        3
102
RTVSPost2010PropOp43
 70
     1
102
RTVSPost2010Prop44ColorIndex
 90
        5
102
RTVSPost2010Prop44ColorRGB
 90
      255
102
RTVSPost2010PropOp44
 70
     1
102
RTVSPost2010Prop45
280
     0
102
RTVSPost2010PropOp45
 70
     1
102
RTVSPost2010Prop46
 90
       50
102
RTVSPost2010PropOp46
 70
     1
102
RTVSPost2010Prop47
 90
       50
102
RTVSPost2010PropOp47
 70
     1
102
RTVSPost2010Prop48
 90
       50
102
RTVSPost2010PropOp48
 70
     1
102
RTVSPost2010Prop49
280
     0
102
RTVSPost2010PropOp49
 70
     1
102
RTVSPost2010Prop50
 90
       50
102
RTVSPost2010PropOp50
 70
     1
102
RTVSPost2010Prop51ColorIndex
 90
      256
102
RTVSPost2010Prop51ColorRGB
 90
-16777216
102
RTVSPost2010PropOp51
 70
     0
102
RTVSPost2010Prop52
140
1.0
102
RTVSPost2010PropOp52
 70
     0
102
RTVSPost2010Prop53
 90
        2
102
RTVSPost2010PropOp53
 70
     1
102
RTVSPost2010Prop54
  1
strokes_ogs.tif
102
RTVSPost2010PropOp54
 70
     1
102
RTVSPost2010Prop55
280
     0
102
RTVSPost2010PropOp55
 70
     1
102
RTVSPost2010Prop56
140
1.0
102
RTVSPost2010PropOp56
 70
     1
102
RTVSPost2010Prop57
140
1.0
102
RTVSPost2010PropOp57
 70
     1
  0
XRECORD
  5
2C7B
102
{ACAD_REACTORS
330
2C7A
102
}
330
2C7A
100
AcDbXrecord
280
     1
102
RTVSPost2010Prop28
280
     0
102
RTVSPost2010PropOp28
 70
     1
102
RTVSPost2010Prop29
280
     1
102
RTVSPost2010PropOp29
 70
     1
102
RTVSPost2010Prop30
280
     1
102
RTVSPost2010PropOp30
 70
     1
102
RTVSPost2010Prop31
280
     0
102
RTVSPost2010PropOp31
 70
     1
102
RTVSPost2010Prop32
280
     0
102
RTVSPost2010PropOp32
 70
     1
102
RTVSPost2010Prop33
280
     0
102
RTVSPost2010PropOp33
 70
     1
102
RTVSPost2010Prop34
280
     0
102
RTVSPost2010PropOp34
 70
     1
102
RTVSPost2010Prop35
280
     0
102
RTVSPost2010PropOp35
 70
     1
102
RTVSPost2010Prop36
280
     0
102
RTVSPost2010PropOp36
 70
     1
102
RTVSPost2010Prop37
 90
       50
102
RTVSPost2010PropOp37
 70
     1
102
RTVSPost2010Prop38
140
0.0
102
RTVSPost2010PropOp38
 70
     1
102
RTVSPost2010Prop39
140
1.0
102
RTVSPost2010PropOp39
 70
     1
102
RTVSPost2010Prop40
 90
        0
102
RTVSPost2010PropOp40
 70
     1
102
RTVSPost2010Prop41ColorIndex
 90
       18
102
RTVSPost2010Prop41ColorRGB
 90
        0
102
RTVSPost2010PropOp41
 70
     1
102
RTVSPost2010Prop42
 90
       50
102
RTVSPost2010PropOp42
 70
     1
102
RTVSPost2010Prop43
 90
        3
102
RTVSPost2010PropOp43
 70
     1
102
RTVSPost2010Prop44ColorIndex
 90
        5
102
RTVSPost2010Prop44ColorRGB
 90
      255
102
RTVSPost2010PropOp44
 70
     1
102
RTVSPost2010Prop45
280
     0
102
RTVSPost2010PropOp45
 70
     1
102
RTVSPost2010Prop46
 90
       50
102
RTVSPost2010PropOp46
 70
     1
102
RTVSPost2010Prop47
 90
       50
102
RTVSPost2010PropOp47
 70
     1
102
RTVSPost2010Prop48
 90
       50
102
RTVSPost2010PropOp48
 70
     1
102
RTVSPost2010Prop49
280
     0
102
RTVSPost2010PropOp49
 70
     1
102
RTVSPost2010Prop50
 90
       50
102
RTVSPost2010PropOp50
 70
     1
102
RTVSPost2010Prop51ColorIndex
 90
      256
102
RTVSPost2010Prop51ColorRGB
 90
-16777216
102
RTVSPost2010PropOp51
 70
     0
102
RTVSPost2010Prop52
140
1.0
102
RTVSPost2010PropOp52
 70
     0
102
RTVSPost2010Prop53
 90
        2
102
RTVSPost2010PropOp53
 70
     1
102
RTVSPost2010Prop54
  1
strokes_ogs.tif
102
RTVSPost2010PropOp54
 70
     1
102
RTVSPost2010Prop55
280
     0
102
RTVSPost2010PropOp55
 70
     1
102
RTVSPost2010Prop56
140
1.0
102
RTVSPost2010PropOp56
 70
     1
102
RTVSPost2010Prop57
140
1.0
102
RTVSPost2010PropOp57
 70
     1
  0
XRECORD
  5
2C7D
102
{ACAD_REACTORS
330
2C7C
102
}
330
2C7C
100
AcDbXrecord
280
     1
102
RTVSPost2010Prop28
280
     0
102
RTVSPost2010PropOp28
 70
     1
102
RTVSPost2010Prop29
280
     1
102
RTVSPost2010PropOp29
 70
     1
102
RTVSPost2010Prop30
280
     1
102
RTVSPost2010PropOp30
 70
     1
102
RTVSPost2010Prop31
280
     0
102
RTVSPost2010PropOp31
 70
     1
102
RTVSPost2010Prop32
280
     0
102
RTVSPost2010PropOp32
 70
     1
102
RTVSPost2010Prop33
280
     0
102
RTVSPost2010PropOp33
 70
     1
102
RTVSPost2010Prop34
280
     0
102
RTVSPost2010PropOp34
 70
     1
102
RTVSPost2010Prop35
280
     0
102
RTVSPost2010PropOp35
 70
     1
102
RTVSPost2010Prop36
280
     0
102
RTVSPost2010PropOp36
 70
     1
102
RTVSPost2010Prop37
 90
       50
102
RTVSPost2010PropOp37
 70
     1
102
RTVSPost2010Prop38
140
0.0
102
RTVSPost2010PropOp38
 70
     1
102
RTVSPost2010Prop39
140
1.0
102
RTVSPost2010PropOp39
 70
     1
102
RTVSPost2010Prop40
 90
        0
102
RTVSPost2010PropOp40
 70
     1
102
RTVSPost2010Prop41ColorIndex
 90
       18
102
RTVSPost2010Prop41ColorRGB
 90
        0
102
RTVSPost2010PropOp41
 70
     1
102
RTVSPost2010Prop42
 90
       50
102
RTVSPost2010PropOp42
 70
     1
102
RTVSPost2010Prop43
 90
        3
102
RTVSPost2010PropOp43
 70
     1
102
RTVSPost2010Prop44ColorIndex
 90
        5
102
RTVSPost2010Prop44ColorRGB
 90
      255
102
RTVSPost2010PropOp44
 70
     1
102
RTVSPost2010Prop45
280
     0
102
RTVSPost2010PropOp45
 70
     1
102
RTVSPost2010Prop46
 90
       50
102
RTVSPost2010PropOp46
 70
     1
102
RTVSPost2010Prop47
 90
       50
102
RTVSPost2010PropOp47
 70
     1
102
RTVSPost2010Prop48
 90
       50
102
RTVSPost2010PropOp48
 70
     1
102
RTVSPost2010Prop49
280
     0
102
RTVSPost2010PropOp49
 70
     1
102
RTVSPost2010Prop50
 90
       50
102
RTVSPost2010PropOp50
 70
     1
102
RTVSPost2010Prop51ColorIndex
 90
      256
102
RTVSPost2010Prop51ColorRGB
 90
-16777216
102
RTVSPost2010PropOp51
 70
     0
102
RTVSPost2010Prop52
140
1.0
102
RTVSPost2010PropOp52
 70
     0
102
RTVSPost2010Prop53
 90
        2
102
RTVSPost2010PropOp53
 70
     1
102
RTVSPost2010Prop54
  1
strokes_ogs.tif
102
RTVSPost2010PropOp54
 70
     1
102
RTVSPost2010Prop55
280
     0
102
RTVSPost2010PropOp55
 70
     1
102
RTVSPost2010Prop56
140
1.0
102
RTVSPost2010PropOp56
 70
     1
102
RTVSPost2010Prop57
140
1.0
102
RTVSPost2010PropOp57
 70
     1
  0
XRECORD
  5
2C7F
102
{ACAD_REACTORS
330
2C7E
102
}
330
2C7E
100
AcDbXrecord
280
     1
102
RTVSPost2010Prop28
280
     0
102
RTVSPost2010PropOp28
 70
     1
102
RTVSPost2010Prop29
280
     1
102
RTVSPost2010PropOp29
 70
     1
102
RTVSPost2010Prop30
280
     1
102
RTVSPost2010PropOp30
 70
     1
102
RTVSPost2010Prop31
280
     0
102
RTVSPost2010PropOp31
 70
     1
102
RTVSPost2010Prop32
280
     0
102
RTVSPost2010PropOp32
 70
     1
102
RTVSPost2010Prop33
280
     0
102
RTVSPost2010PropOp33
 70
     1
102
RTVSPost2010Prop34
280
     0
102
RTVSPost2010PropOp34
 70
     1
102
RTVSPost2010Prop35
280
     0
102
RTVSPost2010PropOp35
 70
     1
102
RTVSPost2010Prop36
280
     0
102
RTVSPost2010PropOp36
 70
     1
102
RTVSPost2010Prop37
 90
       50
102
RTVSPost2010PropOp37
 70
     1
102
RTVSPost2010Prop38
140
0.0
102
RTVSPost2010PropOp38
 70
     1
102
RTVSPost2010Prop39
140
1.0
102
RTVSPost2010PropOp39
 70
     1
102
RTVSPost2010Prop40
 90
        0
102
RTVSPost2010PropOp40
 70
     1
102
RTVSPost2010Prop41ColorIndex
 90
       18
102
RTVSPost2010Prop41ColorRGB
 90
        0
102
RTVSPost2010PropOp41
 70
     1
102
RTVSPost2010Prop42
 90
       50
102
RTVSPost2010PropOp42
 70
     1
102
RTVSPost2010Prop43
 90
        3
102
RTVSPost2010PropOp43
 70
     1
102
RTVSPost2010Prop44ColorIndex
 90
        5
102
RTVSPost2010Prop44ColorRGB
 90
      255
102
RTVSPost2010PropOp44
 70
     1
102
RTVSPost2010Prop45
280
     0
102
RTVSPost2010PropOp45
 70
     1
102
RTVSPost2010Prop46
 90
       50
102
RTVSPost2010PropOp46
 70
     1
102
RTVSPost2010Prop47
 90
       50
102
RTVSPost2010PropOp47
 70
     1
102
RTVSPost2010Prop48
 90
       50
102
RTVSPost2010PropOp48
 70
     1
102
RTVSPost2010Prop49
280
     0
102
RTVSPost2010PropOp49
 70
     1
102
RTVSPost2010Prop50
 90
       50
102
RTVSPost2010PropOp50
 70
     1
102
RTVSPost2010Prop51ColorIndex
 90
      256
102
RTVSPost2010Prop51ColorRGB
 90
-16777216
102
RTVSPost2010PropOp51
 70
     0
102
RTVSPost2010Prop52
140
1.0
102
RTVSPost2010PropOp52
 70
     0
102
RTVSPost2010Prop53
 90
        2
102
RTVSPost2010PropOp53
 70
     1
102
RTVSPost2010Prop54
  1
strokes_ogs.tif
102
RTVSPost2010PropOp54
 70
     1
102
RTVSPost2010Prop55
280
     0
102
RTVSPost2010PropOp55
 70
     1
102
RTVSPost2010Prop56
140
1.0
102
RTVSPost2010PropOp56
 70
     1
102
RTVSPost2010Prop57
140
1.0
102
RTVSPost2010PropOp57
 70
     1
  0
XRECORD
  5
2C87
102
{ACAD_REACTORS
330
2C86
102
}
330
2C86
100
AcDbXrecord
280
     1
102
RTVSPost2010Prop28
280
     0
102
RTVSPost2010PropOp28
 70
     1
102
RTVSPost2010Prop29
280
     1
102
RTVSPost2010PropOp29
 70
     1
102
RTVSPost2010Prop30
280
     1
102
RTVSPost2010PropOp30
 70
     1
102
RTVSPost2010Prop31
280
     0
102
RTVSPost2010PropOp31
 70
     1
102
RTVSPost2010Prop32
280
     0
102
RTVSPost2010PropOp32
 70
     1
102
RTVSPost2010Prop33
280
     0
102
RTVSPost2010PropOp33
 70
     1
102
RTVSPost2010Prop34
280
     0
102
RTVSPost2010PropOp34
 70
     1
102
RTVSPost2010Prop35
280
     0
102
RTVSPost2010PropOp35
 70
     1
102
RTVSPost2010Prop36
280
     0
102
RTVSPost2010PropOp36
 70
     1
102
RTVSPost2010Prop37
 90
       50
102
RTVSPost2010PropOp37
 70
     1
102
RTVSPost2010Prop38
140
0.0
102
RTVSPost2010PropOp38
 70
     1
102
RTVSPost2010Prop39
140
1.0
102
RTVSPost2010PropOp39
 70
     1
102
RTVSPost2010Prop40
 90
        0
102
RTVSPost2010PropOp40
 70
     1
102
RTVSPost2010Prop41ColorIndex
 90
       18
102
RTVSPost2010Prop41ColorRGB
 90
        0
102
RTVSPost2010PropOp41
 70
     1
102
RTVSPost2010Prop42
 90
       50
102
RTVSPost2010PropOp42
 70
     1
102
RTVSPost2010Prop43
 90
        3
102
RTVSPost2010PropOp43
 70
     1
102
RTVSPost2010Prop44ColorIndex
 90
        5
102
RTVSPost2010Prop44ColorRGB
 90
      255
102
RTVSPost2010PropOp44
 70
     1
102
RTVSPost2010Prop45
280
     0
102
RTVSPost2010PropOp45
 70
     1
102
RTVSPost2010Prop46
 90
       50
102
RTVSPost2010PropOp46
 70
     1
102
RTVSPost2010Prop47
 90
       50
102
RTVSPost2010PropOp47
 70
     1
102
RTVSPost2010Prop48
 90
       50
102
RTVSPost2010PropOp48
 70
     1
102
RTVSPost2010Prop49
280
     0
102
RTVSPost2010PropOp49
 70
     1
102
RTVSPost2010Prop50
 90
       50
102
RTVSPost2010PropOp50
 70
     1
102
RTVSPost2010Prop51ColorIndex
 90
      256
102
RTVSPost2010Prop51ColorRGB
 90
-16777216
102
RTVSPost2010PropOp51
 70
     0
102
RTVSPost2010Prop52
140
1.0
102
RTVSPost2010PropOp52
 70
     0
102
RTVSPost2010Prop53
 90
        2
102
RTVSPost2010PropOp53
 70
     1
102
RTVSPost2010Prop54
  1
strokes_ogs.tif
102
RTVSPost2010PropOp54
 70
     1
102
RTVSPost2010Prop55
280
     0
102
RTVSPost2010PropOp55
 70
     1
102
RTVSPost2010Prop56
140
1.0
102
RTVSPost2010PropOp56
 70
     1
102
RTVSPost2010Prop57
140
1.0
102
RTVSPost2010PropOp57
 70
     1
  0
XRECORD
  5
2CA3
102
{ACAD_REACTORS
330
2CA2
102
}
330
2CA2
100
AcDbXrecord
280
     1
102
RTVSPost2010Prop28
280
     0
102
RTVSPost2010PropOp28
 70
     1
102
RTVSPost2010Prop29
280
     1
102
RTVSPost2010PropOp29
 70
     1
102
RTVSPost2010Prop30
280
     1
102
RTVSPost2010PropOp30
 70
     1
102
RTVSPost2010Prop31
280
     0
102
RTVSPost2010PropOp31
 70
     1
102
RTVSPost2010Prop32
280
     0
102
RTVSPost2010PropOp32
 70
     1
102
RTVSPost2010Prop33
280
     0
102
RTVSPost2010PropOp33
 70
     1
102
RTVSPost2010Prop34
280
     0
102
RTVSPost2010PropOp34
 70
     1
102
RTVSPost2010Prop35
280
     0
102
RTVSPost2010PropOp35
 70
     1
102
RTVSPost2010Prop36
280
     0
102
RTVSPost2010PropOp36
 70
     1
102
RTVSPost2010Prop37
 90
       50
102
RTVSPost2010PropOp37
 70
     0
102
RTVSPost2010Prop38
140
0.0
102
RTVSPost2010PropOp38
 70
     0
102
RTVSPost2010Prop39
140
1.0
102
RTVSPost2010PropOp39
 70
     0
102
RTVSPost2010Prop40
 90
        0
102
RTVSPost2010PropOp40
 70
     0
102
RTVSPost2010Prop41ColorIndex
 90
       18
102
RTVSPost2010Prop41ColorRGB
 90
        0
102
RTVSPost2010PropOp41
 70
     0
102
RTVSPost2010Prop42
 90
       50
102
RTVSPost2010PropOp42
 70
     0
102
RTVSPost2010Prop43
 90
        3
102
RTVSPost2010PropOp43
 70
     0
102
RTVSPost2010Prop44ColorIndex
 90
        5
102
RTVSPost2010Prop44ColorRGB
 90
      255
102
RTVSPost2010PropOp44
 70
     0
102
RTVSPost2010Prop45
280
     0
102
RTVSPost2010PropOp45
 70
     1
102
RTVSPost2010Prop46
 90
       50
102
RTVSPost2010PropOp46
 70
     0
102
RTVSPost2010Prop47
 90
       50
102
RTVSPost2010PropOp47
 70
     0
102
RTVSPost2010Prop48
 90
       50
102
RTVSPost2010PropOp48
 70
     0
102
RTVSPost2010Prop49
280
     0
102
RTVSPost2010PropOp49
 70
     1
102
RTVSPost2010Prop50
 90
       50
102
RTVSPost2010PropOp50
 70
     0
102
RTVSPost2010Prop51ColorIndex
 90
      256
102
RTVSPost2010Prop51ColorRGB
 90
-16777216
102
RTVSPost2010PropOp51
 70
     0
102
RTVSPost2010Prop52
140
1.0
102
RTVSPost2010PropOp52
 70
     0
102
RTVSPost2010Prop53
 90
        2
102
RTVSPost2010PropOp53
 70
     0
102
RTVSPost2010Prop54
  1
strokes_ogs.tif
102
RTVSPost2010PropOp54
 70
     0
102
RTVSPost2010Prop55
280
     0
102
RTVSPost2010PropOp55
 70
     1
102
RTVSPost2010Prop56
140
1.0
102
RTVSPost2010PropOp56
 70
     0
102
RTVSPost2010Prop57
140
1.0
102
RTVSPost2010PropOp57
 70
     0
  0
XRECORD
  5
2C93
102
{ACAD_REACTORS
330
2C92
102
}
330
2C92
100
AcDbXrecord
280
     1
102
RTVSPost2010Prop28
280
     0
102
RTVSPost2010PropOp28
 70
     1
102
RTVSPost2010Prop29
280
     1
102
RTVSPost2010PropOp29
 70
     1
102
RTVSPost2010Prop30
280
     1
102
RTVSPost2010PropOp30
 70
     1
102
RTVSPost2010Prop31
280
     0
102
RTVSPost2010PropOp31
 70
     1
102
RTVSPost2010Prop32
280
     0
102
RTVSPost2010PropOp32
 70
     1
102
RTVSPost2010Prop33
280
     0
102
RTVSPost2010PropOp33
 70
     1
102
RTVSPost2010Prop34
280
     0
102
RTVSPost2010PropOp34
 70
     1
102
RTVSPost2010Prop35
280
     0
102
RTVSPost2010PropOp35
 70
     1
102
RTVSPost2010Prop36
280
     0
102
RTVSPost2010PropOp36
 70
     1
102
RTVSPost2010Prop37
 90
       50
102
RTVSPost2010PropOp37
 70
     1
102
RTVSPost2010Prop38
140
0.0
102
RTVSPost2010PropOp38
 70
     1
102
RTVSPost2010Prop39
140
1.0
102
RTVSPost2010PropOp39
 70
     1
102
RTVSPost2010Prop40
 90
        0
102
RTVSPost2010PropOp40
 70
     1
102
RTVSPost2010Prop41ColorIndex
 90
       18
102
RTVSPost2010Prop41ColorRGB
 90
        0
102
RTVSPost2010PropOp41
 70
     1
102
RTVSPost2010Prop42
 90
       50
102
RTVSPost2010PropOp42
 70
     1
102
RTVSPost2010Prop43
 90
        3
102
RTVSPost2010PropOp43
 70
     1
102
RTVSPost2010Prop44ColorIndex
 90
        5
102
RTVSPost2010Prop44ColorRGB
 90
      255
102
RTVSPost2010PropOp44
 70
     1
102
RTVSPost2010Prop45
280
     0
102
RTVSPost2010PropOp45
 70
     1
102
RTVSPost2010Prop46
 90
       50
102
RTVSPost2010PropOp46
 70
     1
102
RTVSPost2010Prop47
 90
       50
102
RTVSPost2010PropOp47
 70
     1
102
RTVSPost2010Prop48
 90
       50
102
RTVSPost2010PropOp48
 70
     1
102
RTVSPost2010Prop49
280
     0
102
RTVSPost2010PropOp49
 70
     1
102
RTVSPost2010Prop50
 90
       50
102
RTVSPost2010PropOp50
 70
     1
102
RTVSPost2010Prop51ColorIndex
 90
      256
102
RTVSPost2010Prop51ColorRGB
 90
-16777216
102
RTVSPost2010PropOp51
 70
     0
102
RTVSPost2010Prop52
140
1.0
102
RTVSPost2010PropOp52
 70
     0
102
RTVSPost2010Prop53
 90
        2
102
RTVSPost2010PropOp53
 70
     1
102
RTVSPost2010Prop54
  1
strokes_ogs.tif
102
RTVSPost2010PropOp54
 70
     1
102
RTVSPost2010Prop55
280
     0
102
RTVSPost2010PropOp55
 70
     1
102
RTVSPost2010Prop56
140
1.0
102
RTVSPost2010PropOp56
 70
     1
102
RTVSPost2010Prop57
140
1.0
102
RTVSPost2010PropOp57
 70
     1
  0
XRECORD
  5
2CA5
102
{ACAD_REACTORS
330
2CA4
102
}
330
2CA4
100
AcDbXrecord
280
     1
102
RTVSPost2010Prop28
280
     0
102
RTVSPost2010PropOp28
 70
     1
102
RTVSPost2010Prop29
280
     1
102
RTVSPost2010PropOp29
 70
     1
102
RTVSPost2010Prop30
280
     1
102
RTVSPost2010PropOp30
 70
     1
102
RTVSPost2010Prop31
280
     0
102
RTVSPost2010PropOp31
 70
     1
102
RTVSPost2010Prop32
280
     0
102
RTVSPost2010PropOp32
 70
     1
102
RTVSPost2010Prop33
280
     0
102
RTVSPost2010PropOp33
 70
     1
102
RTVSPost2010Prop34
280
     0
102
RTVSPost2010PropOp34
 70
     1
102
RTVSPost2010Prop35
280
     0
102
RTVSPost2010PropOp35
 70
     1
102
RTVSPost2010Prop36
280
     0
102
RTVSPost2010PropOp36
 70
     1
102
RTVSPost2010Prop37
 90
       50
102
RTVSPost2010PropOp37
 70
     0
102
RTVSPost2010Prop38
140
0.0
102
RTVSPost2010PropOp38
 70
     0
102
RTVSPost2010Prop39
140
1.0
102
RTVSPost2010PropOp39
 70
     0
102
RTVSPost2010Prop40
 90
        0
102
RTVSPost2010PropOp40
 70
     0
102
RTVSPost2010Prop41ColorIndex
 90
       18
102
RTVSPost2010Prop41ColorRGB
 90
        0
102
RTVSPost2010PropOp41
 70
     0
102
RTVSPost2010Prop42
 90
       50
102
RTVSPost2010PropOp42
 70
     0
102
RTVSPost2010Prop43
 90
        3
102
RTVSPost2010PropOp43
 70
     0
102
RTVSPost2010Prop44ColorIndex
 90
        5
102
RTVSPost2010Prop44ColorRGB
 90
      255
102
RTVSPost2010PropOp44
 70
     0
102
RTVSPost2010Prop45
280
     0
102
RTVSPost2010PropOp45
 70
     1
102
RTVSPost2010Prop46
 90
       50
102
RTVSPost2010PropOp46
 70
     0
102
RTVSPost2010Prop47
 90
       50
102
RTVSPost2010PropOp47
 70
     0
102
RTVSPost2010Prop48
 90
       50
102
RTVSPost2010PropOp48
 70
     0
102
RTVSPost2010Prop49
280
     0
102
RTVSPost2010PropOp49
 70
     1
102
RTVSPost2010Prop50
 90
       50
102
RTVSPost2010PropOp50
 70
     0
102
RTVSPost2010Prop51ColorIndex
 90
      256
102
RTVSPost2010Prop51ColorRGB
 90
-16777216
102
RTVSPost2010PropOp51
 70
     0
102
RTVSPost2010Prop52
140
1.0
102
RTVSPost2010PropOp52
 70
     0
102
RTVSPost2010Prop53
 90
        2
102
RTVSPost2010PropOp53
 70
     0
102
RTVSPost2010Prop54
  1
strokes_ogs.tif
102
RTVSPost2010PropOp54
 70
     0
102
RTVSPost2010Prop55
280
     0
102
RTVSPost2010PropOp55
 70
     1
102
RTVSPost2010Prop56
140
1.0
102
RTVSPost2010PropOp56
 70
     0
102
RTVSPost2010Prop57
140
1.0
102
RTVSPost2010PropOp57
 70
     0
  0
XRECORD
  5
2C8B
102
{ACAD_REACTORS
330
2C8A
102
}
330
2C8A
100
AcDbXrecord
280
     1
102
RTVSPost2010Prop28
280
     0
102
RTVSPost2010PropOp28
 70
     1
102
RTVSPost2010Prop29
280
     1
102
RTVSPost2010PropOp29
 70
     1
102
RTVSPost2010Prop30
280
     1
102
RTVSPost2010PropOp30
 70
     1
102
RTVSPost2010Prop31
280
     0
102
RTVSPost2010PropOp31
 70
     1
102
RTVSPost2010Prop32
280
     0
102
RTVSPost2010PropOp32
 70
     1
102
RTVSPost2010Prop33
280
     0
102
RTVSPost2010PropOp33
 70
     1
102
RTVSPost2010Prop34
280
     0
102
RTVSPost2010PropOp34
 70
     1
102
RTVSPost2010Prop35
280
     0
102
RTVSPost2010PropOp35
 70
     1
102
RTVSPost2010Prop36
280
     0
102
RTVSPost2010PropOp36
 70
     1
102
RTVSPost2010Prop37
 90
       50
102
RTVSPost2010PropOp37
 70
     1
102
RTVSPost2010Prop38
140
0.0
102
RTVSPost2010PropOp38
 70
     1
102
RTVSPost2010Prop39
140
1.0
102
RTVSPost2010PropOp39
 70
     1
102
RTVSPost2010Prop40
 90
        0
102
RTVSPost2010PropOp40
 70
     1
102
RTVSPost2010Prop41ColorIndex
 90
       18
102
RTVSPost2010Prop41ColorRGB
 90
        0
102
RTVSPost2010PropOp41
 70
     1
102
RTVSPost2010Prop42
 90
       50
102
RTVSPost2010PropOp42
 70
     1
102
RTVSPost2010Prop43
 90
        3
102
RTVSPost2010PropOp43
 70
     1
102
RTVSPost2010Prop44ColorIndex
 90
        5
102
RTVSPost2010Prop44ColorRGB
 90
      255
102
RTVSPost2010PropOp44
 70
     1
102
RTVSPost2010Prop45
280
     0
102
RTVSPost2010PropOp45
 70
     1
102
RTVSPost2010Prop46
 90
       50
102
RTVSPost2010PropOp46
 70
     1
102
RTVSPost2010Prop47
 90
       50
102
RTVSPost2010PropOp47
 70
     1
102
RTVSPost2010Prop48
 90
       50
102
RTVSPost2010PropOp48
 70
     1
102
RTVSPost2010Prop49
280
     0
102
RTVSPost2010PropOp49
 70
     1
102
RTVSPost2010Prop50
 90
       50
102
RTVSPost2010PropOp50
 70
     1
102
RTVSPost2010Prop51ColorIndex
 90
      256
102
RTVSPost2010Prop51ColorRGB
 90
-16777216
102
RTVSPost2010PropOp51
 70
     0
102
RTVSPost2010Prop52
140
1.0
102
RTVSPost2010PropOp52
 70
     0
102
RTVSPost2010Prop53
 90
        2
102
RTVSPost2010PropOp53
 70
     1
102
RTVSPost2010Prop54
  1
strokes_ogs.tif
102
RTVSPost2010PropOp54
 70
     1
102
RTVSPost2010Prop55
280
     0
102
RTVSPost2010PropOp55
 70
     1
102
RTVSPost2010Prop56
140
1.0
102
RTVSPost2010PropOp56
 70
     1
102
RTVSPost2010Prop57
140
1.0
102
RTVSPost2010PropOp57
 70
     1
  0
XRECORD
  5
2CA1
102
{ACAD_REACTORS
330
2CA0
102
}
330
2CA0
100
AcDbXrecord
280
     1
102
RTVSPost2010Prop28
280
     0
102
RTVSPost2010PropOp28
 70
     1
102
RTVSPost2010Prop29
280
     1
102
RTVSPost2010PropOp29
 70
     1
102
RTVSPost2010Prop30
280
     1
102
RTVSPost2010PropOp30
 70
     1
102
RTVSPost2010Prop31
280
     0
102
RTVSPost2010PropOp31
 70
     1
102
RTVSPost2010Prop32
280
     0
102
RTVSPost2010PropOp32
 70
     1
102
RTVSPost2010Prop33
280
     0
102
RTVSPost2010PropOp33
 70
     1
102
RTVSPost2010Prop34
280
     0
102
RTVSPost2010PropOp34
 70
     1
102
RTVSPost2010Prop35
280
     0
102
RTVSPost2010PropOp35
 70
     1
102
RTVSPost2010Prop36
280
     0
102
RTVSPost2010PropOp36
 70
     1
102
RTVSPost2010Prop37
 90
       50
102
RTVSPost2010PropOp37
 70
     1
102
RTVSPost2010Prop38
140
0.0
102
RTVSPost2010PropOp38
 70
     1
102
RTVSPost2010Prop39
140
1.0
102
RTVSPost2010PropOp39
 70
     1
102
RTVSPost2010Prop40
 90
        0
102
RTVSPost2010PropOp40
 70
     1
102
RTVSPost2010Prop41ColorIndex
 90
       18
102
RTVSPost2010Prop41ColorRGB
 90
        0
102
RTVSPost2010PropOp41
 70
     1
102
RTVSPost2010Prop42
 90
       50
102
RTVSPost2010PropOp42
 70
     1
102
RTVSPost2010Prop43
 90
        3
102
RTVSPost2010PropOp43
 70
     1
102
RTVSPost2010Prop44ColorIndex
 90
        5
102
RTVSPost2010Prop44ColorRGB
 90
      255
102
RTVSPost2010PropOp44
 70
     1
102
RTVSPost2010Prop45
280
     0
102
RTVSPost2010PropOp45
 70
     1
102
RTVSPost2010Prop46
 90
       50
102
RTVSPost2010PropOp46
 70
     1
102
RTVSPost2010Prop47
 90
       50
102
RTVSPost2010PropOp47
 70
     1
102
RTVSPost2010Prop48
 90
       50
102
RTVSPost2010PropOp48
 70
     1
102
RTVSPost2010Prop49
280
     0
102
RTVSPost2010PropOp49
 70
     1
102
RTVSPost2010Prop50
 90
       50
102
RTVSPost2010PropOp50
 70
     1
102
RTVSPost2010Prop51ColorIndex
 90
      256
102
RTVSPost2010Prop51ColorRGB
 90
-16777216
102
RTVSPost2010PropOp51
 70
     0
102
RTVSPost2010Prop52
140
1.0
102
RTVSPost2010PropOp52
 70
     0
102
RTVSPost2010Prop53
 90
        2
102
RTVSPost2010PropOp53
 70
     1
102
RTVSPost2010Prop54
  1
strokes_ogs.tif
102
RTVSPost2010PropOp54
 70
     1
102
RTVSPost2010Prop55
280
     0
102
RTVSPost2010PropOp55
 70
     1
102
RTVSPost2010Prop56
140
1.0
102
RTVSPost2010PropOp56
 70
     1
102
RTVSPost2010Prop57
140
1.0
102
RTVSPost2010PropOp57
 70
     1
  0
XRECORD
  5
2C9F
102
{ACAD_REACTORS
330
2C9E
102
}
330
2C9E
100
AcDbXrecord
280
     1
102
RTVSPost2010Prop28
280
     0
102
RTVSPost2010PropOp28
 70
     1
102
RTVSPost2010Prop29
280
     1
102
RTVSPost2010PropOp29
 70
     1
102
RTVSPost2010Prop30
280
     1
102
RTVSPost2010PropOp30
 70
     1
102
RTVSPost2010Prop31
280
     0
102
RTVSPost2010PropOp31
 70
     1
102
RTVSPost2010Prop32
280
     0
102
RTVSPost2010PropOp32
 70
     1
102
RTVSPost2010Prop33
280
     0
102
RTVSPost2010PropOp33
 70
     1
102
RTVSPost2010Prop34
280
     0
102
RTVSPost2010PropOp34
 70
     1
102
RTVSPost2010Prop35
280
     0
102
RTVSPost2010PropOp35
 70
     1
102
RTVSPost2010Prop36
280
     0
102
RTVSPost2010PropOp36
 70
     1
102
RTVSPost2010Prop37
 90
       50
102
RTVSPost2010PropOp37
 70
     1
102
RTVSPost2010Prop38
140
0.0
102
RTVSPost2010PropOp38
 70
     1
102
RTVSPost2010Prop39
140
1.0
102
RTVSPost2010PropOp39
 70
     1
102
RTVSPost2010Prop40
 90
        0
102
RTVSPost2010PropOp40
 70
     1
102
RTVSPost2010Prop41ColorIndex
 90
       18
102
RTVSPost2010Prop41ColorRGB
 90
        0
102
RTVSPost2010PropOp41
 70
     1
102
RTVSPost2010Prop42
 90
       50
102
RTVSPost2010PropOp42
 70
     1
102
RTVSPost2010Prop43
 90
        3
102
RTVSPost2010PropOp43
 70
     1
102
RTVSPost2010Prop44ColorIndex
 90
        5
102
RTVSPost2010Prop44ColorRGB
 90
      255
102
RTVSPost2010PropOp44
 70
     1
102
RTVSPost2010Prop45
280
     0
102
RTVSPost2010PropOp45
 70
     1
102
RTVSPost2010Prop46
 90
       50
102
RTVSPost2010PropOp46
 70
     1
102
RTVSPost2010Prop47
 90
       50
102
RTVSPost2010PropOp47
 70
     1
102
RTVSPost2010Prop48
 90
       50
102
RTVSPost2010PropOp48
 70
     1
102
RTVSPost2010Prop49
280
     0
102
RTVSPost2010PropOp49
 70
     1
102
RTVSPost2010Prop50
 90
       50
102
RTVSPost2010PropOp50
 70
     1
102
RTVSPost2010Prop51ColorIndex
 90
      256
102
RTVSPost2010Prop51ColorRGB
 90
-16777216
102
RTVSPost2010PropOp51
 70
     0
102
RTVSPost2010Prop52
140
1.0
102
RTVSPost2010PropOp52
 70
     0
102
RTVSPost2010Prop53
 90
        2
102
RTVSPost2010PropOp53
 70
     1
102
RTVSPost2010Prop54
  1
strokes_ogs.tif
102
RTVSPost2010PropOp54
 70
     1
102
RTVSPost2010Prop55
280
     0
102
RTVSPost2010PropOp55
 70
     1
102
RTVSPost2010Prop56
140
1.0
102
RTVSPost2010PropOp56
 70
     1
102
RTVSPost2010Prop57
140
1.0
102
RTVSPost2010PropOp57
 70
     1
  0
XRECORD
  5
2C99
102
{ACAD_REACTORS
330
2C98
102
}
330
2C98
100
AcDbXrecord
280
     1
102
RTVSPost2010Prop28
280
     0
102
RTVSPost2010PropOp28
 70
     1
102
RTVSPost2010Prop29
280
     1
102
RTVSPost2010PropOp29
 70
     1
102
RTVSPost2010Prop30
280
     1
102
RTVSPost2010PropOp30
 70
     1
102
RTVSPost2010Prop31
280
     0
102
RTVSPost2010PropOp31
 70
     1
102
RTVSPost2010Prop32
280
     0
102
RTVSPost2010PropOp32
 70
     1
102
RTVSPost2010Prop33
280
     0
102
RTVSPost2010PropOp33
 70
     1
102
RTVSPost2010Prop34
280
     0
102
RTVSPost2010PropOp34
 70
     1
102
RTVSPost2010Prop35
280
     0
102
RTVSPost2010PropOp35
 70
     1
102
RTVSPost2010Prop36
280
     0
102
RTVSPost2010PropOp36
 70
     1
102
RTVSPost2010Prop37
 90
       50
102
RTVSPost2010PropOp37
 70
     1
102
RTVSPost2010Prop38
140
0.0
102
RTVSPost2010PropOp38
 70
     1
102
RTVSPost2010Prop39
140
1.0
102
RTVSPost2010PropOp39
 70
     1
102
RTVSPost2010Prop40
 90
        0
102
RTVSPost2010PropOp40
 70
     1
102
RTVSPost2010Prop41ColorIndex
 90
       18
102
RTVSPost2010Prop41ColorRGB
 90
        0
102
RTVSPost2010PropOp41
 70
     1
102
RTVSPost2010Prop42
 90
       50
102
RTVSPost2010PropOp42
 70
     1
102
RTVSPost2010Prop43
 90
        3
102
RTVSPost2010PropOp43
 70
     1
102
RTVSPost2010Prop44ColorIndex
 90
        5
102
RTVSPost2010Prop44ColorRGB
 90
      255
102
RTVSPost2010PropOp44
 70
     1
102
RTVSPost2010Prop45
280
     0
102
RTVSPost2010PropOp45
 70
     1
102
RTVSPost2010Prop46
 90
       50
102
RTVSPost2010PropOp46
 70
     1
102
RTVSPost2010Prop47
 90
       50
102
RTVSPost2010PropOp47
 70
     1
102
RTVSPost2010Prop48
 90
       50
102
RTVSPost2010PropOp48
 70
     1
102
RTVSPost2010Prop49
280
     0
102
RTVSPost2010PropOp49
 70
     1
102
RTVSPost2010Prop50
 90
       50
102
RTVSPost2010PropOp50
 70
     1
102
RTVSPost2010Prop51ColorIndex
 90
      256
102
RTVSPost2010Prop51ColorRGB
 90
-16777216
102
RTVSPost2010PropOp51
 70
     0
102
RTVSPost2010Prop52
140
1.0
102
RTVSPost2010PropOp52
 70
     0
102
RTVSPost2010Prop53
 90
        2
102
RTVSPost2010PropOp53
 70
     1
102
RTVSPost2010Prop54
  1
strokes_ogs.tif
102
RTVSPost2010PropOp54
 70
     1
102
RTVSPost2010Prop55
280
     0
102
RTVSPost2010PropOp55
 70
     1
102
RTVSPost2010Prop56
140
1.0
102
RTVSPost2010PropOp56
 70
     1
102
RTVSPost2010Prop57
140
1.0
102
RTVSPost2010PropOp57
 70
     1
  0
XRECORD
  5
2C9B
102
{ACAD_REACTORS
330
2C9A
102
}
330
2C9A
100
AcDbXrecord
280
     1
102
RTVSPost2010Prop28
280
     0
102
RTVSPost2010PropOp28
 70
     1
102
RTVSPost2010Prop29
280
     1
102
RTVSPost2010PropOp29
 70
     1
102
RTVSPost2010Prop30
280
     1
102
RTVSPost2010PropOp30
 70
     1
102
RTVSPost2010Prop31
280
     0
102
RTVSPost2010PropOp31
 70
     1
102
RTVSPost2010Prop32
280
     0
102
RTVSPost2010PropOp32
 70
     1
102
RTVSPost2010Prop33
280
     0
102
RTVSPost2010PropOp33
 70
     1
102
RTVSPost2010Prop34
280
     0
102
RTVSPost2010PropOp34
 70
     1
102
RTVSPost2010Prop35
280
     0
102
RTVSPost2010PropOp35
 70
     1
102
RTVSPost2010Prop36
280
     0
102
RTVSPost2010PropOp36
 70
     1
102
RTVSPost2010Prop37
 90
       50
102
RTVSPost2010PropOp37
 70
     1
102
RTVSPost2010Prop38
140
0.0
102
RTVSPost2010PropOp38
 70
     1
102
RTVSPost2010Prop39
140
1.0
102
RTVSPost2010PropOp39
 70
     1
102
RTVSPost2010Prop40
 90
        0
102
RTVSPost2010PropOp40
 70
     1
102
RTVSPost2010Prop41ColorIndex
 90
       18
102
RTVSPost2010Prop41ColorRGB
 90
        0
102
RTVSPost2010PropOp41
 70
     1
102
RTVSPost2010Prop42
 90
       50
102
RTVSPost2010PropOp42
 70
     1
102
RTVSPost2010Prop43
 90
        3
102
RTVSPost2010PropOp43
 70
     1
102
RTVSPost2010Prop44ColorIndex
 90
        5
102
RTVSPost2010Prop44ColorRGB
 90
      255
102
RTVSPost2010PropOp44
 70
     1
102
RTVSPost2010Prop45
280
     0
102
RTVSPost2010PropOp45
 70
     1
102
RTVSPost2010Prop46
 90
       50
102
RTVSPost2010PropOp46
 70
     1
102
RTVSPost2010Prop47
 90
       50
102
RTVSPost2010PropOp47
 70
     1
102
RTVSPost2010Prop48
 90
       50
102
RTVSPost2010PropOp48
 70
     1
102
RTVSPost2010Prop49
280
     0
102
RTVSPost2010PropOp49
 70
     1
102
RTVSPost2010Prop50
 90
       50
102
RTVSPost2010PropOp50
 70
     1
102
RTVSPost2010Prop51ColorIndex
 90
      256
102
RTVSPost2010Prop51ColorRGB
 90
-16777216
102
RTVSPost2010PropOp51
 70
     0
102
RTVSPost2010Prop52
140
1.0
102
RTVSPost2010PropOp52
 70
     0
102
RTVSPost2010Prop53
 90
        2
102
RTVSPost2010PropOp53
 70
     1
102
RTVSPost2010Prop54
  1
strokes_ogs.tif
102
RTVSPost2010PropOp54
 70
     1
102
RTVSPost2010Prop55
280
     0
102
RTVSPost2010PropOp55
 70
     1
102
RTVSPost2010Prop56
140
1.0
102
RTVSPost2010PropOp56
 70
     1
102
RTVSPost2010Prop57
140
1.0
102
RTVSPost2010PropOp57
 70
     1
  0
XRECORD
  5
2C91
102
{ACAD_REACTORS
330
2C90
102
}
330
2C90
100
AcDbXrecord
280
     1
102
RTVSPost2010Prop28
280
     0
102
RTVSPost2010PropOp28
 70
     1
102
RTVSPost2010Prop29
280
     1
102
RTVSPost2010PropOp29
 70
     1
102
RTVSPost2010Prop30
280
     1
102
RTVSPost2010PropOp30
 70
     1
102
RTVSPost2010Prop31
280
     0
102
RTVSPost2010PropOp31
 70
     1
102
RTVSPost2010Prop32
280
     0
102
RTVSPost2010PropOp32
 70
     1
102
RTVSPost2010Prop33
280
     0
102
RTVSPost2010PropOp33
 70
     1
102
RTVSPost2010Prop34
280
     0
102
RTVSPost2010PropOp34
 70
     1
102
RTVSPost2010Prop35
280
     0
102
RTVSPost2010PropOp35
 70
     1
102
RTVSPost2010Prop36
280
     0
102
RTVSPost2010PropOp36
 70
     1
102
RTVSPost2010Prop37
 90
       50
102
RTVSPost2010PropOp37
 70
     1
102
RTVSPost2010Prop38
140
0.0
102
RTVSPost2010PropOp38
 70
     1
102
RTVSPost2010Prop39
140
1.0
102
RTVSPost2010PropOp39
 70
     1
102
RTVSPost2010Prop40
 90
        0
102
RTVSPost2010PropOp40
 70
     1
102
RTVSPost2010Prop41ColorIndex
 90
       18
102
RTVSPost2010Prop41ColorRGB
 90
        0
102
RTVSPost2010PropOp41
 70
     1
102
RTVSPost2010Prop42
 90
       50
102
RTVSPost2010PropOp42
 70
     1
102
RTVSPost2010Prop43
 90
        3
102
RTVSPost2010PropOp43
 70
     1
102
RTVSPost2010Prop44ColorIndex
 90
        5
102
RTVSPost2010Prop44ColorRGB
 90
      255
102
RTVSPost2010PropOp44
 70
     1
102
RTVSPost2010Prop45
280
     0
102
RTVSPost2010PropOp45
 70
     1
102
RTVSPost2010Prop46
 90
       50
102
RTVSPost2010PropOp46
 70
     1
102
RTVSPost2010Prop47
 90
       50
102
RTVSPost2010PropOp47
 70
     1
102
RTVSPost2010Prop48
 90
       50
102
RTVSPost2010PropOp48
 70
     1
102
RTVSPost2010Prop49
280
     0
102
RTVSPost2010PropOp49
 70
     1
102
RTVSPost2010Prop50
 90
       50
102
RTVSPost2010PropOp50
 70
     1
102
RTVSPost2010Prop51ColorIndex
 90
      256
102
RTVSPost2010Prop51ColorRGB
 90
-16777216
102
RTVSPost2010PropOp51
 70
     0
102
RTVSPost2010Prop52
140
1.0
102
RTVSPost2010PropOp52
 70
     0
102
RTVSPost2010Prop53
 90
        2
102
RTVSPost2010PropOp53
 70
     1
102
RTVSPost2010Prop54
  1
strokes_ogs.tif
102
RTVSPost2010PropOp54
 70
     1
102
RTVSPost2010Prop55
280
     0
102
RTVSPost2010PropOp55
 70
     1
102
RTVSPost2010Prop56
140
1.0
102
RTVSPost2010PropOp56
 70
     1
102
RTVSPost2010Prop57
140
1.0
102
RTVSPost2010PropOp57
 70
     1
  0
XRECORD
  5
2C85
102
{ACAD_REACTORS
330
2C84
102
}
330
2C84
100
AcDbXrecord
280
     1
102
RTVSPost2010Prop28
280
     0
102
RTVSPost2010PropOp28
 70
     1
102
RTVSPost2010Prop29
280
     1
102
RTVSPost2010PropOp29
 70
     1
102
RTVSPost2010Prop30
280
     1
102
RTVSPost2010PropOp30
 70
     1
102
RTVSPost2010Prop31
280
     0
102
RTVSPost2010PropOp31
 70
     1
102
RTVSPost2010Prop32
280
     0
102
RTVSPost2010PropOp32
 70
     1
102
RTVSPost2010Prop33
280
     0
102
RTVSPost2010PropOp33
 70
     1
102
RTVSPost2010Prop34
280
     0
102
RTVSPost2010PropOp34
 70
     1
102
RTVSPost2010Prop35
280
     0
102
RTVSPost2010PropOp35
 70
     1
102
RTVSPost2010Prop36
280
     0
102
RTVSPost2010PropOp36
 70
     1
102
RTVSPost2010Prop37
 90
       50
102
RTVSPost2010PropOp37
 70
     1
102
RTVSPost2010Prop38
140
0.0
102
RTVSPost2010PropOp38
 70
     1
102
RTVSPost2010Prop39
140
1.0
102
RTVSPost2010PropOp39
 70
     1
102
RTVSPost2010Prop40
 90
        0
102
RTVSPost2010PropOp40
 70
     1
102
RTVSPost2010Prop41ColorIndex
 90
       18
102
RTVSPost2010Prop41ColorRGB
 90
        0
102
RTVSPost2010PropOp41
 70
     1
102
RTVSPost2010Prop42
 90
       50
102
RTVSPost2010PropOp42
 70
     1
102
RTVSPost2010Prop43
 90
        3
102
RTVSPost2010PropOp43
 70
     1
102
RTVSPost2010Prop44ColorIndex
 90
        5
102
RTVSPost2010Prop44ColorRGB
 90
      255
102
RTVSPost2010PropOp44
 70
     1
102
RTVSPost2010Prop45
280
     0
102
RTVSPost2010PropOp45
 70
     1
102
RTVSPost2010Prop46
 90
       50
102
RTVSPost2010PropOp46
 70
     1
102
RTVSPost2010Prop47
 90
       50
102
RTVSPost2010PropOp47
 70
     1
102
RTVSPost2010Prop48
 90
       50
102
RTVSPost2010PropOp48
 70
     1
102
RTVSPost2010Prop49
280
     0
102
RTVSPost2010PropOp49
 70
     1
102
RTVSPost2010Prop50
 90
       50
102
RTVSPost2010PropOp50
 70
     1
102
RTVSPost2010Prop51ColorIndex
 90
      256
102
RTVSPost2010Prop51ColorRGB
 90
-16777216
102
RTVSPost2010PropOp51
 70
     0
102
RTVSPost2010Prop52
140
1.0
102
RTVSPost2010PropOp52
 70
     0
102
RTVSPost2010Prop53
 90
        2
102
RTVSPost2010PropOp53
 70
     1
102
RTVSPost2010Prop54
  1
strokes_ogs.tif
102
RTVSPost2010PropOp54
 70
     1
102
RTVSPost2010Prop55
280
     0
102
RTVSPost2010PropOp55
 70
     1
102
RTVSPost2010Prop56
140
1.0
102
RTVSPost2010PropOp56
 70
     1
102
RTVSPost2010Prop57
140
1.0
102
RTVSPost2010PropOp57
 70
     1
  0
XRECORD
  5
2C9D
102
{ACAD_REACTORS
330
2C9C
102
}
330
2C9C
100
AcDbXrecord
280
     1
102
RTVSPost2010Prop28
280
     0
102
RTVSPost2010PropOp28
 70
     1
102
RTVSPost2010Prop29
280
     1
102
RTVSPost2010PropOp29
 70
     1
102
RTVSPost2010Prop30
280
     1
102
RTVSPost2010PropOp30
 70
     1
102
RTVSPost2010Prop31
280
     0
102
RTVSPost2010PropOp31
 70
     1
102
RTVSPost2010Prop32
280
     0
102
RTVSPost2010PropOp32
 70
     1
102
RTVSPost2010Prop33
280
     0
102
RTVSPost2010PropOp33
 70
     1
102
RTVSPost2010Prop34
280
     0
102
RTVSPost2010PropOp34
 70
     1
102
RTVSPost2010Prop35
280
     0
102
RTVSPost2010PropOp35
 70
     1
102
RTVSPost2010Prop36
280
     0
102
RTVSPost2010PropOp36
 70
     1
102
RTVSPost2010Prop37
 90
       50
102
RTVSPost2010PropOp37
 70
     1
102
RTVSPost2010Prop38
140
0.0
102
RTVSPost2010PropOp38
 70
     1
102
RTVSPost2010Prop39
140
1.0
102
RTVSPost2010PropOp39
 70
     1
102
RTVSPost2010Prop40
 90
        0
102
RTVSPost2010PropOp40
 70
     1
102
RTVSPost2010Prop41ColorIndex
 90
       18
102
RTVSPost2010Prop41ColorRGB
 90
        0
102
RTVSPost2010PropOp41
 70
     1
102
RTVSPost2010Prop42
 90
       50
102
RTVSPost2010PropOp42
 70
     1
102
RTVSPost2010Prop43
 90
        3
102
RTVSPost2010PropOp43
 70
     1
102
RTVSPost2010Prop44ColorIndex
 90
        5
102
RTVSPost2010Prop44ColorRGB
 90
      255
102
RTVSPost2010PropOp44
 70
     1
102
RTVSPost2010Prop45
280
     0
102
RTVSPost2010PropOp45
 70
     1
102
RTVSPost2010Prop46
 90
       50
102
RTVSPost2010PropOp46
 70
     1
102
RTVSPost2010Prop47
 90
       50
102
RTVSPost2010PropOp47
 70
     1
102
RTVSPost2010Prop48
 90
       50
102
RTVSPost2010PropOp48
 70
     1
102
RTVSPost2010Prop49
280
     0
102
RTVSPost2010PropOp49
 70
     1
102
RTVSPost2010Prop50
 90
       50
102
RTVSPost2010PropOp50
 70
     1
102
RTVSPost2010Prop51ColorIndex
 90
      256
102
RTVSPost2010Prop51ColorRGB
 90
-16777216
102
RTVSPost2010PropOp51
 70
     0
102
RTVSPost2010Prop52
140
1.0
102
RTVSPost2010PropOp52
 70
     0
102
RTVSPost2010Prop53
 90
        2
102
RTVSPost2010PropOp53
 70
     1
102
RTVSPost2010Prop54
  1
strokes_ogs.tif
102
RTVSPost2010PropOp54
 70
     1
102
RTVSPost2010Prop55
280
     0
102
RTVSPost2010PropOp55
 70
     1
102
RTVSPost2010Prop56
140
1.0
102
RTVSPost2010PropOp56
 70
     1
102
RTVSPost2010Prop57
140
1.0
102
RTVSPost2010PropOp57
 70
     1
  0
ENDSEC
  0
EOF
