  0
SECTION
  2
HEADER
  9
$ACADVER
  1
AC1027
  9
$ACADMAINTVER
 70
   125
  9
$DWGCODEPAGE
  3
ANSI_1252
  9
$LASTSAVEDBY
  1
kaschu
  9
$REQUIREDVERSIONS
160
                 0
  9
$INSBASE
 10
0.0
 20
0.0
 30
0.0
  9
$EXTMIN
 10
45.4
 20
49.02108708191929
 30
-0.0000000000000036
  9
$EXTMAX
 10
390.0441922762535
 20
242.545833
 30
0.0000000000000069
  9
$LIMMIN
 10
-0.5
 20
-0.5
  9
$LIMMAX
 10
5.0
 20
5.0
  9
$ORTHOMODE
 70
     0
  9
$REGENMODE
 70
     1
  9
$FILLMODE
 70
     1
  9
$QTEXTMODE
 70
     0
  9
$MIRRTEXT
 70
     1
  9
$LTSCALE
 40
1.0
  9
$ATTMODE
 70
     1
  9
$TEXTSIZE
 40
0.2
  9
$TRACEWID
 40
0.05
  9
$TEXTSTYLE
  7
Standard
  9
$CLAYER
  8
0
  9
$CELTYPE
  6
ByLayer
  9
$CECOLOR
 62
   256
  9
$CELTSCALE
 40
1.0
  9
$DISPSILH
 70
     0
  9
$DIMSCALE
 40
1.0
  9
$DIMASZ
 40
0.18
  9
$DIMEXO
 40
0.0625
  9
$DIMDLI
 40
0.38
  9
$DIMRND
 40
0.0
  9
$DIMDLE
 40
0.0
  9
$DIMEXE
 40
0.18
  9
$DIMTP
 40
0.0
  9
$DIMTM
 40
0.0
  9
$DIMTXT
 40
0.18
  9
$DIMCEN
 40
0.09
  9
$DIMTSZ
 40
0.0
  9
$DIMTOL
 70
     0
  9
$DIMLIM
 70
     0
  9
$DIMTIH
 70
     1
  9
$DIMTOH
 70
     1
  9
$DIMSE1
 70
     0
  9
$DIMSE2
 70
     0
  9
$DIMTAD
 70
     0
  9
$DIMZIN
 70
     0
  9
$DIMBLK
  1

  9
$DIMASO
 70
     1
  9
$DIMSHO
 70
     1
  9
$DIMPOST
  1

  9
$DIMAPOST
  1

  9
$DIMALT
 70
     0
  9
$DIMALTD
 70
     2
  9
$DIMALTF
 40
25.4
  9
$DIMLFAC
 40
1.0
  9
$DIMTOFL
 70
     0
  9
$DIMTVP
 40
0.0
  9
$DIMTIX
 70
     0
  9
$DIMSOXD
 70
     0
  9
$DIMSAH
 70
     0
  9
$DIMBLK1
  1

  9
$DIMBLK2
  1

  9
$DIMSTYLE
  2
Standard
  9
$DIMCLRD
 70
     0
  9
$DIMCLRE
 70
     0
  9
$DIMCLRT
 70
     0
  9
$DIMTFAC
 40
1.0
  9
$DIMGAP
 40
0.09
  9
$DIMJUST
 70
     0
  9
$DIMSD1
 70
     0
  9
$DIMSD2
 70
     0
  9
$DIMTOLJ
 70
     1
  9
$DIMTZIN
 70
     0
  9
$DIMALTZ
 70
     0
  9
$DIMALTTZ
 70
     0
  9
$DIMUPT
 70
     0
  9
$DIMDEC
 70
     4
  9
$DIMTDEC
 70
     4
  9
$DIMALTU
 70
     2
  9
$DIMALTTD
 70
     2
  9
$DIMTXSTY
  7
Standard
  9
$DIMAUNIT
 70
     0
  9
$DIMADEC
 70
     0
  9
$DIMALTRND
 40
0.0
  9
$DIMAZIN
 70
     0
  9
$DIMDSEP
 70
    46
  9
$DIMATFIT
 70
     3
  9
$DIMFRAC
 70
     0
  9
$DIMLDRBLK
  1

  9
$DIMLUNIT
 70
     2
  9
$DIMLWD
 70
    -2
  9
$DIMLWE
 70
    -2
  9
$DIMTMOVE
 70
     0
  9
$DIMFXL
 40
1.0
  9
$DIMFXLON
 70
     0
  9
$DIMJOGANG
 40
0.7853981633974483
  9
$DIMTFILL
 70
     0
  9
$DIMTFILLCLR
 70
     0
  9
$DIMARCSYM
 70
     0
  9
$DIMLTYPE
  6

  9
$DIMLTEX1
  6

  9
$DIMLTEX2
  6

  9
$DIMTXTDIRECTION
 70
     0
  9
$LUNITS
 70
     2
  9
$LUPREC
 70
     4
  9
$SKETCHINC
 40
0.1
  9
$FILLETRAD
 40
0.5
  9
$AUNITS
 70
     0
  9
$AUPREC
 70
     0
  9
$MENU
  1
.
  9
$ELEVATION
 40
0.0
  9
$PELEVATION
 40
0.0
  9
$THICKNESS
 40
0.0
  9
$LIMCHECK
 70
     0
  9
$CHAMFERA
 40
0.0
  9
$CHAMFERB
 40
0.0
  9
$CHAMFERC
 40
0.0
  9
$CHAMFERD
 40
0.0
  9
$SKPOLY
 70
     0
  9
$TDCREATE
 40
2459992.584178241
  9
$TDUCREATE
 40
2459992.542517697
  9
$TDUPDATE
 40
2460235.485509259
  9
$TDUUPDATE
 40
2460235.402175926
  9
$TDINDWG
 40
0.0003009375
  9
$TDUSRTIMER
 40
0.0003009375
  9
$USRTIMER
 70
     1
  9
$ANGBASE
 50
0.0
  9
$ANGDIR
 70
     0
  9
$PDMODE
 70
     0
  9
$PDSIZE
 40
0.0
  9
$PLINEWID
 40
0.0
  9
$SPLFRAME
 70
     0
  9
$SPLINETYPE
 70
     6
  9
$SPLINESEGS
 70
     8
  9
$HANDSEED
  5
29D
  9
$SURFTAB1
 70
     6
  9
$SURFTAB2
 70
     6
  9
$SURFTYPE
 70
     6
  9
$SURFU
 70
     6
  9
$SURFV
 70
     6
  9
$UCSBASE
  2

  9
$UCSNAME
  2

  9
$UCSORG
 10
0.0
 20
0.0
 30
0.0
  9
$UCSXDIR
 10
1.0
 20
0.0
 30
0.0
  9
$UCSYDIR
 10
0.0
 20
1.0
 30
0.0
  9
$UCSORTHOREF
  2

  9
$UCSORTHOVIEW
 70
     0
  9
$UCSORGTOP
 10
0.0
 20
0.0
 30
0.0
  9
$UCSORGBOTTOM
 10
0.0
 20
0.0
 30
0.0
  9
$UCSORGLEFT
 10
0.0
 20
0.0
 30
0.0
  9
$UCSORGRIGHT
 10
0.0
 20
0.0
 30
0.0
  9
$UCSORGFRONT
 10
0.0
 20
0.0
 30
0.0
  9
$UCSORGBACK
 10
0.0
 20
0.0
 30
0.0
  9
$PUCSBASE
  2

  9
$PUCSNAME
  2

  9
$PUCSORG
 10
0.0
 20
0.0
 30
0.0
  9
$PUCSXDIR
 10
1.0
 20
0.0
 30
0.0
  9
$PUCSYDIR
 10
0.0
 20
1.0
 30
0.0
  9
$PUCSORTHOREF
  2

  9
$PUCSORTHOVIEW
 70
     0
  9
$PUCSORGTOP
 10
0.0
 20
0.0
 30
0.0
  9
$PUCSORGBOTTOM
 10
0.0
 20
0.0
 30
0.0
  9
$PUCSORGLEFT
 10
0.0
 20
0.0
 30
0.0
  9
$PUCSORGRIGHT
 10
0.0
 20
0.0
 30
0.0
  9
$PUCSORGFRONT
 10
0.0
 20
0.0
 30
0.0
  9
$PUCSORGBACK
 10
0.0
 20
0.0
 30
0.0
  9
$USERI1
 70
     0
  9
$USERI2
 70
     0
  9
$USERI3
 70
     0
  9
$USERI4
 70
     0
  9
$USERI5
 70
     0
  9
$USERR1
 40
0.0
  9
$USERR2
 40
0.0
  9
$USERR3
 40
0.0
  9
$USERR4
 40
0.0
  9
$USERR5
 40
0.0
  9
$WORLDVIEW
 70
     1
  9
$SHADEDGE
 70
     3
  9
$SHADEDIF
 70
    70
  9
$TILEMODE
 70
     1
  9
$MAXACTVP
 70
    64
  9
$PINSBASE
 10
0.0
 20
0.0
 30
0.0
  9
$PLIMCHECK
 70
     0
  9
$PEXTMIN
 10
-0.5
 20
-0.5
 30
-0.5
  9
$PEXTMAX
 10
5.0
 20
5.0
 30
5.0
  9
$PLIMMIN
 10
-0.5
 20
-0.5
  9
$PLIMMAX
 10
5.0
 20
5.0
  9
$UNITMODE
 70
     0
  9
$VISRETAIN
 70
     1
  9
$PLINEGEN
 70
     0
  9
$PSLTSCALE
 70
     1
  9
$TREEDEPTH
 70
  3020
  9
$CMLSTYLE
  2
Standard
  9
$CMLJUST
 70
     0
  9
$CMLSCALE
 40
1.0
  9
$PROXYGRAPHICS
 70
     1
  9
$MEASUREMENT
 70
     1
  9
$CELWEIGHT
370
    18
  9
$ENDCAPS
280
     0
  9
$JOINSTYLE
280
     0
  9
$LWDISPLAY
290
     1
  9
$INSUNITS
 70
     4
  9
$HYPERLINKBASE
  1

  9
$STYLESHEET
  1

  9
$XEDIT
290
     1
  9
$CEPSNTYPE
380
     0
  9
$PSTYLEMODE
290
     1
  9
$FINGERPRINTGUID
  2
{3DF94582-B0A0-4841-9D76-99D8548739FE}
  9
$VERSIONGUID
  2
{20CD3B96-993A-8948-A283-2E08C46B208A}
  9
$EXTNAMES
290
     1
  9
$PSVPSCALE
 40
0.0
  9
$OLESTARTUP
290
     0
  9
$SORTENTS
280
   127
  9
$INDEXCTL
280
     0
  9
$HIDETEXT
280
     1
  9
$XCLIPFRAME
280
     2
  9
$HALOGAP
280
     0
  9
$OBSCOLOR
 70
   257
  9
$OBSLTYPE
280
     0
  9
$INTERSECTIONDISPLAY
280
     0
  9
$INTERSECTIONCOLOR
 70
   257
  9
$DIMASSOC
280
     2
  9
$PROJECTNAME
  1

  9
$CAMERADISPLAY
290
     0
  9
$LENSLENGTH
 40
50.0
  9
$CAMERAHEIGHT
 40
0.0
  9
$STEPSPERSEC
 40
2.0
  9
$STEPSIZE
 40
6.0
  9
$3DDWFPREC
 40
2.0
  9
$PSOLWIDTH
 40
0.25
  9
$PSOLHEIGHT
 40
4.0
  9
$LOFTANG1
 40
1.570796326794896
  9
$LOFTANG2
 40
1.570796326794896
  9
$LOFTMAG1
 40
0.0
  9
$LOFTMAG2
 40
0.0
  9
$LOFTPARAM
 70
     7
  9
$LOFTNORMALS
280
     1
  9
$LATITUDE
 40
37.795
  9
$LONGITUDE
 40
-122.394
  9
$NORTHDIRECTION
 40
0.0
  9
$TIMEZONE
 70
 -8000
  9
$LIGHTGLYPHDISPLAY
280
     1
  9
$TILEMODELIGHTSYNCH
280
     1
  9
$CMATERIAL
347
44
  9
$SOLIDHIST
280
     0
  9
$SHOWHIST
280
     1
  9
$DWFFRAME
280
     2
  9
$DGNFRAME
280
     0
  9
$REALWORLDSCALE
290
     1
  9
$INTERFERECOLOR
 62
     1
  9
$INTERFEREOBJVS
345
33
  9
$INTERFEREVPVS
346
30
  9
$CSHADOW
280
     0
  9
$SHADOWPLANELOCATION
 40
0.0
  0
ENDSEC
  0
SECTION
  2
CLASSES
  0
CLASS
  1
ACDBDICTIONARYWDFLT
  2
AcDbDictionaryWithDefault
  3
ObjectDBX Classes
 90
        0
 91
        1
280
     0
281
     0
  0
CLASS
  1
VISUALSTYLE
  2
AcDbVisualStyle
  3
ObjectDBX Classes
 90
     4095
 91
       24
280
     0
281
     0
  0
CLASS
  1
MATERIAL
  2
AcDbMaterial
  3
ObjectDBX Classes
 90
     1153
 91
        3
280
     0
281
     0
  0
CLASS
  1
SCALE
  2
AcDbScale
  3
ObjectDBX Classes
 90
     1153
 91
       33
280
     0
281
     0
  0
CLASS
  1
TABLESTYLE
  2
AcDbTableStyle
  3
ObjectDBX Classes
 90
     4095
 91
        1
280
     0
281
     0
  0
CLASS
  1
MLEADERSTYLE
  2
AcDbMLeaderStyle
  3
ACDB_MLEADERSTYLE_CLASS
 90
     4095
 91
        1
280
     0
281
     0
  0
CLASS
  1
SUN
  2
AcDbSun
  3
SCENEOE
 90
     1153
 91
        0
280
     0
281
     0
  0
CLASS
  1
DICTIONARYVAR
  2
AcDbDictionaryVar
  3
ObjectDBX Classes
 90
        0
 91
       10
280
     0
281
     0
  0
CLASS
  1
CELLSTYLEMAP
  2
AcDbCellStyleMap
  3
ObjectDBX Classes
 90
     1152
 91
        2
280
     0
281
     0
  0
CLASS
  1
ACDBSECTIONVIEWSTYLE
  2
AcDbSectionViewStyle
  3
ObjectDBX Classes
 90
     1025
 91
        1
280
     0
281
     0
  0
CLASS
  1
ACDBDETAILVIEWSTYLE
  2
AcDbDetailViewStyle
  3
ObjectDBX Classes
 90
     1025
 91
        1
280
     0
281
     0
  0
ENDSEC
  0
SECTION
  2
TABLES
  0
TABLE
  2
VPORT
  5
8
330
0
100
AcDbSymbolTable
 70
    16
1001
ACAD
1000
DbSaveVer
1071
      224
  0
VPORT
  5
29
330
8
100
AcDbSymbolTableRecord
100
AcDbViewportTableRecord
  2
*Active
 70
     0
 10
0.0
 20
0.0
 11
1.0
 21
1.0
 12
364.8611829082366
 22
143.2975998250563
 13
0.0
 23
0.0
 14
0.5
 24
0.5
 15
0.5
 25
0.5
 16
0.0
 26
0.0
 36
1.0
 17
0.0
 27
0.0
 37
0.0
 40
370.0216886288979
 41
2.033923303834808
 42
50.0
 43
442.4290519999999
 44
-442.4290519999999
 50
0.0
 51
0.0
 71
     0
 72
   100
 73
     1
 74
     3
 75
     0
 76
     0
 77
     0
 78
     0
281
     0
 65
     1
110
0.0
120
0.0
130
0.0
111
1.0
121
0.0
131
0.0
112
0.0
122
1.0
132
0.0
 79
     0
146
0.0
348
2F
 60
     3
 61
     5
292
     1
282
     1
141
0.0
142
0.0
 63
   250
421
  3355443
1001
ACAD_NAV_VCDISPLAY
1070
     3
  0
VPORT
  5
21E
330
8
100
AcDbSymbolTableRecord
100
AcDbViewportTableRecord
  2
L1
 70
     0
 10
0.0
 20
0.0
 11
1.0
 21
1.0
 12
156.7
 22
158.16269
 13
0.0
 23
0.0
 14
0.5
 24
0.5
 15
0.5
 25
0.5
 16
0.0
 26
0.0
 36
1.0
 17
0.0
 27
0.0
 37
0.0
 40
254.0
 41
0.069908
 42
50.0
 43
442.4290519999999
 44
-442.4290519999999
 50
0.0
 51
0.0
 71
     0
 72
   100
 73
     1
 74
     3
 75
     0
 76
     0
 77
     0
 78
     0
281
     0
 65
     1
110
0.0
120
0.0
130
0.0
111
1.0
121
0.0
131
0.0
112
0.0
122
1.0
132
0.0
 79
     0
146
0.0
348
2F
 60
     3
 61
     5
292
     1
282
     1
141
0.0
142
0.0
 63
   250
421
  3355443
  0
VPORT
  5
21F
330
8
100
AcDbSymbolTableRecord
100
AcDbViewportTableRecord
  2
L2
 70
     0
 10
0.0
 20
0.0
 11
0.5
 21
1.0
 12
0.0
 22
0.0
 13
0.0
 23
0.0
 14
0.5
 24
0.5
 15
0.5
 25
0.5
 16
0.0
 26
-1.0
 36
0.0
 17
0.0
 27
0.0
 37
0.0
 40
1319.822715
 41
0.013454
 42
50.0
 43
672.020833
 44
-672.020833
 50
0.0
 51
0.0
 71
     0
 72
   100
 73
     1
 74
     3
 75
     0
 76
     0
 77
     0
 78
     0
281
     0
 65
     1
110
0.0
120
0.0
130
0.0
111
1.0
121
0.0
131
0.0
112
0.0
122
1.0
132
0.0
 79
     0
146
0.0
348
2F
 60
     3
 61
     5
292
     1
282
     1
141
0.0
142
0.0
 63
   250
421
  3355443
  0
VPORT
  5
220
330
8
100
AcDbSymbolTableRecord
100
AcDbViewportTableRecord
  2
L2
 70
     0
 10
0.5
 20
0.0
 11
1.0
 21
1.0
 12
0.0
 22
0.0
 13
0.0
 23
0.0
 14
0.5
 24
0.5
 15
0.5
 25
0.5
 16
1.0
 26
0.0
 36
0.0
 17
0.0
 27
0.0
 37
0.0
 40
1319.822715
 41
0.013454
 42
50.0
 43
672.020833
 44
-672.020833
 50
0.0
 51
0.0
 71
     0
 72
   100
 73
     1
 74
     3
 75
     0
 76
     0
 77
     0
 78
     0
281
     0
 65
     1
110
0.0
120
0.0
130
0.0
111
1.0
121
0.0
131
0.0
112
0.0
122
1.0
132
0.0
 79
     0
146
0.0
348
2F
 60
     3
 61
     5
292
     1
282
     1
141
0.0
142
0.0
 63
   250
421
  3355443
  0
VPORT
  5
221
330
8
100
AcDbSymbolTableRecord
100
AcDbViewportTableRecord
  2
L3
 70
     0
 10
0.0
 20
0.5
 11
1.0
 21
1.0
 12
156.7
 22
158.16269
 13
0.0
 23
0.0
 14
0.5
 24
0.5
 15
0.5
 25
0.5
 16
0.0
 26
0.0
 36
1.0
 17
0.0
 27
0.0
 37
0.0
 40
254.0
 41
0.069908
 42
50.0
 43
442.4290519999999
 44
-442.4290519999999
 50
0.0
 51
0.0
 71
     0
 72
   100
 73
     1
 74
     3
 75
     0
 76
     0
 77
     0
 78
     0
281
     0
 65
     1
110
0.0
120
0.0
130
0.0
111
1.0
121
0.0
131
0.0
112
0.0
122
1.0
132
0.0
 79
     0
146
0.0
348
2F
 60
     3
 61
     5
292
     1
282
     1
141
0.0
142
0.0
 63
   250
421
  3355443
  0
VPORT
  5
222
330
8
100
AcDbSymbolTableRecord
100
AcDbViewportTableRecord
  2
L3
 70
     0
 10
0.0
 20
0.0
 11
1.0
 21
0.5
 12
0.0
 22
0.0
 13
0.0
 23
0.0
 14
0.5
 24
0.5
 15
0.5
 25
0.5
 16
0.0
 26
-1.0
 36
0.0
 17
0.0
 27
0.0
 37
0.0
 40
1319.822715
 41
0.013454
 42
50.0
 43
672.020833
 44
-672.020833
 50
0.0
 51
0.0
 71
     0
 72
   100
 73
     1
 74
     3
 75
     0
 76
     0
 77
     0
 78
     0
281
     0
 65
     1
110
0.0
120
0.0
130
0.0
111
1.0
121
0.0
131
0.0
112
0.0
122
1.0
132
0.0
 79
     0
146
0.0
348
2F
 60
     3
 61
     5
292
     1
282
     1
141
0.0
142
0.0
 63
   250
421
  3355443
  0
VPORT
  5
223
330
8
100
AcDbSymbolTableRecord
100
AcDbViewportTableRecord
  2
L4
 70
     0
 10
0.0
 20
0.5
 11
0.5
 21
1.0
 12
156.7
 22
158.16269
 13
0.0
 23
0.0
 14
0.5
 24
0.5
 15
0.5
 25
0.5
 16
0.0
 26
0.0
 36
1.0
 17
0.0
 27
0.0
 37
0.0
 40
254.0
 41
0.069908
 42
50.0
 43
442.4290519999999
 44
-442.4290519999999
 50
0.0
 51
0.0
 71
     0
 72
   100
 73
     1
 74
     3
 75
     0
 76
     0
 77
     0
 78
     0
281
     0
 65
     1
110
0.0
120
0.0
130
0.0
111
1.0
121
0.0
131
0.0
112
0.0
122
1.0
132
0.0
 79
     0
146
0.0
348
2F
 60
     3
 61
     5
292
     1
282
     1
141
0.0
142
0.0
 63
   250
421
  3355443
  0
VPORT
  5
224
330
8
100
AcDbSymbolTableRecord
100
AcDbViewportTableRecord
  2
L4
 70
     0
 10
0.0
 20
0.0
 11
0.5
 21
0.5
 12
0.0
 22
0.0
 13
0.0
 23
0.0
 14
0.5
 24
0.5
 15
0.5
 25
0.5
 16
0.0
 26
-1.0
 36
0.0
 17
0.0
 27
0.0
 37
0.0
 40
1319.822715
 41
0.013454
 42
50.0
 43
672.020833
 44
-672.020833
 50
0.0
 51
0.0
 71
     0
 72
   100
 73
     1
 74
     3
 75
     0
 76
     0
 77
     0
 78
     0
281
     0
 65
     1
110
0.0
120
0.0
130
0.0
111
1.0
121
0.0
131
0.0
112
0.0
122
1.0
132
0.0
 79
     0
146
0.0
348
2F
 60
     3
 61
     5
292
     1
282
     1
141
0.0
142
0.0
 63
   250
421
  3355443
  0
VPORT
  5
225
330
8
100
AcDbSymbolTableRecord
100
AcDbViewportTableRecord
  2
L4
 70
     0
 10
0.5
 20
0.0
 11
1.0
 21
0.5
 12
0.0
 22
0.0
 13
0.0
 23
0.0
 14
0.5
 24
0.5
 15
0.5
 25
0.5
 16
1.0
 26
0.0
 36
0.0
 17
0.0
 27
0.0
 37
0.0
 40
1319.822715
 41
0.013454
 42
50.0
 43
672.020833
 44
-672.020833
 50
0.0
 51
0.0
 71
     0
 72
   100
 73
     1
 74
     3
 75
     0
 76
     0
 77
     0
 78
     0
281
     0
 65
     1
110
0.0
120
0.0
130
0.0
111
1.0
121
0.0
131
0.0
112
0.0
122
1.0
132
0.0
 79
     0
146
0.0
348
2F
 60
     3
 61
     5
292
     1
282
     1
141
0.0
142
0.0
 63
   250
421
  3355443
  0
VPORT
  5
226
330
8
100
AcDbSymbolTableRecord
100
AcDbViewportTableRecord
  2
L4
 70
     0
 10
0.5
 20
0.5
 11
1.0
 21
1.0
 12
0.0
 22
0.0
 13
0.0
 23
0.0
 14
0.5
 24
0.5
 15
0.5
 25
0.5
 16
0.5773502691896259
 26
-0.5773502691896259
 36
0.5773502691896259
 17
0.0
 27
0.0
 37
0.0
 40
1285.020866
 41
0.013818
 42
50.0
 43
667.141407
 44
-667.141407
 50
0.0
 51
0.0
 71
     0
 72
   100
 73
     1
 74
     3
 75
     0
 76
     0
 77
     0
 78
     0
281
     0
 65
     1
110
0.0
120
0.0
130
0.0
111
1.0
121
0.0
131
0.0
112
0.0
122
1.0
132
0.0
 79
     0
146
0.0
348
2F
 60
     3
 61
     5
292
     1
282
     1
141
0.0
142
0.0
 63
   250
421
  3355443
  0
VPORT
  5
227
330
8
100
AcDbSymbolTableRecord
100
AcDbViewportTableRecord
  2
L6
 70
     0
 10
0.0
 20
0.5
 11
0.333333
 21
1.0
 12
0.0
 22
0.0
 13
0.0
 23
0.0
 14
0.5
 24
0.5
 15
0.5
 25
0.5
 16
0.7188730927569434
 26
-0.5850486126764433
 36
0.3754192287502549
 17
0.0
 27
0.0
 37
0.0
 40
1357.434192
 41
0.013081
 42
50.0
 43
701.839477
 44
-701.839477
 50
0.0
 51
0.0
 71
     0
 72
   100
 73
     1
 74
     3
 75
     0
 76
     0
 77
     0
 78
     0
281
     0
 65
     1
110
0.0
120
0.0
130
0.0
111
1.0
121
0.0
131
0.0
112
0.0
122
1.0
132
0.0
 79
     0
146
0.0
348
2F
 60
     3
 61
     5
292
     1
282
     1
141
0.0
142
0.0
 63
   250
421
  3355443
  0
VPORT
  5
228
330
8
100
AcDbSymbolTableRecord
100
AcDbViewportTableRecord
  2
L6
 70
     0
 10
0.0
 20
0.0
 11
0.333333
 21
0.5
 12
0.0
 22
0.0
 13
0.0
 23
0.0
 14
0.5
 24
0.5
 15
0.5
 25
0.5
 16
-1.0
 26
0.0
 36
0.0
 17
0.0
 27
0.0
 37
0.0
 40
1319.822715
 41
0.013454
 42
50.0
 43
672.020833
 44
-672.020833
 50
0.0
 51
0.0
 71
     0
 72
   100
 73
     1
 74
     3
 75
     0
 76
     0
 77
     0
 78
     0
281
     0
 65
     1
110
0.0
120
0.0
130
0.0
111
1.0
121
0.0
131
0.0
112
0.0
122
1.0
132
0.0
 79
     0
146
0.0
348
2F
 60
     3
 61
     5
292
     1
282
     1
141
0.0
142
0.0
 63
   250
421
  3355443
  0
VPORT
  5
229
330
8
100
AcDbSymbolTableRecord
100
AcDbViewportTableRecord
  2
L6
 70
     0
 10
0.333333
 20
0.5
 11
0.666667
 21
1.0
 12
156.7
 22
158.16269
 13
0.0
 23
0.0
 14
0.5
 24
0.5
 15
0.5
 25
0.5
 16
0.0
 26
0.0
 36
1.0
 17
0.0
 27
0.0
 37
0.0
 40
254.0
 41
0.069908
 42
50.0
 43
442.4290519999999
 44
-442.4290519999999
 50
0.0
 51
0.0
 71
     0
 72
   100
 73
     1
 74
     3
 75
     0
 76
     0
 77
     0
 78
     0
281
     0
 65
     1
110
0.0
120
0.0
130
0.0
111
1.0
121
0.0
131
0.0
112
0.0
122
1.0
132
0.0
 79
     0
146
0.0
348
2F
 60
     3
 61
     5
292
     1
282
     1
141
0.0
142
0.0
 63
   250
421
  3355443
  0
VPORT
  5
22A
330
8
100
AcDbSymbolTableRecord
100
AcDbViewportTableRecord
  2
L6
 70
     0
 10
0.333333
 20
0.0
 11
0.666667
 21
0.5
 12
0.0
 22
0.0
 13
0.0
 23
0.0
 14
0.5
 24
0.5
 15
0.5
 25
0.5
 16
0.0
 26
-1.0
 36
0.0
 17
0.0
 27
0.0
 37
0.0
 40
1319.822715
 41
0.013454
 42
50.0
 43
672.020833
 44
-672.020833
 50
0.0
 51
0.0
 71
     0
 72
   100
 73
     1
 74
     3
 75
     0
 76
     0
 77
     0
 78
     0
281
     0
 65
     1
110
0.0
120
0.0
130
0.0
111
1.0
121
0.0
131
0.0
112
0.0
122
1.0
132
0.0
 79
     0
146
0.0
348
2F
 60
     3
 61
     5
292
     1
282
     1
141
0.0
142
0.0
 63
   250
421
  3355443
  0
VPORT
  5
22B
330
8
100
AcDbSymbolTableRecord
100
AcDbViewportTableRecord
  2
L6
 70
     0
 10
0.666667
 20
0.5
 11
1.0
 21
1.0
 12
0.0
 22
0.0
 13
0.0
 23
0.0
 14
0.5
 24
0.5
 15
0.5
 25
0.5
 16
0.5773502691896259
 26
-0.5773502691896259
 36
0.5773502691896259
 17
0.0
 27
0.0
 37
0.0
 40
1285.020866
 41
0.013818
 42
50.0
 43
667.141407
 44
-667.141407
 50
0.0
 51
0.0
 71
     0
 72
   100
 73
     1
 74
     3
 75
     0
 76
     0
 77
     0
 78
     0
281
     0
 65
     1
110
0.0
120
0.0
130
0.0
111
1.0
121
0.0
131
0.0
112
0.0
122
1.0
132
0.0
 79
     0
146
0.0
348
2F
 60
     3
 61
     5
292
     1
282
     1
141
0.0
142
0.0
 63
   250
421
  3355443
  0
VPORT
  5
22C
330
8
100
AcDbSymbolTableRecord
100
AcDbViewportTableRecord
  2
L6
 70
     0
 10
0.666667
 20
0.0
 11
1.0
 21
0.5
 12
0.0
 22
0.0
 13
0.0
 23
0.0
 14
0.5
 24
0.5
 15
0.5
 25
0.5
 16
1.0
 26
0.0
 36
0.0
 17
0.0
 27
0.0
 37
0.0
 40
1319.822715
 41
0.013454
 42
50.0
 43
672.020833
 44
-672.020833
 50
0.0
 51
0.0
 71
     0
 72
   100
 73
     1
 74
     3
 75
     0
 76
     0
 77
     0
 78
     0
281
     0
 65
     1
110
0.0
120
0.0
130
0.0
111
1.0
121
0.0
131
0.0
112
0.0
122
1.0
132
0.0
 79
     0
146
0.0
348
2F
 60
     3
 61
     5
292
     1
282
     1
141
0.0
142
0.0
 63
   250
421
  3355443
  0
ENDTAB
  0
TABLE
  2
LTYPE
  5
5
330
0
100
AcDbSymbolTable
 70
     6
  0
LTYPE
  5
14
330
5
100
AcDbSymbolTableRecord
100
AcDbLinetypeTableRecord
  2
ByBlock
 70
     0
  3

 72
    65
 73
     0
 40
0.0
  0
LTYPE
  5
15
330
5
100
AcDbSymbolTableRecord
100
AcDbLinetypeTableRecord
  2
ByLayer
 70
     0
  3

 72
    65
 73
     0
 40
0.0
  0
LTYPE
  5
16
330
5
100
AcDbSymbolTableRecord
100
AcDbLinetypeTableRecord
  2
Continuous
 70
     0
  3
Solid line
 72
    65
 73
     0
 40
0.0
  0
LTYPE
  5
6E
330
5
100
AcDbSymbolTableRecord
100
AcDbLinetypeTableRecord
  2
CENTER
 70
     0
  3
____ _ ____ _ ____ _ ____
 72
    65
 73
     4
 40
47.4
 49
22.0
 74
     4
 75
     0
340
0
 46
0.0
 50
0.0
 44
0.0
 45
0.0
 49
-8.5
 74
     4
 75
     0
340
0
 46
0.0
 50
0.0
 44
0.0
 45
0.0
 49
8.5
 74
     4
 75
     0
340
0
 46
0.0
 50
0.0
 44
0.0
 45
0.0
 49
-8.5
 74
     4
 75
     0
340
0
 46
0.0
 50
0.0
 44
0.0
 45
0.0
  0
LTYPE
  5
6F
330
5
100
AcDbSymbolTableRecord
100
AcDbLinetypeTableRecord
  2
DASHDOT
 70
     0
  3
_._._._._._._._._._._._._._._._.
 72
    65
 73
     4
 40
70.0
 49
31.0
 74
     4
 75
     0
340
0
 46
0.0
 50
0.0
 44
0.0
 45
0.0
 49
-13.0
 74
     4
 75
     0
340
0
 46
0.0
 50
0.0
 44
0.0
 45
0.0
 49
13.0
 74
     4
 75
     0
340
0
 46
0.0
 50
0.0
 44
0.0
 45
0.0
 49
-13.0
 74
     4
 75
     0
340
0
 46
0.0
 50
0.0
 44
0.0
 45
0.0
  0
LTYPE
  5
70
330
5
100
AcDbSymbolTableRecord
100
AcDbLinetypeTableRecord
  2
DASHED
 70
     0
  3
__ __ __ __ __ __ __ __ __
 72
    65
 73
     2
 40
25.72
 49
12.86
 74
     4
 75
     0
340
0
 46
0.0
 50
0.0
 44
0.0
 45
0.0
 49
-12.86
 74
     4
 75
     0
340
0
 46
0.0
 50
0.0
 44
0.0
 45
0.0
  0
LTYPE
  5
71
330
5
100
AcDbSymbolTableRecord
100
AcDbLinetypeTableRecord
  2
DOT
 70
     0
  3
.........................
 72
    65
 73
     2
 40
10.0
 49
0.0
 74
     4
 75
     0
340
0
 46
0.0
 50
0.0
 44
0.0
 45
0.0
 49
-10.0
 74
     4
 75
     0
340
0
 46
0.0
 50
0.0
 44
0.0
 45
0.0
  0
LTYPE
  5
72
330
5
100
AcDbSymbolTableRecord
100
AcDbLinetypeTableRecord
  2
PHANTOM
 70
     0
  3
____ _ _ ____ _ _ _____ _ _ ____
 72
    65
 73
     6
 40
50.5
 49
18.0
 74
     4
 75
     0
340
0
 46
0.0
 50
0.0
 44
0.0
 45
0.0
 49
-6.5
 74
     4
 75
     0
340
0
 46
0.0
 50
0.0
 44
0.0
 45
0.0
 49
6.5
 74
     4
 75
     0
340
0
 46
0.0
 50
0.0
 44
0.0
 45
0.0
 49
-6.5
 74
     4
 75
     0
340
0
 46
0.0
 50
0.0
 44
0.0
 45
0.0
 49
6.5
 74
     4
 75
     0
340
0
 46
0.0
 50
0.0
 44
0.0
 45
0.0
 49
-6.5
 74
     4
 75
     0
340
0
 46
0.0
 50
0.0
 44
0.0
 45
0.0
  0
ENDTAB
  0
TABLE
  2
LAYER
  5
2
102
{ACAD_XDICTIONARY
360
283
102
}
330
0
100
AcDbSymbolTable
 70
     3
  0
LAYER
  5
10
102
{ACAD_XDICTIONARY
360
28D
102
}
330
2
100
AcDbSymbolTableRecord
100
AcDbLayerTableRecord
  2
0
 70
     0
 62
     7
  6
Continuous
370
    -3
390
F
347
46
348
0
  0
LAYER
  5
74
102
{ACAD_XDICTIONARY
360
28F
102
}
330
2
100
AcDbSymbolTableRecord
100
AcDbLayerTableRecord
  2
1
 70
     0
 62
     7
420
 16777215
  6
Continuous
370
    -3
390
F
347
46
348
0
  0
LAYER
  5
27D
102
{ACAD_XDICTIONARY
360
27E
102
}
330
2
100
AcDbSymbolTableRecord
100
AcDbLayerTableRecord
  2
HEWI
 70
     0
 62
     7
  6
Continuous
370
    -3
390
F
347
46
348
0
1001
AcAecLayerStandard
1000

1000

1001
AcCmTransparency
1071
        0
  0
ENDTAB
  0
TABLE
  2
STYLE
  5
3
330
0
100
AcDbSymbolTable
 70
     3
  0
STYLE
  5
11
330
3
100
AcDbSymbolTableRecord
100
AcDbTextStyleTableRecord
  2
Standard
 70
     0
 40
0.0
 41
1.0
 50
0.0
 71
     0
 42
0.2
  3
txt
  4

  0
STYLE
  5
21C
330
3
100
AcDbSymbolTableRecord
100
AcDbTextStyleTableRecord
  2
iso-1
 70
     0
 40
0.0
 41
1.0
 50
0.0
 71
     0
 42
0.2
  3
isocp.shx
  4

  0
STYLE
  5
21D
330
3
100
AcDbSymbolTableRecord
100
AcDbTextStyleTableRecord
  2
DWGDirectTextStyle
 70
     0
 40
0.0
 41
1.0
 50
0.0
 71
     0
 42
0.2
  3
isocp
  4

  0
ENDTAB
  0
TABLE
  2
VIEW
  5
6
330
0
100
AcDbSymbolTable
 70
     0
  0
ENDTAB
  0
TABLE
  2
UCS
  5
7
330
0
100
AcDbSymbolTable
 70
     0
  0
ENDTAB
  0
TABLE
  2
APPID
  5
9
330
0
100
AcDbSymbolTable
 70
     6
  0
APPID
  5
12
330
9
100
AcDbSymbolTableRecord
100
AcDbRegAppTableRecord
  2
ACAD
 70
     0
  0
APPID
  5
26C
330
9
100
AcDbSymbolTableRecord
100
AcDbRegAppTableRecord
  2
ACAD_MLEADERVER
 70
     0
  0
APPID
  5
27F
330
9
100
AcDbSymbolTableRecord
100
AcDbRegAppTableRecord
  2
ACAD_DSTYLE_DIMBREAK
 70
     0
  0
APPID
  5
280
330
9
100
AcDbSymbolTableRecord
100
AcDbRegAppTableRecord
  2
ACAD_NAV_VCDISPLAY
 70
     0
  0
APPID
  5
281
330
9
100
AcDbSymbolTableRecord
100
AcDbRegAppTableRecord
  2
AcAecLayerStandard
 70
     0
  0
APPID
  5
282
330
9
100
AcDbSymbolTableRecord
100
AcDbRegAppTableRecord
  2
AcCmTransparency
 70
     0
  0
ENDTAB
  0
TABLE
  2
DIMSTYLE
  5
A
330
0
100
AcDbSymbolTable
 70
     1
100
AcDbDimStyleTable
 71
     0
  0
DIMSTYLE
105
27
330
A
100
AcDbSymbolTableRecord
100
AcDbDimStyleTableRecord
  2
Standard
 70
     0
340
11
  0
ENDTAB
  0
TABLE
  2
BLOCK_RECORD
  5
1
330
0
100
AcDbSymbolTable
 70
     2
  0
BLOCK_RECORD
  5
1F
330
1
100
AcDbSymbolTableRecord
100
AcDbBlockTableRecord
  2
*Model_Space
340
22
 70
     0
280
     1
281
     0
  0
BLOCK_RECORD
  5
1B
330
1
100
AcDbSymbolTableRecord
100
AcDbBlockTableRecord
  2
*Paper_Space
340
1E
 70
     0
280
     1
281
     0
  0
BLOCK_RECORD
  5
23
330
1
100
AcDbSymbolTableRecord
100
AcDbBlockTableRecord
  2
*Paper_Space0
340
26
 70
     0
280
     1
281
     0
  0
ENDTAB
  0
ENDSEC
  0
SECTION
  2
BLOCKS
  0
BLOCK
  5
20
330
1F
100
AcDbEntity
  8
0
100
AcDbBlockBegin
  2
*Model_Space
 70
     0
 10
0.0
 20
0.0
 30
0.0
  3
*Model_Space
  1

  0
ENDBLK
  5
21
330
1F
100
AcDbEntity
  8
0
100
AcDbBlockEnd
  0
BLOCK
  5
1C
330
1B
100
AcDbEntity
 67
     1
  8
0
100
AcDbBlockBegin
  2
*Paper_Space
 70
     0
 10
0.0
 20
0.0
 30
0.0
  3
*Paper_Space
  1

  0
ENDBLK
  5
1D
330
1B
100
AcDbEntity
 67
     1
  8
0
100
AcDbBlockEnd
  0
BLOCK
  5
24
330
23
100
AcDbEntity
 67
     1
  8
0
100
AcDbBlockBegin
  2
*Paper_Space0
 70
     0
 10
0.0
 20
0.0
 30
0.0
  3
*Paper_Space0
  1

  0
ENDBLK
  5
25
330
23
100
AcDbEntity
 67
     1
  8
0
100
AcDbBlockEnd
  0
ENDSEC
  0
SECTION
  2
ENTITIES
  0
LINE
  5
73
330
1F
100
AcDbEntity
  8
HEWI
100
AcDbLine
 10
152.925
 20
175.745833
 30
0.0
 11
163.725
 21
175.745833
 31
0.0
  0
LINE
  5
75
330
1F
100
AcDbEntity
  8
HEWI
100
AcDbLine
 10
163.725
 20
242.545833
 30
0.0
 11
152.925
 21
242.545833
 31
0.0
  0
LINE
  5
76
330
1F
100
AcDbEntity
  8
HEWI
100
AcDbLine
 10
151.725
 20
241.345833
 30
0.0
 11
151.725
 21
234.086656
 31
0.0
  0
LINE
  5
77
330
1F
100
AcDbEntity
  8
HEWI
100
AcDbLine
 10
151.725
 20
234.086656
 30
0.0
 11
151.725
 21
176.945833
 31
0.0
  0
LINE
  5
78
330
1F
100
AcDbEntity
  8
HEWI
100
AcDbLine
 10
163.725
 20
175.745833
 30
0.0
 11
163.725
 21
235.016127
 31
0.0
  0
LINE
  5
79
330
1F
100
AcDbEntity
  8
HEWI
100
AcDbLine
 10
163.725
 20
235.016127
 30
0.0
 11
163.725
 21
242.545833
 31
0.0
  0
LINE
  5
7A
330
1F
100
AcDbEntity
  8
HEWI
100
AcDbLine
 10
152.925
 20
175.745833
 30
0.0
 11
152.925
 21
235.016127
 31
0.0
  0
LINE
  5
7B
330
1F
100
AcDbEntity
  8
HEWI
100
AcDbLine
 10
152.925
 20
235.016127
 30
0.0
 11
152.925
 21
242.545833
 31
0.0
  0
LINE
  5
7C
330
1F
100
AcDbEntity
  8
HEWI
100
AcDbLine
 10
88.708472
 20
183.25808
 30
0.0
 11
88.73165
 21
188.213694
 31
0.0
  0
LINE
  5
7D
330
1F
100
AcDbEntity
  8
HEWI
100
AcDbLine
 10
68.86835000000001
 20
188.213694
 30
0.0
 11
68.89152800000001
 21
183.25808
 31
0.0
  0
LINE
  5
7E
330
1F
100
AcDbEntity
  8
HEWI
100
AcDbLine
 10
70.69589599999999
 20
189.991133
 30
0.0
 11
68.939014
 21
189.991133
 31
0.0
  0
LINE
  5
7F
330
1F
100
AcDbEntity
  8
HEWI
100
AcDbLine
 10
88.66098599999999
 20
189.991133
 30
0.0
 11
86.90410400000001
 21
189.991133
 31
0.0
  0
LINE
  5
80
330
1F
100
AcDbEntity
  8
HEWI
100
AcDbLine
 10
68.708781
 20
232.011859
 30
0.0
 11
88.89121899999999
 21
232.011859
 31
0.0
  0
LINE
  5
81
330
1F
100
AcDbEntity
  8
HEWI
100
AcDbLine
 10
64.306799
 20
211.994337
 30
0.0
 11
63.443068
 21
211.193473
 31
0.0
  0
LINE
  5
82
330
1F
100
AcDbEntity
  8
HEWI
100
AcDbLine
 10
64.29320099999999
 20
212.009003
 30
0.0
 11
64.306799
 21
211.994337
 31
0.0
  0
LINE
  5
83
330
1F
100
AcDbEntity
  8
HEWI
100
AcDbLine
 10
63.443064
 20
211.220744
 30
0.0
 11
64.29320099999999
 21
212.009003
 31
0.0
  0
LINE
  5
84
330
1F
100
AcDbEntity
  8
HEWI
100
AcDbLine
 10
62.59244200000001
 20
212.009005
 30
0.0
 11
63.443064
 21
211.220744
 31
0.0
  0
LINE
  5
85
330
1F
100
AcDbEntity
  8
HEWI
100
AcDbLine
 10
62.57884699999999
 20
211.994335
 30
0.0
 11
62.59244200000001
 21
212.009005
 31
0.0
  0
LINE
  5
86
330
1F
100
AcDbEntity
  8
HEWI
100
AcDbLine
 10
63.443068
 20
211.193473
 30
0.0
 11
62.57884699999999
 21
211.994335
 31
0.0
  0
LINE
  5
87
330
1F
100
AcDbEntity
  8
HEWI
100
AcDbLine
 10
62.351326
 20
208.773765
 30
0.0
 11
64.30194799999999
 21
209.161237
 31
0.0
  0
LINE
  5
88
330
1F
100
AcDbEntity
  8
HEWI
100
AcDbLine
 10
64.30194799999999
 20
209.161237
 30
0.0
 11
64.298052
 21
209.180854
 31
0.0
  0
LINE
  5
89
330
1F
100
AcDbEntity
  8
HEWI
100
AcDbLine
 10
64.298052
 20
209.180854
 30
0.0
 11
62.248674
 21
208.773765
 31
0.0
  0
LINE
  5
8A
330
1F
100
AcDbEntity
  8
HEWI
100
AcDbLine
 10
62.248674
 20
208.773765
 30
0.0
 11
64.298052
 21
208.366676
 31
0.0
  0
LINE
  5
8B
330
1F
100
AcDbEntity
  8
HEWI
100
AcDbLine
 10
64.298052
 20
208.366676
 30
0.0
 11
64.30194799999999
 21
208.386292
 31
0.0
  0
LINE
  5
8C
330
1F
100
AcDbEntity
  8
HEWI
100
AcDbLine
 10
64.30194799999999
 20
208.386292
 30
0.0
 11
62.351326
 21
208.773765
 31
0.0
  0
LINE
  5
8D
330
1F
100
AcDbEntity
  8
HEWI
100
AcDbLine
 10
90.195184
 20
231.949004
 30
0.0
 11
90.195184
 21
235.268616
 31
0.0
  0
LINE
  5
8E
330
1F
100
AcDbEntity
  8
HEWI
100
AcDbLine
 10
67.40481599999999
 20
235.268616
 30
0.0
 11
67.40481599999999
 21
231.949004
 31
0.0
  0
LINE
  5
8F
330
1F
100
AcDbEntity
  8
HEWI
100
AcDbLine
 10
68.603171
 20
230.750649
 30
0.0
 11
88.996829
 21
230.750649
 31
0.0
  0
LINE
  5
90
330
1F
100
AcDbEntity
  8
HEWI
100
AcDbLine
 10
70.865775
 20
191.0424889999999
 30
0.0
 11
64.94213600000001
 21
191.0424889999999
 31
0.0
  0
LINE
  5
91
330
1F
100
AcDbEntity
  8
HEWI
100
AcDbLine
 10
92.65786400000001
 20
191.0424889999999
 30
0.0
 11
86.73422499999999
 21
191.0424889999999
 31
0.0
  0
LINE
  5
92
330
1F
100
AcDbEntity
  8
HEWI
100
AcDbLine
 10
71.746156
 20
183.31666
 30
0.0
 11
85.853844
 21
183.31666
 31
0.0
  0
LINE
  5
93
330
1F
100
AcDbEntity
  8
HEWI
100
AcDbLine
 10
71.75573599999999
 20
189.1457899999999
 30
0.0
 11
71.76509
 21
191.145833
 31
0.0
  0
LINE
  5
94
330
1F
100
AcDbEntity
  8
HEWI
100
AcDbLine
 10
85.83491
 20
191.145833
 30
0.0
 11
85.84426399999999
 21
189.1457899999999
 31
0.0
  0
LINE
  5
95
330
1F
100
AcDbEntity
  8
HEWI
100
AcDbLine
 10
71.76509
 20
191.145833
 30
0.0
 11
85.83491
 21
191.145833
 31
0.0
  0
LINE
  5
96
330
1F
100
AcDbEntity
  8
HEWI
100
AcDbLine
 10
88.708472
 20
183.258083
 30
0.0
 11
88.707968
 21
183.255097
 31
0.0
  0
LINE
  5
97
330
1F
100
AcDbEntity
  8
HEWI
100
AcDbLine
 10
88.731164
 20
188.214669
 30
0.0
 11
88.73165
 21
188.213693
 31
0.0
  0
LINE
  5
98
330
1F
100
AcDbEntity
  8
HEWI
100
AcDbLine
 10
68.892032
 20
183.255097
 30
0.0
 11
68.89152800000001
 21
183.258083
 31
0.0
  0
LINE
  5
99
330
1F
100
AcDbEntity
  8
HEWI
100
AcDbLine
 10
68.86835000000001
 20
188.213693
 30
0.0
 11
68.868836
 21
188.214669
 31
0.0
  0
LINE
  5
9A
330
1F
100
AcDbEntity
  8
HEWI
100
AcDbLine
 10
93.09585799999998
 20
236.990374
 30
0.0
 11
93.09585799999998
 21
234.37733
 31
0.0
  0
LINE
  5
9B
330
1F
100
AcDbEntity
  8
HEWI
100
AcDbLine
 10
64.504142
 20
234.37733
 30
0.0
 11
64.504142
 21
236.990374
 31
0.0
  0
LINE
  5
9C
330
1F
100
AcDbEntity
  8
HEWI
100
AcDbLine
 10
88.707968
 20
183.255097
 30
0.0
 11
86.85712200000001
 21
183.255097
 31
0.0
  0
LINE
  5
9D
330
1F
100
AcDbEntity
  8
HEWI
100
AcDbLine
 10
70.742878
 20
183.255097
 30
0.0
 11
68.892032
 21
183.255097
 31
0.0
  0
LINE
  5
9E
330
1F
100
AcDbEntity
  8
HEWI
100
AcDbLine
 10
50.78815099999999
 20
201.640081
 30
0.0
 11
48.566522
 21
201.044797
 31
0.0
  0
LINE
  5
9F
330
1F
100
AcDbEntity
  8
HEWI
100
AcDbLine
 10
57.89248199999999
 20
188.025265
 30
0.0
 11
56.774339
 21
186.907122
 31
0.0
  0
LINE
  5
A0
330
1F
100
AcDbEntity
  8
HEWI
100
AcDbLine
 10
56.66755799999999
 20
231.278276
 30
0.0
 11
58.293903
 21
229.65193
 31
0.0
  0
LINE
  5
A1
330
1F
100
AcDbEntity
  8
HEWI
100
AcDbLine
 10
57.950393
 20
229.302566
 30
0.0
 11
55.956364
 21
231.296594
 31
0.0
  0
LINE
  5
A2
330
1F
100
AcDbEntity
  8
HEWI
100
AcDbLine
 10
57.89248199999999
 20
188.025265
 30
0.0
 11
56.906587
 21
187.731919
 31
0.0
  0
LINE
  5
A3
330
1F
100
AcDbEntity
  8
HEWI
100
AcDbLine
 10
109.40494
 20
200.438045
 30
0.0
 11
106.681046
 21
201.16791
 31
0.0
  0
LINE
  5
A4
330
1F
100
AcDbEntity
  8
HEWI
100
AcDbLine
 10
109.033478
 20
201.044797
 30
0.0
 11
106.811849
 21
201.640081
 31
0.0
  0
LINE
  5
A5
330
1F
100
AcDbEntity
  8
HEWI
100
AcDbLine
 10
100.825661
 20
186.907122
 30
0.0
 11
99.70751800000002
 21
188.025265
 31
0.0
  0
LINE
  5
A6
330
1F
100
AcDbEntity
  8
HEWI
100
AcDbLine
 10
101.538338
 20
186.886994
 30
0.0
 11
100.693413
 21
187.731919
 31
0.0
  0
LINE
  5
A7
330
1F
100
AcDbEntity
  8
HEWI
100
AcDbLine
 10
48.566522
 20
217.246869
 30
0.0
 11
50.78815099999999
 21
216.651586
 31
0.0
  0
LINE
  5
A8
330
1F
100
AcDbEntity
  8
HEWI
100
AcDbLine
 10
48.19506
 20
217.853622
 30
0.0
 11
50.918954
 21
217.123757
 31
0.0
  0
LINE
  5
A9
330
1F
100
AcDbEntity
  8
HEWI
100
AcDbLine
 10
100.693413
 20
187.731919
 30
0.0
 11
99.70751800000002
 21
188.025265
 31
0.0
  0
LINE
  5
AA
330
1F
100
AcDbEntity
  8
HEWI
100
AcDbLine
 10
101.643636
 20
231.296594
 30
0.0
 11
99.64960699999998
 21
229.302566
 31
0.0
  0
LINE
  5
AB
330
1F
100
AcDbEntity
  8
HEWI
100
AcDbLine
 10
99.30609699999999
 20
229.65193
 30
0.0
 11
100.932442
 21
231.278276
 31
0.0
  0
LINE
  5
AC
330
1F
100
AcDbEntity
  8
HEWI
100
AcDbLine
 10
56.906587
 20
187.731919
 30
0.0
 11
56.061662
 21
186.886994
 31
0.0
  0
LINE
  5
AD
330
1F
100
AcDbEntity
  8
HEWI
100
AcDbLine
 10
50.918954
 20
201.16791
 30
0.0
 11
48.19506
 21
200.438045
 31
0.0
  0
LINE
  5
AE
330
1F
100
AcDbEntity
  8
HEWI
100
AcDbLine
 10
106.811849
 20
216.651586
 30
0.0
 11
109.033478
 21
217.246869
 31
0.0
  0
LINE
  5
AF
330
1F
100
AcDbEntity
  8
HEWI
100
AcDbLine
 10
106.681046
 20
217.123757
 30
0.0
 11
109.40494
 21
217.853622
 31
0.0
  0
LINE
  5
B0
330
1F
100
AcDbEntity
  8
HEWI
100
AcDbLine
 10
88.652259
 20
189.857158
 30
0.0
 11
86.91283100000001
 21
189.857158
 31
0.0
  0
LINE
  5
B1
330
1F
100
AcDbEntity
  8
HEWI
100
AcDbLine
 10
70.687169
 20
189.857158
 30
0.0
 11
68.94774100000001
 21
189.857158
 31
0.0
  0
LINE
  5
B2
330
1F
100
AcDbEntity
  8
HEWI
100
AcDbLine
 10
86.925676
 20
189.432287
 30
0.0
 11
88.639413
 21
189.432287
 31
0.0
  0
LINE
  5
B3
330
1F
100
AcDbEntity
  8
HEWI
100
AcDbLine
 10
88.621958
 20
187.700236
 30
0.0
 11
86.94313199999999
 21
187.700236
 31
0.0
  0
LINE
  5
B4
330
1F
100
AcDbEntity
  8
HEWI
100
AcDbLine
 10
70.656868
 20
187.700236
 30
0.0
 11
68.978042
 21
187.700236
 31
0.0
  0
LINE
  5
B5
330
1F
100
AcDbEntity
  8
HEWI
100
AcDbLine
 10
68.96058700000001
 20
189.432287
 30
0.0
 11
70.674324
 21
189.432287
 31
0.0
  0
LINE
  5
B6
330
1F
100
AcDbEntity
  8
HEWI
100
AcDbLine
 10
68.87648299999999
 20
188.222316
 30
0.0
 11
68.868836
 21
188.214669
 31
0.0
  0
LINE
  5
B7
330
1F
100
AcDbEntity
  8
HEWI
100
AcDbLine
 10
68.868836
 20
188.214669
 30
0.0
 11
68.892032
 21
183.255097
 31
0.0
  0
LINE
  5
B8
330
1F
100
AcDbEntity
  8
HEWI
100
AcDbLine
 10
68.892032
 20
183.255097
 30
0.0
 11
68.94435
 21
183.3597649999999
 31
0.0
  0
LINE
  5
B9
330
1F
100
AcDbEntity
  8
HEWI
100
AcDbLine
 10
68.978042
 20
185.358547
 30
0.0
 11
68.978042
 21
187.700236
 31
0.0
  0
LINE
  5
BA
330
1F
100
AcDbEntity
  8
HEWI
100
AcDbLine
 10
68.96058700000001
 20
189.432287
 30
0.0
 11
68.94774100000001
 21
189.857158
 31
0.0
  0
LINE
  5
BB
330
1F
100
AcDbEntity
  8
HEWI
100
AcDbLine
 10
68.930286
 20
189.857158
 30
0.0
 11
68.884906
 21
188.356139
 31
0.0
  0
LINE
  5
BC
330
1F
100
AcDbEntity
  8
HEWI
100
AcDbLine
 10
70.69055999999999
 20
183.3597649999999
 30
0.0
 11
68.94435
 21
183.3597649999999
 31
0.0
  0
LINE
  5
BD
330
1F
100
AcDbEntity
  8
HEWI
100
AcDbLine
 10
68.978042
 20
185.358547
 30
0.0
 11
70.656868
 21
185.358547
 31
0.0
  0
LINE
  5
BE
330
1F
100
AcDbEntity
  8
HEWI
100
AcDbLine
 10
70.674324
 20
189.432287
 30
0.0
 11
70.687169
 21
189.857158
 31
0.0
  0
LINE
  5
BF
330
1F
100
AcDbEntity
  8
HEWI
100
AcDbLine
 10
70.656868
 20
185.358547
 30
0.0
 11
70.656868
 21
187.700236
 31
0.0
  0
LINE
  5
C0
330
1F
100
AcDbEntity
  8
HEWI
100
AcDbLine
 10
70.742878
 20
183.255097
 30
0.0
 11
70.69055999999999
 21
183.3597649999999
 31
0.0
  0
LINE
  5
C1
330
1F
100
AcDbEntity
  8
HEWI
100
AcDbLine
 10
70.745363
 20
183.262558
 30
0.0
 11
70.742878
 21
183.255097
 31
0.0
  0
LINE
  5
C2
330
1F
100
AcDbEntity
  8
HEWI
100
AcDbLine
 10
70.745363
 20
183.262558
 30
0.0
 11
70.768513
 21
188.21223
 31
0.0
  0
LINE
  5
C3
330
1F
100
AcDbEntity
  8
HEWI
100
AcDbLine
 10
70.75842699999999
 20
188.222316
 30
0.0
 11
70.768513
 21
188.21223
 31
0.0
  0
LINE
  5
C4
330
1F
100
AcDbEntity
  8
HEWI
100
AcDbLine
 10
70.704624
 20
189.857158
 30
0.0
 11
70.750004
 21
188.356139
 31
0.0
  0
LINE
  5
C5
330
1F
100
AcDbEntity
  8
HEWI
100
AcDbLine
 10
88.65565
 20
183.3597649999999
 30
0.0
 11
88.707968
 21
183.255097
 31
0.0
  0
LINE
  5
C6
330
1F
100
AcDbEntity
  8
HEWI
100
AcDbLine
 10
88.707968
 20
183.255097
 30
0.0
 11
88.731164
 21
188.214669
 31
0.0
  0
LINE
  5
C7
330
1F
100
AcDbEntity
  8
HEWI
100
AcDbLine
 10
88.731164
 20
188.214669
 30
0.0
 11
88.72351700000001
 21
188.222316
 31
0.0
  0
LINE
  5
C8
330
1F
100
AcDbEntity
  8
HEWI
100
AcDbLine
 10
88.71509399999998
 20
188.356139
 30
0.0
 11
88.669714
 21
189.857158
 31
0.0
  0
LINE
  5
C9
330
1F
100
AcDbEntity
  8
HEWI
100
AcDbLine
 10
88.652259
 20
189.857158
 30
0.0
 11
88.639413
 21
189.432287
 31
0.0
  0
LINE
  5
CA
330
1F
100
AcDbEntity
  8
HEWI
100
AcDbLine
 10
88.621958
 20
187.700236
 30
0.0
 11
88.621958
 21
185.358547
 31
0.0
  0
LINE
  5
CB
330
1F
100
AcDbEntity
  8
HEWI
100
AcDbLine
 10
86.94313199999999
 20
185.358547
 30
0.0
 11
88.621958
 21
185.358547
 31
0.0
  0
LINE
  5
CC
330
1F
100
AcDbEntity
  8
HEWI
100
AcDbLine
 10
88.65565
 20
183.3597649999999
 30
0.0
 11
86.90944
 21
183.3597649999999
 31
0.0
  0
LINE
  5
CD
330
1F
100
AcDbEntity
  8
HEWI
100
AcDbLine
 10
86.91283100000001
 20
189.857158
 30
0.0
 11
86.925676
 21
189.432287
 31
0.0
  0
LINE
  5
CE
330
1F
100
AcDbEntity
  8
HEWI
100
AcDbLine
 10
86.84999599999999
 20
188.356139
 30
0.0
 11
86.89537599999999
 21
189.857158
 31
0.0
  0
LINE
  5
CF
330
1F
100
AcDbEntity
  8
HEWI
100
AcDbLine
 10
86.831487
 20
188.21223
 30
0.0
 11
86.841573
 21
188.222316
 31
0.0
  0
LINE
  5
D0
330
1F
100
AcDbEntity
  8
HEWI
100
AcDbLine
 10
86.831487
 20
188.21223
 30
0.0
 11
86.85463699999999
 21
183.262558
 31
0.0
  0
LINE
  5
D1
330
1F
100
AcDbEntity
  8
HEWI
100
AcDbLine
 10
86.85712200000001
 20
183.255097
 30
0.0
 11
86.85463699999999
 21
183.262558
 31
0.0
  0
LINE
  5
D2
330
1F
100
AcDbEntity
  8
HEWI
100
AcDbLine
 10
86.90944
 20
183.3597649999999
 30
0.0
 11
86.85712200000001
 21
183.255097
 31
0.0
  0
LINE
  5
D3
330
1F
100
AcDbEntity
  8
HEWI
100
AcDbLine
 10
86.94313199999999
 20
187.700236
 30
0.0
 11
86.94313199999999
 21
185.358547
 31
0.0
  0
LINE
  5
D4
330
1F
100
AcDbEntity
  8
HEWI
100
AcDbLine
 10
70.123276
 20
236.939249
 30
0.0
 11
69.8
 21
233.377884
 31
0.0
  0
LINE
  5
D5
330
1F
100
AcDbEntity
  8
HEWI
100
AcDbLine
 10
87.79999999999999
 20
233.377884
 30
0.0
 11
87.476724
 21
236.939249
 31
0.0
  0
LINE
  5
D6
330
1F
100
AcDbEntity
  8
HEWI
100
AcDbLine
 10
69.8
 20
233.377884
 30
0.0
 11
69.8
 21
237.554283
 31
0.0
  0
LINE
  5
D7
330
1F
100
AcDbEntity
  8
HEWI
100
AcDbLine
 10
87.79999999999999
 20
237.554283
 30
0.0
 11
87.79999999999999
 21
233.377884
 31
0.0
  0
LINE
  5
D8
330
1F
100
AcDbEntity
  8
HEWI
100
AcDbLine
 10
87.79999999999999
 20
233.377884
 30
0.0
 11
69.8
 21
233.377884
 31
0.0
  0
LINE
  5
D9
330
1F
100
AcDbEntity
  8
HEWI
100
AcDbLine
 10
68.734985
 20
232.511859
 30
0.0
 11
88.86501499999999
 21
232.511859
 31
0.0
  0
LINE
  5
DA
330
1F
100
AcDbEntity
  8
HEWI
100
AcDbLine
 10
88.86501499999999
 20
238.323644
 30
0.0
 11
88.86501499999999
 21
232.511859
 31
0.0
  0
LINE
  5
DB
330
1F
100
AcDbEntity
  8
HEWI
100
AcDbLine
 10
88.90432099999999
 20
232.078846
 30
0.0
 11
89.10134000000001
 21
234.249302
 31
0.0
  0
LINE
  5
DC
330
1F
100
AcDbEntity
  8
HEWI
100
AcDbLine
 10
89.10134000000001
 20
234.249302
 30
0.0
 11
89.10134000000001
 21
238.491629
 31
0.0
  0
LINE
  5
DD
330
1F
100
AcDbEntity
  8
HEWI
100
AcDbLine
 10
68.49866
 20
238.491629
 30
0.0
 11
68.49866
 21
234.249302
 31
0.0
  0
LINE
  5
DE
330
1F
100
AcDbEntity
  8
HEWI
100
AcDbLine
 10
68.49866
 20
234.249302
 30
0.0
 11
68.69567899999999
 21
232.078846
 31
0.0
  0
LINE
  5
DF
330
1F
100
AcDbEntity
  8
HEWI
100
AcDbLine
 10
68.734985
 20
232.511859
 30
0.0
 11
68.734985
 21
238.323644
 31
0.0
  0
LINE
  5
E0
330
1F
100
AcDbEntity
  8
HEWI
100
AcDbLine
 10
63.634145
 20
210.203907
 30
0.0
 11
63.156902
 21
210.203907
 31
0.0
  0
LINE
  5
E1
330
1F
100
AcDbEntity
  8
HEWI
100
AcDbLine
 10
64.29000000000001
 20
210.558605
 30
0.0
 11
64.29000000000001
 21
210.51479
 31
0.0
  0
LINE
  5
E2
330
1F
100
AcDbEntity
  8
HEWI
100
AcDbLine
 10
62.388656
 20
210.354581
 30
0.0
 11
62.29
 21
210.508945
 31
0.0
  0
LINE
  5
E3
330
1F
100
AcDbEntity
  8
HEWI
100
AcDbLine
 10
63.727848
 20
210.849488
 30
0.0
 11
64.01111
 21
210.800242
 31
0.0
  0
LINE
  5
E4
330
1F
100
AcDbEntity
  8
HEWI
100
AcDbLine
 10
63.156902
 20
210.203907
 30
0.0
 11
62.67866999999999
 21
210.253741
 31
0.0
  0
LINE
  5
E5
330
1F
100
AcDbEntity
  8
HEWI
100
AcDbLine
 10
62.29
 20
210.508945
 30
0.0
 11
62.29
 21
210.61411
 31
0.0
  0
LINE
  5
E6
330
1F
100
AcDbEntity
  8
HEWI
100
AcDbLine
 10
62.29
 20
210.61411
 30
0.0
 11
62.388899
 21
210.768855
 31
0.0
  0
LINE
  5
E7
330
1F
100
AcDbEntity
  8
HEWI
100
AcDbLine
 10
62.388899
 20
210.768855
 30
0.0
 11
62.583121
 21
210.819504
 31
0.0
  0
LINE
  5
E8
330
1F
100
AcDbEntity
  8
HEWI
100
AcDbLine
 10
62.583121
 20
210.819504
 30
0.0
 11
62.588168
 21
210.800152
 31
0.0
  0
LINE
  5
E9
330
1F
100
AcDbEntity
  8
HEWI
100
AcDbLine
 10
62.588168
 20
210.800152
 30
0.0
 11
62.40153000000001
 21
210.751481
 31
0.0
  0
LINE
  5
EA
330
1F
100
AcDbEntity
  8
HEWI
100
AcDbLine
 10
62.40153000000001
 20
210.751481
 30
0.0
 11
62.31
 21
210.608265
 31
0.0
  0
LINE
  5
EB
330
1F
100
AcDbEntity
  8
HEWI
100
AcDbLine
 10
62.31
 20
210.608265
 30
0.0
 11
62.31
 21
210.51479
 31
0.0
  0
LINE
  5
EC
330
1F
100
AcDbEntity
  8
HEWI
100
AcDbLine
 10
62.31
 20
210.51479
 30
0.0
 11
62.401774
 21
210.371194
 31
0.0
  0
LINE
  5
ED
330
1F
100
AcDbEntity
  8
HEWI
100
AcDbLine
 10
62.401774
 20
210.371194
 30
0.0
 11
62.683049
 21
210.273393
 31
0.0
  0
LINE
  5
EE
330
1F
100
AcDbEntity
  8
HEWI
100
AcDbLine
 10
62.683049
 20
210.273393
 30
0.0
 11
63.157941
 21
210.223907
 31
0.0
  0
LINE
  5
EF
330
1F
100
AcDbEntity
  8
HEWI
100
AcDbLine
 10
63.157941
 20
210.223907
 30
0.0
 11
63.51759300000001
 21
210.223907
 31
0.0
  0
LINE
  5
F0
330
1F
100
AcDbEntity
  8
HEWI
100
AcDbLine
 10
63.51759300000001
 20
210.223907
 30
0.0
 11
63.344606
 21
210.253981
 31
0.0
  0
LINE
  5
F1
330
1F
100
AcDbEntity
  8
HEWI
100
AcDbLine
 10
63.344606
 20
210.253981
 30
0.0
 11
63.15043199999999
 21
210.355254
 31
0.0
  0
LINE
  5
F2
330
1F
100
AcDbEntity
  8
HEWI
100
AcDbLine
 10
63.15043199999999
 20
210.355254
 30
0.0
 11
63.05220699999999
 21
210.508945
 31
0.0
  0
LINE
  5
F3
330
1F
100
AcDbEntity
  8
HEWI
100
AcDbLine
 10
63.05220699999999
 20
210.508945
 30
0.0
 11
63.05220699999999
 21
210.56445
 31
0.0
  0
LINE
  5
F4
330
1F
100
AcDbEntity
  8
HEWI
100
AcDbLine
 10
63.05220699999999
 20
210.56445
 30
0.0
 11
63.15043199999999
 21
210.718141
 31
0.0
  0
LINE
  5
F5
330
1F
100
AcDbEntity
  8
HEWI
100
AcDbLine
 10
63.15043199999999
 20
210.718141
 30
0.0
 11
63.344606
 21
210.819414
 31
0.0
  0
LINE
  5
F6
330
1F
100
AcDbEntity
  8
HEWI
100
AcDbLine
 10
63.344606
 20
210.819414
 30
0.0
 11
63.63263299999999
 21
210.869488
 31
0.0
  0
LINE
  5
F7
330
1F
100
AcDbEntity
  8
HEWI
100
AcDbLine
 10
63.63263299999999
 20
210.869488
 30
0.0
 11
63.729574
 21
210.869488
 31
0.0
  0
LINE
  5
F8
330
1F
100
AcDbEntity
  8
HEWI
100
AcDbLine
 10
63.729574
 20
210.869488
 30
0.0
 11
64.017601
 21
210.819414
 31
0.0
  0
LINE
  5
F9
330
1F
100
AcDbEntity
  8
HEWI
100
AcDbLine
 10
64.017601
 20
210.819414
 30
0.0
 11
64.211775
 21
210.718141
 31
0.0
  0
LINE
  5
FA
330
1F
100
AcDbEntity
  8
HEWI
100
AcDbLine
 10
64.211775
 20
210.718141
 30
0.0
 11
64.31
 21
210.56445
 31
0.0
  0
LINE
  5
FB
330
1F
100
AcDbEntity
  8
HEWI
100
AcDbLine
 10
64.31
 20
210.56445
 30
0.0
 11
64.31
 21
210.508945
 31
0.0
  0
LINE
  5
FC
330
1F
100
AcDbEntity
  8
HEWI
100
AcDbLine
 10
64.31
 20
210.508945
 30
0.0
 11
64.211775
 21
210.355254
 31
0.0
  0
LINE
  5
FD
330
1F
100
AcDbEntity
  8
HEWI
100
AcDbLine
 10
64.211775
 20
210.355254
 30
0.0
 11
64.01740699999999
 21
210.25388
 31
0.0
  0
LINE
  5
FE
330
1F
100
AcDbEntity
  8
HEWI
100
AcDbLine
 10
64.01740699999999
 20
210.25388
 30
0.0
 11
63.634145
 21
210.203907
 31
0.0
  0
LINE
  5
FF
330
1F
100
AcDbEntity
  8
HEWI
100
AcDbLine
 10
64.01130400000001
 20
210.273254
 30
0.0
 11
63.633711
 21
210.22402
 31
0.0
  0
LINE
  5
100
330
1F
100
AcDbEntity
  8
HEWI
100
AcDbLine
 10
63.633711
 20
210.22402
 30
0.0
 11
63.351097
 21
210.273153
 31
0.0
  0
LINE
  5
101
330
1F
100
AcDbEntity
  8
HEWI
100
AcDbLine
 10
63.351097
 20
210.273153
 30
0.0
 11
63.164411
 21
210.37052
 31
0.0
  0
LINE
  5
102
330
1F
100
AcDbEntity
  8
HEWI
100
AcDbLine
 10
63.164411
 20
210.37052
 30
0.0
 11
63.07220699999999
 21
210.51479
 31
0.0
  0
LINE
  5
103
330
1F
100
AcDbEntity
  8
HEWI
100
AcDbLine
 10
63.07220699999999
 20
210.51479
 30
0.0
 11
63.07220699999999
 21
210.558605
 31
0.0
  0
LINE
  5
104
330
1F
100
AcDbEntity
  8
HEWI
100
AcDbLine
 10
63.07220699999999
 20
210.558605
 30
0.0
 11
63.164411
 21
210.702875
 31
0.0
  0
LINE
  5
105
330
1F
100
AcDbEntity
  8
HEWI
100
AcDbLine
 10
63.164411
 20
210.702875
 30
0.0
 11
63.351097
 21
210.800242
 31
0.0
  0
LINE
  5
106
330
1F
100
AcDbEntity
  8
HEWI
100
AcDbLine
 10
63.351097
 20
210.800242
 30
0.0
 11
63.63435899999999
 21
210.849488
 31
0.0
  0
LINE
  5
107
330
1F
100
AcDbEntity
  8
HEWI
100
AcDbLine
 10
63.63435899999999
 20
210.849488
 30
0.0
 11
63.727848
 21
210.849488
 31
0.0
  0
LINE
  5
108
330
1F
100
AcDbEntity
  8
HEWI
100
AcDbLine
 10
64.01111
 20
210.800242
 30
0.0
 11
64.197796
 21
210.702875
 31
0.0
  0
LINE
  5
109
330
1F
100
AcDbEntity
  8
HEWI
100
AcDbLine
 10
64.197796
 20
210.702875
 30
0.0
 11
64.29000000000001
 21
210.558605
 31
0.0
  0
LINE
  5
10A
330
1F
100
AcDbEntity
  8
HEWI
100
AcDbLine
 10
64.29000000000001
 20
210.51479
 30
0.0
 11
64.197796
 21
210.37052
 31
0.0
  0
LINE
  5
10B
330
1F
100
AcDbEntity
  8
HEWI
100
AcDbLine
 10
64.197796
 20
210.37052
 30
0.0
 11
64.01130400000001
 21
210.273254
 31
0.0
  0
LINE
  5
10C
330
1F
100
AcDbEntity
  8
HEWI
100
AcDbLine
 10
62.67866999999999
 20
210.253741
 30
0.0
 11
62.388656
 21
210.354581
 31
0.0
  0
LINE
  5
10D
330
1F
100
AcDbEntity
  8
HEWI
100
AcDbLine
 10
95.29000000000001
 20
210.137876
 30
0.0
 11
95.29000000000001
 21
210.971676
 31
0.0
  0
LINE
  5
10E
330
1F
100
AcDbEntity
  8
HEWI
100
AcDbLine
 10
93.68241899999999
 20
210.190478
 30
0.0
 11
93.776074
 21
210.190478
 31
0.0
  0
LINE
  5
10F
330
1F
100
AcDbEntity
  8
HEWI
100
AcDbLine
 10
93.87021800000001
 20
210.900815
 30
0.0
 11
93.68241899999999
 21
210.900815
 31
0.0
  0
LINE
  5
110
330
1F
100
AcDbEntity
  8
HEWI
100
AcDbLine
 10
94.352537
 20
210.737104
 30
0.0
 11
95.29000000000001
 21
210.137876
 31
0.0
  0
LINE
  5
111
330
1F
100
AcDbEntity
  8
HEWI
100
AcDbLine
 10
95.29000000000001
 20
210.971676
 30
0.0
 11
95.31
 21
210.971676
 31
0.0
  0
LINE
  5
112
330
1F
100
AcDbEntity
  8
HEWI
100
AcDbLine
 10
95.31
 20
210.971676
 30
0.0
 11
95.31
 21
210.101356
 31
0.0
  0
LINE
  5
113
330
1F
100
AcDbEntity
  8
HEWI
100
AcDbLine
 10
95.31
 20
210.101356
 30
0.0
 11
94.343166
 21
210.719357
 31
0.0
  0
LINE
  5
114
330
1F
100
AcDbEntity
  8
HEWI
100
AcDbLine
 10
94.343166
 20
210.719357
 30
0.0
 11
94.058717
 21
210.84057
 31
0.0
  0
LINE
  5
115
330
1F
100
AcDbEntity
  8
HEWI
100
AcDbLine
 10
94.058717
 20
210.84057
 30
0.0
 11
93.87021800000001
 21
210.900815
 31
0.0
  0
LINE
  5
116
330
1F
100
AcDbEntity
  8
HEWI
100
AcDbLine
 10
93.68241899999999
 20
210.900815
 30
0.0
 11
93.49471599999999
 21
210.840825
 31
0.0
  0
LINE
  5
117
330
1F
100
AcDbEntity
  8
HEWI
100
AcDbLine
 10
93.49471599999999
 20
210.840825
 30
0.0
 11
93.402039
 21
210.781586
 31
0.0
  0
LINE
  5
118
330
1F
100
AcDbEntity
  8
HEWI
100
AcDbLine
 10
93.402039
 20
210.781586
 30
0.0
 11
93.31000000000001
 21
210.663922
 31
0.0
  0
LINE
  5
119
330
1F
100
AcDbEntity
  8
HEWI
100
AcDbLine
 10
93.31000000000001
 20
210.663922
 30
0.0
 11
93.31000000000001
 21
210.42737
 31
0.0
  0
LINE
  5
11A
330
1F
100
AcDbEntity
  8
HEWI
100
AcDbLine
 10
93.31000000000001
 20
210.42737
 30
0.0
 11
93.402039
 21
210.309707
 31
0.0
  0
LINE
  5
11B
330
1F
100
AcDbEntity
  8
HEWI
100
AcDbLine
 10
93.402039
 20
210.309707
 30
0.0
 11
93.49471599999999
 21
210.250467
 31
0.0
  0
LINE
  5
11C
330
1F
100
AcDbEntity
  8
HEWI
100
AcDbLine
 10
93.49471599999999
 20
210.250467
 30
0.0
 11
93.68241899999999
 21
210.190478
 31
0.0
  0
LINE
  5
11D
330
1F
100
AcDbEntity
  8
HEWI
100
AcDbLine
 10
93.776074
 20
210.190478
 30
0.0
 11
93.776074
 21
210.170478
 31
0.0
  0
LINE
  5
11E
330
1F
100
AcDbEntity
  8
HEWI
100
AcDbLine
 10
93.776074
 20
210.170478
 30
0.0
 11
93.67929999999999
 21
210.170478
 31
0.0
  0
LINE
  5
11F
330
1F
100
AcDbEntity
  8
HEWI
100
AcDbLine
 10
93.67929999999999
 20
210.170478
 30
0.0
 11
93.48614299999999
 21
210.232211
 31
0.0
  0
LINE
  5
120
330
1F
100
AcDbEntity
  8
HEWI
100
AcDbLine
 10
93.48614299999999
 20
210.232211
 30
0.0
 11
93.38839
 21
210.294694
 31
0.0
  0
LINE
  5
121
330
1F
100
AcDbEntity
  8
HEWI
100
AcDbLine
 10
93.38839
 20
210.294694
 30
0.0
 11
93.29
 21
210.420477
 31
0.0
  0
LINE
  5
122
330
1F
100
AcDbEntity
  8
HEWI
100
AcDbLine
 10
93.29
 20
210.420477
 30
0.0
 11
93.29
 21
210.670815
 31
0.0
  0
LINE
  5
123
330
1F
100
AcDbEntity
  8
HEWI
100
AcDbLine
 10
93.29
 20
210.670815
 30
0.0
 11
93.38839
 21
210.796598
 31
0.0
  0
LINE
  5
124
330
1F
100
AcDbEntity
  8
HEWI
100
AcDbLine
 10
93.38839
 20
210.796598
 30
0.0
 11
93.48614299999999
 21
210.859081
 31
0.0
  0
LINE
  5
125
330
1F
100
AcDbEntity
  8
HEWI
100
AcDbLine
 10
93.48614299999999
 20
210.859081
 30
0.0
 11
93.67929999999999
 21
210.920815
 31
0.0
  0
LINE
  5
126
330
1F
100
AcDbEntity
  8
HEWI
100
AcDbLine
 10
93.67929999999999
 20
210.920815
 30
0.0
 11
93.87333599999999
 21
210.920815
 31
0.0
  0
LINE
  5
127
330
1F
100
AcDbEntity
  8
HEWI
100
AcDbLine
 10
93.87333599999999
 20
210.920815
 30
0.0
 11
94.065697
 21
210.859336
 31
0.0
  0
LINE
  5
128
330
1F
100
AcDbEntity
  8
HEWI
100
AcDbLine
 10
94.065697
 20
210.859336
 30
0.0
 11
94.352537
 21
210.737104
 31
0.0
  0
LINE
  5
129
330
1F
100
AcDbEntity
  8
HEWI
100
AcDbLine
 10
62.494049
 20
208.118411
 30
0.0
 11
62.402204
 21
208.070509
 31
0.0
  0
LINE
  5
12A
330
1F
100
AcDbEntity
  8
HEWI
100
AcDbLine
 10
62.388225
 20
208.085774
 30
0.0
 11
62.48681
 21
208.137192
 31
0.0
  0
LINE
  5
12B
330
1F
100
AcDbEntity
  8
HEWI
100
AcDbLine
 10
63.24564699999999
 20
208.070509
 30
0.0
 11
63.15380199999999
 21
208.118411
 31
0.0
  0
LINE
  5
12C
330
1F
100
AcDbEntity
  8
HEWI
100
AcDbLine
 10
63.15380199999999
 20
208.118411
 30
0.0
 11
62.96571
 21
208.167462
 31
0.0
  0
LINE
  5
12D
330
1F
100
AcDbEntity
  8
HEWI
100
AcDbLine
 10
62.96571
 20
208.167462
 30
0.0
 11
62.682142
 21
208.167462
 31
0.0
  0
LINE
  5
12E
330
1F
100
AcDbEntity
  8
HEWI
100
AcDbLine
 10
62.682142
 20
208.167462
 30
0.0
 11
62.494049
 21
208.118411
 31
0.0
  0
LINE
  5
12F
330
1F
100
AcDbEntity
  8
HEWI
100
AcDbLine
 10
62.402204
 20
208.070509
 30
0.0
 11
62.31
 21
207.926239
 31
0.0
  0
LINE
  5
130
330
1F
100
AcDbEntity
  8
HEWI
100
AcDbLine
 10
62.31
 20
207.926239
 30
0.0
 11
62.31
 21
207.492221
 31
0.0
  0
LINE
  5
131
330
1F
100
AcDbEntity
  8
HEWI
100
AcDbLine
 10
62.31
 20
207.492221
 30
0.0
 11
64.29999999999999
 21
207.492221
 31
0.0
  0
LINE
  5
132
330
1F
100
AcDbEntity
  8
HEWI
100
AcDbLine
 10
64.29999999999999
 20
207.492221
 30
0.0
 11
64.29999999999999
 21
207.472221
 31
0.0
  0
LINE
  5
133
330
1F
100
AcDbEntity
  8
HEWI
100
AcDbLine
 10
64.29999999999999
 20
207.472221
 30
0.0
 11
62.29
 21
207.472221
 31
0.0
  0
LINE
  5
134
330
1F
100
AcDbEntity
  8
HEWI
100
AcDbLine
 10
62.29
 20
207.472221
 30
0.0
 11
62.29
 21
207.932084
 31
0.0
  0
LINE
  5
135
330
1F
100
AcDbEntity
  8
HEWI
100
AcDbLine
 10
62.29
 20
207.932084
 30
0.0
 11
62.388225
 21
208.085774
 31
0.0
  0
LINE
  5
136
330
1F
100
AcDbEntity
  8
HEWI
100
AcDbLine
 10
63.33785200000001
 20
207.926239
 30
0.0
 11
63.24564699999999
 21
208.070509
 31
0.0
  0
LINE
  5
137
330
1F
100
AcDbEntity
  8
HEWI
100
AcDbLine
 10
63.33785200000001
 20
207.502221
 30
0.0
 11
63.33785200000001
 21
207.926239
 31
0.0
  0
LINE
  5
138
330
1F
100
AcDbEntity
  8
HEWI
100
AcDbLine
 10
63.357852
 20
207.502221
 30
0.0
 11
63.33785200000001
 21
207.502221
 31
0.0
  0
LINE
  5
139
330
1F
100
AcDbEntity
  8
HEWI
100
AcDbLine
 10
63.357852
 20
207.932084
 30
0.0
 11
63.357852
 21
207.502221
 31
0.0
  0
LINE
  5
13A
330
1F
100
AcDbEntity
  8
HEWI
100
AcDbLine
 10
63.259626
 20
208.085774
 30
0.0
 11
63.357852
 21
207.932084
 31
0.0
  0
LINE
  5
13B
330
1F
100
AcDbEntity
  8
HEWI
100
AcDbLine
 10
63.161042
 20
208.137192
 30
0.0
 11
63.259626
 21
208.085774
 31
0.0
  0
LINE
  5
13C
330
1F
100
AcDbEntity
  8
HEWI
100
AcDbLine
 10
62.968275
 20
208.187462
 30
0.0
 11
63.161042
 21
208.137192
 31
0.0
  0
LINE
  5
13D
330
1F
100
AcDbEntity
  8
HEWI
100
AcDbLine
 10
62.679577
 20
208.187462
 30
0.0
 11
62.968275
 21
208.187462
 31
0.0
  0
LINE
  5
13E
330
1F
100
AcDbEntity
  8
HEWI
100
AcDbLine
 10
62.48681
 20
208.137192
 30
0.0
 11
62.679577
 21
208.187462
 31
0.0
  0
LINE
  5
13F
330
1F
100
AcDbEntity
  8
HEWI
100
AcDbLine
 10
93.31000000000001
 20
209.325967
 30
0.0
 11
93.31000000000001
 21
209.270007
 31
0.0
  0
LINE
  5
140
330
1F
100
AcDbEntity
  8
HEWI
100
AcDbLine
 10
93.31000000000001
 20
209.270007
 30
0.0
 11
93.40284799999999
 21
209.091961
 31
0.0
  0
LINE
  5
141
330
1F
100
AcDbEntity
  8
HEWI
100
AcDbLine
 10
93.96804600000001
 20
208.892388
 30
0.0
 11
94.25649399999999
 21
208.953847
 31
0.0
  0
LINE
  5
142
330
1F
100
AcDbEntity
  8
HEWI
100
AcDbLine
 10
94.25649399999999
 20
208.953847
 30
0.0
 11
94.45069999999999
 21
209.077983
 31
0.0
  0
LINE
  5
143
330
1F
100
AcDbEntity
  8
HEWI
100
AcDbLine
 10
94.45069999999999
 20
209.077983
 30
0.0
 11
94.548281
 21
209.265105
 31
0.0
  0
LINE
  5
144
330
1F
100
AcDbEntity
  8
HEWI
100
AcDbLine
 10
94.52828100000001
 20
209.325967
 30
0.0
 11
94.43543299999999
 21
209.504013
 31
0.0
  0
LINE
  5
145
330
1F
100
AcDbEntity
  8
HEWI
100
AcDbLine
 10
95.31
 20
209.204244
 30
0.0
 11
95.31
 21
209.330868
 31
0.0
  0
LINE
  5
146
330
1F
100
AcDbEntity
  8
HEWI
100
AcDbLine
 10
95.31
 20
209.330868
 30
0.0
 11
95.211997
 21
209.518799
 31
0.0
  0
LINE
  5
147
330
1F
100
AcDbEntity
  8
HEWI
100
AcDbLine
 10
95.211997
 20
209.518799
 30
0.0
 11
94.92178499999999
 21
209.642468
 31
0.0
  0
LINE
  5
148
330
1F
100
AcDbEntity
  8
HEWI
100
AcDbLine
 10
94.92178499999999
 20
209.642468
 30
0.0
 11
94.443703
 21
209.703586
 31
0.0
  0
LINE
  5
149
330
1F
100
AcDbEntity
  8
HEWI
100
AcDbLine
 10
94.443703
 20
209.703586
 30
0.0
 11
93.96619900000001
 21
209.703586
 31
0.0
  0
LINE
  5
14A
330
1F
100
AcDbEntity
  8
HEWI
100
AcDbLine
 10
93.96619900000001
 20
209.703586
 30
0.0
 11
93.58201300000001
 21
209.642272
 31
0.0
  0
LINE
  5
14B
330
1F
100
AcDbEntity
  8
HEWI
100
AcDbLine
 10
93.58201300000001
 20
209.642272
 30
0.0
 11
93.38758100000001
 21
209.517991
 31
0.0
  0
LINE
  5
14C
330
1F
100
AcDbEntity
  8
HEWI
100
AcDbLine
 10
93.38758100000001
 20
209.517991
 30
0.0
 11
93.29
 21
209.330868
 31
0.0
  0
LINE
  5
14D
330
1F
100
AcDbEntity
  8
HEWI
100
AcDbLine
 10
93.29
 20
209.330868
 30
0.0
 11
93.29
 21
209.265105
 31
0.0
  0
LINE
  5
14E
330
1F
100
AcDbEntity
  8
HEWI
100
AcDbLine
 10
93.29
 20
209.265105
 30
0.0
 11
93.38758100000001
 21
209.077983
 31
0.0
  0
LINE
  5
14F
330
1F
100
AcDbEntity
  8
HEWI
100
AcDbLine
 10
93.38758100000001
 20
209.077983
 30
0.0
 11
93.58178800000001
 21
208.953846
 31
0.0
  0
LINE
  5
150
330
1F
100
AcDbEntity
  8
HEWI
100
AcDbLine
 10
93.58178800000001
 20
208.953846
 30
0.0
 11
93.87072600000001
 21
208.892388
 31
0.0
  0
LINE
  5
151
330
1F
100
AcDbEntity
  8
HEWI
100
AcDbLine
 10
93.87072600000001
 20
208.892388
 30
0.0
 11
93.96804600000001
 21
208.892388
 31
0.0
  0
LINE
  5
152
330
1F
100
AcDbEntity
  8
HEWI
100
AcDbLine
 10
94.548281
 20
209.265105
 30
0.0
 11
94.548281
 21
209.330868
 31
0.0
  0
LINE
  5
153
330
1F
100
AcDbEntity
  8
HEWI
100
AcDbLine
 10
94.548281
 20
209.330868
 30
0.0
 11
94.45069999999999
 21
209.517991
 31
0.0
  0
LINE
  5
154
330
1F
100
AcDbEntity
  8
HEWI
100
AcDbLine
 10
94.45069999999999
 20
209.517991
 30
0.0
 11
94.25649399999999
 21
209.642127
 31
0.0
  0
LINE
  5
155
330
1F
100
AcDbEntity
  8
HEWI
100
AcDbLine
 10
94.25649399999999
 20
209.642127
 30
0.0
 11
94.06191300000001
 21
209.683586
 31
0.0
  0
LINE
  5
156
330
1F
100
AcDbEntity
  8
HEWI
100
AcDbLine
 10
94.06191300000001
 20
209.683586
 30
0.0
 11
94.44243
 21
209.683586
 31
0.0
  0
LINE
  5
157
330
1F
100
AcDbEntity
  8
HEWI
100
AcDbLine
 10
94.44243
 20
209.683586
 30
0.0
 11
94.91649699999999
 21
209.622981
 31
0.0
  0
LINE
  5
158
330
1F
100
AcDbEntity
  8
HEWI
100
AcDbLine
 10
94.91649699999999
 20
209.622981
 30
0.0
 11
95.197573
 21
209.503205
 31
0.0
  0
LINE
  5
159
330
1F
100
AcDbEntity
  8
HEWI
100
AcDbLine
 10
95.197573
 20
209.503205
 30
0.0
 11
95.29000000000001
 21
209.325967
 31
0.0
  0
LINE
  5
15A
330
1F
100
AcDbEntity
  8
HEWI
100
AcDbLine
 10
95.29000000000001
 20
209.325967
 30
0.0
 11
95.29000000000001
 21
209.209146
 31
0.0
  0
LINE
  5
15B
330
1F
100
AcDbEntity
  8
HEWI
100
AcDbLine
 10
95.29000000000001
 20
209.209146
 30
0.0
 11
95.19782099999998
 21
209.032383
 31
0.0
  0
LINE
  5
15C
330
1F
100
AcDbEntity
  8
HEWI
100
AcDbLine
 10
95.19782099999998
 20
209.032383
 30
0.0
 11
95.011311
 21
208.972774
 31
0.0
  0
LINE
  5
15D
330
1F
100
AcDbEntity
  8
HEWI
100
AcDbLine
 10
95.011311
 20
208.972774
 30
0.0
 11
95.01739999999999
 21
208.953724
 31
0.0
  0
LINE
  5
15E
330
1F
100
AcDbEntity
  8
HEWI
100
AcDbLine
 10
95.01739999999999
 20
208.953724
 30
0.0
 11
95.211749
 21
209.015838
 31
0.0
  0
LINE
  5
15F
330
1F
100
AcDbEntity
  8
HEWI
100
AcDbLine
 10
95.211749
 20
209.015838
 30
0.0
 11
95.31
 21
209.204244
 31
0.0
  0
LINE
  5
160
330
1F
100
AcDbEntity
  8
HEWI
100
AcDbLine
 10
94.52828100000001
 20
209.270007
 30
0.0
 11
94.52828100000001
 21
209.325967
 31
0.0
  0
LINE
  5
161
330
1F
100
AcDbEntity
  8
HEWI
100
AcDbLine
 10
94.43543299999999
 20
209.091961
 30
0.0
 11
94.52828100000001
 21
209.270007
 31
0.0
  0
LINE
  5
162
330
1F
100
AcDbEntity
  8
HEWI
100
AcDbLine
 10
94.248779
 20
208.972652
 30
0.0
 11
94.43543299999999
 21
209.091961
 31
0.0
  0
LINE
  5
163
330
1F
100
AcDbEntity
  8
HEWI
100
AcDbLine
 10
93.965939
 20
208.912388
 30
0.0
 11
94.248779
 21
208.972652
 31
0.0
  0
LINE
  5
164
330
1F
100
AcDbEntity
  8
HEWI
100
AcDbLine
 10
93.872829
 20
208.912388
 30
0.0
 11
93.965939
 21
208.912388
 31
0.0
  0
LINE
  5
165
330
1F
100
AcDbEntity
  8
HEWI
100
AcDbLine
 10
93.58950099999999
 20
208.972653
 30
0.0
 11
93.872829
 21
208.912388
 31
0.0
  0
LINE
  5
166
330
1F
100
AcDbEntity
  8
HEWI
100
AcDbLine
 10
93.40284799999999
 20
209.091961
 30
0.0
 11
93.58950099999999
 21
208.972653
 31
0.0
  0
LINE
  5
167
330
1F
100
AcDbEntity
  8
HEWI
100
AcDbLine
 10
93.40284799999999
 20
209.504013
 30
0.0
 11
93.31000000000001
 21
209.325967
 31
0.0
  0
LINE
  5
168
330
1F
100
AcDbEntity
  8
HEWI
100
AcDbLine
 10
93.58927599999999
 20
209.623178
 30
0.0
 11
93.40284799999999
 21
209.504013
 31
0.0
  0
LINE
  5
169
330
1F
100
AcDbEntity
  8
HEWI
100
AcDbLine
 10
93.966729
 20
209.683418
 30
0.0
 11
93.58927599999999
 21
209.623178
 31
0.0
  0
LINE
  5
16A
330
1F
100
AcDbEntity
  8
HEWI
100
AcDbLine
 10
94.248779
 20
209.623322
 30
0.0
 11
93.966729
 21
209.683418
 31
0.0
  0
LINE
  5
16B
330
1F
100
AcDbEntity
  8
HEWI
100
AcDbLine
 10
94.43543299999999
 20
209.504013
 30
0.0
 11
94.248779
 21
209.623322
 31
0.0
  0
LINE
  5
16C
330
1F
100
AcDbEntity
  8
HEWI
100
AcDbLine
 10
63.643496
 20
209.022065
 30
0.0
 11
63.643496
 21
208.525464
 31
0.0
  0
LINE
  5
16D
330
1F
100
AcDbEntity
  8
HEWI
100
AcDbLine
 10
63.643496
 20
208.525464
 30
0.0
 11
63.62349599999999
 21
208.525464
 31
0.0
  0
LINE
  5
16E
330
1F
100
AcDbEntity
  8
HEWI
100
AcDbLine
 10
63.62349599999999
 20
208.525464
 30
0.0
 11
63.62349599999999
 21
209.022065
 31
0.0
  0
LINE
  5
16F
330
1F
100
AcDbEntity
  8
HEWI
100
AcDbLine
 10
63.62349599999999
 20
209.022065
 30
0.0
 11
63.643496
 21
209.022065
 31
0.0
  0
LINE
  5
170
330
1F
100
AcDbEntity
  8
HEWI
100
AcDbLine
 10
95.30291099999999
 20
206.720943
 30
0.0
 11
93.29
 21
207.333486
 31
0.0
  0
LINE
  5
171
330
1F
100
AcDbEntity
  8
HEWI
100
AcDbLine
 10
93.31000000000001
 20
207.306495
 30
0.0
 11
95.29708900000001
 21
206.70181
 31
0.0
  0
LINE
  5
172
330
1F
100
AcDbEntity
  8
HEWI
100
AcDbLine
 10
95.29708900000001
 20
206.70181
 30
0.0
 11
95.30291099999999
 21
206.720943
 31
0.0
  0
LINE
  5
173
330
1F
100
AcDbEntity
  8
HEWI
100
AcDbLine
 10
93.29
 20
207.333486
 30
0.0
 11
93.29
 21
206.467931
 31
0.0
  0
LINE
  5
174
330
1F
100
AcDbEntity
  8
HEWI
100
AcDbLine
 10
93.31000000000001
 20
206.467931
 30
0.0
 11
93.31000000000001
 21
207.306495
 31
0.0
  0
LINE
  5
175
330
1F
100
AcDbEntity
  8
HEWI
100
AcDbLine
 10
93.29
 20
206.467931
 30
0.0
 11
93.31000000000001
 21
206.467931
 31
0.0
  0
LINE
  5
176
330
1F
100
AcDbEntity
  8
HEWI
100
AcDbLine
 10
62.59244200000001
 20
206.282662
 30
0.0
 11
63.443064
 21
207.070923
 31
0.0
  0
LINE
  5
177
330
1F
100
AcDbEntity
  8
HEWI
100
AcDbLine
 10
63.443064
 20
207.070923
 30
0.0
 11
64.29320099999999
 21
206.282664
 31
0.0
  0
LINE
  5
178
330
1F
100
AcDbEntity
  8
HEWI
100
AcDbLine
 10
64.306799
 20
206.29733
 30
0.0
 11
63.443068
 21
207.098193
 31
0.0
  0
LINE
  5
179
330
1F
100
AcDbEntity
  8
HEWI
100
AcDbLine
 10
64.29320099999999
 20
206.282664
 30
0.0
 11
64.306799
 21
206.29733
 31
0.0
  0
LINE
  5
17A
330
1F
100
AcDbEntity
  8
HEWI
100
AcDbLine
 10
63.443068
 20
207.098193
 30
0.0
 11
62.57884699999999
 21
206.297331
 31
0.0
  0
LINE
  5
17B
330
1F
100
AcDbEntity
  8
HEWI
100
AcDbLine
 10
62.57884699999999
 20
206.297331
 30
0.0
 11
62.59244200000001
 21
206.282662
 31
0.0
  0
LINE
  5
17C
330
1F
100
AcDbEntity
  8
HEWI
100
AcDbLine
 10
95.29999999999999
 20
208.182051
 30
0.0
 11
93.265788
 21
208.182051
 31
0.0
  0
LINE
  5
17D
330
1F
100
AcDbEntity
  8
HEWI
100
AcDbLine
 10
95.29999999999999
 20
208.162051
 30
0.0
 11
95.29999999999999
 21
208.182051
 31
0.0
  0
LINE
  5
17E
330
1F
100
AcDbEntity
  8
HEWI
100
AcDbLine
 10
93.265788
 20
208.182051
 30
0.0
 11
93.57882
 21
207.98196
 31
0.0
  0
LINE
  5
17F
330
1F
100
AcDbEntity
  8
HEWI
100
AcDbLine
 10
93.68873599999998
 20
207.873905
 30
0.0
 11
93.592469
 21
207.996972
 31
0.0
  0
LINE
  5
180
330
1F
100
AcDbEntity
  8
HEWI
100
AcDbLine
 10
93.67298299999999
 20
207.861582
 30
0.0
 11
93.68873599999998
 21
207.873905
 31
0.0
  0
LINE
  5
181
330
1F
100
AcDbEntity
  8
HEWI
100
AcDbLine
 10
93.592469
 20
207.996972
 30
0.0
 11
93.334212
 21
208.162051
 31
0.0
  0
LINE
  5
182
330
1F
100
AcDbEntity
  8
HEWI
100
AcDbLine
 10
93.57882
 20
207.98196
 30
0.0
 11
93.67298299999999
 21
207.861582
 31
0.0
  0
LINE
  5
183
330
1F
100
AcDbEntity
  8
HEWI
100
AcDbLine
 10
93.334212
 20
208.162051
 30
0.0
 11
95.29999999999999
 21
208.162051
 31
0.0
  0
LINE
  5
184
330
1F
100
AcDbEntity
  8
HEWI
100
AcDbLine
 10
93.68873599999998
 20
211.52559
 30
0.0
 11
93.592469
 21
211.648658
 31
0.0
  0
LINE
  5
185
330
1F
100
AcDbEntity
  8
HEWI
100
AcDbLine
 10
95.29999999999999
 20
211.833736
 30
0.0
 11
93.265788
 21
211.833736
 31
0.0
  0
LINE
  5
186
330
1F
100
AcDbEntity
  8
HEWI
100
AcDbLine
 10
93.67298299999999
 20
211.513268
 30
0.0
 11
93.68873599999998
 21
211.52559
 31
0.0
  0
LINE
  5
187
330
1F
100
AcDbEntity
  8
HEWI
100
AcDbLine
 10
93.334212
 20
211.813736
 30
0.0
 11
95.29999999999999
 21
211.813736
 31
0.0
  0
LINE
  5
188
330
1F
100
AcDbEntity
  8
HEWI
100
AcDbLine
 10
95.29999999999999
 20
211.813736
 30
0.0
 11
95.29999999999999
 21
211.833736
 31
0.0
  0
LINE
  5
189
330
1F
100
AcDbEntity
  8
HEWI
100
AcDbLine
 10
93.265788
 20
211.833736
 30
0.0
 11
93.57882
 21
211.633646
 31
0.0
  0
LINE
  5
18A
330
1F
100
AcDbEntity
  8
HEWI
100
AcDbLine
 10
93.57882
 20
211.633646
 30
0.0
 11
93.67298299999999
 21
211.513268
 31
0.0
  0
LINE
  5
18B
330
1F
100
AcDbEntity
  8
HEWI
100
AcDbLine
 10
93.592469
 20
211.648658
 30
0.0
 11
93.334212
 21
211.813736
 31
0.0
  0
LINE
  5
18C
330
1F
100
AcDbEntity
  8
HEWI
100
AcDbLine
 10
255.118068
 20
134.432541
 30
0.0
 11
247.481315
 21
138.841623
 31
0.0
  0
LINE
  5
18D
330
1F
100
AcDbEntity
  8
HEWI
100
AcDbLine
 10
214.081315
 20
80.99112599999999
 30
0.0
 11
221.718068
 21
76.58204399999999
 31
0.0
  0
LINE
  5
18E
330
1F
100
AcDbEntity
  8
HEWI
100
AcDbLine
 10
214.081315
 20
80.99112599999999
 30
0.0
 11
214.082811
 21
80.990262
 31
0.0
  0
CIRCLE
  5
18F
330
1F
100
AcDbEntity
  8
HEWI
100
AcDbCircle
 10
234.6
 20
209.145833
 30
0.0
 40
33.4
  0
CIRCLE
  5
190
330
1F
100
AcDbEntity
  8
HEWI
100
AcDbCircle
 10
234.6
 20
209.145833
 30
0.0
 40
32.20000000000001
  0
ARC
  5
191
330
1F
100
AcDbEntity
  8
HEWI
100
AcDbCircle
 10
152.925
 20
176.945833
 30
0.0
 40
1.199999999999999
100
AcDbArc
 50
180.0
 51
270.0
  0
ARC
  5
192
330
1F
100
AcDbEntity
  8
HEWI
100
AcDbCircle
 10
152.925
 20
241.345833
 30
0.0
 40
1.199999999999999
100
AcDbArc
 50
90.0
 51
180.0
  0
CIRCLE
  5
193
330
1F
100
AcDbEntity
  8
HEWI
100
AcDbCircle
 10
78.79999999999999
 20
209.145833
 30
0.0
 40
32.5
  0
ARC
  5
194
330
1F
100
AcDbEntity
  8
HEWI
100
AcDbCircle
 10
92.65786400000001
 20
181.145833
 30
0.0
 40
9.896655180566323
100
AcDbArc
 50
51.37253199999999
 51
90.0
  0
ARC
  5
195
330
1F
100
AcDbEntity
  8
HEWI
100
AcDbCircle
 10
64.94213600000001
 20
181.145833
 30
0.0
 40
9.896655180566323
100
AcDbArc
 50
90.0
 51
128.627468
  0
CIRCLE
  5
196
330
1F
100
AcDbEntity
  8
HEWI
100
AcDbCircle
 10
66.75489499999999
 20
226.348026
 30
0.0
 40
3.000000000000003
  0
CIRCLE
  5
197
330
1F
100
AcDbEntity
  8
HEWI
100
AcDbCircle
 10
90.845105
 20
226.348026
 30
0.0
 40
3.000000000000003
  0
CIRCLE
  5
198
330
1F
100
AcDbEntity
  8
HEWI
100
AcDbCircle
 10
78.79999999999999
 20
209.145833
 30
0.0
 40
12.5
  0
CIRCLE
  5
199
330
1F
100
AcDbEntity
  8
HEWI
100
AcDbCircle
 10
96.002193
 20
197.100728
 30
0.0
 40
3.000000000000001
  0
CIRCLE
  5
19A
330
1F
100
AcDbEntity
  8
HEWI
100
AcDbCircle
 10
99.720089
 20
207.315563
 30
0.0
 40
3.000000000000003
  0
CIRCLE
  5
19B
330
1F
100
AcDbEntity
  8
HEWI
100
AcDbCircle
 10
97.83246400000001
 20
218.020817
 30
0.0
 40
2.999999999999998
  0
CIRCLE
  5
19C
330
1F
100
AcDbEntity
  8
HEWI
100
AcDbCircle
 10
57.879911
 20
207.315563
 30
0.0
 40
3.000000000000003
  0
CIRCLE
  5
19D
330
1F
100
AcDbEntity
  8
HEWI
100
AcDbCircle
 10
59.767536
 20
218.020817
 30
0.0
 40
2.999999999999998
  0
CIRCLE
  5
19E
330
1F
100
AcDbEntity
  8
HEWI
100
AcDbCircle
 10
61.59780699999999
 20
197.100728
 30
0.0
 40
3.000000000000001
  0
ARC
  5
19F
330
1F
100
AcDbEntity
  8
HEWI
100
AcDbCircle
 10
78.79999999999999
 20
209.145833
 30
0.0
 40
28.5
100
AcDbArc
 50
314.669303
 51
66.432384
  0
ARC
  5
1A0
330
1F
100
AcDbEntity
  8
HEWI
100
AcDbCircle
 10
78.79999999999999
 20
209.145833
 30
0.0
 40
28.5
100
AcDbArc
 50
113.567616
 51
225.330697
  0
ARC
  5
1A1
330
1F
100
AcDbEntity
  8
HEWI
100
AcDbCircle
 10
78.79999999999999
 20
209.145833
 30
0.0
 40
29.0
100
AcDbArc
 50
345.0
 51
15.0
  0
ARC
  5
1A2
330
1F
100
AcDbEntity
  8
HEWI
100
AcDbCircle
 10
78.79999999999999
 20
209.145833
 30
0.0
 40
31.29999999999999
100
AcDbArc
 50
345.0
 51
15.0
  0
ARC
  5
1A3
330
1F
100
AcDbEntity
  8
HEWI
100
AcDbCircle
 10
78.79999999999999
 20
209.145833
 30
0.0
 40
29.0
100
AcDbArc
 50
45.0
 51
60.464638
  0
ARC
  5
1A4
330
1F
100
AcDbEntity
  8
HEWI
100
AcDbCircle
 10
78.79999999999999
 20
209.145833
 30
0.0
 40
31.29999999999999
100
AcDbArc
 50
45.0
 51
62.823269
  0
ARC
  5
1A5
330
1F
100
AcDbEntity
  8
HEWI
100
AcDbCircle
 10
78.79999999999999
 20
209.145833
 30
0.0
 40
29.0
100
AcDbArc
 50
119.535362
 51
135.0
  0
ARC
  5
1A6
330
1F
100
AcDbEntity
  8
HEWI
100
AcDbCircle
 10
78.79999999999999
 20
209.145833
 30
0.0
 40
31.29999999999999
100
AcDbArc
 50
117.176731
 51
135.0
  0
ARC
  5
1A7
330
1F
100
AcDbEntity
  8
HEWI
100
AcDbCircle
 10
78.79999999999999
 20
209.145833
 30
0.0
 40
29.0
100
AcDbArc
 50
165.0
 51
195.0
  0
ARC
  5
1A8
330
1F
100
AcDbEntity
  8
HEWI
100
AcDbCircle
 10
78.79999999999999
 20
209.145833
 30
0.0
 40
31.29999999999999
100
AcDbArc
 50
165.0
 51
195.0
  0
ARC
  5
1A9
330
1F
100
AcDbEntity
  8
HEWI
100
AcDbCircle
 10
78.79999999999999
 20
209.145833
 30
0.0
 40
29.0
100
AcDbArc
 50
15.968022
 51
44.031978
  0
ARC
  5
1AA
330
1F
100
AcDbEntity
  8
HEWI
100
AcDbCircle
 10
78.79999999999999
 20
209.145833
 30
0.0
 40
29.0
100
AcDbArc
 50
315.410042
 51
344.031978
  0
ARC
  5
1AB
330
1F
100
AcDbEntity
  8
HEWI
100
AcDbCircle
 10
78.79999999999999
 20
209.145833
 30
0.0
 40
29.0
100
AcDbArc
 50
135.968022
 51
164.031978
  0
ARC
  5
1AC
330
1F
100
AcDbEntity
  8
HEWI
100
AcDbCircle
 10
78.79999999999999
 20
209.145833
 30
0.0
 40
31.81961524227066
100
AcDbArc
 50
15.882236
 51
44.11776399999999
  0
ARC
  5
1AD
330
1F
100
AcDbEntity
  8
HEWI
100
AcDbCircle
 10
78.79999999999999
 20
209.145833
 30
0.0
 40
31.81961524227066
100
AcDbArc
 50
315.610532
 51
344.117764
  0
ARC
  5
1AE
330
1F
100
AcDbEntity
  8
HEWI
100
AcDbCircle
 10
78.79999999999999
 20
209.145833
 30
0.0
 40
31.81961524227066
100
AcDbArc
 50
135.882236
 51
164.117764
  0
ARC
  5
1AF
330
1F
100
AcDbEntity
  8
HEWI
100
AcDbCircle
 10
78.79999999999999
 20
209.145833
 30
0.0
 40
31.81961524227066
100
AcDbArc
 50
195.882236
 51
224.389468
  0
ARC
  5
1B0
330
1F
100
AcDbEntity
  8
HEWI
100
AcDbCircle
 10
78.79999999999999
 20
209.145833
 30
0.0
 40
29.0
100
AcDbArc
 50
195.968022
 51
224.589958
  0
ARC
  5
1B1
330
1F
100
AcDbEntity
  8
HEWI
100
AcDbCircle
 10
78.79999999999999
 20
209.145833
 30
0.0
 40
29.79999999999999
100
AcDbArc
 50
72.421426
 51
107.578574
  0
ARC
  5
1B2
330
1F
100
AcDbEntity
  8
HEWI
100
AcDbCircle
 10
78.79999999999999
 20
209.145833
 30
0.0
 40
31.29999999999999
100
AcDbArc
 50
62.823269
 51
117.176731
  0
ARC
  5
1B3
330
1F
100
AcDbEntity
  8
HEWI
100
AcDbCircle
 10
78.79999999999999
 20
209.145833
 30
0.0
 40
30.86501543195076
100
AcDbArc
 50
70.96789799999999
 51
109.032102
  0
ARC
  5
1B4
330
1F
100
AcDbEntity
  8
HEWI
100
AcDbCircle
 10
78.79999999999999
 20
209.145833
 30
0.0
 40
31.7
100
AcDbArc
 50
309.234869
 51
314.91612
  0
ARC
  5
1B5
330
1F
100
AcDbEntity
  8
HEWI
100
AcDbCircle
 10
78.79999999999999
 20
209.145833
 30
0.0
 40
31.7
100
AcDbArc
 50
344.81862
 51
15.18237
  0
ARC
  5
1B6
330
1F
100
AcDbEntity
  8
HEWI
100
AcDbCircle
 10
78.79999999999999
 20
209.145833
 30
0.0
 40
31.7
100
AcDbArc
 50
44.820495
 51
135.174869
  0
ARC
  5
1B7
330
1F
100
AcDbEntity
  8
HEWI
100
AcDbCircle
 10
78.79999999999999
 20
209.145833
 30
0.0
 40
31.7
100
AcDbArc
 50
164.818619
 51
195.182369
  0
ARC
  5
1B8
330
1F
100
AcDbEntity
  8
HEWI
100
AcDbCircle
 10
78.79999999999999
 20
209.145833
 30
0.0
 40
31.7
100
AcDbArc
 50
225.084869
 51
309.234869
  0
CIRCLE
  5
1B9
330
1F
100
AcDbEntity
  8
HEWI
100
AcDbCircle
 10
78.79999999999999
 20
209.145833
 30
0.0
 40
32.9
  0
CIRCLE
  5
1BA
330
1F
100
AcDbEntity
  8
HEWI
100
AcDbCircle
 10
78.79999999999999
 20
209.145833
 30
0.0
 40
33.4
  0
ELLIPSE
  5
1BB
330
1F
100
AcDbEntity
  8
HEWI
100
AcDbEllipse
 10
88.993538
 20
231.952296
 30
0.0
 11
-0.8508554921220834
 21
0.8508554921220765
 31
0.0
210
0.0
220
0.0
230
1.0
 40
0.9972649999999999
 41
2.357564018062731
 42
3.925621289116838
  0
ELLIPSE
  5
1BC
330
1F
100
AcDbEntity
  8
HEWI
100
AcDbEllipse
 10
68.60646199999999
 20
231.952296
 30
0.0
 11
-0.8508554921220834
 21
-0.8508554921220765
 31
0.0
210
0.0
220
0.0
230
1.0
 40
0.9972649999999999
 41
5.499156671652543
 42
7.067213942706646
  0
ELLIPSE
  5
1BD
330
1F
100
AcDbEntity
  8
HEWI
100
AcDbEllipse
 10
70.864953
 20
190.141253
 30
0.0
 11
0.284830384225034
 21
0.8551860431889966
 31
0.0
210
0.0
220
0.0
230
0.9999999999999998
 40
0.998478
 41
5.131955164409002
 42
6.604235657703522
  0
ELLIPSE
  5
1BE
330
1F
100
AcDbEntity
  8
HEWI
100
AcDbEllipse
 10
86.735047
 20
190.141253
 30
0.0
 11
0.284830384225034
 21
-0.8551860431889966
 31
0.0
210
0.0
220
0.0
230
0.9999999999999998
 40
0.998478
 41
2.820542303065857
 42
4.292822796360375
  0
ELLIPSE
  5
1BF
330
1F
100
AcDbEntity
  8
HEWI
100
AcDbEllipse
 10
71.74520699999999
 20
183.26163
 30
0.0
 11
1.000011282099465
 21
0.000081021406632
 31
0.0
210
0.0
220
0.0
230
1.0
 40
0.055029
 41
1.569842306054481
 42
3.123261791757963
  0
ELLIPSE
  5
1C0
330
1F
100
AcDbEntity
  8
HEWI
100
AcDbEllipse
 10
71.768362
 20
188.212534
 30
0.0
 11
-1.000010838895629
 21
0.0000202663614195
 31
0.0
210
0.0
220
0.0
230
1.0
 40
0.017986
 41
0.0179852711309767
 42
0.2522565422210343
  0
ELLIPSE
  5
1C1
330
1F
100
AcDbEntity
  8
HEWI
100
AcDbEllipse
 10
85.85479300000001
 20
183.26163
 30
0.0
 11
-1.000011282099457
 21
0.0000810214066321
 31
0.0
210
0.0
220
0.0
230
1.0
 40
0.055029
 41
3.159923515421623
 42
4.713343001125106
  0
ELLIPSE
  5
1C2
330
1F
100
AcDbEntity
  8
HEWI
100
AcDbEllipse
 10
85.83163799999999
 20
188.212534
 30
0.0
 11
1.000010838895611
 21
0.0000202663614196
 31
0.0
210
0.0
220
0.0
230
1.0
 40
0.017986
 41
6.030928764958548
 42
6.265200036048607
  0
ELLIPSE
  5
1C3
330
1F
100
AcDbEntity
  8
HEWI
100
AcDbEllipse
 10
93.09585799999998
 20
234.128439
 30
0.0
 11
-4.000000000000887
 21
0.0
 31
0.0
210
0.0
220
0.0
230
1.0
 40
0.5773500000000001
 41
5.549659986196874
 42
6.230826228809736
  0
ELLIPSE
  5
1C4
330
1F
100
AcDbEntity
  8
HEWI
100
AcDbEllipse
 10
93.09585799999998
 20
235.53422
 30
0.0
 11
3.999999992466285
 21
0.000000000266454
 31
0.0
210
0.0
220
0.0
230
1.0
 40
0.052408
 41
2.285720254102308
 42
2.40806733205151
  0
ELLIPSE
  5
1C5
330
1F
100
AcDbEntity
  8
HEWI
100
AcDbEllipse
 10
64.504142
 20
234.128439
 30
0.0
 11
-4.000000000002938
 21
0.0
 31
0.0
210
0.0
220
0.0
230
1.0
 40
0.5773500000000001
 41
3.193951731959651
 42
3.875117974572308
  0
ELLIPSE
  5
1C6
330
1F
100
AcDbEntity
  8
HEWI
100
AcDbEllipse
 10
64.504142
 20
235.53422
 30
0.0
 11
-3.999999991015149
 21
0.0000000003179192
 31
0.0
210
0.0
220
0.0
230
1.0
 40
0.052408
 41
3.875117975234336
 42
3.997465053213486
  0
ELLIPSE
  5
1C7
330
1F
100
AcDbEntity
  8
HEWI
100
AcDbEllipse
 10
78.79999599999999
 20
209.145832
 30
0.0
 11
-7.595523443739671
 21
27.98763846868418
 31
0.0
210
0.0
220
0.0
230
0.9999999999999998
 40
1.0
 41
1.567590169293713
 42
1.584485336843129
  0
ELLIPSE
  5
1C8
330
1F
100
AcDbEntity
  8
HEWI
100
AcDbEllipse
 10
78.803566
 20
209.146788
 30
0.0
 11
30.23928463037351
 21
8.093626853922774
 31
0.0
210
0.0
220
0.0
230
0.9999999999999998
 40
0.9999409999999999
 41
3.141869268102742
 42
3.143266768624101
  0
ELLIPSE
  5
1C9
330
1F
100
AcDbEntity
  8
HEWI
100
AcDbEllipse
 10
78.48896899999999
 20
208.832318
 30
0.0
 11
-22.06298916243772
 21
21.88816238606286
 31
0.0
210
0.0
220
0.0
230
0.9999999999999998
 40
0.9929199999999999
 41
1.570237501175285
 42
1.571637658188925
  0
ELLIPSE
  5
1CA
330
1F
100
AcDbEntity
  8
HEWI
100
AcDbEllipse
 10
78.800001
 20
209.145832
 30
0.0
 11
-20.50609802140242
 21
20.50609802140242
 31
0.0
210
0.0
220
0.0
230
1.0
 40
1.0
 41
0.0
 42
0.0168951658153746
  0
ELLIPSE
  5
1CB
330
1F
100
AcDbEntity
  8
HEWI
100
AcDbEllipse
 10
78.812613
 20
209.133248
 30
0.0
 11
-22.16938629975405
 21
22.12067055272557
 31
0.0
210
0.0
220
0.0
230
1.0
 40
0.9997149999999999
 41
6.282085695431433
 42
6.28348288073253
  0
ELLIPSE
  5
1CC
330
1F
100
AcDbEntity
  8
HEWI
100
AcDbEllipse
 10
52.533336
 20
177.427827
 30
0.0
 11
8.632266474495574
 21
12.65801405057385
 31
0.0
210
0.0
220
0.0
230
1.0
 40
0.157423
 41
0.6821185003701622
 42
0.6942669885301305
  0
ELLIPSE
  5
1CD
330
1F
100
AcDbEntity
  8
HEWI
100
AcDbEllipse
 10
78.562318
 20
209.209706
 30
0.0
 11
-30.46522636262301
 21
8.187022658661494
 31
0.0
210
0.0
220
0.0
230
1.0
 40
0.996091
 41
3.140929169291133
 42
3.142321289761732
  0
ELLIPSE
  5
1CE
330
1F
100
AcDbEntity
  8
HEWI
100
AcDbEllipse
 10
78.800004
 20
209.145832
 30
0.0
 11
7.701016755827901
 21
27.95879510873483
 31
0.0
210
0.0
220
0.0
230
1.0
 40
1.0
 41
4.702471191825333
 42
4.719366359379066
  0
ELLIPSE
  5
1CF
330
1F
100
AcDbEntity
  8
HEWI
100
AcDbEllipse
 10
78.872754
 20
209.072539
 30
0.0
 11
22.17759252001384
 21
22.01390395944991
 31
0.0
210
0.0
220
0.0
230
1.0
 40
0.9983489999999999
 41
4.711278097127153
 42
4.712670640549343
  0
ELLIPSE
  5
1D0
330
1F
100
AcDbEntity
  8
HEWI
100
AcDbEllipse
 10
78.799999
 20
209.145834
 30
0.0
 11
7.797618011452307
 21
27.93200876140177
 31
0.0
210
0.0
220
0.0
230
0.9999999999999998
 40
1.0
 41
1.564335307956153
 42
1.581230474735481
  0
ELLIPSE
  5
1D1
330
1F
100
AcDbEntity
  8
HEWI
100
AcDbEllipse
 10
79.05798199999999
 20
209.07651
 30
0.0
 11
-30.48565672270223
 21
8.191987183593516
 31
0.0
210
0.0
220
0.0
230
1.0
 40
0.9957600000000001
 41
6.28250602633574
 42
6.283897683262258
  0
ELLIPSE
  5
1D2
330
1F
100
AcDbEntity
  8
HEWI
100
AcDbEllipse
 10
105.066578
 20
177.427995
 30
0.0
 11
-8.632173361688897
 21
12.65784346214725
 31
0.0
210
0.0
220
0.0
230
0.9999999999999998
 40
0.157423
 41
5.588914194845686
 42
5.601062779053695
  0
ELLIPSE
  5
1D3
330
1F
100
AcDbEntity
  8
HEWI
100
AcDbEllipse
 10
93.603926
 20
180.838626
 30
0.0
 11
-9.598740857278865
 21
2.856033459048413
 31
0.0
210
0.0
220
0.0
230
1.0
 40
0.9835309999999999
 41
4.209207550014562
 42
4.372494117963117
  0
ELLIPSE
  5
1D4
330
1F
100
AcDbEntity
  8
HEWI
100
AcDbEllipse
 10
78.787941
 20
209.133802
 30
0.0
 11
22.16925229986623
 21
22.11969504818581
 31
0.0
210
0.0
220
0.0
230
1.0
 40
0.9997279999999999
 41
6.282906752588878
 42
6.284303955375981
  0
ELLIPSE
  5
1D5
330
1F
100
AcDbEntity
  8
HEWI
100
AcDbEllipse
 10
78.799999
 20
209.145832
 30
0.0
 11
20.50609794699281
 21
20.50609794699282
 31
0.0
210
0.0
220
0.0
230
1.0
 40
1.0
 41
6.266290141333556
 42
6.283185307179585
  0
ELLIPSE
  5
1D6
330
1F
100
AcDbEntity
  8
HEWI
100
AcDbEllipse
 10
63.996074
 20
180.838626
 30
0.0
 11
-9.598740857278865
 21
-2.856033459048413
 31
0.0
210
0.0
220
0.0
230
1.0
 40
0.9835309999999999
 41
5.052283842806262
 42
5.215570410754816
  0
ELLIPSE
  5
1D7
330
1F
100
AcDbEntity
  8
HEWI
100
AcDbEllipse
 10
78.85058199999999
 20
209.159418
 30
0.0
 11
-8.111796231393267
 21
30.20346761407564
 31
0.0
210
0.0
220
0.0
230
1.0
 40
0.9991629999999998
 41
4.711807789613508
 42
4.713206543303721
  0
ELLIPSE
  5
1D8
330
1F
100
AcDbEntity
  8
HEWI
100
AcDbEllipse
 10
78.800005
 20
209.145835
 30
0.0
 11
-7.629830565785901
 21
27.97830483074394
 31
0.0
210
0.0
220
0.0
230
0.9999999999999998
 40
1.0
 41
4.707956818429577
 42
4.724851986257968
  0
ELLIPSE
  5
1D9
330
1F
100
AcDbEntity
  8
HEWI
100
AcDbEllipse
 10
68.94313199999999
 20
187.700236
 30
0.0
 11
-0.0000000000000023
 21
1.999999999993267
 31
0.0
210
0.0
220
0.0
230
1.0
 40
0.017455
 41
4.71238898038469
 42
5.759586531584282
  0
ELLIPSE
  5
1DA
330
1F
100
AcDbEntity
  8
HEWI
100
AcDbEllipse
 10
68.939014
 20
188.991133
 30
0.0
 11
-0.0000000000000012
 21
0.9999999999924499
 31
0.0
210
0.0
220
0.0
230
1.0
 40
0.017455
 41
5.75958653157921
 42
6.80678408277986
  0
ELLIPSE
  5
1DB
330
1F
100
AcDbEntity
  8
HEWI
100
AcDbEllipse
 10
68.876178
 20
189.222164
 30
0.0
 11
-0.0000000000000012
 21
0.9999999998452333
 31
0.0
210
0.0
220
0.0
230
1.0
 40
0.017455
 41
3.159041683506286
 42
3.665191429229767
  0
ELLIPSE
  5
1DC
330
1F
100
AcDbEntity
  8
HEWI
100
AcDbEllipse
 10
68.94313199999999
 20
185.358547
 30
0.0
 11
-0.0000000000000023
 21
1.999999999998698
 31
0.0
210
0.0
220
0.0
230
1.0
 40
0.017455
 41
3.17649710789621
 42
4.71238898038469
  0
ELLIPSE
  5
1DD
330
1F
100
AcDbEntity
  8
HEWI
100
AcDbEllipse
 10
70.69177899999999
 20
187.700236
 30
0.0
 11
-0.0000000000000023
 21
1.99999999999327
 31
0.0
210
0.0
220
0.0
230
1.0
 40
0.017455
 41
0.523598775595203
 42
1.570796326794897
  0
ELLIPSE
  5
1DE
330
1F
100
AcDbEntity
  8
HEWI
100
AcDbEllipse
 10
70.69177899999999
 20
185.358547
 30
0.0
 11
-0.0000000000000023
 21
2.000000000001445
 31
0.0
210
0.0
220
0.0
230
1.0
 40
0.017455
 41
1.570796326794897
 42
3.106688199282245
  0
ELLIPSE
  5
1DF
330
1F
100
AcDbEntity
  8
HEWI
100
AcDbEllipse
 10
70.758732
 20
189.222164
 30
0.0
 11
-0.0000000000000012
 21
1.000000000033278
 31
0.0
210
0.0
220
0.0
230
1.0
 40
0.017455
 41
2.617993878000437
 42
3.124143623671053
  0
ELLIPSE
  5
1E0
330
1F
100
AcDbEntity
  8
HEWI
100
AcDbEllipse
 10
70.69589599999999
 20
188.991133
 30
0.0
 11
-0.0000000000000012
 21
0.9999999999996688
 31
0.0
210
0.0
220
0.0
230
1.0
 40
0.017455
 41
5.759586531581116
 42
6.806784082777896
  0
ELLIPSE
  5
1E1
330
1F
100
AcDbEntity
  8
HEWI
100
AcDbEllipse
 10
88.723822
 20
189.222164
 30
0.0
 11
-0.0000000000000012
 21
0.9999999998452302
 31
0.0
210
0.0
220
0.0
230
1.0
 40
0.017455
 41
2.617993877949718
 42
3.124143623673166
  0
ELLIPSE
  5
1E2
330
1F
100
AcDbEntity
  8
HEWI
100
AcDbEllipse
 10
88.66098599999999
 20
188.991133
 30
0.0
 11
-0.0000000000000012
 21
0.9999999999998919
 31
0.0
210
0.0
220
0.0
230
1.0
 40
0.017455
 41
5.759586531581237
 42
6.806784082777889
  0
ELLIPSE
  5
1E3
330
1F
100
AcDbEntity
  8
HEWI
100
AcDbEllipse
 10
88.656868
 20
187.700236
 30
0.0
 11
-0.0000000000000023
 21
1.999999999993561
 31
0.0
210
0.0
220
0.0
230
1.0
 40
0.017455
 41
0.523598775595338
 42
1.570796326794897
  0
ELLIPSE
  5
1E4
330
1F
100
AcDbEntity
  8
HEWI
100
AcDbEllipse
 10
88.656868
 20
185.358547
 30
0.0
 11
-0.0000000000000023
 21
1.999999999999266
 31
0.0
210
0.0
220
0.0
230
1.0
 40
0.017455
 41
1.570796326794897
 42
3.106688199304826
  0
ELLIPSE
  5
1E5
330
1F
100
AcDbEntity
  8
HEWI
100
AcDbEllipse
 10
86.90410400000001
 20
188.991133
 30
0.0
 11
-0.0000000000000012
 21
0.9999999999996701
 31
0.0
210
0.0
220
0.0
230
1.0
 40
0.017455
 41
5.759586531581175
 42
6.806784082777955
  0
ELLIPSE
  5
1E6
330
1F
100
AcDbEntity
  8
HEWI
100
AcDbEllipse
 10
86.84126799999999
 20
189.222164
 30
0.0
 11
-0.0000000000000012
 21
1.000000000009654
 31
0.0
210
0.0
220
0.0
230
1.0
 40
0.017455
 41
3.159041683508133
 42
3.665191429185419
  0
ELLIPSE
  5
1E7
330
1F
100
AcDbEntity
  8
HEWI
100
AcDbEllipse
 10
86.908221
 20
185.358547
 30
0.0
 11
-0.0000000000000023
 21
1.9999999999992
 31
0.0
210
0.0
220
0.0
230
1.0
 40
0.017455
 41
3.176497107874598
 42
4.71238898038469
  0
ELLIPSE
  5
1E8
330
1F
100
AcDbEntity
  8
HEWI
100
AcDbEllipse
 10
86.908221
 20
187.700236
 30
0.0
 11
-0.0000000000000023
 21
1.999999999993561
 31
0.0
210
0.0
220
0.0
230
1.0
 40
0.017455
 41
4.71238898038469
 42
5.759586531584147
  0
ELLIPSE
  5
1E9
330
1F
100
AcDbEntity
  8
HEWI
100
AcDbEllipse
 10
78.79999999999999
 20
206.060208
 30
0.0
 11
-0.0000000000000376
 21
32.08467195536588
 31
0.0
210
0.0
220
0.0
230
1.0
 40
0.9958719999999999
 41
6.008178848822102
 42
6.558191765537067
  0
ELLIPSE
  5
1EA
330
1F
100
AcDbEntity
  8
HEWI
100
AcDbEllipse
 10
88.89121899999999
 20
232.511859
 30
0.0
 11
-0.0000000000000006
 21
0.5000000000001036
 31
0.0
210
0.0
220
0.0
230
1.0
 40
0.052408
 41
1.570796326794897
 42
3.665191429188023
  0
ELLIPSE
  5
1EB
330
1F
100
AcDbEntity
  8
HEWI
100
AcDbEllipse
 10
68.708781
 20
232.511859
 30
0.0
 11
-0.0000000000000006
 21
0.5000000000001036
 31
0.0
210
0.0
220
0.0
230
1.0
 40
0.052408
 41
2.617993877991529
 42
4.71238898038469
  0
ELLIPSE
  5
1EC
330
1F
100
AcDbEntity
  8
HEWI
100
AcDbEllipse
 10
230.781315
 20
109.916374
 30
0.0
 11
-16.70000000000003
 21
-28.92524848640022
 31
0.0
210
0.0
220
0.0
230
1.0
 40
0.5773500000000001
 41
3.141584016298581
 42
3.242213143344896
  0
ELLIPSE
  5
1ED
330
1F
100
AcDbEntity
  8
HEWI
100
AcDbEllipse
 10
230.781315
 20
109.916374
 30
0.0
 11
-16.70000000000003
 21
-28.92524848640022
 31
0.0
210
0.0
220
0.0
230
1.0
 40
0.5773500000000001
 41
3.242213143344891
 42
6.283185307179585
  0
ELLIPSE
  5
1EE
330
1F
100
AcDbEntity
  8
HEWI
100
AcDbEllipse
 10
239.266596
 20
105.017395
 30
0.0
 11
16.1
 21
27.88601800185893
 31
0.0
210
0.0
220
0.0
230
1.0
 40
0.5773500000000001
 41
0.0
 42
6.283185307179585
  0
ELLIPSE
  5
1EF
330
1F
100
AcDbEntity
  8
HEWI
100
AcDbEllipse
 10
238.418068
 20
105.507293
 30
0.0
 11
-16.70000000000003
 21
-28.92524848640022
 31
0.0
210
0.0
220
0.0
230
1.0
 40
0.5773500000000001
 41
3.143547506015866
 42
3.242213143344901
  0
ELLIPSE
  5
1F0
330
1F
100
AcDbEntity
  8
HEWI
100
AcDbEllipse
 10
238.418068
 20
105.507293
 30
0.0
 11
-16.70000000000003
 21
-28.92524848640022
 31
0.0
210
0.0
220
0.0
230
1.0
 40
0.5773500000000001
 41
3.141584016298581
 42
3.143547506015859
  0
ELLIPSE
  5
1F1
330
1F
100
AcDbEntity
  8
1
  6
Continuous
 62
    18
370
    18
100
AcDbEllipse
 10
238.418068
 20
105.507293
 30
0.0
 11
-16.70000000000003
 21
-28.92524848640022
 31
0.0
210
0.0
220
0.0
230
1.0
 40
0.5773500000000001
 41
3.242213143344891
 42
6.283185307179585
  0
ELLIPSE
  5
1F2
330
1F
100
AcDbEntity
  8
HEWI
100
AcDbEllipse
 10
238.418068
 20
105.507293
 30
0.0
 11
-16.70000000000003
 21
-28.92524848640022
 31
0.0
210
0.0
220
0.0
230
1.0
 40
0.5773500000000001
 41
0.0
 42
0.0008749447235995
  0
SPLINE
  5
1F3
330
1F
100
AcDbEntity
  8
HEWI
100
AcDbSpline
210
0.0
220
0.0
230
1.0
 70
     8
 71
     3
 72
    30
 73
    26
 74
     0
 42
0.000000001
 43
0.0000000001
 40
0.0
 40
0.0
 40
0.0
 40
0.0
 40
0.0625000000000017
 40
0.0625000000000017
 40
0.1250000000000033
 40
0.1250000000000033
 40
0.2500000000000038
 40
0.2500000000000038
 40
0.3125000000000052
 40
0.3125000000000052
 40
0.3750000000000065
 40
0.4375000000000079
 40
0.4375000000000079
 40
0.5000000000000093
 40
0.5000000000000093
 40
0.6249999999999988
 40
0.6249999999999988
 40
0.6874999999999976
 40
0.6874999999999976
 40
0.7499999999999963
 40
0.8124999999999948
 40
0.8124999999999948
 40
0.8749999999999937
 40
0.8749999999999937
 40
1.0
 40
1.0
 40
1.0
 40
1.0
 10
99.20138970837523
 20
188.5355616716836
 30
0.0
 10
99.20199741878496
 20
188.5361632230411
 30
0.0
 10
99.20201092935897
 20
188.5372927676739
 30
0.0
 10
99.20082053263573
 20
188.540632159133
 30
0.0
 10
99.19960461443164
 20
188.5428561382396
 30
0.0
 10
99.19418643574456
 20
188.5510180083802
 30
0.0
 10
99.18823503856735
 20
188.5584523033376
 30
0.0
 10
99.17579902547585
 20
188.5725419825652
 30
0.0
 10
99.1710499850952
 20
188.5777470867701
 30
0.0
 10
99.16038381414537
 20
188.5891079030855
 30
0.0
 10
99.14864009821179
 20
188.6013243499683
 30
0.0
 10
99.13475478713516
 20
188.6152142734256
 30
0.0
 10
99.11977302804908
 20
188.6299460722107
 30
0.0
 10
99.11182200786374
 20
188.637645993176
 30
0.0
 10
99.08669047087757
 20
188.6616354290378
 30
0.0
 10
99.06821503937514
 20
188.6788343440106
 30
0.0
 10
99.0378377293193
 20
188.7064135968845
 30
0.0
 10
99.02722506128704
 20
188.7159398802875
 30
0.0
 10
99.00554767881764
 20
188.7351771691045
 30
0.0
 10
98.98332170579529
 20
188.7546883085946
 30
0.0
 10
98.96000958823721
 20
188.7747217240013
 30
0.0
 10
98.93614542743698
 20
188.7950123525891
 30
0.0
 10
98.92389200058303
 20
188.8053239764814
 30
0.0
 10
98.88657458325013
 20
188.8363966311816
 30
0.0
 10
98.86138596235641
 20
188.8569401645961
 30
0.0
 10
98.83589288903124
 20
188.877311035463
 30
0.0
  0
SPLINE
  5
1F4
330
1F
100
AcDbEntity
  8
HEWI
100
AcDbSpline
210
0.0
220
0.0
230
1.0
 70
     8
 71
     3
 72
    21
 73
    17
 74
     0
 42
0.000000001
 43
0.0000000001
 40
0.0
 40
0.0
 40
0.0
 40
0.0
 40
0.1687373854272743
 40
0.3374747708545485
 40
0.3374747708545485
 40
0.4218434635681841
 40
0.4218434635681841
 40
0.5062121562818199
 40
0.5062121562818199
 40
0.6749495417090956
 40
0.6749495417090956
 40
0.8436869271363709
 40
0.8436869271363709
 40
0.9280556198500056
 40
0.9280556198500056
 40
1.0
 40
1.0
 40
1.0
 40
1.0
 10
90.19518444143393
 20
235.2686159482407
 30
0.0
 10
90.19518444143393
 20
235.2947285172388
 30
0.0
 10
90.1950052870047
 20
235.3463744373218
 30
0.0
 10
90.19448276705416
 20
235.3969102343586
 30
0.0
 10
90.19395978536428
 20
235.434388254063
 30
0.0
 10
90.19376352983305
 20
235.4468100316749
 30
0.0
 10
90.19332573230528
 20
235.4715071728126
 30
0.0
 10
90.19308532003904
 20
235.4837111819053
 30
0.0
 10
90.19230619738285
 20
235.5195929706191
 30
0.0
 10
90.19170770019519
 20
235.5426702260835
 30
0.0
 10
90.19035182403852
 20
235.5871292048552
 30
0.0
 10
90.18959450591728
 20
235.6085115775088
 30
0.0
 10
90.18833112848131
 20
235.6392255644484
 30
0.0
 10
90.1878889547803
 20
235.6492211344204
 30
0.0
 10
90.18704357264629
 20
235.6669953079108
 30
0.0
 10
90.18664294143269
 20
235.6749157559935
 30
0.0
 10
90.186230794303
 20
235.6825764206138
 30
0.0
  0
SPLINE
  5
1F5
330
1F
100
AcDbEntity
  8
HEWI
100
AcDbSpline
210
0.0
220
0.0
230
1.0
 70
     8
 71
     3
 72
    30
 73
    26
 74
     0
 42
0.000000001
 43
0.0000000001
 40
0.0
 40
0.0
 40
0.0
 40
0.0
 40
0.0624999999999959
 40
0.0624999999999959
 40
0.1249999999999918
 40
0.1249999999999918
 40
0.2499999999999848
 40
0.2499999999999848
 40
0.312499999999986
 40
0.312499999999986
 40
0.3749999999999872
 40
0.4374999999999883
 40
0.4374999999999883
 40
0.4999999999999896
 40
0.4999999999999896
 40
0.624999999999992
 40
0.624999999999992
 40
0.6874999999999929
 40
0.6874999999999929
 40
0.7499999999999942
 40
0.8124999999999952
 40
0.8124999999999952
 40
0.8749999999999962
 40
0.8749999999999962
 40
1.0
 40
1.0
 40
1.0
 40
1.0
 10
58.76410711096886
 20
188.877311035463
 30
0.0
 10
58.75137449425675
 20
188.8671367231103
 30
0.0
 10
58.73867679619421
 20
188.8568861767273
 30
0.0
 10
58.71335213281525
 20
188.836229825789
 30
0.0
 10
58.70067632763792
 20
188.8257823855423
 30
0.0
 10
58.66355852723018
 20
188.7948717371024
 30
0.0
 10
58.63978528940603
 20
188.7746486999708
 30
0.0
 10
58.60554719308622
 20
188.7449170770346
 30
0.0
 10
58.59435962144746
 20
188.7350960111731
 30
0.0
 10
58.57252993664482
 20
188.7157213322345
 30
0.0
 10
58.55149316819622
 20
188.6968344029908
 30
0.0
 10
58.53200562637115
 20
188.6789252857765
 30
0.0
 10
58.51329650150341
 20
188.661521277044
 30
0.0
 10
58.50441073551582
 20
188.6531453668875
 30
0.0
 10
58.47932022557511
 20
188.629181708482
 30
0.0
 10
58.46457181437411
 20
188.61465807635
 30
0.0
 10
58.44540061494232
 20
188.5951256922221
 30
0.0
 10
58.43948498325528
 20
188.5889698619232
 30
0.0
 10
58.42889217523268
 20
188.5776837433838
 30
0.0
 10
58.41947871149193
 20
188.5673652422008
 30
0.0
 10
58.41236020206849
 20
188.5589530565242
 30
0.0
 10
58.40639198816553
 20
188.5515060875325
 30
0.0
 10
58.40397960775357
 20
188.5482600700816
 30
0.0
 10
58.3985462112988
 20
188.5400610206673
 30
0.0
 10
58.39739431221018
 20
188.5367653273327
 30
0.0
 10
58.39861029162497
 20
188.5355616716835
 30
0.0
  0
SPLINE
  5
1F6
330
1F
100
AcDbEntity
  8
HEWI
100
AcDbSpline
210
0.0
220
0.0
230
1.0
 70
     8
 71
     3
 72
    18
 73
    14
 74
     0
 42
0.000000001
 43
0.0000000001
 40
0.0
 40
0.0
 40
0.0
 40
0.0
 40
0.1586752566307338
 40
0.1586752566307338
 40
0.3269402053045869
 40
0.3269402053045869
 40
0.4952051539784402
 40
0.4952051539784402
 40
0.6634701026522936
 40
0.6634701026522936
 40
0.8317350513261466
 40
0.8317350513261466
 40
1.0
 40
1.0
 40
1.0
 40
1.0
 10
67.4138162638244
 20
235.6834491527476
 30
0.0
 10
67.41289583045021
 20
235.6664222931686
 30
0.0
 10
67.41204463756043
 20
235.6483365433077
 30
0.0
 10
67.41042521863825
 20
235.6090164977074
 30
0.0
 10
67.40966516522211
 20
235.5876572186723
 30
0.0
 10
67.40829204964845
 20
235.5426907327228
 30
0.0
 10
67.4076912536171
 20
235.5194722990509
 30
0.0
 10
67.40665866123456
 20
235.4719237472464
 30
0.0
 10
67.40622553139293
 20
235.4475480287991
 30
0.0
 10
67.40552517778893
 20
235.3975967920459
 30
0.0
 10
67.40525833939095
 20
235.3719392007357
 30
0.0
 10
67.40490472192978
 20
235.3205370087436
 30
0.0
 10
67.40481555856613
 20
235.2946639493655
 30
0.0
 10
67.40481555856613
 20
235.2686159482407
 30
0.0
  0
SPLINE
  5
1F7
330
1F
100
AcDbEntity
  8
HEWI
100
AcDbSpline
210
0.0
220
0.0
230
1.0
 70
    24
 71
     1
 72
     4
 73
     2
 74
     0
 42
0.000000001
 43
0.0000000001
 40
0.0
 40
0.0
 40
1.0
 40
1.0
 10
71.75573273433631
 20
189.1457904417054
 30
0.0
 10
71.7461561144776
 20
183.3166596707099
 30
0.0
  0
SPLINE
  5
1F8
330
1F
100
AcDbEntity
  8
HEWI
100
AcDbSpline
210
0.0
220
0.0
230
1.0
 70
     8
 71
     3
 72
    42
 73
    38
 74
     0
 42
0.000000001
 43
0.0000000001
 40
0.0
 40
0.0
 40
0.0
 40
0.0
 40
0.0312499999999937
 40
0.0312499999999937
 40
0.0624999999999874
 40
0.0624999999999874
 40
0.1249999999999792
 40
0.1249999999999792
 40
0.1874999999999709
 40
0.1874999999999709
 40
0.2187499999999692
 40
0.2187499999999692
 40
0.2499999999999675
 40
0.2499999999999675
 40
0.3749999999999553
 40
0.3749999999999553
 40
0.4062499999999556
 40
0.4062499999999556
 40
0.437499999999956
 40
0.4999999999999596
 40
0.4999999999999596
 40
0.5624999999999634
 40
0.5624999999999634
 40
0.5937499999999653
 40
0.5937499999999653
 40
0.6249999999999672
 40
0.6874999999999727
 40
0.6874999999999727
 40
0.7499999999999782
 40
0.7499999999999782
 40
0.8749999999999891
 40
0.8749999999999891
 40
0.906249999999992
 40
0.906249999999992
 40
0.9374999999999944
 40
0.9374999999999944
 40
1.0
 40
1.0
 40
1.0
 40
1.0
 10
71.75573273433631
 20
189.1458333333333
 30
0.0
 10
71.75564246947544
 20
189.1265338894083
 30
0.0
 10
71.75496782682994
 20
189.1071999368875
 30
0.0
 10
71.75242960600212
 20
189.0684634321391
 30
0.0
 10
71.75055845315582
 20
189.0490306851826
 30
0.0
 10
71.74322564007775
 20
188.991357798592
 30
0.0
 10
71.73604293746588
 20
188.9535114063005
 30
0.0
 10
71.71722662446502
 20
188.8790653718992
 30
0.0
 10
71.70559184401247
 20
188.8424658753291
 30
0.0
 10
71.68479528952736
 20
188.7885991158188
 30
0.0
 10
71.67730470124635
 20
188.770816273366
 30
0.0
 10
71.66119452802213
 20
188.735620610433
 30
0.0
 10
71.65260649540981
 20
188.7182846049454
 30
0.0
 10
71.60744472658452
 20
188.6336455134282
 30
0.0
 10
71.56392150215663
 20
188.5717089847165
 30
0.0
 10
71.50162346116991
 20
188.5020244720364
 30
0.0
 10
71.48875055109399
 20
188.4884606119219
 30
0.0
 10
71.46231319334306
 20
188.4622076114531
 30
0.0
 10
71.4219498198577
 20
188.4244619462375
 30
0.0
 10
71.37978843971637
 20
188.3914785840944
 30
0.0
 10
71.3225215710048
 20
188.3515302733986
 30
0.0
 10
71.29336068534645
 20
188.3335718340827
 30
0.0
 10
71.24924182883074
 20
188.3095229380823
 30
0.0
 10
71.23442122680818
 20
188.3019653135331
 30
0.0
 10
71.20509578842272
 20
188.2879592576489
 30
0.0
 10
71.16151642190605
 20
188.2685674701596
 30
0.0
 10
71.11945008627654
 20
188.2536335143325
 30
0.0
 10
71.06519515816185
 20
188.2370485108744
 30
0.0
 10
71.03896262251872
 20
188.2304163717289
 30
0.0
 10
70.96388719782075
 20
188.2146479509521
 30
0.0
 10
70.92041413969281
 20
188.2099054496111
 30
0.0
 10
70.8752750009593
 20
188.2074094367808
 30
0.0
 10
70.86670906066817
 20
188.2070871195728
 30
0.0
 10
70.85053489988244
 20
188.2067208276118
 30
0.0
 10
70.84292232339712
 20
188.2066773858201
 30
0.0
 10
70.8217509055377
 20
188.2068566603642
 30
0.0
 10
70.80978310634158
 20
188.2073809632506
 30
0.0
 10
70.80000000000005
 20
188.2080638617043
 30
0.0
  0
SPLINE
  5
1F9
330
1F
100
AcDbEntity
  8
HEWI
100
AcDbSpline
210
0.0
220
0.0
230
1.0
 70
     8
 71
     3
 72
    42
 73
    38
 74
     0
 42
0.000000001
 43
0.0000000001
 40
0.0
 40
0.0
 40
0.0
 40
0.0
 40
0.1249999999999941
 40
0.1249999999999941
 40
0.1874999999999906
 40
0.1874999999999906
 40
0.249999999999987
 40
0.249999999999987
 40
0.3124999999999825
 40
0.3124999999999825
 40
0.3437499999999818
 40
0.3437499999999818
 40
0.3749999999999811
 40
0.3749999999999811
 40
0.4999999999999835
 40
0.4999999999999835
 40
0.5312499999999822
 40
0.5312499999999822
 40
0.5624999999999809
 40
0.5624999999999809
 40
0.6249999999999792
 40
0.6249999999999792
 40
0.6874999999999777
 40
0.6874999999999777
 40
0.7187499999999771
 40
0.7187499999999771
 40
0.7499999999999766
 40
0.7499999999999766
 40
0.8124999999999801
 40
0.8124999999999801
 40
0.8749999999999836
 40
0.8749999999999836
 40
0.9062499999999877
 40
0.9062499999999877
 40
0.9374999999999918
 40
0.9374999999999918
 40
1.0
 40
1.0
 40
1.0
 40
1.0
 10
86.80000000000005
 20
188.2080638617043
 30
0.0
 10
86.78041586936465
 20
188.2066968140549
 30
0.0
 10
86.75234065326364
 20
188.2059143669703
 30
0.0
 10
86.69844029941669
 20
188.2088473614666
 30
0.0
 10
86.67846359929191
 20
188.2105301294681
 30
0.0
 10
86.63472633494162
 20
188.2160624240505
 30
0.0
 10
86.61134611634619
 20
188.2198677658615
 30
0.0
 10
86.5619837764145
 20
188.2302000692554
 30
0.0
 10
86.53600022085598
 20
188.236725973986
 30
0.0
 10
86.49536618997734
 20
188.2490843721325
 30
0.0
 10
86.48154497377957
 20
188.2536326824046
 30
0.0
 10
86.45339943689743
 20
188.2636842754606
 30
0.0
 10
86.43903859537736
 20
188.2692028093702
 30
0.0
 10
86.36652024026401
 20
188.2992729579529
 30
0.0
 10
86.30757882020452
 20
188.3306654142881
 30
0.0
 10
86.23563491888141
 20
188.3806880603658
 30
0.0
 10
86.22133249687799
 20
188.3912323218556
 30
0.0
 10
86.19297467445887
 20
188.4134452649012
 30
0.0
 10
86.17888475821253
 20
188.4251483629198
 30
0.0
 10
86.13765949552172
 20
188.4615019557421
 30
0.0
 10
86.11140304084232
 20
188.4875107294775
 30
0.0
 10
86.06170465709395
 20
188.5429885985126
 30
0.0
 10
86.03826122751092
 20
188.5724571109611
 30
0.0
 10
86.00549005045788
 20
188.6192367000221
 30
0.0
 10
85.99494010510975
 20
188.6353021692109
 30
0.0
 10
85.97481308618419
 20
188.6680975520296
 30
0.0
 10
85.96527015111176
 20
188.6847654064994
 30
0.0
 10
85.93820489092875
 20
188.7355377775995
 30
0.0
 10
85.92224308240927
 20
188.7704083131275
 30
0.0
 10
85.89455717293079
 20
188.8420404334344
 30
0.0
 10
85.88283180800994
 20
188.8788017440527
 30
0.0
 10
85.86856003386467
 20
188.9353162672217
 30
0.0
 10
85.86436044248145
 20
188.9543899885285
 30
0.0
 10
85.85718150895196
 20
188.9924913542721
 30
0.0
 10
85.85418515642714
 20
189.0115806320846
 30
0.0
 10
85.84694608104824
 20
189.0689505458779
 30
0.0
 10
85.84444734199809
 20
189.1073313838021
 30
0.0
 10
85.84426726566375
 20
189.1458333333334
 30
0.0
  0
SPLINE
  5
1FA
330
1F
100
AcDbEntity
  8
HEWI
100
AcDbSpline
210
0.0
220
0.0
230
1.0
 70
    24
 71
     1
 72
     4
 73
     2
 74
     0
 42
0.000000001
 43
0.0000000001
 40
0.0
 40
0.0
 40
1.0
 40
1.0
 10
85.85384388552249
 20
183.3166596707099
 30
0.0
 10
85.84426726566375
 20
189.1457904417055
 30
0.0
  0
SPLINE
  5
1FB
330
1F
100
AcDbEntity
  8
HEWI
100
AcDbSpline
210
0.0
220
0.0
230
1.0
 70
     8
 71
     3
 72
    23
 73
    19
 74
     0
 42
0.000000001
 43
0.0000000001
 40
0.0
 40
0.0
 40
0.0
 40
0.0
 40
0.1249999999999996
 40
0.2499999999999993
 40
0.3749999999999989
 40
0.3749999999999989
 40
0.4999999999999986
 40
0.4999999999999986
 40
0.5312499999999984
 40
0.5312499999999984
 40
0.5624999999999982
 40
0.6249999999999992
 40
0.6249999999999992
 40
0.7499999999999996
 40
0.7499999999999996
 40
0.8749999999999998
 40
0.8749999999999998
 40
1.0
 40
1.0
 40
1.0
 40
1.0
 10
93.09585826685957
 20
234.3773302452065
 30
0.0
 10
92.98057773523813
 20
234.4426467877305
 30
0.0
 10
92.75056709596112
 20
234.5708809434759
 30
0.0
 10
92.40728155225289
 20
234.756221628432
 30
0.0
 10
92.17968900071957
 20
234.8751977926609
 30
0.0
 10
91.95281646315924
 20
234.9919102565984
 30
0.0
 10
91.8397398957536
 20
235.049134692045
 30
0.0
 10
91.6989230901658
 20
235.1192576932115
 30
0.0
 10
91.67075390549429
 20
235.1332277937208
 30
0.0
 10
91.61470605563243
 20
235.1609113774852
 30
0.0
 10
91.53102637577077
 20
235.202074006922
 30
0.0
 10
91.44852635093347
 20
235.2421633000232
 30
0.0
 10
91.28511693531292
 20
235.3209452038489
 30
0.0
 10
91.17829483544813
 20
235.3716059684725
 30
0.0
 10
90.96905789867891
 20
235.4693468374592
 30
0.0
 10
90.86664240300613
 20
235.5164269912454
 30
0.0
 10
90.66650464841185
 20
235.6070906009304
 30
0.0
 10
90.56878110589035
 20
235.650674370026
 30
0.0
 10
90.47361837341671
 20
235.6925211506832
 30
0.0
  0
SPLINE
  5
1FC
330
1F
100
AcDbEntity
  8
HEWI
100
AcDbSpline
210
0.0
220
0.0
230
1.0
 70
     8
 71
     3
 72
    23
 73
    19
 74
     0
 42
0.000000001
 43
0.0000000001
 40
0.0
 40
0.0
 40
0.0
 40
0.0
 40
0.1250000000000018
 40
0.1250000000000018
 40
0.2500000000000036
 40
0.2500000000000036
 40
0.3750000000000053
 40
0.3750000000000053
 40
0.4375000000000063
 40
0.4687500000000061
 40
0.4687500000000061
 40
0.5000000000000058
 40
0.5000000000000058
 40
0.6250000000000044
 40
0.6250000000000044
 40
0.7500000000000029
 40
0.8750000000000014
 40
1.0
 40
1.0
 40
1.0
 40
1.0
 10
67.12638162658348
 20
235.6925211506832
 30
0.0
 10
67.03121946947368
 20
235.650674623036
 30
0.0
 10
66.93349190078631
 20
235.6070890946065
 30
0.0
 10
66.7333361184871
 20
235.516417204435
 30
0.0
 10
66.63090662562324
 20
235.4693305317158
 30
0.0
 10
66.421630945131
 20
235.3715710321858
 30
0.0
 10
66.31478410232144
 20
235.3208981582822
 30
0.0
 10
66.15132883363223
 20
235.2420931491686
 30
0.0
 10
66.06880369562651
 20
235.2019910658359
 30
0.0
 10
65.98509547143358
 20
235.1608136246537
 30
0.0
 10
65.92902781065308
 20
235.1331196967672
 30
0.0
 10
65.90086525642828
 20
235.1191525697005
 30
0.0
 10
65.76009006632677
 20
235.0490489158553
 30
0.0
 10
65.64704260770175
 20
234.9918384011982
 30
0.0
 10
65.42022012823906
 20
234.8751503999585
 30
0.0
 10
65.19266963019882
 20
234.7561953095593
 30
0.0
 10
64.84942264011166
 20
234.5708750634919
 30
0.0
 10
64.61942157810421
 20
234.4426463986786
 30
0.0
 10
64.50414173314053
 20
234.3773302452065
 30
0.0
  0
SPLINE
  5
1FD
330
1F
100
AcDbEntity
  8
HEWI
100
AcDbSpline
210
0.0
220
0.0
230
1.0
 70
     8
 71
     3
 72
     8
 73
     4
 74
     0
 42
0.000000001
 43
0.0000000001
 40
0.0
 40
0.0
 40
0.0
 40
0.0
 40
1.0
 40
1.0
 40
1.0
 40
1.0
 10
47.47837863422563
 20
200.5216903814099
 30
0.0
 10
47.84476120370461
 20
200.6819525531832
 30
0.0
 10
48.21125511018482
 20
200.8422386363851
 30
0.0
 10
48.57787302991343
 20
201.0025513534457
 30
0.0
  0
SPLINE
  5
1FE
330
1F
100
AcDbEntity
  8
HEWI
100
AcDbSpline
210
0.0
220
0.0
230
1.0
 70
     8
 71
     3
 72
     8
 73
     4
 74
     0
 42
0.000000001
 43
0.0000000001
 40
0.0
 40
0.0
 40
0.0
 40
0.0
 40
1.0
 40
1.0
 40
1.0
 40
1.0
 10
55.79151024078786
 20
186.2363481838584
 30
0.0
 10
56.1087393580528
 20
186.4700630017794
 30
0.0
 10
56.42604757798936
 20
186.703865261686
 30
0.0
 10
56.74344354035711
 20
186.9377645937381
 30
0.0
  0
SPLINE
  5
1FF
330
1F
100
AcDbEntity
  8
HEWI
100
AcDbSpline
210
0.0
220
0.0
230
1.0
 70
     8
 71
     3
 72
     8
 73
     4
 74
     0
 42
0.000000001
 43
0.0000000001
 40
0.0
 40
0.0
 40
0.0
 40
0.0
 40
1.0
 40
1.0
 40
1.0
 40
1.0
 10
55.67918872234884
 20
231.952654039353
 30
0.0
 10
55.99826373267955
 20
231.7176295275463
 30
0.0
 10
56.3174138212651
 20
231.4825219858301
 30
0.0
 10
56.63664745019392
 20
231.2473220558833
 30
0.0
  0
SPLINE
  5
200
330
1F
100
AcDbEntity
  8
HEWI
100
AcDbSpline
210
0.0
220
0.0
230
1.0
 70
     8
 71
     3
 72
     8
 73
     4
 74
     0
 42
0.000000001
 43
0.0000000001
 40
0.0
 40
0.0
 40
0.0
 40
0.0
 40
1.0
 40
1.0
 40
1.0
 40
1.0
 10
56.06166228040226
 20
186.8869943717959
 30
0.0
 10
55.93182360442821
 20
186.7108688387162
 30
0.0
 10
55.80201712053277
 20
186.5347724063461
 30
0.0
 10
55.67224103293411
 20
186.3587034645557
 30
0.0
  0
SPLINE
  5
201
330
1F
100
AcDbEntity
  8
HEWI
100
AcDbSpline
210
0.0
220
0.0
230
1.0
 70
     8
 71
     3
 72
     8
 73
     4
 74
     0
 42
0.000000001
 43
0.0000000001
 40
0.0
 40
0.0
 40
0.0
 40
0.0
 40
1.0
 40
1.0
 40
1.0
 40
1.0
 10
48.19506030176413
 20
200.4380448521238
 30
0.0
 10
47.96880482325274
 20
200.4126501888967
 30
0.0
 10
47.74259671522087
 20
200.3872707978516
 30
0.0
 10
47.51643318441046
 20
200.3619057784457
 30
0.0
  0
SPLINE
  5
202
330
1F
100
AcDbEntity
  8
HEWI
100
AcDbSpline
210
0.0
220
0.0
230
1.0
 70
     8
 71
     3
 72
     8
 73
     4
 74
     0
 42
0.000000001
 43
0.0000000001
 40
0.0
 40
0.0
 40
0.0
 40
0.0
 40
1.0
 40
1.0
 40
1.0
 40
1.0
 10
58.41582025451264
 20
188.5185403431308
 30
0.0
 10
58.26567566780795
 20
188.3868861404498
 30
0.0
 10
58.11966347944102
 20
188.2507676877693
 30
0.0
 10
57.97778646036904
 20
188.1101824966953
 30
0.0
  0
SPLINE
  5
203
330
1F
100
AcDbEntity
  8
HEWI
100
AcDbSpline
210
0.0
220
0.0
230
1.0
 70
     8
 71
     3
 72
     8
 73
     4
 74
     0
 42
0.000000001
 43
0.0000000001
 40
0.0
 40
0.0
 40
0.0
 40
0.0
 40
1.0
 40
1.0
 40
1.0
 40
1.0
 10
58.14767616811615
 20
188.7870141057111
 30
0.0
 10
58.22690500359961
 20
188.7066430611563
 30
0.0
 10
58.31629789136711
 20
188.6168897358513
 30
0.0
 10
58.41582025451264
 20
188.5185403431308
 30
0.0
  0
SPLINE
  5
204
330
1F
100
AcDbEntity
  8
HEWI
100
AcDbSpline
210
0.0
220
0.0
230
1.0
 70
     8
 71
     3
 72
     8
 73
     4
 74
     0
 42
0.000000001
 43
0.0000000001
 40
0.0
 40
0.0
 40
0.0
 40
0.0
 40
1.0
 40
1.0
 40
1.0
 40
1.0
 10
109.0221269700866
 20
201.0025513534457
 30
0.0
 10
109.3907729727012
 20
200.8413518071812
 30
0.0
 10
109.7592934033977
 20
200.6801792702094
 30
0.0
 10
110.1277011690402
 20
200.5190309663897
 30
0.0
  0
SPLINE
  5
205
330
1F
100
AcDbEntity
  8
HEWI
100
AcDbSpline
210
0.0
220
0.0
230
1.0
 70
     8
 71
     3
 72
     8
 73
     4
 74
     0
 42
0.000000001
 43
0.0000000001
 40
0.0
 40
0.0
 40
0.0
 40
0.0
 40
1.0
 40
1.0
 40
1.0
 40
1.0
 10
100.856556459643
 20
186.9377645937381
 30
0.0
 10
101.1761898906575
 20
186.7022163988017
 30
0.0
 10
101.4957343375635
 20
186.4667666496264
 30
0.0
 10
101.8151986243731
 20
186.2314055107704
 30
0.0
  0
SPLINE
  5
206
330
1F
100
AcDbEntity
  8
HEWI
100
AcDbSpline
210
0.0
220
0.0
230
1.0
 70
     8
 71
     3
 72
     8
 73
     4
 74
     0
 42
0.000000001
 43
0.0000000001
 40
0.0
 40
0.0
 40
0.0
 40
0.0
 40
1.0
 40
1.0
 40
1.0
 40
1.0
 10
101.9312601512144
 20
186.3539533581823
 30
0.0
 10
101.8003175512609
 20
186.5316051722124
 30
0.0
 10
101.6693440222875
 20
186.7092849587499
 30
0.0
 10
101.5383377195978
 20
186.8869943717959
 30
0.0
  0
SPLINE
  5
207
330
1F
100
AcDbEntity
  8
HEWI
100
AcDbSpline
210
0.0
220
0.0
230
1.0
 70
     8
 71
     3
 72
     8
 73
     4
 74
     0
 42
0.000000001
 43
0.0000000001
 40
0.0
 40
0.0
 40
0.0
 40
0.0
 40
1.0
 40
1.0
 40
1.0
 40
1.0
 10
110.0776986068181
 20
200.3625639203867
 30
0.0
 10
109.8534903526904
 20
200.3877098095334
 30
0.0
 10
109.6292382897834
 20
200.4128698277127
 30
0.0
 10
109.4049396982359
 20
200.4380448521238
 30
0.0
  0
SPLINE
  5
208
330
1F
100
AcDbEntity
  8
HEWI
100
AcDbSpline
210
0.0
220
0.0
230
1.0
 70
     8
 71
     3
 72
     8
 73
     4
 74
     0
 42
0.000000001
 43
0.0000000001
 40
0.0
 40
0.0
 40
0.0
 40
0.0
 40
1.0
 40
1.0
 40
1.0
 40
1.0
 10
48.57787302991343
 20
217.2891153132211
 30
0.0
 10
48.21060860920654
 20
217.449710728761
 30
0.0
 10
47.84346882096471
 20
217.6102793370755
 30
0.0
 10
47.47644090289466
 20
217.7708238832092
 30
0.0
  0
SPLINE
  5
209
330
1F
100
AcDbEntity
  8
HEWI
100
AcDbSpline
210
0.0
220
0.0
230
1.0
 70
     8
 71
     3
 72
     8
 73
     4
 74
     0
 42
0.000000001
 43
0.0000000001
 40
0.0
 40
0.0
 40
0.0
 40
0.0
 40
1.0
 40
1.0
 40
1.0
 40
1.0
 10
99.62221353963101
 20
188.1101824966953
 30
0.0
 10
99.48033652055906
 20
188.2507676877692
 30
0.0
 10
99.33432433219211
 20
188.3868861404498
 30
0.0
 10
99.18417974548745
 20
188.5185403431308
 30
0.0
  0
SPLINE
  5
20A
330
1F
100
AcDbEntity
  8
HEWI
100
AcDbSpline
210
0.0
220
0.0
230
1.0
 70
     8
 71
     3
 72
     8
 73
     4
 74
     0
 42
0.000000001
 43
0.0000000001
 40
0.0
 40
0.0
 40
0.0
 40
0.0
 40
1.0
 40
1.0
 40
1.0
 40
1.0
 10
99.18417974548745
 20
188.5185403431308
 30
0.0
 10
99.28369357261818
 20
188.6168813004419
 30
0.0
 10
99.37310360728076
 20
188.7066517961761
 30
0.0
 10
99.45232383188393
 20
188.7870141057111
 30
0.0
  0
SPLINE
  5
20B
330
1F
100
AcDbEntity
  8
HEWI
100
AcDbSpline
210
0.0
220
0.0
230
1.0
 70
     8
 71
     3
 72
     8
 73
     4
 74
     0
 42
0.000000001
 43
0.0000000001
 40
0.0
 40
0.0
 40
0.0
 40
0.0
 40
1.0
 40
1.0
 40
1.0
 40
1.0
 10
55.95636411537305
 20
231.2965943526917
 30
0.0
 10
55.82535406737328
 20
231.4742660065414
 30
0.0
 10
55.69437871993318
 20
231.6519062719085
 30
0.0
 10
55.56343608913175
 20
231.829516943354
 30
0.0
  0
SPLINE
  5
20C
330
1F
100
AcDbEntity
  8
HEWI
100
AcDbSpline
210
0.0
220
0.0
230
1.0
 70
     8
 71
     3
 72
     8
 73
     4
 74
     0
 42
0.000000001
 43
0.0000000001
 40
0.0
 40
0.0
 40
0.0
 40
0.0
 40
1.0
 40
1.0
 40
1.0
 40
1.0
 10
47.52624367644197
 20
217.9286606018494
 30
0.0
 10
47.74913838537268
 20
217.9036619248518
 30
0.0
 10
47.97207637046939
 20
217.8786492829496
 30
0.0
 10
48.19506030176413
 20
217.853621814543
 30
0.0
  0
SPLINE
  5
20D
330
1F
100
AcDbEntity
  8
HEWI
100
AcDbSpline
210
0.0
220
0.0
230
1.0
 70
     8
 71
     3
 72
     8
 73
     4
 74
     0
 42
0.000000001
 43
0.0000000001
 40
0.0
 40
0.0
 40
0.0
 40
0.0
 40
1.0
 40
1.0
 40
1.0
 40
1.0
 10
102.033374334237
 20
231.8251906024158
 30
0.0
 10
101.9034943517603
 20
231.6490215460345
 30
0.0
 10
101.7735821802582
 20
231.4728233794643
 30
0.0
 10
101.643635884627
 20
231.2965943526917
 30
0.0
  0
SPLINE
  5
20E
330
1F
100
AcDbEntity
  8
HEWI
100
AcDbSpline
210
0.0
220
0.0
230
1.0
 70
     8
 71
     3
 72
     8
 73
     4
 74
     0
 42
0.000000001
 43
0.0000000001
 40
0.0
 40
0.0
 40
0.0
 40
0.0
 40
1.0
 40
1.0
 40
1.0
 40
1.0
 10
100.9633525498061
 20
231.2473220558833
 30
0.0
 10
101.2804851735245
 20
231.4809740402707
 30
0.0
 10
101.597535196644
 20
231.7145347333903
 30
0.0
 10
101.9145109311866
 20
231.948013321798
 30
0.0
  0
SPLINE
  5
20F
330
1F
100
AcDbEntity
  8
HEWI
100
AcDbSpline
210
0.0
220
0.0
230
1.0
 70
     8
 71
     3
 72
     8
 73
     4
 74
     0
 42
0.000000001
 43
0.0000000001
 40
0.0
 40
0.0
 40
0.0
 40
0.0
 40
1.0
 40
1.0
 40
1.0
 40
1.0
 10
110.1256177646732
 20
217.7717243813189
 30
0.0
 10
109.7579038731547
 20
217.610879685018
 30
0.0
 10
109.3900778799657
 20
217.4500109130632
 30
0.0
 10
109.0221269700866
 20
217.2891153132211
 30
0.0
  0
SPLINE
  5
210
330
1F
100
AcDbEntity
  8
HEWI
100
AcDbSpline
210
0.0
220
0.0
230
1.0
 70
     8
 71
     3
 72
     8
 73
     4
 74
     0
 42
0.000000001
 43
0.0000000001
 40
0.0
 40
0.0
 40
0.0
 40
0.0
 40
1.0
 40
1.0
 40
1.0
 40
1.0
 10
109.4049396982359
 20
217.853621814543
 30
0.0
 10
109.6328189958781
 20
217.879198733423
 30
0.0
 10
109.8606502406518
 20
217.9047601601197
 30
0.0
 10
110.0884362863888
 20
217.9303070147048
 30
0.0
  0
SPLINE
  5
211
330
1F
100
AcDbEntity
  8
HEWI
100
AcDbSpline
210
0.0
220
0.0
230
1.0
 70
     8
 71
     3
 72
    38
 73
    34
 74
     0
 42
0.000000001
 43
0.0000000001
 40
0.0
 40
0.0
 40
0.0
 40
0.0
 40
0.1249999999999955
 40
0.1249999999999955
 40
0.1874999999999914
 40
0.1874999999999914
 40
0.2499999999999872
 40
0.2499999999999872
 40
0.3124999999999831
 40
0.3124999999999831
 40
0.3749999999999789
 40
0.3749999999999789
 40
0.4374999999999746
 40
0.4374999999999746
 40
0.4999999999999706
 40
0.4999999999999706
 40
0.5624999999999664
 40
0.5624999999999664
 40
0.6249999999999623
 40
0.6249999999999623
 40
0.6874999999999582
 40
0.6874999999999582
 40
0.718749999999956
 40
0.718749999999956
 40
0.7499999999999539
 40
0.7499999999999539
 40
0.8124999999999653
 40
0.8124999999999653
 40
0.8749999999999769
 40
0.8749999999999769
 40
0.9374999999999884
 40
0.9374999999999884
 40
1.0
 40
1.0
 40
1.0
 40
1.0
 10
70.12327553172875
 20
236.9392488432297
 30
0.0
 10
70.12429509809371
 20
236.9504808954807
 30
0.0
 10
70.12522423482586
 20
236.963793919765
 30
0.0
 10
70.12648056823184
 20
236.9869246616608
 30
0.0
 10
70.12687867807094
 20
236.9952321896968
 30
0.0
 10
70.12761091006858
 20
237.0127184327116
 30
0.0
 10
70.12794294775318
 20
237.0218292347365
 30
0.0
 10
70.12853730412543
 20
237.0408030566549
 30
0.0
 10
70.12879966852096
 20
237.0506655833934
 30
0.0
 10
70.12924814692815
 20
237.0712133237092
 30
0.0
 10
70.12943498504694
 20
237.0819944685421
 30
0.0
 10
70.12971060757471
 20
237.1037136856244
 30
0.0
 10
70.12980149732448
 20
237.1147095893799
 30
0.0
 10
70.12988234289064
 20
237.1369945846184
 30
0.0
 10
70.12987094922117
 20
237.148377070379
 30
0.0
 10
70.12973958336306
 20
237.1705325949533
 30
0.0
 10
70.12962080605565
 20
237.1813996785086
 30
0.0
 10
70.129272347827
 20
237.2026937795811
 30
0.0
 10
70.12903931561067
 20
237.2131939012782
 30
0.0
 10
70.12847874198704
 20
237.2327793342407
 30
0.0
 10
70.12815021332048
 20
237.2419813914201
 30
0.0
 10
70.12758521041667
 20
237.2549003600325
 30
0.0
 10
70.12738389788125
 20
237.2590718349515
 30
0.0
 10
70.12696538438177
 20
237.266952081554
 30
0.0
 10
70.12674742496104
 20
237.2706813119595
 30
0.0
 10
70.12606857098231
 20
237.2812637635705
 30
0.0
 10
70.1255816757276
 20
237.2875279260658
 30
0.0
 10
70.1245482504429
 20
237.2984410633002
 30
0.0
 10
70.12401329817071
 20
237.3029742130693
 30
0.0
 10
70.12291058473966
 20
237.3103794951053
 30
0.0
 10
70.12233972731043
 20
237.3132595241492
 30
0.0
 10
70.12118132331846
 20
237.3173553165465
 30
0.0
 10
70.12059660927777
 20
237.3185715964791
 30
0.0
 10
70.12000672020597
 20
237.3190071062585
 30
0.0
  0
SPLINE
  5
212
330
1F
100
AcDbEntity
  8
HEWI
100
AcDbSpline
210
0.0
220
0.0
230
1.0
 70
     8
 71
     3
 72
     8
 73
     4
 74
     0
 42
0.000000001
 43
0.0000000001
 40
0.0
 40
0.0
 40
0.0
 40
0.0
 40
1.0
 40
1.0
 40
1.0
 40
1.0
 10
69.80000000000003
 20
237.5542827806369
 30
0.0
 10
69.90666956006734
 20
237.4761818320612
 30
0.0
 10
70.01333847225057
 20
237.3977593112942
 30
0.0
 10
70.12000672020597
 20
237.3190071062584
 30
0.0
  0
SPLINE
  5
213
330
1F
100
AcDbEntity
  8
HEWI
100
AcDbSpline
210
0.0
220
0.0
230
1.0
 70
     8
 71
     3
 72
    37
 73
    33
 74
     0
 42
0.000000001
 43
0.0000000001
 40
0.0
 40
0.0
 40
0.0
 40
0.0
 40
0.0312499999999998
 40
0.0312499999999998
 40
0.0624999999999995
 40
0.0937499999999995
 40
0.0937499999999995
 40
0.1249999999999995
 40
0.1249999999999995
 40
0.2499999999999996
 40
0.2499999999999996
 40
0.3749999999999996
 40
0.3749999999999996
 40
0.4374999999999997
 40
0.4374999999999997
 40
0.4531249999999997
 40
0.4531249999999997
 40
0.4687499999999997
 40
0.4999999999999997
 40
0.4999999999999997
 40
0.6249999999999995
 40
0.6249999999999995
 40
0.7499999999999992
 40
0.7499999999999992
 40
0.7812499999999992
 40
0.7812499999999992
 40
0.7968749999999993
 40
0.7968749999999993
 40
0.8124999999999994
 40
0.8749999999999998
 40
0.8749999999999998
 40
1.0
 40
1.0
 40
1.0
 40
1.0
 10
70.12000672020597
 20
237.3190071062584
 30
0.0
 10
70.28665244477832
 20
237.3659259745255
 30
0.0
 10
70.45455006391944
 20
237.4117393745947
 30
0.0
 10
70.79264366154496
 20
237.5010119918965
 30
0.0
 10
71.13301885773913
 20
237.5879275695339
 30
0.0
 10
71.47808807675973
 20
237.6699938415458
 30
0.0
 10
71.82557494869406
 20
237.7495624460879
 30
0.0
 10
72.00066478390262
 20
237.7881245433256
 30
0.0
 10
72.87886023156325
 20
237.9737808710165
 30
0.0
 10
73.59236172945145
 20
238.0999823455156
 30
0.0
 10
75.04258948160487
 20
238.3050144148706
 30
0.0
 10
75.77931110229702
 20
238.3838544571765
 30
0.0
 10
76.90318567977318
 20
238.4637837457279
 30
0.0
 10
77.28094691542669
 20
238.4840295070337
 30
0.0
 10
77.75725076542181
 20
238.5009690945785
 30
0.0
 10
77.85282277721356
 20
238.5039408622033
 30
0.0
 10
78.04371822545791
 20
238.5090207034974
 30
0.0
 10
78.3297262465263
 20
238.515349770754
 30
0.0
 10
78.61473654226063
 20
238.5178365143967
 30
0.0
 10
79.56258534096673
 20
238.5177090338295
 30
0.0
 10
80.31388070021966
 20
238.490712268942
 30
0.0
 10
81.80314614128873
 20
238.3854023173462
 30
0.0
 10
82.54111484192071
 20
238.3070838145521
 30
0.0
 10
83.45550337778313
 20
238.1780993942016
 30
0.0
 10
83.63797695885095
 20
238.150746236701
 30
0.0
 10
83.91108448673206
 20
238.1073949932072
 30
0.0
 10
84.00204376019027
 20
238.0925529671199
 30
0.0
 10
84.18321658962963
 20
238.0621909449347
 30
0.0
 10
84.63461950766896
 20
237.9845381172718
 30
0.0
 10
85.0785055645804
 20
237.8982938200975
 30
0.0
 10
86.13023171054861
 20
237.6757631768903
 30
0.0
 10
86.81327984934737
 20
237.506719330471
 30
0.0
 10
87.47999327979449
 20
237.3190071062583
 30
0.0
  0
SPLINE
  5
214
330
1F
100
AcDbEntity
  8
HEWI
100
AcDbSpline
210
0.0
220
0.0
230
1.0
 70
     8
 71
     3
 72
     8
 73
     4
 74
     0
 42
0.000000001
 43
0.0000000001
 40
0.0
 40
0.0
 40
0.0
 40
0.0
 40
1.0
 40
1.0
 40
1.0
 40
1.0
 10
87.47999327979412
 20
237.3190071062585
 30
0.0
 10
87.58666152774955
 20
237.3977593112942
 30
0.0
 10
87.69333043993272
 20
237.4761818320612
 30
0.0
 10
87.80000000000004
 20
237.5542827806369
 30
0.0
  0
SPLINE
  5
215
330
1F
100
AcDbEntity
  8
HEWI
100
AcDbSpline
210
0.0
220
0.0
230
1.0
 70
     8
 71
     3
 72
    41
 73
    37
 74
     0
 42
0.000000001
 43
0.0000000001
 40
0.0
 40
0.0
 40
0.0
 40
0.0
 40
0.1250000000000104
 40
0.1250000000000104
 40
0.1562500000000187
 40
0.1562500000000187
 40
0.1875000000000269
 40
0.1875000000000269
 40
0.2500000000000522
 40
0.2500000000000522
 40
0.2812500000000571
 40
0.2812500000000571
 40
0.312500000000062
 40
0.312500000000062
 40
0.3750000000000746
 40
0.3750000000000746
 40
0.4062500000000795
 40
0.4062500000000795
 40
0.4375000000000845
 40
0.4687500000000896
 40
0.4687500000000896
 40
0.5000000000000946
 40
0.5000000000000946
 40
0.5625000000000849
 40
0.5625000000000849
 40
0.6250000000000754
 40
0.6250000000000754
 40
0.6875000000000657
 40
0.6875000000000657
 40
0.7500000000000559
 40
0.7500000000000559
 40
0.8125000000000463
 40
0.8125000000000463
 40
0.8750000000000365
 40
0.8750000000000365
 40
1.0
 40
1.0
 40
1.0
 40
1.0
 10
87.47999327979449
 20
237.3190071062583
 30
0.0
 10
87.47881638516471
 20
237.3181382155718
 30
0.0
 10
87.47767313327141
 20
237.3142298633636
 30
0.0
 10
87.47629172543422
 20
237.3050388368425
 30
0.0
 10
87.47601659663329
 20
237.3029686378738
 30
0.0
 10
87.47547957995891
 20
237.2984219764728
 30
0.0
 10
87.47521754588314
 20
237.2959474712647
 30
0.0
 10
87.47445113550172
 20
237.2879120715754
 30
0.0
 10
87.47396629340309
 20
237.2817441913372
 30
0.0
 10
87.47328175898765
 20
237.2711646625114
 30
0.0
 10
87.47306015983143
 20
237.26740100189
 30
0.0
 10
87.47264135500168
 20
237.2595757071734
 30
0.0
 10
87.4724429525153
 20
237.2554978016521
 30
0.0
 10
87.47188064174018
 20
237.2427698595499
 30
0.0
 10
87.47154938051849
 20
237.2336293475691
 30
0.0
 10
87.47112171712601
 20
237.2188785214875
 30
0.0
 10
87.47099136291417
 20
237.2138000223022
 30
0.0
 10
87.47075987399126
 20
237.2035304360396
 30
0.0
 10
87.470555916406
 20
237.1930926044202
 30
0.0
 10
87.47040571819866
 20
237.1823262466021
 30
0.0
 10
87.47028231749384
 20
237.1713961279301
 30
0.0
 10
87.47023387377913
 20
237.1658214854488
 30
0.0
 10
87.47013062829937
 20
237.1490661810076
 30
0.0
 10
87.47011728041856
 20
237.1379130320838
 30
0.0
 10
87.47019241444455
 20
237.1156380343915
 30
0.0
 10
87.47028247427634
 20
237.1044281125239
 30
0.0
 10
87.47055452680996
 20
237.0826620864833
 30
0.0
 10
87.4707358156608
 20
237.0720643698762
 30
0.0
 10
87.4711820355718
 20
237.0513961452342
 30
0.0
 10
87.47144888737988
 20
237.0412842134198
 30
0.0
 10
87.47204758017298
 20
237.0220928071151
 30
0.0
 10
87.47238048059593
 20
237.0129466526335
 30
0.0
 10
87.47310926353831
 20
236.9954981624531
 30
0.0
 10
87.47350791419393
 20
236.9871509189022
 30
0.0
 10
87.47477163570383
 20
236.9638419943517
 30
0.0
 10
87.47570433937601
 20
236.950487092596
 30
0.0
 10
87.47672446827133
 20
236.9392488432297
 30
0.0
  0
SPLINE
  5
216
330
1F
100
AcDbEntity
  8
HEWI
100
AcDbSpline
210
0.0
220
0.0
230
1.0
 70
     8
 71
     3
 72
    48
 73
    44
 74
     0
 42
0.000000001
 43
0.0000000001
 40
0.0
 40
0.0
 40
0.0
 40
0.0
 40
0.0624999999999975
 40
0.124999999999995
 40
0.124999999999995
 40
0.1874999999999926
 40
0.1874999999999926
 40
0.2187499999999916
 40
0.2343749999999917
 40
0.2343749999999917
 40
0.2499999999999919
 40
0.2499999999999919
 40
0.3124999999999929
 40
0.3749999999999938
 40
0.3749999999999938
 40
0.4374999999999948
 40
0.4374999999999948
 40
0.4687499999999957
 40
0.4843749999999961
 40
0.4843749999999961
 40
0.4999999999999968
 40
0.4999999999999968
 40
0.5624999999999972
 40
0.6249999999999975
 40
0.6249999999999975
 40
0.6874999999999979
 40
0.6874999999999979
 40
0.7031249999999979
 40
0.7031249999999979
 40
0.7187499999999979
 40
0.7499999999999979
 40
0.7499999999999979
 40
0.8124999999999985
 40
0.8124999999999985
 40
0.8749999999999992
 40
0.8749999999999992
 40
0.8906249999999994
 40
0.8906249999999994
 40
0.9062499999999996
 40
0.9062499999999996
 40
0.9374999999999996
 40
0.9374999999999996
 40
1.0
 40
1.0
 40
1.0
 40
1.0
 10
64.50414173314053
 20
236.9903738469397
 30
0.0
 10
64.62170217519482
 20
237.0507313671716
 30
0.0
 10
64.85659444815517
 20
237.168838200509
 30
0.0
 10
65.09097431656361
 20
237.2818108515739
 30
0.0
 10
65.3250485313493
 20
237.3922320427364
 30
0.0
 10
65.44193297944565
 20
237.4461669955345
 30
0.0
 10
65.61697462744283
 20
237.5251477507985
 30
0.0
 10
65.70442387897185
 20
237.5641573886048
 30
0.0
 10
65.79175200194427
 20
237.6024411950241
 30
0.0
 10
65.84994204038121
 20
237.62780166556
 30
0.0
 10
65.87899555585011
 20
237.6403888125906
 30
0.0
 10
66.02338298632526
 20
237.7025748156348
 30
0.0
 10
66.24999004968367
 20
237.7978092119704
 30
0.0
 10
66.46763611010403
 20
237.8849015557585
 30
0.0
 10
66.68061995955646
 20
237.9680417163553
 30
0.0
 10
66.78478146663163
 20
238.0076359455471
 30
0.0
 10
66.93729285756553
 20
238.0640976589096
 30
0.0
 10
67.01261419611765
 20
238.0915952276825
 30
0.0
 10
67.08647297011431
 20
238.1179906053873
 30
0.0
 10
67.13537899184302
 20
238.1353416734015
 30
0.0
 10
67.15946167825345
 20
238.1438222544207
 30
0.0
 10
67.27872572694632
 20
238.185512786475
 30
0.0
 10
67.46079839347233
 20
238.2471683602395
 30
0.0
 10
67.62532109832867
 20
238.2992992003895
 30
0.0
 10
67.78081016432577
 20
238.3468225858654
 30
0.0
 10
67.85403963146996
 20
238.3682810039141
 30
0.0
 10
67.9396044794759
 20
238.3922365811002
 30
0.0
 10
67.95638746862279
 20
238.3968752365237
 30
0.0
 10
67.98916477422896
 20
238.405816628159
 30
0.0
 10
68.03720780754215
 20
238.4187416142549
 30
0.0
 10
68.0819077869777
 20
238.4302343765572
 30
0.0
 10
68.16688858914055
 20
238.4513706643936
 30
0.0
 10
68.21766060748554
 20
238.463001385595
 30
0.0
 10
68.30739242043462
 20
238.4815263794621
 30
0.0
 10
68.34635331346324
 20
238.4884208517352
 30
0.0
 10
68.38742624510309
 20
238.494081396091
 30
0.0
 10
68.39525851688403
 20
238.4950651733096
 30
0.0
 10
68.41014848282643
 20
238.4967342532785
 30
0.0
 10
68.41720455606306
 20
238.4974189452071
 30
0.0
 10
68.43708142054542
 20
238.4990152724405
 30
0.0
 10
68.44865895850761
 20
238.4994753131978
 30
0.0
 10
68.47846761380347
 20
238.4990953389838
 30
0.0
 10
68.49178662934645
 20
238.4965012387211
 30
0.0
 10
68.49866003945976
 20
238.4916293245549
 30
0.0
  0
SPLINE
  5
217
330
1F
100
AcDbEntity
  8
HEWI
100
AcDbSpline
210
0.0
220
0.0
230
1.0
 70
     8
 71
     3
 72
    47
 73
    43
 74
     0
 42
0.000000001
 43
0.0000000001
 40
0.0
 40
0.0
 40
0.0
 40
0.0
 40
0.0624999999999983
 40
0.0624999999999983
 40
0.1249999999999966
 40
0.1874999999999949
 40
0.1874999999999949
 40
0.2031249999999947
 40
0.2031249999999947
 40
0.2187499999999946
 40
0.2499999999999946
 40
0.2499999999999946
 40
0.3124999999999951
 40
0.3749999999999956
 40
0.3749999999999956
 40
0.3906249999999958
 40
0.3906249999999958
 40
0.4062499999999961
 40
0.4062499999999961
 40
0.4374999999999967
 40
0.4374999999999967
 40
0.4999999999999963
 40
0.4999999999999963
 40
0.5624999999999961
 40
0.5624999999999961
 40
0.5937499999999958
 40
0.5937499999999958
 40
0.6249999999999955
 40
0.6249999999999955
 40
0.6874999999999949
 40
0.6874999999999949
 40
0.7499999999999945
 40
0.8124999999999939
 40
0.8124999999999939
 40
0.8281249999999939
 40
0.8281249999999939
 40
0.8437499999999937
 40
0.874999999999995
 40
0.874999999999995
 40
0.9374999999999975
 40
0.9374999999999975
 40
1.0
 40
1.0
 40
1.0
 40
1.0
 10
89.10133996054032
 20
238.4916293245549
 30
0.0
 10
89.10830461422753
 20
238.4965659127116
 30
0.0
 10
89.12182833049307
 20
238.4991228410331
 30
0.0
 10
89.1615700193199
 20
238.4995816187884
 30
0.0
 10
89.21400895976836
 20
238.4953839618828
 30
0.0
 10
89.29175530843394
 20
238.4816962069611
 30
0.0
 10
89.34846355743566
 20
238.469996500411
 30
0.0
 10
89.36023013730272
 20
238.4674947826275
 30
0.0
 10
89.38448445254598
 20
238.4621916646189
 30
0.0
 10
89.42193223569701
 20
238.4537915195888
 30
0.0
 10
89.46253299874916
 20
238.4440599424221
 30
0.0
 10
89.5478473691738
 20
238.4228193334511
 30
0.0
 10
89.6725482015212
 20
238.3897684301867
 30
0.0
 10
89.81866411414554
 20
238.3469846239282
 30
0.0
 10
89.91671408774363
 20
238.3170151158004
 30
0.0
 10
89.93666117982849
 20
238.3108593164487
 30
0.0
 10
89.9772333597947
 20
238.2982175026251
 30
0.0
 10
89.99770331940029
 20
238.2917800093303
 30
0.0
 10
90.0599457982488
 20
238.2720266630173
 30
0.0
 10
90.10242078178759
 20
238.2583105669667
 30
0.0
 10
90.23268852165839
 20
238.21551928116
 30
0.0
 10
90.32331772572037
 20
238.1848044409282
 30
0.0
 10
90.51179641885729
 20
238.118906891362
 30
0.0
 10
90.60964684122824
 20
238.0837240842807
 30
0.0
 10
90.76172337872341
 20
238.02744883275
 30
0.0
 10
90.8133004596803
 20
238.0081060882205
 30
0.0
 10
90.91822185245954
 20
237.968216735554
 30
0.0
 10
90.97166101688051
 20
237.9476318685011
 30
0.0
 10
91.1329663231927
 20
237.8846693693553
 30
0.0
 10
91.24228305790063
 20
237.8409122604247
 30
0.0
 10
91.46420230477785
 20
237.7498205512686
 30
0.0
 10
91.68940848564828
 20
237.6551508987405
 30
0.0
 10
91.92084417476037
 20
237.5531816552059
 30
0.0
 10
92.06738354175602
 20
237.4870897381062
 30
0.0
 10
92.09681434072559
 20
237.4737403067304
 30
0.0
 10
92.15572820189036
 20
237.4468649458847
 30
0.0
 10
92.24408194792912
 20
237.406331175502
 30
0.0
 10
92.33238099291391
 20
237.3651378113096
 30
0.0
 10
92.50889799380487
 20
237.2818763710663
 30
0.0
 10
92.62646750378708
 20
237.2252031147193
 30
0.0
 10
92.86135612987449
 20
237.1095337308897
 30
0.0
 10
92.97867530855377
 20
237.0505375606276
 30
0.0
 10
93.09585826685957
 20
236.9903738469397
 30
0.0
  0
SPLINE
  5
218
330
1F
100
AcDbEntity
  8
HEWI
100
AcDbSpline
210
0.0
220
0.0
230
1.0
 70
     8
 71
     3
 72
     8
 73
     4
 74
     0
 42
0.000000001
 43
0.0000000001
 40
0.0
 40
0.0
 40
0.0
 40
0.0
 40
1.0
 40
1.0
 40
1.0
 40
1.0
 10
89.10133996053906
 20
238.4916293245554
 30
0.0
 10
89.0225648060683
 20
238.4357943009124
 30
0.0
 10
88.94378996141401
 20
238.3798001509802
 30
0.0
 10
88.86501543195079
 20
238.3236441142873
 30
0.0
  0
SPLINE
  5
219
330
1F
100
AcDbEntity
  8
HEWI
100
AcDbSpline
210
0.0
220
0.0
230
1.0
 70
     8
 71
     3
 72
     8
 73
     4
 74
     0
 42
0.000000001
 43
0.0000000001
 40
0.0
 40
0.0
 40
0.0
 40
0.0
 40
1.0
 40
1.0
 40
1.0
 40
1.0
 10
68.73498456804928
 20
238.3236441142873
 30
0.0
 10
68.65621003858606
 20
238.3798001509802
 30
0.0
 10
68.57743519393179
 20
238.4357943009124
 30
0.0
 10
68.49866003946103
 20
238.4916293245554
 30
0.0
  0
SPLINE
  5
21A
330
1F
100
AcDbEntity
  8
HEWI
100
AcDbSpline
210
-0.0000000000000007
220
0.0000000000000004
230
1.0
 70
     8
 71
     3
 72
    82
 73
    78
 74
     0
 42
0.000000001
 43
0.0000000001
 40
0.0
 40
0.0
 40
0.0
 40
0.0
 40
0.0091238954353383
 40
0.0221946591032625
 40
0.0352710508446913
 40
0.0483660137550195
 40
0.0614910432708291
 40
0.0746554401418323
 40
0.0878658045883151
 40
0.1011258139406355
 40
0.1144362892013226
 40
0.127795516253789
 40
0.1411997534530309
 40
0.1546438373354296
 40
0.1681217968644323
 40
0.1816274026679079
 40
0.1951546044844771
 40
0.2086978388077157
 40
0.2222522123399182
 40
0.2358135817769651
 40
0.2493785566234895
 40
0.2629440969858465
 40
0.2765079410086208
 40
0.2900687338296669
 40
0.3036255428524868
 40
0.3171777777514205
 40
0.3307251205804945
 40
0.3442674667212205
 40
0.3578048762263649
 40
0.3713375345288928
 40
0.3848657212471077
 40
0.3983897857888136
 40
0.4119101285435123
 40
0.4254271865906656
 40
0.4389414230068078
 40
0.4524533190038231
 40
0.4659633682644286
 40
0.4794720729545331
 40
0.4929799409845543
 40
0.5064874841639036
 40
0.5199952144150419
 40
0.5335034786822222
 40
0.5470127942363281
 40
0.5605236785650851
 40
0.5740366480751699
 40
0.5875522162154383
 40
0.6010708906866747
 40
0.6145931693728198
 40
0.6281195345530271
 40
0.6416504448568351
 40
0.655186324305295
 40
0.668727547639521
 40
0.6822744209784128
 40
0.6958271566794546
 40
0.7093858411200845
 40
0.7229503940087864
 40
0.7365205178352944
 40
0.7500956362743042
 40
0.7636748209090509
 40
0.7772567067371375
 40
0.7908389728476922
 40
0.8044185361087986
 40
0.8179919060117393
 40
0.8315547916342827
 40
0.8451020945065849
 40
0.858627981113644
 40
0.8721260649142589
 40
0.8855897224009995
 40
0.899012552223041
 40
0.9123889601515502
 40
0.9257148191573186
 40
0.9389881215095339
 40
0.952209519916737
 40
0.9653826567726687
 40
0.9785142070113765
 40
0.9916136044698674
 40
1.0
 40
1.0
 40
1.0
 40
1.0
 10
221.7363394785814
 20
76.57872195601663
 30
0.0000000000000018
 10
221.9044902216882
 20
76.47858731606135
 30
0.0000000000000018
 10
222.3198110965883
 20
76.24670558682513
 30
-0.0000000000000053
 10
223.0075243686238
 20
75.9279435010643
 30
-0.0000000000000036
 10
223.7968678587281
 20
75.62260461039847
 30
0.0
 10
224.6122959023525
 20
75.37130005054752
 30
0.0
 10
225.4519140081433
 20
75.17324230036701
 30
-0.0000000000000036
 10
226.3147064485174
 20
75.02916320684716
 30
-0.0000000000000036
 10
227.1993256029804
 20
74.93936919714801
 30
-0.0000000000000036
 10
228.1043804477068
 20
74.90423162355227
 30
0.0
 10
229.0283373524732
 20
74.92401476172169
 30
0.0
 10
229.9695429973251
 20
74.9988814143288
 30
0.0
 10
230.9262313247316
 20
75.12885656162244
 30
0.0000000000000036
 10
231.8965479250529
 20
75.31381280778042
 30
0.0000000000000036
 10
232.8785772971217
 20
75.55346245871348
 30
-0.0000000000000036
 10
233.8703710411836
 20
75.84735975177712
 30
0.0
 10
234.8699726300007
 20
76.19490981744
 30
0.0000000000000053
 10
235.8754368029014
 20
76.5953818998987
 30
0.0000000000000018
 10
236.8848428679611
 20
77.04792412192627
 30
0.0
 10
237.8963024020676
 20
77.55157779591583
 30
0.0000000000000018
 10
238.9079536748404
 20
78.10528519556672
 30
0.0
 10
239.917965549268
 20
78.70789973099189
 30
0.0000000000000036
 10
240.9245451219165
 20
79.35819859550673
 30
0.0000000000000053
 10
241.9259432786795
 20
80.05489606744514
 30
0.0
 10
242.92044744688
 20
80.79664735921076
 30
0.0000000000000053
 10
243.9063695641998
 20
81.58204531532568
 30
0.0000000000000036
 10
244.8820446062192
 20
82.40962229253508
 30
0.0000000000000053
 10
245.8458298588063
 20
83.27785165126186
 30
0.0000000000000018
 10
246.7961048959399
 20
84.18514909166097
 30
0.0000000000000053
 10
247.7312721803426
 20
85.12987399997413
 30
0.0000000000000053
 10
248.6497581858392
 20
86.11033091588948
 30
0.0000000000000071
 10
249.5500149377754
 20
87.12477118954019
 30
0.0000000000000036
 10
250.430521873872
 20
88.17139486581917
 30
0.0000000000000053
 10
251.2897879381709
 20
89.24835281180632
 30
0.0000000000000071
 10
252.1263538323941
 20
90.35374908814802
 30
0.0000000000000071
 10
252.9387943604826
 20
91.48564355534858
 30
0.0000000000000053
 10
253.7257208124636
 20
92.6420546996462
 30
0.0000000000000071
 10
254.485783342736
 20
93.82096265918207
 30
0.0000000000000036
 10
255.2176733054779
 20
95.02031242904534
 30
0.0000000000000062
 10
255.9201254716928
 20
96.23801714533584
 30
0.0000000000000071
 10
256.591917437797
 20
97.47195649750649
 30
0.0000000000000036
 10
257.2318750691947
 20
98.71998521879481
 30
0.0000000000000071
 10
257.8388745056051
 20
99.97993699245457
 30
0.0000000000000107
 10
258.4118460774113
 20
101.2496335761626
 30
0.0000000000000062
 10
258.9497730610815
 20
102.5268834209202
 30
0.0000000000000062
 10
259.451693054739
 20
103.8094854348
 30
0.0000000000000089
 10
259.9166991615203
 20
105.0952327074427
 30
0.0000000000000058
 10
260.3439409736538
 20
106.3819161526136
 30
0.0000000000000064
 10
260.7326253557875
 20
107.6673280219015
 30
0.000000000000006
 10
261.0820170323755
 20
108.9492652353453
 30
0.0000000000000066
 10
261.391438992937
 20
110.2255324667658
 30
0.0000000000000067
 10
261.6602727414604
 20
111.4939449128372
 30
0.0000000000000064
 10
261.8879584333553
 20
112.7523306662543
 30
0.0000000000000033
 10
262.0739949664588
 20
113.9985326060633
 30
0.0000000000000051
 10
262.2179401230726
 20
115.2304097145002
 30
0.0000000000000053
 10
262.3194108989968
 20
116.4458377330506
 30
0.0000000000000067
 10
262.378084203521
 20
117.6427090859315
 30
0.0000000000000013
 10
262.3936981701621
 20
118.8189320346955
 30
0.0000000000000027
 10
262.3660543777606
 20
119.972429090463
 30
0.0000000000000044
 10
262.295022078238
 20
121.1011230199223
 30
0.0000000000000009
 10
262.1805462126703
 20
122.2029322047583
 30
0.0000000000000018
 10
262.0226566620443
 20
123.2757789264399
 30
0.0000000000000018
 10
261.821476426266
 20
124.3175996473579
 30
-0.0000000000000009
 10
261.5772313459427
 20
125.3263488126863
 30
0.0000000000000044
 10
261.2902644470371
 20
126.2999956723524
 30
0.0000000000000009
 10
260.9610497407861
 20
127.2365352743696
 30
0.0
 10
260.5902045028363
 20
128.1340054332425
 30
0.0000000000000053
 10
260.1784977713221
 20
128.9905102413756
 30
0.0
 10
259.7268514339531
 20
129.8042474900132
 30
0.0000000000000018
 10
259.2363345246596
 20
130.5735429657589
 30
0.0
 10
258.7081377723877
 20
131.2968665078258
 30
-0.0000000000000036
 10
258.1435717297126
 20
131.9729027582539
 30
-0.0000000000000018
 10
257.5439319223793
 20
132.6003830879828
 30
0.0
 10
256.9108263292238
 20
133.1787479119924
 30
0.0
 10
256.2447780715376
 20
133.7056589513124
 30
-0.0000000000000018
 10
255.6331607739611
 20
134.1287916212822
 30
-0.0000000000000018
 10
255.2355995907623
 20
134.3611043487497
 30
-0.0000000000000036
 10
255.0779465238555
 20
134.4477457308923
 30
-0.0000000000000036
  0
MTEXT
  5
21B
330
1F
100
AcDbEntity
  8
1
  6
Continuous
 62
    18
370
    18
100
AcDbMText
 10
73.237667
 20
81.72443800000001
 30
0.0
 40
2.5
 41
0.0
 46
0.0
 71
     7
 72
     5
  1
\W0.7071;\H5.00;900.36.01640\P900.36.01660\P900.36.016XA\P\H2.50;
  7
iso-1
 73
     1
 44
0.9638549999999998
  0
ENDSEC
  0
SECTION
  2
OBJECTS
  0
DICTIONARY
  5
C
330
0
100
AcDbDictionary
281
     1
  3
ACAD_CIP_PREVIOUS_PRODUCT_INFO
350
27C
  3
ACAD_COLOR
350
276
  3
ACAD_DETAILVIEWSTYLE
350
272
  3
ACAD_GROUP
350
D
  3
ACAD_LAYOUT
350
1A
  3
ACAD_MATERIAL
350
43
  3
ACAD_MLEADERSTYLE
350
6B
  3
ACAD_MLINESTYLE
350
17
  3
ACAD_PLOTSETTINGS
350
19
  3
ACAD_PLOTSTYLENAME
350
E
  3
ACAD_SCALELIST
350
47
  3
ACAD_SECTIONVIEWSTYLE
350
273
  3
ACAD_TABLESTYLE
350
69
  3
ACAD_VISUALSTYLE
350
2A
  3
ACDB_RECOMPOSE_DATA
350
298
  3
AcDbVariableDictionary
350
22F
  0
DICTIONARY
  5
283
330
2
100
AcDbDictionary
280
     1
281
     1
  3
ACAD_LAYERSTATES
360
284
  0
DICTIONARY
  5
28D
330
10
100
AcDbDictionary
280
     1
281
     1
  3
ADSK_XREC_LAYER_RECONCILED
360
28E
  0
DICTIONARY
  5
28F
330
74
100
AcDbDictionary
280
     1
281
     1
  3
ADSK_XREC_LAYER_RECONCILED
360
290
  0
DICTIONARY
  5
27E
330
27D
100
AcDbDictionary
280
     1
281
     1
  3
ADSK_XREC_LAYER_RECONCILED
360
291
  0
XRECORD
  5
27C
102
{ACAD_REACTORS
330
C
102
}
330
C
100
AcDbXrecord
280
     1
300
ACDLT
300
2021
300
ACDLT_F_S
  0
DICTIONARY
  5
276
102
{ACAD_REACTORS
330
C
102
}
330
C
100
AcDbDictionary
281
     1
  0
DICTIONARY
  5
272
102
{ACAD_REACTORS
330
C
102
}
330
C
100
AcDbDictionary
281
     1
  3
Metric50
350
278
  0
DICTIONARY
  5
D
102
{ACAD_REACTORS
330
C
102
}
330
C
100
AcDbDictionary
281
     1
  0
DICTIONARY
  5
1A
102
{ACAD_REACTORS
330
C
102
}
330
C
100
AcDbDictionary
281
     1
  3
Layout1
350
1E
  3
Layout2
350
26
  3
Model
350
22
  0
DICTIONARY
  5
43
102
{ACAD_REACTORS
330
C
102
}
330
C
100
AcDbDictionary
281
     1
  3
ByBlock
350
45
  3
ByLayer
350
44
  3
Global
350
46
  0
DICTIONARY
  5
6B
102
{ACAD_REACTORS
330
C
102
}
330
C
100
AcDbDictionary
281
     1
  3
Standard
350
6C
  0
DICTIONARY
  5
17
102
{ACAD_REACTORS
330
C
102
}
330
C
100
AcDbDictionary
281
     1
  3
Standard
350
18
  0
DICTIONARY
  5
19
102
{ACAD_REACTORS
330
C
102
}
330
C
100
AcDbDictionary
281
     1
  0
ACDBDICTIONARYWDFLT
  5
E
102
{ACAD_REACTORS
330
C
102
}
330
C
100
AcDbDictionary
281
     1
  3
Normal
350
F
100
AcDbDictionaryWithDefault
340
F
  0
DICTIONARY
  5
47
102
{ACAD_REACTORS
330
C
102
}
330
C
100
AcDbDictionary
281
     1
  3
A0
350
48
  3
A1
350
49
  3
A2
350
4A
  3
A3
350
4B
  3
A4
350
4C
  3
A5
350
4D
  3
A6
350
4E
  3
A7
350
4F
  3
A8
350
50
  3
A9
350
51
  3
B0
350
52
  3
B1
350
53
  3
B2
350
54
  3
B3
350
55
  3
B4
350
56
  3
B5
350
57
  3
B6
350
58
  3
B7
350
59
  3
B8
350
5A
  3
B9
350
5B
  3
C0
350
5C
  3
C1
350
5D
  3
C2
350
5E
  3
C3
350
5F
  3
C4
350
60
  3
C5
350
61
  3
C6
350
62
  3
C7
350
63
  3
C8
350
64
  3
C9
350
65
  3
D0
350
66
  3
D1
350
67
  3
D2
350
68
  0
DICTIONARY
  5
273
102
{ACAD_REACTORS
330
C
102
}
330
C
100
AcDbDictionary
281
     1
  3
Metric50
350
277
  0
DICTIONARY
  5
69
102
{ACAD_REACTORS
330
C
102
}
330
C
100
AcDbDictionary
281
     1
  3
Standard
350
6A
  0
DICTIONARY
  5
2A
102
{ACAD_REACTORS
330
C
102
}
330
C
100
AcDbDictionary
281
     1
  3
2dWireframe
350
2F
  3
Basic
350
32
  3
Brighten
350
36
  3
ColorChange
350
3A
  3
Conceptual
350
34
  3
Dim
350
35
  3
EdgeColorOff
350
3D
  3
Facepattern
350
39
  3
Flat
350
2B
  3
FlatWithEdges
350
2C
  3
Gouraud
350
2D
  3
GouraudWithEdges
350
2E
  3
Hidden
350
31
  3
JitterOff
350
3B
  3
Linepattern
350
38
  3
OverhangOff
350
3C
  3
Realistic
350
33
  3
Shaded
350
42
  3
Shaded with edges
350
41
  3
Shades of Gray
350
3E
  3
Sketchy
350
3F
  3
Thicken
350
37
  3
Wireframe
350
30
  3
X-Ray
350
40
  0
XRECORD
  5
298
102
{ACAD_REACTORS
330
C
102
}
330
C
100
AcDbXrecord
280
     1
 90
        1
330
6A
  0
DICTIONARY
  5
22F
102
{ACAD_REACTORS
330
C
102
}
330
C
100
AcDbDictionary
281
     1
  3
CANNOSCALE
350
230
  3
CMLEADERSTYLE
350
271
  3
CTABLESTYLE
350
270
  3
CVIEWDETAILSTYLE
350
292
  3
CVIEWSECTIONSTYLE
350
293
  3
LAYEREVAL
350
295
  3
LAYERNOTIFY
350
296
  3
LIGHTINGUNITS
350
294
  3
MSLTSCALE
350
231
  0
DICTIONARY
  5
284
102
{ACAD_REACTORS
330
283
102
}
330
283
100
AcDbDictionary
281
     1
  0
XRECORD
  5
28E
102
{ACAD_REACTORS
330
28D
102
}
330
28D
100
AcDbXrecord
280
     1
290
     1
  0
XRECORD
  5
290
102
{ACAD_REACTORS
330
28F
102
}
330
28F
100
AcDbXrecord
280
     1
290
     1
  0
XRECORD
  5
291
102
{ACAD_REACTORS
330
27E
102
}
330
27E
100
AcDbXrecord
280
     1
290
     1
  0
ACDBDETAILVIEWSTYLE
  5
278
102
{ACAD_XDICTIONARY
360
29B
102
}
102
{ACAD_REACTORS
330
272
102
}
330
272
100
AcDbModelDocViewStyle
 70
     0
  3
Metric50
290
     0
100
AcDbDetailViewStyle
 70
     0
 71
     0
 90
        3
 71
     1
340
11
 62
   256
 40
5.0
340
0
 62
   256
 40
5.0
300

 40
0.0
280
     1
 71
     2
340
16
 90
       25
 62
   256
 71
     3
340
11
 62
   256
 40
5.0
 90
        0
 40
15.0
 90
        1
300
%<\AcVar ViewDetailId>% (%<\AcVar ViewScale \f "%sn">%)
 71
     4
340
16
 90
       25
 62
   256
340
16
 90
       25
 62
   256
280
     0
  0
LAYOUT
  5
1E
102
{ACAD_REACTORS
330
1A
102
}
330
1A
100
AcDbPlotSettings
  1

  2
none_device
  4

  6

 40
0.0
 41
0.0
 42
0.0
 43
0.0
 44
0.0
 45
0.0
 46
0.0
 47
0.0
 48
0.0
 49
0.0
140
0.0
141
0.0
142
1.0
143
1.0
 70
   688
 72
     0
 73
     0
 74
     5
  7

 75
    16
147
1.0
 76
     0
 77
     2
 78
   300
148
0.0
149
0.0
100
AcDbLayout
  1
Layout1
 70
     1
 71
     1
 10
-0.5
 20
-0.5
 11
5.0
 21
5.0
 12
0.0
 22
0.0
 32
0.0
 14
-0.5
 24
-0.5
 34
-0.5
 15
5.0
 25
5.0
 35
5.0
146
0.0
 13
0.0
 23
0.0
 33
0.0
 16
1.0
 26
0.0
 36
0.0
 17
0.0
 27
1.0
 37
0.0
 76
     0
330
1B
  0
LAYOUT
  5
26
102
{ACAD_REACTORS
330
1A
102
}
330
1A
100
AcDbPlotSettings
  1

  2
none_device
  4

  6

 40
0.0
 41
0.0
 42
0.0
 43
0.0
 44
0.0
 45
0.0
 46
0.0
 47
0.0
 48
0.0
 49
0.0
140
0.0
141
0.0
142
1.0
143
1.0
 70
   688
 72
     0
 73
     0
 74
     5
  7

 75
    16
147
1.0
 76
     0
 77
     2
 78
   300
148
0.0
149
0.0
100
AcDbLayout
  1
Layout2
 70
     1
 71
     2
 10
0.0
 20
0.0
 11
0.0
 21
0.0
 12
0.0
 22
0.0
 32
0.0
 14
0.0
 24
0.0
 34
0.0
 15
0.0
 25
0.0
 35
0.0
146
0.0
 13
0.0
 23
0.0
 33
0.0
 16
1.0
 26
0.0
 36
0.0
 17
0.0
 27
1.0
 37
0.0
 76
     0
330
23
  0
LAYOUT
  5
22
102
{ACAD_REACTORS
330
1A
102
}
330
1A
100
AcDbPlotSettings
  1

  2
none_device
  4
Letter_(8.50_x_11.00_Inches)
  6

 40
6.349999999999999
 41
6.349999999999999
 42
6.350005
 43
6.350005
 44
215.9
 45
279.4
 46
0.0
 47
0.0
 48
0.0
 49
0.0
140
0.0
141
0.0
142
1.0
143
1.0
 70
  1712
 72
     0
 73
     0
 74
     0
  7

 75
     0
147
1.0
 76
     0
 77
     2
 78
   300
148
0.0
149
0.0
100
AcDbLayout
  1
Model
 70
     1
 71
     0
 10
-0.5
 20
-0.5
 11
5.0
 21
5.0
 12
0.0
 22
0.0
 32
0.0
 14
-0.5
 24
-0.5
 34
-0.5
 15
5.0
 25
5.0
 35
5.0
146
0.0
 13
0.0
 23
0.0
 33
0.0
 16
1.0
 26
0.0
 36
0.0
 17
0.0
 27
1.0
 37
0.0
 76
     0
330
1F
331
29
  0
MATERIAL
  5
45
102
{ACAD_XDICTIONARY
360
265
102
}
102
{ACAD_REACTORS
330
43
102
}
330
43
100
AcDbMaterial
  1
ByBlock
  0
MATERIAL
  5
44
102
{ACAD_XDICTIONARY
360
263
102
}
102
{ACAD_REACTORS
330
43
102
}
330
43
100
AcDbMaterial
  1
ByLayer
  0
MATERIAL
  5
46
102
{ACAD_XDICTIONARY
360
267
102
}
102
{ACAD_REACTORS
330
43
102
}
330
43
100
AcDbMaterial
  1
Global
  0
MLEADERSTYLE
  5
6C
102
{ACAD_REACTORS
330
6B
102
}
330
6B
100
AcDbMLeaderStyle
179
     2
170
     2
171
     1
172
     0
 90
        2
 40
0.0
 41
0.0
173
     1
 91
-1056964608
340
14
 92
       -2
290
     1
 42
0.09
291
     1
 43
0.36
  3
Standard
 44
0.18
300

342
11
174
     1
178
     6
175
     1
176
     0
 93
-1056964608
 45
0.18
292
     0
297
     0
 46
0.18
 94
-1056964608
 47
1.0
 49
1.0
140
1.0
293
     1
141
0.0
294
     1
177
     0
142
1.0
295
     0
296
     0
143
0.125
271
     0
272
     9
273
     9
298
     0
1001
ACAD_MLEADERVER
1070
     2
  0
MLINESTYLE
  5
18
102
{ACAD_REACTORS
330
17
102
}
330
17
100
AcDbMlineStyle
  2
STANDARD
 70
     0
  3

 62
   256
 51
90.0
 52
90.0
 71
     2
 49
0.5
 62
   256
  6
BYLAYER
 49
-0.5
 62
   256
  6
BYLAYER
  0
ACDBPLACEHOLDER
  5
F
102
{ACAD_REACTORS
330
E
102
}
330
E
  0
SCALE
  5
48
102
{ACAD_REACTORS
330
47
102
}
330
47
100
AcDbScale
 70
     0
300
1:1
140
1.0
141
1.0
290
     1
  0
SCALE
  5
49
102
{ACAD_REACTORS
330
47
102
}
330
47
100
AcDbScale
 70
     0
300
1:2
140
1.0
141
2.0
290
     0
  0
SCALE
  5
4A
102
{ACAD_REACTORS
330
47
102
}
330
47
100
AcDbScale
 70
     0
300
1:4
140
1.0
141
4.0
290
     0
  0
SCALE
  5
4B
102
{ACAD_REACTORS
330
47
102
}
330
47
100
AcDbScale
 70
     0
300
1:5
140
1.0
141
5.0
290
     0
  0
SCALE
  5
4C
102
{ACAD_REACTORS
330
47
102
}
330
47
100
AcDbScale
 70
     0
300
1:8
140
1.0
141
8.0
290
     0
  0
SCALE
  5
4D
102
{ACAD_REACTORS
330
47
102
}
330
47
100
AcDbScale
 70
     0
300
1:10
140
1.0
141
10.0
290
     0
  0
SCALE
  5
4E
102
{ACAD_REACTORS
330
47
102
}
330
47
100
AcDbScale
 70
     0
300
1:16
140
1.0
141
16.0
290
     0
  0
SCALE
  5
4F
102
{ACAD_REACTORS
330
47
102
}
330
47
100
AcDbScale
 70
     0
300
1:20
140
1.0
141
20.0
290
     0
  0
SCALE
  5
50
102
{ACAD_REACTORS
330
47
102
}
330
47
100
AcDbScale
 70
     0
300
1:30
140
1.0
141
30.0
290
     0
  0
SCALE
  5
51
102
{ACAD_REACTORS
330
47
102
}
330
47
100
AcDbScale
 70
     0
300
1:40
140
1.0
141
40.0
290
     0
  0
SCALE
  5
52
102
{ACAD_REACTORS
330
47
102
}
330
47
100
AcDbScale
 70
     0
300
1:50
140
1.0
141
50.0
290
     0
  0
SCALE
  5
53
102
{ACAD_REACTORS
330
47
102
}
330
47
100
AcDbScale
 70
     0
300
1:100
140
1.0
141
100.0
290
     0
  0
SCALE
  5
54
102
{ACAD_REACTORS
330
47
102
}
330
47
100
AcDbScale
 70
     0
300
2:1
140
2.0
141
1.0
290
     0
  0
SCALE
  5
55
102
{ACAD_REACTORS
330
47
102
}
330
47
100
AcDbScale
 70
     0
300
4:1
140
4.0
141
1.0
290
     0
  0
SCALE
  5
56
102
{ACAD_REACTORS
330
47
102
}
330
47
100
AcDbScale
 70
     0
300
8:1
140
8.0
141
1.0
290
     0
  0
SCALE
  5
57
102
{ACAD_REACTORS
330
47
102
}
330
47
100
AcDbScale
 70
     0
300
10:1
140
10.0
141
1.0
290
     0
  0
SCALE
  5
58
102
{ACAD_REACTORS
330
47
102
}
330
47
100
AcDbScale
 70
     0
300
100:1
140
100.0
141
1.0
290
     0
  0
SCALE
  5
59
102
{ACAD_REACTORS
330
47
102
}
330
47
100
AcDbScale
 70
     0
300
1/128" = 1'-0"
140
0.007812
141
12.0
290
     0
  0
SCALE
  5
5A
102
{ACAD_REACTORS
330
47
102
}
330
47
100
AcDbScale
 70
     0
300
1/64" = 1'-0"
140
0.015625
141
12.0
290
     0
  0
SCALE
  5
5B
102
{ACAD_REACTORS
330
47
102
}
330
47
100
AcDbScale
 70
     0
300
1/32" = 1'-0"
140
0.03125
141
12.0
290
     0
  0
SCALE
  5
5C
102
{ACAD_REACTORS
330
47
102
}
330
47
100
AcDbScale
 70
     0
300
1/16" = 1'-0"
140
0.0625
141
12.0
290
     0
  0
SCALE
  5
5D
102
{ACAD_REACTORS
330
47
102
}
330
47
100
AcDbScale
 70
     0
300
3/32" = 1'-0"
140
0.09375
141
12.0
290
     0
  0
SCALE
  5
5E
102
{ACAD_REACTORS
330
47
102
}
330
47
100
AcDbScale
 70
     0
300
1/8" = 1'-0"
140
0.125
141
12.0
290
     0
  0
SCALE
  5
5F
102
{ACAD_REACTORS
330
47
102
}
330
47
100
AcDbScale
 70
     0
300
3/16" = 1'-0"
140
0.1875
141
12.0
290
     0
  0
SCALE
  5
60
102
{ACAD_REACTORS
330
47
102
}
330
47
100
AcDbScale
 70
     0
300
1/4" = 1'-0"
140
0.25
141
12.0
290
     0
  0
SCALE
  5
61
102
{ACAD_REACTORS
330
47
102
}
330
47
100
AcDbScale
 70
     0
300
3/8" = 1'-0"
140
0.375
141
12.0
290
     0
  0
SCALE
  5
62
102
{ACAD_REACTORS
330
47
102
}
330
47
100
AcDbScale
 70
     0
300
1/2" = 1'-0"
140
0.5
141
12.0
290
     0
  0
SCALE
  5
63
102
{ACAD_REACTORS
330
47
102
}
330
47
100
AcDbScale
 70
     0
300
3/4" = 1'-0"
140
0.75
141
12.0
290
     0
  0
SCALE
  5
64
102
{ACAD_REACTORS
330
47
102
}
330
47
100
AcDbScale
 70
     0
300
1" = 1'-0"
140
1.0
141
12.0
290
     0
  0
SCALE
  5
65
102
{ACAD_REACTORS
330
47
102
}
330
47
100
AcDbScale
 70
     0
300
1-1/2" = 1'-0"
140
1.5
141
12.0
290
     0
  0
SCALE
  5
66
102
{ACAD_REACTORS
330
47
102
}
330
47
100
AcDbScale
 70
     0
300
3" = 1'-0"
140
3.0
141
12.0
290
     0
  0
SCALE
  5
67
102
{ACAD_REACTORS
330
47
102
}
330
47
100
AcDbScale
 70
     0
300
6" = 1'-0"
140
6.0
141
12.0
290
     0
  0
SCALE
  5
68
102
{ACAD_REACTORS
330
47
102
}
330
47
100
AcDbScale
 70
     0
300
1'-0" = 1'-0"
140
12.0
141
12.0
290
     0
  0
ACDBSECTIONVIEWSTYLE
  5
277
102
{ACAD_XDICTIONARY
360
299
102
}
102
{ACAD_REACTORS
330
273
102
}
330
273
100
AcDbModelDocViewStyle
 70
     0
  3
Metric50
290
     0
100
AcDbSectionViewStyle
 70
     0
 71
     0
 90
      102
 71
     1
340
11
 62
   256
 40
5.0
340
0
340
0
 62
   256
 40
5.0
300
I, O, Q, S, X, Z
 40
10.0
 90
        0
 40
2.5
 90
        0
 71
     2
340
16
 90
       25
 62
   256
340
16
 90
       50
 62
   256
 40
5.0
 40
2.5
 40
5.0
 71
     3
340
11
 62
   256
 40
5.0
 90
        0
 40
15.0
 90
        1
300
%<\AcVar ViewSectionStartId>%-%<\AcVar ViewSectionEndId>% (%<\AcVar ViewScale \f "%sn">%)
 71
     4
 62
   256
 62
   257
300
ANSI31
 40
1.0
 90
        0
290
     0
290
     0
 90
        6
 40
0.0
 40
1.570796326794896
 40
0.2617993877991494
 40
1.308996938995747
 40
-0.2617993877991494
 40
1.832595714594046
  0
TABLESTYLE
  5
6A
102
{ACAD_XDICTIONARY
360
269
102
}
102
{ACAD_REACTORS
330
69
102
}
330
69
100
AcDbTableStyle
280
     0
  3
Standard
 70
     0
 71
     0
 40
0.06
 41
0.06
280
     0
281
     0
  7
Standard
140
0.18
170
     2
 62
     0
 63
     7
283
     0
 90
        4
 91
        0
  1

274
    -2
284
     1
 64
     0
275
    -2
285
     1
 65
     0
276
    -2
286
     1
 66
     0
277
    -2
287
     1
 67
     0
278
    -2
288
     1
 68
     0
279
    -2
289
     1
 69
     0
  7
Standard
140
0.25
170
     5
 62
     0
 63
     7
283
     0
 90
        4
 91
        0
  1

274
    -2
284
     1
 64
     0
275
    -2
285
     1
 65
     0
276
    -2
286
     1
 66
     0
277
    -2
287
     1
 67
     0
278
    -2
288
     1
 68
     0
279
    -2
289
     1
 69
     0
  7
Standard
140
0.18
170
     5
 62
     0
 63
     7
283
     0
 90
        4
 91
        0
  1

274
    -2
284
     1
 64
     0
275
    -2
285
     1
 65
     0
276
    -2
286
     1
 66
     0
277
    -2
287
     1
 67
     0
278
    -2
288
     1
 68
     0
279
    -2
289
     1
 69
     0
  0
VISUALSTYLE
  5
2F
102
{ACAD_REACTORS
330
2A
102
}
330
2A
100
AcDbVisualStyle
  2

 70
     4
177
     3
291
     0
 70
    58
 90
        0
176
     1
 90
        2
176
     1
 90
        0
176
     1
 90
        0
176
     1
 40
0.6
176
     1
 40
30.0
176
     1
 62
     7
420
 16777215
176
     1
 90
        1
176
     1
 90
        4
176
     1
 62
     7
176
     1
 62
   257
176
     1
 90
        1
176
     1
 90
        1
176
     1
 40
1.0
176
     1
 90
        0
176
     1
 62
   257
176
     1
 40
1.0
176
     1
 90
        1
176
     1
 90
        6
176
     1
 90
        2
176
     1
 62
     7
176
     1
 90
        5
176
     1
 90
        0
176
     1
 90
        0
176
     1
290
     0
176
     1
 90
        1
176
     1
 40
0.0
176
     1
 90
        0
176
     1
290
     1
176
     1
290
     1
176
     1
290
     0
176
     1
290
     0
176
     1
290
     0
176
     1
290
     0
176
     1
290
     0
176
     1
290
     0
176
     1
290
     0
176
     1
 90
       50
176
     1
 40
0.0
176
     1
 40
1.0
176
     1
 90
        0
176
     1
 62
    18
420
        0
176
     1
 90
       50
176
     1
 90
        3
176
     1
 62
     5
420
      255
176
     1
290
     0
176
     1
 90
       50
176
     1
 90
       50
176
     1
 90
       50
176
     1
290
     0
176
     1
 90
       50
176
     1
 62
   256
176
     0
 40
1.0
176
     0
 90
        2
176
     1
  1
strokes_ogs.tif
176
     1
290
     0
176
     1
 40
1.0
176
     1
 40
1.0
176
     1
1001
ACAD
1000
AcDbSavedByObjectVersion
1070
     0
  0
VISUALSTYLE
  5
32
102
{ACAD_REACTORS
330
2A
102
}
330
2A
100
AcDbVisualStyle
  2

 70
     7
177
     3
291
     1
 70
    58
 90
        1
176
     1
 90
        0
176
     1
 90
        1
176
     1
 90
        0
176
     1
 40
0.6
176
     1
 40
30.0
176
     1
 62
     7
420
 16777215
176
     1
 90
        0
176
     1
 90
        4
176
     1
 62
     7
176
     1
 62
   257
176
     1
 90
        1
176
     1
 90
        1
176
     1
 40
1.0
176
     1
 90
        8
176
     1
 62
     7
176
     1
 40
1.0
176
     1
 90
        1
176
     1
 90
        6
176
     1
 90
        2
176
     1
 62
     7
176
     1
 90
        5
176
     1
 90
        0
176
     1
 90
        0
176
     1
290
     0
176
     1
 90
        1
176
     1
 40
0.0
176
     1
 90
        0
176
     1
290
     0
176
     1
290
     1
176
     1
290
     1
176
     1
290
     0
176
     1
290
     0
176
     1
290
     0
176
     1
290
     0
176
     1
290
     0
176
     1
290
     0
176
     1
 90
       50
176
     1
 40
0.0
176
     1
 40
1.0
176
     1
 90
        0
176
     1
 62
    18
420
        0
176
     1
 90
       50
176
     1
 90
        3
176
     1
 62
     5
420
      255
176
     1
290
     0
176
     1
 90
       50
176
     1
 90
       50
176
     1
 90
       50
176
     1
290
     0
176
     1
 90
       50
176
     1
 62
   256
176
     0
 40
1.0
176
     0
 90
        2
176
     1
  1
strokes_ogs.tif
176
     1
290
     0
176
     1
 40
1.0
176
     1
 40
1.0
176
     1
1001
ACAD
1000
AcDbSavedByObjectVersion
1070
     0
  0
VISUALSTYLE
  5
36
102
{ACAD_REACTORS
330
2A
102
}
330
2A
100
AcDbVisualStyle
  2

 70
    12
177
     3
291
     1
 70
    58
 90
        2
176
     1
 90
        2
176
     1
 90
        0
176
     1
 90
        0
176
     1
 40
0.6
176
     1
 40
30.0
176
     1
 62
     7
420
 16777215
176
     1
 90
        1
176
     1
 90
        4
176
     1
 62
     7
176
     1
 62
   257
176
     1
 90
        1
176
     1
 90
        1
176
     1
 40
1.0
176
     1
 90
        8
176
     1
 62
     7
176
     1
 40
1.0
176
     1
 90
        1
176
     1
 90
        6
176
     1
 90
        2
176
     1
 62
     7
176
     1
 90
        5
176
     1
 90
        0
176
     1
 90
        0
176
     1
290
     0
176
     1
 90
        1
176
     1
 40
50.0
176
     1
 90
        0
176
     1
290
     0
176
     1
290
     1
176
     1
290
     1
176
     1
290
     0
176
     1
290
     0
176
     1
290
     0
176
     1
290
     0
176
     1
290
     0
176
     1
290
     0
176
     1
 90
       50
176
     1
 40
0.0
176
     1
 40
1.0
176
     1
 90
        0
176
     1
 62
    18
420
        0
176
     1
 90
       50
176
     1
 90
        3
176
     1
 62
     5
420
      255
176
     1
290
     0
176
     1
 90
       50
176
     1
 90
       50
176
     1
 90
       50
176
     1
290
     0
176
     1
 90
       50
176
     1
 62
   256
176
     0
 40
1.0
176
     0
 90
        2
176
     1
  1
strokes_ogs.tif
176
     1
290
     0
176
     1
 40
1.0
176
     1
 40
1.0
176
     1
1001
ACAD
1000
AcDbSavedByObjectVersion
1070
     0
  0
VISUALSTYLE
  5
3A
102
{ACAD_REACTORS
330
2A
102
}
330
2A
100
AcDbVisualStyle
  2

 70
    16
177
     3
291
     1
 70
    58
 90
        2
176
     1
 90
        2
176
     1
 90
        3
176
     1
 90
        0
176
     1
 40
0.6
176
     1
 40
30.0
176
     1
 62
     8
420
  8421504
176
     1
 90
        1
176
     1
 90
        4
176
     1
 62
     7
176
     1
 62
   257
176
     1
 90
        1
176
     1
 90
        1
176
     1
 40
1.0
176
     1
 90
        8
176
     1
 62
     8
420
  8421504
176
     1
 40
1.0
176
     1
 90
        1
176
     1
 90
        6
176
     1
 90
        2
176
     1
 62
     7
176
     1
 90
        5
176
     1
 90
        0
176
     1
 90
        0
176
     1
290
     0
176
     1
 90
        1
176
     1
 40
0.0
176
     1
 90
        0
176
     1
290
     0
176
     1
290
     1
176
     1
290
     1
176
     1
290
     0
176
     1
290
     0
176
     1
290
     0
176
     1
290
     0
176
     1
290
     0
176
     1
290
     0
176
     1
 90
       50
176
     1
 40
0.0
176
     1
 40
1.0
176
     1
 90
        0
176
     1
 62
    18
420
        0
176
     1
 90
       50
176
     1
 90
        3
176
     1
 62
     5
420
      255
176
     1
290
     0
176
     1
 90
       50
176
     1
 90
       50
176
     1
 90
       50
176
     1
290
     0
176
     1
 90
       50
176
     1
 62
   256
176
     0
 40
1.0
176
     0
 90
        2
176
     1
  1
strokes_ogs.tif
176
     1
290
     0
176
     1
 40
1.0
176
     1
 40
1.0
176
     1
1001
ACAD
1000
AcDbSavedByObjectVersion
1070
     0
  0
VISUALSTYLE
  5
34
102
{ACAD_REACTORS
330
2A
102
}
330
2A
100
AcDbVisualStyle
  2

 70
     9
177
     3
291
     0
 70
    58
 90
        3
176
     1
 90
        2
176
     1
 90
        0
176
     1
 90
        0
176
     1
 40
0.6
176
     1
 40
30.0
176
     1
 62
     7
420
 16777215
176
     1
 90
        2
176
     1
 90
        2
176
     1
 62
     7
176
     1
 62
   257
176
     1
 90
        1
176
     1
 90
        1
176
     1
 40
179.0
176
     1
 90
        8
176
     1
 62
     7
176
     1
 40
1.0
176
     1
 90
        1
176
     1
 90
        6
176
     1
 90
        2
176
     1
 62
     7
176
     1
 90
        3
176
     1
 90
        0
176
     1
 90
        0
176
     1
290
     0
176
     1
 90
        1
176
     1
 40
0.0
176
     1
 90
        0
176
     1
290
     0
176
     1
290
     1
176
     1
290
     1
176
     1
290
     0
176
     1
290
     0
176
     1
290
     0
176
     1
290
     0
176
     1
290
     0
176
     1
290
     0
176
     1
 90
       50
176
     1
 40
0.0
176
     1
 40
1.0
176
     1
 90
        0
176
     1
 62
    18
420
        0
176
     1
 90
       50
176
     1
 90
        3
176
     1
 62
     5
420
      255
176
     1
290
     0
176
     1
 90
       50
176
     1
 90
       50
176
     1
 90
       50
176
     1
290
     0
176
     1
 90
       50
176
     1
 62
   256
176
     0
 40
1.0
176
     0
 90
        2
176
     1
  1
strokes_ogs.tif
176
     1
290
     0
176
     1
 40
1.0
176
     1
 40
1.0
176
     1
1001
ACAD
1000
AcDbSavedByObjectVersion
1070
     0
  0
VISUALSTYLE
  5
35
102
{ACAD_REACTORS
330
2A
102
}
330
2A
100
AcDbVisualStyle
  2

 70
    11
177
     3
291
     1
 70
    58
 90
        2
176
     1
 90
        2
176
     1
 90
        0
176
     1
 90
        0
176
     1
 40
0.6
176
     1
 40
30.0
176
     1
 62
     7
420
 16777215
176
     1
 90
        1
176
     1
 90
        4
176
     1
 62
     7
176
     1
 62
   257
176
     1
 90
        1
176
     1
 90
        1
176
     1
 40
1.0
176
     1
 90
        8
176
     1
 62
     7
176
     1
 40
1.0
176
     1
 90
        1
176
     1
 90
        6
176
     1
 90
        2
176
     1
 62
     7
176
     1
 90
        5
176
     1
 90
        0
176
     1
 90
        0
176
     1
290
     0
176
     1
 90
        1
176
     1
 40
-50.0
176
     1
 90
        0
176
     1
290
     0
176
     1
290
     1
176
     1
290
     1
176
     1
290
     0
176
     1
290
     0
176
     1
290
     0
176
     1
290
     0
176
     1
290
     0
176
     1
290
     0
176
     1
 90
       50
176
     1
 40
0.0
176
     1
 40
1.0
176
     1
 90
        0
176
     1
 62
    18
420
        0
176
     1
 90
       50
176
     1
 90
        3
176
     1
 62
     5
420
      255
176
     1
290
     0
176
     1
 90
       50
176
     1
 90
       50
176
     1
 90
       50
176
     1
290
     0
176
     1
 90
       50
176
     1
 62
   256
176
     0
 40
1.0
176
     0
 90
        2
176
     1
  1
strokes_ogs.tif
176
     1
290
     0
176
     1
 40
1.0
176
     1
 40
1.0
176
     1
1001
ACAD
1000
AcDbSavedByObjectVersion
1070
     0
  0
VISUALSTYLE
  5
3D
102
{ACAD_REACTORS
330
2A
102
}
330
2A
100
AcDbVisualStyle
  2

 70
    22
177
     3
291
     1
 70
    58
 90
        2
176
     0
 90
        2
176
     0
 90
        0
176
     0
 90
        0
176
     0
 40
0.6
176
     0
 40
30.0
176
     0
 62
     7
420
 16777215
176
     0
 90
        1
176
     0
 90
        4
176
     0
 62
     7
176
     0
 62
   257
176
     0
 90
        1
176
     0
 90
        1
176
     0
 40
1.0
176
     0
 90
        8
176
     2
 62
     7
176
     0
 40
1.0
176
     0
 90
        1
176
     0
 90
        6
176
     0
 90
        2
176
     0
 62
     7
176
     0
 90
        5
176
     0
 90
        0
176
     0
 90
        0
176
     0
290
     0
176
     0
 90
        1
176
     0
 40
0.0
176
     0
 90
        0
176
     0
290
     0
176
     0
290
     1
176
     0
290
     1
176
     0
290
     0
176
     0
290
     0
176
     0
290
     0
176
     0
290
     0
176
     0
290
     0
176
     0
290
     0
176
     0
 90
       50
176
     0
 40
0.0
176
     0
 40
1.0
176
     0
 90
        0
176
     0
 62
    18
420
        0
176
     0
 90
       50
176
     0
 90
        3
176
     0
 62
     5
420
      255
176
     0
290
     0
176
     0
 90
       50
176
     0
 90
       50
176
     0
 90
       50
176
     0
290
     0
176
     0
 90
       50
176
     0
 62
   256
176
     0
 40
1.0
176
     0
 90
        2
176
     0
  1
strokes_ogs.tif
176
     0
290
     0
176
     0
 40
1.0
176
     0
 40
1.0
176
     0
1001
ACAD
1000
AcDbSavedByObjectVersion
1070
     0
  0
VISUALSTYLE
  5
39
102
{ACAD_REACTORS
330
2A
102
}
330
2A
100
AcDbVisualStyle
  2

 70
    15
177
     3
291
     1
 70
    58
 90
        2
176
     1
 90
        2
176
     1
 90
        0
176
     1
 90
        0
176
     1
 40
0.6
176
     1
 40
30.0
176
     1
 62
     7
420
 16777215
176
     1
 90
        1
176
     1
 90
        4
176
     1
 62
     7
176
     1
 62
   257
176
     1
 90
        1
176
     1
 90
        1
176
     1
 40
1.0
176
     1
 90
        8
176
     1
 62
     7
176
     1
 40
1.0
176
     1
 90
        1
176
     1
 90
        6
176
     1
 90
        2
176
     1
 62
     7
176
     1
 90
        5
176
     1
 90
        0
176
     1
 90
        0
176
     1
290
     0
176
     1
 90
        1
176
     1
 40
0.0
176
     1
 90
        0
176
     1
290
     0
176
     1
290
     1
176
     1
290
     1
176
     1
290
     0
176
     1
290
     0
176
     1
290
     0
176
     1
290
     0
176
     1
290
     0
176
     1
290
     0
176
     1
 90
       50
176
     1
 40
0.0
176
     1
 40
1.0
176
     1
 90
        0
176
     1
 62
    18
420
        0
176
     1
 90
       50
176
     1
 90
        3
176
     1
 62
     5
420
      255
176
     1
290
     0
176
     1
 90
       50
176
     1
 90
       50
176
     1
 90
       50
176
     1
290
     0
176
     1
 90
       50
176
     1
 62
   256
176
     0
 40
1.0
176
     0
 90
        2
176
     1
  1
strokes_ogs.tif
176
     1
290
     0
176
     1
 40
1.0
176
     1
 40
1.0
176
     1
1001
ACAD
1000
AcDbSavedByObjectVersion
1070
     0
  0
VISUALSTYLE
  5
2B
102
{ACAD_REACTORS
330
2A
102
}
330
2A
100
AcDbVisualStyle
  2

 70
     0
177
     3
291
     1
 70
    58
 90
        2
176
     1
 90
        1
176
     1
 90
        1
176
     1
 90
        2
176
     1
 40
0.6
176
     1
 40
30.0
176
     1
 62
     7
420
 16777215
176
     1
 90
        0
176
     1
 90
        0
176
     1
 62
     7
176
     1
 62
   257
176
     1
 90
        1
176
     1
 90
        1
176
     1
 40
1.0
176
     1
 90
        8
176
     1
 62
     7
176
     1
 40
1.0
176
     1
 90
        1
176
     1
 90
        6
176
     1
 90
        2
176
     1
 62
     7
176
     1
 90
        5
176
     1
 90
        0
176
     1
 90
        0
176
     1
290
     0
176
     1
 90
       13
176
     1
 40
0.0
176
     1
 90
        0
176
     1
290
     0
176
     1
290
     1
176
     1
290
     1
176
     1
290
     0
176
     1
290
     0
176
     1
290
     0
176
     1
290
     0
176
     1
290
     0
176
     1
290
     0
176
     1
 90
       50
176
     1
 40
0.0
176
     1
 40
1.0
176
     1
 90
        0
176
     1
 62
    18
420
        0
176
     1
 90
       50
176
     1
 90
        3
176
     1
 62
     5
420
      255
176
     1
290
     0
176
     1
 90
       50
176
     1
 90
       50
176
     1
 90
       50
176
     1
290
     0
176
     1
 90
       50
176
     1
 62
   256
176
     0
 40
1.0
176
     0
 90
        2
176
     1
  1
strokes_ogs.tif
176
     1
290
     0
176
     1
 40
1.0
176
     1
 40
1.0
176
     1
1001
ACAD
1000
AcDbSavedByObjectVersion
1070
     0
  0
VISUALSTYLE
  5
2C
102
{ACAD_REACTORS
330
2A
102
}
330
2A
100
AcDbVisualStyle
  2

 70
     1
177
     3
291
     1
 70
    58
 90
        2
176
     1
 90
        1
176
     1
 90
        1
176
     1
 90
        2
176
     1
 40
0.6
176
     1
 40
30.0
176
     1
 62
     7
420
 16777215
176
     1
 90
        1
176
     1
 90
        0
176
     1
 62
     7
176
     1
 62
   257
176
     1
 90
        1
176
     1
 90
        1
176
     1
 40
1.0
176
     1
 90
        0
176
     1
 62
   257
176
     1
 40
1.0
176
     1
 90
        1
176
     1
 90
        6
176
     1
 90
        2
176
     1
 62
     7
176
     1
 90
        5
176
     1
 90
        0
176
     1
 90
        0
176
     1
290
     0
176
     1
 90
       13
176
     1
 40
0.0
176
     1
 90
        0
176
     1
290
     0
176
     1
290
     1
176
     1
290
     1
176
     1
290
     0
176
     1
290
     0
176
     1
290
     0
176
     1
290
     0
176
     1
290
     0
176
     1
290
     0
176
     1
 90
       50
176
     1
 40
0.0
176
     1
 40
1.0
176
     1
 90
        0
176
     1
 62
    18
420
        0
176
     1
 90
       50
176
     1
 90
        3
176
     1
 62
     5
420
      255
176
     1
290
     0
176
     1
 90
       50
176
     1
 90
       50
176
     1
 90
       50
176
     1
290
     0
176
     1
 90
       50
176
     1
 62
   256
176
     0
 40
1.0
176
     0
 90
        2
176
     1
  1
strokes_ogs.tif
176
     1
290
     0
176
     1
 40
1.0
176
     1
 40
1.0
176
     1
1001
ACAD
1000
AcDbSavedByObjectVersion
1070
     0
  0
VISUALSTYLE
  5
2D
102
{ACAD_REACTORS
330
2A
102
}
330
2A
100
AcDbVisualStyle
  2

 70
     2
177
     3
291
     1
 70
    58
 90
        2
176
     1
 90
        2
176
     1
 90
        1
176
     1
 90
        2
176
     1
 40
0.6
176
     1
 40
30.0
176
     1
 62
     7
420
 16777215
176
     1
 90
        0
176
     1
 90
        0
176
     1
 62
     7
176
     1
 62
   257
176
     1
 90
        1
176
     1
 90
        1
176
     1
 40
1.0
176
     1
 90
        0
176
     1
 62
     7
176
     1
 40
1.0
176
     1
 90
        1
176
     1
 90
        6
176
     1
 90
        2
176
     1
 62
     7
176
     1
 90
        5
176
     1
 90
        0
176
     1
 90
        0
176
     1
290
     0
176
     1
 90
       13
176
     1
 40
0.0
176
     1
 90
        0
176
     1
290
     0
176
     1
290
     1
176
     1
290
     1
176
     1
290
     0
176
     1
290
     0
176
     1
290
     0
176
     1
290
     0
176
     1
290
     0
176
     1
290
     0
176
     1
 90
       50
176
     1
 40
0.0
176
     1
 40
1.0
176
     1
 90
        0
176
     1
 62
    18
420
        0
176
     1
 90
       50
176
     1
 90
        3
176
     1
 62
     5
420
      255
176
     1
290
     0
176
     1
 90
       50
176
     1
 90
       50
176
     1
 90
       50
176
     1
290
     0
176
     1
 90
       50
176
     1
 62
   256
176
     0
 40
1.0
176
     0
 90
        2
176
     1
  1
strokes_ogs.tif
176
     1
290
     0
176
     1
 40
1.0
176
     1
 40
1.0
176
     1
1001
ACAD
1000
AcDbSavedByObjectVersion
1070
     0
  0
VISUALSTYLE
  5
2E
102
{ACAD_REACTORS
330
2A
102
}
330
2A
100
AcDbVisualStyle
  2

 70
     3
177
     3
291
     1
 70
    58
 90
        2
176
     1
 90
        2
176
     1
 90
        1
176
     1
 90
        2
176
     1
 40
0.6
176
     1
 40
30.0
176
     1
 62
     7
420
 16777215
176
     1
 90
        1
176
     1
 90
        0
176
     1
 62
     7
176
     1
 62
   257
176
     1
 90
        1
176
     1
 90
        1
176
     1
 40
1.0
176
     1
 90
        0
176
     1
 62
   257
176
     1
 40
1.0
176
     1
 90
        1
176
     1
 90
        6
176
     1
 90
        2
176
     1
 62
     7
176
     1
 90
        5
176
     1
 90
        0
176
     1
 90
        0
176
     1
290
     0
176
     1
 90
       13
176
     1
 40
0.0
176
     1
 90
        0
176
     1
290
     0
176
     1
290
     1
176
     1
290
     1
176
     1
290
     0
176
     1
290
     0
176
     1
290
     0
176
     1
290
     0
176
     1
290
     0
176
     1
290
     0
176
     1
 90
       50
176
     1
 40
0.0
176
     1
 40
1.0
176
     1
 90
        0
176
     1
 62
    18
420
        0
176
     1
 90
       50
176
     1
 90
        3
176
     1
 62
     5
420
      255
176
     1
290
     0
176
     1
 90
       50
176
     1
 90
       50
176
     1
 90
       50
176
     1
290
     0
176
     1
 90
       50
176
     1
 62
   256
176
     0
 40
1.0
176
     0
 90
        2
176
     1
  1
strokes_ogs.tif
176
     1
290
     0
176
     1
 40
1.0
176
     1
 40
1.0
176
     1
1001
ACAD
1000
AcDbSavedByObjectVersion
1070
     0
  0
VISUALSTYLE
  5
31
102
{ACAD_REACTORS
330
2A
102
}
330
2A
100
AcDbVisualStyle
  2

 70
     6
177
     3
291
     0
 70
    58
 90
        1
176
     1
 90
        2
176
     1
 90
        2
176
     1
 90
        0
176
     1
 40
0.6
176
     1
 40
30.0
176
     1
 62
     7
420
 16777215
176
     1
 90
        2
176
     1
 90
        2
176
     1
 62
     7
176
     1
 62
   257
176
     1
 90
        2
176
     1
 90
        1
176
     1
 40
40.0
176
     1
 90
        0
176
     1
 62
   257
176
     1
 40
1.0
176
     1
 90
        1
176
     1
 90
        6
176
     1
 90
        2
176
     1
 62
     7
176
     1
 90
        3
176
     1
 90
        0
176
     1
 90
        0
176
     1
290
     0
176
     1
 90
        1
176
     1
 40
0.0
176
     1
 90
        0
176
     1
290
     0
176
     1
290
     1
176
     1
290
     1
176
     1
290
     0
176
     1
290
     0
176
     1
290
     0
176
     1
290
     0
176
     1
290
     0
176
     1
290
     0
176
     1
 90
       50
176
     1
 40
0.0
176
     1
 40
1.0
176
     1
 90
        0
176
     1
 62
    18
420
        0
176
     1
 90
       50
176
     1
 90
        3
176
     1
 62
     5
420
      255
176
     1
290
     0
176
     1
 90
       50
176
     1
 90
       50
176
     1
 90
       50
176
     1
290
     0
176
     1
 90
       50
176
     1
 62
   256
176
     0
 40
1.0
176
     0
 90
        2
176
     1
  1
strokes_ogs.tif
176
     1
290
     0
176
     1
 40
1.0
176
     1
 40
1.0
176
     1
1001
ACAD
1000
AcDbSavedByObjectVersion
1070
     0
  0
VISUALSTYLE
  5
3B
102
{ACAD_REACTORS
330
2A
102
}
330
2A
100
AcDbVisualStyle
  2

 70
    20
177
     3
291
     1
 70
    58
 90
        2
176
     0
 90
        2
176
     0
 90
        0
176
     0
 90
        0
176
     0
 40
0.6
176
     0
 40
30.0
176
     0
 62
     7
420
 16777215
176
     0
 90
        1
176
     0
 90
        4
176
     0
 62
     7
176
     0
 62
   257
176
     0
 90
        1
176
     0
 90
        1
176
     0
 40
1.0
176
     0
 90
       10
176
     2
 62
     7
176
     0
 40
1.0
176
     0
 90
        1
176
     0
 90
        6
176
     0
 90
        2
176
     0
 62
     7
176
     0
 90
        5
176
     0
 90
        0
176
     0
 90
        0
176
     0
290
     0
176
     0
 90
        1
176
     0
 40
0.0
176
     0
 90
        0
176
     0
290
     0
176
     0
290
     1
176
     0
290
     1
176
     0
290
     0
176
     0
290
     0
176
     0
290
     0
176
     0
290
     0
176
     0
290
     0
176
     0
290
     0
176
     0
 90
       50
176
     0
 40
0.0
176
     0
 40
1.0
176
     0
 90
        0
176
     0
 62
    18
420
        0
176
     0
 90
       50
176
     0
 90
        3
176
     0
 62
     5
420
      255
176
     0
290
     0
176
     0
 90
       50
176
     0
 90
       50
176
     0
 90
       50
176
     0
290
     0
176
     0
 90
       50
176
     0
 62
   256
176
     0
 40
1.0
176
     0
 90
        2
176
     0
  1
strokes_ogs.tif
176
     0
290
     0
176
     0
 40
1.0
176
     0
 40
1.0
176
     0
1001
ACAD
1000
AcDbSavedByObjectVersion
1070
     0
  0
VISUALSTYLE
  5
38
102
{ACAD_REACTORS
330
2A
102
}
330
2A
100
AcDbVisualStyle
  2

 70
    14
177
     3
291
     1
 70
    58
 90
        2
176
     1
 90
        2
176
     1
 90
        0
176
     1
 90
        0
176
     1
 40
0.6
176
     1
 40
30.0
176
     1
 62
     7
420
 16777215
176
     1
 90
        1
176
     1
 90
        4
176
     1
 62
     7
176
     1
 62
   257
176
     1
 90
        7
176
     1
 90
        7
176
     1
 40
1.0
176
     1
 90
        8
176
     1
 62
     7
176
     1
 40
1.0
176
     1
 90
        1
176
     1
 90
        6
176
     1
 90
        2
176
     1
 62
     7
176
     1
 90
        5
176
     1
 90
        0
176
     1
 90
        0
176
     1
290
     0
176
     1
 90
        1
176
     1
 40
0.0
176
     1
 90
        0
176
     1
290
     0
176
     1
290
     1
176
     1
290
     1
176
     1
290
     0
176
     1
290
     0
176
     1
290
     0
176
     1
290
     0
176
     1
290
     0
176
     1
290
     0
176
     1
 90
       50
176
     1
 40
0.0
176
     1
 40
1.0
176
     1
 90
        0
176
     1
 62
    18
420
        0
176
     1
 90
       50
176
     1
 90
        3
176
     1
 62
     5
420
      255
176
     1
290
     0
176
     1
 90
       50
176
     1
 90
       50
176
     1
 90
       50
176
     1
290
     0
176
     1
 90
       50
176
     1
 62
   256
176
     0
 40
1.0
176
     0
 90
        2
176
     1
  1
strokes_ogs.tif
176
     1
290
     0
176
     1
 40
1.0
176
     1
 40
1.0
176
     1
1001
ACAD
1000
AcDbSavedByObjectVersion
1070
     0
  0
VISUALSTYLE
  5
3C
102
{ACAD_REACTORS
330
2A
102
}
330
2A
100
AcDbVisualStyle
  2

 70
    21
177
     3
291
     1
 70
    58
 90
        2
176
     0
 90
        2
176
     0
 90
        0
176
     0
 90
        0
176
     0
 40
0.6
176
     0
 40
30.0
176
     0
 62
     7
420
 16777215
176
     0
 90
        1
176
     0
 90
        4
176
     0
 62
     7
176
     0
 62
   257
176
     0
 90
        1
176
     0
 90
        1
176
     0
 40
1.0
176
     0
 90
        9
176
     2
 62
     7
176
     0
 40
1.0
176
     0
 90
        1
176
     0
 90
        6
176
     0
 90
        2
176
     0
 62
     7
176
     0
 90
        5
176
     0
 90
        0
176
     0
 90
        0
176
     0
290
     0
176
     0
 90
        1
176
     0
 40
0.0
176
     0
 90
        0
176
     0
290
     0
176
     0
290
     1
176
     0
290
     1
176
     0
290
     0
176
     0
290
     0
176
     0
290
     0
176
     0
290
     0
176
     0
290
     0
176
     0
290
     0
176
     0
 90
       50
176
     0
 40
0.0
176
     0
 40
1.0
176
     0
 90
        0
176
     0
 62
    18
420
        0
176
     0
 90
       50
176
     0
 90
        3
176
     0
 62
     5
420
      255
176
     0
290
     0
176
     0
 90
       50
176
     0
 90
       50
176
     0
 90
       50
176
     0
290
     0
176
     0
 90
       50
176
     0
 62
   256
176
     0
 40
1.0
176
     0
 90
        2
176
     0
  1
strokes_ogs.tif
176
     0
290
     0
176
     0
 40
1.0
176
     0
 40
1.0
176
     0
1001
ACAD
1000
AcDbSavedByObjectVersion
1070
     0
  0
VISUALSTYLE
  5
33
102
{ACAD_REACTORS
330
2A
102
}
330
2A
100
AcDbVisualStyle
  2

 70
     8
177
     3
291
     0
 70
    58
 90
        2
176
     1
 90
        3
176
     1
 90
        0
176
     1
 90
        2
176
     1
 40
0.6
176
     1
 40
30.0
176
     1
 62
     7
420
 16777215
176
     1
 90
        0
176
     1
 90
        0
176
     1
 62
     7
176
     1
 62
   257
176
     1
 90
        1
176
     1
 90
        1
176
     1
 40
1.0
176
     1
 90
        8
176
     1
 62
   257
176
     1
 40
1.0
176
     1
 90
        1
176
     1
 90
        6
176
     1
 90
        2
176
     1
 62
     7
176
     1
 90
        3
176
     1
 90
        0
176
     1
 90
        0
176
     1
290
     0
176
     1
 90
       13
176
     1
 40
0.0
176
     1
 90
        0
176
     1
290
     0
176
     1
290
     1
176
     1
290
     1
176
     1
290
     0
176
     1
290
     0
176
     1
290
     0
176
     1
290
     0
176
     1
290
     0
176
     1
290
     0
176
     1
 90
       50
176
     1
 40
0.0
176
     1
 40
1.0
176
     1
 90
        0
176
     1
 62
    18
420
        0
176
     1
 90
       50
176
     1
 90
        3
176
     1
 62
     5
420
      255
176
     1
290
     0
176
     1
 90
       50
176
     1
 90
       50
176
     1
 90
       50
176
     1
290
     0
176
     1
 90
       50
176
     1
 62
   256
176
     0
 40
1.0
176
     0
 90
        2
176
     1
  1
strokes_ogs.tif
176
     1
290
     0
176
     1
 40
1.0
176
     1
 40
1.0
176
     1
1001
ACAD
1000
AcDbSavedByObjectVersion
1070
     0
  0
VISUALSTYLE
  5
42
102
{ACAD_REACTORS
330
2A
102
}
330
2A
100
AcDbVisualStyle
  2

 70
    27
177
     3
291
     0
 70
    58
 90
        2
176
     1
 90
        2
176
     1
 90
        1
176
     1
 90
        2
176
     1
 40
0.6
176
     1
 40
30.0
176
     1
 62
     7
420
 16777215
176
     1
 90
        0
176
     1
 90
        4
176
     1
 62
     7
176
     1
 62
   257
176
     1
 90
        1
176
     1
 90
        1
176
     1
 40
1.0
176
     1
 90
        8
176
     1
 62
   257
176
     1
 40
1.0
176
     1
 90
        1
176
     1
 90
        6
176
     1
 90
        2
176
     1
 62
     8
420
  7895160
176
     1
 90
        3
176
     1
 90
        0
176
     1
 90
        0
176
     1
290
     0
176
     1
 90
        5
176
     1
 40
0.0
176
     1
 90
        0
176
     1
290
     0
176
     1
290
     1
176
     1
290
     1
176
     1
290
     0
176
     1
290
     0
176
     1
290
     0
176
     1
290
     0
176
     1
290
     0
176
     1
290
     0
176
     1
 90
       50
176
     1
 40
0.0
176
     1
 40
1.0
176
     1
 90
        0
176
     1
 62
    18
420
        0
176
     1
 90
       50
176
     1
 90
        3
176
     1
 62
     5
420
      255
176
     1
290
     0
176
     1
 90
       50
176
     1
 90
       50
176
     1
 90
       50
176
     1
290
     0
176
     1
 90
       50
176
     1
 62
   256
176
     0
 40
1.0
176
     0
 90
        2
176
     1
  1
strokes_ogs.tif
176
     1
290
     0
176
     1
 40
1.0
176
     1
 40
1.0
176
     1
1001
ACAD
1000
AcDbSavedByObjectVersion
1070
     0
  0
VISUALSTYLE
  5
41
102
{ACAD_REACTORS
330
2A
102
}
330
2A
100
AcDbVisualStyle
  2

 70
    26
177
     3
291
     0
 70
    58
 90
        2
176
     1
 90
        2
176
     1
 90
        1
176
     1
 90
        2
176
     1
 40
0.6
176
     1
 40
30.0
176
     1
 62
     7
420
 16777215
176
     1
 90
        1
176
     1
 90
       10
176
     1
 62
     7
176
     1
 62
   257
176
     1
 90
        2
176
     1
 90
        1
176
     1
 40
1.0
176
     1
 90
        8
176
     1
 62
   257
176
     1
 40
1.0
176
     1
 90
        1
176
     1
 90
        6
176
     1
 90
        2
176
     1
 62
     7
176
     1
 90
        3
176
     1
 90
        0
176
     1
 90
        0
176
     1
290
     0
176
     1
 90
        5
176
     1
 40
0.0
176
     1
 90
        0
176
     1
290
     0
176
     1
290
     1
176
     1
290
     1
176
     1
290
     0
176
     1
290
     0
176
     1
290
     0
176
     1
290
     0
176
     1
290
     0
176
     1
290
     0
176
     1
 90
       50
176
     1
 40
0.0
176
     1
 40
1.0
176
     1
 90
        0
176
     1
 62
    18
420
        0
176
     1
 90
       50
176
     1
 90
        3
176
     1
 62
     5
420
      255
176
     1
290
     0
176
     1
 90
       50
176
     1
 90
       50
176
     1
 90
       50
176
     1
290
     0
176
     1
 90
       50
176
     1
 62
   256
176
     0
 40
1.0
176
     0
 90
        2
176
     1
  1
strokes_ogs.tif
176
     1
290
     0
176
     1
 40
1.0
176
     1
 40
1.0
176
     1
1001
ACAD
1000
AcDbSavedByObjectVersion
1070
     0
  0
VISUALSTYLE
  5
3E
102
{ACAD_REACTORS
330
2A
102
}
330
2A
100
AcDbVisualStyle
  2

 70
    23
177
     3
291
     0
 70
    58
 90
        2
176
     1
 90
        2
176
     1
 90
        3
176
     1
 90
        0
176
     1
 40
0.6
176
     1
 40
30.0
176
     1
 62
     7
420
 16777215
176
     1
 90
        2
176
     1
 90
        2
176
     1
 62
     7
176
     1
 62
     7
176
     1
 90
        1
176
     1
 90
        1
176
     1
 40
40.0
176
     1
 90
        8
176
     1
 62
     7
176
     1
 40
1.0
176
     1
 90
        1
176
     1
 90
        6
176
     1
 90
        2
176
     1
 62
     7
176
     1
 90
        3
176
     1
 90
        0
176
     1
 90
        0
176
     1
290
     0
176
     1
 90
        1
176
     1
 40
0.0
176
     1
 90
        0
176
     1
290
     0
176
     1
290
     1
176
     1
290
     1
176
     1
290
     0
176
     1
290
     0
176
     1
290
     0
176
     1
290
     0
176
     1
290
     0
176
     1
290
     0
176
     1
 90
       50
176
     1
 40
0.0
176
     1
 40
1.0
176
     1
 90
        0
176
     1
 62
    18
420
        0
176
     1
 90
       50
176
     1
 90
        3
176
     1
 62
     5
420
      255
176
     1
290
     0
176
     1
 90
       50
176
     1
 90
       50
176
     1
 90
       50
176
     1
290
     0
176
     1
 90
       50
176
     1
 62
   256
176
     0
 40
1.0
176
     0
 90
        2
176
     1
  1
strokes_ogs.tif
176
     1
290
     0
176
     1
 40
1.0
176
     1
 40
1.0
176
     1
1001
ACAD
1000
AcDbSavedByObjectVersion
1070
     0
  0
VISUALSTYLE
  5
3F
102
{ACAD_REACTORS
330
2A
102
}
330
2A
100
AcDbVisualStyle
  2

 70
    24
177
     3
291
     0
 70
    58
 90
        1
176
     1
 90
        2
176
     1
 90
        2
176
     1
 90
        0
176
     1
 40
0.6
176
     1
 40
30.0
176
     1
 62
     7
420
 16777215
176
     1
 90
        2
176
     1
 90
        2
176
     1
 62
     7
176
     1
 62
     7
176
     1
 90
        1
176
     1
 90
        1
176
     1
 40
40.0
176
     1
 90
       11
176
     1
 62
     7
176
     1
 40
1.0
176
     1
 90
        1
176
     1
 90
        6
176
     1
 90
        2
176
     1
 62
     7
176
     1
 90
        6
176
     1
 90
        0
176
     1
 90
        0
176
     1
290
     0
176
     1
 90
        1
176
     1
 40
0.0
176
     1
 90
        0
176
     1
290
     0
176
     1
290
     1
176
     1
290
     1
176
     1
290
     0
176
     1
290
     0
176
     1
290
     0
176
     1
290
     0
176
     1
290
     0
176
     1
290
     0
176
     1
 90
       50
176
     1
 40
0.0
176
     1
 40
1.0
176
     1
 90
        0
176
     1
 62
    18
420
        0
176
     1
 90
       50
176
     1
 90
        3
176
     1
 62
     5
420
      255
176
     1
290
     0
176
     1
 90
       50
176
     1
 90
       50
176
     1
 90
       50
176
     1
290
     0
176
     1
 90
       50
176
     1
 62
   256
176
     0
 40
1.0
176
     0
 90
        2
176
     1
  1
strokes_ogs.tif
176
     1
290
     0
176
     1
 40
1.0
176
     1
 40
1.0
176
     1
1001
ACAD
1000
AcDbSavedByObjectVersion
1070
     0
  0
VISUALSTYLE
  5
37
102
{ACAD_REACTORS
330
2A
102
}
330
2A
100
AcDbVisualStyle
  2

 70
    13
177
     3
291
     1
 70
    58
 90
        2
176
     1
 90
        2
176
     1
 90
        0
176
     1
 90
        0
176
     1
 40
0.6
176
     1
 40
30.0
176
     1
 62
     7
420
 16777215
176
     1
 90
        1
176
     1
 90
        4
176
     1
 62
     7
176
     1
 62
   257
176
     1
 90
        1
176
     1
 90
        1
176
     1
 40
1.0
176
     1
 90
       12
176
     1
 62
     7
176
     1
 40
1.0
176
     1
 90
        1
176
     1
 90
        6
176
     1
 90
        2
176
     1
 62
     7
176
     1
 90
        5
176
     1
 90
        0
176
     1
 90
        0
176
     1
290
     0
176
     1
 90
        1
176
     1
 40
0.0
176
     1
 90
        0
176
     1
290
     0
176
     1
290
     1
176
     1
290
     1
176
     1
290
     0
176
     1
290
     0
176
     1
290
     0
176
     1
290
     0
176
     1
290
     0
176
     1
290
     0
176
     1
 90
       50
176
     1
 40
0.0
176
     1
 40
1.0
176
     1
 90
        0
176
     1
 62
    18
420
        0
176
     1
 90
       50
176
     1
 90
        3
176
     1
 62
     5
420
      255
176
     1
290
     0
176
     1
 90
       50
176
     1
 90
       50
176
     1
 90
       50
176
     1
290
     0
176
     1
 90
       50
176
     1
 62
   256
176
     0
 40
1.0
176
     0
 90
        2
176
     1
  1
strokes_ogs.tif
176
     1
290
     0
176
     1
 40
1.0
176
     1
 40
1.0
176
     1
1001
ACAD
1000
AcDbSavedByObjectVersion
1070
     0
  0
VISUALSTYLE
  5
30
102
{ACAD_REACTORS
330
2A
102
}
330
2A
100
AcDbVisualStyle
  2

 70
     5
177
     3
291
     0
 70
    58
 90
        0
176
     1
 90
        2
176
     1
 90
        0
176
     1
 90
        0
176
     1
 40
0.6
176
     1
 40
30.0
176
     1
 62
     7
420
 16777215
176
     1
 90
        1
176
     1
 90
        4
176
     1
 62
     7
176
     1
 62
   257
176
     1
 90
        1
176
     1
 90
        1
176
     1
 40
1.0
176
     1
 90
        0
176
     1
 62
   257
176
     1
 40
1.0
176
     1
 90
        1
176
     1
 90
        6
176
     1
 90
        2
176
     1
 62
     7
176
     1
 90
        3
176
     1
 90
        0
176
     1
 90
        0
176
     1
290
     0
176
     1
 90
        1
176
     1
 40
0.0
176
     1
 90
        0
176
     1
290
     0
176
     1
290
     1
176
     1
290
     1
176
     1
290
     0
176
     1
290
     0
176
     1
290
     0
176
     1
290
     0
176
     1
290
     0
176
     1
290
     0
176
     1
 90
       50
176
     1
 40
0.0
176
     1
 40
1.0
176
     1
 90
        0
176
     1
 62
    18
420
        0
176
     1
 90
       50
176
     1
 90
        3
176
     1
 62
     5
420
      255
176
     1
290
     0
176
     1
 90
       50
176
     1
 90
       50
176
     1
 90
       50
176
     1
290
     0
176
     1
 90
       50
176
     1
 62
   256
176
     0
 40
1.0
176
     0
 90
        2
176
     1
  1
strokes_ogs.tif
176
     1
290
     0
176
     1
 40
1.0
176
     1
 40
1.0
176
     1
1001
ACAD
1000
AcDbSavedByObjectVersion
1070
     0
  0
VISUALSTYLE
  5
40
102
{ACAD_REACTORS
330
2A
102
}
330
2A
100
AcDbVisualStyle
  2

 70
    25
177
     3
291
     0
 70
    58
 90
        2
176
     1
 90
        2
176
     1
 90
        1
176
     1
 90
        1
176
     1
 40
0.5
176
     1
 40
30.0
176
     1
 62
     7
420
 16777215
176
     1
 90
        1
176
     1
 90
        0
176
     1
 62
     7
176
     1
 62
   257
176
     1
 90
        1
176
     1
 90
        1
176
     1
 40
1.0
176
     1
 90
        8
176
     1
 62
     7
176
     1
 40
1.0
176
     1
 90
        1
176
     1
 90
        6
176
     1
 90
        2
176
     1
 62
     7
176
     1
 90
        3
176
     1
 90
        0
176
     1
 90
        0
176
     1
290
     0
176
     1
 90
       13
176
     1
 40
0.0
176
     1
 90
        0
176
     1
290
     0
176
     1
290
     1
176
     1
290
     1
176
     1
290
     0
176
     1
290
     0
176
     1
290
     0
176
     1
290
     0
176
     1
290
     0
176
     1
290
     0
176
     1
 90
       50
176
     1
 40
0.0
176
     1
 40
1.0
176
     1
 90
        0
176
     1
 62
    18
420
        0
176
     1
 90
       50
176
     1
 90
        3
176
     1
 62
     5
420
      255
176
     1
290
     0
176
     1
 90
       50
176
     1
 90
       50
176
     1
 90
       50
176
     1
290
     0
176
     1
 90
       50
176
     1
 62
   256
176
     0
 40
1.0
176
     0
 90
        2
176
     1
  1
strokes_ogs.tif
176
     1
290
     0
176
     1
 40
1.0
176
     1
 40
1.0
176
     1
1001
ACAD
1000
AcDbSavedByObjectVersion
1070
     0
  0
DICTIONARYVAR
  5
230
102
{ACAD_REACTORS
330
22F
102
}
330
22F
100
DictionaryVariables
280
     0
  1
1:1
  0
DICTIONARYVAR
  5
271
102
{ACAD_REACTORS
330
22F
102
}
330
22F
100
DictionaryVariables
280
     0
  1
STANDARD
  0
DICTIONARYVAR
  5
270
102
{ACAD_REACTORS
330
22F
102
}
330
22F
100
DictionaryVariables
280
     0
  1
STANDARD
  0
DICTIONARYVAR
  5
292
102
{ACAD_REACTORS
330
22F
102
}
330
22F
100
DictionaryVariables
280
     0
  1
Metric50
  0
DICTIONARYVAR
  5
293
102
{ACAD_REACTORS
330
22F
102
}
330
22F
100
DictionaryVariables
280
     0
  1
Metric50
  0
DICTIONARYVAR
  5
295
102
{ACAD_REACTORS
330
22F
102
}
330
22F
100
DictionaryVariables
280
     0
  1
1
  0
DICTIONARYVAR
  5
296
102
{ACAD_REACTORS
330
22F
102
}
330
22F
100
DictionaryVariables
280
     0
  1
15
  0
DICTIONARYVAR
  5
294
102
{ACAD_REACTORS
330
22F
102
}
330
22F
100
DictionaryVariables
280
     0
  1
0
  0
DICTIONARYVAR
  5
231
102
{ACAD_REACTORS
330
22F
102
}
330
22F
100
DictionaryVariables
280
     0
  1
1
  0
DICTIONARY
  5
29B
330
278
100
AcDbDictionary
280
     1
281
     1
  3
ACAD_XREC_ROUNDTRIP
360
29C
  0
DICTIONARY
  5
265
330
45
100
AcDbDictionary
280
     1
281
     1
  3
ACAD_XREC_ROUNDTRIP
360
266
  0
DICTIONARY
  5
263
330
44
100
AcDbDictionary
280
     1
281
     1
  3
ACAD_XREC_ROUNDTRIP
360
264
  0
DICTIONARY
  5
267
330
46
100
AcDbDictionary
280
     1
281
     1
  3
ACAD_XREC_ROUNDTRIP
360
268
  0
DICTIONARY
  5
299
330
277
100
AcDbDictionary
280
     1
281
     1
  3
ACAD_XREC_ROUNDTRIP
360
29A
  0
DICTIONARY
  5
269
330
6A
100
AcDbDictionary
280
     1
281
     1
  3
ACAD_ROUNDTRIP_2008_TABLESTYLE_CELLSTYLEMAP
360
297
  0
XRECORD
  5
29C
102
{ACAD_REACTORS
330
29B
102
}
330
29B
100
AcDbXrecord
280
     1
102
DISPLAYNAME
  1
Metric50
102
FLAGS
 90
        0
  0
XRECORD
  5
266
102
{ACAD_REACTORS
330
265
102
}
330
265
100
AcDbXrecord
280
     1
102
MATERIAL
148
0.0
149
0.0
149
0.0
 93
        0
 94
      127
282
     0
 72
     1
 77
     1
171
     1
175
     1
179
     1
273
     0
  0
XRECORD
  5
264
102
{ACAD_REACTORS
330
263
102
}
330
263
100
AcDbXrecord
280
     1
102
MATERIAL
148
0.0
149
0.0
149
0.0
 93
        0
 94
      127
282
     0
 72
     1
 77
     1
171
     1
175
     1
179
     1
273
     0
  0
XRECORD
  5
268
102
{ACAD_REACTORS
330
267
102
}
330
267
100
AcDbXrecord
280
     1
102
MATERIAL
148
0.0
149
0.0
149
0.0
 93
        0
 94
      127
282
     0
 72
     1
 77
     1
171
     1
175
     1
179
     1
273
     0
  0
XRECORD
  5
29A
102
{ACAD_REACTORS
330
299
102
}
330
299
100
AcDbXrecord
280
     1
102
DISPLAYNAME
  1
Metric50
102
FLAGS
 90
        0
  0
CELLSTYLEMAP
  5
297
102
{ACAD_REACTORS
330
269
102
}
330
269
100
AcDbCellStyleMap
 90
        3
300
CELLSTYLE
  1
TABLEFORMAT_BEGIN
 90
        5
170
     1
 91
        0
 92
    32768
 62
   257
 93
        1
300
CONTENTFORMAT
  1
CONTENTFORMAT_BEGIN
 90
        0
 91
        0
 92
        4
 93
        0
300

 40
0.0
140
1.0
 94
        5
 62
     0
340
11
144
0.25
309
CONTENTFORMAT_END
171
     1
301
MARGIN
  1
CELLMARGIN_BEGIN
 40
0.06
 40
0.06
 40
0.06
 40
0.06
 40
0.18
 40
0.18
309
CELLMARGIN_END
 94
        6
 95
        1
302
GRIDFORMAT
  1
GRIDFORMAT_BEGIN
 90
        0
 91
        1
 62
     0
 92
       -2
340
14
 93
        0
 40
0.045
309
GRIDFORMAT_END
 95
        2
302
GRIDFORMAT
  1
GRIDFORMAT_BEGIN
 90
        0
 91
        1
 62
     0
 92
       -2
340
14
 93
        0
 40
0.045
309
GRIDFORMAT_END
 95
        4
302
GRIDFORMAT
  1
GRIDFORMAT_BEGIN
 90
        0
 91
        1
 62
     0
 92
       -2
340
14
 93
        0
 40
0.045
309
GRIDFORMAT_END
 95
        8
302
GRIDFORMAT
  1
GRIDFORMAT_BEGIN
 90
        0
 91
        1
 62
     0
 92
       -2
340
14
 93
        0
 40
0.045
309
GRIDFORMAT_END
 95
       16
302
GRIDFORMAT
  1
GRIDFORMAT_BEGIN
 90
        0
 91
        1
 62
     0
 92
       -2
340
14
 93
        0
 40
0.045
309
GRIDFORMAT_END
 95
       32
302
GRIDFORMAT
  1
GRIDFORMAT_BEGIN
 90
        0
 91
        1
 62
     0
 92
       -2
340
14
 93
        0
 40
0.045
309
GRIDFORMAT_END
309
TABLEFORMAT_END
  1
CELLSTYLE_BEGIN
 90
        1
 91
        1
300
_TITLE
309
CELLSTYLE_END
300
CELLSTYLE
  1
TABLEFORMAT_BEGIN
 90
        5
170
     1
 91
        0
 92
        0
 62
   257
 93
        1
300
CONTENTFORMAT
  1
CONTENTFORMAT_BEGIN
 90
        0
 91
        0
 92
        4
 93
        0
300

 40
0.0
140
1.0
 94
        5
 62
     0
340
11
144
0.18
309
CONTENTFORMAT_END
171
     1
301
MARGIN
  1
CELLMARGIN_BEGIN
 40
0.06
 40
0.06
 40
0.06
 40
0.06
 40
0.18
 40
0.18
309
CELLMARGIN_END
 94
        6
 95
        1
302
GRIDFORMAT
  1
GRIDFORMAT_BEGIN
 90
        0
 91
        1
 62
     0
 92
       -2
340
14
 93
        0
 40
0.045
309
GRIDFORMAT_END
 95
        2
302
GRIDFORMAT
  1
GRIDFORMAT_BEGIN
 90
        0
 91
        1
 62
     0
 92
       -2
340
14
 93
        0
 40
0.045
309
GRIDFORMAT_END
 95
        4
302
GRIDFORMAT
  1
GRIDFORMAT_BEGIN
 90
        0
 91
        1
 62
     0
 92
       -2
340
14
 93
        0
 40
0.045
309
GRIDFORMAT_END
 95
        8
302
GRIDFORMAT
  1
GRIDFORMAT_BEGIN
 90
        0
 91
        1
 62
     0
 92
       -2
340
14
 93
        0
 40
0.045
309
GRIDFORMAT_END
 95
       16
302
GRIDFORMAT
  1
GRIDFORMAT_BEGIN
 90
        0
 91
        1
 62
     0
 92
       -2
340
14
 93
        0
 40
0.045
309
GRIDFORMAT_END
 95
       32
302
GRIDFORMAT
  1
GRIDFORMAT_BEGIN
 90
        0
 91
        1
 62
     0
 92
       -2
340
14
 93
        0
 40
0.045
309
GRIDFORMAT_END
309
TABLEFORMAT_END
  1
CELLSTYLE_BEGIN
 90
        2
 91
        1
300
_HEADER
309
CELLSTYLE_END
300
CELLSTYLE
  1
TABLEFORMAT_BEGIN
 90
        5
170
     1
 91
        0
 92
        0
 62
   257
 93
        1
300
CONTENTFORMAT
  1
CONTENTFORMAT_BEGIN
 90
        0
 91
        0
 92
        4
 93
        0
300

 40
0.0
140
1.0
 94
        2
 62
     0
340
11
144
0.18
309
CONTENTFORMAT_END
171
     1
301
MARGIN
  1
CELLMARGIN_BEGIN
 40
0.06
 40
0.06
 40
0.06
 40
0.06
 40
0.18
 40
0.18
309
CELLMARGIN_END
 94
        6
 95
        1
302
GRIDFORMAT
  1
GRIDFORMAT_BEGIN
 90
        0
 91
        1
 62
     0
 92
       -2
340
14
 93
        0
 40
0.045
309
GRIDFORMAT_END
 95
        2
302
GRIDFORMAT
  1
GRIDFORMAT_BEGIN
 90
        0
 91
        1
 62
     0
 92
       -2
340
14
 93
        0
 40
0.045
309
GRIDFORMAT_END
 95
        4
302
GRIDFORMAT
  1
GRIDFORMAT_BEGIN
 90
        0
 91
        1
 62
     0
 92
       -2
340
14
 93
        0
 40
0.045
309
GRIDFORMAT_END
 95
        8
302
GRIDFORMAT
  1
GRIDFORMAT_BEGIN
 90
        0
 91
        1
 62
     0
 92
       -2
340
14
 93
        0
 40
0.045
309
GRIDFORMAT_END
 95
       16
302
GRIDFORMAT
  1
GRIDFORMAT_BEGIN
 90
        0
 91
        1
 62
     0
 92
       -2
340
14
 93
        0
 40
0.045
309
GRIDFORMAT_END
 95
       32
302
GRIDFORMAT
  1
GRIDFORMAT_BEGIN
 90
        0
 91
        1
 62
     0
 92
       -2
340
14
 93
        0
 40
0.045
309
GRIDFORMAT_END
309
TABLEFORMAT_END
  1
CELLSTYLE_BEGIN
 90
        3
 91
        2
300
_DATA
309
CELLSTYLE_END
  0
ENDSEC
  0
EOF
