  0
SECTION
  2
HEADER
  9
$ACADVER
  1
AC1027
  9
$ACADMAINTVER
 70
   125
  9
$DWGCODEPAGE
  3
ANSI_1252
  9
$LASTSAVEDBY
  1
kaschu
  9
$REQUIREDVERSIONS
160
                 0
  9
$INSBASE
 10
0.0
 20
0.0
 30
0.0
  9
$EXTMIN
 10
67.095833
 20
65.97529747100125
 30
-0.0000000000000036
  9
$EXTMAX
 10
541.4659849891689
 20
1037.452929439603
 30
0.0000000000000056
  9
$LIMMIN
 10
-0.5
 20
-0.5
  9
$LIMMAX
 10
5.0
 20
5.0
  9
$ORTHOMODE
 70
     0
  9
$REGENMODE
 70
     1
  9
$FILLMODE
 70
     1
  9
$QTEXTMODE
 70
     0
  9
$MIRRTEXT
 70
     1
  9
$LTSCALE
 40
1.0
  9
$ATTMODE
 70
     1
  9
$TEXTSIZE
 40
0.2
  9
$TRACEWID
 40
0.05
  9
$TEXTSTYLE
  7
Standard
  9
$CLAYER
  8
0
  9
$CELTYPE
  6
ByLayer
  9
$CECOLOR
 62
   256
  9
$CELTSCALE
 40
1.0
  9
$DISPSILH
 70
     0
  9
$DIMSCALE
 40
1.0
  9
$DIMASZ
 40
0.18
  9
$DIMEXO
 40
0.0625
  9
$DIMDLI
 40
0.38
  9
$DIMRND
 40
0.0
  9
$DIMDLE
 40
0.0
  9
$DIMEXE
 40
0.18
  9
$DIMTP
 40
0.0
  9
$DIMTM
 40
0.0
  9
$DIMTXT
 40
0.18
  9
$DIMCEN
 40
0.09
  9
$DIMTSZ
 40
0.0
  9
$DIMTOL
 70
     0
  9
$DIMLIM
 70
     0
  9
$DIMTIH
 70
     1
  9
$DIMTOH
 70
     1
  9
$DIMSE1
 70
     0
  9
$DIMSE2
 70
     0
  9
$DIMTAD
 70
     0
  9
$DIMZIN
 70
     0
  9
$DIMBLK
  1

  9
$DIMASO
 70
     1
  9
$DIMSHO
 70
     1
  9
$DIMPOST
  1

  9
$DIMAPOST
  1

  9
$DIMALT
 70
     0
  9
$DIMALTD
 70
     2
  9
$DIMALTF
 40
25.4
  9
$DIMLFAC
 40
1.0
  9
$DIMTOFL
 70
     0
  9
$DIMTVP
 40
0.0
  9
$DIMTIX
 70
     0
  9
$DIMSOXD
 70
     0
  9
$DIMSAH
 70
     0
  9
$DIMBLK1
  1

  9
$DIMBLK2
  1

  9
$DIMSTYLE
  2
Standard
  9
$DIMCLRD
 70
     0
  9
$DIMCLRE
 70
     0
  9
$DIMCLRT
 70
     0
  9
$DIMTFAC
 40
1.0
  9
$DIMGAP
 40
0.09
  9
$DIMJUST
 70
     0
  9
$DIMSD1
 70
     0
  9
$DIMSD2
 70
     0
  9
$DIMTOLJ
 70
     1
  9
$DIMTZIN
 70
     0
  9
$DIMALTZ
 70
     0
  9
$DIMALTTZ
 70
     0
  9
$DIMUPT
 70
     0
  9
$DIMDEC
 70
     4
  9
$DIMTDEC
 70
     4
  9
$DIMALTU
 70
     2
  9
$DIMALTTD
 70
     2
  9
$DIMTXSTY
  7
Standard
  9
$DIMAUNIT
 70
     0
  9
$DIMADEC
 70
     0
  9
$DIMALTRND
 40
0.0
  9
$DIMAZIN
 70
     0
  9
$DIMDSEP
 70
    46
  9
$DIMATFIT
 70
     3
  9
$DIMFRAC
 70
     0
  9
$DIMLDRBLK
  1

  9
$DIMLUNIT
 70
     2
  9
$DIMLWD
 70
    -2
  9
$DIMLWE
 70
    -2
  9
$DIMTMOVE
 70
     0
  9
$DIMFXL
 40
1.0
  9
$DIMFXLON
 70
     0
  9
$DIMJOGANG
 40
0.7853981633974483
  9
$DIMTFILL
 70
     0
  9
$DIMTFILLCLR
 70
     0
  9
$DIMARCSYM
 70
     0
  9
$DIMLTYPE
  6

  9
$DIMLTEX1
  6

  9
$DIMLTEX2
  6

  9
$DIMTXTDIRECTION
 70
     0
  9
$LUNITS
 70
     2
  9
$LUPREC
 70
     4
  9
$SKETCHINC
 40
0.1
  9
$FILLETRAD
 40
0.5
  9
$AUNITS
 70
     0
  9
$AUPREC
 70
     0
  9
$MENU
  1
.
  9
$ELEVATION
 40
0.0
  9
$PELEVATION
 40
0.0
  9
$THICKNESS
 40
0.0
  9
$LIMCHECK
 70
     0
  9
$CHAMFERA
 40
0.0
  9
$CHAMFERB
 40
0.0
  9
$CHAMFERC
 40
0.0
  9
$CHAMFERD
 40
0.0
  9
$SKPOLY
 70
     0
  9
$TDCREATE
 40
2459992.584571759
  9
$TDUCREATE
 40
2459992.542912570
  9
$TDUPDATE
 40
2460195.592199074
  9
$TDUUPDATE
 40
2460195.508865741
  9
$TDINDWG
 40
0.0005208449
  9
$TDUSRTIMER
 40
0.0005208449
  9
$USRTIMER
 70
     1
  9
$ANGBASE
 50
0.0
  9
$ANGDIR
 70
     0
  9
$PDMODE
 70
     0
  9
$PDSIZE
 40
0.0
  9
$PLINEWID
 40
0.0
  9
$SPLFRAME
 70
     0
  9
$SPLINETYPE
 70
     6
  9
$SPLINESEGS
 70
     8
  9
$HANDSEED
  5
42A
  9
$SURFTAB1
 70
     6
  9
$SURFTAB2
 70
     6
  9
$SURFTYPE
 70
     6
  9
$SURFU
 70
     6
  9
$SURFV
 70
     6
  9
$UCSBASE
  2

  9
$UCSNAME
  2

  9
$UCSORG
 10
0.0
 20
0.0
 30
0.0
  9
$UCSXDIR
 10
1.0
 20
0.0
 30
0.0
  9
$UCSYDIR
 10
0.0
 20
1.0
 30
0.0
  9
$UCSORTHOREF
  2

  9
$UCSORTHOVIEW
 70
     0
  9
$UCSORGTOP
 10
0.0
 20
0.0
 30
0.0
  9
$UCSORGBOTTOM
 10
0.0
 20
0.0
 30
0.0
  9
$UCSORGLEFT
 10
0.0
 20
0.0
 30
0.0
  9
$UCSORGRIGHT
 10
0.0
 20
0.0
 30
0.0
  9
$UCSORGFRONT
 10
0.0
 20
0.0
 30
0.0
  9
$UCSORGBACK
 10
0.0
 20
0.0
 30
0.0
  9
$PUCSBASE
  2

  9
$PUCSNAME
  2

  9
$PUCSORG
 10
0.0
 20
0.0
 30
0.0
  9
$PUCSXDIR
 10
1.0
 20
0.0
 30
0.0
  9
$PUCSYDIR
 10
0.0
 20
1.0
 30
0.0
  9
$PUCSORTHOREF
  2

  9
$PUCSORTHOVIEW
 70
     0
  9
$PUCSORGTOP
 10
0.0
 20
0.0
 30
0.0
  9
$PUCSORGBOTTOM
 10
0.0
 20
0.0
 30
0.0
  9
$PUCSORGLEFT
 10
0.0
 20
0.0
 30
0.0
  9
$PUCSORGRIGHT
 10
0.0
 20
0.0
 30
0.0
  9
$PUCSORGFRONT
 10
0.0
 20
0.0
 30
0.0
  9
$PUCSORGBACK
 10
0.0
 20
0.0
 30
0.0
  9
$USERI1
 70
     0
  9
$USERI2
 70
     0
  9
$USERI3
 70
     0
  9
$USERI4
 70
     0
  9
$USERI5
 70
     0
  9
$USERR1
 40
0.0
  9
$USERR2
 40
0.0
  9
$USERR3
 40
0.0
  9
$USERR4
 40
0.0
  9
$USERR5
 40
0.0
  9
$WORLDVIEW
 70
     1
  9
$SHADEDGE
 70
     3
  9
$SHADEDIF
 70
    70
  9
$TILEMODE
 70
     1
  9
$MAXACTVP
 70
    64
  9
$PINSBASE
 10
0.0
 20
0.0
 30
0.0
  9
$PLIMCHECK
 70
     0
  9
$PEXTMIN
 10
-0.5
 20
-0.5
 30
-0.5
  9
$PEXTMAX
 10
5.0
 20
5.0
 30
5.0
  9
$PLIMMIN
 10
-0.5
 20
-0.5
  9
$PLIMMAX
 10
5.0
 20
5.0
  9
$UNITMODE
 70
     0
  9
$VISRETAIN
 70
     1
  9
$PLINEGEN
 70
     0
  9
$PSLTSCALE
 70
     1
  9
$TREEDEPTH
 70
  3020
  9
$CMLSTYLE
  2
Standard
  9
$CMLJUST
 70
     0
  9
$CMLSCALE
 40
1.0
  9
$PROXYGRAPHICS
 70
     1
  9
$MEASUREMENT
 70
     1
  9
$CELWEIGHT
370
    18
  9
$ENDCAPS
280
     0
  9
$JOINSTYLE
280
     0
  9
$LWDISPLAY
290
     1
  9
$INSUNITS
 70
     4
  9
$HYPERLINKBASE
  1

  9
$STYLESHEET
  1

  9
$XEDIT
290
     1
  9
$CEPSNTYPE
380
     0
  9
$PSTYLEMODE
290
     1
  9
$FINGERPRINTGUID
  2
{F076727E-2561-4AA6-A413-1018ADA103F4}
  9
$VERSIONGUID
  2
{B9EB4430-D9BD-F042-B376-D48E8A06672B}
  9
$EXTNAMES
290
     1
  9
$PSVPSCALE
 40
0.0
  9
$OLESTARTUP
290
     0
  9
$SORTENTS
280
   127
  9
$INDEXCTL
280
     0
  9
$HIDETEXT
280
     1
  9
$XCLIPFRAME
280
     2
  9
$HALOGAP
280
     0
  9
$OBSCOLOR
 70
   257
  9
$OBSLTYPE
280
     0
  9
$INTERSECTIONDISPLAY
280
     0
  9
$INTERSECTIONCOLOR
 70
   257
  9
$DIMASSOC
280
     2
  9
$PROJECTNAME
  1

  9
$CAMERADISPLAY
290
     0
  9
$LENSLENGTH
 40
50.0
  9
$CAMERAHEIGHT
 40
0.0
  9
$STEPSPERSEC
 40
2.0
  9
$STEPSIZE
 40
6.0
  9
$3DDWFPREC
 40
2.0
  9
$PSOLWIDTH
 40
0.25
  9
$PSOLHEIGHT
 40
4.0
  9
$LOFTANG1
 40
1.570796326794896
  9
$LOFTANG2
 40
1.570796326794896
  9
$LOFTMAG1
 40
0.0
  9
$LOFTMAG2
 40
0.0
  9
$LOFTPARAM
 70
     7
  9
$LOFTNORMALS
280
     1
  9
$LATITUDE
 40
37.795
  9
$LONGITUDE
 40
-122.394
  9
$NORTHDIRECTION
 40
0.0
  9
$TIMEZONE
 70
 -8000
  9
$LIGHTGLYPHDISPLAY
280
     1
  9
$TILEMODELIGHTSYNCH
280
     1
  9
$CMATERIAL
347
44
  9
$SOLIDHIST
280
     0
  9
$SHOWHIST
280
     1
  9
$DWFFRAME
280
     2
  9
$DGNFRAME
280
     0
  9
$REALWORLDSCALE
290
     1
  9
$INTERFERECOLOR
 62
     1
  9
$INTERFEREOBJVS
345
33
  9
$INTERFEREVPVS
346
30
  9
$CSHADOW
280
     0
  9
$SHADOWPLANELOCATION
 40
0.0
  0
ENDSEC
  0
SECTION
  2
CLASSES
  0
CLASS
  1
ACDBDICTIONARYWDFLT
  2
AcDbDictionaryWithDefault
  3
ObjectDBX Classes
 90
        0
 91
        1
280
     0
281
     0
  0
CLASS
  1
VISUALSTYLE
  2
AcDbVisualStyle
  3
ObjectDBX Classes
 90
     4095
 91
       24
280
     0
281
     0
  0
CLASS
  1
MATERIAL
  2
AcDbMaterial
  3
ObjectDBX Classes
 90
     1153
 91
        3
280
     0
281
     0
  0
CLASS
  1
SCALE
  2
AcDbScale
  3
ObjectDBX Classes
 90
     1153
 91
       33
280
     0
281
     0
  0
CLASS
  1
TABLESTYLE
  2
AcDbTableStyle
  3
ObjectDBX Classes
 90
     4095
 91
        1
280
     0
281
     0
  0
CLASS
  1
MLEADERSTYLE
  2
AcDbMLeaderStyle
  3
ACDB_MLEADERSTYLE_CLASS
 90
     4095
 91
        1
280
     0
281
     0
  0
CLASS
  1
SUN
  2
AcDbSun
  3
SCENEOE
 90
     1153
 91
        0
280
     0
281
     0
  0
CLASS
  1
DICTIONARYVAR
  2
AcDbDictionaryVar
  3
ObjectDBX Classes
 90
        0
 91
       10
280
     0
281
     0
  0
CLASS
  1
CELLSTYLEMAP
  2
AcDbCellStyleMap
  3
ObjectDBX Classes
 90
     1152
 91
        2
280
     0
281
     0
  0
CLASS
  1
ACDBSECTIONVIEWSTYLE
  2
AcDbSectionViewStyle
  3
ObjectDBX Classes
 90
     1025
 91
        1
280
     0
281
     0
  0
CLASS
  1
ACDBDETAILVIEWSTYLE
  2
AcDbDetailViewStyle
  3
ObjectDBX Classes
 90
     1025
 91
        1
280
     0
281
     0
  0
CLASS
  1
DIMASSOC
  2
AcDbDimAssoc
  3
"AcDbDimAssoc|Product Desc:     AcDim ARX App For Dimension|Company:          Autodesk, Inc.|WEB Address:      www.autodesk.com"
 90
        0
 91
        1
280
     0
281
     0
  0
ENDSEC
  0
SECTION
  2
TABLES
  0
TABLE
  2
VPORT
  5
8
330
0
100
AcDbSymbolTable
 70
    16
1001
ACAD
1000
DbSaveVer
1071
      224
  0
VPORT
  5
29
330
8
100
AcDbSymbolTableRecord
100
AcDbViewportTableRecord
  2
*Active
 70
     0
 10
0.0
 20
0.0
 11
1.0
 21
1.0
 12
858.9290433942242
 22
523.2991270695452
 13
0.0
 23
0.0
 14
0.5
 24
0.5
 15
0.5
 25
0.5
 16
0.0
 26
0.0
 36
1.0
 17
0.0
 27
0.0
 37
0.0
 40
2074.23371893529
 41
2.209601873536299
 42
50.0
 43
513.457348
 44
-513.457348
 50
0.0
 51
0.0
 71
     0
 72
   100
 73
     1
 74
     3
 75
     0
 76
     0
 77
     0
 78
     0
281
     0
 65
     1
110
0.0
120
0.0
130
0.0
111
1.0
121
0.0
131
0.0
112
0.0
122
1.0
132
0.0
 79
     0
146
0.0
348
2F
 60
     3
 61
     5
292
     1
282
     1
141
0.0
142
0.0
 63
   250
421
  3355443
1001
ACAD_NAV_VCDISPLAY
1070
     3
  0
VPORT
  5
178
330
8
100
AcDbSymbolTableRecord
100
AcDbViewportTableRecord
  2
L1
 70
     0
 10
0.0
 20
0.0
 11
1.0
 21
1.0
 12
200.161508
 22
157.714369
 13
0.0
 23
0.0
 14
0.5
 24
0.5
 15
0.5
 25
0.5
 16
0.0
 26
0.0
 36
1.0
 17
0.0
 27
0.0
 37
0.0
 40
254.0
 41
0.069908
 42
50.0
 43
513.457348
 44
-513.457348
 50
0.0
 51
0.0
 71
     0
 72
   100
 73
     1
 74
     3
 75
     0
 76
     0
 77
     0
 78
     0
281
     0
 65
     1
110
0.0
120
0.0
130
0.0
111
1.0
121
0.0
131
0.0
112
0.0
122
1.0
132
0.0
 79
     0
146
0.0
348
2F
 60
     3
 61
     5
292
     1
282
     1
141
0.0
142
0.0
 63
   250
421
  3355443
  0
VPORT
  5
179
330
8
100
AcDbSymbolTableRecord
100
AcDbViewportTableRecord
  2
L2
 70
     0
 10
0.0
 20
0.0
 11
0.5
 21
1.0
 12
0.0
 22
0.0
 13
0.0
 23
0.0
 14
0.5
 24
0.5
 15
0.5
 25
0.5
 16
0.0
 26
-1.0
 36
0.0
 17
0.0
 27
0.0
 37
0.0
 40
1319.822715
 41
0.013454
 42
50.0
 43
672.020833
 44
-672.020833
 50
0.0
 51
0.0
 71
     0
 72
   100
 73
     1
 74
     3
 75
     0
 76
     0
 77
     0
 78
     0
281
     0
 65
     1
110
0.0
120
0.0
130
0.0
111
1.0
121
0.0
131
0.0
112
0.0
122
1.0
132
0.0
 79
     0
146
0.0
348
2F
 60
     3
 61
     5
292
     1
282
     1
141
0.0
142
0.0
 63
   250
421
  3355443
  0
VPORT
  5
17A
330
8
100
AcDbSymbolTableRecord
100
AcDbViewportTableRecord
  2
L2
 70
     0
 10
0.5
 20
0.0
 11
1.0
 21
1.0
 12
0.0
 22
0.0
 13
0.0
 23
0.0
 14
0.5
 24
0.5
 15
0.5
 25
0.5
 16
1.0
 26
0.0
 36
0.0
 17
0.0
 27
0.0
 37
0.0
 40
1319.822715
 41
0.013454
 42
50.0
 43
672.020833
 44
-672.020833
 50
0.0
 51
0.0
 71
     0
 72
   100
 73
     1
 74
     3
 75
     0
 76
     0
 77
     0
 78
     0
281
     0
 65
     1
110
0.0
120
0.0
130
0.0
111
1.0
121
0.0
131
0.0
112
0.0
122
1.0
132
0.0
 79
     0
146
0.0
348
2F
 60
     3
 61
     5
292
     1
282
     1
141
0.0
142
0.0
 63
   250
421
  3355443
  0
VPORT
  5
17B
330
8
100
AcDbSymbolTableRecord
100
AcDbViewportTableRecord
  2
L3
 70
     0
 10
0.0
 20
0.5
 11
1.0
 21
1.0
 12
200.161508
 22
157.714369
 13
0.0
 23
0.0
 14
0.5
 24
0.5
 15
0.5
 25
0.5
 16
0.0
 26
0.0
 36
1.0
 17
0.0
 27
0.0
 37
0.0
 40
254.0
 41
0.069908
 42
50.0
 43
513.457348
 44
-513.457348
 50
0.0
 51
0.0
 71
     0
 72
   100
 73
     1
 74
     3
 75
     0
 76
     0
 77
     0
 78
     0
281
     0
 65
     1
110
0.0
120
0.0
130
0.0
111
1.0
121
0.0
131
0.0
112
0.0
122
1.0
132
0.0
 79
     0
146
0.0
348
2F
 60
     3
 61
     5
292
     1
282
     1
141
0.0
142
0.0
 63
   250
421
  3355443
  0
VPORT
  5
17C
330
8
100
AcDbSymbolTableRecord
100
AcDbViewportTableRecord
  2
L3
 70
     0
 10
0.0
 20
0.0
 11
1.0
 21
0.5
 12
0.0
 22
0.0
 13
0.0
 23
0.0
 14
0.5
 24
0.5
 15
0.5
 25
0.5
 16
0.0
 26
-1.0
 36
0.0
 17
0.0
 27
0.0
 37
0.0
 40
1319.822715
 41
0.013454
 42
50.0
 43
672.020833
 44
-672.020833
 50
0.0
 51
0.0
 71
     0
 72
   100
 73
     1
 74
     3
 75
     0
 76
     0
 77
     0
 78
     0
281
     0
 65
     1
110
0.0
120
0.0
130
0.0
111
1.0
121
0.0
131
0.0
112
0.0
122
1.0
132
0.0
 79
     0
146
0.0
348
2F
 60
     3
 61
     5
292
     1
282
     1
141
0.0
142
0.0
 63
   250
421
  3355443
  0
VPORT
  5
17D
330
8
100
AcDbSymbolTableRecord
100
AcDbViewportTableRecord
  2
L4
 70
     0
 10
0.0
 20
0.5
 11
0.5
 21
1.0
 12
200.161508
 22
157.714369
 13
0.0
 23
0.0
 14
0.5
 24
0.5
 15
0.5
 25
0.5
 16
0.0
 26
0.0
 36
1.0
 17
0.0
 27
0.0
 37
0.0
 40
254.0
 41
0.069908
 42
50.0
 43
513.457348
 44
-513.457348
 50
0.0
 51
0.0
 71
     0
 72
   100
 73
     1
 74
     3
 75
     0
 76
     0
 77
     0
 78
     0
281
     0
 65
     1
110
0.0
120
0.0
130
0.0
111
1.0
121
0.0
131
0.0
112
0.0
122
1.0
132
0.0
 79
     0
146
0.0
348
2F
 60
     3
 61
     5
292
     1
282
     1
141
0.0
142
0.0
 63
   250
421
  3355443
  0
VPORT
  5
17E
330
8
100
AcDbSymbolTableRecord
100
AcDbViewportTableRecord
  2
L4
 70
     0
 10
0.0
 20
0.0
 11
0.5
 21
0.5
 12
0.0
 22
0.0
 13
0.0
 23
0.0
 14
0.5
 24
0.5
 15
0.5
 25
0.5
 16
0.0
 26
-1.0
 36
0.0
 17
0.0
 27
0.0
 37
0.0
 40
1319.822715
 41
0.013454
 42
50.0
 43
672.020833
 44
-672.020833
 50
0.0
 51
0.0
 71
     0
 72
   100
 73
     1
 74
     3
 75
     0
 76
     0
 77
     0
 78
     0
281
     0
 65
     1
110
0.0
120
0.0
130
0.0
111
1.0
121
0.0
131
0.0
112
0.0
122
1.0
132
0.0
 79
     0
146
0.0
348
2F
 60
     3
 61
     5
292
     1
282
     1
141
0.0
142
0.0
 63
   250
421
  3355443
  0
VPORT
  5
17F
330
8
100
AcDbSymbolTableRecord
100
AcDbViewportTableRecord
  2
L4
 70
     0
 10
0.5
 20
0.0
 11
1.0
 21
0.5
 12
0.0
 22
0.0
 13
0.0
 23
0.0
 14
0.5
 24
0.5
 15
0.5
 25
0.5
 16
1.0
 26
0.0
 36
0.0
 17
0.0
 27
0.0
 37
0.0
 40
1319.822715
 41
0.013454
 42
50.0
 43
672.020833
 44
-672.020833
 50
0.0
 51
0.0
 71
     0
 72
   100
 73
     1
 74
     3
 75
     0
 76
     0
 77
     0
 78
     0
281
     0
 65
     1
110
0.0
120
0.0
130
0.0
111
1.0
121
0.0
131
0.0
112
0.0
122
1.0
132
0.0
 79
     0
146
0.0
348
2F
 60
     3
 61
     5
292
     1
282
     1
141
0.0
142
0.0
 63
   250
421
  3355443
  0
VPORT
  5
180
330
8
100
AcDbSymbolTableRecord
100
AcDbViewportTableRecord
  2
L4
 70
     0
 10
0.5
 20
0.5
 11
1.0
 21
1.0
 12
0.0
 22
0.0
 13
0.0
 23
0.0
 14
0.5
 24
0.5
 15
0.5
 25
0.5
 16
0.5773502691896259
 26
-0.5773502691896259
 36
0.5773502691896259
 17
0.0
 27
0.0
 37
0.0
 40
1285.020866
 41
0.013818
 42
50.0
 43
667.141407
 44
-667.141407
 50
0.0
 51
0.0
 71
     0
 72
   100
 73
     1
 74
     3
 75
     0
 76
     0
 77
     0
 78
     0
281
     0
 65
     1
110
0.0
120
0.0
130
0.0
111
1.0
121
0.0
131
0.0
112
0.0
122
1.0
132
0.0
 79
     0
146
0.0
348
2F
 60
     3
 61
     5
292
     1
282
     1
141
0.0
142
0.0
 63
   250
421
  3355443
  0
VPORT
  5
181
330
8
100
AcDbSymbolTableRecord
100
AcDbViewportTableRecord
  2
L6
 70
     0
 10
0.0
 20
0.5
 11
0.333333
 21
1.0
 12
0.0
 22
0.0
 13
0.0
 23
0.0
 14
0.5
 24
0.5
 15
0.5
 25
0.5
 16
0.7188730927569434
 26
-0.5850486126764433
 36
0.3754192287502549
 17
0.0
 27
0.0
 37
0.0
 40
1357.434192
 41
0.013081
 42
50.0
 43
701.839477
 44
-701.839477
 50
0.0
 51
0.0
 71
     0
 72
   100
 73
     1
 74
     3
 75
     0
 76
     0
 77
     0
 78
     0
281
     0
 65
     1
110
0.0
120
0.0
130
0.0
111
1.0
121
0.0
131
0.0
112
0.0
122
1.0
132
0.0
 79
     0
146
0.0
348
2F
 60
     3
 61
     5
292
     1
282
     1
141
0.0
142
0.0
 63
   250
421
  3355443
  0
VPORT
  5
182
330
8
100
AcDbSymbolTableRecord
100
AcDbViewportTableRecord
  2
L6
 70
     0
 10
0.0
 20
0.0
 11
0.333333
 21
0.5
 12
0.0
 22
0.0
 13
0.0
 23
0.0
 14
0.5
 24
0.5
 15
0.5
 25
0.5
 16
-1.0
 26
0.0
 36
0.0
 17
0.0
 27
0.0
 37
0.0
 40
1319.822715
 41
0.013454
 42
50.0
 43
672.020833
 44
-672.020833
 50
0.0
 51
0.0
 71
     0
 72
   100
 73
     1
 74
     3
 75
     0
 76
     0
 77
     0
 78
     0
281
     0
 65
     1
110
0.0
120
0.0
130
0.0
111
1.0
121
0.0
131
0.0
112
0.0
122
1.0
132
0.0
 79
     0
146
0.0
348
2F
 60
     3
 61
     5
292
     1
282
     1
141
0.0
142
0.0
 63
   250
421
  3355443
  0
VPORT
  5
183
330
8
100
AcDbSymbolTableRecord
100
AcDbViewportTableRecord
  2
L6
 70
     0
 10
0.333333
 20
0.5
 11
0.666667
 21
1.0
 12
200.161508
 22
157.714369
 13
0.0
 23
0.0
 14
0.5
 24
0.5
 15
0.5
 25
0.5
 16
0.0
 26
0.0
 36
1.0
 17
0.0
 27
0.0
 37
0.0
 40
254.0
 41
0.069908
 42
50.0
 43
513.457348
 44
-513.457348
 50
0.0
 51
0.0
 71
     0
 72
   100
 73
     1
 74
     3
 75
     0
 76
     0
 77
     0
 78
     0
281
     0
 65
     1
110
0.0
120
0.0
130
0.0
111
1.0
121
0.0
131
0.0
112
0.0
122
1.0
132
0.0
 79
     0
146
0.0
348
2F
 60
     3
 61
     5
292
     1
282
     1
141
0.0
142
0.0
 63
   250
421
  3355443
  0
VPORT
  5
184
330
8
100
AcDbSymbolTableRecord
100
AcDbViewportTableRecord
  2
L6
 70
     0
 10
0.333333
 20
0.0
 11
0.666667
 21
0.5
 12
0.0
 22
0.0
 13
0.0
 23
0.0
 14
0.5
 24
0.5
 15
0.5
 25
0.5
 16
0.0
 26
-1.0
 36
0.0
 17
0.0
 27
0.0
 37
0.0
 40
1319.822715
 41
0.013454
 42
50.0
 43
672.020833
 44
-672.020833
 50
0.0
 51
0.0
 71
     0
 72
   100
 73
     1
 74
     3
 75
     0
 76
     0
 77
     0
 78
     0
281
     0
 65
     1
110
0.0
120
0.0
130
0.0
111
1.0
121
0.0
131
0.0
112
0.0
122
1.0
132
0.0
 79
     0
146
0.0
348
2F
 60
     3
 61
     5
292
     1
282
     1
141
0.0
142
0.0
 63
   250
421
  3355443
  0
VPORT
  5
185
330
8
100
AcDbSymbolTableRecord
100
AcDbViewportTableRecord
  2
L6
 70
     0
 10
0.666667
 20
0.5
 11
1.0
 21
1.0
 12
0.0
 22
0.0
 13
0.0
 23
0.0
 14
0.5
 24
0.5
 15
0.5
 25
0.5
 16
0.5773502691896259
 26
-0.5773502691896259
 36
0.5773502691896259
 17
0.0
 27
0.0
 37
0.0
 40
1285.020866
 41
0.013818
 42
50.0
 43
667.141407
 44
-667.141407
 50
0.0
 51
0.0
 71
     0
 72
   100
 73
     1
 74
     3
 75
     0
 76
     0
 77
     0
 78
     0
281
     0
 65
     1
110
0.0
120
0.0
130
0.0
111
1.0
121
0.0
131
0.0
112
0.0
122
1.0
132
0.0
 79
     0
146
0.0
348
2F
 60
     3
 61
     5
292
     1
282
     1
141
0.0
142
0.0
 63
   250
421
  3355443
  0
VPORT
  5
186
330
8
100
AcDbSymbolTableRecord
100
AcDbViewportTableRecord
  2
L6
 70
     0
 10
0.666667
 20
0.0
 11
1.0
 21
0.5
 12
0.0
 22
0.0
 13
0.0
 23
0.0
 14
0.5
 24
0.5
 15
0.5
 25
0.5
 16
1.0
 26
0.0
 36
0.0
 17
0.0
 27
0.0
 37
0.0
 40
1319.822715
 41
0.013454
 42
50.0
 43
672.020833
 44
-672.020833
 50
0.0
 51
0.0
 71
     0
 72
   100
 73
     1
 74
     3
 75
     0
 76
     0
 77
     0
 78
     0
281
     0
 65
     1
110
0.0
120
0.0
130
0.0
111
1.0
121
0.0
131
0.0
112
0.0
122
1.0
132
0.0
 79
     0
146
0.0
348
2F
 60
     3
 61
     5
292
     1
282
     1
141
0.0
142
0.0
 63
   250
421
  3355443
  0
ENDTAB
  0
TABLE
  2
LTYPE
  5
5
330
0
100
AcDbSymbolTable
 70
     6
  0
LTYPE
  5
14
330
5
100
AcDbSymbolTableRecord
100
AcDbLinetypeTableRecord
  2
ByBlock
 70
     0
  3

 72
    65
 73
     0
 40
0.0
  0
LTYPE
  5
15
330
5
100
AcDbSymbolTableRecord
100
AcDbLinetypeTableRecord
  2
ByLayer
 70
     0
  3

 72
    65
 73
     0
 40
0.0
  0
LTYPE
  5
16
330
5
100
AcDbSymbolTableRecord
100
AcDbLinetypeTableRecord
  2
Continuous
 70
     0
  3
Solid line
 72
    65
 73
     0
 40
0.0
  0
LTYPE
  5
6E
330
5
100
AcDbSymbolTableRecord
100
AcDbLinetypeTableRecord
  2
CENTER
 70
     0
  3
____ _ ____ _ ____ _ ____
 72
    65
 73
     4
 40
47.4
 49
22.0
 74
     4
 75
     0
340
0
 46
0.0
 50
0.0
 44
0.0
 45
0.0
 49
-8.5
 74
     4
 75
     0
340
0
 46
0.0
 50
0.0
 44
0.0
 45
0.0
 49
8.5
 74
     4
 75
     0
340
0
 46
0.0
 50
0.0
 44
0.0
 45
0.0
 49
-8.5
 74
     4
 75
     0
340
0
 46
0.0
 50
0.0
 44
0.0
 45
0.0
  0
LTYPE
  5
6F
330
5
100
AcDbSymbolTableRecord
100
AcDbLinetypeTableRecord
  2
DASHDOT
 70
     0
  3
_._._._._._._._._._._._._._._._.
 72
    65
 73
     4
 40
70.0
 49
31.0
 74
     4
 75
     0
340
0
 46
0.0
 50
0.0
 44
0.0
 45
0.0
 49
-13.0
 74
     4
 75
     0
340
0
 46
0.0
 50
0.0
 44
0.0
 45
0.0
 49
13.0
 74
     4
 75
     0
340
0
 46
0.0
 50
0.0
 44
0.0
 45
0.0
 49
-13.0
 74
     4
 75
     0
340
0
 46
0.0
 50
0.0
 44
0.0
 45
0.0
  0
LTYPE
  5
70
330
5
100
AcDbSymbolTableRecord
100
AcDbLinetypeTableRecord
  2
DASHED
 70
     0
  3
__ __ __ __ __ __ __ __ __
 72
    65
 73
     2
 40
25.72
 49
12.86
 74
     4
 75
     0
340
0
 46
0.0
 50
0.0
 44
0.0
 45
0.0
 49
-12.86
 74
     4
 75
     0
340
0
 46
0.0
 50
0.0
 44
0.0
 45
0.0
  0
LTYPE
  5
71
330
5
100
AcDbSymbolTableRecord
100
AcDbLinetypeTableRecord
  2
DOT
 70
     0
  3
.........................
 72
    65
 73
     2
 40
10.0
 49
0.0
 74
     4
 75
     0
340
0
 46
0.0
 50
0.0
 44
0.0
 45
0.0
 49
-10.0
 74
     4
 75
     0
340
0
 46
0.0
 50
0.0
 44
0.0
 45
0.0
  0
LTYPE
  5
72
330
5
100
AcDbSymbolTableRecord
100
AcDbLinetypeTableRecord
  2
PHANTOM
 70
     0
  3
____ _ _ ____ _ _ _____ _ _ ____
 72
    65
 73
     6
 40
50.5
 49
18.0
 74
     4
 75
     0
340
0
 46
0.0
 50
0.0
 44
0.0
 45
0.0
 49
-6.5
 74
     4
 75
     0
340
0
 46
0.0
 50
0.0
 44
0.0
 45
0.0
 49
6.5
 74
     4
 75
     0
340
0
 46
0.0
 50
0.0
 44
0.0
 45
0.0
 49
-6.5
 74
     4
 75
     0
340
0
 46
0.0
 50
0.0
 44
0.0
 45
0.0
 49
6.5
 74
     4
 75
     0
340
0
 46
0.0
 50
0.0
 44
0.0
 45
0.0
 49
-6.5
 74
     4
 75
     0
340
0
 46
0.0
 50
0.0
 44
0.0
 45
0.0
  0
ENDTAB
  0
TABLE
  2
LAYER
  5
2
102
{ACAD_XDICTIONARY
360
1F8
102
}
330
0
100
AcDbSymbolTable
 70
     4
  0
LAYER
  5
10
102
{ACAD_XDICTIONARY
360
41A
102
}
330
2
100
AcDbSymbolTableRecord
100
AcDbLayerTableRecord
  2
0
 70
     0
 62
     7
  6
Continuous
370
    -3
390
F
347
46
348
0
  0
LAYER
  5
74
102
{ACAD_XDICTIONARY
360
41C
102
}
330
2
100
AcDbSymbolTableRecord
100
AcDbLayerTableRecord
  2
1
 70
     0
 62
     7
420
 16777215
  6
Continuous
370
    -3
390
F
347
46
348
0
  0
LAYER
  5
1D8
330
2
100
AcDbSymbolTableRecord
100
AcDbLayerTableRecord
  2
Defpoints
 70
     0
 62
     7
  6
Continuous
290
     0
370
    -3
390
F
347
46
348
0
  0
LAYER
  5
1F2
102
{ACAD_XDICTIONARY
360
1F3
102
}
330
2
100
AcDbSymbolTableRecord
100
AcDbLayerTableRecord
  2
HEWI
 70
     0
 62
     7
  6
Continuous
370
    -3
390
F
347
46
348
0
1001
AcAecLayerStandard
1000

1000

1001
AcCmTransparency
1071
        0
  0
ENDTAB
  0
TABLE
  2
STYLE
  5
3
330
0
100
AcDbSymbolTable
 70
     3
  0
STYLE
  5
11
330
3
100
AcDbSymbolTableRecord
100
AcDbTextStyleTableRecord
  2
Standard
 70
     0
 40
0.0
 41
1.0
 50
0.0
 71
     0
 42
0.2
  3
txt
  4

  0
STYLE
  5
176
330
3
100
AcDbSymbolTableRecord
100
AcDbTextStyleTableRecord
  2
iso-1
 70
     0
 40
0.0
 41
1.0
 50
0.0
 71
     0
 42
0.2
  3
isocp.shx
  4

  0
STYLE
  5
177
330
3
100
AcDbSymbolTableRecord
100
AcDbTextStyleTableRecord
  2
DWGDirectTextStyle
 70
     0
 40
0.0
 41
1.0
 50
0.0
 71
     0
 42
0.2
  3
isocp
  4

  0
ENDTAB
  0
TABLE
  2
VIEW
  5
6
330
0
100
AcDbSymbolTable
 70
     0
  0
ENDTAB
  0
TABLE
  2
UCS
  5
7
330
0
100
AcDbSymbolTable
 70
     0
  0
ENDTAB
  0
TABLE
  2
APPID
  5
9
330
0
100
AcDbSymbolTable
 70
     6
  0
APPID
  5
12
330
9
100
AcDbSymbolTableRecord
100
AcDbRegAppTableRecord
  2
ACAD
 70
     0
  0
APPID
  5
1C6
330
9
100
AcDbSymbolTableRecord
100
AcDbRegAppTableRecord
  2
ACAD_MLEADERVER
 70
     0
  0
APPID
  5
1F4
330
9
100
AcDbSymbolTableRecord
100
AcDbRegAppTableRecord
  2
ACAD_DSTYLE_DIMBREAK
 70
     0
  0
APPID
  5
1F5
330
9
100
AcDbSymbolTableRecord
100
AcDbRegAppTableRecord
  2
ACAD_NAV_VCDISPLAY
 70
     0
  0
APPID
  5
1F6
330
9
100
AcDbSymbolTableRecord
100
AcDbRegAppTableRecord
  2
AcAecLayerStandard
 70
     0
  0
APPID
  5
1F7
330
9
100
AcDbSymbolTableRecord
100
AcDbRegAppTableRecord
  2
AcCmTransparency
 70
     0
  0
ENDTAB
  0
TABLE
  2
DIMSTYLE
  5
A
330
0
100
AcDbSymbolTable
 70
     1
100
AcDbDimStyleTable
 71
     1
340
27
  0
DIMSTYLE
105
27
330
A
100
AcDbSymbolTableRecord
100
AcDbDimStyleTableRecord
  2
Standard
 70
     0
340
11
  0
ENDTAB
  0
TABLE
  2
BLOCK_RECORD
  5
1
330
0
100
AcDbSymbolTable
 70
     3
  0
BLOCK_RECORD
  5
1F
330
1
100
AcDbSymbolTableRecord
100
AcDbBlockTableRecord
  2
*Model_Space
340
22
 70
     0
280
     1
281
     0
  0
BLOCK_RECORD
  5
1B
330
1
100
AcDbSymbolTableRecord
100
AcDbBlockTableRecord
  2
*Paper_Space
340
1E
 70
     0
280
     1
281
     0
  0
BLOCK_RECORD
  5
23
330
1
100
AcDbSymbolTableRecord
100
AcDbBlockTableRecord
  2
*Paper_Space0
340
26
 70
     0
280
     1
281
     0
  0
BLOCK_RECORD
  5
1D9
330
1
100
AcDbSymbolTableRecord
100
AcDbBlockTableRecord
  2
*D1
340
0
 70
     0
280
     1
281
     0
  0
ENDTAB
  0
ENDSEC
  0
SECTION
  2
BLOCKS
  0
BLOCK
  5
20
330
1F
100
AcDbEntity
  8
0
100
AcDbBlockBegin
  2
*Model_Space
 70
     0
 10
0.0
 20
0.0
 30
0.0
  3
*Model_Space
  1

  0
ENDBLK
  5
21
330
1F
100
AcDbEntity
  8
0
100
AcDbBlockEnd
  0
BLOCK
  5
1C
330
1B
100
AcDbEntity
 67
     1
  8
0
100
AcDbBlockBegin
  2
*Paper_Space
 70
     0
 10
0.0
 20
0.0
 30
0.0
  3
*Paper_Space
  1

  0
ENDBLK
  5
1D
330
1B
100
AcDbEntity
 67
     1
  8
0
100
AcDbBlockEnd
  0
BLOCK
  5
24
330
23
100
AcDbEntity
 67
     1
  8
0
100
AcDbBlockBegin
  2
*Paper_Space0
 70
     0
 10
0.0
 20
0.0
 30
0.0
  3
*Paper_Space0
  1

  0
ENDBLK
  5
25
330
23
100
AcDbEntity
 67
     1
  8
0
100
AcDbBlockEnd
  0
BLOCK
  5
1DA
330
1D9
100
AcDbEntity
  8
0
370
    18
100
AcDbBlockBegin
  2
*D1
 70
     1
 10
0.0
 20
0.0
 30
0.0
  3
*D1
  1

  0
LINE
  5
1E7
330
1D9
100
AcDbEntity
  8
0
 62
     0
440
 16777216
370
    -2
100
AcDbLine
 10
226.1731768055425
 20
218.7733866282209
 30
0.0
 11
226.1731768055425
 21
283.2369427347982
 31
0.0
  0
LINE
  5
1E8
330
1D9
100
AcDbEntity
  8
0
 62
     0
440
 16777216
370
    -2
100
AcDbLine
 10
292.9101571944575
 20
215.8724473717791
 30
0.0
 11
292.9101571944575
 21
283.2369427347982
 31
0.0
  0
LINE
  5
1E9
330
1D9
100
AcDbEntity
  8
0
 62
     0
440
 16777216
370
    -2
100
AcDbLine
 10
226.3531768055425
 20
283.0569427347982
 30
0.0
 11
258.926667
 21
283.0569427347982
 31
0.0
  0
LINE
  5
1EA
330
1D9
100
AcDbEntity
  8
0
 62
     0
440
 16777216
370
    -2
100
AcDbLine
 10
292.7301571944576
 20
283.0569427347982
 30
0.0
 11
260.156667
 21
283.0569427347982
 31
0.0
  0
SOLID
  5
1EB
330
1D9
100
AcDbEntity
  8
0
 62
     0
440
 16777216
370
    18
100
AcDbTrace
 10
226.3531768055425
 20
283.0869427347982
 30
0.0
 11
226.3531768055425
 21
283.0269427347982
 31
0.0
 12
226.1731768055425
 22
283.0569427347982
 32
0.0
 13
226.1731768055425
 23
283.0569427347982
 33
0.0
  0
SOLID
  5
1EC
330
1D9
100
AcDbEntity
  8
0
 62
     0
440
 16777216
370
    18
100
AcDbTrace
 10
292.7301571944576
 20
283.0869427347982
 30
0.0
 11
292.7301571944576
 21
283.0269427347982
 31
0.0
 12
292.9101571944575
 22
283.0569427347982
 32
0.0
 13
292.9101571944575
 23
283.0569427347982
 33
0.0
  0
MTEXT
  5
1ED
330
1D9
100
AcDbEntity
  8
0
 62
     0
440
 16777216
370
    18
100
AcDbMText
 10
259.541667
 20
283.0569427347982
 30
0.0
 40
0.18
 41
0.0
 46
0.0
 71
     5
 72
     1
  1
\A1;66.7370
 73
     1
 44
1.0
  0
POINT
  5
1EE
330
1D9
100
AcDbEntity
  8
Defpoints
 62
     0
440
 16777216
370
    18
100
AcDbPoint
 10
226.1731768055425
 20
218.7108866282208
 30
0.0
  0
POINT
  5
1EF
330
1D9
100
AcDbEntity
  8
Defpoints
 62
     0
440
 16777216
370
    18
100
AcDbPoint
 10
292.9101571944575
 20
215.8099473717791
 30
0.0
  0
POINT
  5
1F0
330
1D9
100
AcDbEntity
  8
Defpoints
 62
     0
440
 16777216
370
    18
100
AcDbPoint
 10
292.9101571944575
 20
283.0569427347982
 30
0.0
  0
ENDBLK
  5
1DB
330
1D9
100
AcDbEntity
  8
0
370
    18
100
AcDbBlockEnd
  0
ENDSEC
  0
SECTION
  2
ENTITIES
  0
LINE
  5
73
330
1F
100
AcDbEntity
  8
HEWI
100
AcDbLine
 10
178.55
 20
183.860417
 30
0.0
 11
189.35
 21
183.860417
 31
0.0
  0
LINE
  5
75
330
1F
100
AcDbEntity
  8
HEWI
100
AcDbLine
 10
189.35
 20
250.660417
 30
0.0
 11
178.55
 21
250.660417
 31
0.0
  0
LINE
  5
76
330
1F
100
AcDbEntity
  8
HEWI
100
AcDbLine
 10
189.35
 20
183.860417
 30
0.0
 11
189.35
 21
227.523624
 31
0.0
  0
LINE
  5
77
330
1F
100
AcDbEntity
  8
HEWI
100
AcDbLine
 10
189.35
 20
227.523624
 30
0.0
 11
189.35
 21
250.660417
 31
0.0
  0
LINE
  5
78
330
1F
100
AcDbEntity
  8
HEWI
100
AcDbLine
 10
177.35
 20
249.460417
 30
0.0
 11
177.35
 21
227.154886
 31
0.0
  0
LINE
  5
79
330
1F
100
AcDbEntity
  8
HEWI
100
AcDbLine
 10
177.35
 20
227.154886
 30
0.0
 11
177.35
 21
185.060417
 31
0.0
  0
LINE
  5
7A
330
1F
100
AcDbEntity
  8
HEWI
100
AcDbLine
 10
178.55
 20
183.860417
 30
0.0
 11
178.55
 21
227.523624
 31
0.0
  0
LINE
  5
7B
330
1F
100
AcDbEntity
  8
HEWI
100
AcDbLine
 10
178.55
 20
227.523624
 30
0.0
 11
178.55
 21
250.660417
 31
0.0
  0
LINE
  5
7C
330
1F
100
AcDbEntity
  8
HEWI
100
AcDbLine
 10
110.404305
 20
191.372663
 30
0.0
 11
110.427483
 21
196.328277
 31
0.0
  0
LINE
  5
7D
330
1F
100
AcDbEntity
  8
HEWI
100
AcDbLine
 10
90.564184
 20
196.328277
 30
0.0
 11
90.587362
 21
191.372663
 31
0.0
  0
LINE
  5
7E
330
1F
100
AcDbEntity
  8
HEWI
100
AcDbLine
 10
90.40461399999999
 20
240.126442
 30
0.0
 11
110.587053
 21
240.126442
 31
0.0
  0
LINE
  5
7F
330
1F
100
AcDbEntity
  8
HEWI
100
AcDbLine
 10
111.891018
 20
242.93583
 30
0.0
 11
111.891018
 21
243.383199
 31
0.0
  0
LINE
  5
80
330
1F
100
AcDbEntity
  8
HEWI
100
AcDbLine
 10
89.100649
 20
243.383199
 30
0.0
 11
89.100649
 21
242.93583
 31
0.0
  0
LINE
  5
81
330
1F
100
AcDbEntity
  8
HEWI
100
AcDbLine
 10
93.441989
 20
191.431243
 30
0.0
 11
107.549677
 21
191.431243
 31
0.0
  0
LINE
  5
82
330
1F
100
AcDbEntity
  8
HEWI
100
AcDbLine
 10
110.404305
 20
191.372666
 30
0.0
 11
110.403801
 21
191.369681
 31
0.0
  0
LINE
  5
83
330
1F
100
AcDbEntity
  8
HEWI
100
AcDbLine
 10
110.426998
 20
196.329252
 30
0.0
 11
110.427483
 21
196.328277
 31
0.0
  0
LINE
  5
84
330
1F
100
AcDbEntity
  8
HEWI
100
AcDbLine
 10
90.58786500000001
 20
191.369681
 30
0.0
 11
90.587362
 21
191.372666
 31
0.0
  0
LINE
  5
85
330
1F
100
AcDbEntity
  8
HEWI
100
AcDbLine
 10
90.564184
 20
196.328277
 30
0.0
 11
90.564669
 21
196.329252
 31
0.0
  0
LINE
  5
86
330
1F
100
AcDbEntity
  8
HEWI
100
AcDbLine
 10
114.791692
 20
245.104957
 30
0.0
 11
114.791692
 21
242.64
 31
0.0
  0
LINE
  5
87
330
1F
100
AcDbEntity
  8
HEWI
100
AcDbLine
 10
86.199975
 20
242.64
 30
0.0
 11
86.199975
 21
245.104957
 31
0.0
  0
LINE
  5
88
330
1F
100
AcDbEntity
  8
HEWI
100
AcDbLine
 10
110.403801
 20
191.369681
 30
0.0
 11
108.552955
 21
191.369681
 31
0.0
  0
LINE
  5
89
330
1F
100
AcDbEntity
  8
HEWI
100
AcDbLine
 10
92.43871199999999
 20
191.369681
 30
0.0
 11
90.58786500000001
 21
191.369681
 31
0.0
  0
LINE
  5
8A
330
1F
100
AcDbEntity
  8
HEWI
100
AcDbLine
 10
78.363391
 20
239.392859
 30
0.0
 11
79.989737
 21
237.766513
 31
0.0
  0
LINE
  5
8B
330
1F
100
AcDbEntity
  8
HEWI
100
AcDbLine
 10
128.507682
 20
224.766169
 30
0.0
 11
130.729312
 21
225.361453
 31
0.0
  0
LINE
  5
8C
330
1F
100
AcDbEntity
  8
HEWI
100
AcDbLine
 10
79.588316
 20
196.139848
 30
0.0
 11
78.470173
 21
195.021705
 31
0.0
  0
LINE
  5
8D
330
1F
100
AcDbEntity
  8
HEWI
100
AcDbLine
 10
122.521494
 20
195.021705
 30
0.0
 11
121.403351
 21
196.139848
 31
0.0
  0
LINE
  5
8E
330
1F
100
AcDbEntity
  8
HEWI
100
AcDbLine
 10
123.234171
 20
195.001578
 30
0.0
 11
122.389246
 21
195.846502
 31
0.0
  0
LINE
  5
8F
330
1F
100
AcDbEntity
  8
HEWI
100
AcDbLine
 10
122.389246
 20
195.846502
 30
0.0
 11
121.403351
 21
196.139848
 31
0.0
  0
LINE
  5
90
330
1F
100
AcDbEntity
  8
HEWI
100
AcDbLine
 10
128.37688
 20
225.23834
 30
0.0
 11
131.100773
 21
225.968205
 31
0.0
  0
LINE
  5
91
330
1F
100
AcDbEntity
  8
HEWI
100
AcDbLine
 10
79.646226
 20
237.417149
 30
0.0
 11
77.652197
 21
239.411178
 31
0.0
  0
LINE
  5
92
330
1F
100
AcDbEntity
  8
HEWI
100
AcDbLine
 10
79.588316
 20
196.139848
 30
0.0
 11
78.60241999999999
 21
195.846502
 31
0.0
  0
LINE
  5
93
330
1F
100
AcDbEntity
  8
HEWI
100
AcDbLine
 10
78.60241999999999
 20
195.846502
 30
0.0
 11
77.75749600000001
 21
195.001578
 31
0.0
  0
LINE
  5
94
330
1F
100
AcDbEntity
  8
HEWI
100
AcDbLine
 10
123.339469
 20
239.411178
 30
0.0
 11
121.345441
 21
237.417149
 31
0.0
  0
LINE
  5
95
330
1F
100
AcDbEntity
  8
HEWI
100
AcDbLine
 10
121.00193
 20
237.766513
 30
0.0
 11
122.628276
 21
239.392859
 31
0.0
  0
LINE
  5
96
330
1F
100
AcDbEntity
  8
HEWI
100
AcDbLine
 10
72.61478699999999
 20
209.282493
 30
0.0
 11
69.89089399999999
 21
208.552628
 31
0.0
  0
LINE
  5
97
330
1F
100
AcDbEntity
  8
HEWI
100
AcDbLine
 10
72.48398399999999
 20
209.754664
 30
0.0
 11
70.262355
 21
209.159381
 31
0.0
  0
LINE
  5
98
330
1F
100
AcDbEntity
  8
HEWI
100
AcDbLine
 10
70.262355
 20
225.361453
 30
0.0
 11
72.48398399999999
 21
224.766169
 31
0.0
  0
LINE
  5
99
330
1F
100
AcDbEntity
  8
HEWI
100
AcDbLine
 10
69.89089399999999
 20
225.968205
 30
0.0
 11
72.61478699999999
 21
225.23834
 31
0.0
  0
LINE
  5
9A
330
1F
100
AcDbEntity
  8
HEWI
100
AcDbLine
 10
131.100773
 20
208.552628
 30
0.0
 11
128.37688
 21
209.282493
 31
0.0
  0
LINE
  5
9B
330
1F
100
AcDbEntity
  8
HEWI
100
AcDbLine
 10
130.729312
 20
209.159381
 30
0.0
 11
128.507682
 21
209.754664
 31
0.0
  0
LINE
  5
9C
330
1F
100
AcDbEntity
  8
HEWI
100
AcDbLine
 10
92.38300200000001
 20
197.971742
 30
0.0
 11
90.64357499999999
 21
197.971742
 31
0.0
  0
LINE
  5
9D
330
1F
100
AcDbEntity
  8
HEWI
100
AcDbLine
 10
110.348092
 20
197.971742
 30
0.0
 11
108.608665
 21
197.971742
 31
0.0
  0
LINE
  5
9E
330
1F
100
AcDbEntity
  8
HEWI
100
AcDbLine
 10
90.57231599999999
 20
196.3369
 30
0.0
 11
90.564669
 21
196.329252
 31
0.0
  0
LINE
  5
9F
330
1F
100
AcDbEntity
  8
HEWI
100
AcDbLine
 10
90.564669
 20
196.329252
 30
0.0
 11
90.58786500000001
 21
191.369681
 31
0.0
  0
LINE
  5
A0
330
1F
100
AcDbEntity
  8
HEWI
100
AcDbLine
 10
90.58786500000001
 20
191.369681
 30
0.0
 11
90.64018299999998
 21
191.474348
 31
0.0
  0
LINE
  5
A1
330
1F
100
AcDbEntity
  8
HEWI
100
AcDbLine
 10
90.65642
 20
197.54687
 30
0.0
 11
90.64357499999999
 21
197.971742
 31
0.0
  0
LINE
  5
A2
330
1F
100
AcDbEntity
  8
HEWI
100
AcDbLine
 10
90.673875
 20
193.47313
 30
0.0
 11
90.673875
 21
195.81482
 31
0.0
  0
LINE
  5
A3
330
1F
100
AcDbEntity
  8
HEWI
100
AcDbLine
 10
92.37015699999998
 20
197.54687
 30
0.0
 11
92.38300200000001
 21
197.971742
 31
0.0
  0
LINE
  5
A4
330
1F
100
AcDbEntity
  8
HEWI
100
AcDbLine
 10
92.352702
 20
193.47313
 30
0.0
 11
92.352702
 21
195.81482
 31
0.0
  0
LINE
  5
A5
330
1F
100
AcDbEntity
  8
HEWI
100
AcDbLine
 10
92.43871199999999
 20
191.369681
 30
0.0
 11
92.386394
 21
191.474348
 31
0.0
  0
LINE
  5
A6
330
1F
100
AcDbEntity
  8
HEWI
100
AcDbLine
 10
92.441197
 20
191.377141
 30
0.0
 11
92.43871199999999
 21
191.369681
 31
0.0
  0
LINE
  5
A7
330
1F
100
AcDbEntity
  8
HEWI
100
AcDbLine
 10
92.441197
 20
191.377141
 30
0.0
 11
92.46434599999998
 21
196.326814
 31
0.0
  0
LINE
  5
A8
330
1F
100
AcDbEntity
  8
HEWI
100
AcDbLine
 10
92.45426
 20
196.3369
 30
0.0
 11
92.46434599999998
 21
196.326814
 31
0.0
  0
LINE
  5
A9
330
1F
100
AcDbEntity
  8
HEWI
100
AcDbLine
 10
92.352702
 20
195.81482
 30
0.0
 11
90.673875
 21
195.81482
 31
0.0
  0
LINE
  5
AA
330
1F
100
AcDbEntity
  8
HEWI
100
AcDbLine
 10
90.65642
 20
197.54687
 30
0.0
 11
92.37015699999998
 21
197.54687
 31
0.0
  0
LINE
  5
AB
330
1F
100
AcDbEntity
  8
HEWI
100
AcDbLine
 10
92.386394
 20
191.474348
 30
0.0
 11
90.64018299999998
 21
191.474348
 31
0.0
  0
LINE
  5
AC
330
1F
100
AcDbEntity
  8
HEWI
100
AcDbLine
 10
90.673875
 20
193.47313
 30
0.0
 11
92.352702
 21
193.47313
 31
0.0
  0
LINE
  5
AD
330
1F
100
AcDbEntity
  8
HEWI
100
AcDbLine
 10
108.62151
 20
197.54687
 30
0.0
 11
110.335247
 21
197.54687
 31
0.0
  0
LINE
  5
AE
330
1F
100
AcDbEntity
  8
HEWI
100
AcDbLine
 10
110.317792
 20
195.81482
 30
0.0
 11
108.638965
 21
195.81482
 31
0.0
  0
LINE
  5
AF
330
1F
100
AcDbEntity
  8
HEWI
100
AcDbLine
 10
108.638965
 20
193.47313
 30
0.0
 11
110.317792
 21
193.47313
 31
0.0
  0
LINE
  5
B0
330
1F
100
AcDbEntity
  8
HEWI
100
AcDbLine
 10
110.351484
 20
191.474348
 30
0.0
 11
108.605273
 21
191.474348
 31
0.0
  0
LINE
  5
B1
330
1F
100
AcDbEntity
  8
HEWI
100
AcDbLine
 10
110.351484
 20
191.474348
 30
0.0
 11
110.403801
 21
191.369681
 31
0.0
  0
LINE
  5
B2
330
1F
100
AcDbEntity
  8
HEWI
100
AcDbLine
 10
110.403801
 20
191.369681
 30
0.0
 11
110.426998
 21
196.329252
 31
0.0
  0
LINE
  5
B3
330
1F
100
AcDbEntity
  8
HEWI
100
AcDbLine
 10
110.426998
 20
196.329252
 30
0.0
 11
110.41935
 21
196.3369
 31
0.0
  0
LINE
  5
B4
330
1F
100
AcDbEntity
  8
HEWI
100
AcDbLine
 10
110.348092
 20
197.971742
 30
0.0
 11
110.335247
 21
197.54687
 31
0.0
  0
LINE
  5
B5
330
1F
100
AcDbEntity
  8
HEWI
100
AcDbLine
 10
110.317792
 20
195.81482
 30
0.0
 11
110.317792
 21
193.47313
 31
0.0
  0
LINE
  5
B6
330
1F
100
AcDbEntity
  8
HEWI
100
AcDbLine
 10
108.608665
 20
197.971742
 30
0.0
 11
108.62151
 21
197.54687
 31
0.0
  0
LINE
  5
B7
330
1F
100
AcDbEntity
  8
HEWI
100
AcDbLine
 10
108.52732
 20
196.326814
 30
0.0
 11
108.537406
 21
196.3369
 31
0.0
  0
LINE
  5
B8
330
1F
100
AcDbEntity
  8
HEWI
100
AcDbLine
 10
108.52732
 20
196.326814
 30
0.0
 11
108.55047
 21
191.377141
 31
0.0
  0
LINE
  5
B9
330
1F
100
AcDbEntity
  8
HEWI
100
AcDbLine
 10
108.552955
 20
191.369681
 30
0.0
 11
108.55047
 21
191.377141
 31
0.0
  0
LINE
  5
BA
330
1F
100
AcDbEntity
  8
HEWI
100
AcDbLine
 10
108.605273
 20
191.474348
 30
0.0
 11
108.552955
 21
191.369681
 31
0.0
  0
LINE
  5
BB
330
1F
100
AcDbEntity
  8
HEWI
100
AcDbLine
 10
108.638965
 20
195.81482
 30
0.0
 11
108.638965
 21
193.47313
 31
0.0
  0
LINE
  5
BC
330
1F
100
AcDbEntity
  8
HEWI
100
AcDbLine
 10
91.819109
 20
245.053832
 30
0.0
 11
91.49583299999999
 21
241.492467
 31
0.0
  0
LINE
  5
BD
330
1F
100
AcDbEntity
  8
HEWI
100
AcDbLine
 10
109.495833
 20
241.492467
 30
0.0
 11
109.172558
 21
245.053832
 31
0.0
  0
LINE
  5
BE
330
1F
100
AcDbEntity
  8
HEWI
100
AcDbLine
 10
91.49583299999999
 20
241.492467
 30
0.0
 11
91.49583299999999
 21
245.668866
 31
0.0
  0
LINE
  5
BF
330
1F
100
AcDbEntity
  8
HEWI
100
AcDbLine
 10
109.495833
 20
245.668866
 30
0.0
 11
109.495833
 21
241.492467
 31
0.0
  0
LINE
  5
C0
330
1F
100
AcDbEntity
  8
HEWI
100
AcDbLine
 10
109.495833
 20
241.492467
 30
0.0
 11
91.49583299999999
 21
241.492467
 31
0.0
  0
LINE
  5
C1
330
1F
100
AcDbEntity
  8
HEWI
100
AcDbLine
 10
90.43081800000001
 20
240.626442
 30
0.0
 11
110.560849
 21
240.626442
 31
0.0
  0
LINE
  5
C2
330
1F
100
AcDbEntity
  8
HEWI
100
AcDbLine
 10
110.560849
 20
246.438227
 30
0.0
 11
110.560849
 21
240.626442
 31
0.0
  0
LINE
  5
C3
330
1F
100
AcDbEntity
  8
HEWI
100
AcDbLine
 10
110.600155
 20
240.193429
 30
0.0
 11
110.797173
 21
242.363886
 31
0.0
  0
LINE
  5
C4
330
1F
100
AcDbEntity
  8
HEWI
100
AcDbLine
 10
110.797173
 20
242.363886
 30
0.0
 11
110.797173
 21
246.606213
 31
0.0
  0
LINE
  5
C5
330
1F
100
AcDbEntity
  8
HEWI
100
AcDbLine
 10
90.19449300000001
 20
246.606213
 30
0.0
 11
90.19449300000001
 21
242.363886
 31
0.0
  0
LINE
  5
C6
330
1F
100
AcDbEntity
  8
HEWI
100
AcDbLine
 10
90.19449300000001
 20
242.363886
 30
0.0
 11
90.391512
 21
240.193429
 31
0.0
  0
LINE
  5
C7
330
1F
100
AcDbEntity
  8
HEWI
100
AcDbLine
 10
90.43081800000001
 20
240.626442
 30
0.0
 11
90.43081800000001
 21
246.438227
 31
0.0
  0
LINE
  5
C8
330
1F
100
AcDbEntity
  8
HEWI
100
AcDbLine
 10
116.805234
 20
240.626442
 30
0.0
 11
114.495833
 21
242.935843
 31
0.0
  0
LINE
  5
C9
330
1F
100
AcDbEntity
  8
HEWI
100
AcDbLine
 10
84.18643199999999
 20
240.626442
 30
0.0
 11
86.49583299999999
 21
242.935843
 31
0.0
  0
LINE
  5
CA
330
1F
100
AcDbEntity
  8
HEWI
100
AcDbLine
 10
114.495833
 20
242.935843
 30
0.0
 11
110.975708
 21
242.935843
 31
0.0
  0
LINE
  5
CB
330
1F
100
AcDbEntity
  8
HEWI
100
AcDbLine
 10
90.015958
 20
242.935843
 30
0.0
 11
86.49583299999999
 21
242.935843
 31
0.0
  0
LINE
  5
CC
330
1F
100
AcDbEntity
  8
HEWI
100
AcDbLine
 10
114.495833
 20
196.420889
 30
0.0
 11
116.805234
 21
198.73029
 31
0.0
  0
LINE
  5
CD
330
1F
100
AcDbEntity
  8
HEWI
100
AcDbLine
 10
86.49583299999999
 20
196.420889
 30
0.0
 11
84.18643199999999
 21
198.73029
 31
0.0
  0
LINE
  5
CE
330
1F
100
AcDbEntity
  8
HEWI
100
AcDbLine
 10
114.495833
 20
196.420889
 30
0.0
 11
86.49583299999999
 21
196.420889
 31
0.0
  0
LINE
  5
CF
330
1F
100
AcDbEntity
  8
HEWI
100
AcDbLine
 10
119.403311
 20
238.028366
 30
0.0
 11
120.495833
 21
236.935843
 31
0.0
  0
LINE
  5
D0
330
1F
100
AcDbEntity
  8
HEWI
100
AcDbLine
 10
81.58835600000001
 20
238.028366
 30
0.0
 11
80.495833
 21
236.935843
 31
0.0
  0
LINE
  5
D1
330
1F
100
AcDbEntity
  8
HEWI
100
AcDbLine
 10
119.403311
 20
201.328366
 30
0.0
 11
120.495833
 21
202.420889
 31
0.0
  0
LINE
  5
D2
330
1F
100
AcDbEntity
  8
HEWI
100
AcDbLine
 10
81.58835600000001
 20
201.328366
 30
0.0
 11
80.495833
 21
202.420889
 31
0.0
  0
LINE
  5
D3
330
1F
100
AcDbEntity
  8
HEWI
100
AcDbLine
 10
89.74583299999999
 20
230.928366
 30
0.0
 11
89.74583299999999
 21
234.428366
 31
0.0
  0
LINE
  5
D4
330
1F
100
AcDbEntity
  8
HEWI
100
AcDbLine
 10
83.24583299999998
 20
234.428366
 30
0.0
 11
83.24583299999998
 21
230.928366
 31
0.0
  0
LINE
  5
D5
330
1F
100
AcDbEntity
  8
HEWI
100
AcDbLine
 10
98.74583299999999
 20
208.928366
 30
0.0
 11
102.245833
 21
208.928366
 31
0.0
  0
LINE
  5
D6
330
1F
100
AcDbEntity
  8
HEWI
100
AcDbLine
 10
102.245833
 20
202.428366
 30
0.0
 11
98.74583299999999
 21
202.428366
 31
0.0
  0
LINE
  5
D7
330
1F
100
AcDbEntity
  8
HEWI
100
AcDbLine
 10
120.495833
 20
236.935843
 30
0.0
 11
120.495833
 21
202.420889
 31
0.0
  0
LINE
  5
D8
330
1F
100
AcDbEntity
  8
HEWI
100
AcDbLine
 10
80.495833
 20
236.935843
 30
0.0
 11
80.495833
 21
202.420889
 31
0.0
  0
LINE
  5
D9
330
1F
100
AcDbEntity
  8
HEWI
100
AcDbLine
 10
116.805234
 20
198.73029
 30
0.0
 11
84.18643199999999
 21
198.73029
 31
0.0
  0
LINE
  5
DA
330
1F
100
AcDbEntity
  8
HEWI
100
AcDbLine
 10
116.805234
 20
198.73029
 30
0.0
 11
119.403311
 21
201.328366
 31
0.0
  0
LINE
  5
DB
330
1F
100
AcDbEntity
  8
HEWI
100
AcDbLine
 10
119.403311
 20
201.328366
 30
0.0
 11
81.58835600000001
 21
201.328366
 31
0.0
  0
LINE
  5
DC
330
1F
100
AcDbEntity
  8
HEWI
100
AcDbLine
 10
84.18643199999999
 20
198.73029
 30
0.0
 11
81.58835600000001
 21
201.328366
 31
0.0
  0
LINE
  5
DD
330
1F
100
AcDbEntity
  8
HEWI
100
AcDbLine
 10
119.403311
 20
238.028366
 30
0.0
 11
116.805234
 21
240.626442
 31
0.0
  0
LINE
  5
DE
330
1F
100
AcDbEntity
  8
HEWI
100
AcDbLine
 10
119.403311
 20
238.028366
 30
0.0
 11
81.58835600000001
 21
238.028366
 31
0.0
  0
LINE
  5
DF
330
1F
100
AcDbEntity
  8
HEWI
100
AcDbLine
 10
116.805234
 20
240.626442
 30
0.0
 11
110.639261
 21
240.626442
 31
0.0
  0
LINE
  5
E0
330
1F
100
AcDbEntity
  8
HEWI
100
AcDbLine
 10
90.352405
 20
240.626442
 30
0.0
 11
84.18643199999999
 21
240.626442
 31
0.0
  0
LINE
  5
E1
330
1F
100
AcDbEntity
  8
HEWI
100
AcDbLine
 10
81.58835600000001
 20
238.028366
 30
0.0
 11
84.18643199999999
 21
240.626442
 31
0.0
  0
LINE
  5
E2
330
1F
100
AcDbEntity
  8
HEWI
100
AcDbLine
 10
326.381724
 20
125.494202
 30
0.0
 11
318.744971
 21
129.903283
 31
0.0
  0
LINE
  5
E3
330
1F
100
AcDbEntity
  8
HEWI
100
AcDbLine
 10
285.344971
 20
72.05278599999999
 30
0.0
 11
292.9817240000001
 21
67.64370500000001
 31
0.0
  0
CIRCLE
  5
E4
330
1F
100
AcDbEntity
  8
HEWI
100
AcDbCircle
 10
259.541667
 20
217.260417
 30
0.0
 40
33.4
  0
CIRCLE
  5
E5
330
1F
100
AcDbEntity
  8
HEWI
100
AcDbCircle
 10
259.541667
 20
217.260417
 30
0.0
 40
32.20000000000001
  0
ARC
  5
E6
330
1F
100
AcDbEntity
  8
HEWI
100
AcDbCircle
 10
178.55
 20
185.060417
 30
0.0
 40
1.199999999999999
100
AcDbArc
 50
180.0
 51
270.0
  0
ARC
  5
E7
330
1F
100
AcDbEntity
  8
HEWI
100
AcDbCircle
 10
178.55
 20
249.460417
 30
0.0
 40
1.199999999999999
100
AcDbArc
 50
90.0
 51
180.0
  0
CIRCLE
  5
E8
330
1F
100
AcDbEntity
  8
HEWI
100
AcDbCircle
 10
100.495833
 20
217.260417
 30
0.0
 40
32.5
  0
ARC
  5
E9
330
1F
100
AcDbEntity
  8
HEWI
100
AcDbCircle
 10
114.353698
 20
189.260417
 30
0.0
 40
9.896655180566323
100
AcDbArc
 50
51.37253199999999
 51
75.095831
  0
ARC
  5
EA
330
1F
100
AcDbEntity
  8
HEWI
100
AcDbCircle
 10
86.63796899999999
 20
189.260417
 30
0.0
 40
9.896655180566323
100
AcDbArc
 50
104.904169
 51
128.627468
  0
ARC
  5
EB
330
1F
100
AcDbEntity
  8
HEWI
100
AcDbCircle
 10
88.450728
 20
234.46261
 30
0.0
 40
3.000000000000003
100
AcDbArc
 50
180.0
 51
295.576875
  0
ARC
  5
EC
330
1F
100
AcDbEntity
  8
HEWI
100
AcDbCircle
 10
88.450728
 20
234.46261
 30
0.0
 40
3.000000000000003
100
AcDbArc
 50
102.110628
 51
180.0
  0
ARC
  5
ED
330
1F
100
AcDbEntity
  8
HEWI
100
AcDbCircle
 10
112.540938
 20
234.46261
 30
0.0
 40
3.000000000000003
100
AcDbArc
 50
247.651876
 51
0.0
  0
ARC
  5
EE
330
1F
100
AcDbEntity
  8
HEWI
100
AcDbCircle
 10
112.540938
 20
234.46261
 30
0.0
 40
3.000000000000003
100
AcDbArc
 50
0.0
 51
27.573747
  0
ARC
  5
EF
330
1F
100
AcDbEntity
  8
HEWI
100
AcDbCircle
 10
100.495833
 20
217.260417
 30
0.0
 40
12.5
100
AcDbArc
 50
246.436876
 51
293.563127
  0
ARC
  5
F0
330
1F
100
AcDbEntity
  8
HEWI
100
AcDbCircle
 10
117.698026
 20
205.215312
 30
0.0
 40
3.000000000000001
100
AcDbArc
 50
338.844373
 51
21.16124
  0
ARC
  5
F1
330
1F
100
AcDbEntity
  8
HEWI
100
AcDbCircle
 10
121.415922
 20
215.430146
 30
0.0
 40
3.000000000000003
100
AcDbArc
 50
300.0
 51
107.861241
  0
ARC
  5
F2
330
1F
100
AcDbEntity
  8
HEWI
100
AcDbCircle
 10
121.415922
 20
215.430146
 30
0.0
 40
3.000000000000003
100
AcDbArc
 50
252.136882
 51
300.0
  0
ARC
  5
F3
330
1F
100
AcDbEntity
  8
HEWI
100
AcDbCircle
 10
119.528297
 20
226.1354
 30
0.0
 40
2.999999999999998
100
AcDbArc
 50
330.0
 51
71.188128
  0
ARC
  5
F4
330
1F
100
AcDbEntity
  8
HEWI
100
AcDbCircle
 10
119.528297
 20
226.1354
 30
0.0
 40
2.999999999999998
100
AcDbArc
 50
288.81375
 51
330.0
  0
ARC
  5
F5
330
1F
100
AcDbEntity
  8
HEWI
100
AcDbCircle
 10
79.57574499999999
 20
215.430146
 30
0.0
 40
3.000000000000003
100
AcDbArc
 50
72.13875899999999
 51
240.0
  0
ARC
  5
F6
330
1F
100
AcDbEntity
  8
HEWI
100
AcDbCircle
 10
79.57574499999999
 20
215.430146
 30
0.0
 40
3.000000000000003
100
AcDbArc
 50
240.0
 51
287.8631180000001
  0
ARC
  5
F7
330
1F
100
AcDbEntity
  8
HEWI
100
AcDbCircle
 10
81.46337
 20
226.1354
 30
0.0
 40
2.999999999999998
100
AcDbArc
 50
108.811872
 51
210.0
  0
ARC
  5
F8
330
1F
100
AcDbEntity
  8
HEWI
100
AcDbCircle
 10
81.46337
 20
226.1354
 30
0.0
 40
2.999999999999998
100
AcDbArc
 50
210.0
 51
251.18625
  0
ARC
  5
F9
330
1F
100
AcDbEntity
  8
HEWI
100
AcDbCircle
 10
83.29363999999999
 20
205.215312
 30
0.0
 40
3.000000000000001
100
AcDbArc
 50
158.83876
 51
201.155627
  0
ARC
  5
FA
330
1F
100
AcDbEntity
  8
HEWI
100
AcDbCircle
 10
100.495833
 20
217.260417
 30
0.0
 40
28.5
100
AcDbArc
 50
314.669303
 51
55.14082
  0
ARC
  5
FB
330
1F
100
AcDbEntity
  8
HEWI
100
AcDbCircle
 10
100.495833
 20
217.260417
 30
0.0
 40
28.5
100
AcDbArc
 50
64.27396
 51
66.432384
  0
ARC
  5
FC
330
1F
100
AcDbEntity
  8
HEWI
100
AcDbCircle
 10
100.495833
 20
217.260417
 30
0.0
 40
28.5
100
AcDbArc
 50
113.567616
 51
115.72604
  0
ARC
  5
FD
330
1F
100
AcDbEntity
  8
HEWI
100
AcDbCircle
 10
100.495833
 20
217.260417
 30
0.0
 40
28.5
100
AcDbArc
 50
124.85918
 51
225.330697
  0
ARC
  5
FE
330
1F
100
AcDbEntity
  8
HEWI
100
AcDbCircle
 10
100.495833
 20
217.260417
 30
0.0
 40
29.0
100
AcDbArc
 50
120.331306
 51
135.0
  0
ARC
  5
FF
330
1F
100
AcDbEntity
  8
HEWI
100
AcDbCircle
 10
100.495833
 20
217.260417
 30
0.0
 40
31.29999999999999
100
AcDbArc
 50
117.176731
 51
135.0
  0
ARC
  5
100
330
1F
100
AcDbEntity
  8
HEWI
100
AcDbCircle
 10
100.495833
 20
217.260417
 30
0.0
 40
29.0
100
AcDbArc
 50
345.0
 51
15.0
  0
ARC
  5
101
330
1F
100
AcDbEntity
  8
HEWI
100
AcDbCircle
 10
100.495833
 20
217.260417
 30
0.0
 40
31.29999999999999
100
AcDbArc
 50
345.0
 51
15.0
  0
ARC
  5
102
330
1F
100
AcDbEntity
  8
HEWI
100
AcDbCircle
 10
100.495833
 20
217.260417
 30
0.0
 40
29.0
100
AcDbArc
 50
165.0
 51
195.0
  0
ARC
  5
103
330
1F
100
AcDbEntity
  8
HEWI
100
AcDbCircle
 10
100.495833
 20
217.260417
 30
0.0
 40
31.29999999999999
100
AcDbArc
 50
165.0
 51
195.0
  0
ARC
  5
104
330
1F
100
AcDbEntity
  8
HEWI
100
AcDbCircle
 10
100.495833
 20
217.260417
 30
0.0
 40
29.0
100
AcDbArc
 50
45.0
 51
59.668694
  0
ARC
  5
105
330
1F
100
AcDbEntity
  8
HEWI
100
AcDbCircle
 10
100.495833
 20
217.260417
 30
0.0
 40
31.29999999999999
100
AcDbArc
 50
45.0
 51
62.823269
  0
ARC
  5
106
330
1F
100
AcDbEntity
  8
HEWI
100
AcDbCircle
 10
100.495833
 20
217.260417
 30
0.0
 40
29.0
100
AcDbArc
 50
315.410042
 51
344.031978
  0
ARC
  5
107
330
1F
100
AcDbEntity
  8
HEWI
100
AcDbCircle
 10
100.495833
 20
217.260417
 30
0.0
 40
31.81961524227066
100
AcDbArc
 50
315.610532
 51
344.117764
  0
ARC
  5
108
330
1F
100
AcDbEntity
  8
HEWI
100
AcDbCircle
 10
100.495833
 20
217.260417
 30
0.0
 40
29.0
100
AcDbArc
 50
15.968022
 51
44.031978
  0
ARC
  5
109
330
1F
100
AcDbEntity
  8
HEWI
100
AcDbCircle
 10
100.495833
 20
217.260417
 30
0.0
 40
31.81961524227066
100
AcDbArc
 50
15.882236
 51
44.11776399999999
  0
ARC
  5
10A
330
1F
100
AcDbEntity
  8
HEWI
100
AcDbCircle
 10
100.495833
 20
217.260417
 30
0.0
 40
29.0
100
AcDbArc
 50
135.968022
 51
164.031978
  0
ARC
  5
10B
330
1F
100
AcDbEntity
  8
HEWI
100
AcDbCircle
 10
100.495833
 20
217.260417
 30
0.0
 40
31.81961524227066
100
AcDbArc
 50
135.882236
 51
164.117764
  0
ARC
  5
10C
330
1F
100
AcDbEntity
  8
HEWI
100
AcDbCircle
 10
100.495833
 20
217.260417
 30
0.0
 40
31.81961524227066
100
AcDbArc
 50
195.882236
 51
224.389468
  0
ARC
  5
10D
330
1F
100
AcDbEntity
  8
HEWI
100
AcDbCircle
 10
100.495833
 20
217.260417
 30
0.0
 40
29.0
100
AcDbArc
 50
195.968022
 51
224.589958
  0
ARC
  5
10E
330
1F
100
AcDbEntity
  8
HEWI
100
AcDbCircle
 10
100.495833
 20
217.260417
 30
0.0
 40
29.79999999999999
100
AcDbArc
 50
72.421426
 51
107.578574
  0
ARC
  5
10F
330
1F
100
AcDbEntity
  8
HEWI
100
AcDbCircle
 10
100.495833
 20
217.260417
 30
0.0
 40
31.29999999999999
100
AcDbArc
 50
62.823269
 51
117.176731
  0
ARC
  5
110
330
1F
100
AcDbEntity
  8
HEWI
100
AcDbCircle
 10
100.495833
 20
217.260417
 30
0.0
 40
30.86501543195076
100
AcDbArc
 50
70.96789799999999
 51
109.032102
  0
ARC
  5
111
330
1F
100
AcDbEntity
  8
HEWI
100
AcDbCircle
 10
86.49583299999999
 20
230.928366
 30
0.0
 40
3.25
100
AcDbArc
 50
180.0
 51
0.0
  0
ARC
  5
112
330
1F
100
AcDbEntity
  8
HEWI
100
AcDbCircle
 10
86.49583299999999
 20
234.428366
 30
0.0
 40
3.249999999999998
100
AcDbArc
 50
0.0
 51
180.0
  0
CIRCLE
  5
113
330
1F
100
AcDbEntity
  8
HEWI
100
AcDbCircle
 10
114.495833
 20
232.678366
 30
0.0
 40
3.25
  0
ARC
  5
114
330
1F
100
AcDbEntity
  8
HEWI
100
AcDbCircle
 10
102.245833
 20
205.678366
 30
0.0
 40
3.250000000000003
100
AcDbArc
 50
270.0
 51
90.0
  0
ARC
  5
115
330
1F
100
AcDbEntity
  8
HEWI
100
AcDbCircle
 10
98.74583299999999
 20
205.678366
 30
0.0
 40
3.250000000000003
100
AcDbArc
 50
89.999999
 51
270.0
  0
ARC
  5
116
330
1F
100
AcDbEntity
  8
HEWI
100
AcDbCircle
 10
100.495833
 20
217.260417
 30
0.0
 40
31.7
100
AcDbArc
 50
344.821388
 51
15.185138
  0
ARC
  5
117
330
1F
100
AcDbEntity
  8
HEWI
100
AcDbCircle
 10
100.495833
 20
217.260417
 30
0.0
 40
31.7
100
AcDbArc
 50
44.817638
 51
135.183264
  0
ARC
  5
118
330
1F
100
AcDbEntity
  8
HEWI
100
AcDbCircle
 10
100.495833
 20
217.260417
 30
0.0
 40
31.7
100
AcDbArc
 50
164.810138
 51
195.179513
  0
ARC
  5
119
330
1F
100
AcDbEntity
  8
HEWI
100
AcDbCircle
 10
100.495833
 20
217.260417
 30
0.0
 40
31.7
100
AcDbArc
 50
225.087639
 51
314.907638
  0
CIRCLE
  5
11A
330
1F
100
AcDbEntity
  8
HEWI
100
AcDbCircle
 10
100.495833
 20
217.260417
 30
0.0
 40
32.9
  0
CIRCLE
  5
11B
330
1F
100
AcDbEntity
  8
HEWI
100
AcDbCircle
 10
100.495833
 20
217.260417
 30
0.0
 40
33.4
  0
ELLIPSE
  5
11C
330
1F
100
AcDbEntity
  8
HEWI
100
AcDbEllipse
 10
93.44103999999999
 20
191.376214
 30
0.0
 11
1.000011282099465
 21
0.000081021406632
 31
0.0
210
0.0
220
0.0
230
1.0
 40
0.055029
 41
1.569842306054481
 42
3.123261791757963
  0
ELLIPSE
  5
11D
330
1F
100
AcDbEntity
  8
HEWI
100
AcDbEllipse
 10
93.464196
 20
196.327117
 30
0.0
 11
-1.000010838895629
 21
0.0000202663614195
 31
0.0
210
0.0
220
0.0
230
1.0
 40
0.017986
 41
0.0179852711309767
 42
0.2522565422210343
  0
ELLIPSE
  5
11E
330
1F
100
AcDbEntity
  8
HEWI
100
AcDbEllipse
 10
107.550627
 20
191.376214
 30
0.0
 11
-1.000011282099457
 21
0.0000810214066321
 31
0.0
210
0.0
220
0.0
230
1.0
 40
0.055029
 41
3.159923515421623
 42
4.713343001125106
  0
ELLIPSE
  5
11F
330
1F
100
AcDbEntity
  8
HEWI
100
AcDbEllipse
 10
107.527471
 20
196.327117
 30
0.0
 11
1.000010838895611
 21
0.0000202663614196
 31
0.0
210
0.0
220
0.0
230
1.0
 40
0.017986
 41
6.030928764958548
 42
6.265200036048607
  0
ELLIPSE
  5
120
330
1F
100
AcDbEntity
  8
HEWI
100
AcDbEllipse
 10
114.791692
 20
242.243023
 30
0.0
 11
-4.000000000000887
 21
0.0
 31
0.0
210
0.0
220
0.0
230
1.0
 40
0.5773500000000001
 41
5.549659986196874
 42
6.230826228809736
  0
ELLIPSE
  5
121
330
1F
100
AcDbEntity
  8
HEWI
100
AcDbEllipse
 10
114.791692
 20
243.648803
 30
0.0
 11
3.999999992466285
 21
0.000000000266454
 31
0.0
210
0.0
220
0.0
230
1.0
 40
0.052408
 41
2.285720254102308
 42
2.40806733205151
  0
ELLIPSE
  5
122
330
1F
100
AcDbEntity
  8
HEWI
100
AcDbEllipse
 10
86.199975
 20
242.243023
 30
0.0
 11
-4.000000000002938
 21
0.0
 31
0.0
210
0.0
220
0.0
230
1.0
 40
0.5773500000000001
 41
3.193951731959651
 42
3.875117974572308
  0
ELLIPSE
  5
123
330
1F
100
AcDbEntity
  8
HEWI
100
AcDbEllipse
 10
86.199975
 20
243.648803
 30
0.0
 11
-3.999999991015149
 21
0.0000000003179192
 31
0.0
210
0.0
220
0.0
230
1.0
 40
0.052408
 41
3.875117975234336
 42
3.997465053213486
  0
ELLIPSE
  5
124
330
1F
100
AcDbEntity
  8
HEWI
100
AcDbEllipse
 10
126.762412
 20
185.542578
 30
0.0
 11
-8.632173361688897
 21
12.65784346214725
 31
0.0
210
0.0
220
0.0
230
0.9999999999999998
 40
0.157423
 41
5.588914194845686
 42
5.601062779053695
  0
ELLIPSE
  5
125
330
1F
100
AcDbEntity
  8
HEWI
100
AcDbEllipse
 10
100.495835
 20
217.260415
 30
0.0
 11
-20.50609802140242
 21
20.50609802140242
 31
0.0
210
0.0
220
0.0
230
1.0
 40
1.0
 41
0.0
 42
0.0168951658153746
  0
ELLIPSE
  5
126
330
1F
100
AcDbEntity
  8
HEWI
100
AcDbEllipse
 10
100.508447
 20
217.247831
 30
0.0
 11
-22.16938629975405
 21
22.12067055272557
 31
0.0
210
0.0
220
0.0
230
1.0
 40
0.9997149999999999
 41
6.282085695431433
 42
6.28348288073253
  0
ELLIPSE
  5
127
330
1F
100
AcDbEntity
  8
HEWI
100
AcDbEllipse
 10
100.495838
 20
217.260418
 30
0.0
 11
-7.629830565785901
 21
27.97830483074394
 31
0.0
210
0.0
220
0.0
230
0.9999999999999998
 40
1.0
 41
4.707956818429577
 42
4.724851986257968
  0
ELLIPSE
  5
128
330
1F
100
AcDbEntity
  8
HEWI
100
AcDbEllipse
 10
100.546415
 20
217.274001
 30
0.0
 11
-8.111796231393267
 21
30.20346761407564
 31
0.0
210
0.0
220
0.0
230
1.0
 40
0.9991629999999998
 41
4.711807789613508
 42
4.713206543303721
  0
ELLIPSE
  5
129
330
1F
100
AcDbEntity
  8
HEWI
100
AcDbEllipse
 10
115.299759
 20
188.95321
 30
0.0
 11
-9.598740857278865
 21
2.856033459048413
 31
0.0
210
0.0
220
0.0
230
1.0
 40
0.9835309999999999
 41
4.209207550014562
 42
4.372494117963117
  0
ELLIPSE
  5
12A
330
1F
100
AcDbEntity
  8
HEWI
100
AcDbEllipse
 10
100.184802
 20
216.946901
 30
0.0
 11
-22.06298916243772
 21
21.88816238606286
 31
0.0
210
0.0
220
0.0
230
0.9999999999999998
 40
0.9929199999999999
 41
1.570237501175285
 42
1.571637658188925
  0
ELLIPSE
  5
12B
330
1F
100
AcDbEntity
  8
HEWI
100
AcDbEllipse
 10
100.568587
 20
217.187122
 30
0.0
 11
22.17759252001384
 21
22.01390395944991
 31
0.0
210
0.0
220
0.0
230
1.0
 40
0.9983489999999999
 41
4.711278097127153
 42
4.712670640549343
  0
ELLIPSE
  5
12C
330
1F
100
AcDbEntity
  8
HEWI
100
AcDbEllipse
 10
74.22916999999999
 20
185.54241
 30
0.0
 11
8.632266474495574
 21
12.65801405057385
 31
0.0
210
0.0
220
0.0
230
1.0
 40
0.157423
 41
0.6821185003701622
 42
0.6942669885301305
  0
ELLIPSE
  5
12D
330
1F
100
AcDbEntity
  8
HEWI
100
AcDbEllipse
 10
85.69190799999999
 20
188.95321
 30
0.0
 11
-9.598740857278865
 21
-2.856033459048413
 31
0.0
210
0.0
220
0.0
230
1.0
 40
0.9835309999999999
 41
5.052283842806262
 42
5.215570410754816
  0
ELLIPSE
  5
12E
330
1F
100
AcDbEntity
  8
HEWI
100
AcDbEllipse
 10
100.483775
 20
217.248385
 30
0.0
 11
22.16925229986623
 21
22.11969504818581
 31
0.0
210
0.0
220
0.0
230
1.0
 40
0.9997279999999999
 41
6.282906752588878
 42
6.284303955375981
  0
ELLIPSE
  5
12F
330
1F
100
AcDbEntity
  8
HEWI
100
AcDbEllipse
 10
100.495832
 20
217.260415
 30
0.0
 11
20.50609794699281
 21
20.50609794699282
 31
0.0
210
0.0
220
0.0
230
1.0
 40
1.0
 41
6.266290141333556
 42
6.283185307179585
  0
ELLIPSE
  5
130
330
1F
100
AcDbEntity
  8
HEWI
100
AcDbEllipse
 10
100.495829
 20
217.260416
 30
0.0
 11
-7.595523443739671
 21
27.98763846868418
 31
0.0
210
0.0
220
0.0
230
0.9999999999999998
 40
1.0
 41
1.567590169293713
 42
1.584485336843129
  0
ELLIPSE
  5
131
330
1F
100
AcDbEntity
  8
HEWI
100
AcDbEllipse
 10
100.4994
 20
217.261371
 30
0.0
 11
30.23928463037351
 21
8.093626853922774
 31
0.0
210
0.0
220
0.0
230
0.9999999999999998
 40
0.9999409999999999
 41
3.141869268102742
 42
3.143266768624101
  0
ELLIPSE
  5
132
330
1F
100
AcDbEntity
  8
HEWI
100
AcDbEllipse
 10
100.495832
 20
217.260417
 30
0.0
 11
7.797618011452307
 21
27.93200876140177
 31
0.0
210
0.0
220
0.0
230
0.9999999999999998
 40
1.0
 41
1.564335307956153
 42
1.581230474735481
  0
ELLIPSE
  5
133
330
1F
100
AcDbEntity
  8
HEWI
100
AcDbEllipse
 10
100.753815
 20
217.191093
 30
0.0
 11
-30.48565672270223
 21
8.191987183593516
 31
0.0
210
0.0
220
0.0
230
1.0
 40
0.9957600000000001
 41
6.28250602633574
 42
6.283897683262258
  0
ELLIPSE
  5
134
330
1F
100
AcDbEntity
  8
HEWI
100
AcDbEllipse
 10
100.258151
 20
217.32429
 30
0.0
 11
-30.46522636262301
 21
8.187022658661494
 31
0.0
210
0.0
220
0.0
230
1.0
 40
0.996091
 41
3.140929169291133
 42
3.142321289761732
  0
ELLIPSE
  5
135
330
1F
100
AcDbEntity
  8
HEWI
100
AcDbEllipse
 10
100.495837
 20
217.260416
 30
0.0
 11
7.701016755827901
 21
27.95879510873483
 31
0.0
210
0.0
220
0.0
230
1.0
 40
1.0
 41
4.702471191825333
 42
4.719366359379066
  0
ELLIPSE
  5
136
330
1F
100
AcDbEntity
  8
HEWI
100
AcDbEllipse
 10
90.634847
 20
197.105716
 30
0.0
 11
-0.0000000000000012
 21
0.9999999999924499
 31
0.0
210
0.0
220
0.0
230
1.0
 40
0.017455
 41
5.75958653157921
 42
6.283202949578697
  0
ELLIPSE
  5
137
330
1F
100
AcDbEntity
  8
HEWI
100
AcDbEllipse
 10
90.57201199999999
 20
197.336747
 30
0.0
 11
-0.0000000000000012
 21
0.9999999998452333
 31
0.0
210
0.0
220
0.0
230
1.0
 40
0.017455
 41
3.159041683506286
 42
3.554740024854984
  0
ELLIPSE
  5
138
330
1F
100
AcDbEntity
  8
HEWI
100
AcDbEllipse
 10
92.45456500000001
 20
197.336747
 30
0.0
 11
-0.0000000000000012
 21
1.000000000033278
 31
0.0
210
0.0
220
0.0
230
1.0
 40
0.017455
 41
2.728445282363765
 42
3.124143623671053
  0
ELLIPSE
  5
139
330
1F
100
AcDbEntity
  8
HEWI
100
AcDbEllipse
 10
90.638965
 20
195.81482
 30
0.0
 11
-0.0000000000000023
 21
1.999999999993267
 31
0.0
210
0.0
220
0.0
230
1.0
 40
0.017455
 41
4.71238898038469
 42
5.759586531584282
  0
ELLIPSE
  5
13A
330
1F
100
AcDbEntity
  8
HEWI
100
AcDbEllipse
 10
92.387612
 20
195.81482
 30
0.0
 11
-0.0000000000000023
 21
1.99999999999327
 31
0.0
210
0.0
220
0.0
230
1.0
 40
0.017455
 41
0.523598775595203
 42
1.570796326794897
  0
ELLIPSE
  5
13B
330
1F
100
AcDbEntity
  8
HEWI
100
AcDbEllipse
 10
90.638965
 20
193.47313
 30
0.0
 11
-0.0000000000000023
 21
1.999999999998698
 31
0.0
210
0.0
220
0.0
230
1.0
 40
0.017455
 41
3.17649710789621
 42
4.71238898038469
  0
ELLIPSE
  5
13C
330
1F
100
AcDbEntity
  8
HEWI
100
AcDbEllipse
 10
92.387612
 20
193.47313
 30
0.0
 11
-0.0000000000000023
 21
1.999999999998647
 31
0.0
210
0.0
220
0.0
230
1.0
 40
0.017455
 41
1.570796326794897
 42
3.106688199283262
  0
ELLIPSE
  5
13D
330
1F
100
AcDbEntity
  8
HEWI
100
AcDbEllipse
 10
110.419655
 20
197.336747
 30
0.0
 11
-0.0000000000000012
 21
0.9999999998452302
 31
0.0
210
0.0
220
0.0
230
1.0
 40
0.017455
 41
2.728445282324579
 42
3.124143623673166
  0
ELLIPSE
  5
13E
330
1F
100
AcDbEntity
  8
HEWI
100
AcDbEllipse
 10
110.352702
 20
195.81482
 30
0.0
 11
-0.0000000000000023
 21
1.999999999993561
 31
0.0
210
0.0
220
0.0
230
1.0
 40
0.017455
 41
0.523598775595338
 42
1.570796326794897
  0
ELLIPSE
  5
13F
330
1F
100
AcDbEntity
  8
HEWI
100
AcDbEllipse
 10
110.352702
 20
193.47313
 30
0.0
 11
-0.0000000000000023
 21
1.999999999999266
 31
0.0
210
0.0
220
0.0
230
1.0
 40
0.017455
 41
1.570796326794897
 42
3.106688199304826
  0
ELLIPSE
  5
140
330
1F
100
AcDbEntity
  8
HEWI
100
AcDbEllipse
 10
108.599937
 20
197.105716
 30
0.0
 11
-0.0000000000000012
 21
0.9999999999996701
 31
0.0
210
0.0
220
0.0
230
1.0
 40
0.017455
 41
5.759586531581175
 42
6.283202949579561
  0
ELLIPSE
  5
141
330
1F
100
AcDbEntity
  8
HEWI
100
AcDbEllipse
 10
108.537102
 20
197.336747
 30
0.0
 11
-0.0000000000000012
 21
1.000000000009654
 31
0.0
210
0.0
220
0.0
230
1.0
 40
0.017455
 41
3.159041683508133
 42
3.554740024820718
  0
ELLIPSE
  5
142
330
1F
100
AcDbEntity
  8
HEWI
100
AcDbEllipse
 10
108.604055
 20
193.47313
 30
0.0
 11
-0.0000000000000023
 21
1.9999999999992
 31
0.0
210
0.0
220
0.0
230
1.0
 40
0.017455
 41
3.176497107874598
 42
4.71238898038469
  0
ELLIPSE
  5
143
330
1F
100
AcDbEntity
  8
HEWI
100
AcDbEllipse
 10
108.604055
 20
195.81482
 30
0.0
 11
-0.0000000000000023
 21
1.999999999993561
 31
0.0
210
0.0
220
0.0
230
1.0
 40
0.017455
 41
4.71238898038469
 42
5.759586531584147
  0
ELLIPSE
  5
144
330
1F
100
AcDbEntity
  8
HEWI
100
AcDbEllipse
 10
100.495833
 20
214.174792
 30
0.0
 11
-0.0000000000000376
 21
32.08467195536588
 31
0.0
210
0.0
220
0.0
230
1.0
 40
0.9958719999999999
 41
6.008178848822102
 42
6.558191765537067
  0
ELLIPSE
  5
145
330
1F
100
AcDbEntity
  8
HEWI
100
AcDbEllipse
 10
110.587053
 20
240.626442
 30
0.0
 11
-0.0000000000000006
 21
0.5000000000001036
 31
0.0
210
0.0
220
0.0
230
1.0
 40
0.052408
 41
1.570796326794897
 42
3.665191429188023
  0
ELLIPSE
  5
146
330
1F
100
AcDbEntity
  8
HEWI
100
AcDbEllipse
 10
90.40461399999999
 20
240.626442
 30
0.0
 11
-0.0000000000000006
 21
0.5000000000001036
 31
0.0
210
0.0
220
0.0
230
1.0
 40
0.052408
 41
2.617993877991529
 42
4.71238898038469
  0
ELLIPSE
  5
147
330
1F
100
AcDbEntity
  8
HEWI
100
AcDbEllipse
 10
302.044971
 20
100.978035
 30
0.0
 11
-16.70000000000003
 21
-28.92524848640022
 31
0.0
210
0.0
220
0.0
230
1.0
 40
0.5773500000000001
 41
3.141633851652636
 42
6.2831283154479
  0
ELLIPSE
  5
148
330
1F
100
AcDbEntity
  8
HEWI
100
AcDbEllipse
 10
310.530252
 20
96.07905500000001
 30
0.0
 11
16.1
 21
27.88601800185893
 31
0.0
210
0.0
220
0.0
230
1.0
 40
0.5773500000000001
 41
0.0
 42
6.283185307179585
  0
ELLIPSE
  5
149
330
1F
100
AcDbEntity
  8
HEWI
100
AcDbEllipse
 10
309.681724
 20
96.56895300000002
 30
0.0
 11
-16.70000000000003
 21
-28.92524848640022
 31
0.0
210
0.0
220
0.0
230
1.0
 40
0.5773500000000001
 41
6.281459377307177
 42
6.283128367305786
  0
ELLIPSE
  5
14A
330
1F
100
AcDbEntity
  8
HEWI
100
AcDbEllipse
 10
309.681724
 20
96.56895300000002
 30
0.0
 11
-16.70000000000003
 21
-28.92524848640022
 31
0.0
210
0.0
220
0.0
230
1.0
 40
0.5773500000000001
 41
3.141633851652636
 42
6.281459377307097
  0
ELLIPSE
  5
14B
330
1F
100
AcDbEntity
  8
HEWI
100
AcDbEllipse
 10
309.681724
 20
96.56895300000002
 30
0.0
 11
-16.70000000000003
 21
-28.92524848640022
 31
0.0
210
0.0
220
0.0
230
1.0
 40
0.5773500000000001
 41
3.135547011305767
 42
3.141633851652633
  0
SPLINE
  5
14C
330
1F
100
AcDbEntity
  8
HEWI
100
AcDbSpline
210
0.0
220
0.0
230
1.0
 70
     8
 71
     3
 72
    30
 73
    26
 74
     0
 42
0.000000001
 43
0.0000000001
 40
0.0
 40
0.0
 40
0.0
 40
0.0
 40
0.0625000000000017
 40
0.0625000000000017
 40
0.1250000000000033
 40
0.1250000000000033
 40
0.2500000000000038
 40
0.2500000000000038
 40
0.3125000000000052
 40
0.3125000000000052
 40
0.3750000000000065
 40
0.4375000000000079
 40
0.4375000000000079
 40
0.5000000000000093
 40
0.5000000000000093
 40
0.6249999999999988
 40
0.6249999999999988
 40
0.6874999999999976
 40
0.6874999999999976
 40
0.7499999999999963
 40
0.8124999999999948
 40
0.8124999999999948
 40
0.8749999999999937
 40
0.8749999999999937
 40
1.0
 40
1.0
 40
1.0
 40
1.0
 10
120.8972230417085
 20
196.6501450050169
 30
0.0
 10
120.8978307521182
 20
196.6507465563745
 30
0.0
 10
120.8978442626922
 20
196.6518761010071
 30
0.0
 10
120.896653865969
 20
196.6552154924663
 30
0.0
 10
120.8954379477649
 20
196.657439471573
 30
0.0
 10
120.8900197690778
 20
196.6656013417135
 30
0.0
 10
120.8840683719006
 20
196.6730356366709
 30
0.0
 10
120.8716323588091
 20
196.6871253158985
 30
0.0
 10
120.8668833184285
 20
196.6923304201036
 30
0.0
 10
120.8562171474786
 20
196.7036912364188
 30
0.0
 10
120.8444734315451
 20
196.7159076833017
 30
0.0
 10
120.8305881204684
 20
196.729797606759
 30
0.0
 10
120.8156063613824
 20
196.744529405544
 30
0.0
 10
120.807655341197
 20
196.7522293265094
 30
0.0
 10
120.7825238042108
 20
196.7762187623711
 30
0.0
 10
120.7640483727084
 20
196.7934176773439
 30
0.0
 10
120.7336710626526
 20
196.8209969302179
 30
0.0
 10
120.7230583946203
 20
196.8305232136208
 30
0.0
 10
120.7013810121509
 20
196.8497605024378
 30
0.0
 10
120.6791550391286
 20
196.8692716419279
 30
0.0
 10
120.6558429215705
 20
196.8893050573346
 30
0.0
 10
120.6319787607702
 20
196.9095956859224
 30
0.0
 10
120.6197253339163
 20
196.9199073098146
 30
0.0
 10
120.5824079165834
 20
196.9509799645149
 30
0.0
 10
120.5572192956897
 20
196.9715234979294
 30
0.0
 10
120.5317262223645
 20
196.9918943687963
 30
0.0
  0
SPLINE
  5
14D
330
1F
100
AcDbEntity
  8
HEWI
100
AcDbSpline
210
0.0
220
0.0
230
1.0
 70
     8
 71
     3
 72
    21
 73
    17
 74
     0
 42
0.000000001
 43
0.0000000001
 40
0.0
 40
0.0
 40
0.0
 40
0.0
 40
0.1687373854268867
 40
0.3374747708537733
 40
0.3374747708537733
 40
0.4218434635672151
 40
0.4218434635672151
 40
0.5062121562806571
 40
0.5062121562806571
 40
0.6749495417075451
 40
0.6749495417075451
 40
0.8436869271344329
 40
0.8436869271344329
 40
0.9280556198478734
 40
0.9280556198478734
 40
1.0
 40
1.0
 40
1.0
 40
1.0
 10
111.8910177747672
 20
243.383199281574
 30
0.0
 10
111.8910177747672
 20
243.4093118505721
 30
0.0
 10
111.890838620338
 20
243.4609577706551
 30
0.0
 10
111.8903161003874
 20
243.5114935676919
 30
0.0
 10
111.8897931186975
 20
243.5489715873963
 30
0.0
 10
111.8895968631663
 20
243.5613933650082
 30
0.0
 10
111.8891590656386
 20
243.5860905061459
 30
0.0
 10
111.8889186533723
 20
243.5982945152386
 30
0.0
 10
111.8881395307161
 20
243.6341763039524
 30
0.0
 10
111.8875410335284
 20
243.6572535594169
 30
0.0
 10
111.8861851573718
 20
243.7017125381885
 30
0.0
 10
111.8854278392506
 20
243.7230949108421
 30
0.0
 10
111.8841644618146
 20
243.7538088977817
 30
0.0
 10
111.8837222881136
 20
243.7638044677537
 30
0.0
 10
111.8828769059796
 20
243.7815786412444
 30
0.0
 10
111.8824762747659
 20
243.7894990893274
 30
0.0
 10
111.8820641276363
 20
243.7971597539479
 30
0.0
  0
SPLINE
  5
14E
330
1F
100
AcDbEntity
  8
HEWI
100
AcDbSpline
210
0.0
220
0.0
230
1.0
 70
     8
 71
     3
 72
    30
 73
    26
 74
     0
 42
0.000000001
 43
0.0000000001
 40
0.0
 40
0.0
 40
0.0
 40
0.0
 40
0.0624999999999959
 40
0.0624999999999959
 40
0.1249999999999918
 40
0.1249999999999918
 40
0.2499999999999848
 40
0.2499999999999848
 40
0.312499999999986
 40
0.312499999999986
 40
0.3749999999999872
 40
0.4374999999999883
 40
0.4374999999999883
 40
0.4999999999999896
 40
0.4999999999999896
 40
0.624999999999992
 40
0.624999999999992
 40
0.6874999999999929
 40
0.6874999999999929
 40
0.7499999999999942
 40
0.8124999999999952
 40
0.8124999999999952
 40
0.8749999999999962
 40
0.8749999999999962
 40
1.0
 40
1.0
 40
1.0
 40
1.0
 10
80.45994044430214
 20
196.9918943687964
 30
0.0
 10
80.44720782759002
 20
196.9817200564436
 30
0.0
 10
80.43451012952749
 20
196.9714695100606
 30
0.0
 10
80.4091854661485
 20
196.9508131591224
 30
0.0
 10
80.39650966097118
 20
196.9403657188755
 30
0.0
 10
80.35939186056344
 20
196.9094550704357
 30
0.0
 10
80.33561862273929
 20
196.8892320333042
 30
0.0
 10
80.3013805264195
 20
196.8595004103679
 30
0.0
 10
80.29019295478073
 20
196.8496793445065
 30
0.0
 10
80.26836326997809
 20
196.8303046655678
 30
0.0
 10
80.24732650152948
 20
196.811417736324
 30
0.0
 10
80.22783895970444
 20
196.7935086191098
 30
0.0
 10
80.20912983483668
 20
196.7761046103774
 30
0.0
 10
80.2002440688491
 20
196.7677287002209
 30
0.0
 10
80.17515355890838
 20
196.7437650418153
 30
0.0
 10
80.16040514770738
 20
196.7292414096833
 30
0.0
 10
80.14123394827556
 20
196.7097090255554
 30
0.0
 10
80.13531831658854
 20
196.7035531952565
 30
0.0
 10
80.12472550856594
 20
196.6922670767171
 30
0.0
 10
80.11531204482521
 20
196.6819485755341
 30
0.0
 10
80.10819353540176
 20
196.6735363898574
 30
0.0
 10
80.1022253214988
 20
196.6660894208659
 30
0.0
 10
80.09981294108683
 20
196.6628434034149
 30
0.0
 10
80.09437954463207
 20
196.6546443540006
 30
0.0
 10
80.09322764554346
 20
196.6513486606661
 30
0.0
 10
80.09444362495825
 20
196.6501450050168
 30
0.0
  0
SPLINE
  5
14F
330
1F
100
AcDbEntity
  8
HEWI
100
AcDbSpline
210
0.0
220
0.0
230
1.0
 70
     8
 71
     3
 72
    18
 73
    14
 74
     0
 42
0.000000001
 43
0.0000000001
 40
0.0
 40
0.0
 40
0.0
 40
0.0
 40
0.158675256626332
 40
0.158675256626332
 40
0.3269402053010657
 40
0.3269402053010657
 40
0.4952051539757992
 40
0.4952051539757992
 40
0.6634701026505329
 40
0.6634701026505329
 40
0.8317350513252662
 40
0.8317350513252662
 40
1.0
 40
1.0
 40
1.0
 40
1.0
 10
89.10964959715755
 20
243.7980324860793
 30
0.0
 10
89.10872916378343
 20
243.7810056265007
 30
0.0
 10
89.10787797089367
 20
243.7629198766404
 30
0.0
 10
89.10625855197151
 20
243.7235998310408
 30
0.0
 10
89.10549849855538
 20
243.7022405520056
 30
0.0
 10
89.10412538298173
 20
243.6572740660561
 30
0.0
 10
89.10352458695038
 20
243.6340556323842
 30
0.0
 10
89.10249199456783
 20
243.5865070805798
 30
0.0
 10
89.10205886472621
 20
243.5621313621325
 30
0.0
 10
89.10135851112221
 20
243.5121801253792
 30
0.0
 10
89.10109167272421
 20
243.486522534069
 30
0.0
 10
89.10073805526304
 20
243.4351203420769
 30
0.0
 10
89.10064889189941
 20
243.4092472826988
 30
0.0
 10
89.10064889189941
 20
243.383199281574
 30
0.0
  0
SPLINE
  5
150
330
1F
100
AcDbEntity
  8
HEWI
100
AcDbSpline
210
0.0
220
0.0
230
1.0
 70
    24
 71
     1
 72
     4
 73
     2
 74
     0
 42
0.000000001
 43
0.0000000001
 40
0.0
 40
0.0
 40
1.0
 40
1.0
 10
93.450186885443
 20
196.4208882703041
 30
0.0
 10
93.44198944781084
 20
191.4312430040432
 30
0.0
  0
SPLINE
  5
151
330
1F
100
AcDbEntity
  8
HEWI
100
AcDbSpline
210
0.0
220
0.0
230
1.0
 70
     8
 71
     3
 72
    21
 73
    17
 74
     0
 42
0.000000001
 43
0.0000000001
 40
0.0
 40
0.0
 40
0.0
 40
0.0
 40
0.0360731251282828
 40
0.0360731251282828
 40
0.1102213462722592
 40
0.2585177885602162
 40
0.2585177885602162
 40
0.4068142308481729
 40
0.4068142308481729
 40
0.7034071154240868
 40
0.7034071154240868
 40
0.7775553365680651
 40
0.7775553365680651
 40
0.8517035577120433
 40
0.8517035577120433
 40
1.0
 40
1.0
 40
1.0
 40
1.0
 10
92.93707285043408
 20
196.4201492873701
 30
0.0
 10
92.92989604096556
 20
196.4164908313337
 30
0.0
 10
92.92272525690934
 20
196.412952593486
 30
0.0
 10
92.900929121756
 20
196.4025425909822
 30
0.0
 10
92.85734975523931
 20
196.3831508034929
 30
0.0
 10
92.8152834196098
 20
196.3682168476658
 30
0.0
 10
92.76102849149514
 20
196.3516318442076
 30
0.0
 10
92.73479595585198
 20
196.3449997050623
 30
0.0
 10
92.65972053115403
 20
196.3292312842854
 30
0.0
 10
92.61624747302608
 20
196.3244887829444
 30
0.0
 10
92.57110833429257
 20
196.3219927701141
 30
0.0
 10
92.56254239400144
 20
196.3216704529061
 30
0.0
 10
92.54636823321572
 20
196.3213041609451
 30
0.0
 10
92.53875565673039
 20
196.3212607191534
 30
0.0
 10
92.51758423887094
 20
196.3214399936975
 30
0.0
 10
92.50561643967484
 20
196.3219642965839
 30
0.0
 10
92.49583333333331
 20
196.3226471950376
 30
0.0
  0
SPLINE
  5
152
330
1F
100
AcDbEntity
  8
HEWI
100
AcDbSpline
210
0.0
220
0.0
230
1.0
 70
     8
 71
     3
 72
    20
 73
    16
 74
     0
 42
0.000000001
 43
0.0000000001
 40
0.0
 40
0.0
 40
0.0
 40
0.0
 40
0.3045300505147514
 40
0.3045300505147514
 40
0.4567950757721256
 40
0.4567950757721256
 40
0.6090601010294997
 40
0.6090601010294997
 40
0.7613251262868715
 40
0.7613251262868715
 40
0.8374576389155611
 40
0.8374576389155611
 40
0.913590151544251
 40
0.913590151544251
 40
1.0
 40
1.0
 40
1.0
 40
1.0
 10
108.4958333333333
 20
196.3226471950376
 30
0.0
 10
108.4762492026979
 20
196.3212801473882
 30
0.0
 10
108.4481739865969
 20
196.3204977003037
 30
0.0
 10
108.39427363275
 20
196.3234306947999
 30
0.0
 10
108.3742969326252
 20
196.3251134628014
 30
0.0
 10
108.3305596682749
 20
196.3306457573838
 30
0.0
 10
108.3071794496795
 20
196.3344510991948
 30
0.0
 10
108.2578171097477
 20
196.3447834025888
 30
0.0
 10
108.2318335541893
 20
196.3513093073194
 30
0.0
 10
108.1911995233106
 20
196.3636677054658
 30
0.0
 10
108.1773783071128
 20
196.3682160157379
 30
0.0
 10
108.1492327702307
 20
196.3782676087939
 30
0.0
 10
108.1348719287107
 20
196.3837861427035
 30
0.0
 10
108.1039066964988
 20
196.3966260524347
 30
0.0
 10
108.0873705209876
 20
196.4040426032173
 30
0.0
 10
108.0708125734244
 20
196.4120792799029
 30
0.0
  0
SPLINE
  5
153
330
1F
100
AcDbEntity
  8
HEWI
100
AcDbSpline
210
0.0
220
0.0
230
1.0
 70
    24
 71
     1
 72
     4
 73
     2
 74
     0
 42
0.000000001
 43
0.0000000001
 40
0.0
 40
0.0
 40
1.0
 40
1.0
 10
107.5496772188558
 20
191.4312430040432
 30
0.0
 10
107.5414797812236
 20
196.4208882703041
 30
0.0
  0
SPLINE
  5
154
330
1F
100
AcDbEntity
  8
HEWI
100
AcDbSpline
210
0.0
220
0.0
230
1.0
 70
     8
 71
     3
 72
    21
 73
    17
 74
     0
 42
0.000000001
 43
0.0000000001
 40
0.0
 40
0.0
 40
0.0
 40
0.0
 40
0.1106170825274638
 40
0.1106170825274638
 40
0.2884936660219702
 40
0.2884936660219702
 40
0.3329628118955967
 40
0.3329628118955967
 40
0.3774319577692231
 40
0.466370249516478
 40
0.466370249516478
 40
0.6442468330109855
 40
0.6442468330109855
 40
0.8221234165054928
 40
0.8221234165054928
 40
1.0
 40
1.0
 40
1.0
 40
1.0
 10
113.974122882091
 20
242.9379498531124
 30
0.0
 10
113.9033117545419
 20
242.9751190211617
 30
0.0
 10
113.8326292973201
 20
243.0118470492509
 30
0.0
 10
113.6486497964925
 20
243.1064935899317
 30
0.0
 10
113.5355732290869
 20
243.1637180253783
 30
0.0
 10
113.3947564234991
 20
243.2338410265448
 30
0.0
 10
113.3665872388276
 20
243.2478111270541
 30
0.0
 10
113.3105393889657
 20
243.2754947108185
 30
0.0
 10
113.226859709104
 20
243.3166573402553
 30
0.0
 10
113.1443596842667
 20
243.3567466333565
 30
0.0
 10
112.9809502686462
 20
243.4355285371822
 30
0.0
 10
112.8741281687814
 20
243.4861893018058
 30
0.0
 10
112.6648912320122
 20
243.5839301707925
 30
0.0
 10
112.5624757363394
 20
243.6310103245787
 30
0.0
 10
112.3623379817451
 20
243.7216739342637
 30
0.0
 10
112.2646144392236
 20
243.7652577033593
 30
0.0
 10
112.16945170675
 20
243.8071044840165
 30
0.0
  0
SPLINE
  5
155
330
1F
100
AcDbEntity
  8
HEWI
100
AcDbSpline
210
0.0
220
0.0
230
1.0
 70
     8
 71
     3
 72
    21
 73
    17
 74
     0
 42
0.000000001
 43
0.0000000001
 40
0.0
 40
0.0
 40
0.0
 40
0.0
 40
0.1778093852916103
 40
0.1778093852916103
 40
0.3556187705832206
 40
0.3556187705832206
 40
0.5334281558748309
 40
0.5334281558748309
 40
0.622332848520636
 40
0.6667851948435377
 40
0.6667851948435377
 40
0.7112375411664393
 40
0.7112375411664393
 40
0.8890469264580451
 40
0.8890469264580451
 40
1.0
 40
1.0
 40
1.0
 40
1.0
 10
88.82221495991675
 20
243.8071044840165
 30
0.0
 10
88.72705280280696
 20
243.7652579563693
 30
0.0
 10
88.62932523411959
 20
243.7216724279398
 30
0.0
 10
88.42916945182038
 20
243.6310005377683
 30
0.0
 10
88.32673995895651
 20
243.5839138650491
 30
0.0
 10
88.11746427846424
 20
243.4861543655191
 30
0.0
 10
88.01061743565469
 20
243.4354814916155
 30
0.0
 10
87.8471621669655
 20
243.3566764825019
 30
0.0
 10
87.76463702895979
 20
243.3165743991692
 30
0.0
 10
87.68092880476684
 20
243.275396957987
 30
0.0
 10
87.62486114398633
 20
243.2477030301005
 30
0.0
 10
87.59669858976154
 20
243.2337359030338
 30
0.0
 10
87.45592339966005
 20
243.1636322491886
 30
0.0
 10
87.34287594103502
 20
243.1064217345315
 30
0.0
 10
87.15869607679177
 20
243.0116710719073
 30
0.0
 10
87.08778571575528
 20
242.9748230347126
 30
0.0
 10
87.01674426082702
 20
242.9375301258573
 30
0.0
  0
SPLINE
  5
156
330
1F
100
AcDbEntity
  8
HEWI
100
AcDbSpline
210
0.0
220
0.0
230
1.0
 70
     8
 71
     3
 72
     8
 73
     4
 74
     0
 42
0.000000001
 43
0.0000000001
 40
0.0
 40
0.0
 40
0.0
 40
0.0
 40
1.0
 40
1.0
 40
1.0
 40
1.0
 10
120.8800130788207
 20
196.6331236764641
 30
0.0
 10
120.9795269059514
 20
196.7314646337752
 30
0.0
 10
121.068936940614
 20
196.8212351295094
 30
0.0
 10
121.1481571652172
 20
196.9015974390445
 30
0.0
  0
SPLINE
  5
157
330
1F
100
AcDbEntity
  8
HEWI
100
AcDbSpline
210
0.0
220
0.0
230
1.0
 70
     8
 71
     3
 72
     8
 73
     4
 74
     0
 42
0.000000001
 43
0.0000000001
 40
0.0
 40
0.0
 40
0.0
 40
0.0
 40
1.0
 40
1.0
 40
1.0
 40
1.0
 10
121.3180468729643
 20
196.2247658300286
 30
0.0
 10
121.1761698538923
 20
196.3653510211026
 30
0.0
 10
121.0301576655254
 20
196.5014694737831
 30
0.0
 10
120.8800130788207
 20
196.6331236764641
 30
0.0
  0
SPLINE
  5
158
330
1F
100
AcDbEntity
  8
HEWI
100
AcDbSpline
210
0.0
220
0.0
230
1.0
 70
     8
 71
     3
 72
     8
 73
     4
 74
     0
 42
0.000000001
 43
0.0000000001
 40
0.0
 40
0.0
 40
0.0
 40
0.0
 40
1.0
 40
1.0
 40
1.0
 40
1.0
 10
77.36925391438074
 20
240.0714860715374
 30
0.0
 10
77.69025073123163
 20
239.8350463301151
 30
0.0
 10
78.01132348228467
 20
239.5985226121815
 30
0.0
 10
78.3324807835272
 20
239.3619053892166
 30
0.0
  0
SPLINE
  5
159
330
1F
100
AcDbEntity
  8
HEWI
100
AcDbSpline
210
0.0
220
0.0
230
1.0
 70
     8
 71
     3
 72
     8
 73
     4
 74
     0
 42
0.000000001
 43
0.0000000001
 40
0.0
 40
0.0
 40
0.0
 40
0.0
 40
1.0
 40
1.0
 40
1.0
 40
1.0
 10
131.7992904065195
 20
225.8766142582603
 30
0.0
 10
131.4389589483719
 20
225.7189997554183
 30
0.0
 10
131.0785196000465
 20
225.561362081409
 30
0.0
 10
130.7179603034199
 20
225.4036986465544
 30
0.0
  0
SPLINE
  5
15A
330
1F
100
AcDbEntity
  8
HEWI
100
AcDbSpline
210
0.0
220
0.0
230
1.0
 70
     8
 71
     3
 72
     8
 73
     4
 74
     0
 42
0.000000001
 43
0.0000000001
 40
0.0
 40
0.0
 40
0.0
 40
0.0
 40
1.0
 40
1.0
 40
1.0
 40
1.0
 10
77.65219744870631
 20
239.411177686025
 30
0.0
 10
77.51791660950168
 20
239.5932850827177
 30
0.0
 10
77.38367222515087
 20
239.7753595040763
 30
0.0
 10
77.24946215940085
 20
239.9574028824542
 30
0.0
  0
SPLINE
  5
15B
330
1F
100
AcDbEntity
  8
HEWI
100
AcDbSpline
210
0.0
220
0.0
230
1.0
 70
     8
 71
     3
 72
     8
 73
     4
 74
     0
 42
0.000000001
 43
0.0000000001
 40
0.0
 40
0.0
 40
0.0
 40
0.0
 40
1.0
 40
1.0
 40
1.0
 40
1.0
 10
77.4810606048799
 20
194.3463026173748
 30
0.0
 10
77.80038299769408
 20
194.581559243939
 30
0.0
 10
78.11978548329452
 20
194.8169044064528
 30
0.0
 10
78.43927687369038
 20
195.0523479270715
 30
0.0
  0
SPLINE
  5
15C
330
1F
100
AcDbEntity
  8
HEWI
100
AcDbSpline
210
0.0
220
0.0
230
1.0
 70
     8
 71
     3
 72
     8
 73
     4
 74
     0
 42
0.000000001
 43
0.0000000001
 40
0.0
 40
0.0
 40
0.0
 40
0.0
 40
1.0
 40
1.0
 40
1.0
 40
1.0
 10
122.5523897929762
 20
195.0523479270715
 30
0.0
 10
122.8717179310342
 20
194.8170247123714
 30
0.0
 10
123.1909572548859
 20
194.5817997554643
 30
0.0
 10
123.5101165632835
 20
194.3466632490641
 30
0.0
  0
SPLINE
  5
15D
330
1F
100
AcDbEntity
  8
HEWI
100
AcDbSpline
210
0.0
220
0.0
230
1.0
 70
     8
 71
     3
 72
     8
 73
     4
 74
     0
 42
0.000000001
 43
0.0000000001
 40
0.0
 40
0.0
 40
0.0
 40
0.0
 40
1.0
 40
1.0
 40
1.0
 40
1.0
 10
123.6312882561432
 20
194.4628455763998
 30
0.0
 10
123.4989480628526
 20
194.6423938283975
 30
0.0
 10
123.3665762965903
 20
194.8219706354555
 30
0.0
 10
123.2341710529311
 20
195.0015777051292
 30
0.0
  0
SPLINE
  5
15E
330
1F
100
AcDbEntity
  8
HEWI
100
AcDbSpline
210
0.0
220
0.0
230
1.0
 70
     8
 71
     3
 72
     8
 73
     4
 74
     0
 42
0.000000001
 43
0.0000000001
 40
0.0
 40
0.0
 40
0.0
 40
0.0
 40
1.0
 40
1.0
 40
1.0
 40
1.0
 10
131.1007730315692
 20
225.9682051478763
 30
0.0
 10
131.3187404779566
 20
225.9926695715971
 30
0.0
 10
131.5366639607848
 20
226.0171198215228
 30
0.0
 10
131.7545459774568
 20
226.0415567028127
 30
0.0
  0
SPLINE
  5
15F
330
1F
100
AcDbEntity
  8
HEWI
100
AcDbSpline
210
0.0
220
0.0
230
1.0
 70
     8
 71
     3
 72
     8
 73
     4
 74
     0
 42
0.000000001
 43
0.0000000001
 40
0.0
 40
0.0
 40
0.0
 40
0.0
 40
1.0
 40
1.0
 40
1.0
 40
1.0
 10
77.75749561373553
 20
195.0015777051292
 30
0.0
 10
77.624945726808
 20
194.8217744275648
 30
0.0
 10
77.49242939042608
 20
194.6420014787249
 30
0.0
 10
77.35994469394727
 20
194.4622571454935
 30
0.0
  0
SPLINE
  5
160
330
1F
100
AcDbEntity
  8
HEWI
100
AcDbSpline
210
0.0
220
0.0
230
1.0
 70
     8
 71
     3
 72
     8
 73
     4
 74
     0
 42
0.000000001
 43
0.0000000001
 40
0.0
 40
0.0
 40
0.0
 40
0.0
 40
1.0
 40
1.0
 40
1.0
 40
1.0
 10
80.11165358784591
 20
196.6331236764641
 30
0.0
 10
79.96150900114121
 20
196.5014694737831
 30
0.0
 10
79.81549681277427
 20
196.3653510211026
 30
0.0
 10
79.67361979370233
 20
196.2247658300286
 30
0.0
  0
SPLINE
  5
161
330
1F
100
AcDbEntity
  8
HEWI
100
AcDbSpline
210
0.0
220
0.0
230
1.0
 70
     8
 71
     3
 72
     8
 73
     4
 74
     0
 42
0.000000001
 43
0.0000000001
 40
0.0
 40
0.0
 40
0.0
 40
0.0
 40
1.0
 40
1.0
 40
1.0
 40
1.0
 10
79.84350950144945
 20
196.9015974390445
 30
0.0
 10
79.92273833693288
 20
196.8212263944896
 30
0.0
 10
80.01213122470037
 20
196.7314730691846
 30
0.0
 10
80.11165358784591
 20
196.6331236764641
 30
0.0
  0
SPLINE
  5
162
330
1F
100
AcDbEntity
  8
HEWI
100
AcDbSpline
210
0.0
220
0.0
230
1.0
 70
     8
 71
     3
 72
     8
 73
     4
 74
     0
 42
0.000000001
 43
0.0000000001
 40
0.0
 40
0.0
 40
0.0
 40
0.0
 40
1.0
 40
1.0
 40
1.0
 40
1.0
 10
123.7380494638375
 20
239.9517669603372
 30
0.0
 10
123.6052236923916
 20
239.7716015643256
 30
0.0
 10
123.4723643003832
 20
239.5914057635127
 30
0.0
 10
123.3394692179603
 20
239.411177686025
 30
0.0
  0
SPLINE
  5
163
330
1F
100
AcDbEntity
  8
HEWI
100
AcDbSpline
210
0.0
220
0.0
230
1.0
 70
     8
 71
     3
 72
     8
 73
     4
 74
     0
 42
0.000000001
 43
0.0000000001
 40
0.0
 40
0.0
 40
0.0
 40
0.0
 40
1.0
 40
1.0
 40
1.0
 40
1.0
 10
122.6591858831394
 20
239.3619053892166
 30
0.0
 10
122.9787319528852
 20
239.5973355143922
 30
0.0
 10
123.2981941600323
 20
239.8326729535214
 30
0.0
 10
123.6175810078193
 20
240.067927104495
 30
0.0
  0
SPLINE
  5
164
330
1F
100
AcDbEntity
  8
HEWI
100
AcDbSpline
210
0.0
220
0.0
230
1.0
 70
     8
 71
     3
 72
     8
 73
     4
 74
     0
 42
0.000000001
 43
0.0000000001
 40
0.0
 40
0.0
 40
0.0
 40
0.0
 40
1.0
 40
1.0
 40
1.0
 40
1.0
 10
69.19261813320473
 20
208.6443248740522
 30
0.0
 10
69.55286901527596
 20
208.8019041209359
 30
0.0
 10
69.9132277419462
 20
208.9595065291982
 30
0.0
 10
70.2737063632467
 20
209.117134686779
 30
0.0
  0
SPLINE
  5
165
330
1F
100
AcDbEntity
  8
HEWI
100
AcDbSpline
210
0.0
220
0.0
230
1.0
 70
     8
 71
     3
 72
     8
 73
     4
 74
     0
 42
0.000000001
 43
0.0000000001
 40
0.0
 40
0.0
 40
0.0
 40
0.0
 40
1.0
 40
1.0
 40
1.0
 40
1.0
 10
69.8908936350974
 20
208.5526281854571
 30
0.0
 10
69.67321681439978
 20
208.5281963812404
 30
0.0
 10
69.45558384010244
 20
208.503778713047
 30
0.0
 10
69.23799222477864
 20
208.4793743789338
 30
0.0
  0
SPLINE
  5
166
330
1F
100
AcDbEntity
  8
HEWI
100
AcDbSpline
210
0.0
220
0.0
230
1.0
 70
     8
 71
     3
 72
     8
 73
     4
 74
     0
 42
0.000000001
 43
0.0000000001
 40
0.0
 40
0.0
 40
0.0
 40
0.0
 40
1.0
 40
1.0
 40
1.0
 40
1.0
 10
69.23839271375374
 20
226.0414140369106
 30
0.0
 10
69.45585094233374
 20
226.0170246523367
 30
0.0
 10
69.6733504230087
 20
225.9926219560114
 30
0.0
 10
69.8908936350974
 20
225.9682051478763
 30
0.0
  0
SPLINE
  5
167
330
1F
100
AcDbEntity
  8
HEWI
100
AcDbSpline
210
0.0
220
0.0
230
1.0
 70
     8
 71
     3
 72
     8
 73
     4
 74
     0
 42
0.000000001
 43
0.0000000001
 40
0.0
 40
0.0
 40
0.0
 40
0.0
 40
1.0
 40
1.0
 40
1.0
 40
1.0
 10
70.2737063632467
 20
225.4036986465544
 30
0.0
 10
69.9132034314717
 20
225.561337434489
 30
0.0
 10
69.5528205853353
 20
225.7189503931763
 30
0.0
 10
69.19254575452391
 20
225.8765401188226
 30
0.0
  0
SPLINE
  5
168
330
1F
100
AcDbEntity
  8
HEWI
100
AcDbSpline
210
0.0
220
0.0
230
1.0
 70
     8
 71
     3
 72
     8
 73
     4
 74
     0
 42
0.000000001
 43
0.0000000001
 40
0.0
 40
0.0
 40
0.0
 40
0.0
 40
1.0
 40
1.0
 40
1.0
 40
1.0
 10
131.7583252817587
 20
208.4788527579061
 30
0.0
 10
131.5391839539405
 20
208.5034307777312
 30
0.0
 10
131.3200007170539
 20
208.5280223139018
 30
0.0
 10
131.1007730315692
 20
208.5526281854571
 30
0.0
  0
SPLINE
  5
169
330
1F
100
AcDbEntity
  8
HEWI
100
AcDbSpline
210
0.0
220
0.0
230
1.0
 70
     8
 71
     3
 72
     8
 73
     4
 74
     0
 42
0.000000001
 43
0.0000000001
 40
0.0
 40
0.0
 40
0.0
 40
0.0
 40
1.0
 40
1.0
 40
1.0
 40
1.0
 10
130.7179603034199
 20
209.117134686779
 30
0.0
 10
131.0800144049208
 20
208.9588176116685
 30
0.0
 10
131.4419473851524
 20
208.8005265885595
 30
0.0
 10
131.8037714709078
 20
208.6422589875882
 30
0.0
  0
SPLINE
  5
16A
330
1F
100
AcDbEntity
  8
HEWI
100
AcDbSpline
210
0.0
220
0.0
230
1.0
 70
     8
 71
     3
 72
    37
 73
    33
 74
     0
 42
0.000000001
 43
0.0000000001
 40
0.0
 40
0.0
 40
0.0
 40
0.0
 40
0.0312499999999998
 40
0.0312499999999998
 40
0.0624999999999995
 40
0.0937499999999995
 40
0.0937499999999995
 40
0.1249999999999995
 40
0.1249999999999995
 40
0.2499999999999996
 40
0.2499999999999996
 40
0.3749999999999996
 40
0.3749999999999996
 40
0.4374999999999997
 40
0.4374999999999997
 40
0.4531249999999997
 40
0.4531249999999997
 40
0.4687499999999997
 40
0.4999999999999997
 40
0.4999999999999997
 40
0.6249999999999995
 40
0.6249999999999995
 40
0.7499999999999992
 40
0.7499999999999992
 40
0.7812499999999992
 40
0.7812499999999992
 40
0.7968749999999993
 40
0.7968749999999993
 40
0.8124999999999994
 40
0.8749999999999998
 40
0.8749999999999998
 40
1.0
 40
1.0
 40
1.0
 40
1.0
 10
91.81584005353924
 20
245.4335904395917
 30
0.0
 10
91.9824857781116
 20
245.4805093078588
 30
0.0
 10
92.15038339725271
 20
245.526322707928
 30
0.0
 10
92.48847699487823
 20
245.6155953252298
 30
0.0
 10
92.82885219107241
 20
245.7025109028672
 30
0.0
 10
93.173921410093
 20
245.7845771748791
 30
0.0
 10
93.52140828202733
 20
245.8641457794212
 30
0.0
 10
93.69649811723588
 20
245.9027078766589
 30
0.0
 10
94.57469356489651
 20
246.0883642043498
 30
0.0
 10
95.28819506278471
 20
246.2145656788489
 30
0.0
 10
96.73842281493811
 20
246.4195977482039
 30
0.0
 10
97.47514443563028
 20
246.4984377905099
 30
0.0
 10
98.59901901310644
 20
246.5783670790613
 30
0.0
 10
98.97678024875999
 20
246.598612840367
 30
0.0
 10
99.45308409875508
 20
246.6155524279118
 30
0.0
 10
99.54865611054685
 20
246.6185241955366
 30
0.0
 10
99.73955155879117
 20
246.6236040368307
 30
0.0
 10
100.0255595798596
 20
246.6299331040873
 30
0.0
 10
100.3105698755939
 20
246.6324198477301
 30
0.0
 10
101.2584186743
 20
246.6322923671628
 30
0.0
 10
102.0097140335529
 20
246.6052956022754
 30
0.0
 10
103.498979474622
 20
246.4999856506795
 30
0.0
 10
104.236948175254
 20
246.4216671478854
 30
0.0
 10
105.1513367111164
 20
246.2926827275349
 30
0.0
 10
105.3338102921842
 20
246.2653295700343
 30
0.0
 10
105.6069178200653
 20
246.2219783265406
 30
0.0
 10
105.6978770935235
 20
246.2071363004532
 30
0.0
 10
105.8790499229629
 20
246.1767742782681
 30
0.0
 10
106.3304528410022
 20
246.0991214506051
 30
0.0
 10
106.7743388979137
 20
246.0128771534308
 30
0.0
 10
107.8260650438819
 20
245.7903465102236
 30
0.0
 10
108.5091131826807
 20
245.6213026638043
 30
0.0
 10
109.1758266131278
 20
245.4335904395916
 30
0.0
  0
SPLINE
  5
16B
330
1F
100
AcDbEntity
  8
HEWI
100
AcDbSpline
210
0.0
220
0.0
230
1.0
 70
     8
 71
     3
 72
    38
 73
    34
 74
     0
 42
0.000000001
 43
0.0000000001
 40
0.0
 40
0.0
 40
0.0
 40
0.0
 40
0.1249999999999955
 40
0.1249999999999955
 40
0.1874999999999914
 40
0.1874999999999914
 40
0.2499999999999872
 40
0.2499999999999872
 40
0.3124999999999831
 40
0.3124999999999831
 40
0.3749999999999789
 40
0.3749999999999789
 40
0.4374999999999746
 40
0.4374999999999746
 40
0.4999999999999706
 40
0.4999999999999706
 40
0.5624999999999664
 40
0.5624999999999664
 40
0.6249999999999623
 40
0.6249999999999623
 40
0.6874999999999582
 40
0.6874999999999582
 40
0.718749999999956
 40
0.718749999999956
 40
0.7499999999999539
 40
0.7499999999999539
 40
0.8124999999999653
 40
0.8124999999999653
 40
0.8749999999999769
 40
0.8749999999999769
 40
0.9374999999999884
 40
0.9374999999999884
 40
1.0
 40
1.0
 40
1.0
 40
1.0
 10
91.819108865062
 20
245.053832176563
 30
0.0
 10
91.82012843142699
 20
245.065064228814
 30
0.0
 10
91.82105756815913
 20
245.0783772530983
 30
0.0
 10
91.82231390156514
 20
245.1015079949941
 30
0.0
 10
91.82271201140421
 20
245.1098155230301
 30
0.0
 10
91.82344424340184
 20
245.1273017660449
 30
0.0
 10
91.82377628108644
 20
245.1364125680699
 30
0.0
 10
91.82437063745872
 20
245.1553863899881
 30
0.0
 10
91.82463300185423
 20
245.1652489167266
 30
0.0
 10
91.82508148026142
 20
245.1857966570425
 30
0.0
 10
91.82526831838019
 20
245.1965778018755
 30
0.0
 10
91.82554394090795
 20
245.2182970189577
 30
0.0
 10
91.82563483065775
 20
245.2292929227132
 30
0.0
 10
91.82571567622392
 20
245.2515779179517
 30
0.0
 10
91.82570428255443
 20
245.2629604037124
 30
0.0
 10
91.82557291669631
 20
245.2851159282866
 30
0.0
 10
91.82545413938893
 20
245.2959830118419
 30
0.0
 10
91.82510568116027
 20
245.3172771129144
 30
0.0
 10
91.82487264894394
 20
245.3277772346115
 30
0.0
 10
91.82431207532031
 20
245.347362667574
 30
0.0
 10
91.82398354665377
 20
245.3565647247534
 30
0.0
 10
91.82341854374994
 20
245.3694836933658
 30
0.0
 10
91.82321723121452
 20
245.3736551682848
 30
0.0
 10
91.82279871771505
 20
245.3815354148873
 30
0.0
 10
91.82258075829432
 20
245.3852646452928
 30
0.0
 10
91.82190190431558
 20
245.3958470969038
 30
0.0
 10
91.82141500906089
 20
245.4021112593991
 30
0.0
 10
91.82038158377615
 20
245.4130243966335
 30
0.0
 10
91.81984663150398
 20
245.4175575464026
 30
0.0
 10
91.81874391807292
 20
245.4249628284386
 30
0.0
 10
91.81817306064372
 20
245.4278428574825
 30
0.0
 10
91.81701465665176
 20
245.4319386498798
 30
0.0
 10
91.81642994261105
 20
245.4331549298124
 30
0.0
 10
91.81584005353924
 20
245.4335904395918
 30
0.0
  0
SPLINE
  5
16C
330
1F
100
AcDbEntity
  8
HEWI
100
AcDbSpline
210
0.0
220
0.0
230
1.0
 70
     8
 71
     3
 72
     8
 73
     4
 74
     0
 42
0.000000001
 43
0.0000000001
 40
0.0
 40
0.0
 40
0.0
 40
0.0
 40
1.0
 40
1.0
 40
1.0
 40
1.0
 10
91.49583333333332
 20
245.6688661139702
 30
0.0
 10
91.6025028934006
 20
245.5907651653945
 30
0.0
 10
91.70917180558383
 20
245.5123426446275
 30
0.0
 10
91.81584005353924
 20
245.4335904395917
 30
0.0
  0
SPLINE
  5
16D
330
1F
100
AcDbEntity
  8
HEWI
100
AcDbSpline
210
0.0
220
0.0
230
1.0
 70
     8
 71
     3
 72
     8
 73
     4
 74
     0
 42
0.000000001
 43
0.0000000001
 40
0.0
 40
0.0
 40
0.0
 40
0.0
 40
1.0
 40
1.0
 40
1.0
 40
1.0
 10
109.1758266131274
 20
245.4335904395918
 30
0.0
 10
109.2824948610828
 20
245.5123426446275
 30
0.0
 10
109.389163773266
 20
245.5907651653945
 30
0.0
 10
109.4958333333333
 20
245.6688661139702
 30
0.0
  0
SPLINE
  5
16E
330
1F
100
AcDbEntity
  8
HEWI
100
AcDbSpline
210
0.0
220
0.0
230
1.0
 70
     8
 71
     3
 72
    41
 73
    37
 74
     0
 42
0.000000001
 43
0.0000000001
 40
0.0
 40
0.0
 40
0.0
 40
0.0
 40
0.1250000000000104
 40
0.1250000000000104
 40
0.1562500000000187
 40
0.1562500000000187
 40
0.1875000000000269
 40
0.1875000000000269
 40
0.2500000000000522
 40
0.2500000000000522
 40
0.2812500000000571
 40
0.2812500000000571
 40
0.312500000000062
 40
0.312500000000062
 40
0.3750000000000746
 40
0.3750000000000746
 40
0.4062500000000795
 40
0.4062500000000795
 40
0.4375000000000845
 40
0.4687500000000896
 40
0.4687500000000896
 40
0.5000000000000946
 40
0.5000000000000946
 40
0.5625000000000849
 40
0.5625000000000849
 40
0.6250000000000754
 40
0.6250000000000754
 40
0.6875000000000657
 40
0.6875000000000657
 40
0.7500000000000559
 40
0.7500000000000559
 40
0.8125000000000463
 40
0.8125000000000463
 40
0.8750000000000365
 40
0.8750000000000365
 40
1.0
 40
1.0
 40
1.0
 40
1.0
 10
109.1758266131278
 20
245.4335904395916
 30
0.0
 10
109.174649718498
 20
245.4327215489052
 30
0.0
 10
109.1735064666047
 20
245.4288131966969
 30
0.0
 10
109.1721250587675
 20
245.4196221701758
 30
0.0
 10
109.1718499299666
 20
245.4175519712071
 30
0.0
 10
109.1713129132922
 20
245.4130053098061
 30
0.0
 10
109.1710508792164
 20
245.410530804598
 30
0.0
 10
109.170284468835
 20
245.4024954049088
 30
0.0
 10
109.1697996267364
 20
245.3963275246705
 30
0.0
 10
109.1691150923209
 20
245.3857479958448
 30
0.0
 10
109.1688934931647
 20
245.3819843352233
 30
0.0
 10
109.168474688335
 20
245.3741590405067
 30
0.0
 10
109.1682762858486
 20
245.3700811349854
 30
0.0
 10
109.1677139750735
 20
245.3573531928832
 30
0.0
 10
109.1673827138518
 20
245.3482126809024
 30
0.0
 10
109.1669550504593
 20
245.3334618548209
 30
0.0
 10
109.1668246962474
 20
245.3283833556355
 30
0.0
 10
109.1665932073245
 20
245.3181137693729
 30
0.0
 10
109.1663892497393
 20
245.3076759377535
 30
0.0
 10
109.1662390515319
 20
245.2969095799355
 30
0.0
 10
109.1661156508271
 20
245.2859794612634
 30
0.0
 10
109.1660672071124
 20
245.2804048187821
 30
0.0
 10
109.1659639616326
 20
245.263649514341
 30
0.0
 10
109.1659506137518
 20
245.2524963654171
 30
0.0
 10
109.1660257477778
 20
245.2302213677249
 30
0.0
 10
109.1661158076096
 20
245.2190114458572
 30
0.0
 10
109.1663878601432
 20
245.1972454198166
 30
0.0
 10
109.1665691489941
 20
245.1866477032095
 30
0.0
 10
109.1670153689051
 20
245.1659794785676
 30
0.0
 10
109.1672822207131
 20
245.1558675467531
 30
0.0
 10
109.1678809135062
 20
245.1366761404484
 30
0.0
 10
109.1682138139292
 20
245.1275299859668
 30
0.0
 10
109.1689425968716
 20
245.1100814957864
 30
0.0
 10
109.1693412475272
 20
245.1017342522355
 30
0.0
 10
109.1706049690371
 20
245.078425327685
 30
0.0
 10
109.1715376727093
 20
245.0650704259293
 30
0.0
 10
109.1725578016046
 20
245.053832176563
 30
0.0
  0
SPLINE
  5
16F
330
1F
100
AcDbEntity
  8
HEWI
100
AcDbSpline
210
0.0
220
0.0
230
1.0
 70
     8
 71
     3
 72
    48
 73
    44
 74
     0
 42
0.000000001
 43
0.0000000001
 40
0.0
 40
0.0
 40
0.0
 40
0.0
 40
0.0624999999999975
 40
0.124999999999995
 40
0.124999999999995
 40
0.1874999999999926
 40
0.1874999999999926
 40
0.2187499999999916
 40
0.2343749999999917
 40
0.2343749999999917
 40
0.2499999999999919
 40
0.2499999999999919
 40
0.3124999999999929
 40
0.3749999999999938
 40
0.3749999999999938
 40
0.4374999999999948
 40
0.4374999999999948
 40
0.4687499999999957
 40
0.4843749999999961
 40
0.4843749999999961
 40
0.4999999999999968
 40
0.4999999999999968
 40
0.5624999999999972
 40
0.6249999999999975
 40
0.6249999999999975
 40
0.6874999999999979
 40
0.6874999999999979
 40
0.7031249999999979
 40
0.7031249999999979
 40
0.7187499999999979
 40
0.7499999999999979
 40
0.7499999999999979
 40
0.8124999999999985
 40
0.8124999999999985
 40
0.8749999999999992
 40
0.8749999999999992
 40
0.8906249999999994
 40
0.8906249999999994
 40
0.9062499999999996
 40
0.9062499999999996
 40
0.9374999999999996
 40
0.9374999999999996
 40
1.0
 40
1.0
 40
1.0
 40
1.0
 10
86.19997506647377
 20
245.104957180273
 30
0.0
 10
86.3175355085281
 20
245.1653147005049
 30
0.0
 10
86.55242778148846
 20
245.2834215338423
 30
0.0
 10
86.78680764989683
 20
245.3963941849073
 30
0.0
 10
87.02088186468257
 20
245.5068153760697
 30
0.0
 10
87.13776631277893
 20
245.5607503288678
 30
0.0
 10
87.3128079607761
 20
245.6397310841318
 30
0.0
 10
87.40025721230512
 20
245.6787407219381
 30
0.0
 10
87.48758533527754
 20
245.7170245283575
 30
0.0
 10
87.54577537371449
 20
245.7423849988933
 30
0.0
 10
87.57482888918337
 20
245.7549721459239
 30
0.0
 10
87.71921631965852
 20
245.8171581489681
 30
0.0
 10
87.94582338301692
 20
245.9123925453037
 30
0.0
 10
88.16346944343729
 20
245.9994848890919
 30
0.0
 10
88.37645329288973
 20
246.0826250496887
 30
0.0
 10
88.48061479996491
 20
246.1222192788804
 30
0.0
 10
88.6331261908988
 20
246.1786809922429
 30
0.0
 10
88.70844752945091
 20
246.2061785610158
 30
0.0
 10
88.78230630344758
 20
246.2325739387207
 30
0.0
 10
88.83121232517629
 20
246.2499250067348
 30
0.0
 10
88.85529501158671
 20
246.258405587754
 30
0.0
 10
88.9745590602796
 20
246.3000961198084
 30
0.0
 10
89.15663172680558
 20
246.3617516935728
 30
0.0
 10
89.32115443166194
 20
246.4138825337228
 30
0.0
 10
89.47664349765906
 20
246.4614059191987
 30
0.0
 10
89.54987296480323
 20
246.4828643372474
 30
0.0
 10
89.63543781280918
 20
246.5068199144335
 30
0.0
 10
89.65222080195607
 20
246.511458569857
 30
0.0
 10
89.68499810756222
 20
246.5203999614923
 30
0.0
 10
89.73304114087543
 20
246.5333249475882
 30
0.0
 10
89.77774112031095
 20
246.5448177098905
 30
0.0
 10
89.86272192247382
 20
246.5659539977269
 30
0.0
 10
89.91349394081881
 20
246.5775847189283
 30
0.0
 10
90.0032257537679
 20
246.5961097127955
 30
0.0
 10
90.04218664679651
 20
246.6030041850685
 30
0.0
 10
90.08325957843636
 20
246.6086647294243
 30
0.0
 10
90.09109185021731
 20
246.6096485066429
 30
0.0
 10
90.10598181615971
 20
246.6113175866118
 30
0.0
 10
90.11303788939633
 20
246.6120022785404
 30
0.0
 10
90.13291475387871
 20
246.6135986057738
 30
0.0
 10
90.14449229184087
 20
246.6140586465311
 30
0.0
 10
90.17430094713672
 20
246.6136786723171
 30
0.0
 10
90.1876199626797
 20
246.6110845720544
 30
0.0
 10
90.19449337279304
 20
246.6062126578882
 30
0.0
  0
SPLINE
  5
170
330
1F
100
AcDbEntity
  8
HEWI
100
AcDbSpline
210
0.0
220
0.0
230
1.0
 70
     8
 71
     3
 72
     8
 73
     4
 74
     0
 42
0.000000001
 43
0.0000000001
 40
0.0
 40
0.0
 40
0.0
 40
0.0
 40
1.0
 40
1.0
 40
1.0
 40
1.0
 10
110.7971732938723
 20
246.6062126578887
 30
0.0
 10
110.7183981394016
 20
246.5503776342457
 30
0.0
 10
110.6396232947473
 20
246.4943834843135
 30
0.0
 10
110.5608487652841
 20
246.4382274476206
 30
0.0
  0
SPLINE
  5
171
330
1F
100
AcDbEntity
  8
HEWI
100
AcDbSpline
210
0.0
220
0.0
230
1.0
 70
     8
 71
     3
 72
    47
 73
    43
 74
     0
 42
0.000000001
 43
0.0000000001
 40
0.0
 40
0.0
 40
0.0
 40
0.0
 40
0.0624999999999983
 40
0.0624999999999983
 40
0.1249999999999966
 40
0.1874999999999949
 40
0.1874999999999949
 40
0.2031249999999947
 40
0.2031249999999947
 40
0.2187499999999946
 40
0.2499999999999946
 40
0.2499999999999946
 40
0.3124999999999951
 40
0.3749999999999956
 40
0.3749999999999956
 40
0.3906249999999958
 40
0.3906249999999958
 40
0.4062499999999961
 40
0.4062499999999961
 40
0.4374999999999967
 40
0.4374999999999967
 40
0.4999999999999963
 40
0.4999999999999963
 40
0.5624999999999961
 40
0.5624999999999961
 40
0.5937499999999958
 40
0.5937499999999958
 40
0.6249999999999955
 40
0.6249999999999955
 40
0.6874999999999949
 40
0.6874999999999949
 40
0.7499999999999945
 40
0.8124999999999939
 40
0.8124999999999939
 40
0.8281249999999939
 40
0.8281249999999939
 40
0.8437499999999937
 40
0.874999999999995
 40
0.874999999999995
 40
0.9374999999999975
 40
0.9374999999999975
 40
1.0
 40
1.0
 40
1.0
 40
1.0
 10
110.7971732938736
 20
246.6062126578882
 30
0.0
 10
110.8041379475608
 20
246.6111492460449
 30
0.0
 10
110.8176616638263
 20
246.6137061743664
 30
0.0
 10
110.8574033526532
 20
246.6141649521217
 30
0.0
 10
110.9098422931016
 20
246.6099672952161
 30
0.0
 10
110.9875886417672
 20
246.5962795402944
 30
0.0
 10
111.0442968907689
 20
246.5845798337443
 30
0.0
 10
111.056063470636
 20
246.5820781159608
 30
0.0
 10
111.0803177858792
 20
246.5767749979522
 30
0.0
 10
111.1177655690303
 20
246.5683748529221
 30
0.0
 10
111.1583663320824
 20
246.5586432757554
 30
0.0
 10
111.2436807025071
 20
246.5374026667844
 30
0.0
 10
111.3683815348545
 20
246.50435176352
 30
0.0
 10
111.5144974474788
 20
246.4615679572615
 30
0.0
 10
111.6125474210769
 20
246.4315984491337
 30
0.0
 10
111.6324945131618
 20
246.425442649782
 30
0.0
 10
111.673066693128
 20
246.4128008359584
 30
0.0
 10
111.6935366527336
 20
246.4063633426636
 30
0.0
 10
111.7557791315821
 20
246.3866099963506
 30
0.0
 10
111.7982541151209
 20
246.3728939003
 30
0.0
 10
111.9285218549917
 20
246.3301026144933
 30
0.0
 10
112.0191510590536
 20
246.2993877742615
 30
0.0
 10
112.2076297521906
 20
246.2334902246953
 30
0.0
 10
112.3054801745615
 20
246.198307417614
 30
0.0
 10
112.4575567120567
 20
246.1420321660833
 30
0.0
 10
112.5091337930136
 20
246.1226894215538
 30
0.0
 10
112.6140551857928
 20
246.0828000688874
 30
0.0
 10
112.6674943502138
 20
246.0622152018344
 30
0.0
 10
112.828799656526
 20
245.9992527026886
 30
0.0
 10
112.9381163912339
 20
245.955495593758
 30
0.0
 10
113.1600356381111
 20
245.8644038846019
 30
0.0
 10
113.3852418189815
 20
245.7697342320739
 30
0.0
 10
113.6166775080936
 20
245.6677649885392
 30
0.0
 10
113.7632168750893
 20
245.6016730714395
 30
0.0
 10
113.7926476740589
 20
245.5883236400637
 30
0.0
 10
113.8515615352236
 20
245.561448279218
 30
0.0
 10
113.9399152812624
 20
245.5209145088353
 30
0.0
 10
114.0282143262472
 20
245.479721144643
 30
0.0
 10
114.2047313271381
 20
245.3964597043997
 30
0.0
 10
114.3223008371204
 20
245.3397864480526
 30
0.0
 10
114.5571894632078
 20
245.224117064223
 30
0.0
 10
114.674508641887
 20
245.1651208939609
 30
0.0
 10
114.7916916001928
 20
245.104957180273
 30
0.0
  0
SPLINE
  5
172
330
1F
100
AcDbEntity
  8
HEWI
100
AcDbSpline
210
0.0
220
0.0
230
1.0
 70
     8
 71
     3
 72
     8
 73
     4
 74
     0
 42
0.000000001
 43
0.0000000001
 40
0.0
 40
0.0
 40
0.0
 40
0.0
 40
1.0
 40
1.0
 40
1.0
 40
1.0
 10
90.43081790138256
 20
246.4382274476206
 30
0.0
 10
90.35204337191935
 20
246.4943834843135
 30
0.0
 10
90.27326852726508
 20
246.5503776342457
 30
0.0
 10
90.1944933727943
 20
246.6062126578887
 30
0.0
  0
SPLINE
  5
173
330
1F
100
AcDbEntity
  8
HEWI
100
AcDbSpline
210
0.0000000000000012
220
0.0000000000000008
230
1.0
 70
     8
 71
     3
 72
    18
 73
    14
 74
     0
 42
0.000000001
 43
0.0000000001
 40
0.0
 40
0.0
 40
0.0
 40
0.0
 40
0.0538202576527631
 40
0.1546306239129693
 40
0.2552302814116149
 40
0.3554927697959262
 40
0.4553654399225402
 40
0.5548113512606401
 40
0.6538166783098703
 40
0.7523965570818462
 40
0.8505978608037263
 40
0.9484980220846749
 40
1.0
 40
1.0
 40
1.0
 40
1.0
 10
332.4873425107883
 20
117.5369753269757
 30
0.0000000000000009
 10
332.4245884120407
 20
117.7251863176012
 30
0.0
 10
332.2370829911905
 20
118.2595721947895
 30
0.0
 10
331.8932773686441
 20
119.1122364941376
 30
0.0000000000000018
 10
331.4346134739118
 20
120.0717473232261
 30
0.0000000000000036
 10
330.9258803223772
 20
120.9780137741603
 30
0.0
 10
330.3686838068525
 20
121.8284200588642
 30
0.0
 10
329.7647568882396
 20
122.6209317023492
 30
0.0000000000000018
 10
329.1158397568554
 20
123.3535239368329
 30
-0.0000000000000036
 10
328.4242916147367
 20
124.0254160659211
 30
0.0000000000000018
 10
327.6904998621087
 20
124.6326054613963
 30
-0.0000000000000036
 10
327.0430039524611
 20
125.097582337969
 30
-0.0000000000000018
 10
326.6305821534912
 20
125.3418367921871
 30
0.0
 10
326.4861831465543
 20
125.4224520111251
 30
0.0000000000000018
  0
SPLINE
  5
174
330
1F
100
AcDbEntity
  8
HEWI
100
AcDbSpline
210
-0.0000000000000003
220
0.0000000000000002
230
1.0
 70
     8
 71
     3
 72
    64
 73
    60
 74
     0
 42
0.000000001
 43
0.0000000001
 40
0.0
 40
0.0
 40
0.0
 40
0.0
 40
0.0156780830435326
 40
0.032901476883677
 40
0.0501375321930842
 40
0.0674069925547157
 40
0.0847274140456099
 40
0.1021118283597645
 40
0.1195680126667048
 40
0.1370984231109602
 40
0.1547007380559144
 40
0.1723688557268205
 40
0.1900941276263892
 40
0.2078666023185305
 40
0.2256761006949192
 40
0.2435130207307058
 40
0.2613688476483989
 40
0.2792364027883149
 40
0.2971098938476925
 40
0.3149842367831461
 40
0.3328558157155557
 40
0.3507225585360181
 40
0.3685831277452653
 40
0.3864367629944142
 40
0.4042831476295451
 40
0.422122299698304
 40
0.4399544853767125
 40
0.4577801517302615
 40
0.4755998754921473
 40
0.4934143247391912
 40
0.5112242307334128
 40
0.5290303676366568
 40
0.546833538224305
 40
0.5646345640883036
 40
0.5824342791179646
 40
0.6002335252786587
 40
0.6180331237121708
 40
0.6358336684266445
 40
0.6536360122976848
 40
0.6714410083806572
 40
0.6892495068951768
 40
0.707062350611519
 40
0.7248803677355095
 40
0.742704361247946
 40
0.7605350933994581
 40
0.7783732637352382
 40
0.7962194786262891
 40
0.814074209826732
 40
0.8319377390955507
 40
0.8498100854933484
 40
0.8676909117378091
 40
0.8855794062328655
 40
0.9034741384916351
 40
0.9213728882718159
 40
0.9392715426085368
 40
0.9571648928373313
 40
0.9750467205721619
 40
0.9929093121898516
 40
1.0
 40
1.0
 40
1.0
 40
1.0
 10
292.9538907674373
 20
67.66332960432446
 30
-0.0000000000000036
 10
293.1999310869108
 20
67.51864612867835
 30
0.0000000000000018
 10
293.726567740798
 20
67.23467940231796
 30
-0.0000000000000036
 10
294.5641979187698
 20
66.86609369362668
 30
0.0000000000000036
 10
295.4595871474144
 20
66.55113389364391
 30
0.0
 10
296.3862130370341
 20
66.30309637375197
 30
0.0
 10
297.3421392759632
 20
66.12216049480585
 30
0.0
 10
298.3257014614488
 20
66.00895126913963
 30
-0.0000000000000036
 10
299.3349853333243
 20
65.96392327316397
 30
0.0
 10
300.3679165773143
 20
65.98746197945189
 30
0.0000000000000036
 10
301.4222193014117
 20
66.07978578374136
 30
0.0000000000000036
 10
302.4954433976179
 20
66.2409099915009
 30
0.0
 10
303.584999875324
 20
66.47061308064415
 30
0.0
 10
304.6882090636868
 20
66.76842603424607
 30
0.0000000000000036
 10
305.802348033333
 20
67.13363781762573
 30
0.0000000000000053
 10
306.9246910501953
 20
67.56531328940962
 30
0.0000000000000036
 10
308.0525390678517
 20
68.06231727029779
 30
0.0000000000000036
 10
309.1832379000889
 20
68.62333973762289
 30
0.0000000000000036
 10
310.3141742199541
 20
69.24691169890596
 30
0.0000000000000053
 10
311.4427840900407
 20
69.93142418607885
 30
0.0000000000000036
 10
312.5665631483458
 20
70.67514895092239
 30
0.0000000000000053
 10
313.6830739066294
 20
71.47625980213074
 30
0.0000000000000036
 10
314.78993334499
 20
72.33283826243027
 30
0.0000000000000018
 10
315.8847963157535
 20
73.24286965138277
 30
0.0000000000000071
 10
316.9653536213209
 20
74.2042461161694
 30
0.0000000000000053
 10
318.0293314788562
 20
75.21476913486032
 30
0.0000000000000107
 10
319.0744922411767
 20
76.27215191625173
 30
0.0000000000000036
 10
320.0986361733343
 20
77.37402197579251
 30
0.0000000000000036
 10
321.0996040650085
 20
78.5179240563417
 30
0.0000000000000036
 10
322.0752804684797
 20
79.70132348311499
 30
0.0000000000000018
 10
323.0235973748524
 20
80.92160998776149
 30
0.0000000000000036
 10
323.9425381685094
 20
82.17610200086676
 30
0.0000000000000071
 10
324.8301417265392
 20
83.46205138979563
 30
0.0000000000000071
 10
325.6845065536536
 20
84.77664860521546
 30
0.0000000000000053
 10
326.5037948632723
 20
86.11702819201944
 30
0.0000000000000044
 10
327.2862361478502
 20
87.48027394681681
 30
0.0000000000000053
 10
328.0301278387447
 20
88.86341898395494
 30
0.0000000000000044
 10
328.7338432954529
 20
90.26345834452682
 30
0.0000000000000071
 10
329.3958354735481
 20
91.67735640317436
 30
0.0000000000000107
 10
330.0146422058158
 20
93.10205984426236
 30
0.0
 10
330.5888852063493
 20
94.53449761267972
 30
0.0000000000000071
 10
331.1172722803914
 20
95.97158747083424
 30
0.000000000000008
 10
331.5985991492213
 20
97.41024243552963
 30
0.0000000000000071
 10
332.031750880329
 20
98.84737699461574
 30
0.0000000000000062
 10
332.4157029286916
 20
100.2799129895532
 30
-0.0000000000000012
 10
332.7495218151411
 20
101.7047850303557
 30
0.0000000000000084
 10
333.0323654974929
 20
103.1189452877663
 30
0.0000000000000027
 10
333.2634835321004
 20
104.5193674870694
 30
0.0000000000000042
 10
333.442217183187
 20
105.9030499068006
 30
0.0000000000000053
 10
333.5679997143776
 20
107.2670171935517
 30
0.0000000000000036
 10
333.6403572112651
 20
108.6083207684179
 30
0.0000000000000027
 10
333.6589103731051
 20
109.9240378548668
 30
0.0000000000000027
 10
333.6233780020966
 20
111.2112685494566
 30
0.0000000000000027
 10
333.5335840414413
 20
112.4671120078126
 30
0.0000000000000018
 10
333.3894724024702
 20
113.6886620280616
 30
0.0000000000000018
 10
333.1911195831972
 20
114.8730330249542
 30
0.0000000000000018
 10
332.9387630377852
 20
116.0173096456467
 30
0.0000000000000009
 10
332.6941271963752
 20
116.8979358028615
 30
0.0000000000000009
 10
332.534197971466
 20
117.3964535926538
 30
0.0000000000000036
 10
332.4873425107883
 20
117.5369753269757
 30
0.0000000000000009
  0
MTEXT
  5
175
330
1F
100
AcDbEntity
  8
1
  6
Continuous
 62
    18
370
    18
100
AcDbMText
 10
95.059917
 20
87.16923800000001
 30
0.0
 40
2.5
 41
0.0
 46
0.0
 71
     7
 72
     5
  1
\W0.7071;\H5.00;900.36.01740\P900.36.01760\P900.36.017XA\P\H2.50;
  7
iso-1
 73
     1
 44
0.9638549999999998
  0
ENDSEC
  0
SECTION
  2
OBJECTS
  0
DICTIONARY
  5
C
330
0
100
AcDbDictionary
281
     1
  3
ACAD_CIP_PREVIOUS_PRODUCT_INFO
350
1D6
  3
ACAD_COLOR
350
1D0
  3
ACAD_DETAILVIEWSTYLE
350
1CC
  3
ACAD_GROUP
350
D
  3
ACAD_LAYOUT
350
1A
  3
ACAD_MATERIAL
350
43
  3
ACAD_MLEADERSTYLE
350
6B
  3
ACAD_MLINESTYLE
350
17
  3
ACAD_PLOTSETTINGS
350
19
  3
ACAD_PLOTSTYLENAME
350
E
  3
ACAD_SCALELIST
350
47
  3
ACAD_SECTIONVIEWSTYLE
350
1CD
  3
ACAD_TABLESTYLE
350
69
  3
ACAD_VISUALSTYLE
350
2A
  3
ACDB_RECOMPOSE_DATA
350
425
  3
AcDbVariableDictionary
350
189
  0
DICTIONARY
  5
1F8
330
2
100
AcDbDictionary
280
     1
281
     1
  3
ACAD_LAYERSTATES
360
1F9
  0
DICTIONARY
  5
41A
330
10
100
AcDbDictionary
280
     1
281
     1
  3
ADSK_XREC_LAYER_RECONCILED
360
41B
  0
DICTIONARY
  5
41C
330
74
100
AcDbDictionary
280
     1
281
     1
  3
ADSK_XREC_LAYER_RECONCILED
360
41D
  0
DICTIONARY
  5
1F3
330
1F2
100
AcDbDictionary
280
     1
281
     1
  3
ADSK_XREC_LAYER_RECONCILED
360
41E
  0
XRECORD
  5
1D6
102
{ACAD_REACTORS
330
C
102
}
330
C
100
AcDbXrecord
280
     1
300
ACDLT
300
2021
300
ACDLT_F_S
  0
DICTIONARY
  5
1D0
102
{ACAD_REACTORS
330
C
102
}
330
C
100
AcDbDictionary
281
     1
  0
DICTIONARY
  5
1CC
102
{ACAD_REACTORS
330
C
102
}
330
C
100
AcDbDictionary
281
     1
  3
Metric50
350
1D2
  0
DICTIONARY
  5
D
102
{ACAD_REACTORS
330
C
102
}
330
C
100
AcDbDictionary
281
     1
  0
DICTIONARY
  5
1A
102
{ACAD_REACTORS
330
C
102
}
330
C
100
AcDbDictionary
281
     1
  3
Layout1
350
1E
  3
Layout2
350
26
  3
Model
350
22
  0
DICTIONARY
  5
43
102
{ACAD_REACTORS
330
C
102
}
330
C
100
AcDbDictionary
281
     1
  3
ByBlock
350
45
  3
ByLayer
350
44
  3
Global
350
46
  0
DICTIONARY
  5
6B
102
{ACAD_REACTORS
330
C
102
}
330
C
100
AcDbDictionary
281
     1
  3
Standard
350
6C
  0
DICTIONARY
  5
17
102
{ACAD_REACTORS
330
C
102
}
330
C
100
AcDbDictionary
281
     1
  3
Standard
350
18
  0
DICTIONARY
  5
19
102
{ACAD_REACTORS
330
C
102
}
330
C
100
AcDbDictionary
281
     1
  0
ACDBDICTIONARYWDFLT
  5
E
102
{ACAD_REACTORS
330
C
102
}
330
C
100
AcDbDictionary
281
     1
  3
Normal
350
F
100
AcDbDictionaryWithDefault
340
F
  0
DICTIONARY
  5
47
102
{ACAD_REACTORS
330
C
102
}
330
C
100
AcDbDictionary
281
     1
  3
A0
350
48
  3
A1
350
49
  3
A2
350
4A
  3
A3
350
4B
  3
A4
350
4C
  3
A5
350
4D
  3
A6
350
4E
  3
A7
350
4F
  3
A8
350
50
  3
A9
350
51
  3
B0
350
52
  3
B1
350
53
  3
B2
350
54
  3
B3
350
55
  3
B4
350
56
  3
B5
350
57
  3
B6
350
58
  3
B7
350
59
  3
B8
350
5A
  3
B9
350
5B
  3
C0
350
5C
  3
C1
350
5D
  3
C2
350
5E
  3
C3
350
5F
  3
C4
350
60
  3
C5
350
61
  3
C6
350
62
  3
C7
350
63
  3
C8
350
64
  3
C9
350
65
  3
D0
350
66
  3
D1
350
67
  3
D2
350
68
  0
DICTIONARY
  5
1CD
102
{ACAD_REACTORS
330
C
102
}
330
C
100
AcDbDictionary
281
     1
  3
Metric50
350
1D1
  0
DICTIONARY
  5
69
102
{ACAD_REACTORS
330
C
102
}
330
C
100
AcDbDictionary
281
     1
  3
Standard
350
6A
  0
DICTIONARY
  5
2A
102
{ACAD_REACTORS
330
C
102
}
330
C
100
AcDbDictionary
281
     1
  3
2dWireframe
350
2F
  3
Basic
350
32
  3
Brighten
350
36
  3
ColorChange
350
3A
  3
Conceptual
350
34
  3
Dim
350
35
  3
EdgeColorOff
350
3D
  3
Facepattern
350
39
  3
Flat
350
2B
  3
FlatWithEdges
350
2C
  3
Gouraud
350
2D
  3
GouraudWithEdges
350
2E
  3
Hidden
350
31
  3
JitterOff
350
3B
  3
Linepattern
350
38
  3
OverhangOff
350
3C
  3
Realistic
350
33
  3
Shaded
350
42
  3
Shaded with edges
350
41
  3
Shades of Gray
350
3E
  3
Sketchy
350
3F
  3
Thicken
350
37
  3
Wireframe
350
30
  3
X-Ray
350
40
  0
XRECORD
  5
425
102
{ACAD_REACTORS
330
C
102
}
330
C
100
AcDbXrecord
280
     1
 90
        1
330
6A
  0
DICTIONARY
  5
189
102
{ACAD_REACTORS
330
C
102
}
330
C
100
AcDbDictionary
281
     1
  3
CANNOSCALE
350
18A
  3
CMLEADERSTYLE
350
1CB
  3
CTABLESTYLE
350
1CA
  3
CVIEWDETAILSTYLE
350
41F
  3
CVIEWSECTIONSTYLE
350
420
  3
LAYEREVAL
350
422
  3
LAYERNOTIFY
350
423
  3
LIGHTINGUNITS
350
421
  3
MSLTSCALE
350
18B
  0
DICTIONARY
  5
1F9
102
{ACAD_REACTORS
330
1F8
102
}
330
1F8
100
AcDbDictionary
281
     1
  0
XRECORD
  5
41B
102
{ACAD_REACTORS
330
41A
102
}
330
41A
100
AcDbXrecord
280
     1
290
     1
  0
XRECORD
  5
41D
102
{ACAD_REACTORS
330
41C
102
}
330
41C
100
AcDbXrecord
280
     1
290
     1
  0
XRECORD
  5
41E
102
{ACAD_REACTORS
330
1F3
102
}
330
1F3
100
AcDbXrecord
280
     1
290
     1
  0
ACDBDETAILVIEWSTYLE
  5
1D2
102
{ACAD_XDICTIONARY
360
428
102
}
102
{ACAD_REACTORS
330
1CC
102
}
330
1CC
100
AcDbModelDocViewStyle
 70
     0
  3
Metric50
290
     0
100
AcDbDetailViewStyle
 70
     0
 71
     0
 90
        3
 71
     1
340
11
 62
   256
 40
5.0
340
0
 62
   256
 40
5.0
300

 40
0.0
280
     1
 71
     2
340
16
 90
       25
 62
   256
 71
     3
340
11
 62
   256
 40
5.0
 90
        0
 40
15.0
 90
        1
300
%<\AcVar ViewDetailId>% (%<\AcVar ViewScale \f "%sn">%)
 71
     4
340
16
 90
       25
 62
   256
340
16
 90
       25
 62
   256
280
     0
  0
LAYOUT
  5
1E
102
{ACAD_REACTORS
330
1A
102
}
330
1A
100
AcDbPlotSettings
  1

  2
none_device
  4

  6

 40
0.0
 41
0.0
 42
0.0
 43
0.0
 44
0.0
 45
0.0
 46
0.0
 47
0.0
 48
0.0
 49
0.0
140
0.0
141
0.0
142
1.0
143
1.0
 70
   688
 72
     0
 73
     0
 74
     5
  7

 75
    16
147
1.0
 76
     0
 77
     2
 78
   300
148
0.0
149
0.0
100
AcDbLayout
  1
Layout1
 70
     1
 71
     1
 10
-0.5
 20
-0.5
 11
5.0
 21
5.0
 12
0.0
 22
0.0
 32
0.0
 14
-0.5
 24
-0.5
 34
-0.5
 15
5.0
 25
5.0
 35
5.0
146
0.0
 13
0.0
 23
0.0
 33
0.0
 16
1.0
 26
0.0
 36
0.0
 17
0.0
 27
1.0
 37
0.0
 76
     0
330
1B
  0
LAYOUT
  5
26
102
{ACAD_REACTORS
330
1A
102
}
330
1A
100
AcDbPlotSettings
  1

  2
none_device
  4

  6

 40
0.0
 41
0.0
 42
0.0
 43
0.0
 44
0.0
 45
0.0
 46
0.0
 47
0.0
 48
0.0
 49
0.0
140
0.0
141
0.0
142
1.0
143
1.0
 70
   688
 72
     0
 73
     0
 74
     5
  7

 75
    16
147
1.0
 76
     0
 77
     2
 78
   300
148
0.0
149
0.0
100
AcDbLayout
  1
Layout2
 70
     1
 71
     2
 10
0.0
 20
0.0
 11
0.0
 21
0.0
 12
0.0
 22
0.0
 32
0.0
 14
0.0
 24
0.0
 34
0.0
 15
0.0
 25
0.0
 35
0.0
146
0.0
 13
0.0
 23
0.0
 33
0.0
 16
1.0
 26
0.0
 36
0.0
 17
0.0
 27
1.0
 37
0.0
 76
     0
330
23
  0
LAYOUT
  5
22
102
{ACAD_REACTORS
330
1A
102
}
330
1A
100
AcDbPlotSettings
  1

  2
none_device
  4
Letter_(8.50_x_11.00_Inches)
  6

 40
6.349999999999999
 41
6.349999999999999
 42
6.350005
 43
6.350005
 44
215.9
 45
279.4
 46
0.0
 47
0.0
 48
0.0
 49
0.0
140
0.0
141
0.0
142
1.0
143
1.0
 70
  1712
 72
     0
 73
     0
 74
     0
  7

 75
     0
147
1.0
 76
     0
 77
     2
 78
   300
148
0.0
149
0.0
100
AcDbLayout
  1
Model
 70
     1
 71
     0
 10
-0.5
 20
-0.5
 11
5.0
 21
5.0
 12
0.0
 22
0.0
 32
0.0
 14
-0.5
 24
-0.5
 34
-0.5
 15
5.0
 25
5.0
 35
5.0
146
0.0
 13
0.0
 23
0.0
 33
0.0
 16
1.0
 26
0.0
 36
0.0
 17
0.0
 27
1.0
 37
0.0
 76
     0
330
1F
331
29
  0
MATERIAL
  5
45
102
{ACAD_XDICTIONARY
360
1BF
102
}
102
{ACAD_REACTORS
330
43
102
}
330
43
100
AcDbMaterial
  1
ByBlock
  0
MATERIAL
  5
44
102
{ACAD_XDICTIONARY
360
1BD
102
}
102
{ACAD_REACTORS
330
43
102
}
330
43
100
AcDbMaterial
  1
ByLayer
  0
MATERIAL
  5
46
102
{ACAD_XDICTIONARY
360
1C1
102
}
102
{ACAD_REACTORS
330
43
102
}
330
43
100
AcDbMaterial
  1
Global
  0
MLEADERSTYLE
  5
6C
102
{ACAD_REACTORS
330
6B
102
}
330
6B
100
AcDbMLeaderStyle
179
     2
170
     2
171
     1
172
     0
 90
        2
 40
0.0
 41
0.0
173
     1
 91
-1056964608
340
14
 92
       -2
290
     1
 42
0.09
291
     1
 43
0.36
  3
Standard
 44
0.18
300

342
11
174
     1
178
     6
175
     1
176
     0
 93
-1056964608
 45
0.18
292
     0
297
     0
 46
0.18
 94
-1056964608
 47
1.0
 49
1.0
140
1.0
293
     1
141
0.0
294
     1
177
     0
142
1.0
295
     0
296
     0
143
0.125
271
     0
272
     9
273
     9
298
     0
1001
ACAD_MLEADERVER
1070
     2
  0
MLINESTYLE
  5
18
102
{ACAD_REACTORS
330
17
102
}
330
17
100
AcDbMlineStyle
  2
STANDARD
 70
     0
  3

 62
   256
 51
90.0
 52
90.0
 71
     2
 49
0.5
 62
   256
  6
BYLAYER
 49
-0.5
 62
   256
  6
BYLAYER
  0
ACDBPLACEHOLDER
  5
F
102
{ACAD_REACTORS
330
E
102
}
330
E
  0
SCALE
  5
48
102
{ACAD_REACTORS
330
47
102
}
330
47
100
AcDbScale
 70
     0
300
1:1
140
1.0
141
1.0
290
     1
  0
SCALE
  5
49
102
{ACAD_REACTORS
330
47
102
}
330
47
100
AcDbScale
 70
     0
300
1:2
140
1.0
141
2.0
290
     0
  0
SCALE
  5
4A
102
{ACAD_REACTORS
330
47
102
}
330
47
100
AcDbScale
 70
     0
300
1:4
140
1.0
141
4.0
290
     0
  0
SCALE
  5
4B
102
{ACAD_REACTORS
330
47
102
}
330
47
100
AcDbScale
 70
     0
300
1:5
140
1.0
141
5.0
290
     0
  0
SCALE
  5
4C
102
{ACAD_REACTORS
330
47
102
}
330
47
100
AcDbScale
 70
     0
300
1:8
140
1.0
141
8.0
290
     0
  0
SCALE
  5
4D
102
{ACAD_REACTORS
330
47
102
}
330
47
100
AcDbScale
 70
     0
300
1:10
140
1.0
141
10.0
290
     0
  0
SCALE
  5
4E
102
{ACAD_REACTORS
330
47
102
}
330
47
100
AcDbScale
 70
     0
300
1:16
140
1.0
141
16.0
290
     0
  0
SCALE
  5
4F
102
{ACAD_REACTORS
330
47
102
}
330
47
100
AcDbScale
 70
     0
300
1:20
140
1.0
141
20.0
290
     0
  0
SCALE
  5
50
102
{ACAD_REACTORS
330
47
102
}
330
47
100
AcDbScale
 70
     0
300
1:30
140
1.0
141
30.0
290
     0
  0
SCALE
  5
51
102
{ACAD_REACTORS
330
47
102
}
330
47
100
AcDbScale
 70
     0
300
1:40
140
1.0
141
40.0
290
     0
  0
SCALE
  5
52
102
{ACAD_REACTORS
330
47
102
}
330
47
100
AcDbScale
 70
     0
300
1:50
140
1.0
141
50.0
290
     0
  0
SCALE
  5
53
102
{ACAD_REACTORS
330
47
102
}
330
47
100
AcDbScale
 70
     0
300
1:100
140
1.0
141
100.0
290
     0
  0
SCALE
  5
54
102
{ACAD_REACTORS
330
47
102
}
330
47
100
AcDbScale
 70
     0
300
2:1
140
2.0
141
1.0
290
     0
  0
SCALE
  5
55
102
{ACAD_REACTORS
330
47
102
}
330
47
100
AcDbScale
 70
     0
300
4:1
140
4.0
141
1.0
290
     0
  0
SCALE
  5
56
102
{ACAD_REACTORS
330
47
102
}
330
47
100
AcDbScale
 70
     0
300
8:1
140
8.0
141
1.0
290
     0
  0
SCALE
  5
57
102
{ACAD_REACTORS
330
47
102
}
330
47
100
AcDbScale
 70
     0
300
10:1
140
10.0
141
1.0
290
     0
  0
SCALE
  5
58
102
{ACAD_REACTORS
330
47
102
}
330
47
100
AcDbScale
 70
     0
300
100:1
140
100.0
141
1.0
290
     0
  0
SCALE
  5
59
102
{ACAD_REACTORS
330
47
102
}
330
47
100
AcDbScale
 70
     0
300
1/128" = 1'-0"
140
0.007812
141
12.0
290
     0
  0
SCALE
  5
5A
102
{ACAD_REACTORS
330
47
102
}
330
47
100
AcDbScale
 70
     0
300
1/64" = 1'-0"
140
0.015625
141
12.0
290
     0
  0
SCALE
  5
5B
102
{ACAD_REACTORS
330
47
102
}
330
47
100
AcDbScale
 70
     0
300
1/32" = 1'-0"
140
0.03125
141
12.0
290
     0
  0
SCALE
  5
5C
102
{ACAD_REACTORS
330
47
102
}
330
47
100
AcDbScale
 70
     0
300
1/16" = 1'-0"
140
0.0625
141
12.0
290
     0
  0
SCALE
  5
5D
102
{ACAD_REACTORS
330
47
102
}
330
47
100
AcDbScale
 70
     0
300
3/32" = 1'-0"
140
0.09375
141
12.0
290
     0
  0
SCALE
  5
5E
102
{ACAD_REACTORS
330
47
102
}
330
47
100
AcDbScale
 70
     0
300
1/8" = 1'-0"
140
0.125
141
12.0
290
     0
  0
SCALE
  5
5F
102
{ACAD_REACTORS
330
47
102
}
330
47
100
AcDbScale
 70
     0
300
3/16" = 1'-0"
140
0.1875
141
12.0
290
     0
  0
SCALE
  5
60
102
{ACAD_REACTORS
330
47
102
}
330
47
100
AcDbScale
 70
     0
300
1/4" = 1'-0"
140
0.25
141
12.0
290
     0
  0
SCALE
  5
61
102
{ACAD_REACTORS
330
47
102
}
330
47
100
AcDbScale
 70
     0
300
3/8" = 1'-0"
140
0.375
141
12.0
290
     0
  0
SCALE
  5
62
102
{ACAD_REACTORS
330
47
102
}
330
47
100
AcDbScale
 70
     0
300
1/2" = 1'-0"
140
0.5
141
12.0
290
     0
  0
SCALE
  5
63
102
{ACAD_REACTORS
330
47
102
}
330
47
100
AcDbScale
 70
     0
300
3/4" = 1'-0"
140
0.75
141
12.0
290
     0
  0
SCALE
  5
64
102
{ACAD_REACTORS
330
47
102
}
330
47
100
AcDbScale
 70
     0
300
1" = 1'-0"
140
1.0
141
12.0
290
     0
  0
SCALE
  5
65
102
{ACAD_REACTORS
330
47
102
}
330
47
100
AcDbScale
 70
     0
300
1-1/2" = 1'-0"
140
1.5
141
12.0
290
     0
  0
SCALE
  5
66
102
{ACAD_REACTORS
330
47
102
}
330
47
100
AcDbScale
 70
     0
300
3" = 1'-0"
140
3.0
141
12.0
290
     0
  0
SCALE
  5
67
102
{ACAD_REACTORS
330
47
102
}
330
47
100
AcDbScale
 70
     0
300
6" = 1'-0"
140
6.0
141
12.0
290
     0
  0
SCALE
  5
68
102
{ACAD_REACTORS
330
47
102
}
330
47
100
AcDbScale
 70
     0
300
1'-0" = 1'-0"
140
12.0
141
12.0
290
     0
  0
ACDBSECTIONVIEWSTYLE
  5
1D1
102
{ACAD_XDICTIONARY
360
426
102
}
102
{ACAD_REACTORS
330
1CD
102
}
330
1CD
100
AcDbModelDocViewStyle
 70
     0
  3
Metric50
290
     0
100
AcDbSectionViewStyle
 70
     0
 71
     0
 90
      102
 71
     1
340
11
 62
   256
 40
5.0
340
0
340
0
 62
   256
 40
5.0
300
I, O, Q, S, X, Z
 40
10.0
 90
        0
 40
2.5
 90
        0
 71
     2
340
16
 90
       25
 62
   256
340
16
 90
       50
 62
   256
 40
5.0
 40
2.5
 40
5.0
 71
     3
340
11
 62
   256
 40
5.0
 90
        0
 40
15.0
 90
        1
300
%<\AcVar ViewSectionStartId>%-%<\AcVar ViewSectionEndId>% (%<\AcVar ViewScale \f "%sn">%)
 71
     4
 62
   256
 62
   257
300
ANSI31
 40
1.0
 90
        0
290
     0
290
     0
 90
        6
 40
0.0
 40
1.570796326794896
 40
0.2617993877991494
 40
1.308996938995747
 40
-0.2617993877991494
 40
1.832595714594046
  0
TABLESTYLE
  5
6A
102
{ACAD_XDICTIONARY
360
1C3
102
}
102
{ACAD_REACTORS
330
69
102
}
330
69
100
AcDbTableStyle
280
     0
  3
Standard
 70
     0
 71
     0
 40
0.06
 41
0.06
280
     0
281
     0
  7
Standard
140
0.18
170
     2
 62
     0
 63
     7
283
     0
 90
        4
 91
        0
  1

274
    -2
284
     1
 64
     0
275
    -2
285
     1
 65
     0
276
    -2
286
     1
 66
     0
277
    -2
287
     1
 67
     0
278
    -2
288
     1
 68
     0
279
    -2
289
     1
 69
     0
  7
Standard
140
0.25
170
     5
 62
     0
 63
     7
283
     0
 90
        4
 91
        0
  1

274
    -2
284
     1
 64
     0
275
    -2
285
     1
 65
     0
276
    -2
286
     1
 66
     0
277
    -2
287
     1
 67
     0
278
    -2
288
     1
 68
     0
279
    -2
289
     1
 69
     0
  7
Standard
140
0.18
170
     5
 62
     0
 63
     7
283
     0
 90
        4
 91
        0
  1

274
    -2
284
     1
 64
     0
275
    -2
285
     1
 65
     0
276
    -2
286
     1
 66
     0
277
    -2
287
     1
 67
     0
278
    -2
288
     1
 68
     0
279
    -2
289
     1
 69
     0
  0
VISUALSTYLE
  5
2F
102
{ACAD_REACTORS
330
2A
102
}
330
2A
100
AcDbVisualStyle
  2

 70
     4
177
     3
291
     0
 70
    58
 90
        0
176
     1
 90
        2
176
     1
 90
        0
176
     1
 90
        0
176
     1
 40
0.6
176
     1
 40
30.0
176
     1
 62
     7
420
 16777215
176
     1
 90
        1
176
     1
 90
        4
176
     1
 62
     7
176
     1
 62
   257
176
     1
 90
        1
176
     1
 90
        1
176
     1
 40
1.0
176
     1
 90
        0
176
     1
 62
   257
176
     1
 40
1.0
176
     1
 90
        1
176
     1
 90
        6
176
     1
 90
        2
176
     1
 62
     7
176
     1
 90
        5
176
     1
 90
        0
176
     1
 90
        0
176
     1
290
     0
176
     1
 90
        1
176
     1
 40
0.0
176
     1
 90
        0
176
     1
290
     1
176
     1
290
     1
176
     1
290
     0
176
     1
290
     0
176
     1
290
     0
176
     1
290
     0
176
     1
290
     0
176
     1
290
     0
176
     1
290
     0
176
     1
 90
       50
176
     1
 40
0.0
176
     1
 40
1.0
176
     1
 90
        0
176
     1
 62
    18
420
        0
176
     1
 90
       50
176
     1
 90
        3
176
     1
 62
     5
420
      255
176
     1
290
     0
176
     1
 90
       50
176
     1
 90
       50
176
     1
 90
       50
176
     1
290
     0
176
     1
 90
       50
176
     1
 62
   256
176
     0
 40
1.0
176
     0
 90
        2
176
     1
  1
strokes_ogs.tif
176
     1
290
     0
176
     1
 40
1.0
176
     1
 40
1.0
176
     1
1001
ACAD
1000
AcDbSavedByObjectVersion
1070
     0
  0
VISUALSTYLE
  5
32
102
{ACAD_REACTORS
330
2A
102
}
330
2A
100
AcDbVisualStyle
  2

 70
     7
177
     3
291
     1
 70
    58
 90
        1
176
     1
 90
        0
176
     1
 90
        1
176
     1
 90
        0
176
     1
 40
0.6
176
     1
 40
30.0
176
     1
 62
     7
420
 16777215
176
     1
 90
        0
176
     1
 90
        4
176
     1
 62
     7
176
     1
 62
   257
176
     1
 90
        1
176
     1
 90
        1
176
     1
 40
1.0
176
     1
 90
        8
176
     1
 62
     7
176
     1
 40
1.0
176
     1
 90
        1
176
     1
 90
        6
176
     1
 90
        2
176
     1
 62
     7
176
     1
 90
        5
176
     1
 90
        0
176
     1
 90
        0
176
     1
290
     0
176
     1
 90
        1
176
     1
 40
0.0
176
     1
 90
        0
176
     1
290
     0
176
     1
290
     1
176
     1
290
     1
176
     1
290
     0
176
     1
290
     0
176
     1
290
     0
176
     1
290
     0
176
     1
290
     0
176
     1
290
     0
176
     1
 90
       50
176
     1
 40
0.0
176
     1
 40
1.0
176
     1
 90
        0
176
     1
 62
    18
420
        0
176
     1
 90
       50
176
     1
 90
        3
176
     1
 62
     5
420
      255
176
     1
290
     0
176
     1
 90
       50
176
     1
 90
       50
176
     1
 90
       50
176
     1
290
     0
176
     1
 90
       50
176
     1
 62
   256
176
     0
 40
1.0
176
     0
 90
        2
176
     1
  1
strokes_ogs.tif
176
     1
290
     0
176
     1
 40
1.0
176
     1
 40
1.0
176
     1
1001
ACAD
1000
AcDbSavedByObjectVersion
1070
     0
  0
VISUALSTYLE
  5
36
102
{ACAD_REACTORS
330
2A
102
}
330
2A
100
AcDbVisualStyle
  2

 70
    12
177
     3
291
     1
 70
    58
 90
        2
176
     1
 90
        2
176
     1
 90
        0
176
     1
 90
        0
176
     1
 40
0.6
176
     1
 40
30.0
176
     1
 62
     7
420
 16777215
176
     1
 90
        1
176
     1
 90
        4
176
     1
 62
     7
176
     1
 62
   257
176
     1
 90
        1
176
     1
 90
        1
176
     1
 40
1.0
176
     1
 90
        8
176
     1
 62
     7
176
     1
 40
1.0
176
     1
 90
        1
176
     1
 90
        6
176
     1
 90
        2
176
     1
 62
     7
176
     1
 90
        5
176
     1
 90
        0
176
     1
 90
        0
176
     1
290
     0
176
     1
 90
        1
176
     1
 40
50.0
176
     1
 90
        0
176
     1
290
     0
176
     1
290
     1
176
     1
290
     1
176
     1
290
     0
176
     1
290
     0
176
     1
290
     0
176
     1
290
     0
176
     1
290
     0
176
     1
290
     0
176
     1
 90
       50
176
     1
 40
0.0
176
     1
 40
1.0
176
     1
 90
        0
176
     1
 62
    18
420
        0
176
     1
 90
       50
176
     1
 90
        3
176
     1
 62
     5
420
      255
176
     1
290
     0
176
     1
 90
       50
176
     1
 90
       50
176
     1
 90
       50
176
     1
290
     0
176
     1
 90
       50
176
     1
 62
   256
176
     0
 40
1.0
176
     0
 90
        2
176
     1
  1
strokes_ogs.tif
176
     1
290
     0
176
     1
 40
1.0
176
     1
 40
1.0
176
     1
1001
ACAD
1000
AcDbSavedByObjectVersion
1070
     0
  0
VISUALSTYLE
  5
3A
102
{ACAD_REACTORS
330
2A
102
}
330
2A
100
AcDbVisualStyle
  2

 70
    16
177
     3
291
     1
 70
    58
 90
        2
176
     1
 90
        2
176
     1
 90
        3
176
     1
 90
        0
176
     1
 40
0.6
176
     1
 40
30.0
176
     1
 62
     8
420
  8421504
176
     1
 90
        1
176
     1
 90
        4
176
     1
 62
     7
176
     1
 62
   257
176
     1
 90
        1
176
     1
 90
        1
176
     1
 40
1.0
176
     1
 90
        8
176
     1
 62
     8
420
  8421504
176
     1
 40
1.0
176
     1
 90
        1
176
     1
 90
        6
176
     1
 90
        2
176
     1
 62
     7
176
     1
 90
        5
176
     1
 90
        0
176
     1
 90
        0
176
     1
290
     0
176
     1
 90
        1
176
     1
 40
0.0
176
     1
 90
        0
176
     1
290
     0
176
     1
290
     1
176
     1
290
     1
176
     1
290
     0
176
     1
290
     0
176
     1
290
     0
176
     1
290
     0
176
     1
290
     0
176
     1
290
     0
176
     1
 90
       50
176
     1
 40
0.0
176
     1
 40
1.0
176
     1
 90
        0
176
     1
 62
    18
420
        0
176
     1
 90
       50
176
     1
 90
        3
176
     1
 62
     5
420
      255
176
     1
290
     0
176
     1
 90
       50
176
     1
 90
       50
176
     1
 90
       50
176
     1
290
     0
176
     1
 90
       50
176
     1
 62
   256
176
     0
 40
1.0
176
     0
 90
        2
176
     1
  1
strokes_ogs.tif
176
     1
290
     0
176
     1
 40
1.0
176
     1
 40
1.0
176
     1
1001
ACAD
1000
AcDbSavedByObjectVersion
1070
     0
  0
VISUALSTYLE
  5
34
102
{ACAD_REACTORS
330
2A
102
}
330
2A
100
AcDbVisualStyle
  2

 70
     9
177
     3
291
     0
 70
    58
 90
        3
176
     1
 90
        2
176
     1
 90
        0
176
     1
 90
        0
176
     1
 40
0.6
176
     1
 40
30.0
176
     1
 62
     7
420
 16777215
176
     1
 90
        2
176
     1
 90
        2
176
     1
 62
     7
176
     1
 62
   257
176
     1
 90
        1
176
     1
 90
        1
176
     1
 40
179.0
176
     1
 90
        8
176
     1
 62
     7
176
     1
 40
1.0
176
     1
 90
        1
176
     1
 90
        6
176
     1
 90
        2
176
     1
 62
     7
176
     1
 90
        3
176
     1
 90
        0
176
     1
 90
        0
176
     1
290
     0
176
     1
 90
        1
176
     1
 40
0.0
176
     1
 90
        0
176
     1
290
     0
176
     1
290
     1
176
     1
290
     1
176
     1
290
     0
176
     1
290
     0
176
     1
290
     0
176
     1
290
     0
176
     1
290
     0
176
     1
290
     0
176
     1
 90
       50
176
     1
 40
0.0
176
     1
 40
1.0
176
     1
 90
        0
176
     1
 62
    18
420
        0
176
     1
 90
       50
176
     1
 90
        3
176
     1
 62
     5
420
      255
176
     1
290
     0
176
     1
 90
       50
176
     1
 90
       50
176
     1
 90
       50
176
     1
290
     0
176
     1
 90
       50
176
     1
 62
   256
176
     0
 40
1.0
176
     0
 90
        2
176
     1
  1
strokes_ogs.tif
176
     1
290
     0
176
     1
 40
1.0
176
     1
 40
1.0
176
     1
1001
ACAD
1000
AcDbSavedByObjectVersion
1070
     0
  0
VISUALSTYLE
  5
35
102
{ACAD_REACTORS
330
2A
102
}
330
2A
100
AcDbVisualStyle
  2

 70
    11
177
     3
291
     1
 70
    58
 90
        2
176
     1
 90
        2
176
     1
 90
        0
176
     1
 90
        0
176
     1
 40
0.6
176
     1
 40
30.0
176
     1
 62
     7
420
 16777215
176
     1
 90
        1
176
     1
 90
        4
176
     1
 62
     7
176
     1
 62
   257
176
     1
 90
        1
176
     1
 90
        1
176
     1
 40
1.0
176
     1
 90
        8
176
     1
 62
     7
176
     1
 40
1.0
176
     1
 90
        1
176
     1
 90
        6
176
     1
 90
        2
176
     1
 62
     7
176
     1
 90
        5
176
     1
 90
        0
176
     1
 90
        0
176
     1
290
     0
176
     1
 90
        1
176
     1
 40
-50.0
176
     1
 90
        0
176
     1
290
     0
176
     1
290
     1
176
     1
290
     1
176
     1
290
     0
176
     1
290
     0
176
     1
290
     0
176
     1
290
     0
176
     1
290
     0
176
     1
290
     0
176
     1
 90
       50
176
     1
 40
0.0
176
     1
 40
1.0
176
     1
 90
        0
176
     1
 62
    18
420
        0
176
     1
 90
       50
176
     1
 90
        3
176
     1
 62
     5
420
      255
176
     1
290
     0
176
     1
 90
       50
176
     1
 90
       50
176
     1
 90
       50
176
     1
290
     0
176
     1
 90
       50
176
     1
 62
   256
176
     0
 40
1.0
176
     0
 90
        2
176
     1
  1
strokes_ogs.tif
176
     1
290
     0
176
     1
 40
1.0
176
     1
 40
1.0
176
     1
1001
ACAD
1000
AcDbSavedByObjectVersion
1070
     0
  0
VISUALSTYLE
  5
3D
102
{ACAD_REACTORS
330
2A
102
}
330
2A
100
AcDbVisualStyle
  2

 70
    22
177
     3
291
     1
 70
    58
 90
        2
176
     0
 90
        2
176
     0
 90
        0
176
     0
 90
        0
176
     0
 40
0.6
176
     0
 40
30.0
176
     0
 62
     7
420
 16777215
176
     0
 90
        1
176
     0
 90
        4
176
     0
 62
     7
176
     0
 62
   257
176
     0
 90
        1
176
     0
 90
        1
176
     0
 40
1.0
176
     0
 90
        8
176
     2
 62
     7
176
     0
 40
1.0
176
     0
 90
        1
176
     0
 90
        6
176
     0
 90
        2
176
     0
 62
     7
176
     0
 90
        5
176
     0
 90
        0
176
     0
 90
        0
176
     0
290
     0
176
     0
 90
        1
176
     0
 40
0.0
176
     0
 90
        0
176
     0
290
     0
176
     0
290
     1
176
     0
290
     1
176
     0
290
     0
176
     0
290
     0
176
     0
290
     0
176
     0
290
     0
176
     0
290
     0
176
     0
290
     0
176
     0
 90
       50
176
     0
 40
0.0
176
     0
 40
1.0
176
     0
 90
        0
176
     0
 62
    18
420
        0
176
     0
 90
       50
176
     0
 90
        3
176
     0
 62
     5
420
      255
176
     0
290
     0
176
     0
 90
       50
176
     0
 90
       50
176
     0
 90
       50
176
     0
290
     0
176
     0
 90
       50
176
     0
 62
   256
176
     0
 40
1.0
176
     0
 90
        2
176
     0
  1
strokes_ogs.tif
176
     0
290
     0
176
     0
 40
1.0
176
     0
 40
1.0
176
     0
1001
ACAD
1000
AcDbSavedByObjectVersion
1070
     0
  0
VISUALSTYLE
  5
39
102
{ACAD_REACTORS
330
2A
102
}
330
2A
100
AcDbVisualStyle
  2

 70
    15
177
     3
291
     1
 70
    58
 90
        2
176
     1
 90
        2
176
     1
 90
        0
176
     1
 90
        0
176
     1
 40
0.6
176
     1
 40
30.0
176
     1
 62
     7
420
 16777215
176
     1
 90
        1
176
     1
 90
        4
176
     1
 62
     7
176
     1
 62
   257
176
     1
 90
        1
176
     1
 90
        1
176
     1
 40
1.0
176
     1
 90
        8
176
     1
 62
     7
176
     1
 40
1.0
176
     1
 90
        1
176
     1
 90
        6
176
     1
 90
        2
176
     1
 62
     7
176
     1
 90
        5
176
     1
 90
        0
176
     1
 90
        0
176
     1
290
     0
176
     1
 90
        1
176
     1
 40
0.0
176
     1
 90
        0
176
     1
290
     0
176
     1
290
     1
176
     1
290
     1
176
     1
290
     0
176
     1
290
     0
176
     1
290
     0
176
     1
290
     0
176
     1
290
     0
176
     1
290
     0
176
     1
 90
       50
176
     1
 40
0.0
176
     1
 40
1.0
176
     1
 90
        0
176
     1
 62
    18
420
        0
176
     1
 90
       50
176
     1
 90
        3
176
     1
 62
     5
420
      255
176
     1
290
     0
176
     1
 90
       50
176
     1
 90
       50
176
     1
 90
       50
176
     1
290
     0
176
     1
 90
       50
176
     1
 62
   256
176
     0
 40
1.0
176
     0
 90
        2
176
     1
  1
strokes_ogs.tif
176
     1
290
     0
176
     1
 40
1.0
176
     1
 40
1.0
176
     1
1001
ACAD
1000
AcDbSavedByObjectVersion
1070
     0
  0
VISUALSTYLE
  5
2B
102
{ACAD_REACTORS
330
2A
102
}
330
2A
100
AcDbVisualStyle
  2

 70
     0
177
     3
291
     1
 70
    58
 90
        2
176
     1
 90
        1
176
     1
 90
        1
176
     1
 90
        2
176
     1
 40
0.6
176
     1
 40
30.0
176
     1
 62
     7
420
 16777215
176
     1
 90
        0
176
     1
 90
        0
176
     1
 62
     7
176
     1
 62
   257
176
     1
 90
        1
176
     1
 90
        1
176
     1
 40
1.0
176
     1
 90
        8
176
     1
 62
     7
176
     1
 40
1.0
176
     1
 90
        1
176
     1
 90
        6
176
     1
 90
        2
176
     1
 62
     7
176
     1
 90
        5
176
     1
 90
        0
176
     1
 90
        0
176
     1
290
     0
176
     1
 90
       13
176
     1
 40
0.0
176
     1
 90
        0
176
     1
290
     0
176
     1
290
     1
176
     1
290
     1
176
     1
290
     0
176
     1
290
     0
176
     1
290
     0
176
     1
290
     0
176
     1
290
     0
176
     1
290
     0
176
     1
 90
       50
176
     1
 40
0.0
176
     1
 40
1.0
176
     1
 90
        0
176
     1
 62
    18
420
        0
176
     1
 90
       50
176
     1
 90
        3
176
     1
 62
     5
420
      255
176
     1
290
     0
176
     1
 90
       50
176
     1
 90
       50
176
     1
 90
       50
176
     1
290
     0
176
     1
 90
       50
176
     1
 62
   256
176
     0
 40
1.0
176
     0
 90
        2
176
     1
  1
strokes_ogs.tif
176
     1
290
     0
176
     1
 40
1.0
176
     1
 40
1.0
176
     1
1001
ACAD
1000
AcDbSavedByObjectVersion
1070
     0
  0
VISUALSTYLE
  5
2C
102
{ACAD_REACTORS
330
2A
102
}
330
2A
100
AcDbVisualStyle
  2

 70
     1
177
     3
291
     1
 70
    58
 90
        2
176
     1
 90
        1
176
     1
 90
        1
176
     1
 90
        2
176
     1
 40
0.6
176
     1
 40
30.0
176
     1
 62
     7
420
 16777215
176
     1
 90
        1
176
     1
 90
        0
176
     1
 62
     7
176
     1
 62
   257
176
     1
 90
        1
176
     1
 90
        1
176
     1
 40
1.0
176
     1
 90
        0
176
     1
 62
   257
176
     1
 40
1.0
176
     1
 90
        1
176
     1
 90
        6
176
     1
 90
        2
176
     1
 62
     7
176
     1
 90
        5
176
     1
 90
        0
176
     1
 90
        0
176
     1
290
     0
176
     1
 90
       13
176
     1
 40
0.0
176
     1
 90
        0
176
     1
290
     0
176
     1
290
     1
176
     1
290
     1
176
     1
290
     0
176
     1
290
     0
176
     1
290
     0
176
     1
290
     0
176
     1
290
     0
176
     1
290
     0
176
     1
 90
       50
176
     1
 40
0.0
176
     1
 40
1.0
176
     1
 90
        0
176
     1
 62
    18
420
        0
176
     1
 90
       50
176
     1
 90
        3
176
     1
 62
     5
420
      255
176
     1
290
     0
176
     1
 90
       50
176
     1
 90
       50
176
     1
 90
       50
176
     1
290
     0
176
     1
 90
       50
176
     1
 62
   256
176
     0
 40
1.0
176
     0
 90
        2
176
     1
  1
strokes_ogs.tif
176
     1
290
     0
176
     1
 40
1.0
176
     1
 40
1.0
176
     1
1001
ACAD
1000
AcDbSavedByObjectVersion
1070
     0
  0
VISUALSTYLE
  5
2D
102
{ACAD_REACTORS
330
2A
102
}
330
2A
100
AcDbVisualStyle
  2

 70
     2
177
     3
291
     1
 70
    58
 90
        2
176
     1
 90
        2
176
     1
 90
        1
176
     1
 90
        2
176
     1
 40
0.6
176
     1
 40
30.0
176
     1
 62
     7
420
 16777215
176
     1
 90
        0
176
     1
 90
        0
176
     1
 62
     7
176
     1
 62
   257
176
     1
 90
        1
176
     1
 90
        1
176
     1
 40
1.0
176
     1
 90
        0
176
     1
 62
     7
176
     1
 40
1.0
176
     1
 90
        1
176
     1
 90
        6
176
     1
 90
        2
176
     1
 62
     7
176
     1
 90
        5
176
     1
 90
        0
176
     1
 90
        0
176
     1
290
     0
176
     1
 90
       13
176
     1
 40
0.0
176
     1
 90
        0
176
     1
290
     0
176
     1
290
     1
176
     1
290
     1
176
     1
290
     0
176
     1
290
     0
176
     1
290
     0
176
     1
290
     0
176
     1
290
     0
176
     1
290
     0
176
     1
 90
       50
176
     1
 40
0.0
176
     1
 40
1.0
176
     1
 90
        0
176
     1
 62
    18
420
        0
176
     1
 90
       50
176
     1
 90
        3
176
     1
 62
     5
420
      255
176
     1
290
     0
176
     1
 90
       50
176
     1
 90
       50
176
     1
 90
       50
176
     1
290
     0
176
     1
 90
       50
176
     1
 62
   256
176
     0
 40
1.0
176
     0
 90
        2
176
     1
  1
strokes_ogs.tif
176
     1
290
     0
176
     1
 40
1.0
176
     1
 40
1.0
176
     1
1001
ACAD
1000
AcDbSavedByObjectVersion
1070
     0
  0
VISUALSTYLE
  5
2E
102
{ACAD_REACTORS
330
2A
102
}
330
2A
100
AcDbVisualStyle
  2

 70
     3
177
     3
291
     1
 70
    58
 90
        2
176
     1
 90
        2
176
     1
 90
        1
176
     1
 90
        2
176
     1
 40
0.6
176
     1
 40
30.0
176
     1
 62
     7
420
 16777215
176
     1
 90
        1
176
     1
 90
        0
176
     1
 62
     7
176
     1
 62
   257
176
     1
 90
        1
176
     1
 90
        1
176
     1
 40
1.0
176
     1
 90
        0
176
     1
 62
   257
176
     1
 40
1.0
176
     1
 90
        1
176
     1
 90
        6
176
     1
 90
        2
176
     1
 62
     7
176
     1
 90
        5
176
     1
 90
        0
176
     1
 90
        0
176
     1
290
     0
176
     1
 90
       13
176
     1
 40
0.0
176
     1
 90
        0
176
     1
290
     0
176
     1
290
     1
176
     1
290
     1
176
     1
290
     0
176
     1
290
     0
176
     1
290
     0
176
     1
290
     0
176
     1
290
     0
176
     1
290
     0
176
     1
 90
       50
176
     1
 40
0.0
176
     1
 40
1.0
176
     1
 90
        0
176
     1
 62
    18
420
        0
176
     1
 90
       50
176
     1
 90
        3
176
     1
 62
     5
420
      255
176
     1
290
     0
176
     1
 90
       50
176
     1
 90
       50
176
     1
 90
       50
176
     1
290
     0
176
     1
 90
       50
176
     1
 62
   256
176
     0
 40
1.0
176
     0
 90
        2
176
     1
  1
strokes_ogs.tif
176
     1
290
     0
176
     1
 40
1.0
176
     1
 40
1.0
176
     1
1001
ACAD
1000
AcDbSavedByObjectVersion
1070
     0
  0
VISUALSTYLE
  5
31
102
{ACAD_REACTORS
330
2A
102
}
330
2A
100
AcDbVisualStyle
  2

 70
     6
177
     3
291
     0
 70
    58
 90
        1
176
     1
 90
        2
176
     1
 90
        2
176
     1
 90
        0
176
     1
 40
0.6
176
     1
 40
30.0
176
     1
 62
     7
420
 16777215
176
     1
 90
        2
176
     1
 90
        2
176
     1
 62
     7
176
     1
 62
   257
176
     1
 90
        2
176
     1
 90
        1
176
     1
 40
40.0
176
     1
 90
        0
176
     1
 62
   257
176
     1
 40
1.0
176
     1
 90
        1
176
     1
 90
        6
176
     1
 90
        2
176
     1
 62
     7
176
     1
 90
        3
176
     1
 90
        0
176
     1
 90
        0
176
     1
290
     0
176
     1
 90
        1
176
     1
 40
0.0
176
     1
 90
        0
176
     1
290
     0
176
     1
290
     1
176
     1
290
     1
176
     1
290
     0
176
     1
290
     0
176
     1
290
     0
176
     1
290
     0
176
     1
290
     0
176
     1
290
     0
176
     1
 90
       50
176
     1
 40
0.0
176
     1
 40
1.0
176
     1
 90
        0
176
     1
 62
    18
420
        0
176
     1
 90
       50
176
     1
 90
        3
176
     1
 62
     5
420
      255
176
     1
290
     0
176
     1
 90
       50
176
     1
 90
       50
176
     1
 90
       50
176
     1
290
     0
176
     1
 90
       50
176
     1
 62
   256
176
     0
 40
1.0
176
     0
 90
        2
176
     1
  1
strokes_ogs.tif
176
     1
290
     0
176
     1
 40
1.0
176
     1
 40
1.0
176
     1
1001
ACAD
1000
AcDbSavedByObjectVersion
1070
     0
  0
VISUALSTYLE
  5
3B
102
{ACAD_REACTORS
330
2A
102
}
330
2A
100
AcDbVisualStyle
  2

 70
    20
177
     3
291
     1
 70
    58
 90
        2
176
     0
 90
        2
176
     0
 90
        0
176
     0
 90
        0
176
     0
 40
0.6
176
     0
 40
30.0
176
     0
 62
     7
420
 16777215
176
     0
 90
        1
176
     0
 90
        4
176
     0
 62
     7
176
     0
 62
   257
176
     0
 90
        1
176
     0
 90
        1
176
     0
 40
1.0
176
     0
 90
       10
176
     2
 62
     7
176
     0
 40
1.0
176
     0
 90
        1
176
     0
 90
        6
176
     0
 90
        2
176
     0
 62
     7
176
     0
 90
        5
176
     0
 90
        0
176
     0
 90
        0
176
     0
290
     0
176
     0
 90
        1
176
     0
 40
0.0
176
     0
 90
        0
176
     0
290
     0
176
     0
290
     1
176
     0
290
     1
176
     0
290
     0
176
     0
290
     0
176
     0
290
     0
176
     0
290
     0
176
     0
290
     0
176
     0
290
     0
176
     0
 90
       50
176
     0
 40
0.0
176
     0
 40
1.0
176
     0
 90
        0
176
     0
 62
    18
420
        0
176
     0
 90
       50
176
     0
 90
        3
176
     0
 62
     5
420
      255
176
     0
290
     0
176
     0
 90
       50
176
     0
 90
       50
176
     0
 90
       50
176
     0
290
     0
176
     0
 90
       50
176
     0
 62
   256
176
     0
 40
1.0
176
     0
 90
        2
176
     0
  1
strokes_ogs.tif
176
     0
290
     0
176
     0
 40
1.0
176
     0
 40
1.0
176
     0
1001
ACAD
1000
AcDbSavedByObjectVersion
1070
     0
  0
VISUALSTYLE
  5
38
102
{ACAD_REACTORS
330
2A
102
}
330
2A
100
AcDbVisualStyle
  2

 70
    14
177
     3
291
     1
 70
    58
 90
        2
176
     1
 90
        2
176
     1
 90
        0
176
     1
 90
        0
176
     1
 40
0.6
176
     1
 40
30.0
176
     1
 62
     7
420
 16777215
176
     1
 90
        1
176
     1
 90
        4
176
     1
 62
     7
176
     1
 62
   257
176
     1
 90
        7
176
     1
 90
        7
176
     1
 40
1.0
176
     1
 90
        8
176
     1
 62
     7
176
     1
 40
1.0
176
     1
 90
        1
176
     1
 90
        6
176
     1
 90
        2
176
     1
 62
     7
176
     1
 90
        5
176
     1
 90
        0
176
     1
 90
        0
176
     1
290
     0
176
     1
 90
        1
176
     1
 40
0.0
176
     1
 90
        0
176
     1
290
     0
176
     1
290
     1
176
     1
290
     1
176
     1
290
     0
176
     1
290
     0
176
     1
290
     0
176
     1
290
     0
176
     1
290
     0
176
     1
290
     0
176
     1
 90
       50
176
     1
 40
0.0
176
     1
 40
1.0
176
     1
 90
        0
176
     1
 62
    18
420
        0
176
     1
 90
       50
176
     1
 90
        3
176
     1
 62
     5
420
      255
176
     1
290
     0
176
     1
 90
       50
176
     1
 90
       50
176
     1
 90
       50
176
     1
290
     0
176
     1
 90
       50
176
     1
 62
   256
176
     0
 40
1.0
176
     0
 90
        2
176
     1
  1
strokes_ogs.tif
176
     1
290
     0
176
     1
 40
1.0
176
     1
 40
1.0
176
     1
1001
ACAD
1000
AcDbSavedByObjectVersion
1070
     0
  0
VISUALSTYLE
  5
3C
102
{ACAD_REACTORS
330
2A
102
}
330
2A
100
AcDbVisualStyle
  2

 70
    21
177
     3
291
     1
 70
    58
 90
        2
176
     0
 90
        2
176
     0
 90
        0
176
     0
 90
        0
176
     0
 40
0.6
176
     0
 40
30.0
176
     0
 62
     7
420
 16777215
176
     0
 90
        1
176
     0
 90
        4
176
     0
 62
     7
176
     0
 62
   257
176
     0
 90
        1
176
     0
 90
        1
176
     0
 40
1.0
176
     0
 90
        9
176
     2
 62
     7
176
     0
 40
1.0
176
     0
 90
        1
176
     0
 90
        6
176
     0
 90
        2
176
     0
 62
     7
176
     0
 90
        5
176
     0
 90
        0
176
     0
 90
        0
176
     0
290
     0
176
     0
 90
        1
176
     0
 40
0.0
176
     0
 90
        0
176
     0
290
     0
176
     0
290
     1
176
     0
290
     1
176
     0
290
     0
176
     0
290
     0
176
     0
290
     0
176
     0
290
     0
176
     0
290
     0
176
     0
290
     0
176
     0
 90
       50
176
     0
 40
0.0
176
     0
 40
1.0
176
     0
 90
        0
176
     0
 62
    18
420
        0
176
     0
 90
       50
176
     0
 90
        3
176
     0
 62
     5
420
      255
176
     0
290
     0
176
     0
 90
       50
176
     0
 90
       50
176
     0
 90
       50
176
     0
290
     0
176
     0
 90
       50
176
     0
 62
   256
176
     0
 40
1.0
176
     0
 90
        2
176
     0
  1
strokes_ogs.tif
176
     0
290
     0
176
     0
 40
1.0
176
     0
 40
1.0
176
     0
1001
ACAD
1000
AcDbSavedByObjectVersion
1070
     0
  0
VISUALSTYLE
  5
33
102
{ACAD_REACTORS
330
2A
102
}
330
2A
100
AcDbVisualStyle
  2

 70
     8
177
     3
291
     0
 70
    58
 90
        2
176
     1
 90
        3
176
     1
 90
        0
176
     1
 90
        2
176
     1
 40
0.6
176
     1
 40
30.0
176
     1
 62
     7
420
 16777215
176
     1
 90
        0
176
     1
 90
        0
176
     1
 62
     7
176
     1
 62
   257
176
     1
 90
        1
176
     1
 90
        1
176
     1
 40
1.0
176
     1
 90
        8
176
     1
 62
   257
176
     1
 40
1.0
176
     1
 90
        1
176
     1
 90
        6
176
     1
 90
        2
176
     1
 62
     7
176
     1
 90
        3
176
     1
 90
        0
176
     1
 90
        0
176
     1
290
     0
176
     1
 90
       13
176
     1
 40
0.0
176
     1
 90
        0
176
     1
290
     0
176
     1
290
     1
176
     1
290
     1
176
     1
290
     0
176
     1
290
     0
176
     1
290
     0
176
     1
290
     0
176
     1
290
     0
176
     1
290
     0
176
     1
 90
       50
176
     1
 40
0.0
176
     1
 40
1.0
176
     1
 90
        0
176
     1
 62
    18
420
        0
176
     1
 90
       50
176
     1
 90
        3
176
     1
 62
     5
420
      255
176
     1
290
     0
176
     1
 90
       50
176
     1
 90
       50
176
     1
 90
       50
176
     1
290
     0
176
     1
 90
       50
176
     1
 62
   256
176
     0
 40
1.0
176
     0
 90
        2
176
     1
  1
strokes_ogs.tif
176
     1
290
     0
176
     1
 40
1.0
176
     1
 40
1.0
176
     1
1001
ACAD
1000
AcDbSavedByObjectVersion
1070
     0
  0
VISUALSTYLE
  5
42
102
{ACAD_REACTORS
330
2A
102
}
330
2A
100
AcDbVisualStyle
  2

 70
    27
177
     3
291
     0
 70
    58
 90
        2
176
     1
 90
        2
176
     1
 90
        1
176
     1
 90
        2
176
     1
 40
0.6
176
     1
 40
30.0
176
     1
 62
     7
420
 16777215
176
     1
 90
        0
176
     1
 90
        4
176
     1
 62
     7
176
     1
 62
   257
176
     1
 90
        1
176
     1
 90
        1
176
     1
 40
1.0
176
     1
 90
        8
176
     1
 62
   257
176
     1
 40
1.0
176
     1
 90
        1
176
     1
 90
        6
176
     1
 90
        2
176
     1
 62
     8
420
  7895160
176
     1
 90
        3
176
     1
 90
        0
176
     1
 90
        0
176
     1
290
     0
176
     1
 90
        5
176
     1
 40
0.0
176
     1
 90
        0
176
     1
290
     0
176
     1
290
     1
176
     1
290
     1
176
     1
290
     0
176
     1
290
     0
176
     1
290
     0
176
     1
290
     0
176
     1
290
     0
176
     1
290
     0
176
     1
 90
       50
176
     1
 40
0.0
176
     1
 40
1.0
176
     1
 90
        0
176
     1
 62
    18
420
        0
176
     1
 90
       50
176
     1
 90
        3
176
     1
 62
     5
420
      255
176
     1
290
     0
176
     1
 90
       50
176
     1
 90
       50
176
     1
 90
       50
176
     1
290
     0
176
     1
 90
       50
176
     1
 62
   256
176
     0
 40
1.0
176
     0
 90
        2
176
     1
  1
strokes_ogs.tif
176
     1
290
     0
176
     1
 40
1.0
176
     1
 40
1.0
176
     1
1001
ACAD
1000
AcDbSavedByObjectVersion
1070
     0
  0
VISUALSTYLE
  5
41
102
{ACAD_REACTORS
330
2A
102
}
330
2A
100
AcDbVisualStyle
  2

 70
    26
177
     3
291
     0
 70
    58
 90
        2
176
     1
 90
        2
176
     1
 90
        1
176
     1
 90
        2
176
     1
 40
0.6
176
     1
 40
30.0
176
     1
 62
     7
420
 16777215
176
     1
 90
        1
176
     1
 90
       10
176
     1
 62
     7
176
     1
 62
   257
176
     1
 90
        2
176
     1
 90
        1
176
     1
 40
1.0
176
     1
 90
        8
176
     1
 62
   257
176
     1
 40
1.0
176
     1
 90
        1
176
     1
 90
        6
176
     1
 90
        2
176
     1
 62
     7
176
     1
 90
        3
176
     1
 90
        0
176
     1
 90
        0
176
     1
290
     0
176
     1
 90
        5
176
     1
 40
0.0
176
     1
 90
        0
176
     1
290
     0
176
     1
290
     1
176
     1
290
     1
176
     1
290
     0
176
     1
290
     0
176
     1
290
     0
176
     1
290
     0
176
     1
290
     0
176
     1
290
     0
176
     1
 90
       50
176
     1
 40
0.0
176
     1
 40
1.0
176
     1
 90
        0
176
     1
 62
    18
420
        0
176
     1
 90
       50
176
     1
 90
        3
176
     1
 62
     5
420
      255
176
     1
290
     0
176
     1
 90
       50
176
     1
 90
       50
176
     1
 90
       50
176
     1
290
     0
176
     1
 90
       50
176
     1
 62
   256
176
     0
 40
1.0
176
     0
 90
        2
176
     1
  1
strokes_ogs.tif
176
     1
290
     0
176
     1
 40
1.0
176
     1
 40
1.0
176
     1
1001
ACAD
1000
AcDbSavedByObjectVersion
1070
     0
  0
VISUALSTYLE
  5
3E
102
{ACAD_REACTORS
330
2A
102
}
330
2A
100
AcDbVisualStyle
  2

 70
    23
177
     3
291
     0
 70
    58
 90
        2
176
     1
 90
        2
176
     1
 90
        3
176
     1
 90
        0
176
     1
 40
0.6
176
     1
 40
30.0
176
     1
 62
     7
420
 16777215
176
     1
 90
        2
176
     1
 90
        2
176
     1
 62
     7
176
     1
 62
     7
176
     1
 90
        1
176
     1
 90
        1
176
     1
 40
40.0
176
     1
 90
        8
176
     1
 62
     7
176
     1
 40
1.0
176
     1
 90
        1
176
     1
 90
        6
176
     1
 90
        2
176
     1
 62
     7
176
     1
 90
        3
176
     1
 90
        0
176
     1
 90
        0
176
     1
290
     0
176
     1
 90
        1
176
     1
 40
0.0
176
     1
 90
        0
176
     1
290
     0
176
     1
290
     1
176
     1
290
     1
176
     1
290
     0
176
     1
290
     0
176
     1
290
     0
176
     1
290
     0
176
     1
290
     0
176
     1
290
     0
176
     1
 90
       50
176
     1
 40
0.0
176
     1
 40
1.0
176
     1
 90
        0
176
     1
 62
    18
420
        0
176
     1
 90
       50
176
     1
 90
        3
176
     1
 62
     5
420
      255
176
     1
290
     0
176
     1
 90
       50
176
     1
 90
       50
176
     1
 90
       50
176
     1
290
     0
176
     1
 90
       50
176
     1
 62
   256
176
     0
 40
1.0
176
     0
 90
        2
176
     1
  1
strokes_ogs.tif
176
     1
290
     0
176
     1
 40
1.0
176
     1
 40
1.0
176
     1
1001
ACAD
1000
AcDbSavedByObjectVersion
1070
     0
  0
VISUALSTYLE
  5
3F
102
{ACAD_REACTORS
330
2A
102
}
330
2A
100
AcDbVisualStyle
  2

 70
    24
177
     3
291
     0
 70
    58
 90
        1
176
     1
 90
        2
176
     1
 90
        2
176
     1
 90
        0
176
     1
 40
0.6
176
     1
 40
30.0
176
     1
 62
     7
420
 16777215
176
     1
 90
        2
176
     1
 90
        2
176
     1
 62
     7
176
     1
 62
     7
176
     1
 90
        1
176
     1
 90
        1
176
     1
 40
40.0
176
     1
 90
       11
176
     1
 62
     7
176
     1
 40
1.0
176
     1
 90
        1
176
     1
 90
        6
176
     1
 90
        2
176
     1
 62
     7
176
     1
 90
        6
176
     1
 90
        0
176
     1
 90
        0
176
     1
290
     0
176
     1
 90
        1
176
     1
 40
0.0
176
     1
 90
        0
176
     1
290
     0
176
     1
290
     1
176
     1
290
     1
176
     1
290
     0
176
     1
290
     0
176
     1
290
     0
176
     1
290
     0
176
     1
290
     0
176
     1
290
     0
176
     1
 90
       50
176
     1
 40
0.0
176
     1
 40
1.0
176
     1
 90
        0
176
     1
 62
    18
420
        0
176
     1
 90
       50
176
     1
 90
        3
176
     1
 62
     5
420
      255
176
     1
290
     0
176
     1
 90
       50
176
     1
 90
       50
176
     1
 90
       50
176
     1
290
     0
176
     1
 90
       50
176
     1
 62
   256
176
     0
 40
1.0
176
     0
 90
        2
176
     1
  1
strokes_ogs.tif
176
     1
290
     0
176
     1
 40
1.0
176
     1
 40
1.0
176
     1
1001
ACAD
1000
AcDbSavedByObjectVersion
1070
     0
  0
VISUALSTYLE
  5
37
102
{ACAD_REACTORS
330
2A
102
}
330
2A
100
AcDbVisualStyle
  2

 70
    13
177
     3
291
     1
 70
    58
 90
        2
176
     1
 90
        2
176
     1
 90
        0
176
     1
 90
        0
176
     1
 40
0.6
176
     1
 40
30.0
176
     1
 62
     7
420
 16777215
176
     1
 90
        1
176
     1
 90
        4
176
     1
 62
     7
176
     1
 62
   257
176
     1
 90
        1
176
     1
 90
        1
176
     1
 40
1.0
176
     1
 90
       12
176
     1
 62
     7
176
     1
 40
1.0
176
     1
 90
        1
176
     1
 90
        6
176
     1
 90
        2
176
     1
 62
     7
176
     1
 90
        5
176
     1
 90
        0
176
     1
 90
        0
176
     1
290
     0
176
     1
 90
        1
176
     1
 40
0.0
176
     1
 90
        0
176
     1
290
     0
176
     1
290
     1
176
     1
290
     1
176
     1
290
     0
176
     1
290
     0
176
     1
290
     0
176
     1
290
     0
176
     1
290
     0
176
     1
290
     0
176
     1
 90
       50
176
     1
 40
0.0
176
     1
 40
1.0
176
     1
 90
        0
176
     1
 62
    18
420
        0
176
     1
 90
       50
176
     1
 90
        3
176
     1
 62
     5
420
      255
176
     1
290
     0
176
     1
 90
       50
176
     1
 90
       50
176
     1
 90
       50
176
     1
290
     0
176
     1
 90
       50
176
     1
 62
   256
176
     0
 40
1.0
176
     0
 90
        2
176
     1
  1
strokes_ogs.tif
176
     1
290
     0
176
     1
 40
1.0
176
     1
 40
1.0
176
     1
1001
ACAD
1000
AcDbSavedByObjectVersion
1070
     0
  0
VISUALSTYLE
  5
30
102
{ACAD_REACTORS
330
2A
102
}
330
2A
100
AcDbVisualStyle
  2

 70
     5
177
     3
291
     0
 70
    58
 90
        0
176
     1
 90
        2
176
     1
 90
        0
176
     1
 90
        0
176
     1
 40
0.6
176
     1
 40
30.0
176
     1
 62
     7
420
 16777215
176
     1
 90
        1
176
     1
 90
        4
176
     1
 62
     7
176
     1
 62
   257
176
     1
 90
        1
176
     1
 90
        1
176
     1
 40
1.0
176
     1
 90
        0
176
     1
 62
   257
176
     1
 40
1.0
176
     1
 90
        1
176
     1
 90
        6
176
     1
 90
        2
176
     1
 62
     7
176
     1
 90
        3
176
     1
 90
        0
176
     1
 90
        0
176
     1
290
     0
176
     1
 90
        1
176
     1
 40
0.0
176
     1
 90
        0
176
     1
290
     0
176
     1
290
     1
176
     1
290
     1
176
     1
290
     0
176
     1
290
     0
176
     1
290
     0
176
     1
290
     0
176
     1
290
     0
176
     1
290
     0
176
     1
 90
       50
176
     1
 40
0.0
176
     1
 40
1.0
176
     1
 90
        0
176
     1
 62
    18
420
        0
176
     1
 90
       50
176
     1
 90
        3
176
     1
 62
     5
420
      255
176
     1
290
     0
176
     1
 90
       50
176
     1
 90
       50
176
     1
 90
       50
176
     1
290
     0
176
     1
 90
       50
176
     1
 62
   256
176
     0
 40
1.0
176
     0
 90
        2
176
     1
  1
strokes_ogs.tif
176
     1
290
     0
176
     1
 40
1.0
176
     1
 40
1.0
176
     1
1001
ACAD
1000
AcDbSavedByObjectVersion
1070
     0
  0
VISUALSTYLE
  5
40
102
{ACAD_REACTORS
330
2A
102
}
330
2A
100
AcDbVisualStyle
  2

 70
    25
177
     3
291
     0
 70
    58
 90
        2
176
     1
 90
        2
176
     1
 90
        1
176
     1
 90
        1
176
     1
 40
0.5
176
     1
 40
30.0
176
     1
 62
     7
420
 16777215
176
     1
 90
        1
176
     1
 90
        0
176
     1
 62
     7
176
     1
 62
   257
176
     1
 90
        1
176
     1
 90
        1
176
     1
 40
1.0
176
     1
 90
        8
176
     1
 62
     7
176
     1
 40
1.0
176
     1
 90
        1
176
     1
 90
        6
176
     1
 90
        2
176
     1
 62
     7
176
     1
 90
        3
176
     1
 90
        0
176
     1
 90
        0
176
     1
290
     0
176
     1
 90
       13
176
     1
 40
0.0
176
     1
 90
        0
176
     1
290
     0
176
     1
290
     1
176
     1
290
     1
176
     1
290
     0
176
     1
290
     0
176
     1
290
     0
176
     1
290
     0
176
     1
290
     0
176
     1
290
     0
176
     1
 90
       50
176
     1
 40
0.0
176
     1
 40
1.0
176
     1
 90
        0
176
     1
 62
    18
420
        0
176
     1
 90
       50
176
     1
 90
        3
176
     1
 62
     5
420
      255
176
     1
290
     0
176
     1
 90
       50
176
     1
 90
       50
176
     1
 90
       50
176
     1
290
     0
176
     1
 90
       50
176
     1
 62
   256
176
     0
 40
1.0
176
     0
 90
        2
176
     1
  1
strokes_ogs.tif
176
     1
290
     0
176
     1
 40
1.0
176
     1
 40
1.0
176
     1
1001
ACAD
1000
AcDbSavedByObjectVersion
1070
     0
  0
DICTIONARYVAR
  5
18A
102
{ACAD_REACTORS
330
189
102
}
330
189
100
DictionaryVariables
280
     0
  1
1:1
  0
DICTIONARYVAR
  5
1CB
102
{ACAD_REACTORS
330
189
102
}
330
189
100
DictionaryVariables
280
     0
  1
STANDARD
  0
DICTIONARYVAR
  5
1CA
102
{ACAD_REACTORS
330
189
102
}
330
189
100
DictionaryVariables
280
     0
  1
STANDARD
  0
DICTIONARYVAR
  5
41F
102
{ACAD_REACTORS
330
189
102
}
330
189
100
DictionaryVariables
280
     0
  1
Metric50
  0
DICTIONARYVAR
  5
420
102
{ACAD_REACTORS
330
189
102
}
330
189
100
DictionaryVariables
280
     0
  1
Metric50
  0
DICTIONARYVAR
  5
422
102
{ACAD_REACTORS
330
189
102
}
330
189
100
DictionaryVariables
280
     0
  1
1
  0
DICTIONARYVAR
  5
423
102
{ACAD_REACTORS
330
189
102
}
330
189
100
DictionaryVariables
280
     0
  1
15
  0
DICTIONARYVAR
  5
421
102
{ACAD_REACTORS
330
189
102
}
330
189
100
DictionaryVariables
280
     0
  1
0
  0
DICTIONARYVAR
  5
18B
102
{ACAD_REACTORS
330
189
102
}
330
189
100
DictionaryVariables
280
     0
  1
1
  0
DICTIONARY
  5
428
330
1D2
100
AcDbDictionary
280
     1
281
     1
  3
ACAD_XREC_ROUNDTRIP
360
429
  0
DICTIONARY
  5
1BF
330
45
100
AcDbDictionary
280
     1
281
     1
  3
ACAD_XREC_ROUNDTRIP
360
1C0
  0
DICTIONARY
  5
1BD
330
44
100
AcDbDictionary
280
     1
281
     1
  3
ACAD_XREC_ROUNDTRIP
360
1BE
  0
DICTIONARY
  5
1C1
330
46
100
AcDbDictionary
280
     1
281
     1
  3
ACAD_XREC_ROUNDTRIP
360
1C2
  0
DICTIONARY
  5
426
330
1D1
100
AcDbDictionary
280
     1
281
     1
  3
ACAD_XREC_ROUNDTRIP
360
427
  0
DICTIONARY
  5
1C3
330
6A
100
AcDbDictionary
280
     1
281
     1
  3
ACAD_ROUNDTRIP_2008_TABLESTYLE_CELLSTYLEMAP
360
424
  0
XRECORD
  5
429
102
{ACAD_REACTORS
330
428
102
}
330
428
100
AcDbXrecord
280
     1
102
DISPLAYNAME
  1
Metric50
102
FLAGS
 90
        0
  0
XRECORD
  5
1C0
102
{ACAD_REACTORS
330
1BF
102
}
330
1BF
100
AcDbXrecord
280
     1
102
MATERIAL
148
0.0
149
0.0
149
0.0
 93
        0
 94
      127
282
     0
 72
     1
 77
     1
171
     1
175
     1
179
     1
273
     0
  0
XRECORD
  5
1BE
102
{ACAD_REACTORS
330
1BD
102
}
330
1BD
100
AcDbXrecord
280
     1
102
MATERIAL
148
0.0
149
0.0
149
0.0
 93
        0
 94
      127
282
     0
 72
     1
 77
     1
171
     1
175
     1
179
     1
273
     0
  0
XRECORD
  5
1C2
102
{ACAD_REACTORS
330
1C1
102
}
330
1C1
100
AcDbXrecord
280
     1
102
MATERIAL
148
0.0
149
0.0
149
0.0
 93
        0
 94
      127
282
     0
 72
     1
 77
     1
171
     1
175
     1
179
     1
273
     0
  0
XRECORD
  5
427
102
{ACAD_REACTORS
330
426
102
}
330
426
100
AcDbXrecord
280
     1
102
DISPLAYNAME
  1
Metric50
102
FLAGS
 90
        0
  0
CELLSTYLEMAP
  5
424
102
{ACAD_REACTORS
330
1C3
102
}
330
1C3
100
AcDbCellStyleMap
 90
        3
300
CELLSTYLE
  1
TABLEFORMAT_BEGIN
 90
        5
170
     1
 91
        0
 92
    32768
 62
   257
 93
        1
300
CONTENTFORMAT
  1
CONTENTFORMAT_BEGIN
 90
        0
 91
        0
 92
        4
 93
        0
300

 40
0.0
140
1.0
 94
        5
 62
     0
340
11
144
0.25
309
CONTENTFORMAT_END
171
     1
301
MARGIN
  1
CELLMARGIN_BEGIN
 40
0.06
 40
0.06
 40
0.06
 40
0.06
 40
0.18
 40
0.18
309
CELLMARGIN_END
 94
        6
 95
        1
302
GRIDFORMAT
  1
GRIDFORMAT_BEGIN
 90
        0
 91
        1
 62
     0
 92
       -2
340
14
 93
        0
 40
0.045
309
GRIDFORMAT_END
 95
        2
302
GRIDFORMAT
  1
GRIDFORMAT_BEGIN
 90
        0
 91
        1
 62
     0
 92
       -2
340
14
 93
        0
 40
0.045
309
GRIDFORMAT_END
 95
        4
302
GRIDFORMAT
  1
GRIDFORMAT_BEGIN
 90
        0
 91
        1
 62
     0
 92
       -2
340
14
 93
        0
 40
0.045
309
GRIDFORMAT_END
 95
        8
302
GRIDFORMAT
  1
GRIDFORMAT_BEGIN
 90
        0
 91
        1
 62
     0
 92
       -2
340
14
 93
        0
 40
0.045
309
GRIDFORMAT_END
 95
       16
302
GRIDFORMAT
  1
GRIDFORMAT_BEGIN
 90
        0
 91
        1
 62
     0
 92
       -2
340
14
 93
        0
 40
0.045
309
GRIDFORMAT_END
 95
       32
302
GRIDFORMAT
  1
GRIDFORMAT_BEGIN
 90
        0
 91
        1
 62
     0
 92
       -2
340
14
 93
        0
 40
0.045
309
GRIDFORMAT_END
309
TABLEFORMAT_END
  1
CELLSTYLE_BEGIN
 90
        1
 91
        1
300
_TITLE
309
CELLSTYLE_END
300
CELLSTYLE
  1
TABLEFORMAT_BEGIN
 90
        5
170
     1
 91
        0
 92
        0
 62
   257
 93
        1
300
CONTENTFORMAT
  1
CONTENTFORMAT_BEGIN
 90
        0
 91
        0
 92
        4
 93
        0
300

 40
0.0
140
1.0
 94
        5
 62
     0
340
11
144
0.18
309
CONTENTFORMAT_END
171
     1
301
MARGIN
  1
CELLMARGIN_BEGIN
 40
0.06
 40
0.06
 40
0.06
 40
0.06
 40
0.18
 40
0.18
309
CELLMARGIN_END
 94
        6
 95
        1
302
GRIDFORMAT
  1
GRIDFORMAT_BEGIN
 90
        0
 91
        1
 62
     0
 92
       -2
340
14
 93
        0
 40
0.045
309
GRIDFORMAT_END
 95
        2
302
GRIDFORMAT
  1
GRIDFORMAT_BEGIN
 90
        0
 91
        1
 62
     0
 92
       -2
340
14
 93
        0
 40
0.045
309
GRIDFORMAT_END
 95
        4
302
GRIDFORMAT
  1
GRIDFORMAT_BEGIN
 90
        0
 91
        1
 62
     0
 92
       -2
340
14
 93
        0
 40
0.045
309
GRIDFORMAT_END
 95
        8
302
GRIDFORMAT
  1
GRIDFORMAT_BEGIN
 90
        0
 91
        1
 62
     0
 92
       -2
340
14
 93
        0
 40
0.045
309
GRIDFORMAT_END
 95
       16
302
GRIDFORMAT
  1
GRIDFORMAT_BEGIN
 90
        0
 91
        1
 62
     0
 92
       -2
340
14
 93
        0
 40
0.045
309
GRIDFORMAT_END
 95
       32
302
GRIDFORMAT
  1
GRIDFORMAT_BEGIN
 90
        0
 91
        1
 62
     0
 92
       -2
340
14
 93
        0
 40
0.045
309
GRIDFORMAT_END
309
TABLEFORMAT_END
  1
CELLSTYLE_BEGIN
 90
        2
 91
        1
300
_HEADER
309
CELLSTYLE_END
300
CELLSTYLE
  1
TABLEFORMAT_BEGIN
 90
        5
170
     1
 91
        0
 92
        0
 62
   257
 93
        1
300
CONTENTFORMAT
  1
CONTENTFORMAT_BEGIN
 90
        0
 91
        0
 92
        4
 93
        0
300

 40
0.0
140
1.0
 94
        2
 62
     0
340
11
144
0.18
309
CONTENTFORMAT_END
171
     1
301
MARGIN
  1
CELLMARGIN_BEGIN
 40
0.06
 40
0.06
 40
0.06
 40
0.06
 40
0.18
 40
0.18
309
CELLMARGIN_END
 94
        6
 95
        1
302
GRIDFORMAT
  1
GRIDFORMAT_BEGIN
 90
        0
 91
        1
 62
     0
 92
       -2
340
14
 93
        0
 40
0.045
309
GRIDFORMAT_END
 95
        2
302
GRIDFORMAT
  1
GRIDFORMAT_BEGIN
 90
        0
 91
        1
 62
     0
 92
       -2
340
14
 93
        0
 40
0.045
309
GRIDFORMAT_END
 95
        4
302
GRIDFORMAT
  1
GRIDFORMAT_BEGIN
 90
        0
 91
        1
 62
     0
 92
       -2
340
14
 93
        0
 40
0.045
309
GRIDFORMAT_END
 95
        8
302
GRIDFORMAT
  1
GRIDFORMAT_BEGIN
 90
        0
 91
        1
 62
     0
 92
       -2
340
14
 93
        0
 40
0.045
309
GRIDFORMAT_END
 95
       16
302
GRIDFORMAT
  1
GRIDFORMAT_BEGIN
 90
        0
 91
        1
 62
     0
 92
       -2
340
14
 93
        0
 40
0.045
309
GRIDFORMAT_END
 95
       32
302
GRIDFORMAT
  1
GRIDFORMAT_BEGIN
 90
        0
 91
        1
 62
     0
 92
       -2
340
14
 93
        0
 40
0.045
309
GRIDFORMAT_END
309
TABLEFORMAT_END
  1
CELLSTYLE_BEGIN
 90
        3
 91
        2
300
_DATA
309
CELLSTYLE_END
  0
ENDSEC
  0
EOF
