  0
SECTION
  2
HEADER
  9
$ACADVER
  1
AC1024
  9
$ACADMAINTVER
 70
   109
  9
$DWGCODEPAGE
  3
ANSI_1252
  9
$LASTSAVEDBY
  1
kaschu
  9
$INSBASE
 10
0.0
 20
0.0
 30
0.0
  9
$EXTMIN
 10
163.8374977147805
 20
283.4988470030243
 30
-0.000000000000003
  9
$EXTMAX
 10
2398.540762485801
 20
1628.828315639507
 30
0.0014780657202887
  9
$LIMMIN
 10
0.0
 20
0.0
  9
$LIMMAX
 10
12.0
 20
9.0
  9
$ORTHOMODE
 70
     1
  9
$REGENMODE
 70
     1
  9
$FILLMODE
 70
     1
  9
$QTEXTMODE
 70
     0
  9
$MIRRTEXT
 70
     1
  9
$LTSCALE
 40
1.0
  9
$ATTMODE
 70
     1
  9
$TEXTSIZE
 40
0.2
  9
$TRACEWID
 40
0.05
  9
$TEXTSTYLE
  7
STANDARD
  9
$CLAYER
  8
0
  9
$CELTYPE
  6
BYLAYER
  9
$CECOLOR
 62
   256
  9
$CELTSCALE
 40
1.0
  9
$DISPSILH
 70
     0
  9
$DIMSCALE
 40
1.0
  9
$DIMASZ
 40
0.18
  9
$DIMEXO
 40
0.0625
  9
$DIMDLI
 40
0.38
  9
$DIMRND
 40
0.0
  9
$DIMDLE
 40
0.0
  9
$DIMEXE
 40
0.18
  9
$DIMTP
 40
0.0
  9
$DIMTM
 40
0.0
  9
$DIMTXT
 40
0.18
  9
$DIMCEN
 40
0.09
  9
$DIMTSZ
 40
0.0
  9
$DIMTOL
 70
     0
  9
$DIMLIM
 70
     0
  9
$DIMTIH
 70
     1
  9
$DIMTOH
 70
     1
  9
$DIMSE1
 70
     0
  9
$DIMSE2
 70
     0
  9
$DIMTAD
 70
     0
  9
$DIMZIN
 70
     0
  9
$DIMBLK
  1

  9
$DIMASO
 70
     1
  9
$DIMSHO
 70
     1
  9
$DIMPOST
  1

  9
$DIMAPOST
  1

  9
$DIMALT
 70
     0
  9
$DIMALTD
 70
     2
  9
$DIMALTF
 40
25.4
  9
$DIMLFAC
 40
1.0
  9
$DIMTOFL
 70
     0
  9
$DIMTVP
 40
0.0
  9
$DIMTIX
 70
     0
  9
$DIMSOXD
 70
     0
  9
$DIMSAH
 70
     0
  9
$DIMBLK1
  1

  9
$DIMBLK2
  1

  9
$DIMSTYLE
  2
STANDARD
  9
$DIMCLRD
 70
     0
  9
$DIMCLRE
 70
     0
  9
$DIMCLRT
 70
     0
  9
$DIMTFAC
 40
1.0
  9
$DIMGAP
 40
0.09
  9
$DIMJUST
 70
     0
  9
$DIMSD1
 70
     0
  9
$DIMSD2
 70
     0
  9
$DIMTOLJ
 70
     1
  9
$DIMTZIN
 70
     0
  9
$DIMALTZ
 70
     0
  9
$DIMALTTZ
 70
     0
  9
$DIMUPT
 70
     0
  9
$DIMDEC
 70
     4
  9
$DIMTDEC
 70
     4
  9
$DIMALTU
 70
     2
  9
$DIMALTTD
 70
     2
  9
$DIMTXSTY
  7
STANDARD
  9
$DIMAUNIT
 70
     0
  9
$DIMADEC
 70
     0
  9
$DIMALTRND
 40
0.0
  9
$DIMAZIN
 70
     0
  9
$DIMDSEP
 70
    46
  9
$DIMATFIT
 70
     3
  9
$DIMFRAC
 70
     0
  9
$DIMLDRBLK
  1

  9
$DIMLUNIT
 70
     2
  9
$DIMLWD
 70
    -2
  9
$DIMLWE
 70
    -2
  9
$DIMTMOVE
 70
     0
  9
$DIMFXL
 40
1.0
  9
$DIMFXLON
 70
     0
  9
$DIMJOGANG
 40
0.7853981633974483
  9
$DIMTFILL
 70
     0
  9
$DIMTFILLCLR
 70
     0
  9
$DIMARCSYM
 70
     0
  9
$DIMLTYPE
  6

  9
$DIMLTEX1
  6

  9
$DIMLTEX2
  6

  9
$DIMTXTDIRECTION
 70
     0
  9
$LUNITS
 70
     2
  9
$LUPREC
 70
     4
  9
$SKETCHINC
 40
0.1
  9
$FILLETRAD
 40
0.5
  9
$AUNITS
 70
     0
  9
$AUPREC
 70
     0
  9
$MENU
  1
.
  9
$ELEVATION
 40
0.0
  9
$PELEVATION
 40
0.0
  9
$THICKNESS
 40
0.0
  9
$LIMCHECK
 70
     0
  9
$CHAMFERA
 40
0.5
  9
$CHAMFERB
 40
0.5
  9
$CHAMFERC
 40
1.0
  9
$CHAMFERD
 40
0.0
  9
$SKPOLY
 70
     0
  9
$TDCREATE
 40
2451762.456733333
  9
$TDUCREATE
 40
2451762.373400000
  9
$TDUPDATE
 40
2458338.573617720
  9
$TDUUPDATE
 40
2458338.490284387
  9
$TDINDWG
 40
0.0662214699
  9
$TDUSRTIMER
 40
0.0662214005
  9
$USRTIMER
 70
     1
  9
$ANGBASE
 50
0.0
  9
$ANGDIR
 70
     0
  9
$PDMODE
 70
     0
  9
$PDSIZE
 40
0.0
  9
$PLINEWID
 40
0.0
  9
$SPLFRAME
 70
     0
  9
$SPLINETYPE
 70
     6
  9
$SPLINESEGS
 70
     8
  9
$HANDSEED
  5
DDB
  9
$SURFTAB1
 70
     6
  9
$SURFTAB2
 70
     6
  9
$SURFTYPE
 70
     6
  9
$SURFU
 70
     6
  9
$SURFV
 70
     6
  9
$UCSBASE
  2

  9
$UCSNAME
  2

  9
$UCSORG
 10
0.0
 20
0.0
 30
0.0
  9
$UCSXDIR
 10
1.0
 20
0.0
 30
0.0
  9
$UCSYDIR
 10
0.0
 20
1.0
 30
0.0
  9
$UCSORTHOREF
  2

  9
$UCSORTHOVIEW
 70
     0
  9
$UCSORGTOP
 10
0.0
 20
0.0
 30
0.0
  9
$UCSORGBOTTOM
 10
0.0
 20
0.0
 30
0.0
  9
$UCSORGLEFT
 10
0.0
 20
0.0
 30
0.0
  9
$UCSORGRIGHT
 10
0.0
 20
0.0
 30
0.0
  9
$UCSORGFRONT
 10
0.0
 20
0.0
 30
0.0
  9
$UCSORGBACK
 10
0.0
 20
0.0
 30
0.0
  9
$PUCSBASE
  2

  9
$PUCSNAME
  2

  9
$PUCSORG
 10
0.0
 20
0.0
 30
0.0
  9
$PUCSXDIR
 10
1.0
 20
0.0
 30
0.0
  9
$PUCSYDIR
 10
0.0
 20
1.0
 30
0.0
  9
$PUCSORTHOREF
  2

  9
$PUCSORTHOVIEW
 70
     0
  9
$PUCSORGTOP
 10
0.0
 20
0.0
 30
0.0
  9
$PUCSORGBOTTOM
 10
0.0
 20
0.0
 30
0.0
  9
$PUCSORGLEFT
 10
0.0
 20
0.0
 30
0.0
  9
$PUCSORGRIGHT
 10
0.0
 20
0.0
 30
0.0
  9
$PUCSORGFRONT
 10
0.0
 20
0.0
 30
0.0
  9
$PUCSORGBACK
 10
0.0
 20
0.0
 30
0.0
  9
$USERI1
 70
     0
  9
$USERI2
 70
     0
  9
$USERI3
 70
     0
  9
$USERI4
 70
     0
  9
$USERI5
 70
     0
  9
$USERR1
 40
0.0
  9
$USERR2
 40
0.0
  9
$USERR3
 40
0.0
  9
$USERR4
 40
0.0
  9
$USERR5
 40
0.0
  9
$WORLDVIEW
 70
     1
  9
$SHADEDGE
 70
     3
  9
$SHADEDIF
 70
    70
  9
$TILEMODE
 70
     1
  9
$MAXACTVP
 70
    64
  9
$PINSBASE
 10
0.0
 20
0.0
 30
0.0
  9
$PLIMCHECK
 70
     0
  9
$PEXTMIN
 10
1.000000000000000E+20
 20
1.000000000000000E+20
 30
1.000000000000000E+20
  9
$PEXTMAX
 10
-1.000000000000000E+20
 20
-1.000000000000000E+20
 30
-1.000000000000000E+20
  9
$PLIMMIN
 10
0.0
 20
0.0
  9
$PLIMMAX
 10
12.0
 20
9.0
  9
$UNITMODE
 70
     0
  9
$VISRETAIN
 70
     1
  9
$PLINEGEN
 70
     0
  9
$PSLTSCALE
 70
     1
  9
$TREEDEPTH
 70
  3020
  9
$CMLSTYLE
  2
STANDARD
  9
$CMLJUST
 70
     0
  9
$CMLSCALE
 40
1.0
  9
$PROXYGRAPHICS
 70
     1
  9
$MEASUREMENT
 70
     0
  9
$CELWEIGHT
370
    -1
  9
$ENDCAPS
280
     0
  9
$JOINSTYLE
280
     0
  9
$LWDISPLAY
290
     0
  9
$INSUNITS
 70
     0
  9
$HYPERLINKBASE
  1

  9
$STYLESHEET
  1

  9
$XEDIT
290
     1
  9
$CEPSNTYPE
380
     0
  9
$PSTYLEMODE
290
     1
  9
$FINGERPRINTGUID
  2
{A42321FD-4D3B-470A-B3BE-A3689E04D828}
  9
$VERSIONGUID
  2
{478D2102-C2EE-4168-8A3D-A3D24C1EFCE6}
  9
$EXTNAMES
290
     1
  9
$PSVPSCALE
 40
0.0
  9
$OLESTARTUP
290
     0
  9
$SORTENTS
280
   127
  9
$INDEXCTL
280
     0
  9
$HIDETEXT
280
     0
  9
$XCLIPFRAME
280
     2
  9
$HALOGAP
280
     0
  9
$OBSCOLOR
 70
   257
  9
$OBSLTYPE
280
     0
  9
$INTERSECTIONDISPLAY
280
     0
  9
$INTERSECTIONCOLOR
 70
   257
  9
$DIMASSOC
280
     1
  9
$PROJECTNAME
  1

  9
$CAMERADISPLAY
290
     0
  9
$LENSLENGTH
 40
50.0
  9
$CAMERAHEIGHT
 40
0.0
  9
$STEPSPERSEC
 40
2.0
  9
$STEPSIZE
 40
6.0
  9
$3DDWFPREC
 40
2.0
  9
$PSOLWIDTH
 40
0.25
  9
$PSOLHEIGHT
 40
4.0
  9
$LOFTANG1
 40
1.570796326794896
  9
$LOFTANG2
 40
1.570796326794896
  9
$LOFTMAG1
 40
0.0
  9
$LOFTMAG2
 40
0.0
  9
$LOFTPARAM
 70
     7
  9
$LOFTNORMALS
280
     1
  9
$LATITUDE
 40
37.795
  9
$LONGITUDE
 40
-122.394
  9
$NORTHDIRECTION
 40
0.0
  9
$TIMEZONE
 70
 -8000
  9
$LIGHTGLYPHDISPLAY
280
     1
  9
$TILEMODELIGHTSYNCH
280
     1
  9
$CMATERIAL
347
17B
  9
$SOLIDHIST
280
     0
  9
$SHOWHIST
280
     1
  9
$DWFFRAME
280
     2
  9
$DGNFRAME
280
     0
  9
$REALWORLDSCALE
290
     1
  9
$INTERFERECOLOR
 62
     1
  9
$INTERFEREOBJVS
345
19D
  9
$INTERFEREVPVS
346
19A
  9
$CSHADOW
280
     0
  9
$SHADOWPLANELOCATION
 40
0.0
  0
ENDSEC
  0
SECTION
  2
CLASSES
  0
CLASS
  1
ACDBDICTIONARYWDFLT
  2
AcDbDictionaryWithDefault
  3
ObjectDBX Classes
 90
        0
 91
        1
280
     0
281
     0
  0
CLASS
  1
MATERIAL
  2
AcDbMaterial
  3
ObjectDBX Classes
 90
     1153
 91
        3
280
     0
281
     0
  0
CLASS
  1
VISUALSTYLE
  2
AcDbVisualStyle
  3
ObjectDBX Classes
 90
     4095
 91
       24
280
     0
281
     0
  0
CLASS
  1
TABLESTYLE
  2
AcDbTableStyle
  3
ObjectDBX Classes
 90
     4095
 91
        1
280
     0
281
     0
  0
CLASS
  1
SCALE
  2
AcDbScale
  3
ObjectDBX Classes
 90
     1153
 91
       17
280
     0
281
     0
  0
CLASS
  1
MLEADERSTYLE
  2
AcDbMLeaderStyle
  3
ACDB_MLEADERSTYLE_CLASS
 90
     4095
 91
        1
280
     0
281
     0
  0
CLASS
  1
ACDBSECTIONVIEWSTYLE
  2
AcDbSectionViewStyle
  3
ObjectDBX Classes
 90
     1025
 91
        2
280
     0
281
     0
  0
CLASS
  1
ACDBDETAILVIEWSTYLE
  2
AcDbDetailViewStyle
  3
ObjectDBX Classes
 90
     1025
 91
        2
280
     0
281
     0
  0
CLASS
  1
DICTIONARYVAR
  2
AcDbDictionaryVar
  3
ObjectDBX Classes
 90
        0
 91
        9
280
     0
281
     0
  0
CLASS
  1
SORTENTSTABLE
  2
AcDbSortentsTable
  3
ObjectDBX Classes
 90
        0
 91
        1
280
     0
281
     0
  0
CLASS
  1
CELLSTYLEMAP
  2
AcDbCellStyleMap
  3
ObjectDBX Classes
 90
     1152
 91
        2
280
     0
281
     0
  0
ENDSEC
  0
SECTION
  2
TABLES
  0
TABLE
  2
VPORT
  5
8
330
0
100
AcDbSymbolTable
 70
     1
  0
VPORT
  5
155
330
8
100
AcDbSymbolTableRecord
100
AcDbViewportTableRecord
  2
*ACTIVE
 70
     0
 10
0.0
 20
0.0
 11
1.0
 21
1.0
 12
1198.263836691737
 22
1239.324193612623
 13
0.0
 23
0.0
 14
0.5
 24
0.5
 15
0.5
 25
0.5
 16
0.0
 26
0.0
 36
1.0
 17
0.0
 27
0.0
 37
0.0
 40
2206.152598855555
 41
1.983850931677018
 42
50.0
 43
0.0
 44
0.0
 50
0.0
 51
0.0
 71
     0
 72
 10000
 73
     1
 74
     3
 75
     0
 76
     0
 77
     0
 78
     0
281
     0
 65
     1
110
0.0
120
0.0
130
0.0
111
1.0
121
0.0
131
0.0
112
0.0
122
1.0
132
0.0
 79
     0
146
0.0
348
199
 60
     3
 61
     5
292
     1
282
     1
141
0.0
142
0.0
 63
   250
421
  3355443
1001
ACAD_NAV_VCDISPLAY
1070
     3
  0
ENDTAB
  0
TABLE
  2
LTYPE
  5
5
330
0
100
AcDbSymbolTable
 70
     4
  0
LTYPE
  5
14
330
5
100
AcDbSymbolTableRecord
100
AcDbLinetypeTableRecord
  2
BYBLOCK
 70
     0
  3

 72
    65
 73
     0
 40
0.0
  0
LTYPE
  5
15
330
5
100
AcDbSymbolTableRecord
100
AcDbLinetypeTableRecord
  2
BYLAYER
 70
     0
  3

 72
    65
 73
     0
 40
0.0
  0
LTYPE
  5
16
330
5
100
AcDbSymbolTableRecord
100
AcDbLinetypeTableRecord
  2
CONTINUOUS
 70
     0
  3
Solid line
 72
    65
 73
     0
 40
0.0
  0
LTYPE
  5
1C4
330
5
100
AcDbSymbolTableRecord
100
AcDbLinetypeTableRecord
  2
PHANTOM2
 70
     0
  3
___ _ _ ___ _ _ ___ _ _ ___ _ _
 72
    65
 73
     6
 40
1.25
 49
0.625
 74
     0
 49
-0.125
 74
     0
 49
0.125
 74
     0
 49
-0.125
 74
     0
 49
0.125
 74
     0
 49
-0.125
 74
     0
  0
LTYPE
  5
5BE
330
5
100
AcDbSymbolTableRecord
100
AcDbLinetypeTableRecord
  2
CENTER
 70
     0
  3
____ _ ____ _ ____ _ ____
 72
    65
 73
     4
 40
47.4
 49
22.0
 74
     4
 75
     0
340
0
 46
0.0
 50
0.0
 44
0.0
 45
0.0
 49
-8.5
 74
     4
 75
     0
340
0
 46
0.0
 50
0.0
 44
0.0
 45
0.0
 49
8.5
 74
     4
 75
     0
340
0
 46
0.0
 50
0.0
 44
0.0
 45
0.0
 49
-8.5
 74
     4
 75
     0
340
0
 46
0.0
 50
0.0
 44
0.0
 45
0.0
  0
ENDTAB
  0
TABLE
  2
LAYER
  5
2
102
{ACAD_XDICTIONARY
360
1E1
102
}
330
0
100
AcDbSymbolTable
 70
     4
  0
LAYER
  5
10
102
{ACAD_XDICTIONARY
360
1CD
102
}
330
2
100
AcDbSymbolTableRecord
100
AcDbLayerTableRecord
  2
0
 70
     0
 62
     7
  6
CONTINUOUS
370
    -3
390
E0
347
18B
  0
LAYER
  5
296
330
2
100
AcDbSymbolTableRecord
100
AcDbLayerTableRecord
  2
HEWI
 70
     0
 62
     7
  6
CONTINUOUS
370
     9
390
E0
347
18B
1001
AcAecLayerStandard
1000

1000

1001
AcCmTransparency
1071
        0
  0
LAYER
  5
309
330
2
100
AcDbSymbolTableRecord
100
AcDbLayerTableRecord
  2
Defpoints
 70
     0
 62
     7
  6
CONTINUOUS
290
     0
370
    -3
390
E0
347
18B
  0
LAYER
  5
5BF
330
2
100
AcDbSymbolTableRecord
100
AcDbLayerTableRecord
  2
1
 70
     0
 62
     7
420
 16777215
  6
CONTINUOUS
370
    -3
390
E0
347
18B
  0
ENDTAB
  0
TABLE
  2
STYLE
  5
3
330
0
100
AcDbSymbolTable
 70
     1
  0
STYLE
  5
11
330
3
100
AcDbSymbolTableRecord
100
AcDbTextStyleTableRecord
  2
STANDARD
 70
     0
 40
0.0
 41
1.0
 50
0.0
 71
     0
 42
0.2
  3
txt
  4

  0
ENDTAB
  0
TABLE
  2
VIEW
  5
6
330
0
100
AcDbSymbolTable
 70
     0
  0
ENDTAB
  0
TABLE
  2
UCS
  5
7
330
0
100
AcDbSymbolTable
 70
     0
  0
ENDTAB
  0
TABLE
  2
APPID
  5
9
330
0
100
AcDbSymbolTable
 70
     6
  0
APPID
  5
12
330
9
100
AcDbSymbolTableRecord
100
AcDbRegAppTableRecord
  2
ACAD
 70
     0
  0
APPID
  5
1D1
330
9
100
AcDbSymbolTableRecord
100
AcDbRegAppTableRecord
  2
ACAD_NAV_VCDISPLAY
 70
     0
  0
APPID
  5
297
330
9
100
AcDbSymbolTableRecord
100
AcDbRegAppTableRecord
  2
AcAecLayerStandard
 70
     0
  0
APPID
  5
298
330
9
100
AcDbSymbolTableRecord
100
AcDbRegAppTableRecord
  2
AcCmTransparency
 70
     0
  0
APPID
  5
2AA
330
9
100
AcDbSymbolTableRecord
100
AcDbRegAppTableRecord
  2
ACAD_PSEXT
 70
     0
  0
APPID
  5
483
330
9
100
AcDbSymbolTableRecord
100
AcDbRegAppTableRecord
  2
ACAD_EXEMPT_FROM_CAD_STANDARDS
 70
     0
  0
ENDTAB
  0
TABLE
  2
DIMSTYLE
  5
A
330
0
100
AcDbSymbolTable
 70
     2
100
AcDbDimStyleTable
 71
     1
340
27
  0
DIMSTYLE
105
27
330
A
100
AcDbSymbolTableRecord
100
AcDbDimStyleTableRecord
  2
STANDARD
 70
     0
340
11
  0
ENDTAB
  0
TABLE
  2
BLOCK_RECORD
  5
1
330
0
100
AcDbSymbolTable
 70
     4
  0
BLOCK_RECORD
  5
1F
102
{ACAD_XDICTIONARY
360
D9
102
}
330
1
100
AcDbSymbolTableRecord
100
AcDbBlockTableRecord
  2
*MODEL_SPACE
340
1C8
 70
     0
280
     1
281
     0
  0
BLOCK_RECORD
  5
1B
102
{ACAD_XDICTIONARY
360
D7
102
}
330
1
100
AcDbSymbolTableRecord
100
AcDbBlockTableRecord
  2
*PAPER_SPACE
340
1C9
 70
     0
280
     1
281
     0
  0
BLOCK_RECORD
  5
C97
330
1
100
AcDbSymbolTableRecord
100
AcDbBlockTableRecord
  2
*D0
340
0
 70
     0
280
     1
281
     0
  0
BLOCK_RECORD
  5
CB0
330
1
100
AcDbSymbolTableRecord
100
AcDbBlockTableRecord
  2
*D1
340
0
 70
     0
280
     1
281
     0
  0
BLOCK_RECORD
  5
CBE
330
1
100
AcDbSymbolTableRecord
100
AcDbBlockTableRecord
  2
*D2
340
0
 70
     0
280
     1
281
     0
  0
ENDTAB
  0
ENDSEC
  0
SECTION
  2
BLOCKS
  0
BLOCK
  5
20
330
1F
100
AcDbEntity
  8
0
100
AcDbBlockBegin
  2
*MODEL_SPACE
 70
     0
 10
0.0
 20
0.0
 30
0.0
  3
*MODEL_SPACE
  1

  0
ENDBLK
  5
21
330
1F
100
AcDbEntity
  8
0
100
AcDbBlockEnd
  0
BLOCK
  5
1C
330
1B
100
AcDbEntity
 67
     1
  8
0
100
AcDbBlockBegin
  2
*PAPER_SPACE
 70
     0
 10
0.0
 20
0.0
 30
0.0
  3
*PAPER_SPACE
  1

  0
ENDBLK
  5
1D
330
1B
100
AcDbEntity
 67
     1
  8
0
100
AcDbBlockEnd
  0
BLOCK
  5
C98
330
C97
100
AcDbEntity
  8
0
100
AcDbBlockBegin
  2
*D0
 70
     1
 10
0.0
 20
0.0
 30
0.0
  3
*D0
  1

  0
LINE
  5
C9A
330
C97
100
AcDbEntity
  8
0
 62
     0
440
 16777216
370
    -2
100
AcDbLine
 10
2011.593491636296
 20
730.4782901043461
 30
0.0
 11
1610.291066414046
 21
730.4782901043458
 31
0.0
  0
LINE
  5
C9B
330
C97
100
AcDbEntity
  8
0
 62
     0
440
 16777216
370
    -2
100
AcDbLine
 10
2011.593491636296
 20
-181.6217098956541
 30
0.0
 11
1610.291066414047
 21
-181.6217098956542
 31
0.0
  0
LINE
  5
C9C
330
C97
100
AcDbEntity
  8
0
 62
     0
440
 16777216
370
    -2
100
AcDbLine
 10
1610.471066414046
 20
730.298290104346
 30
0.0
 11
1610.471066414046
 21
274.6082901043459
 31
0.0
  0
LINE
  5
C9D
330
C97
100
AcDbEntity
  8
0
 62
     0
440
 16777216
370
    -2
100
AcDbLine
 10
1610.471066414046
 20
-181.4417098956542
 30
0.0
 11
1610.471066414046
 21
274.2482901043459
 31
0.0
  0
SOLID
  5
C9E
330
C97
100
AcDbEntity
  8
0
 62
     0
440
 16777216
100
AcDbTrace
 10
1610.441066414046
 20
730.298290104346
 30
0.0
 11
1610.501066414046
 21
730.298290104346
 31
0.0
 12
1610.471066414046
 22
730.4782901043458
 32
0.0
 13
1610.471066414046
 23
730.4782901043458
 33
0.0
  0
SOLID
  5
C9F
330
C97
100
AcDbEntity
  8
0
 62
     0
440
 16777216
100
AcDbTrace
 10
1610.441066414046
 20
-181.4417098956542
 30
0.0
 11
1610.501066414046
 21
-181.4417098956542
 31
0.0
 12
1610.471066414046
 22
-181.6217098956542
 32
0.0
 13
1610.471066414046
 23
-181.6217098956542
 33
0.0
  0
MTEXT
  5
CA0
330
C97
100
AcDbEntity
  8
0
 62
     0
440
 16777216
100
AcDbMText
 10
1610.471066414046
 20
274.4282901043454
 30
0.0
 40
0.18
 41
0.0
 46
0.0
 71
     5
 72
     1
  1
\A1;912.1000
 73
     1
 44
1.0
  0
POINT
  5
CA1
330
C97
100
AcDbEntity
  8
Defpoints
 62
     0
440
 16777216
100
AcDbPoint
 10
2011.655991636295
 20
730.4782901043461
 30
0.0014780657201751
  0
POINT
  5
CA2
330
C97
100
AcDbEntity
  8
Defpoints
 62
     0
440
 16777216
100
AcDbPoint
 10
2011.655991636295
 20
-181.6217098956541
 30
0.0014780657201751
  0
POINT
  5
CA3
330
C97
100
AcDbEntity
  8
Defpoints
 62
     0
440
 16777216
100
AcDbPoint
 10
1610.471066414046
 20
-181.6217098956542
 30
0.0
  0
ENDBLK
  5
C99
330
C97
100
AcDbEntity
  8
0
100
AcDbBlockEnd
  0
BLOCK
  5
CB1
330
CB0
100
AcDbEntity
  8
0
100
AcDbBlockBegin
  2
*D1
 70
     1
 10
0.0
 20
0.0
 30
0.0
  3
*D1
  1

  0
LINE
  5
CB3
330
CB0
100
AcDbEntity
  8
0
 62
     0
440
 16777216
370
    -2
100
AcDbLine
 10
1446.946171777821
 20
1543.056673728005
 30
0.0
 11
1446.946171777821
 21
1081.492798434052
 31
0.0
  0
LINE
  5
CB4
330
CB0
100
AcDbEntity
  8
0
 62
     0
440
 16777216
370
    -2
100
AcDbLine
 10
534.8461717778214
 20
1543.056673728005
 30
0.0
 11
534.8461717778214
 21
1081.492798434052
 31
0.0
  0
LINE
  5
CB5
330
CB0
100
AcDbEntity
  8
0
 62
     0
440
 16777216
370
    -2
100
AcDbLine
 10
1446.766171777821
 20
1081.672798434052
 30
0.0
 11
991.5111717778216
 21
1081.672798434052
 31
0.0
  0
LINE
  5
CB6
330
CB0
100
AcDbEntity
  8
0
 62
     0
440
 16777216
370
    -2
100
AcDbLine
 10
535.0261717778213
 20
1081.672798434052
 30
0.0
 11
990.2811717778217
 21
1081.672798434052
 31
0.0
  0
SOLID
  5
CB7
330
CB0
100
AcDbEntity
  8
0
 62
     0
440
 16777216
100
AcDbTrace
 10
1446.766171777821
 20
1081.702798434052
 30
0.0
 11
1446.766171777821
 21
1081.642798434052
 31
0.0
 12
1446.946171777821
 22
1081.672798434052
 32
0.0
 13
1446.946171777821
 23
1081.672798434052
 33
0.0
  0
SOLID
  5
CB8
330
CB0
100
AcDbEntity
  8
0
 62
     0
440
 16777216
100
AcDbTrace
 10
535.0261717778213
 20
1081.702798434052
 30
0.0
 11
535.0261717778213
 21
1081.642798434052
 31
0.0
 12
534.8461717778214
 22
1081.672798434052
 32
0.0
 13
534.8461717778214
 23
1081.672798434052
 33
0.0
  0
MTEXT
  5
CB9
330
CB0
100
AcDbEntity
  8
0
 62
     0
440
 16777216
100
AcDbMText
 10
990.8961717778216
 20
1081.672798434052
 30
0.0
 40
0.18
 41
0.0
 46
0.0
 71
     5
 72
     1
  1
\A1;912.1000
 73
     1
 44
1.0
  0
POINT
  5
CBA
330
CB0
100
AcDbEntity
  8
Defpoints
 62
     0
440
 16777216
100
AcDbPoint
 10
1446.946171777821
 20
1543.119173728005
 30
0.0
  0
POINT
  5
CBB
330
CB0
100
AcDbEntity
  8
Defpoints
 62
     0
440
 16777216
100
AcDbPoint
 10
534.8461717778214
 20
1543.119173728005
 30
0.0
  0
POINT
  5
CBC
330
CB0
100
AcDbEntity
  8
Defpoints
 62
     0
440
 16777216
100
AcDbPoint
 10
534.8461717778214
 20
1081.672798434052
 30
0.0
  0
ENDBLK
  5
CB2
330
CB0
100
AcDbEntity
  8
0
100
AcDbBlockEnd
  0
BLOCK
  5
CBF
330
CBE
100
AcDbEntity
  8
0
100
AcDbBlockBegin
  2
*D2
 70
     1
 10
0.0
 20
0.0
 30
0.0
  3
*D2
  1

  0
LINE
  5
CC1
330
CBE
100
AcDbEntity
  8
0
 62
     0
440
 16777216
370
    -2
100
AcDbLine
 10
220.3999986980745
 20
1195.598847003024
 30
0.0
 11
456.6800190857644
 21
1195.598847003024
 31
0.0
  0
LINE
  5
CC2
330
CBE
100
AcDbEntity
  8
0
 62
     0
440
 16777216
370
    -2
100
AcDbLine
 10
220.3999986980745
 20
283.4988470030244
 30
0.0
 11
456.6800190857646
 21
283.4988470030245
 31
0.0
  0
LINE
  5
CC3
330
CBE
100
AcDbEntity
  8
0
 62
     0
440
 16777216
370
    -2
100
AcDbLine
 10
456.5000190857643
 20
1195.418847003024
 30
0.0
 11
456.5000190857646
 21
739.7288470030245
 31
0.0
  0
LINE
  5
CC4
330
CBE
100
AcDbEntity
  8
0
 62
     0
440
 16777216
370
    -2
100
AcDbLine
 10
456.5000190857646
 20
283.6788470030245
 30
0.0
 11
456.5000190857646
 21
739.3688470030244
 31
0.0
  0
SOLID
  5
CC5
330
CBE
100
AcDbEntity
  8
0
 62
     0
440
 16777216
100
AcDbTrace
 10
456.4700190857644
 20
1195.418847003024
 30
0.0
 11
456.5300190857644
 21
1195.418847003024
 31
0.0
 12
456.5000190857643
 22
1195.598847003024
 32
0.0
 13
456.5000190857643
 23
1195.598847003024
 33
0.0
  0
SOLID
  5
CC6
330
CBE
100
AcDbEntity
  8
0
 62
     0
440
 16777216
100
AcDbTrace
 10
456.4700190857648
 20
283.6788470030245
 30
0.0
 11
456.5300190857647
 21
283.6788470030245
 31
0.0
 12
456.5000190857646
 22
283.4988470030245
 32
0.0
 13
456.5000190857646
 23
283.4988470030245
 33
0.0
  0
MTEXT
  5
CC7
330
CBE
100
AcDbEntity
  8
0
 62
     0
440
 16777216
100
AcDbMText
 10
456.5000190857646
 20
739.5488470030243
 30
0.0
 40
0.18
 41
0.0
 46
0.0
 71
     5
 72
     1
  1
\A1;912.1000
 73
     1
 44
1.0
  0
POINT
  5
CC8
330
CBE
100
AcDbEntity
  8
Defpoints
 62
     0
440
 16777216
100
AcDbPoint
 10
220.3374986980744
 20
1195.598847003024
 30
0.0
  0
POINT
  5
CC9
330
CBE
100
AcDbEntity
  8
Defpoints
 62
     0
440
 16777216
100
AcDbPoint
 10
220.3374986980744
 20
283.4988470030244
 30
0.0
  0
POINT
  5
CCA
330
CBE
100
AcDbEntity
  8
Defpoints
 62
     0
440
 16777216
100
AcDbPoint
 10
456.5000190857646
 20
283.4988470030245
 30
0.0
  0
ENDBLK
  5
CC0
330
CBE
100
AcDbEntity
  8
0
100
AcDbBlockEnd
  0
ENDSEC
  0
SECTION
  2
ENTITIES
  0
LINE
  5
92E
330
1F
100
AcDbEntity
  8
HEWI
100
AcDbLine
 10
172.6374986980745
 20
1510.612383585244
 30
0.0
 11
172.8374986980743
 21
1510.812383585244
 31
0.0
  0
LINE
  5
92F
330
1F
100
AcDbEntity
  8
HEWI
100
AcDbLine
 10
178.6374986980745
 20
1509.112383585244
 30
0.0
 11
212.8380126980742
 21
1509.112383585244
 31
0.0
  0
LINE
  5
930
330
1F
100
AcDbEntity
  8
HEWI
100
AcDbLine
 10
227.8369826980743
 20
1509.112383585244
 30
0.0
 11
262.0374986980742
 21
1509.112383585244
 31
0.0
  0
LINE
  5
931
330
1F
100
AcDbEntity
  8
HEWI
100
AcDbLine
 10
172.8374986980743
 20
1552.412383585244
 30
0.0
 11
172.6374986980745
 21
1552.612383585244
 31
0.0
  0
LINE
  5
932
330
1F
100
AcDbEntity
  8
HEWI
100
AcDbLine
 10
170.0374986980741
 20
1552.612383585244
 30
0.0
 11
169.8374986980743
 21
1552.412383585244
 31
0.0
  0
LINE
  5
933
330
1F
100
AcDbEntity
  8
HEWI
100
AcDbLine
 10
169.8374986980743
 20
1510.812383585244
 30
0.0
 11
170.0374986980741
 21
1510.612383585244
 31
0.0
  0
LINE
  5
934
330
1F
100
AcDbEntity
  8
HEWI
100
AcDbLine
 10
172.6374986980745
 20
1552.612383585244
 30
0.0
 11
170.0374986980741
 21
1552.612383585244
 31
0.0
  0
LINE
  5
935
330
1F
100
AcDbEntity
  8
HEWI
100
AcDbLine
 10
170.0374986980741
 20
1510.612383585244
 30
0.0
 11
172.6374986980745
 21
1510.612383585244
 31
0.0
  0
LINE
  5
936
330
1F
100
AcDbEntity
  8
HEWI
100
AcDbLine
 10
270.6374986980744
 20
1510.612383585244
 30
0.0
 11
270.8374986980743
 21
1510.812383585244
 31
0.0
  0
LINE
  5
937
330
1F
100
AcDbEntity
  8
HEWI
100
AcDbLine
 10
270.8374986980743
 20
1552.412383585244
 30
0.0
 11
270.6374986980744
 21
1552.612383585244
 31
0.0
  0
LINE
  5
938
330
1F
100
AcDbEntity
  8
HEWI
100
AcDbLine
 10
268.0374986980742
 20
1552.612383585244
 30
0.0
 11
267.8374986980744
 21
1552.412383585244
 31
0.0
  0
LINE
  5
939
330
1F
100
AcDbEntity
  8
HEWI
100
AcDbLine
 10
267.8374986980744
 20
1510.812383585244
 30
0.0
 11
268.0374986980742
 21
1510.612383585244
 31
0.0
  0
LINE
  5
93A
330
1F
100
AcDbEntity
  8
HEWI
100
AcDbLine
 10
268.0374986980742
 20
1510.612383585244
 30
0.0
 11
270.6374986980744
 21
1510.612383585244
 31
0.0
  0
LINE
  5
93B
330
1F
100
AcDbEntity
  8
HEWI
100
AcDbLine
 10
270.6374986980744
 20
1552.612383585244
 30
0.0
 11
268.0374986980742
 21
1552.612383585244
 31
0.0
  0
LINE
  5
93C
330
1F
100
AcDbEntity
  8
HEWI
100
AcDbLine
 10
262.3374986980743
 20
1510.612383585244
 30
0.0
 11
262.8374986980743
 21
1511.112383585244
 31
0.0
  0
LINE
  5
93D
330
1F
100
AcDbEntity
  8
HEWI
100
AcDbLine
 10
262.8374986980743
 20
1552.112383585244
 30
0.0
 11
262.3374986980743
 21
1552.612383585244
 31
0.0
  0
LINE
  5
93E
330
1F
100
AcDbEntity
  8
HEWI
100
AcDbLine
 10
262.0374986980742
 20
1554.112383585244
 30
0.0
 11
178.6374986980745
 21
1554.112383585244
 31
0.0
  0
LINE
  5
93F
330
1F
100
AcDbEntity
  8
HEWI
100
AcDbLine
 10
178.3374986980743
 20
1552.612383585244
 30
0.0
 11
177.8374986980743
 21
1552.112383585244
 31
0.0
  0
LINE
  5
940
330
1F
100
AcDbEntity
  8
HEWI
100
AcDbLine
 10
177.8374986980743
 20
1511.112383585244
 30
0.0
 11
178.3374986980743
 21
1510.612383585244
 31
0.0
  0
LINE
  5
941
330
1F
100
AcDbEntity
  8
HEWI
100
AcDbLine
 10
216.3374986980743
 20
1515.306819585244
 30
0.0
 11
216.3374986980743
 21
1515.734659585244
 31
0.0
  0
LINE
  5
942
330
1F
100
AcDbEntity
  8
HEWI
100
AcDbLine
 10
224.3374986980744
 20
1515.306819585244
 30
0.0
 11
224.3374986980744
 21
1515.734777585244
 31
0.0
  0
LINE
  5
943
330
1F
100
AcDbEntity
  8
HEWI
100
AcDbLine
 10
216.3374986980743
 20
1515.306819585244
 30
0.0
 11
216.3374986980743
 21
1515.734659585244
 31
0.0
  0
LINE
  5
944
330
1F
100
AcDbEntity
  8
HEWI
100
AcDbLine
 10
224.3374986980744
 20
1515.306819585244
 30
0.0
 11
224.3374986980744
 21
1515.734777585244
 31
0.0
  0
LINE
  5
945
330
1F
100
AcDbEntity
  8
HEWI
100
AcDbLine
 10
172.6374986980745
 20
1531.612383585244
 30
0.0
 11
172.6374986980745
 21
1552.612383585244
 31
0.0
  0
LINE
  5
946
330
1F
100
AcDbEntity
  8
HEWI
100
AcDbLine
 10
172.6374986980745
 20
1510.612383585244
 30
0.0
 11
172.6374986980745
 21
1531.612383585244
 31
0.0
  0
LINE
  5
947
330
1F
100
AcDbEntity
  8
HEWI
100
AcDbLine
 10
170.0374986980741
 20
1510.612383585244
 30
0.0
 11
170.0374986980741
 21
1552.612383585244
 31
0.0
  0
LINE
  5
948
330
1F
100
AcDbEntity
  8
HEWI
100
AcDbLine
 10
169.8374986980743
 20
1552.412383585244
 30
0.0
 11
169.8374986980743
 21
1531.612383585244
 31
0.0
  0
LINE
  5
949
330
1F
100
AcDbEntity
  8
HEWI
100
AcDbLine
 10
169.8374986980743
 20
1531.612383585244
 30
0.0
 11
169.8374986980743
 21
1510.812383585244
 31
0.0
  0
LINE
  5
94A
330
1F
100
AcDbEntity
  8
HEWI
100
AcDbLine
 10
203.5032766980744
 20
1533.803273585244
 30
0.0
 11
203.6311146980743
 21
1533.803273585244
 31
0.0
  0
LINE
  5
94B
330
1F
100
AcDbEntity
  8
HEWI
100
AcDbLine
 10
237.0438806980742
 20
1533.803273585244
 30
0.0
 11
237.1572606980744
 21
1533.803273585244
 31
0.0
  0
LINE
  5
94C
330
1F
100
AcDbEntity
  8
HEWI
100
AcDbLine
 10
227.8374986980743
 20
1516.204187585244
 30
0.0
 11
227.8374986980743
 21
1439.262383585244
 31
0.0
  0
LINE
  5
94D
330
1F
100
AcDbEntity
  8
HEWI
100
AcDbLine
 10
225.8374986980744
 20
1440.487355745566
 30
0.0
 11
225.8374986980744
 21
1515.473843585244
 31
0.0
  0
LINE
  5
94E
330
1F
100
AcDbEntity
  8
HEWI
100
AcDbLine
 10
214.8374986980743
 20
1515.473843585244
 30
0.0
 11
214.8374986980743
 21
1440.487355745566
 31
0.0
  0
LINE
  5
94F
330
1F
100
AcDbEntity
  8
HEWI
100
AcDbLine
 10
212.8374986980743
 20
1439.262383585244
 30
0.0
 11
212.8374986980743
 21
1516.204187585244
 31
0.0
  0
LINE
  5
950
330
1F
100
AcDbEntity
  8
HEWI
100
AcDbLine
 10
225.7729806980742
 20
1515.663151585244
 30
0.0
 11
225.8374986980744
 21
1515.473843585244
 31
0.0
  0
LINE
  5
951
330
1F
100
AcDbEntity
  8
HEWI
100
AcDbLine
 10
214.9020146980742
 20
1515.663151585244
 30
0.0
 11
214.8374986980743
 21
1515.473843585244
 31
0.0
  0
LINE
  5
952
330
1F
100
AcDbEntity
  8
HEWI
100
AcDbLine
 10
178.0374986980741
 20
1381.112383585244
 30
0.0
 11
262.6374986980745
 21
1381.112383585244
 31
0.0
  0
LINE
  5
953
330
1F
100
AcDbEntity
  8
HEWI
100
AcDbLine
 10
178.0374986980741
 20
1584.112383585244
 30
0.0
 11
178.0374986980741
 21
1552.311165585244
 31
0.0
  0
LINE
  5
954
330
1F
100
AcDbEntity
  8
HEWI
100
AcDbLine
 10
178.0374986980741
 20
1510.911851585244
 30
0.0
 11
178.0374986980741
 21
1381.112383585244
 31
0.0
  0
LINE
  5
955
330
1F
100
AcDbEntity
  8
HEWI
100
AcDbLine
 10
262.6374986980745
 20
1584.112383585244
 30
0.0
 11
178.0374986980741
 21
1584.112383585244
 31
0.0
  0
LINE
  5
956
330
1F
100
AcDbEntity
  8
HEWI
100
AcDbLine
 10
262.6374986980745
 20
1584.112383585244
 30
0.0
 11
262.6374986980745
 21
1552.311165585244
 31
0.0
  0
LINE
  5
957
330
1F
100
AcDbEntity
  8
HEWI
100
AcDbLine
 10
262.6374986980745
 20
1510.911851585244
 30
0.0
 11
262.6374986980745
 21
1381.112383585244
 31
0.0
  0
LINE
  5
958
330
1F
100
AcDbEntity
  8
HEWI
100
AcDbLine
 10
178.0374986980741
 20
1587.612383585244
 30
0.0
 11
178.0374986980741
 21
1584.112383585244
 31
0.0
  0
LINE
  5
959
330
1F
100
AcDbEntity
  8
HEWI
100
AcDbLine
 10
178.0374986980741
 20
1587.612383585244
 30
0.0
 11
262.6374986980745
 21
1587.612383585244
 31
0.0
  0
LINE
  5
95A
330
1F
100
AcDbEntity
  8
HEWI
100
AcDbLine
 10
262.6374986980745
 20
1587.612383585244
 30
0.0
 11
262.6374986980745
 21
1584.112383585244
 31
0.0
  0
LINE
  5
95B
330
1F
100
AcDbEntity
  8
HEWI
100
AcDbLine
 10
262.6374986980745
 20
1377.612383585244
 30
0.0
 11
178.0374986980741
 21
1377.612383585244
 31
0.0
  0
LINE
  5
95C
330
1F
100
AcDbEntity
  8
HEWI
100
AcDbLine
 10
178.0374986980741
 20
1377.612383585244
 30
0.0
 11
178.0374986980741
 21
1381.112383585244
 31
0.0
  0
LINE
  5
95D
330
1F
100
AcDbEntity
  8
HEWI
100
AcDbLine
 10
262.6374986980745
 20
1377.612383585244
 30
0.0
 11
262.6374986980745
 21
1381.112383585244
 31
0.0
  0
LINE
  5
95E
330
1F
100
AcDbEntity
  8
HEWI
100
AcDbLine
 10
178.0374986980741
 20
1587.612383585244
 30
0.0
 11
177.8374606980742
 21
1587.612383585244
 31
0.0
  0
LINE
  5
95F
330
1F
100
AcDbEntity
  8
HEWI
100
AcDbLine
 10
178.0374986980741
 20
1586.112383585244
 30
0.0
 11
177.8374606980742
 21
1586.112383585244
 31
0.0
  0
LINE
  5
960
330
1F
100
AcDbEntity
  8
HEWI
100
AcDbLine
 10
262.6374986980745
 20
1587.612383585244
 30
0.0
 11
262.8375346980742
 21
1587.612383585244
 31
0.0
  0
LINE
  5
961
330
1F
100
AcDbEntity
  8
HEWI
100
AcDbLine
 10
262.6374986980745
 20
1586.112383585244
 30
0.0
 11
262.8375346980742
 21
1586.112383585244
 31
0.0
  0
LINE
  5
962
330
1F
100
AcDbEntity
  8
HEWI
100
AcDbLine
 10
270.6374986980744
 20
1531.612383585244
 30
0.0
 11
270.6374986980744
 21
1552.612383585244
 31
0.0
  0
LINE
  5
963
330
1F
100
AcDbEntity
  8
HEWI
100
AcDbLine
 10
270.6374986980744
 20
1510.612383585244
 30
0.0
 11
270.6374986980744
 21
1531.612383585244
 31
0.0
  0
LINE
  5
964
330
1F
100
AcDbEntity
  8
HEWI
100
AcDbLine
 10
270.8374986980743
 20
1552.412383585244
 30
0.0
 11
270.8374986980743
 21
1510.812383585244
 31
0.0
  0
LINE
  5
965
330
1F
100
AcDbEntity
  8
HEWI
100
AcDbLine
 10
268.0374986980742
 20
1510.612383585244
 30
0.0
 11
268.0374986980742
 21
1552.612383585244
 31
0.0
  0
LINE
  5
966
330
1F
100
AcDbEntity
  8
HEWI
100
AcDbLine
 10
178.6374986980745
 20
1509.112383585244
 30
0.0
 11
178.6374986980745
 21
1554.112383585244
 31
0.0
  0
LINE
  5
967
330
1F
100
AcDbEntity
  8
HEWI
100
AcDbLine
 10
262.0374986980742
 20
1554.112383585244
 30
0.0
 11
262.0374986980742
 21
1531.612383585244
 31
0.0
  0
LINE
  5
968
330
1F
100
AcDbEntity
  8
HEWI
100
AcDbLine
 10
262.0374986980742
 20
1531.612383585244
 30
0.0
 11
262.0374986980742
 21
1509.112383585244
 31
0.0
  0
LINE
  5
969
330
1F
100
AcDbEntity
  8
HEWI
100
AcDbLine
 10
262.3374986980743
 20
1553.812383585244
 30
0.0
 11
262.3374986980743
 21
1509.412383585244
 31
0.0
  0
LINE
  5
96A
330
1F
100
AcDbEntity
  8
HEWI
100
AcDbLine
 10
178.3374986980743
 20
1531.612383585244
 30
0.0
 11
178.3374986980743
 21
1553.812373585244
 31
0.0
  0
LINE
  5
96B
330
1F
100
AcDbEntity
  8
HEWI
100
AcDbLine
 10
178.3374986980743
 20
1509.412383585244
 30
0.0
 11
178.3374986980743
 21
1531.612383585244
 31
0.0
  0
LINE
  5
96C
330
1F
100
AcDbEntity
  8
HEWI
100
AcDbLine
 10
267.8374986980744
 20
1509.212383585244
 30
0.0
 11
262.8374986980743
 21
1509.212383585244
 31
0.0
  0
LINE
  5
96D
330
1F
100
AcDbEntity
  8
HEWI
100
AcDbLine
 10
262.8374986980743
 20
1554.012383585244
 30
0.0
 11
267.8374986980744
 21
1554.012383585244
 31
0.0
  0
LINE
  5
96E
330
1F
100
AcDbEntity
  8
HEWI
100
AcDbLine
 10
267.8374986980744
 20
1554.012383585244
 30
0.0
 11
267.8374986980744
 21
1509.212383585244
 31
0.0
  0
LINE
  5
96F
330
1F
100
AcDbEntity
  8
HEWI
100
AcDbLine
 10
262.8374986980743
 20
1509.212383585244
 30
0.0
 11
262.8374986980743
 21
1554.012383585244
 31
0.0
  0
LINE
  5
970
330
1F
100
AcDbEntity
  8
HEWI
100
AcDbLine
 10
177.8374986980743
 20
1509.212383585244
 30
0.0
 11
172.8374986980743
 21
1509.212383585244
 31
0.0
  0
LINE
  5
971
330
1F
100
AcDbEntity
  8
HEWI
100
AcDbLine
 10
172.8374986980743
 20
1554.012383585244
 30
0.0
 11
177.8374986980743
 21
1554.012383585244
 31
0.0
  0
LINE
  5
972
330
1F
100
AcDbEntity
  8
HEWI
100
AcDbLine
 10
172.8374986980743
 20
1509.212383585244
 30
0.0
 11
172.8374986980743
 21
1554.012383585244
 31
0.0
  0
LINE
  5
973
330
1F
100
AcDbEntity
  8
HEWI
100
AcDbLine
 10
177.8374986980743
 20
1554.012383585244
 30
0.0
 11
177.8374986980743
 21
1509.212383585244
 31
0.0
  0
LINE
  5
974
330
1F
100
AcDbEntity
  8
HEWI
100
AcDbLine
 10
177.8374986980743
 20
1505.712383585244
 30
0.0
 11
172.8374986980743
 21
1505.712383585244
 31
0.0
  0
LINE
  5
975
330
1F
100
AcDbEntity
  8
HEWI
100
AcDbLine
 10
172.8374986980743
 20
1505.712383585244
 30
0.0
 11
172.8374986980743
 21
1509.212383585244
 31
0.0
  0
LINE
  5
976
330
1F
100
AcDbEntity
  8
HEWI
100
AcDbLine
 10
177.8374986980743
 20
1509.212383585244
 30
0.0
 11
177.8374986980743
 21
1505.712383585244
 31
0.0
  0
LINE
  5
977
330
1F
100
AcDbEntity
  8
HEWI
100
AcDbLine
 10
267.8374986980744
 20
1505.712383585244
 30
0.0
 11
262.8374986980743
 21
1505.712383585244
 31
0.0
  0
LINE
  5
978
330
1F
100
AcDbEntity
  8
HEWI
100
AcDbLine
 10
267.8374986980744
 20
1509.212383585244
 30
0.0
 11
267.8374986980744
 21
1505.712383585244
 31
0.0
  0
LINE
  5
979
330
1F
100
AcDbEntity
  8
HEWI
100
AcDbLine
 10
262.8374986980743
 20
1505.712383585244
 30
0.0
 11
262.8374986980743
 21
1509.212383585244
 31
0.0
  0
LINE
  5
97A
330
1F
100
AcDbEntity
  8
HEWI
100
AcDbLine
 10
172.8374986980743
 20
1557.512383585244
 30
0.0
 11
177.8374986980743
 21
1557.512383585244
 31
0.0
  0
LINE
  5
97B
330
1F
100
AcDbEntity
  8
HEWI
100
AcDbLine
 10
172.8374986980743
 20
1554.012383585244
 30
0.0
 11
172.8374986980743
 21
1557.512383585244
 31
0.0
  0
LINE
  5
97C
330
1F
100
AcDbEntity
  8
HEWI
100
AcDbLine
 10
177.8374986980743
 20
1557.512383585244
 30
0.0
 11
177.8374986980743
 21
1554.012383585244
 31
0.0
  0
LINE
  5
97D
330
1F
100
AcDbEntity
  8
HEWI
100
AcDbLine
 10
262.8374986980743
 20
1557.512383585244
 30
0.0
 11
267.8374986980744
 21
1557.512383585244
 31
0.0
  0
LINE
  5
97E
330
1F
100
AcDbEntity
  8
HEWI
100
AcDbLine
 10
267.8374986980744
 20
1557.512383585244
 30
0.0
 11
267.8374986980744
 21
1554.012383585244
 31
0.0
  0
LINE
  5
97F
330
1F
100
AcDbEntity
  8
HEWI
100
AcDbLine
 10
262.8374986980743
 20
1554.012383585244
 30
0.0
 11
262.8374986980743
 21
1557.512383585244
 31
0.0
  0
LINE
  5
980
330
1F
100
AcDbEntity
  8
HEWI
100
AcDbLine
 10
172.8374986980743
 20
1381.112383585244
 30
0.0
 11
177.8374986980743
 21
1381.112383585244
 31
0.0
  0
LINE
  5
981
330
1F
100
AcDbEntity
  8
HEWI
100
AcDbLine
 10
172.8374986980743
 20
1505.712383585244
 30
0.0
 11
172.8374986980743
 21
1381.112383585244
 31
0.0
  0
LINE
  5
982
330
1F
100
AcDbEntity
  8
HEWI
100
AcDbLine
 10
177.8374986980743
 20
1505.712383585244
 30
0.0
 11
177.8374986980743
 21
1381.112383585244
 31
0.0
  0
LINE
  5
983
330
1F
100
AcDbEntity
  8
HEWI
100
AcDbLine
 10
262.8374986980743
 20
1381.112383585244
 30
0.0
 11
267.8374986980744
 21
1381.112383585244
 31
0.0
  0
LINE
  5
984
330
1F
100
AcDbEntity
  8
HEWI
100
AcDbLine
 10
267.8374986980744
 20
1377.612383585244
 30
0.0
 11
262.8374986980743
 21
1377.612383585244
 31
0.0
  0
LINE
  5
985
330
1F
100
AcDbEntity
  8
HEWI
100
AcDbLine
 10
267.8374986980744
 20
1381.112383585244
 30
0.0
 11
267.8374986980744
 21
1377.612383585244
 31
0.0
  0
LINE
  5
986
330
1F
100
AcDbEntity
  8
HEWI
100
AcDbLine
 10
262.8374986980743
 20
1377.612383585244
 30
0.0
 11
262.8374986980743
 21
1381.112383585244
 31
0.0
  0
LINE
  5
987
330
1F
100
AcDbEntity
  8
HEWI
100
AcDbLine
 10
177.8374986980743
 20
1377.612383585244
 30
0.0
 11
172.8374986980743
 21
1377.612383585244
 31
0.0
  0
LINE
  5
988
330
1F
100
AcDbEntity
  8
HEWI
100
AcDbLine
 10
172.8374986980743
 20
1377.612383585244
 30
0.0
 11
172.8374986980743
 21
1381.112383585244
 31
0.0
  0
LINE
  5
989
330
1F
100
AcDbEntity
  8
HEWI
100
AcDbLine
 10
177.8374986980743
 20
1381.112383585244
 30
0.0
 11
177.8374986980743
 21
1377.612383585244
 31
0.0
  0
LINE
  5
98A
330
1F
100
AcDbEntity
  8
HEWI
100
AcDbLine
 10
267.8374986980744
 20
1381.112383585244
 30
0.0
 11
267.8374986980744
 21
1505.712383585244
 31
0.0
  0
LINE
  5
98B
330
1F
100
AcDbEntity
  8
HEWI
100
AcDbLine
 10
262.8374986980743
 20
1381.112383585244
 30
0.0
 11
262.8374986980743
 21
1505.712383585244
 31
0.0
  0
LINE
  5
98C
330
1F
100
AcDbEntity
  8
HEWI
100
AcDbLine
 10
267.8374986980744
 20
1584.112383585244
 30
0.0
 11
262.8374986980743
 21
1584.112383585244
 31
0.0
  0
LINE
  5
98D
330
1F
100
AcDbEntity
  8
HEWI
100
AcDbLine
 10
267.8374986980744
 20
1557.512383585244
 30
0.0
 11
267.8374986980744
 21
1584.112383585244
 31
0.0
  0
LINE
  5
98E
330
1F
100
AcDbEntity
  8
HEWI
100
AcDbLine
 10
262.8374986980743
 20
1557.512383585244
 30
0.0
 11
262.8374986980743
 21
1584.112383585244
 31
0.0
  0
LINE
  5
98F
330
1F
100
AcDbEntity
  8
HEWI
100
AcDbLine
 10
177.8374986980743
 20
1584.112383585244
 30
0.0
 11
172.8374986980743
 21
1584.112383585244
 31
0.0
  0
LINE
  5
990
330
1F
100
AcDbEntity
  8
HEWI
100
AcDbLine
 10
172.8374986980743
 20
1584.112383585244
 30
0.0
 11
172.8374986980743
 21
1557.512383585244
 31
0.0
  0
LINE
  5
991
330
1F
100
AcDbEntity
  8
HEWI
100
AcDbLine
 10
177.8374986980743
 20
1584.112383585244
 30
0.0
 11
177.8374986980743
 21
1557.512383585244
 31
0.0
  0
LINE
  5
992
330
1F
100
AcDbEntity
  8
HEWI
100
AcDbLine
 10
262.8374986980743
 20
1587.612383585244
 30
0.0
 11
267.8374986980744
 21
1587.612383585244
 31
0.0
  0
LINE
  5
993
330
1F
100
AcDbEntity
  8
HEWI
100
AcDbLine
 10
267.8374986980744
 20
1587.612383585244
 30
0.0
 11
267.8374986980744
 21
1584.112383585244
 31
0.0
  0
LINE
  5
994
330
1F
100
AcDbEntity
  8
HEWI
100
AcDbLine
 10
262.8374986980743
 20
1584.112383585244
 30
0.0
 11
262.8374986980743
 21
1587.612383585244
 31
0.0
  0
LINE
  5
995
330
1F
100
AcDbEntity
  8
HEWI
100
AcDbLine
 10
172.8374986980743
 20
1587.612383585244
 30
0.0
 11
177.8374986980743
 21
1587.612383585244
 31
0.0
  0
LINE
  5
996
330
1F
100
AcDbEntity
  8
HEWI
100
AcDbLine
 10
172.8374986980743
 20
1584.112383585244
 30
0.0
 11
172.8374986980743
 21
1587.612383585244
 31
0.0
  0
LINE
  5
997
330
1F
100
AcDbEntity
  8
HEWI
100
AcDbLine
 10
177.8374986980743
 20
1587.612383585244
 30
0.0
 11
177.8374986980743
 21
1584.112383585244
 31
0.0
  0
LINE
  5
998
330
1F
100
AcDbEntity
  8
HEWI
100
AcDbLine
 10
262.8374986980743
 20
1377.612383585244
 30
0.0
 11
262.6374906980741
 21
1377.612383585244
 31
0.0
  0
LINE
  5
999
330
1F
100
AcDbEntity
  8
HEWI
100
AcDbLine
 10
178.0375046980744
 20
1377.612383585244
 30
0.0
 11
177.8374986980743
 21
1377.612383585244
 31
0.0
  0
LINE
  5
99A
330
1F
100
AcDbEntity
  8
HEWI
100
AcDbLine
 10
1444.146171777821
 20
1559.869173728005
 30
0.0
 11
1443.946171777821
 21
1559.669173728005
 31
0.0
  0
LINE
  5
99B
330
1F
100
AcDbEntity
  8
HEWI
100
AcDbLine
 10
1443.946171777821
 20
1526.569173728005
 30
0.0
 11
1444.146171777821
 21
1526.369173728005
 31
0.0
  0
LINE
  5
99C
330
1F
100
AcDbEntity
  8
HEWI
100
AcDbLine
 10
1444.146171777821
 20
1526.369173728005
 30
0.0
 11
1445.946171777822
 21
1526.369173728005
 31
0.0
  0
LINE
  5
99D
330
1F
100
AcDbEntity
  8
HEWI
100
AcDbLine
 10
1445.946171777822
 20
1559.869173728005
 30
0.0
 11
1444.146171777821
 21
1559.869173728005
 31
0.0
  0
LINE
  5
9A0
330
1F
100
AcDbEntity
  8
HEWI
100
AcDbLine
 10
1253.446171777822
 20
1527.910977728005
 30
0.0
 11
1217.446171777822
 21
1527.910977728005
 31
0.0
  0
LINE
  5
9A1
330
1F
100
AcDbEntity
  8
HEWI
100
AcDbLine
 10
1217.446171777822
 20
1450.961477728005
 30
0.0
 11
1253.446171777822
 21
1450.961477728005
 31
0.0
  0
LINE
  5
9A2
330
1F
100
AcDbEntity
  8
HEWI
100
AcDbLine
 10
564.7461717778213
 20
1454.319173728005
 30
0.0
 11
557.0461717778216
 21
1454.319173728005
 31
0.0
  0
LINE
  5
9A3
330
1F
100
AcDbEntity
  8
HEWI
100
AcDbLine
 10
557.0461717778216
 20
1427.319173728005
 30
0.0
 11
564.7461717778213
 21
1427.319173728005
 31
0.0
  0
LINE
  5
9A4
330
1F
100
AcDbEntity
  8
HEWI
100
AcDbLine
 10
557.0461717778216
 20
1454.319173728005
 30
0.0
 11
556.3461717778213
 21
1453.619173728005
 31
0.0
  0
LINE
  5
9A5
330
1F
100
AcDbEntity
  8
HEWI
100
AcDbLine
 10
556.3461717778213
 20
1428.019173728005
 30
0.0
 11
557.0461717778216
 21
1427.319173728005
 31
0.0
  0
LINE
  5
9A6
330
1F
100
AcDbEntity
  8
HEWI
100
AcDbLine
 10
564.7461717778213
 20
1427.319173728005
 30
0.0
 11
565.4461717778217
 21
1428.019173728005
 31
0.0
  0
LINE
  5
9A7
330
1F
100
AcDbEntity
  8
HEWI
100
AcDbLine
 10
565.4461717778217
 20
1453.619173728005
 30
0.0
 11
564.7461717778213
 21
1454.319173728005
 31
0.0
  0
LINE
  5
9A8
330
1F
100
AcDbEntity
  8
HEWI
100
AcDbLine
 10
555.8461717778214
 20
1428.819173728005
 30
0.0
 11
556.3461717778213
 21
1428.819173728005
 31
0.0
  0
LINE
  5
9A9
330
1F
100
AcDbEntity
  8
HEWI
100
AcDbLine
 10
556.3461717778213
 20
1452.819173728005
 30
0.0
 11
555.8461717778214
 21
1452.819173728005
 31
0.0
  0
LINE
  5
9AA
330
1F
100
AcDbEntity
  8
HEWI
100
AcDbLine
 10
1385.646171777821
 20
1453.269173728005
 30
0.0
 11
1385.446171777822
 21
1453.069173728005
 31
0.0
  0
LINE
  5
9AB
330
1F
100
AcDbEntity
  8
HEWI
100
AcDbLine
 10
1385.446171777822
 20
1428.469173728005
 30
0.0
 11
1385.646171777821
 21
1428.269173728005
 31
0.0
  0
LINE
  5
9AC
330
1F
100
AcDbEntity
  8
HEWI
100
AcDbLine
 10
1388.246171777821
 20
1428.269173728005
 30
0.0
 11
1388.446171777822
 21
1428.469173728005
 31
0.0
  0
LINE
  5
9AD
330
1F
100
AcDbEntity
  8
HEWI
100
AcDbLine
 10
1388.446171777822
 20
1453.069173728005
 30
0.0
 11
1388.246171777821
 21
1453.269173728005
 31
0.0
  0
LINE
  5
9AE
330
1F
100
AcDbEntity
  8
HEWI
100
AcDbLine
 10
1385.646171777821
 20
1428.269173728005
 30
0.0
 11
1388.246171777821
 21
1428.269173728005
 31
0.0
  0
LINE
  5
9AF
330
1F
100
AcDbEntity
  8
HEWI
100
AcDbLine
 10
1388.246171777821
 20
1453.269173728005
 30
0.0
 11
1385.646171777821
 21
1453.269173728005
 31
0.0
  0
LINE
  5
9B0
330
1F
100
AcDbEntity
  8
HEWI
100
AcDbLine
 10
1255.447665777822
 20
1526.269173728005
 30
0.0
 11
1443.946171777821
 21
1526.269173728005
 31
0.0
  0
LINE
  5
9B1
330
1F
100
AcDbEntity
  8
HEWI
100
AcDbLine
 10
736.4533657778215
 20
1526.269173728005
 30
0.0
 11
1215.446171777822
 21
1526.269173728005
 31
0.0
  0
LINE
  5
9B2
330
1F
100
AcDbEntity
  8
HEWI
100
AcDbLine
 10
602.8570737778212
 20
1526.269173728005
 30
0.0
 11
696.4454817778218
 21
1526.269173728005
 31
0.0
  0
LINE
  5
9B3
330
1F
100
AcDbEntity
  8
HEWI
100
AcDbLine
 10
1443.946171777821
 20
1559.969173728005
 30
0.0
 11
602.8691717778215
 21
1559.969173728005
 31
0.0
  0
LINE
  5
9B4
330
1F
100
AcDbEntity
  8
HEWI
100
AcDbLine
 10
698.4461717778218
 20
1450.961477728005
 30
0.0
 11
734.4461717778218
 21
1450.961477728005
 31
0.0
  0
LINE
  5
9B5
330
1F
100
AcDbEntity
  8
HEWI
100
AcDbLine
 10
734.4461717778218
 20
1527.910977728005
 30
0.0
 11
698.4461717778218
 21
1527.910977728005
 31
0.0
  0
LINE
  5
9B6
330
1F
100
AcDbEntity
  8
HEWI
100
AcDbLine
 10
566.4461717778217
 20
1453.169173728005
 30
0.0
 11
565.6461717778214
 21
1453.169173728005
 31
0.0
  0
LINE
  5
9B7
330
1F
100
AcDbEntity
  8
HEWI
100
AcDbLine
 10
565.6461717778214
 20
1428.369173728005
 30
0.0
 11
566.4461717778217
 21
1428.369173728005
 31
0.0
  0
LINE
  5
9B8
330
1F
100
AcDbEntity
  8
HEWI
100
AcDbLine
 10
565.6461717778214
 20
1453.169173728005
 30
0.0
 11
565.4461717778217
 21
1452.969173728005
 31
0.0
  0
LINE
  5
9B9
330
1F
100
AcDbEntity
  8
HEWI
100
AcDbLine
 10
565.4461717778217
 20
1428.569173728005
 30
0.0
 11
565.6461717778214
 21
1428.369173728005
 31
0.0
  0
LINE
  5
9BA
330
1F
100
AcDbEntity
  8
HEWI
100
AcDbLine
 10
1280.446171777821
 20
1428.269173728005
 30
0.0
 11
1385.446171777822
 21
1428.269173728005
 31
0.0
  0
LINE
  5
9BB
330
1F
100
AcDbEntity
  8
HEWI
100
AcDbLine
 10
1242.964213777821
 20
1428.269173728005
 30
0.0
 11
1280.446171777821
 21
1428.269173728005
 31
0.0
  0
LINE
  5
9BC
330
1F
100
AcDbEntity
  8
HEWI
100
AcDbLine
 10
723.9642137778213
 20
1428.269173728005
 30
0.0
 11
1227.896171777821
 21
1428.269173728005
 31
0.0
  0
LINE
  5
9BD
330
1F
100
AcDbEntity
  8
HEWI
100
AcDbLine
 10
566.4461717778217
 20
1428.269173728005
 30
0.0
 11
708.8961717778214
 21
1428.269173728005
 31
0.0
  0
LINE
  5
9BE
330
1F
100
AcDbEntity
  8
HEWI
100
AcDbLine
 10
696.4455277778212
 20
1453.269173728005
 30
0.0
 11
566.4461717778217
 21
1453.269173728005
 31
0.0
  0
LINE
  5
9BF
330
1F
100
AcDbEntity
  8
HEWI
100
AcDbLine
 10
1215.446171777822
 20
1453.269173728005
 30
0.0
 11
736.4517517778217
 21
1453.269173728005
 31
0.0
  0
LINE
  5
9C0
330
1F
100
AcDbEntity
  8
HEWI
100
AcDbLine
 10
1388.246171777821
 20
1453.269173728005
 30
0.0
 11
1385.646171777821
 21
1453.269173728005
 31
0.0
  0
LINE
  5
9C1
330
1F
100
AcDbEntity
  8
HEWI
100
AcDbLine
 10
1443.946171777821
 20
1543.119173728005
 30
0.0
 11
1443.946171777821
 21
1559.969173728005
 31
0.0
  0
LINE
  5
9C2
330
1F
100
AcDbEntity
  8
HEWI
100
AcDbLine
 10
1443.946171777821
 20
1526.269173728005
 30
0.0
 11
1443.946171777821
 21
1543.119173728005
 31
0.0
  0
LINE
  5
9C3
330
1F
100
AcDbEntity
  8
HEWI
100
AcDbLine
 10
734.4461717778218
 20
1450.961477728005
 30
0.0
 11
734.4461717778218
 21
1451.161477728005
 31
0.0
  0
LINE
  5
9C4
330
1F
100
AcDbEntity
  8
HEWI
100
AcDbLine
 10
734.4461717778218
 20
1527.910977728005
 30
0.0
 11
734.4461717778218
 21
1527.710977728005
 31
0.0
  0
LINE
  5
9C5
330
1F
100
AcDbEntity
  8
HEWI
100
AcDbLine
 10
736.4461717778218
 20
1526.980633728005
 30
0.0
 11
736.4461717778218
 21
1452.216443728005
 31
0.0
  0
LINE
  5
9C6
330
1F
100
AcDbEntity
  8
HEWI
100
AcDbLine
 10
734.4461717778218
 20
1451.161477728005
 30
0.0
 11
734.4461717778218
 21
1527.710977728005
 31
0.0
  0
LINE
  5
9C7
330
1F
100
AcDbEntity
  8
HEWI
100
AcDbLine
 10
698.4461717778218
 20
1451.161477728005
 30
0.0
 11
734.4461717778218
 21
1451.161477728005
 31
0.0
  0
LINE
  5
9C8
330
1F
100
AcDbEntity
  8
HEWI
100
AcDbLine
 10
734.4461717778218
 20
1527.710977728005
 30
0.0
 11
698.4461717778218
 21
1527.710977728005
 31
0.0
  0
LINE
  5
9C9
330
1F
100
AcDbEntity
  8
HEWI
100
AcDbLine
 10
696.4461717778219
 20
1452.216443728005
 30
0.0
 11
696.4461717778219
 21
1526.980633728005
 31
0.0
  0
LINE
  5
9CA
330
1F
100
AcDbEntity
  8
HEWI
100
AcDbLine
 10
698.4461717778218
 20
1527.710977728005
 30
0.0
 11
698.4461717778218
 21
1451.161477728005
 31
0.0
  0
LINE
  5
9CB
330
1F
100
AcDbEntity
  8
HEWI
100
AcDbLine
 10
698.4461717778218
 20
1450.961477728005
 30
0.0
 11
698.4461717778218
 21
1451.161477728005
 31
0.0
  0
LINE
  5
9CC
330
1F
100
AcDbEntity
  8
HEWI
100
AcDbLine
 10
698.4461717778218
 20
1527.910977728005
 30
0.0
 11
698.4461717778218
 21
1527.710977728005
 31
0.0
  0
LINE
  5
9CD
330
1F
100
AcDbEntity
  8
HEWI
100
AcDbLine
 10
1444.146171777821
 20
1526.369173728005
 30
0.0
 11
1444.146171777821
 21
1559.869173728005
 31
0.0
  0
LINE
  5
9CE
330
1F
100
AcDbEntity
  8
HEWI
100
AcDbLine
 10
1215.446171777822
 20
1452.440661728005
 30
0.0
 11
1215.446171777822
 21
1451.940661728005
 31
0.0
  0
LINE
  5
9CF
330
1F
100
AcDbEntity
  8
HEWI
100
AcDbLine
 10
1215.446171777822
 20
1527.498617728005
 30
0.0
 11
1215.446171777822
 21
1526.998617728005
 31
0.0
  0
LINE
  5
9D0
330
1F
100
AcDbEntity
  8
HEWI
100
AcDbLine
 10
1215.446171777822
 20
1526.998617728005
 30
0.0
 11
1215.446171777822
 21
1452.440661728005
 31
0.0
  0
LINE
  5
9DA
330
1F
100
AcDbEntity
  8
HEWI
100
AcDbLine
 10
1253.446171777822
 20
1450.961477728005
 30
0.0
 11
1253.446171777822
 21
1451.161477728005
 31
0.0
  0
LINE
  5
9DB
330
1F
100
AcDbEntity
  8
HEWI
100
AcDbLine
 10
1217.446171777822
 20
1451.161477728005
 30
0.0
 11
1253.446171777822
 21
1451.161477728005
 31
0.0
  0
LINE
  5
9DC
330
1F
100
AcDbEntity
  8
HEWI
100
AcDbLine
 10
1253.446171777822
 20
1527.710977728005
 30
0.0
 11
1217.446171777822
 21
1527.710977728005
 31
0.0
  0
LINE
  5
9DD
330
1F
100
AcDbEntity
  8
HEWI
100
AcDbLine
 10
1217.446171777822
 20
1450.961477728005
 30
0.0
 11
1217.446171777822
 21
1451.161477728005
 31
0.0
  0
LINE
  5
9DE
330
1F
100
AcDbEntity
  8
HEWI
100
AcDbLine
 10
1217.446171777822
 20
1527.710977728005
 30
0.0
 11
1217.446171777822
 21
1451.161477728005
 31
0.0
  0
LINE
  5
9DF
330
1F
100
AcDbEntity
  8
HEWI
100
AcDbLine
 10
1217.446171777822
 20
1527.910977728005
 30
0.0
 11
1217.446171777822
 21
1527.710977728005
 31
0.0
  0
LINE
  5
9E0
330
1F
100
AcDbEntity
  8
HEWI
100
AcDbLine
 10
565.4461717778217
 20
1453.619173728005
 30
0.0
 11
565.4461717778217
 21
1428.019173728005
 31
0.0
  0
LINE
  5
9E1
330
1F
100
AcDbEntity
  8
HEWI
100
AcDbLine
 10
564.7461717778213
 20
1440.819173728005
 30
0.0
 11
564.7461717778213
 21
1454.319173728005
 31
0.0
  0
LINE
  5
9E2
330
1F
100
AcDbEntity
  8
HEWI
100
AcDbLine
 10
564.7461717778213
 20
1427.319173728005
 30
0.0
 11
564.7461717778213
 21
1440.819173728005
 31
0.0
  0
LINE
  5
9E3
330
1F
100
AcDbEntity
  8
HEWI
100
AcDbLine
 10
557.0461717778216
 20
1427.319173728005
 30
0.0
 11
557.0461717778216
 21
1454.319173728005
 31
0.0
  0
LINE
  5
9E4
330
1F
100
AcDbEntity
  8
HEWI
100
AcDbLine
 10
556.3461717778213
 20
1453.619173728005
 30
0.0
 11
556.3461717778213
 21
1440.819173728005
 31
0.0
  0
LINE
  5
9E5
330
1F
100
AcDbEntity
  8
HEWI
100
AcDbLine
 10
556.3461717778213
 20
1440.819173728005
 30
0.0
 11
556.3461717778213
 21
1428.019173728005
 31
0.0
  0
LINE
  5
9E6
330
1F
100
AcDbEntity
  8
HEWI
100
AcDbLine
 10
555.8461717778214
 20
1428.819173728005
 30
0.0
 11
555.8461717778214
 21
1452.819173728005
 31
0.0
  0
LINE
  5
9E7
330
1F
100
AcDbEntity
  8
HEWI
100
AcDbLine
 10
547.8461957778213
 20
1599.119173728005
 30
0.0
 11
547.6461717778214
 21
1599.119173728005
 31
0.0
  0
LINE
  5
9E8
330
1F
100
AcDbEntity
  8
HEWI
100
AcDbLine
 10
547.6461717778214
 20
1599.119173728005
 30
0.0
 11
547.6461717778214
 21
1597.619173728005
 31
0.0
  0
LINE
  5
9E9
330
1F
100
AcDbEntity
  8
HEWI
100
AcDbLine
 10
545.0461717778217
 20
1599.119173728005
 30
0.0
 11
547.6461717778214
 21
1599.119173728005
 31
0.0
  0
LINE
  5
9EA
330
1F
100
AcDbEntity
  8
HEWI
100
AcDbLine
 10
545.0461717778217
 20
1597.619173728005
 30
0.0
 11
547.6461717778214
 21
1597.619173728005
 31
0.0
  0
LINE
  5
9EB
330
1F
100
AcDbEntity
  8
HEWI
100
AcDbLine
 10
535.0461717778216
 20
1597.619173728005
 30
0.0
 11
535.0461717778216
 21
1599.119173728005
 31
0.0
  0
LINE
  5
9EC
330
1F
100
AcDbEntity
  8
HEWI
100
AcDbLine
 10
545.0461717778217
 20
1599.119173728005
 30
0.0
 11
545.0461717778217
 21
1597.619173728005
 31
0.0
  0
LINE
  5
9ED
330
1F
100
AcDbEntity
  8
HEWI
100
AcDbLine
 10
535.0461717778216
 20
1599.119173728005
 30
0.0
 11
545.0461717778217
 21
1599.119173728005
 31
0.0
  0
LINE
  5
9EE
330
1F
100
AcDbEntity
  8
HEWI
100
AcDbLine
 10
545.0461717778217
 20
1597.619173728005
 30
0.0
 11
544.8461537778216
 21
1597.619173728005
 31
0.0
  0
LINE
  5
9EF
330
1F
100
AcDbEntity
  8
HEWI
100
AcDbLine
 10
1385.646171777821
 20
1428.269173728005
 30
0.0
 11
1385.646171777821
 21
1453.269173728005
 31
0.0
  0
LINE
  5
9F0
330
1F
100
AcDbEntity
  8
HEWI
100
AcDbLine
 10
1385.446171777822
 20
1453.269173728005
 30
0.0
 11
1385.446171777822
 21
1440.769173728005
 31
0.0
  0
LINE
  5
9F1
330
1F
100
AcDbEntity
  8
HEWI
100
AcDbLine
 10
1385.446171777822
 20
1440.769173728005
 30
0.0
 11
1385.446171777822
 21
1428.269173728005
 31
0.0
  0
LINE
  5
9FA
330
1F
100
AcDbEntity
  8
HEWI
100
AcDbLine
 10
720.954457777822
 20
1429.819173728005
 30
0.0
 11
711.9687817778218
 21
1429.819173728005
 31
0.0
  0
LINE
  5
9FB
330
1F
100
AcDbEntity
  8
HEWI
100
AcDbLine
 10
722.1461717778216
 20
1429.019173728005
 30
0.0
 11
710.746171777821
 21
1429.019173728005
 31
0.0
  0
LINE
  5
A04
330
1F
100
AcDbEntity
  8
HEWI
100
AcDbLine
 10
565.6461717778214
 20
1453.169173728005
 30
0.0
 11
565.6461717778214
 21
1428.369173728005
 31
0.0
  0
LINE
  5
A05
330
1F
100
AcDbEntity
  8
HEWI
100
AcDbLine
 10
558.8461717778214
 20
1565.519173728005
 30
0.0
 11
587.9461717778217
 21
1565.519173728005
 31
0.0
  0
LINE
  5
A06
330
1F
100
AcDbEntity
  8
HEWI
100
AcDbLine
 10
558.8461717778214
 20
1520.719173728005
 30
0.0
 11
587.9461717778217
 21
1520.719173728005
 31
0.0
  0
LINE
  5
A07
330
1F
100
AcDbEntity
  8
HEWI
100
AcDbLine
 10
544.8461717778213
 20
1389.119173728005
 30
0.0
 11
551.8461717778214
 21
1389.119173728005
 31
0.0
  0
LINE
  5
A08
330
1F
100
AcDbEntity
  8
HEWI
100
AcDbLine
 10
547.8461717778214
 20
1599.119173728005
 30
0.0
 11
551.8461717778214
 21
1599.119173728005
 31
0.0
  0
LINE
  5
A09
330
1F
100
AcDbEntity
  8
HEWI
100
AcDbLine
 10
547.8461717778214
 20
1597.619173728005
 30
0.0
 11
547.8461717778214
 21
1599.119173728005
 31
0.0
  0
LINE
  5
A0A
330
1F
100
AcDbEntity
  8
HEWI
100
AcDbLine
 10
544.8461717778213
 20
1597.619173728005
 30
0.0
 11
547.8461717778214
 21
1597.619173728005
 31
0.0
  0
LINE
  5
A0B
330
1F
100
AcDbEntity
  8
HEWI
100
AcDbLine
 10
534.8461717778214
 20
1389.119173728005
 30
0.0
 11
534.8461717778214
 21
1597.619173728005
 31
0.0
  0
LINE
  5
A0C
330
1F
100
AcDbEntity
  8
HEWI
100
AcDbLine
 10
534.8461717778214
 20
1597.619173728005
 30
0.0
 11
544.8461717778213
 21
1597.619173728005
 31
0.0
  0
LINE
  5
A0D
330
1F
100
AcDbEntity
  8
HEWI
100
AcDbLine
 10
534.8461717778214
 20
1389.119173728005
 30
0.0
 11
544.8461717778213
 21
1389.119173728005
 31
0.0
  0
LINE
  5
A0E
330
1F
100
AcDbEntity
  8
HEWI
100
AcDbLine
 10
544.8461717778213
 20
1597.619173728005
 30
0.0
 11
544.8461717778213
 21
1389.119173728005
 31
0.0
  0
LINE
  5
A12
330
1F
100
AcDbEntity
  8
HEWI
100
AcDbLine
 10
1227.896169777822
 20
1428.269171728005
 30
0.0
 11
1227.896169777822
 21
1428.269171728005
 31
0.0
  0
LINE
  5
A13
330
1F
100
AcDbEntity
  8
HEWI
100
AcDbLine
 10
708.8961697778217
 20
1428.269171728005
 30
0.0
 11
708.8961697778217
 21
1428.269171728005
 31
0.0
  0
LINE
  5
A14
330
1F
100
AcDbEntity
  8
HEWI
100
AcDbLine
 10
566.4461717778217
 20
1428.269173728005
 30
0.0
 11
566.4461717778217
 21
1453.269173728005
 31
0.0
  0
LINE
  5
A15
330
1F
100
AcDbEntity
  8
HEWI
100
AcDbLine
 10
1239.921709777821
 20
1429.819173728005
 30
0.0
 11
1230.922279777822
 21
1429.819173728005
 31
0.0
  0
LINE
  5
A16
330
1F
100
AcDbEntity
  8
HEWI
100
AcDbLine
 10
1241.146171777822
 20
1429.019173728005
 30
0.0
 11
1229.746171777821
 21
1429.019173728005
 31
0.0
  0
LINE
  5
A1E
330
1F
100
AcDbEntity
  8
HEWI
100
AcDbLine
 10
1446.946171777821
 20
1558.869173728005
 30
0.0
 11
1446.946171777821
 21
1527.369173728005
 31
0.0
  0
LINE
  5
A1F
330
1F
100
AcDbEntity
  8
HEWI
100
AcDbLine
 10
1445.946171777822
 20
1543.119173728005
 30
0.0
 11
1445.946171777822
 21
1559.869173728005
 31
0.0
  0
LINE
  5
A20
330
1F
100
AcDbEntity
  8
HEWI
100
AcDbLine
 10
1445.946171777822
 20
1526.369173728005
 30
0.0
 11
1445.946171777822
 21
1543.119173728005
 31
0.0
  0
LINE
  5
A21
330
1F
100
AcDbEntity
  8
HEWI
100
AcDbLine
 10
1255.446171777822
 20
1526.980633728005
 30
0.0
 11
1255.446171777822
 21
1452.216443728005
 31
0.0
  0
LINE
  5
A22
330
1F
100
AcDbEntity
  8
HEWI
100
AcDbLine
 10
1253.446171777822
 20
1451.161477728005
 30
0.0
 11
1253.446171777822
 21
1527.710977728005
 31
0.0
  0
LINE
  5
A23
330
1F
100
AcDbEntity
  8
HEWI
100
AcDbLine
 10
1253.446171777822
 20
1527.910977728005
 30
0.0
 11
1253.446171777822
 21
1527.710977728005
 31
0.0
  0
LINE
  5
A24
330
1F
100
AcDbEntity
  8
HEWI
100
AcDbLine
 10
1388.446171777822
 20
1453.069173728006
 30
0.0
 11
1388.446171777822
 21
1440.769173728005
 31
0.0
  0
LINE
  5
A25
330
1F
100
AcDbEntity
  8
HEWI
100
AcDbLine
 10
1388.446171777822
 20
1440.769173728005
 30
0.0
 11
1388.446171777822
 21
1428.469173728005
 31
0.0
  0
LINE
  5
A26
330
1F
100
AcDbEntity
  8
HEWI
100
AcDbLine
 10
1388.246171777821
 20
1440.769173728005
 30
0.0
 11
1388.246171777821
 21
1453.269173728006
 31
0.0
  0
LINE
  5
A27
330
1F
100
AcDbEntity
  8
HEWI
100
AcDbLine
 10
1388.246171777821
 20
1428.269173728005
 30
0.0
 11
1388.246171777821
 21
1440.769173728005
 31
0.0
  0
LINE
  5
A28
330
1F
100
AcDbEntity
  8
HEWI
100
AcDbLine
 10
555.3461717778214
 20
1517.219173728005
 30
0.0
 11
555.3461717778214
 21
1392.619173728005
 31
0.0
  0
LINE
  5
A29
330
1F
100
AcDbEntity
  8
HEWI
100
AcDbLine
 10
555.3461717778214
 20
1595.619173728005
 30
0.0
 11
555.3461717778214
 21
1569.019173728005
 31
0.0
  0
LINE
  5
A2A
330
1F
100
AcDbEntity
  8
HEWI
100
AcDbLine
 10
267.8374986980746
 20
1121.698847003024
 30
0.0
 11
268.0374986980744
 21
1121.498847003024
 31
0.0
  0
LINE
  5
A2B
330
1F
100
AcDbEntity
  8
HEWI
100
AcDbLine
 10
270.6374986980743
 20
1163.498847003024
 30
0.0
 11
268.0374986980744
 21
1163.498847003024
 31
0.0
  0
LINE
  5
A2C
330
1F
100
AcDbEntity
  8
HEWI
100
AcDbLine
 10
262.0374986980745
 20
1164.998847003024
 30
0.0
 11
178.6374986980743
 21
1164.998847003024
 31
0.0
  0
LINE
  5
A2D
330
1F
100
AcDbEntity
  8
HEWI
100
AcDbLine
 10
268.0374986980744
 20
1121.498847003024
 30
0.0
 11
270.6374986980743
 21
1121.498847003024
 31
0.0
  0
LINE
  5
A2E
330
1F
100
AcDbEntity
  8
HEWI
100
AcDbLine
 10
270.8374986980746
 20
1163.298847003024
 30
0.0
 11
270.6374986980743
 21
1163.498847003024
 31
0.0
  0
LINE
  5
A2F
330
1F
100
AcDbEntity
  8
HEWI
100
AcDbLine
 10
262.3374986980746
 20
1121.498847003024
 30
0.0
 11
262.8374986980746
 21
1121.998847003024
 31
0.0
  0
LINE
  5
A30
330
1F
100
AcDbEntity
  8
HEWI
100
AcDbLine
 10
237.1874986980745
 20
286.4988470030243
 30
0.0
 11
237.1874986980745
 21
1119.980447003024
 31
0.0
  0
LINE
  5
A31
330
1F
100
AcDbEntity
  8
HEWI
100
AcDbLine
 10
262.8374986980746
 20
1162.998847003024
 30
0.0
 11
262.3374986980746
 21
1163.498847003024
 31
0.0
  0
LINE
  5
A32
330
1F
100
AcDbEntity
  8
HEWI
100
AcDbLine
 10
203.4874986980742
 20
1120.099637003024
 30
0.0
 11
203.4874986980742
 21
286.4988470030243
 31
0.0
  0
LINE
  5
A33
330
1F
100
AcDbEntity
  8
HEWI
100
AcDbLine
 10
270.6374986980743
 20
1121.498847003024
 30
0.0
 11
270.8374986980746
 21
1121.698847003024
 31
0.0
  0
LINE
  5
A34
330
1F
100
AcDbEntity
  8
HEWI
100
AcDbLine
 10
237.2866826980742
 20
1119.998847003024
 30
0.0
 11
262.0374986980745
 21
1119.998847003024
 31
0.0
  0
LINE
  5
A35
330
1F
100
AcDbEntity
  8
HEWI
100
AcDbLine
 10
172.8374986980741
 20
1120.098847003024
 30
0.0
 11
177.8374986980741
 21
1120.098847003024
 31
0.0
  0
LINE
  5
A36
330
1F
100
AcDbEntity
  8
HEWI
100
AcDbLine
 10
177.8374986980741
 20
1121.998847003024
 30
0.0
 11
178.3374986980741
 21
1121.498847003024
 31
0.0
  0
LINE
  5
A37
330
1F
100
AcDbEntity
  8
HEWI
100
AcDbLine
 10
262.8374986980746
 20
1120.098847003024
 30
0.0
 11
267.8374986980746
 21
1120.098847003024
 31
0.0
  0
LINE
  5
A38
330
1F
100
AcDbEntity
  8
HEWI
100
AcDbLine
 10
178.3374986980741
 20
1163.498847003024
 30
0.0
 11
177.8374986980741
 21
1162.998847003024
 31
0.0
  0
LINE
  5
A39
330
1F
100
AcDbEntity
  8
HEWI
100
AcDbLine
 10
178.6374986980743
 20
1119.998847003024
 30
0.0
 11
203.3374986980746
 21
1119.998847003024
 31
0.0
  0
LINE
  5
A3A
330
1F
100
AcDbEntity
  8
HEWI
100
AcDbLine
 10
170.0374986980744
 20
1121.498847003024
 30
0.0
 11
172.6374986980743
 21
1121.498847003024
 31
0.0
  0
LINE
  5
A3B
330
1F
100
AcDbEntity
  8
HEWI
100
AcDbLine
 10
172.6374986980743
 20
1163.498847003024
 30
0.0
 11
170.0374986980744
 21
1163.498847003024
 31
0.0
  0
LINE
  5
A3C
330
1F
100
AcDbEntity
  8
HEWI
100
AcDbLine
 10
237.0874986980746
 20
284.4988470030243
 30
0.0
 11
237.0874986980746
 21
286.2988470030243
 31
0.0
  0
LINE
  5
A3D
330
1F
100
AcDbEntity
  8
HEWI
100
AcDbLine
 10
203.5874986980746
 20
286.2988470030243
 30
0.0
 11
203.5874986980746
 21
284.4988470030243
 31
0.0
  0
LINE
  5
A3E
330
1F
100
AcDbEntity
  8
HEWI
100
AcDbLine
 10
203.7874986980744
 20
286.4988470030243
 30
0.0
 11
203.5874986980746
 21
286.2988470030243
 31
0.0
  0
LINE
  5
A3F
330
1F
100
AcDbEntity
  8
HEWI
100
AcDbLine
 10
237.0874986980746
 20
286.2988470030243
 30
0.0
 11
236.8874986980743
 21
286.4988470030243
 31
0.0
  0
LINE
  5
A40
330
1F
100
AcDbEntity
  8
HEWI
100
AcDbLine
 10
172.6374986980743
 20
1121.498847003024
 30
0.0
 11
172.8374986980741
 21
1121.698847003024
 31
0.0
  0
LINE
  5
A41
330
1F
100
AcDbEntity
  8
HEWI
100
AcDbLine
 10
172.8374986980741
 20
1163.298847003024
 30
0.0
 11
172.6374986980743
 21
1163.498847003024
 31
0.0
  0
LINE
  5
A42
330
1F
100
AcDbEntity
  8
HEWI
100
AcDbLine
 10
170.0374986980744
 20
1163.498847003024
 30
0.0
 11
169.8374986980741
 21
1163.298847003024
 31
0.0
  0
LINE
  5
A43
330
1F
100
AcDbEntity
  8
HEWI
100
AcDbLine
 10
169.8374986980741
 20
1121.698847003024
 30
0.0
 11
170.0374986980744
 21
1121.498847003024
 31
0.0
  0
LINE
  5
A44
330
1F
100
AcDbEntity
  8
HEWI
100
AcDbLine
 10
233.8374986980745
 20
1173.398847003024
 30
0.0
 11
233.1374986980743
 21
1174.098847003024
 31
0.0
  0
LINE
  5
A45
330
1F
100
AcDbEntity
  8
HEWI
100
AcDbLine
 10
207.5374986980744
 20
1174.098847003024
 30
0.0
 11
206.8374986980745
 21
1173.398847003024
 31
0.0
  0
LINE
  5
A46
330
1F
100
AcDbEntity
  8
HEWI
100
AcDbLine
 10
233.8374986980745
 20
1165.698847003024
 30
0.0
 11
233.8374986980745
 21
1173.398847003024
 31
0.0
  0
LINE
  5
A47
330
1F
100
AcDbEntity
  8
HEWI
100
AcDbLine
 10
206.8374986980745
 20
1173.398847003024
 30
0.0
 11
206.8374986980745
 21
1165.698847003024
 31
0.0
  0
LINE
  5
A48
330
1F
100
AcDbEntity
  8
HEWI
100
AcDbLine
 10
206.8374986980745
 20
1165.698847003024
 30
0.0
 11
207.5374986980744
 21
1164.998847003024
 31
0.0
  0
LINE
  5
A49
330
1F
100
AcDbEntity
  8
HEWI
100
AcDbLine
 10
233.1374986980743
 20
1164.998847003024
 30
0.0
 11
233.8374986980745
 21
1165.698847003024
 31
0.0
  0
LINE
  5
A4A
330
1F
100
AcDbEntity
  8
HEWI
100
AcDbLine
 10
208.3374986980746
 20
1174.598847003024
 30
0.0
 11
208.3374986980746
 21
1174.098847003024
 31
0.0
  0
LINE
  5
A4B
330
1F
100
AcDbEntity
  8
HEWI
100
AcDbLine
 10
232.3374986980746
 20
1174.098847003024
 30
0.0
 11
232.3374986980746
 21
1174.598847003024
 31
0.0
  0
LINE
  5
A4C
330
1F
100
AcDbEntity
  8
HEWI
100
AcDbLine
 10
268.0374986980744
 20
1163.498847003024
 30
0.0
 11
267.8374986980746
 21
1163.298847003024
 31
0.0
  0
LINE
  5
A4D
330
1F
100
AcDbEntity
  8
HEWI
100
AcDbLine
 10
237.1874986980745
 20
286.4988470030243
 30
0.0
 11
203.4874986980742
 21
286.4988470030243
 31
0.0
  0
LINE
  5
A4E
330
1F
100
AcDbEntity
  8
HEWI
100
AcDbLine
 10
237.0874986980746
 20
286.2988470030243
 30
0.0
 11
203.5874986980746
 21
286.2988470030243
 31
0.0
  0
LINE
  5
A4F
330
1F
100
AcDbEntity
  8
HEWI
100
AcDbLine
 10
233.8374986980745
 20
1165.698847003024
 30
0.0
 11
206.8374986980745
 21
1165.698847003024
 31
0.0
  0
LINE
  5
A50
330
1F
100
AcDbEntity
  8
HEWI
100
AcDbLine
 10
206.8374986980745
 20
1173.398847003024
 30
0.0
 11
233.8374986980745
 21
1173.398847003024
 31
0.0
  0
LINE
  5
A51
330
1F
100
AcDbEntity
  8
HEWI
100
AcDbLine
 10
207.5374986980744
 20
1174.098847003024
 30
0.0
 11
233.1374986980743
 21
1174.098847003024
 31
0.0
  0
LINE
  5
A52
330
1F
100
AcDbEntity
  8
HEWI
100
AcDbLine
 10
208.3374986980746
 20
1174.598847003024
 30
0.0
 11
232.3374986980746
 21
1174.598847003024
 31
0.0
  0
LINE
  5
A53
330
1F
100
AcDbEntity
  8
HEWI
100
AcDbLine
 10
178.0374986980744
 20
1178.598847003024
 30
0.0
 11
178.0374986980744
 21
1182.798847003024
 31
0.0
  0
LINE
  5
A54
330
1F
100
AcDbEntity
  8
HEWI
100
AcDbLine
 10
262.6374986980743
 20
1182.798847003024
 30
0.0
 11
262.6374986980743
 21
1178.598847003024
 31
0.0
  0
LINE
  5
A55
330
1F
100
AcDbEntity
  8
HEWI
100
AcDbLine
 10
172.8374986980741
 20
1185.398847003024
 30
0.0
 11
172.8374986980741
 21
1182.798847003024
 31
0.0
  0
LINE
  5
A56
330
1F
100
AcDbEntity
  8
HEWI
100
AcDbLine
 10
267.8374986980746
 20
1182.798847003024
 30
0.0
 11
267.8374986980746
 21
1185.398847003024
 31
0.0
  0
LINE
  5
A57
330
1F
100
AcDbEntity
  8
HEWI
100
AcDbLine
 10
182.8374986980741
 20
1195.398847003024
 30
0.0
 11
257.8374986980746
 21
1195.398847003024
 31
0.0
  0
LINE
  5
A58
330
1F
100
AcDbEntity
  8
HEWI
100
AcDbLine
 10
172.8374986980741
 20
1171.598847003024
 30
0.0
 11
172.8374986980741
 21
1142.498847003024
 31
0.0
  0
LINE
  5
A59
330
1F
100
AcDbEntity
  8
HEWI
100
AcDbLine
 10
177.8374986980741
 20
1171.598847003024
 30
0.0
 11
177.8374986980741
 21
1142.498847003024
 31
0.0
  0
LINE
  5
A5A
330
1F
100
AcDbEntity
  8
HEWI
100
AcDbLine
 10
267.8374986980746
 20
1142.498847003024
 30
0.0
 11
267.8374986980746
 21
1171.598847003024
 31
0.0
  0
LINE
  5
A5B
330
1F
100
AcDbEntity
  8
HEWI
100
AcDbLine
 10
262.8374986980746
 20
1142.498847003024
 30
0.0
 11
262.8374986980746
 21
1171.598847003024
 31
0.0
  0
LINE
  5
A5C
330
1F
100
AcDbEntity
  8
HEWI
100
AcDbLine
 10
177.8374986980741
 20
1171.598847003024
 30
0.0
 11
172.8374986980741
 21
1171.598847003024
 31
0.0
  0
LINE
  5
A5D
330
1F
100
AcDbEntity
  8
HEWI
100
AcDbLine
 10
267.8374986980746
 20
1171.598847003024
 30
0.0
 11
262.8374986980746
 21
1171.598847003024
 31
0.0
  0
LINE
  5
A5E
330
1F
100
AcDbEntity
  8
HEWI
100
AcDbLine
 10
267.8374986980746
 20
1182.598847003024
 30
0.0
 11
267.8374986980746
 21
1178.598847003024
 31
0.0
  0
LINE
  5
A5F
330
1F
100
AcDbEntity
  8
HEWI
100
AcDbLine
 10
262.8374986980746
 20
1182.598847003024
 30
0.0
 11
262.8374986980746
 21
1178.598847003024
 31
0.0
  0
LINE
  5
A60
330
1F
100
AcDbEntity
  8
HEWI
100
AcDbLine
 10
172.8374986980741
 20
1182.598847003024
 30
0.0
 11
172.8374986980741
 21
1178.598847003024
 31
0.0
  0
LINE
  5
A61
330
1F
100
AcDbEntity
  8
HEWI
100
AcDbLine
 10
177.8374986980741
 20
1182.598847003024
 30
0.0
 11
177.8374986980741
 21
1178.598847003024
 31
0.0
  0
LINE
  5
A62
330
1F
100
AcDbEntity
  8
HEWI
100
AcDbLine
 10
177.8374986980741
 20
1182.598847003024
 30
0.0
 11
172.8374986980741
 21
1182.598847003024
 31
0.0
  0
LINE
  5
A63
330
1F
100
AcDbEntity
  8
HEWI
100
AcDbLine
 10
267.8374986980746
 20
1182.598847003024
 30
0.0
 11
262.8374986980746
 21
1182.598847003024
 31
0.0
  0
LINE
  5
A64
330
1F
100
AcDbEntity
  8
HEWI
100
AcDbLine
 10
267.8374986980746
 20
1182.598847003024
 30
0.0
 11
267.8374986980746
 21
1182.798863003024
 31
0.0
  0
LINE
  5
A65
330
1F
100
AcDbEntity
  8
HEWI
100
AcDbLine
 10
172.8374986980741
 20
1182.798863003024
 30
0.0
 11
172.8374986980741
 21
1182.598847003024
 31
0.0
  0
LINE
  5
A66
330
1F
100
AcDbEntity
  8
HEWI
100
AcDbLine
 10
262.8374986980746
 20
1182.598847003024
 30
0.0
 11
262.8374986980746
 21
1182.798863003024
 31
0.0
  0
LINE
  5
A67
330
1F
100
AcDbEntity
  8
HEWI
100
AcDbLine
 10
177.8374986980741
 20
1182.798863003024
 30
0.0
 11
177.8374986980741
 21
1182.598847003024
 31
0.0
  0
LINE
  5
A68
330
1F
100
AcDbEntity
  8
HEWI
100
AcDbLine
 10
257.8374986980746
 20
1195.598847003024
 30
0.0
 11
182.8374986980741
 21
1195.598847003024
 31
0.0
  0
LINE
  5
A69
330
1F
100
AcDbEntity
  8
HEWI
100
AcDbLine
 10
204.5874986980745
 20
283.4988470030243
 30
0.0
 11
236.0874986980746
 21
283.4988470030243
 31
0.0
  0
LINE
  5
A6A
330
1F
100
AcDbEntity
  8
HEWI
100
AcDbLine
 10
237.0874986980746
 20
284.4988470030243
 30
0.0
 11
203.5874986980746
 21
284.4988470030243
 31
0.0
  0
LINE
  5
A6B
330
1F
100
AcDbEntity
  8
HEWI
100
AcDbLine
 10
172.6374986980743
 20
1163.498847003024
 30
0.0
 11
172.6374986980743
 21
1121.498847003024
 31
0.0
  0
LINE
  5
A6C
330
1F
100
AcDbEntity
  8
HEWI
100
AcDbLine
 10
170.0374986980744
 20
1121.498847003024
 30
0.0
 11
170.0374986980744
 21
1163.498847003024
 31
0.0
  0
LINE
  5
A6D
330
1F
100
AcDbEntity
  8
HEWI
100
AcDbLine
 10
169.8374986980741
 20
1121.698847003024
 30
0.0
 11
169.8374986980741
 21
1163.298847003024
 31
0.0
  0
LINE
  5
A6E
330
1F
100
AcDbEntity
  8
HEWI
100
AcDbLine
 10
262.6374986980743
 20
1175.098847003024
 30
0.0
 11
178.0374986980744
 21
1175.098847003024
 31
0.0
  0
LINE
  5
A6F
330
1F
100
AcDbEntity
  8
HEWI
100
AcDbLine
 10
178.0374986980744
 20
1175.098847003024
 30
0.0
 11
178.0374986980744
 21
1178.598847003024
 31
0.0
  0
LINE
  5
A70
330
1F
100
AcDbEntity
  8
HEWI
100
AcDbLine
 10
178.0374986980744
 20
1178.598847003024
 30
0.0
 11
262.6374986980743
 21
1178.598847003024
 31
0.0
  0
LINE
  5
A71
330
1F
100
AcDbEntity
  8
HEWI
100
AcDbLine
 10
262.6374986980743
 20
1178.598847003024
 30
0.0
 11
262.6374986980743
 21
1175.098847003024
 31
0.0
  0
LINE
  5
A72
330
1F
100
AcDbEntity
  8
HEWI
100
AcDbLine
 10
178.0374986980744
 20
1182.798847003024
 30
0.0
 11
172.8374986980741
 21
1182.798847003024
 31
0.0
  0
LINE
  5
A73
330
1F
100
AcDbEntity
  8
HEWI
100
AcDbLine
 10
262.6374986980743
 20
1182.798847003024
 30
0.0
 11
267.8374986980746
 21
1182.798847003024
 31
0.0
  0
LINE
  5
A74
330
1F
100
AcDbEntity
  8
HEWI
100
AcDbLine
 10
270.6374986980743
 20
1163.498847003024
 30
0.0
 11
270.6374986980743
 21
1121.498847003024
 31
0.0
  0
LINE
  5
A75
330
1F
100
AcDbEntity
  8
HEWI
100
AcDbLine
 10
270.8374986980746
 20
1163.298847003024
 30
0.0
 11
270.8374986980746
 21
1121.698847003024
 31
0.0
  0
LINE
  5
A76
330
1F
100
AcDbEntity
  8
HEWI
100
AcDbLine
 10
268.0374986980744
 20
1121.498847003024
 30
0.0
 11
268.0374986980744
 21
1163.498847003024
 31
0.0
  0
LINE
  5
A77
330
1F
100
AcDbEntity
  8
HEWI
100
AcDbLine
 10
178.6374986980743
 20
1164.998847003024
 30
0.0
 11
178.6374986980743
 21
1119.998847003024
 31
0.0
  0
LINE
  5
A78
330
1F
100
AcDbEntity
  8
HEWI
100
AcDbLine
 10
262.0374986980745
 20
1164.998847003024
 30
0.0
 11
262.0374986980745
 21
1119.998847003024
 31
0.0
  0
LINE
  5
A79
330
1F
100
AcDbEntity
  8
HEWI
100
AcDbLine
 10
262.3374986980746
 20
1120.298847003024
 30
0.0
 11
262.3374986980746
 21
1164.698847003024
 31
0.0
  0
LINE
  5
A7A
330
1F
100
AcDbEntity
  8
HEWI
100
AcDbLine
 10
178.3374986980741
 20
1120.298847003024
 30
0.0
 11
178.3374986980741
 21
1164.698847003024
 31
0.0
  0
LINE
  5
A7B
330
1F
100
AcDbEntity
  8
HEWI
100
AcDbLine
 10
262.8374986980746
 20
1142.498847003024
 30
0.0
 11
267.8374986980746
 21
1142.498847003024
 31
0.0
  0
LINE
  5
A7C
330
1F
100
AcDbEntity
  8
HEWI
100
AcDbLine
 10
267.8374986980746
 20
1120.098847003024
 30
0.0
 11
267.8374986980746
 21
1142.498847003024
 31
0.0
  0
LINE
  5
A7D
330
1F
100
AcDbEntity
  8
HEWI
100
AcDbLine
 10
262.8374986980746
 20
1120.098847003024
 30
0.0
 11
262.8374986980746
 21
1142.498847003024
 31
0.0
  0
LINE
  5
A7E
330
1F
100
AcDbEntity
  8
HEWI
100
AcDbLine
 10
172.8374986980741
 20
1142.498847003024
 30
0.0
 11
177.8374986980741
 21
1142.498847003024
 31
0.0
  0
LINE
  5
A7F
330
1F
100
AcDbEntity
  8
HEWI
100
AcDbLine
 10
172.8374986980741
 20
1142.498847003024
 30
0.0
 11
172.8374986980741
 21
1120.098847003024
 31
0.0
  0
LINE
  5
A80
330
1F
100
AcDbEntity
  8
HEWI
100
AcDbLine
 10
177.8374986980741
 20
1142.498847003024
 30
0.0
 11
177.8374986980741
 21
1120.098847003024
 31
0.0
  0
LINE
  5
A81
330
1F
100
AcDbEntity
  8
HEWI
100
AcDbLine
 10
172.8374986980741
 20
1175.098847003024
 30
0.0
 11
172.8374986980741
 21
1171.598847003024
 31
0.0
  0
LINE
  5
A82
330
1F
100
AcDbEntity
  8
HEWI
100
AcDbLine
 10
177.8374986980741
 20
1175.098847003024
 30
0.0
 11
177.8374986980741
 21
1171.598847003024
 31
0.0
  0
LINE
  5
A83
330
1F
100
AcDbEntity
  8
HEWI
100
AcDbLine
 10
267.8374986980746
 20
1175.098847003024
 30
0.0
 11
267.8374986980746
 21
1171.598847003024
 31
0.0
  0
LINE
  5
A84
330
1F
100
AcDbEntity
  8
HEWI
100
AcDbLine
 10
262.8374986980746
 20
1171.598847003024
 30
0.0
 11
262.8374986980746
 21
1175.098847003024
 31
0.0
  0
LINE
  5
A85
330
1F
100
AcDbEntity
  8
HEWI
100
AcDbLine
 10
267.8374986980746
 20
1175.098847003024
 30
0.0
 11
262.8374986980746
 21
1175.098847003024
 31
0.0
  0
LINE
  5
A86
330
1F
100
AcDbEntity
  8
HEWI
100
AcDbLine
 10
177.8374986980741
 20
1175.098847003024
 30
0.0
 11
172.8374986980741
 21
1175.098847003024
 31
0.0
  0
LINE
  5
A87
330
1F
100
AcDbEntity
  8
HEWI
100
AcDbLine
 10
262.8374986980746
 20
1178.598847003024
 30
0.0
 11
267.8374986980746
 21
1178.598847003024
 31
0.0
  0
LINE
  5
A88
330
1F
100
AcDbEntity
  8
HEWI
100
AcDbLine
 10
267.8374986980746
 20
1175.098847003024
 30
0.0
 11
267.8374986980746
 21
1178.598847003024
 31
0.0
  0
LINE
  5
A89
330
1F
100
AcDbEntity
  8
HEWI
100
AcDbLine
 10
262.8374986980746
 20
1175.098847003024
 30
0.0
 11
262.8374986980746
 21
1178.598847003024
 31
0.0
  0
LINE
  5
A8A
330
1F
100
AcDbEntity
  8
HEWI
100
AcDbLine
 10
172.8374986980741
 20
1178.598847003024
 30
0.0
 11
177.8374986980741
 21
1178.598847003024
 31
0.0
  0
LINE
  5
A8B
330
1F
100
AcDbEntity
  8
HEWI
100
AcDbLine
 10
172.8374986980741
 20
1175.098847003024
 30
0.0
 11
172.8374986980741
 21
1178.598847003024
 31
0.0
  0
LINE
  5
A8C
330
1F
100
AcDbEntity
  8
HEWI
100
AcDbLine
 10
177.8374986980741
 20
1178.598847003024
 30
0.0
 11
177.8374986980741
 21
1175.098847003024
 31
0.0
  0
ARC
  5
B47
330
1F
100
AcDbEntity
  8
HEWI
100
AcDbCircle
 10
262.0374986980742
 20
1553.812383585244
 30
0.0
 40
0.3
100
AcDbArc
 50
0.0
 51
90.0
  0
ARC
  5
B48
330
1F
100
AcDbEntity
  8
HEWI
100
AcDbCircle
 10
262.0374986980742
 20
1509.412383585244
 30
0.0
 40
0.3
100
AcDbArc
 50
270.0
 51
0.0
  0
ARC
  5
B49
330
1F
100
AcDbEntity
  8
HEWI
100
AcDbCircle
 10
178.6374986980745
 20
1509.412383585244
 30
0.0
 40
0.3
100
AcDbArc
 50
180.0
 51
270.0
  0
ARC
  5
B4A
330
1F
100
AcDbEntity
  8
HEWI
100
AcDbCircle
 10
178.6374986980745
 20
1553.812383585244
 30
0.0
 40
0.3
100
AcDbArc
 50
90.0
 51
180.0
  0
CIRCLE
  5
B4B
330
1F
100
AcDbEntity
  8
HEWI
100
AcDbCircle
 10
-220.3374986980743
 20
1531.612383585244
 30
0.0
 40
16.85
210
0.0
220
0.0
230
-1.0
  0
CIRCLE
  5
B4C
330
1F
100
AcDbEntity
  8
HEWI
100
AcDbCircle
 10
220.3374986980743
 20
1531.612383585244
 30
0.0
 40
15.75
  0
CIRCLE
  5
B4D
330
1F
100
AcDbEntity
  8
HEWI
100
AcDbCircle
 10
-220.3374986980743
 20
1531.612383585244
 30
0.0
 40
16.75
210
0.0
220
0.0
230
-1.0
  0
ARC
  5
B4E
330
1F
100
AcDbEntity
  8
HEWI
100
AcDbCircle
 10
-220.3374986980743
 20
1531.612383585244
 30
0.0
 40
17.04999999999999
210
0.0
220
0.0
230
-1.0
100
AcDbArc
 50
251.1809369999971
 51
288.8190630000029
  0
ARC
  5
B4F
330
1F
100
AcDbEntity
  8
HEWI
100
AcDbCircle
 10
-227.6374986980745
 20
1516.204187585244
 30
0.0
 40
0.2
210
0.0
220
0.0
230
-1.0
100
AcDbArc
 50
64.64963000000564
 51
180.0
  0
ARC
  5
B50
330
1F
100
AcDbEntity
  8
HEWI
100
AcDbCircle
 10
-213.0374986980742
 20
1516.204187585244
 30
0.0
 40
0.2
210
0.0
220
0.0
230
-1.0
100
AcDbArc
 50
0.0
 51
115.3503699999943
  0
ARC
  5
B53
330
1F
100
AcDbEntity
  8
HEWI
100
AcDbCircle
 10
1445.946171777822
 20
1558.869173728005
 30
0.0
 40
1.0
100
AcDbArc
 50
0.0
 51
90.0
  0
ARC
  5
B54
330
1F
100
AcDbEntity
  8
HEWI
100
AcDbCircle
 10
1445.946171777822
 20
1527.369173728005
 30
0.0
 40
1.0
100
AcDbArc
 50
270.0
 51
0.0
  0
ARC
  5
B55
330
1F
100
AcDbEntity
  8
HEWI
100
AcDbCircle
 10
555.8461717778214
 20
1429.319173728005
 30
0.0
 40
0.5
100
AcDbArc
 50
180.0
 51
270.0
  0
ARC
  5
B56
330
1F
100
AcDbEntity
  8
HEWI
100
AcDbCircle
 10
555.8461717778214
 20
1452.319173728005
 30
0.0
 40
0.5
100
AcDbArc
 50
90.0
 51
180.0
  0
ARC
  5
B57
330
1F
100
AcDbEntity
  8
HEWI
100
AcDbCircle
 10
710.746171777821
 20
1429.819173728005
 30
0.0
 40
0.8
100
AcDbArc
 50
245.0166050000056
 51
270.0
  0
ARC
  5
B58
330
1F
100
AcDbEntity
  8
HEWI
100
AcDbCircle
 10
722.1461717778216
 20
1429.819173728005
 30
0.0
 40
0.8
100
AcDbArc
 50
270.0
 51
295.6430130000013
  0
ARC
  5
B59
330
1F
100
AcDbEntity
  8
HEWI
100
AcDbCircle
 10
1229.746171777821
 20
1429.819173728005
 30
0.0
 40
0.8
100
AcDbArc
 50
245.0166050000056
 51
270.0
  0
ARC
  5
B5A
330
1F
100
AcDbEntity
  8
HEWI
100
AcDbCircle
 10
1241.146171777822
 20
1429.819173728005
 30
0.0
 40
0.8
100
AcDbArc
 50
270.0
 51
295.6430130000013
  0
CIRCLE
  5
B5F
330
1F
100
AcDbEntity
  8
HEWI
100
AcDbCircle
 10
587.9461717778217
 20
1537.119173728005
 30
0.0
 40
1.149999999999999
  0
CIRCLE
  5
B60
330
1F
100
AcDbEntity
  8
HEWI
100
AcDbCircle
 10
-587.9461717778217
 20
1537.119173728005
 30
0.0
 40
1.45
210
0.0
220
0.0
230
-1.0
  0
CIRCLE
  5
B61
330
1F
100
AcDbEntity
  8
HEWI
100
AcDbCircle
 10
587.9461717778217
 20
1549.119173728005
 30
0.0
 40
1.149999999999999
  0
CIRCLE
  5
B62
330
1F
100
AcDbEntity
  8
HEWI
100
AcDbCircle
 10
-587.9461717778217
 20
1549.119173728005
 30
0.0
 40
1.45
210
0.0
220
0.0
230
-1.0
  0
ARC
  5
B68
330
1F
100
AcDbEntity
  8
HEWI
100
AcDbCircle
 10
-587.9461717778217
 20
1543.119173728005
 30
0.0
 40
4.891099999999998
210
0.0
220
0.0
230
-1.0
100
AcDbArc
 50
86.78250400000607
 51
93.22313999999279
  0
ARC
  5
B69
330
1F
100
AcDbEntity
  8
HEWI
100
AcDbCircle
 10
-587.9461717778217
 20
1543.119173728005
 30
0.0
 40
4.891099999999998
210
0.0
220
0.0
230
-1.0
100
AcDbArc
 50
266.7768790000021
 51
273.217515000001
  0
ARC
  5
B78
330
1F
100
AcDbEntity
  8
HEWI
100
AcDbCircle
 10
587.9461717778217
 20
1543.119173728005
 30
0.0
 40
5.5
100
AcDbArc
 50
78.558759999998
 51
101.446882000001
  0
ARC
  5
B79
330
1F
100
AcDbEntity
  8
HEWI
100
AcDbCircle
 10
587.9461717778217
 20
1543.119173728005
 30
0.0
 40
5.5
100
AcDbArc
 50
258.5531300000024
 51
281.4412520000065
  0
ARC
  5
B7F
330
1F
100
AcDbEntity
  8
HEWI
100
AcDbCircle
 10
587.9461717778217
 20
1543.119173728005
 30
0.0
 40
5.099999999999998
100
AcDbArc
 50
82.58062099999852
 51
97.42499199999992
  0
ARC
  5
B80
330
1F
100
AcDbEntity
  8
HEWI
100
AcDbCircle
 10
587.9461717778217
 20
1543.119173728005
 30
0.0
 40
5.099999999999998
100
AcDbArc
 50
262.5749980000063
 51
277.4193680000001
  0
CIRCLE
  5
B8D
330
1F
100
AcDbEntity
  8
HEWI
100
AcDbCircle
 10
-587.9461717778217
 20
1543.119173728005
 30
0.0
 40
21.0
210
0.0
220
0.0
230
-1.0
  0
CIRCLE
  5
B8E
330
1F
100
AcDbEntity
  8
HEWI
100
AcDbCircle
 10
587.9461717778217
 20
1543.119173728005
 30
0.0
 40
20.8
  0
ARC
  5
B8F
330
1F
100
AcDbEntity
  8
HEWI
100
AcDbCircle
 10
-587.9461717778217
 20
1543.119173728005
 30
0.0
 40
22.5
210
0.0
220
0.0
230
-1.0
100
AcDbArc
 50
84.59999900000147
 51
270.0
  0
ARC
  5
B90
330
1F
100
AcDbEntity
  8
HEWI
100
AcDbCircle
 10
-587.9461717778217
 20
1543.119173728005
 30
0.0
 40
22.5
210
0.0
220
0.0
230
-1.0
100
AcDbArc
 50
270.0
 51
275.4000020000023
  0
ARC
  5
B91
330
1F
100
AcDbEntity
  8
HEWI
100
AcDbCircle
 10
587.9461717778217
 20
1543.119173728005
 30
0.0
 40
22.4
100
AcDbArc
 50
270.0
 51
90.0
  0
ARC
  5
B92
330
1F
100
AcDbEntity
  8
HEWI
100
AcDbCircle
 10
-558.8461717778214
 20
1517.219173728005
 30
-0.0000000000000113
 40
3.5
210
0.0000000000000001
220
0.0
230
-1.0
100
AcDbArc
 50
0.0
 51
90.0
  0
ARC
  5
B93
330
1F
100
AcDbEntity
  8
HEWI
100
AcDbCircle
 10
-558.8461717778214
 20
1569.019173728005
 30
-0.0000000000000113
 40
3.5
210
0.0000000000000001
220
0.0
230
-1.0
100
AcDbArc
 50
270.0
 51
0.0
  0
ARC
  5
B94
330
1F
100
AcDbEntity
  8
HEWI
100
AcDbCircle
 10
551.8461717778214
 20
1392.619173728005
 30
0.0
 40
3.5
100
AcDbArc
 50
270.0
 51
0.0
  0
ARC
  5
B95
330
1F
100
AcDbEntity
  8
HEWI
100
AcDbCircle
 10
551.8461717778214
 20
1595.619173728005
 30
0.0
 40
3.5
100
AcDbArc
 50
0.0
 51
90.0
  0
ARC
  5
B96
330
1F
100
AcDbEntity
  8
HEWI
100
AcDbCircle
 10
236.0874986980746
 20
284.4988470030243
 30
0.0
 40
1.0
100
AcDbArc
 50
270.0
 51
0.0
  0
ARC
  5
B97
330
1F
100
AcDbEntity
  8
HEWI
100
AcDbCircle
 10
204.5874986980745
 20
284.4988470030243
 30
0.0
 40
1.0
100
AcDbArc
 50
180.0
 51
270.0
  0
ARC
  5
B98
330
1F
100
AcDbEntity
  8
HEWI
100
AcDbCircle
 10
208.8374986980745
 20
1174.598847003024
 30
0.0
 40
0.5
100
AcDbArc
 50
90.0
 51
180.0
  0
ARC
  5
B99
330
1F
100
AcDbEntity
  8
HEWI
100
AcDbCircle
 10
231.8374986980746
 20
1174.598847003024
 30
0.0
 40
0.5
100
AcDbArc
 50
0.0
 51
90.0
  0
ARC
  5
B9A
330
1F
100
AcDbEntity
  8
HEWI
100
AcDbCircle
 10
262.0374986980745
 20
1164.698847003024
 30
0.0
 40
0.3
100
AcDbArc
 50
0.0
 51
90.0
  0
ARC
  5
B9B
330
1F
100
AcDbEntity
  8
HEWI
100
AcDbCircle
 10
262.0374986980745
 20
1120.298847003024
 30
0.0
 40
0.3
100
AcDbArc
 50
270.0
 51
0.0
  0
ARC
  5
B9C
330
1F
100
AcDbEntity
  8
HEWI
100
AcDbCircle
 10
178.6374986980743
 20
1120.298847003024
 30
0.0
 40
0.3
100
AcDbArc
 50
180.0
 51
270.0
  0
ARC
  5
B9D
330
1F
100
AcDbEntity
  8
HEWI
100
AcDbCircle
 10
178.6374986980743
 20
1164.698847003024
 30
0.0
 40
0.3
100
AcDbArc
 50
90.0
 51
180.0
  0
ARC
  5
B9E
330
1F
100
AcDbEntity
  8
HEWI
100
AcDbCircle
 10
182.8374986980741
 20
1185.398847003024
 30
0.0
 40
10.0
100
AcDbArc
 50
90.0
 51
180.0
  0
ARC
  5
B9F
330
1F
100
AcDbEntity
  8
HEWI
100
AcDbCircle
 10
257.8374986980746
 20
1185.398847003024
 30
0.0
 40
10.0
100
AcDbArc
 50
0.0
 51
90.0
  0
ARC
  5
BA0
330
1F
100
AcDbEntity
  8
HEWI
100
AcDbCircle
 10
182.8374986980741
 20
1185.598847003024
 30
0.0
 40
10.0
100
AcDbArc
 50
90.0
 51
180.0
  0
ARC
  5
BA1
330
1F
100
AcDbEntity
  8
HEWI
100
AcDbCircle
 10
257.8374986980746
 20
1185.598847003024
 30
0.0
 40
10.0
100
AcDbArc
 50
0.0
 51
90.0
  0
ELLIPSE
  5
BA2
330
1F
100
AcDbEntity
  8
HEWI
100
AcDbEllipse
 10
736.2461717778209
 20
1452.216443728005
 30
0.0
 11
-0.2
 21
0.0
 31
0.0
210
0.0
220
0.0
230
1.0
 40
0.90136
 41
2.514698896745268
 42
3.141592653589792
  0
ELLIPSE
  5
BA3
330
1F
100
AcDbEntity
  8
HEWI
100
AcDbEllipse
 10
696.6461717778217
 20
1452.216443728005
 30
0.0
 11
-0.2
 21
0.0
 31
0.0
210
0.0
220
0.0
230
1.0
 40
0.90136
 41
0.0
 42
0.6599300405254423
  0
ELLIPSE
  5
BA4
330
1F
100
AcDbEntity
  8
HEWI
100
AcDbEllipse
 10
1255.246171777821
 20
1452.216443728005
 30
0.0
 11
-0.2
 21
0.0
 31
0.0
210
0.0
220
0.0
230
1.0
 40
0.90136
 41
2.514698896745268
 42
3.141592653589792
  0
ELLIPSE
  5
BA5
330
1F
100
AcDbEntity
  8
HEWI
100
AcDbEllipse
 10
1215.646171777821
 20
1452.216443728005
 30
0.0
 11
-0.2
 21
0.0
 31
0.0
210
0.0
220
0.0
230
1.0
 40
0.90136
 41
0.0
 42
0.6599300405254423
  0
SPLINE
  5
C37
330
1F
100
AcDbEntity
  8
HEWI
100
AcDbSpline
210
0.0
220
0.0
230
1.0
 70
     8
 71
     3
 72
    16
 73
    12
 74
     0
 42
0.000000001
 43
0.0000000001
 40
0.0
 40
0.0
 40
0.0
 40
0.0
 40
0.1945552639644181
 40
0.1945552639644181
 40
0.3878946385599309
 40
0.3878946385599309
 40
0.5892372746630532
 40
0.5892372746630532
 40
0.8080348914056749
 40
0.8080348914056749
 40
1.0
 40
1.0
 40
1.0
 40
1.0
 10
227.837506905098
 20
1516.20419159892
 30
0.0
 10
227.837488524463
 20
1516.204183710177
 30
0.0
 10
227.8036751074505
 20
1516.189671407487
 30
0.0
 10
227.6759073798362
 20
1516.135993368825
 30
0.0
 10
227.5808518022368
 20
1516.096423877249
 30
0.0
 10
227.3400094746221
 20
1515.999449729664
 30
0.0
 10
227.1893725511063
 20
1515.940270058265
 30
0.0
 10
226.8410986231261
 20
1515.809464384966
 30
0.0
 10
226.6358512771112
 20
1515.735518786084
 30
0.0
 10
226.2339550816732
 20
1515.598857566344
 30
0.0
 10
226.0352513462162
 20
1515.534497530915
 30
0.0
 10
225.8374977147805
 20
1515.473842699345
 30
0.0
  0
SPLINE
  5
C38
330
1F
100
AcDbEntity
  8
HEWI
100
AcDbSpline
210
0.0
220
0.0
230
1.0
 70
     8
 71
     3
 72
    16
 73
    12
 74
     0
 42
0.000000001
 43
0.0000000001
 40
0.0
 40
0.0
 40
0.0
 40
0.0
 40
0.2320133565498035
 40
0.2320133565498035
 40
0.464168575931434
 40
0.464168575931434
 40
0.6954789313312828
 40
0.6954789313312828
 40
0.9117015930972556
 40
0.9117015930972556
 40
1.0
 40
1.0
 40
1.0
 40
1.0
 10
214.8374977147805
 20
1515.473842699345
 30
0.0
 10
214.5994240395244
 20
1515.546864461671
 30
0.0
 10
214.3594624006328
 20
1515.625493881312
 30
0.0
 10
213.9156362585686
 20
1515.779394507718
 30
0.0
 10
213.7052929969723
 20
1515.856859383809
 30
0.0
 10
213.3450480976271
 20
1515.994958993771
 30
0.0
 10
213.1894569067049
 20
1516.057646658569
 30
0.0
 10
212.9670366923037
 20
1516.149125045147
 30
0.0
 10
212.8920238883729
 20
1516.180997442822
 30
0.0
 10
212.8446695728171
 20
1516.201125071682
 30
0.0
 10
212.8375805970045
 20
1516.204152260655
 30
0.0
 10
212.8375069438216
 20
1516.20418371324
 30
0.0
  0
SPLINE
  5
C3C
330
1F
100
AcDbEntity
  8
HEWI
100
AcDbSpline
210
0.0
220
0.0
230
1.0
 70
     8
 71
     3
 72
    12
 73
     8
 74
     0
 42
0.000000001
 43
0.0000000001
 40
0.0
 40
0.0
 40
0.0
 40
0.0
 40
0.3456277780081103
 40
0.3456277780081103
 40
0.6912555560162207
 40
0.6912555560162207
 40
1.0
 40
1.0
 40
1.0
 40
1.0
 10
203.3374976985697
 20
1531.612383526828
 30
0.0
 10
203.3374976985697
 20
1529.253946300142
 30
0.0
 10
203.8362531807579
 20
1526.95257869139
 30
0.0
 10
205.6036123730096
 20
1522.842122700933
 30
0.0
 10
206.8653354864896
 20
1521.027479186993
 30
0.0
 10
209.7325404956464
 20
1518.190121971407
 30
0.0
 10
211.2810548351685
 20
1517.093594320753
 30
0.0
 10
213.0287583978879
 20
1516.263302384522
 30
0.0
  0
SPLINE
  5
C3D
330
1F
100
AcDbEntity
  8
HEWI
100
AcDbSpline
210
0.0
220
0.0
230
1.0
 70
     8
 71
     3
 72
     8
 73
     4
 74
     0
 42
0.000000001
 43
0.0000000001
 40
0.0
 40
0.0
 40
0.0
 40
0.0
 40
1.0
 40
1.0
 40
1.0
 40
1.0
 10
227.0916579439245
 20
1516.011684841276
 30
0.0
 10
227.2637228878461
 20
1516.086137684621
 30
0.0
 10
227.4339618606623
 20
1516.163101924896
 30
0.0
 10
227.602371395229
 20
1516.242547986441
 30
0.0
  0
SPLINE
  5
C3E
330
1F
100
AcDbEntity
  8
HEWI
100
AcDbSpline
210
0.0
220
0.0
230
1.0
 70
     8
 71
     3
 72
    22
 73
    18
 74
     0
 42
0.000000001
 43
0.0000000001
 40
0.0
 40
0.0
 40
0.0
 40
0.0
 40
0.1261546713333348
 40
0.1261546713333348
 40
0.271709779130951
 40
0.271709779130951
 40
0.4172648869285673
 40
0.4172648869285673
 40
0.5628199947261832
 40
0.5628199947261832
 40
0.7083751025237994
 40
0.7083751025237994
 40
0.8539302103214152
 40
0.8539302103214152
 40
0.9994853181190311
 40
0.9994853181190311
 40
1.0
 40
1.0
 40
1.0
 40
1.0
 10
227.7579820845863
 20
1516.31691379939
 30
0.0
 10
229.4487413292531
 20
1517.135386946236
 30
0.0
 10
230.952494598404
 20
1518.206470698611
 30
0.0
 10
233.7807716656957
 20
1520.991645920337
 30
0.0
 10
235.0460617096492
 20
1522.800027025035
 30
0.0
 10
236.8245201641725
 20
1526.903076507595
 30
0.0
 10
237.3294605996389
 20
1529.224294891692
 30
0.0
 10
237.3453374917694
 20
1533.884641463206
 30
0.0
 10
236.8528303215285
 20
1536.228261079515
 30
0.0
 10
235.0833600975211
 20
1540.36578739844
 30
0.0
 10
233.8206198425005
 20
1542.18307514602
 30
0.0
 10
230.7969121690208
 20
1545.182009645168
 30
0.0
 10
229.022372513517
 20
1546.387424275797
 30
0.0
 10
225.0236096139806
 20
1548.09780844708
 30
0.0
 10
222.7015042352304
 20
1548.608951450131
 30
0.0
 10
220.3540371767149
 20
1548.612377493343
 30
0.0
 10
220.3457663585241
 20
1548.612383347676
 30
0.0
 10
220.3374961125119
 20
1548.612382990603
 30
0.0
  0
SPLINE
  5
C3F
330
1F
100
AcDbEntity
  8
HEWI
100
AcDbSpline
210
0.0
220
0.0
230
1.0
 70
     8
 71
     3
 72
    14
 73
    10
 74
     0
 42
0.000000001
 43
0.0000000001
 40
0.0
 40
0.0
 40
0.0
 40
0.0
 40
0.2493364146684839
 40
0.2493364146684839
 40
0.4995576097789893
 40
0.4995576097789893
 40
0.7497788048894947
 40
0.7497788048894947
 40
1.0
 40
1.0
 40
1.0
 40
1.0
 10
220.3374961130403
 20
1548.612382990603
 30
0.0
 10
218.0068914259564
 20
1548.612282365523
 30
0.0
 10
215.7217260800075
 20
1548.11890541061
 30
0.0
 10
211.6918399368642
 20
1546.412962289136
 30
0.0
 10
209.9285585456696
 20
1545.22250505373
 30
0.0
 10
206.8796805071811
 20
1542.217503927323
 30
0.0
 10
205.6355792140084
 20
1540.441826100422
 30
0.0
 10
203.839651235684
 20
1536.294960314679
 30
0.0
 10
203.3374976985697
 20
1533.970820753514
 30
0.0
 10
203.3374976985697
 20
1531.612383526828
 30
0.0
  0
SPLINE
  5
C40
330
1F
100
AcDbEntity
  8
HEWI
100
AcDbSpline
210
0.0000000000000016
220
0.0000000000000091
230
1.0
 70
     8
 71
     3
 72
    10
 73
     6
 74
     0
 42
0.000000001
 43
0.0000000001
 40
0.0
 40
0.0
 40
0.0
 40
0.0
 40
0.0691533484577913
 40
0.5486690255593603
 40
1.0
 40
1.0
 40
1.0
 40
1.0
 10
1254.691774893298
 20
1527.690787286521
 30
-0.0000000000000002
 10
1254.671871186009
 20
1527.701420531254
 30
-0.0000000000000002
 10
1254.508726012962
 20
1527.782607107627
 30
-0.0000000000000002
 10
1254.069749109274
 20
1527.875582405024
 30
-0.0000000000000004
 10
1253.66108599904
 20
1527.905858688515
 30
-0.0000000000000004
 10
1253.445057164088
 20
1527.904865849874
 30
-0.0000000000000004
  0
SPLINE
  5
C41
330
1F
100
AcDbEntity
  8
HEWI
100
AcDbSpline
210
0.0000000000000016
220
0.0000000000000091
230
1.0
 70
     8
 71
     3
 72
    10
 73
     6
 74
     0
 42
0.000000001
 43
0.0000000001
 40
0.0
 40
0.0
 40
0.0
 40
0.0
 40
0.0691533484577913
 40
0.5486690255593603
 40
1.0
 40
1.0
 40
1.0
 40
1.0
 10
1254.691774893298
 20
1527.690787286521
 30
-0.0000000000000002
 10
1254.671871186009
 20
1527.701420531254
 30
-0.0000000000000002
 10
1254.508726012962
 20
1527.782607107627
 30
-0.0000000000000002
 10
1254.069749109274
 20
1527.875582405024
 30
-0.0000000000000004
 10
1253.66108599904
 20
1527.905858688515
 30
-0.0000000000000004
 10
1253.445057164088
 20
1527.904865849874
 30
-0.0000000000000004
  0
SPLINE
  5
C42
330
1F
100
AcDbEntity
  8
HEWI
100
AcDbSpline
210
0.0
220
0.0
230
1.0
 70
     8
 71
     3
 72
    11
 73
     7
 74
     0
 42
0.000000001
 43
0.0000000001
 40
0.0
 40
0.0
 40
0.0
 40
0.0
 40
0.0085407042298158
 40
0.294495578516009
 40
0.6285837272446312
 40
1.0
 40
1.0
 40
1.0
 40
1.0
 10
1255.443971727722
 20
1526.981232906142
 30
-0.0000000000000002
 10
1255.444720396764
 20
1526.983874069551
 30
-0.0000000000000002
 10
1255.469307919851
 20
1527.074790361509
 30
-0.0000000000000002
 10
1255.358156857775
 20
1527.271386434436
 30
-0.0000000000000002
 10
1255.133405684128
 20
1527.496004762344
 30
-0.0000000000000002
 10
1254.860361070801
 20
1527.63073986249
 30
-0.0000000000000002
 10
1254.691774893298
 20
1527.690787286521
 30
-0.0000000000000002
  0
SPLINE
  5
C43
330
1F
100
AcDbEntity
  8
HEWI
100
AcDbSpline
210
0.0
220
0.0
230
1.0
 70
     8
 71
     3
 72
    12
 73
     8
 74
     0
 42
0.000000001
 43
0.0000000001
 40
0.0
 40
0.0
 40
0.0
 40
0.0
 40
0.129584674490289
 40
0.3660981216981058
 40
0.6122957521584437
 40
0.8793126725148667
 40
1.0
 40
1.0
 40
1.0
 40
1.0
 10
1217.177590324242
 20
1527.888160519589
 30
0.0
 10
1217.051305131237
 20
1527.885112683551
 30
0.0
 10
1216.710847222819
 20
1527.860558946039
 30
0.0
 10
1216.201482130488
 20
1527.718220424974
 30
0.0
 10
1215.744905901804
 20
1527.487137745947
 30
0.0
 10
1215.47840224839
 20
1527.24451365671
 30
0.0
 10
1215.463499649451
 20
1527.044279861846
 30
0.0
 10
1215.469541120521
 20
1526.978112383031
 30
0.0
  0
SPLINE
  5
C44
330
1F
100
AcDbEntity
  8
HEWI
100
AcDbSpline
210
0.0000000000000014
220
0.0000000000000082
230
1.0
 70
     8
 71
     3
 72
    10
 73
     6
 74
     0
 42
0.000000001
 43
0.0000000001
 40
0.0
 40
0.0
 40
0.0
 40
0.0
 40
0.0691533484577662
 40
0.5486690255593675
 40
1.0
 40
1.0
 40
1.0
 40
1.0
 10
735.6917748932978
 20
1527.690787286521
 30
0.0
 10
735.6718711860089
 20
1527.701420531254
 30
0.0
 10
735.5087260129626
 20
1527.782607107628
 30
-0.0000000000000002
 10
735.0697491092746
 20
1527.875582405024
 30
-0.0000000000000002
 10
734.66108599904
 20
1527.905858688515
 30
-0.0000000000000002
 10
734.4450571640885
 20
1527.904865849874
 30
-0.0000000000000002
  0
SPLINE
  5
C45
330
1F
100
AcDbEntity
  8
HEWI
100
AcDbSpline
210
0.0000000000000014
220
0.0000000000000082
230
1.0
 70
     8
 71
     3
 72
    10
 73
     6
 74
     0
 42
0.000000001
 43
0.0000000001
 40
0.0
 40
0.0
 40
0.0
 40
0.0
 40
0.0691533484577662
 40
0.5486690255593675
 40
1.0
 40
1.0
 40
1.0
 40
1.0
 10
735.6917748932978
 20
1527.690787286521
 30
0.0
 10
735.6718711860089
 20
1527.701420531254
 30
0.0
 10
735.5087260129626
 20
1527.782607107628
 30
-0.0000000000000002
 10
735.0697491092746
 20
1527.875582405024
 30
-0.0000000000000002
 10
734.66108599904
 20
1527.905858688515
 30
-0.0000000000000002
 10
734.4450571640885
 20
1527.904865849874
 30
-0.0000000000000002
  0
SPLINE
  5
C46
330
1F
100
AcDbEntity
  8
HEWI
100
AcDbSpline
210
0.0
220
0.0
230
1.0
 70
     8
 71
     3
 72
    11
 73
     7
 74
     0
 42
0.000000001
 43
0.0000000001
 40
0.0
 40
0.0
 40
0.0
 40
0.0
 40
0.0085407042298183
 40
0.2944955785160063
 40
0.6285837272446198
 40
1.0
 40
1.0
 40
1.0
 40
1.0
 10
736.4439717277223
 20
1526.981232906142
 30
0.0
 10
736.4447203967633
 20
1526.983874069551
 30
0.0
 10
736.4693079198501
 20
1527.074790361509
 30
0.0
 10
736.3581568577751
 20
1527.271386434436
 30
0.0
 10
736.1334056841273
 20
1527.496004762344
 30
0.0
 10
735.8603610708009
 20
1527.63073986249
 30
0.0
 10
735.6917748932978
 20
1527.690787286521
 30
0.0
  0
SPLINE
  5
C47
330
1F
100
AcDbEntity
  8
HEWI
100
AcDbSpline
210
0.0
220
0.0
230
1.0
 70
     8
 71
     3
 72
    12
 73
     8
 74
     0
 42
0.000000001
 43
0.0000000001
 40
0.0
 40
0.0
 40
0.0
 40
0.0
 40
0.1295846744902901
 40
0.3660981216981005
 40
0.6122957521584405
 40
0.8793126725148658
 40
1.0
 40
1.0
 40
1.0
 40
1.0
 10
698.1775903242419
 20
1527.888160519589
 30
0.0000000000000002
 10
698.0513051312367
 20
1527.885112683551
 30
0.0000000000000002
 10
697.7108472228187
 20
1527.860558946039
 30
0.0000000000000002
 10
697.201482130487
 20
1527.718220424974
 30
0.0000000000000002
 10
696.7449059018048
 20
1527.487137745947
 30
0.0000000000000002
 10
696.4784022483894
 20
1527.24451365671
 30
0.0000000000000002
 10
696.4634996494519
 20
1527.044279861846
 30
0.0000000000000002
 10
696.4695411205217
 20
1526.978112383031
 30
0.0000000000000002
  0
SPLINE
  5
C48
330
1F
100
AcDbEntity
  8
HEWI
100
AcDbSpline
210
0.0000000000000015
220
-0.0000000000000034
230
1.0
 70
     8
 71
     3
 72
    16
 73
    12
 74
     0
 42
0.000000001
 43
0.0000000001
 40
0.0
 40
0.0
 40
0.0
 40
0.0
 40
0.0127710530080071
 40
0.0127710530080071
 40
0.298714081222836
 40
0.298714081222836
 40
0.5432081856598872
 40
0.5432081856598872
 40
0.7705827780638037
 40
0.7705827780638037
 40
1.0
 40
1.0
 40
1.0
 40
1.0
 10
736.1367117201439
 20
1451.723092557455
 30
0.0
 10
736.133667792717
 20
1451.718585366894
 30
0.0
 10
736.1305631044411
 20
1451.714080726685
 30
0.0
 10
736.0563721824988
 20
1451.608566228314
 30
0.0
 10
735.9533441509106
 20
1451.506721085021
 30
0.0
 10
735.7123229446046
 20
1451.333105137088
 30
0.0
 10
735.5791192701238
 20
1451.257539506046
 30
-0.0000000000000002
 10
735.2901615066562
 20
1451.134834392797
 30
-0.0000000000000002
 10
735.133500920841
 20
1451.084986936481
 30
-0.0000000000000002
 10
734.8021807222834
 20
1451.016634411838
 30
-0.0000000000000002
 10
734.6229746030579
 20
1450.99782016973
 30
-0.0000000000000002
 10
734.4461715964375
 20
1450.99782016973
 30
-0.0000000000000002
  0
SPLINE
  5
C49
330
1F
100
AcDbEntity
  8
HEWI
100
AcDbSpline
210
0.0000000000000007
220
0.0000000000000021
230
1.0
 70
     8
 71
     3
 72
    16
 73
    12
 74
     0
 42
0.000000001
 43
0.0000000001
 40
0.0
 40
0.0
 40
0.0
 40
0.0
 40
0.2318639328501264
 40
0.2318639328501264
 40
0.4638696371680758
 40
0.4638696371680758
 40
0.6950310216224952
 40
0.6950310216224952
 40
0.9111144293793211
 40
0.9111144293793211
 40
1.0
 40
1.0
 40
1.0
 40
1.0
 10
736.4461715964377
 20
1526.980632842106
 30
0.0
 10
736.4461715964377
 20
1527.053654604433
 30
0.0
 10
736.4025904698104
 20
1527.132284024073
 30
0.0
 10
736.2367900919366
 20
1527.28618465048
 30
0.0
 10
736.1121214401522
 20
1527.363649526571
 30
0.0
 10
735.7986966874292
 20
1527.501749136532
 30
0.0
 10
735.6051375369637
 20
1527.56443680133
 30
0.0
 10
735.189938810498
 20
1527.655915187908
 30
-0.0000000000000002
 10
734.9645319908136
 20
1527.687787585582
 30
-0.0000000000000002
 10
734.6399707567674
 20
1527.70795824169
 30
-0.0000000000000002
 10
734.5429231430066
 20
1527.71097779731
 30
-0.0000000000000002
 10
734.4461715964375
 20
1527.71097779731
 30
-0.0000000000000002
  0
SPLINE
  5
C4A
330
1F
100
AcDbEntity
  8
HEWI
100
AcDbSpline
210
0.0000000000000007
220
-0.0000000000000015
230
1.0
 70
     8
 71
     3
 72
    16
 73
    12
 74
     0
 42
0.000000001
 43
0.0000000001
 40
0.0
 40
0.0
 40
0.0
 40
0.0
 40
0.1771404143545236
 40
0.1771404143545236
 40
0.3522186943510297
 40
0.3522186943510297
 40
0.539954319336339
 40
0.539954319336339
 40
0.7594025013289695
 40
0.7594025013289695
 40
1.0
 40
1.0
 40
1.0
 40
1.0
 10
734.4461715964375
 20
1451.161478513752
 30
-0.0000000000000002
 10
734.6425234061885
 20
1451.161478513752
 30
-0.0000000000000002
 10
734.8414919861867
 20
1451.180547508312
 30
-0.0000000000000002
 10
735.2095710984907
 20
1451.249983403262
 30
-0.0000000000000002
 10
735.3836778056924
 20
1451.300583868182
 30
-0.0000000000000002
 10
735.704795242736
 20
1451.425272942182
 30
0.0
 10
735.8529135049752
 20
1451.502066834775
 30
0.0
 10
736.1208279448931
 20
1451.678535133636
 30
0.0
 10
736.2353499058704
 20
1451.782083051289
 30
0.0
 10
736.4004595176078
 20
1451.996801788418
 30
0.0
 10
736.4461715964377
 20
1452.110770853377
 30
0.0
 10
736.4461715964377
 20
1452.216444085343
 30
0.0
  0
SPLINE
  5
C4B
330
1F
100
AcDbEntity
  8
HEWI
100
AcDbSpline
210
0.0
220
0.0
230
1.0
 70
     8
 71
     3
 72
    16
 73
    12
 74
     0
 42
0.000000001
 43
0.0000000001
 40
0.0
 40
0.0
 40
0.0
 40
0.0
 40
0.1945552639644179
 40
0.1945552639644179
 40
0.3878946385599321
 40
0.3878946385599321
 40
0.5892372746630514
 40
0.5892372746630514
 40
0.8080348914056751
 40
0.8080348914056751
 40
1.0
 40
1.0
 40
1.0
 40
1.0
 10
698.4461715964377
 20
1527.71097779731
 30
0.0000000000000002
 10
698.2371543884578
 20
1527.71097779731
 30
0.0000000000000002
 10
698.0253264459657
 20
1527.696461550249
 30
0.0000000000000002
 10
697.6320598921661
 20
1527.642783511586
 30
0.0000000000000002
 10
697.4453195079473
 20
1527.603214020009
 30
0.0000000000000002
 10
697.1094125745033
 20
1527.506239872425
 30
0.0000000000000002
 10
696.9577450752828
 20
1527.447060201026
 30
0.0000000000000002
 10
696.7016356277695
 20
1527.316254527727
 30
0.0000000000000002
 10
696.5988486076898
 20
1527.242308928846
 30
0.0000000000000002
 10
696.4760154548262
 20
1527.105647709105
 30
0.0000000000000002
 10
696.4461715964375
 20
1527.041287673676
 30
0.0000000000000002
 10
696.4461715964375
 20
1526.980632842106
 30
0.0000000000000002
  0
SPLINE
  5
C4C
330
1F
100
AcDbEntity
  8
HEWI
100
AcDbSpline
210
0.0
220
0.0
230
1.0
 70
     8
 71
     3
 72
    16
 73
    12
 74
     0
 42
0.000000001
 43
0.0000000001
 40
0.0
 40
0.0
 40
0.0
 40
0.0
 40
0.2481016251448624
 40
0.2481016251448624
 40
0.4963851440995061
 40
0.4963851440995061
 40
0.7438538839225557
 40
0.7438538839225557
 40
0.9181884979193776
 40
0.9181884979193776
 40
1.0
 40
1.0
 40
1.0
 40
1.0
 10
696.4461715964375
 20
1452.216444085343
 30
0.0000000000000002
 10
696.4461715964375
 20
1452.107456123327
 30
0.0000000000000002
 10
696.4948550936237
 20
1451.989578089126
 30
0.0000000000000002
 10
696.6781899944931
 20
1451.758204662897
 30
0.0000000000000002
 10
696.8156332752527
 20
1451.641201615372
 30
0.0000000000000002
 10
697.1630477692865
 20
1451.433479816703
 30
0.0000000000000002
 10
697.379425324561
 20
1451.339266688294
 30
0.0000000000000002
 10
697.7917908124295
 20
1451.224929310718
 30
0.0000000000000002
 10
697.9798539092776
 20
1451.190196417928
 30
0.0000000000000002
 10
698.2619547096077
 20
1451.165528748739
 30
0.0000000000000002
 10
698.3542118612098
 20
1451.161478513752
 30
0.0000000000000002
 10
698.4461715964377
 20
1451.161478513752
 30
0.0000000000000002
  0
SPLINE
  5
C4D
330
1F
100
AcDbEntity
  8
HEWI
100
AcDbSpline
210
0.0
220
0.0
230
1.0
 70
     8
 71
     3
 72
    16
 73
    12
 74
     0
 42
0.000000001
 43
0.0000000001
 40
0.0
 40
0.0
 40
0.0
 40
0.0
 40
0.1053123592843669
 40
0.1053123592843669
 40
0.3301327988397534
 40
0.3301327988397534
 40
0.6504275187068417
 40
0.6504275187068417
 40
0.9722491720567552
 40
0.9722491720567552
 40
1.0
 40
1.0
 40
1.0
 40
1.0
 10
698.4461715964377
 20
1450.99782016973
 30
0.0000000000000002
 10
698.3633986554191
 20
1450.99782016973
 30
0.0000000000000002
 10
698.2803498226282
 20
1451.00180916288
 30
0.0000000000000002
 10
698.0262748961763
 20
1451.026105980206
 30
0.0000000000000002
 10
697.8569668828781
 20
1451.060351189767
 30
0.0000000000000002
 10
697.4856430616513
 20
1451.172947072497
 30
0.0000000000000002
 10
697.2911286820749
 20
1451.265689341105
 30
0.0000000000000002
 10
696.9786711020419
 20
1451.469999042397
 30
0.0000000000000002
 10
696.8550557610337
 20
1451.585055748533
 30
0.0000000000000002
 10
696.7653445800792
 20
1451.708872294915
 30
0.0000000000000002
 10
696.7585088867048
 20
1451.718720700452
 30
0.0000000000000002
 10
696.751964001844
 20
1451.728579715353
 30
0.0000000000000002
  0
SPLINE
  5
C4E
330
1F
100
AcDbEntity
  8
HEWI
100
AcDbSpline
210
0.0
220
0.0
230
1.0
 70
     8
 71
     3
 72
     8
 73
     4
 74
     0
 42
0.000000001
 43
0.0000000001
 40
0.0
 40
0.0
 40
0.0
 40
0.0
 40
1.0
 40
1.0
 40
1.0
 40
1.0
 10
698.1873342103723
 20
1527.882872119612
 30
0.0000000000000002
 10
698.2731274119046
 20
1527.888701517306
 30
0.0000000000000002
 10
698.3599171064038
 20
1527.89171909785
 30
0.0000000000000002
 10
698.4461715964377
 20
1527.89171909785
 30
0.0000000000000002
  0
SPLINE
  5
C4F
330
1F
100
AcDbEntity
  8
HEWI
100
AcDbSpline
210
-0.0000000000000007
220
0.0000000000000015
230
-1.0
 70
     8
 71
     3
 72
    16
 73
    12
 74
     0
 42
0.000000001
 43
0.0000000001
 40
0.0
 40
0.0
 40
0.0
 40
0.0
 40
0.1771404143545236
 40
0.1771404143545236
 40
0.3522186943510297
 40
0.3522186943510297
 40
0.539954319336339
 40
0.539954319336339
 40
0.7594025013289695
 40
0.7594025013289695
 40
1.0
 40
1.0
 40
1.0
 40
1.0
 10
1253.446171596438
 20
1451.161478513752
 30
-0.0000000000000004
 10
1253.642523406188
 20
1451.161478513752
 30
-0.0000000000000004
 10
1253.841491986186
 20
1451.180547508312
 30
-0.0000000000000004
 10
1254.209571098491
 20
1451.249983403262
 30
-0.0000000000000004
 10
1254.383677805692
 20
1451.300583868182
 30
-0.0000000000000004
 10
1254.704795242736
 20
1451.425272942182
 30
-0.0000000000000002
 10
1254.852913504976
 20
1451.502066834775
 30
-0.0000000000000002
 10
1255.120827944893
 20
1451.678535133636
 30
-0.0000000000000002
 10
1255.235349905871
 20
1451.782083051289
 30
-0.0000000000000002
 10
1255.400459517608
 20
1451.996801788418
 30
-0.0000000000000002
 10
1255.446171596437
 20
1452.110770853377
 30
-0.0000000000000002
 10
1255.446171596437
 20
1452.216444085342
 30
-0.0000000000000002
  0
SPLINE
  5
C50
330
1F
100
AcDbEntity
  8
HEWI
100
AcDbSpline
210
0.0000000000000014
220
-0.0000000000000032
230
1.0
 70
     8
 71
     3
 72
    16
 73
    12
 74
     0
 42
0.000000001
 43
0.0000000001
 40
0.0
 40
0.0
 40
0.0
 40
0.0
 40
0.012771053008153
 40
0.012771053008153
 40
0.2987140812229396
 40
0.2987140812229396
 40
0.5432081856599547
 40
0.5432081856599547
 40
0.7705827780638374
 40
0.7705827780638374
 40
1.0
 40
1.0
 40
1.0
 40
1.0
 10
1255.136711720144
 20
1451.723092557455
 30
-0.0000000000000002
 10
1255.133667792717
 20
1451.718585366894
 30
-0.0000000000000002
 10
1255.130563104441
 20
1451.714080726685
 30
-0.0000000000000002
 10
1255.056372182498
 20
1451.608566228314
 30
-0.0000000000000002
 10
1254.953344150911
 20
1451.506721085021
 30
-0.0000000000000002
 10
1254.712322944605
 20
1451.333105137088
 30
-0.0000000000000002
 10
1254.579119270124
 20
1451.257539506046
 30
-0.0000000000000002
 10
1254.290161506656
 20
1451.134834392797
 30
-0.0000000000000004
 10
1254.133500920842
 20
1451.084986936481
 30
-0.0000000000000004
 10
1253.802180722283
 20
1451.016634411838
 30
-0.0000000000000004
 10
1253.622974603058
 20
1450.99782016973
 30
-0.0000000000000004
 10
1253.446171596438
 20
1450.99782016973
 30
-0.0000000000000004
  0
SPLINE
  5
C51
330
1F
100
AcDbEntity
  8
HEWI
100
AcDbSpline
210
0.0
220
0.0
230
1.0
 70
     8
 71
     3
 72
    16
 73
    12
 74
     0
 42
0.000000001
 43
0.0000000001
 40
0.0
 40
0.0
 40
0.0
 40
0.0
 40
0.1053123592843732
 40
0.1053123592843732
 40
0.3301327988397731
 40
0.3301327988397731
 40
0.6504275187068807
 40
0.6504275187068807
 40
0.9722491720568131
 40
0.9722491720568131
 40
1.0
 40
1.0
 40
1.0
 40
1.0
 10
1217.446171596437
 20
1450.99782016973
 30
0.0
 10
1217.363398655419
 20
1450.99782016973
 30
0.0
 10
1217.280349822628
 20
1451.00180916288
 30
0.0
 10
1217.026274896176
 20
1451.026105980206
 30
0.0
 10
1216.856966882878
 20
1451.060351189767
 30
0.0
 10
1216.485643061651
 20
1451.172947072497
 30
0.0
 10
1216.291128682075
 20
1451.265689341105
 30
0.0
 10
1215.978671102043
 20
1451.469999042397
 30
0.0
 10
1215.855055761035
 20
1451.585055748533
 30
0.0
 10
1215.765344580079
 20
1451.708872294915
 30
0.0
 10
1215.758508886704
 20
1451.718720700452
 30
0.0
 10
1215.751964001845
 20
1451.728579715353
 30
0.0
  0
SPLINE
  5
C52
330
1F
100
AcDbEntity
  8
HEWI
100
AcDbSpline
210
0.0
220
0.0
230
1.0
 70
     8
 71
     3
 72
    16
 73
    12
 74
     0
 42
0.000000001
 43
0.0000000001
 40
0.0
 40
0.0
 40
0.0
 40
0.0
 40
0.1945552639644179
 40
0.1945552639644179
 40
0.3878946385599321
 40
0.3878946385599321
 40
0.5892372746630514
 40
0.5892372746630514
 40
0.8080348914056751
 40
0.8080348914056751
 40
1.0
 40
1.0
 40
1.0
 40
1.0
 10
1217.446171596437
 20
1527.71097779731
 30
0.0
 10
1217.237154388459
 20
1527.71097779731
 30
0.0
 10
1217.025326445966
 20
1527.696461550249
 30
0.0
 10
1216.632059892167
 20
1527.642783511586
 30
0.0
 10
1216.445319507948
 20
1527.603214020009
 30
0.0
 10
1216.109412574504
 20
1527.506239872425
 30
0.0
 10
1215.957745075282
 20
1527.447060201026
 30
0.0
 10
1215.701635627769
 20
1527.316254527727
 30
0.0
 10
1215.59884860769
 20
1527.242308928846
 30
0.0
 10
1215.476015454826
 20
1527.105647709105
 30
0.0
 10
1215.446171596437
 20
1527.041287673676
 30
0.0
 10
1215.446171596437
 20
1526.980632842106
 30
0.0
  0
SPLINE
  5
C53
330
1F
100
AcDbEntity
  8
HEWI
100
AcDbSpline
210
0.0
220
0.0
230
1.0
 70
     8
 71
     3
 72
    16
 73
    12
 74
     0
 42
0.000000001
 43
0.0000000001
 40
0.0
 40
0.0
 40
0.0
 40
0.0
 40
0.2481016251448624
 40
0.2481016251448624
 40
0.4963851440995061
 40
0.4963851440995061
 40
0.7438538839225557
 40
0.7438538839225557
 40
0.9181884979193776
 40
0.9181884979193776
 40
1.0
 40
1.0
 40
1.0
 40
1.0
 10
1215.446171596437
 20
1452.216444085342
 30
0.0
 10
1215.446171596437
 20
1452.107456123327
 30
0.0
 10
1215.494855093625
 20
1451.989578089126
 30
0.0
 10
1215.678189994493
 20
1451.758204662897
 30
0.0
 10
1215.815633275254
 20
1451.641201615372
 30
0.0
 10
1216.163047769286
 20
1451.433479816703
 30
0.0
 10
1216.379425324561
 20
1451.339266688294
 30
0.0
 10
1216.791790812429
 20
1451.224929310718
 30
0.0
 10
1216.979853909277
 20
1451.190196417928
 30
0.0
 10
1217.261954709608
 20
1451.165528748739
 30
0.0
 10
1217.35421186121
 20
1451.161478513752
 30
0.0
 10
1217.446171596437
 20
1451.161478513752
 30
0.0
  0
SPLINE
  5
C54
330
1F
100
AcDbEntity
  8
HEWI
100
AcDbSpline
210
0.0
220
0.0
230
1.0
 70
     8
 71
     3
 72
     8
 73
     4
 74
     0
 42
0.000000001
 43
0.0000000001
 40
0.0
 40
0.0
 40
0.0
 40
0.0
 40
1.0
 40
1.0
 40
1.0
 40
1.0
 10
1217.187334210372
 20
1527.882872119612
 30
0.0
 10
1217.273127411905
 20
1527.888701517306
 30
0.0
 10
1217.359917106405
 20
1527.89171909785
 30
0.0
 10
1217.446171596437
 20
1527.89171909785
 30
0.0
  0
SPLINE
  5
C5E
330
1F
100
AcDbEntity
  8
HEWI
100
AcDbSpline
210
0.0
220
-0.0000000000000001
230
1.0
 70
     8
 71
     3
 72
    14
 73
    10
 74
     0
 42
0.000000001
 43
0.0000000001
 40
0.0
 40
0.0
 40
0.0
 40
0.0
 40
0.2499087050623483
 40
0.2499087050623483
 40
0.4999391367082322
 40
0.4999391367082322
 40
0.7499695683541161
 40
0.7499695683541161
 40
1.0
 40
1.0
 40
1.0
 40
1.0
 10
1242.996139732033
 20
1428.269192943697
 30
-0.0000000000000002
 10
1243.002038771822
 20
1428.265669992676
 30
-0.0000000000000002
 10
1242.149804840702
 20
1428.821512840777
 30
-0.0000000000000002
 10
1239.426231597941
 20
1430.108621363764
 30
-0.0000000000000004
 10
1237.49032898434
 20
1430.803946410866
 30
0.0000000000000004
 10
1233.430607999208
 20
1430.809772507574
 30
0.0000000000000002
 10
1231.495164080322
 20
1430.120917078752
 30
0.0
 10
1228.742962131684
 20
1428.823131431111
 30
-0.0000000000000002
 10
1227.89615819951
 20
1428.269164917723
 30
-0.0000000000000002
 10
1227.896168981051
 20
1428.269171957393
 30
-0.0000000000000002
  0
SPLINE
  5
C5F
330
1F
100
AcDbEntity
  8
HEWI
100
AcDbSpline
210
0.0
220
0.0
230
1.0
 70
     8
 71
     3
 72
    14
 73
    10
 74
     0
 42
0.000000001
 43
0.0000000001
 40
0.0
 40
0.0
 40
0.0
 40
0.0
 40
0.249909423420967
 40
0.249909423420967
 40
0.4999405692898073
 40
0.4999405692898073
 40
0.7499717151586476
 40
0.7499717151586476
 40
1.0
 40
1.0
 40
1.0
 40
1.0
 10
723.9961397317159
 20
1428.269192943887
 30
0.0
 10
724.0020388024007
 20
1428.265669972732
 30
0.0
 10
723.1498048651261
 20
1428.821512829235
 30
0.0
 10
720.4262315979417
 20
1430.108621363764
 30
-0.0000000000000002
 10
718.4903289843401
 20
1430.803946410866
 30
-0.0000000000000002
 10
714.4306079992079
 20
1430.809772507574
 30
0.0000000000000004
 10
712.4951640803215
 20
1430.120917078752
 30
0.0000000000000002
 10
709.7429778779727
 20
1428.823138856186
 30
0.0
 10
708.8961775789997
 20
1428.269177595464
 30
0.0
 10
708.8961689810144
 20
1428.269171957369
 30
0.0
  0
SPLINE
  5
C65
330
1F
100
AcDbEntity
  8
HEWI
100
AcDbSpline
210
0.0000000000000007
220
0.0000000000000021
230
1.0
 70
     8
 71
     3
 72
    16
 73
    12
 74
     0
 42
0.000000001
 43
0.0000000001
 40
0.0
 40
0.0
 40
0.0
 40
0.0
 40
0.2318639328501264
 40
0.2318639328501264
 40
0.4638696371680758
 40
0.4638696371680758
 40
0.6950310216224952
 40
0.6950310216224952
 40
0.9111144293793211
 40
0.9111144293793211
 40
1.0
 40
1.0
 40
1.0
 40
1.0
 10
1255.446171596437
 20
1526.980632842106
 30
-0.0000000000000002
 10
1255.446171596437
 20
1527.053654604433
 30
-0.0000000000000002
 10
1255.40259046981
 20
1527.132284024073
 30
-0.0000000000000002
 10
1255.236790091937
 20
1527.28618465048
 30
-0.0000000000000002
 10
1255.112121440152
 20
1527.363649526571
 30
-0.0000000000000002
 10
1254.798696687429
 20
1527.501749136532
 30
-0.0000000000000002
 10
1254.605137536965
 20
1527.56443680133
 30
-0.0000000000000002
 10
1254.189938810498
 20
1527.655915187908
 30
-0.0000000000000004
 10
1253.964531990815
 20
1527.687787585582
 30
-0.0000000000000004
 10
1253.639970756767
 20
1527.707958241689
 30
-0.0000000000000004
 10
1253.542923143007
 20
1527.71097779731
 30
-0.0000000000000004
 10
1253.446171596438
 20
1527.71097779731
 30
-0.0000000000000004
  0
SPLINE
  5
C68
330
1F
100
AcDbEntity
  8
HEWI
100
AcDbSpline
210
-0.0000000000000008
220
-0.0000000000000017
230
-1.0
 70
     8
 71
     3
 72
    16
 73
    12
 74
     0
 42
0.000000001
 43
0.0000000001
 40
0.0
 40
0.0
 40
0.0
 40
0.0
 40
0.24976624795592
 40
0.24976624795592
 40
0.4995497416883016
 40
0.4995497416883016
 40
0.7493332354206832
 40
0.7493332354206832
 40
0.9991167291530643
 40
0.9991167291530643
 40
1.0
 40
1.0
 40
1.0
 40
1.0
 10
237.3374011028752
 20
1119.998921287098
 30
-0.0000000000000024
 10
237.3452699017018
 20
1119.992976822049
 30
-0.0000000000000024
 10
236.8527696568992
 20
1120.371131958051
 30
-0.0000000000000024
 10
235.0833605175687
 20
1121.658453804339
 30
-0.0000000000000026
 10
233.8206202625481
 20
1122.557248947249
 30
-0.0000000000000026
 10
230.7969125890688
 20
1124.463545367523
 30
-0.0000000000000028
 10
229.0223729335651
 20
1125.48821535982
 30
-0.0000000000000028
 10
225.0236100340282
 20
1127.139999830088
 30
-0.0000000000000028
 10
222.7015046552785
 20
1127.755486565387
 30
-0.000000000000003
 10
220.3540372400055
 20
1127.759438055079
 30
-0.000000000000003
 10
220.3457660651054
 20
1127.75944445839
 30
-0.000000000000003
 10
220.3374954624339
 20
1127.759443357618
 30
-0.000000000000003
  0
SPLINE
  5
C69
330
1F
100
AcDbEntity
  8
HEWI
100
AcDbSpline
210
0.0
220
0.0
230
1.0
 70
     8
 71
     3
 72
    14
 73
    10
 74
     0
 42
0.000000001
 43
0.0000000001
 40
0.0
 40
0.0
 40
0.0
 40
0.0
 40
0.2493364395575
 40
0.2493364395575
 40
0.4995576263716667
 40
0.4995576263716667
 40
0.7497788131858333
 40
0.7497788131858333
 40
1.0
 40
1.0
 40
1.0
 40
1.0
 10
220.3374974628389
 20
1127.759443357884
 30
-0.000000000000003
 10
218.0068924537534
 20
1127.759133507949
 30
-0.000000000000003
 10
215.7217267675221
 20
1127.162940982415
 30
-0.0000000000000028
 10
211.6918403569118
 20
1125.510376268571
 30
-0.0000000000000028
 10
209.9285589657172
 20
1124.493508409309
 30
-0.0000000000000028
 10
206.8796809272292
 20
1122.575015961543
 30
-0.0000000000000026
 10
205.635579634056
 20
1121.689809363871
 30
-0.0000000000000026
 10
203.8396516557316
 20
1120.38440430856
 30
-0.0000000000000024
 10
203.3374854258325
 20
1119.998838242376
 30
-0.0000000000000024
 10
203.3374956397135
 20
1119.998846083001
 30
-0.0000000000000024
  0
SPLINE
  5
C8E
330
1F
100
AcDbEntity
  8
HEWI
100
AcDbSpline
210
0.0
220
0.0
230
1.0
 70
    24
 71
     1
 72
     5
 73
     3
 74
     0
 42
0.000000001
 43
0.0000000001
 40
0.0
 40
0.0
 40
0.2666666666666667
 40
1.0
 40
1.0
 10
163.8374977147805
 20
1531.612383525578
 30
0.0
 10
167.8374977147805
 20
1531.612383525578
 30
0.0
 10
178.8374977147805
 20
1531.612383525578
 30
0.0
  0
SPLINE
  5
C8F
330
1F
100
AcDbEntity
  8
HEWI
100
AcDbSpline
210
0.0
220
0.0
230
1.0
 70
    24
 71
     1
 72
     5
 73
     3
 74
     0
 42
0.000000001
 43
0.0000000001
 40
0.0
 40
0.0
 40
0.2666666666666667
 40
1.0
 40
1.0
 10
276.8374977147805
 20
1531.612383525578
 30
0.0
 10
272.8374977147805
 20
1531.612383525578
 30
0.0
 10
261.8374977147805
 20
1531.612383525578
 30
0.0
  0
SPLINE
  5
C90
330
1F
100
AcDbEntity
  8
HEWI
100
AcDbSpline
210
0.0
220
0.0
230
1.0
 70
    24
 71
     1
 72
     5
 73
     3
 74
     0
 42
0.000000001
 43
0.0000000001
 40
0.0
 40
0.0
 40
0.2149255813020745
 40
1.0
 40
1.0
 10
220.3374977147805
 20
1509.151290440394
 30
0.0
 10
220.3374977147805
 20
1513.151290440394
 30
0.0
 10
220.3374977147805
 20
1527.762383525578
 30
0.0
  0
SPLINE
  5
C91
330
1F
100
AcDbEntity
  8
HEWI
100
AcDbSpline
210
0.0
220
0.0
230
1.0
 70
    24
 71
     1
 72
     5
 73
     3
 74
     0
 42
0.000000001
 43
0.0000000001
 40
0.0
 40
0.0
 40
0.6800000000000001
 40
1.0
 40
1.0
 10
268.837497714781
 20
1531.612383525578
 30
0.0
 10
260.337497714781
 20
1531.612383525578
 30
0.0
 10
256.337497714781
 20
1531.612383525578
 30
0.0
  0
SPLINE
  5
C92
330
1F
100
AcDbEntity
  8
HEWI
100
AcDbSpline
210
0.0
220
0.0
230
1.0
 70
    24
 71
     1
 72
     5
 73
     3
 74
     0
 42
0.000000001
 43
0.0000000001
 40
0.0
 40
0.0
 40
0.6800000000000001
 40
1.0
 40
1.0
 10
171.8374977147805
 20
1531.612383525578
 30
0.0
 10
180.3374977147805
 20
1531.612383525578
 30
0.0
 10
184.3374977147805
 20
1531.612383525578
 30
0.0
  0
SPLINE
  5
C93
330
1F
100
AcDbEntity
  8
HEWI
100
AcDbSpline
210
0.0
220
0.0
230
1.0
 70
    24
 71
     1
 72
     5
 73
     3
 74
     0
 42
0.000000001
 43
0.0000000001
 40
0.0
 40
0.0
 40
0.185185185185186
 40
1.0
 40
1.0
 10
220.3374981348281
 20
1180.598847986318
 30
0.0
 10
220.3374981348281
 20
1176.598847986318
 30
0.0
 10
220.3374981348281
 20
1158.998847986318
 30
0.0
  0
LINE
  5
C94
330
1F
100
AcDbEntity
  8
HEWI
100
AcDbLine
 10
199.4874986980744
 20
1531.612383585244
 30
0.0
 11
241.1874986980742
 21
1531.612383585244
 31
0.0
  0
LINE
  5
C95
330
1F
100
AcDbEntity
  8
HEWI
100
AcDbLine
 10
220.3374986980743
 20
1510.762383585244
 30
0.0
 11
220.3374986980743
 21
1552.462383585244
 31
0.0
  0
CIRCLE
  5
DA7
330
1F
100
AcDbEntity
  8
0
100
AcDbCircle
 10
220.3374986980743
 20
1429.262383585244
 30
0.0
 40
12.5
  0
LINE
  5
DA8
330
1F
100
AcDbEntity
  8
HEWI
100
AcDbLine
 10
1385.446171777822
 20
1453.269173728005
 30
0.0
 11
1255.447435777821
 21
1453.269173728005
 31
0.0
  0
ENDSEC
  0
SECTION
  2
OBJECTS
  0
DICTIONARY
  5
C
330
0
100
AcDbDictionary
281
     1
  3
ACAD_CIP_PREVIOUS_PRODUCT_INFO
350
1CC
  3
ACAD_COLOR
350
1AC
  3
ACAD_DETAILVIEWSTYLE
350
1C6
  3
ACAD_GROUP
350
D
  3
ACAD_LAYOUT
350
1A
  3
ACAD_MATERIAL
350
17A
  3
ACAD_MLEADERSTYLE
350
1C1
  3
ACAD_MLINESTYLE
350
17
  3
ACAD_PLOTSETTINGS
350
19
  3
ACAD_PLOTSTYLENAME
350
DF
  3
ACAD_SCALELIST
350
1AF
  3
ACAD_SECTIONVIEWSTYLE
350
1C3
  3
ACAD_TABLESTYLE
350
1AD
  3
ACAD_VISUALSTYLE
350
193
  3
ACDB_RECOMPOSE_DATA
350
DAA
  3
AcDbVariableDictionary
350
2CB
  0
DICTIONARY
  5
1E1
330
2
100
AcDbDictionary
280
     1
281
     1
  3
ACAD_LAYERSTATES
360
1E2
  0
DICTIONARY
  5
1CD
330
10
100
AcDbDictionary
280
     1
281
     1
  3
ADSK_XREC_LAYER_RECONCILED
360
1CE
  0
DICTIONARY
  5
D9
330
1F
100
AcDbDictionary
280
     1
281
     1
  3
ACAD_LAYOUTSELFREF
360
177
  3
ACAD_SORTENTS
360
292
  0
DICTIONARY
  5
D7
330
1B
100
AcDbDictionary
280
     1
281
     1
  3
ACAD_LAYOUTSELFREF
360
176
  0
XRECORD
  5
1CC
102
{ACAD_REACTORS
330
C
102
}
330
C
100
AcDbXrecord
280
     1
300
ACDLT
300
2013
300
ACDLT_F_S
  0
DICTIONARY
  5
1AC
102
{ACAD_REACTORS
330
C
102
}
330
C
100
AcDbDictionary
281
     1
  0
DICTIONARY
  5
1C6
102
{ACAD_REACTORS
330
C
102
}
330
C
100
AcDbDictionary
281
     1
  3
Imperial24
350
1C7
  3
Metric50
350
5C1
  0
DICTIONARY
  5
D
102
{ACAD_REACTORS
330
C
102
}
330
C
100
AcDbDictionary
281
     1
  0
DICTIONARY
  5
1A
102
{ACAD_REACTORS
330
C
102
}
330
C
100
AcDbDictionary
281
     1
  3
Layout1
350
1C9
  3
Model
350
1C8
  0
DICTIONARY
  5
17A
102
{ACAD_REACTORS
330
C
102
}
330
C
100
AcDbDictionary
281
     1
  3
ByBlock
350
183
  3
ByLayer
350
17B
  3
Global
350
18B
  0
DICTIONARY
  5
1C1
102
{ACAD_REACTORS
330
C
102
}
330
C
100
AcDbDictionary
281
     1
  3
Standard
350
1C2
  0
DICTIONARY
  5
17
102
{ACAD_REACTORS
330
C
102
}
330
C
100
AcDbDictionary
281
     1
  3
STANDARD
350
18
  0
DICTIONARY
  5
19
102
{ACAD_REACTORS
330
C
102
}
330
C
100
AcDbDictionary
281
     1
  0
ACDBDICTIONARYWDFLT
  5
DF
102
{ACAD_REACTORS
330
C
102
}
330
C
100
AcDbDictionary
281
     1
  3
Normal
350
E0
100
AcDbDictionaryWithDefault
340
E0
  0
DICTIONARY
  5
1AF
102
{ACAD_REACTORS
330
C
102
}
330
C
100
AcDbDictionary
281
     1
  3
A0
350
1B0
  3
A1
350
1B1
  3
A2
350
1B2
  3
A3
350
1B3
  3
A4
350
1B4
  3
A5
350
1B5
  3
A6
350
1B6
  3
A7
350
1B7
  3
A8
350
1B8
  3
A9
350
1B9
  3
B0
350
1BA
  3
B1
350
1BB
  3
B2
350
1BC
  3
B3
350
1BD
  3
B4
350
1BE
  3
B5
350
1BF
  3
B6
350
1C0
  0
DICTIONARY
  5
1C3
102
{ACAD_REACTORS
330
C
102
}
330
C
100
AcDbDictionary
281
     1
  3
Imperial24
350
1C5
  3
Metric50
350
5C0
  0
DICTIONARY
  5
1AD
102
{ACAD_REACTORS
330
C
102
}
330
C
100
AcDbDictionary
281
     1
  3
Standard
350
1AE
  0
DICTIONARY
  5
193
102
{ACAD_REACTORS
330
C
102
}
330
C
100
AcDbDictionary
281
     1
  3
2dWireframe
350
199
  3
Basic
350
198
  3
Brighten
350
19F
  3
ColorChange
350
1A3
  3
Conceptual
350
19C
  3
Dim
350
19E
  3
EdgeColorOff
350
1AB
  3
Facepattern
350
1A2
  3
Flat
350
194
  3
FlatWithEdges
350
195
  3
Gouraud
350
196
  3
GouraudWithEdges
350
197
  3
Hidden
350
19B
  3
JitterOff
350
1A9
  3
Linepattern
350
1A1
  3
OverhangOff
350
1AA
  3
Realistic
350
19D
  3
Shaded
350
1A8
  3
Shaded with edges
350
1A7
  3
Shades of Gray
350
1A4
  3
Sketchy
350
1A5
  3
Thicken
350
1A0
  3
Wireframe
350
19A
  3
X-Ray
350
1A6
  0
XRECORD
  5
DAA
102
{ACAD_REACTORS
330
C
102
}
330
C
100
AcDbXrecord
280
     1
 90
        1
330
1AE
  0
DICTIONARY
  5
2CB
102
{ACAD_REACTORS
330
C
102
}
330
C
100
AcDbDictionary
281
     1
  3
CANNOSCALE
350
2D1
  3
CMLEADERSTYLE
350
2CD
  3
CTABLESTYLE
350
2CC
  3
CVIEWDETAILSTYLE
350
2CE
  3
CVIEWSECTIONSTYLE
350
2CF
  3
LAYEREVAL
350
2D3
  3
LAYERNOTIFY
350
2D4
  3
LIGHTINGUNITS
350
2D2
  3
MSLTSCALE
350
2D0
  0
DICTIONARY
  5
1E2
102
{ACAD_REACTORS
330
1E1
102
}
330
1E1
100
AcDbDictionary
281
     1
  0
XRECORD
  5
1CE
102
{ACAD_REACTORS
330
1CD
102
}
330
1CD
100
AcDbXrecord
280
     1
290
     1
  0
XRECORD
  5
177
102
{ACAD_REACTORS
330
D9
102
}
330
D9
100
AcDbXrecord
280
     1
340
1F
  0
SORTENTSTABLE
  5
292
102
{ACAD_REACTORS
330
D9
102
}
330
D9
100
AcDbSortentsTable
330
1F
331
A08
  5
A09
331
A25
  5
A26
331
C3E
  5
C3F
331
A36
  5
A37
331
A47
  5
A48
331
C48
  5
C49
331
A58
  5
A59
331
B62
  5
B68
331
A7A
  5
A7B
331
A69
  5
A6A
331
C94
  5
C95
331
A8B
  5
A8C
331
B9D
  5
B9E
331
9C4
  5
9C5
331
9E6
  5
9E7
331
9B3
  5
9B3
331
997
  5
997
331
986
  5
986
331
975
  5
975
331
964
  5
964
331
953
  5
953
331
942
  5
942
331
938
  5
938
331
A09
  5
A0A
331
A26
  5
A27
331
C3F
  5
C40
331
A37
  5
A38
331
A48
  5
A49
331
C49
  5
C4A
331
A59
  5
A5A
331
A7B
  5
A7C
331
A6A
  5
A6B
331
C95
  5
DA7
331
A8C
  5
A8D
331
B9E
  5
B9F
331
B8D
  5
B8E
331
9C5
  5
9C6
331
9E7
  5
9E8
331
9B4
  5
9B4
331
998
  5
998
331
987
  5
987
331
976
  5
976
331
965
  5
965
331
954
  5
954
331
943
  5
943
331
939
  5
939
331
9E8
  5
9E9
331
A0A
  5
A0B
331
A27
  5
A28
331
A38
  5
A39
331
A49
  5
A4A
331
C4A
  5
C4B
331
A5A
  5
A5B
331
B53
  5
B54
331
A7C
  5
A7D
331
A6B
  5
A6C
331
B9F
  5
BA0
331
B8E
  5
B8F
331
9C6
  5
9C7
331
9B5
  5
9B5
331
999
  5
999
331
988
  5
988
331
977
  5
977
331
966
  5
966
331
955
  5
955
331
944
  5
944
331
93A
  5
93A
331
BA0
  5
BA1
331
9E9
  5
9EA
331
9FA
  5
9FB
331
A0B
  5
A0C
331
A28
  5
A29
331
A39
  5
A3A
331
A4A
  5
A4B
331
C4B
  5
C4C
331
A5B
  5
A5C
331
B54
  5
B55
331
A7D
  5
A7E
331
A6C
  5
A6D
331
B8F
  5
B90
331
9C7
  5
9C8
331
9B6
  5
9B6
331
99A
  5
99A
331
989
  5
989
331
978
  5
978
331
967
  5
967
331
956
  5
956
331
945
  5
945
331
93B
  5
93B
331
B90
  5
B91
331
9C8
  5
9C9
331
BA1
  5
BA2
331
9EA
  5
9EB
331
9FB
  5
A04
331
A0C
  5
A0D
331
A29
  5
A2A
331
A3A
  5
A3B
331
A4B
  5
A4C
331
C4C
  5
C4D
331
A5C
  5
A5D
331
B55
  5
B56
331
A7E
  5
A7F
331
A6D
  5
A6E
331
B7F
  5
B80
331
9B7
  5
9B7
331
99B
  5
99B
331
98A
  5
98A
331
979
  5
979
331
968
  5
968
331
957
  5
957
331
946
  5
946
331
93C
  5
93C
331
B80
  5
B8D
331
B91
  5
B92
331
9C9
  5
9CA
331
BA2
  5
BA3
331
9EB
  5
9EC
331
9DA
  5
9DB
331
9B8
  5
9B8
331
A0D
  5
A0E
331
A1E
  5
A1F
331
A2A
  5
A2B
331
A3B
  5
A3C
331
A4C
  5
A4D
331
C4D
  5
C4E
331
A5D
  5
A5E
331
C5E
  5
C5F
331
B56
  5
B57
331
A7F
  5
A80
331
A6E
  5
A6F
331
99C
  5
99C
331
98B
  5
98B
331
97A
  5
97A
331
969
  5
969
331
958
  5
958
331
947
  5
947
331
93D
  5
93D
331
B68
  5
B69
331
A80
  5
A81
331
DA8
  5
9C1
331
B92
  5
B93
331
9CA
  5
9CB
331
BA3
  5
BA4
331
9EC
  5
9ED
331
9DB
  5
9DC
331
9B9
  5
9B9
331
9A8
  5
9A8
331
A0E
  5
A12
331
A1F
  5
A20
331
A2B
  5
A2C
331
A3C
  5
A3D
331
A4D
  5
A4E
331
C4E
  5
C4F
331
A5E
  5
A5F
331
C5F
  5
C65
331
B57
  5
B58
331
A6F
  5
A70
331
99D
  5
99D
331
98C
  5
98C
331
97B
  5
97B
331
96A
  5
96A
331
959
  5
959
331
948
  5
948
331
93E
  5
93E
331
B58
  5
B59
331
A70
  5
A71
331
B69
  5
B78
331
A81
  5
A82
331
B93
  5
B94
331
9CB
  5
9CC
331
BA4
  5
BA5
331
9DC
  5
9DD
331
9ED
  5
9EE
331
9BA
  5
9BA
331
9A9
  5
9A9
331
A2C
  5
A2D
331
A4E
  5
A4F
331
A3D
  5
A3E
331
C4F
  5
C50
331
B47
  5
B48
331
A5F
  5
A60
331
98D
  5
98D
331
97C
  5
97C
331
96B
  5
96B
331
95A
  5
95A
331
949
  5
949
331
93F
  5
93F
331
92E
  5
92E
331
C50
  5
C51
331
B48
  5
B49
331
A60
  5
A61
331
B59
  5
B5A
331
A71
  5
A72
331
A82
  5
A83
331
B94
  5
B95
331
9CC
  5
9CD
331
BA5
  5
BA8
331
9EE
  5
9EF
331
9DD
  5
9DE
331
9BB
  5
9BB
331
9AA
  5
9AA
331
A2D
  5
A2E
331
A4F
  5
A50
331
A3E
  5
A3F
331
98E
  5
98E
331
97D
  5
97D
331
96C
  5
96C
331
95B
  5
95B
331
94A
  5
94A
331
92F
  5
92F
331
C40
  5
C41
331
A50
  5
A51
331
C51
  5
C52
331
B49
  5
B4A
331
A61
  5
A62
331
B5A
  5
B5F
331
A72
  5
A73
331
A83
  5
A84
331
B95
  5
B96
331
9CD
  5
9CE
331
9EF
  5
9F0
331
9DE
  5
9DF
331
9BC
  5
9BC
331
9AB
  5
9AB
331
9A0
  5
9A0
331
A2E
  5
A2F
331
A3F
  5
A40
331
98F
  5
98F
331
97E
  5
97E
331
96D
  5
96D
331
95C
  5
95C
331
94B
  5
94B
331
930
  5
930
331
A40
  5
A41
331
C41
  5
C42
331
A51
  5
A52
331
C52
  5
C53
331
B4A
  5
B4B
331
A62
  5
A63
331
A73
  5
A74
331
A84
  5
A85
331
B96
  5
B97
331
9CE
  5
9CF
331
9F0
  5
9F1
331
9DF
  5
9E0
331
9BD
  5
9BD
331
9AC
  5
9AC
331
9A1
  5
9A1
331
990
  5
990
331
A12
  5
A13
331
C37
  5
C38
331
A2F
  5
A30
331
97F
  5
97F
331
96E
  5
96E
331
95D
  5
95D
331
94C
  5
94C
331
931
  5
931
331
C38
  5
C3C
331
A30
  5
A31
331
A41
  5
A42
331
C42
  5
C43
331
A52
  5
A53
331
C53
  5
C54
331
B4B
  5
B4C
331
A63
  5
A64
331
A74
  5
A75
331
A85
  5
A86
331
C8E
  5
C8F
331
B97
  5
B98
331
9CF
  5
9D0
331
9F1
  5
9FA
331
9E0
  5
9E1
331
9BE
  5
9BE
331
9AD
  5
9AD
331
9A2
  5
9A2
331
991
  5
991
331
980
  5
980
331
A13
  5
A14
331
96F
  5
96F
331
95E
  5
95E
331
94D
  5
94D
331
932
  5
932
331
A20
  5
A21
331
A31
  5
A32
331
A42
  5
A43
331
C43
  5
C44
331
A53
  5
A54
331
C54
  5
C5E
331
B4C
  5
B4D
331
A64
  5
A65
331
C65
  5
C68
331
A75
  5
A76
331
A86
  5
A87
331
C8F
  5
C90
331
B98
  5
B99
331
9D0
  5
9DA
331
9E1
  5
9E2
331
9BF
  5
9BF
331
9AE
  5
9AE
331
9A3
  5
9A3
331
992
  5
992
331
981
  5
981
331
970
  5
970
331
A14
  5
A15
331
95F
  5
95F
331
94E
  5
94E
331
933
  5
933
331
A21
  5
A22
331
A32
  5
A33
331
A43
  5
A44
331
C44
  5
C45
331
A54
  5
A55
331
B4D
  5
B4E
331
A65
  5
A66
331
A76
  5
A77
331
C90
  5
C91
331
A87
  5
A88
331
B99
  5
B9A
331
9E2
  5
9E3
331
9C0
  5
9C0
331
9AF
  5
9AF
331
9A4
  5
9A4
331
993
  5
993
331
982
  5
982
331
971
  5
971
331
960
  5
960
331
A15
  5
A16
331
A04
  5
A05
331
94F
  5
94F
331
934
  5
934
331
A22
  5
A23
331
A33
  5
A34
331
A44
  5
A45
331
C45
  5
C46
331
A55
  5
A56
331
B4E
  5
B4F
331
A66
  5
A67
331
B5F
  5
B60
331
A77
  5
A78
331
C91
  5
C92
331
B78
  5
B79
331
A88
  5
A89
331
B9A
  5
B9B
331
9C1
  5
9C2
331
9E3
  5
9E4
331
9B0
  5
9B0
331
9A5
  5
9A5
331
994
  5
994
331
983
  5
983
331
972
  5
972
331
961
  5
961
331
950
  5
950
331
A16
  5
A1E
331
A05
  5
A06
331
935
  5
935
331
A23
  5
A24
331
C3C
  5
C3D
331
A34
  5
A35
331
A45
  5
A46
331
C46
  5
C47
331
A56
  5
A57
331
B4F
  5
B50
331
A67
  5
A68
331
C68
  5
C69
331
B60
  5
B61
331
A78
  5
A79
331
C92
  5
C93
331
B79
  5
B7F
331
A89
  5
A8A
331
B9B
  5
B9C
331
9C2
  5
9C3
331
9E4
  5
9E5
331
9B1
  5
9B1
331
9A6
  5
9A6
331
995
  5
995
331
984
  5
984
331
973
  5
973
331
962
  5
962
331
951
  5
951
331
940
  5
940
331
A06
  5
A07
331
936
  5
936
331
A24
  5
A25
331
C3D
  5
C3E
331
A35
  5
A36
331
A46
  5
A47
331
DA7
  5
DA8
331
C47
  5
C48
331
A57
  5
A58
331
B50
  5
B53
331
A68
  5
A69
331
C69
  5
C6A
331
B61
  5
B62
331
A79
  5
A7A
331
C93
  5
C94
331
A8A
  5
A8B
331
B9C
  5
B9D
331
9C3
  5
9C4
331
9E5
  5
9E6
331
9B2
  5
9B2
331
9A7
  5
9A7
331
996
  5
996
331
985
  5
985
331
974
  5
974
331
963
  5
963
331
952
  5
952
331
941
  5
941
331
A07
  5
A08
331
937
  5
937
  0
XRECORD
  5
176
102
{ACAD_REACTORS
330
D7
102
}
330
D7
100
AcDbXrecord
280
     1
340
1B
  0
ACDBDETAILVIEWSTYLE
  5
1C7
102
{ACAD_XDICTIONARY
360
D97
102
}
102
{ACAD_REACTORS
330
1C6
102
}
330
1C6
100
AcDbModelDocViewStyle
 70
     0
  3
Imperial24
290
     0
100
AcDbDetailViewStyle
 70
     0
 71
     0
 90
        3
 71
     1
340
11
 62
   256
 40
0.24
340
0
 62
   256
 40
0.24
300

 40
0.36
280
     3
 71
     2
340
16
 90
       25
 62
   256
 71
     3
340
11
 62
   256
 40
0.24
 90
        1
 40
0.75
 90
        1
300
%<\AcVar ViewType \f "%tc1">% %<\AcVar ViewDetailId>%\PVARIA %<\AcVar ViewScale \f "%sn">%
 71
     4
340
16
 90
       25
 62
   256
340
16
 90
       25
 62
   256
280
     0
  0
ACDBDETAILVIEWSTYLE
  5
5C1
102
{ACAD_XDICTIONARY
360
D9B
102
}
102
{ACAD_REACTORS
330
1C6
102
}
330
1C6
100
AcDbModelDocViewStyle
 70
     0
  3
Metric50
290
     0
100
AcDbDetailViewStyle
 70
     0
 71
     0
 90
        3
 71
     1
340
11
 62
   256
 40
5.0
340
0
 62
   256
 40
5.0
300

 40
0.0
280
     1
 71
     2
340
16
 90
       25
 62
   256
 71
     3
340
11
 62
   256
 40
5.0
 90
        0
 40
15.0
 90
        1
300
%<\AcVar ViewDetailId>% (%<\AcVar ViewScale \f "%sn">%)
 71
     4
340
16
 90
       25
 62
   256
340
16
 90
       25
 62
   256
280
     0
  0
LAYOUT
  5
1C9
102
{ACAD_REACTORS
330
1A
102
}
330
1A
100
AcDbPlotSettings
  1

  2
\\srvadruck01\MFSA15
  4

  6

 40
0.0
 41
0.0
 42
0.0
 43
0.0
 44
0.0
 45
0.0
 46
0.0
 47
0.0
 48
0.0
 49
0.0
140
0.0
141
0.0
142
1.0
143
1.0
 70
   688
 72
     0
 73
     0
 74
     5
  7

 75
    16
147
1.0
 76
     0
 77
     2
 78
   300
148
0.0
149
0.0
100
AcDbLayout
  1
Layout1
 70
     1
 71
     1
 10
0.0
 20
0.0
 11
12.0
 21
9.0
 12
0.0
 22
0.0
 32
0.0
 14
1.000000000000000E+20
 24
1.000000000000000E+20
 34
1.000000000000000E+20
 15
-1.000000000000000E+20
 25
-1.000000000000000E+20
 35
-1.000000000000000E+20
146
0.0
 13
0.0
 23
0.0
 33
0.0
 16
1.0
 26
0.0
 36
0.0
 17
0.0
 27
1.0
 37
0.0
 76
     0
330
1B
  0
LAYOUT
  5
1C8
102
{ACAD_REACTORS
330
1A
102
}
330
1A
100
AcDbPlotSettings
  1

  2
\\srvadruck01\MFSA15
  4
A4
  6

 40
5.027082920074462
 41
5.027099609375
 42
5.027069091796875
 43
5.027069091796875
 44
209.9733276367186
 45
296.9259948730469
 46
0.0
 47
0.0
 48
0.0
 49
0.0
140
0.0
141
0.0
142
1.0
143
250.9557649309207
 70
 11952
 72
     0
 73
     1
 74
     0
  7

 75
     0
147
0.003984766001591
 76
     0
 77
     2
 78
   300
148
18758.74732672532
149
6385.478578639141
100
AcDbLayout
  1
Model
 70
     1
 71
     0
 10
0.0
 20
0.0
 11
12.0
 21
9.0
 12
0.0
 22
0.0
 32
0.0
 14
0.0
 24
0.0
 34
0.0
 15
0.0
 25
0.0
 35
0.0
146
0.0
 13
0.0
 23
0.0
 33
0.0
 16
1.0
 26
0.0
 36
0.0
 17
0.0
 27
1.0
 37
0.0
 76
     0
330
1F
331
155
1001
ACAD_PSEXT
1000
\\srvadruck01\MFSA15
1000
KONICA MINOLTA C754SeriesPCL
1000
Marketing
1000

1070
     0
  0
MATERIAL
  5
183
102
{ACAD_XDICTIONARY
360
184
102
}
102
{ACAD_REACTORS
330
17A
102
}
330
17A
100
AcDbMaterial
  1
ByBlock
 72
     0
 43
0.0208333333333333
 43
0.0
 43
0.0
 43
0.0
 43
0.0
 43
0.0208333333333333
 43
0.0
 43
0.0
 43
0.0
 43
0.0
 43
1.0
 43
0.0
 43
0.0
 43
0.0
 43
0.0
 43
1.0
 77
     0
 47
0.0208333333333333
 47
0.0
 47
0.0
 47
0.0
 47
0.0
 47
0.0208333333333333
 47
0.0
 47
0.0
 47
0.0
 47
0.0
 47
1.0
 47
0.0
 47
0.0
 47
0.0
 47
0.0
 47
1.0
171
     0
 49
0.0208333333333333
 49
0.0
 49
0.0
 49
0.0
 49
0.0
 49
0.0208333333333333
 49
0.0
 49
0.0
 49
0.0
 49
0.0
 49
1.0
 49
0.0
 49
0.0
 49
0.0
 49
0.0
 49
1.0
175
     0
142
0.0208333333333333
142
0.0
142
0.0
142
0.0
142
0.0
142
0.0208333333333333
142
0.0
142
0.0
142
0.0
142
0.0
142
1.0
142
0.0
142
0.0
142
0.0
142
0.0
142
1.0
179
     0
144
0.0208333333333333
144
0.0
144
0.0
144
0.0
144
0.0
144
0.0208333333333333
144
0.0
144
0.0
144
0.0
144
0.0
144
1.0
144
0.0
144
0.0
144
0.0
144
0.0
144
1.0
147
0.0208333333333333
147
0.0
147
0.0
147
0.0
147
0.0
147
0.0208333333333333
147
0.0
147
0.0
147
0.0
147
0.0
147
1.0
147
0.0
147
0.0
147
0.0
147
0.0
147
1.0
  0
MATERIAL
  5
17B
102
{ACAD_XDICTIONARY
360
17C
102
}
102
{ACAD_REACTORS
330
17A
102
}
330
17A
100
AcDbMaterial
  1
ByLayer
 72
     0
 43
0.0208333333333333
 43
0.0
 43
0.0
 43
0.0
 43
0.0
 43
0.0208333333333333
 43
0.0
 43
0.0
 43
0.0
 43
0.0
 43
1.0
 43
0.0
 43
0.0
 43
0.0
 43
0.0
 43
1.0
 77
     0
 47
0.0208333333333333
 47
0.0
 47
0.0
 47
0.0
 47
0.0
 47
0.0208333333333333
 47
0.0
 47
0.0
 47
0.0
 47
0.0
 47
1.0
 47
0.0
 47
0.0
 47
0.0
 47
0.0
 47
1.0
171
     0
 49
0.0208333333333333
 49
0.0
 49
0.0
 49
0.0
 49
0.0
 49
0.0208333333333333
 49
0.0
 49
0.0
 49
0.0
 49
0.0
 49
1.0
 49
0.0
 49
0.0
 49
0.0
 49
0.0
 49
1.0
175
     0
142
0.0208333333333333
142
0.0
142
0.0
142
0.0
142
0.0
142
0.0208333333333333
142
0.0
142
0.0
142
0.0
142
0.0
142
1.0
142
0.0
142
0.0
142
0.0
142
0.0
142
1.0
179
     0
144
0.0208333333333333
144
0.0
144
0.0
144
0.0
144
0.0
144
0.0208333333333333
144
0.0
144
0.0
144
0.0
144
0.0
144
1.0
144
0.0
144
0.0
144
0.0
144
0.0
144
1.0
147
0.0208333333333333
147
0.0
147
0.0
147
0.0
147
0.0
147
0.0208333333333333
147
0.0
147
0.0
147
0.0
147
0.0
147
1.0
147
0.0
147
0.0
147
0.0
147
0.0
147
1.0
  0
MATERIAL
  5
18B
102
{ACAD_XDICTIONARY
360
18C
102
}
102
{ACAD_REACTORS
330
17A
102
}
330
17A
100
AcDbMaterial
  1
Global
 72
     0
 43
0.0208333333333333
 43
0.0
 43
0.0
 43
0.0
 43
0.0
 43
0.0208333333333333
 43
0.0
 43
0.0
 43
0.0
 43
0.0
 43
1.0
 43
0.0
 43
0.0
 43
0.0
 43
0.0
 43
1.0
 77
     0
 47
0.0208333333333333
 47
0.0
 47
0.0
 47
0.0
 47
0.0
 47
0.0208333333333333
 47
0.0
 47
0.0
 47
0.0
 47
0.0
 47
1.0
 47
0.0
 47
0.0
 47
0.0
 47
0.0
 47
1.0
171
     0
 49
0.0208333333333333
 49
0.0
 49
0.0
 49
0.0
 49
0.0
 49
0.0208333333333333
 49
0.0
 49
0.0
 49
0.0
 49
0.0
 49
1.0
 49
0.0
 49
0.0
 49
0.0
 49
0.0
 49
1.0
175
     0
142
0.0208333333333333
142
0.0
142
0.0
142
0.0
142
0.0
142
0.0208333333333333
142
0.0
142
0.0
142
0.0
142
0.0
142
1.0
142
0.0
142
0.0
142
0.0
142
0.0
142
1.0
179
     0
144
0.0208333333333333
144
0.0
144
0.0
144
0.0
144
0.0
144
0.0208333333333333
144
0.0
144
0.0
144
0.0
144
0.0
144
1.0
144
0.0
144
0.0
144
0.0
144
0.0
144
1.0
147
0.0208333333333333
147
0.0
147
0.0
147
0.0
147
0.0
147
0.0208333333333333
147
0.0
147
0.0
147
0.0
147
0.0
147
1.0
147
0.0
147
0.0
147
0.0
147
0.0
147
1.0
  0
MLEADERSTYLE
  5
1C2
102
{ACAD_REACTORS
330
1C1
102
}
330
1C1
100
AcDbMLeaderStyle
179
     2
170
     2
171
     1
172
     0
 90
        2
 40
0.0
 41
0.0
173
     1
 91
-1056964608
340
14
 92
       -2
290
     1
 42
0.09
291
     1
 43
0.36
  3
Standard
 44
0.18
300

342
11
174
     1
178
     6
175
     1
176
     0
 93
-1056964608
 45
0.18
292
     0
297
     0
 46
0.18
 94
-1056964608
 47
1.0
 49
1.0
140
1.0
293
     1
141
0.0
294
     1
177
     0
142
1.0
295
     0
296
     0
143
0.125
271
     0
272
     9
273
     9
  0
MLINESTYLE
  5
18
102
{ACAD_REACTORS
330
17
102
}
330
17
100
AcDbMlineStyle
  2
STANDARD
 70
     0
  3

 62
   256
 51
90.0
 52
90.0
 71
     2
 49
0.5
 62
   256
  6
BYLAYER
 49
-0.5
 62
   256
  6
BYLAYER
  0
ACDBPLACEHOLDER
  5
E0
102
{ACAD_REACTORS
330
DF
102
}
330
DF
  0
SCALE
  5
1B0
102
{ACAD_REACTORS
330
1AF
102
}
330
1AF
100
AcDbScale
 70
     0
300
1:1
140
1.0
141
1.0
290
     1
  0
SCALE
  5
1B1
102
{ACAD_REACTORS
330
1AF
102
}
330
1AF
100
AcDbScale
 70
     0
300
1/128" = 1'-0"
140
0.0078125
141
12.0
290
     0
  0
SCALE
  5
1B2
102
{ACAD_REACTORS
330
1AF
102
}
330
1AF
100
AcDbScale
 70
     0
300
1/64" = 1'-0"
140
0.015625
141
12.0
290
     0
  0
SCALE
  5
1B3
102
{ACAD_REACTORS
330
1AF
102
}
330
1AF
100
AcDbScale
 70
     0
300
1/32" = 1'-0"
140
0.03125
141
12.0
290
     0
  0
SCALE
  5
1B4
102
{ACAD_REACTORS
330
1AF
102
}
330
1AF
100
AcDbScale
 70
     0
300
1/16" = 1'-0"
140
0.0625
141
12.0
290
     0
  0
SCALE
  5
1B5
102
{ACAD_REACTORS
330
1AF
102
}
330
1AF
100
AcDbScale
 70
     0
300
3/32" = 1'-0"
140
0.09375
141
12.0
290
     0
  0
SCALE
  5
1B6
102
{ACAD_REACTORS
330
1AF
102
}
330
1AF
100
AcDbScale
 70
     0
300
1/8" = 1'-0"
140
0.125
141
12.0
290
     0
  0
SCALE
  5
1B7
102
{ACAD_REACTORS
330
1AF
102
}
330
1AF
100
AcDbScale
 70
     0
300
3/16" = 1'-0"
140
0.1875
141
12.0
290
     0
  0
SCALE
  5
1B8
102
{ACAD_REACTORS
330
1AF
102
}
330
1AF
100
AcDbScale
 70
     0
300
1/4" = 1'-0"
140
0.25
141
12.0
290
     0
  0
SCALE
  5
1B9
102
{ACAD_REACTORS
330
1AF
102
}
330
1AF
100
AcDbScale
 70
     0
300
3/8" = 1'-0"
140
0.375
141
12.0
290
     0
  0
SCALE
  5
1BA
102
{ACAD_REACTORS
330
1AF
102
}
330
1AF
100
AcDbScale
 70
     0
300
1/2" = 1'-0"
140
0.5
141
12.0
290
     0
  0
SCALE
  5
1BB
102
{ACAD_REACTORS
330
1AF
102
}
330
1AF
100
AcDbScale
 70
     0
300
3/4" = 1'-0"
140
0.75
141
12.0
290
     0
  0
SCALE
  5
1BC
102
{ACAD_REACTORS
330
1AF
102
}
330
1AF
100
AcDbScale
 70
     0
300
1" = 1'-0"
140
1.0
141
12.0
290
     0
  0
SCALE
  5
1BD
102
{ACAD_REACTORS
330
1AF
102
}
330
1AF
100
AcDbScale
 70
     0
300
1-1/2" = 1'-0"
140
1.5
141
12.0
290
     0
  0
SCALE
  5
1BE
102
{ACAD_REACTORS
330
1AF
102
}
330
1AF
100
AcDbScale
 70
     0
300
3" = 1'-0"
140
3.0
141
12.0
290
     0
  0
SCALE
  5
1BF
102
{ACAD_REACTORS
330
1AF
102
}
330
1AF
100
AcDbScale
 70
     0
300
6" = 1'-0"
140
6.0
141
12.0
290
     0
  0
SCALE
  5
1C0
102
{ACAD_REACTORS
330
1AF
102
}
330
1AF
100
AcDbScale
 70
     0
300
1'-0" = 1'-0"
140
12.0
141
12.0
290
     0
  0
ACDBSECTIONVIEWSTYLE
  5
1C5
102
{ACAD_XDICTIONARY
360
D95
102
}
102
{ACAD_REACTORS
330
1C3
102
}
330
1C3
100
AcDbModelDocViewStyle
 70
     0
  3
Imperial24
290
     0
100
AcDbSectionViewStyle
 70
     0
 71
     0
 90
       78
 71
     1
340
11
 62
   256
 40
0.24
340
0
340
0
 62
   256
 40
0.24
300
I, O, Q, S, X, Z
 40
0.48
 90
        3
 40
0.18
 90
        1
 71
     2
340
1C4
 90
       25
 62
   256
340
16
 90
       50
 62
   256
 40
0.24
 40
0.0
 40
0.24
 71
     3
340
11
 62
   256
 40
0.24
 90
        1
 40
0.75
 90
        1
300
%<\AcVar ViewType \f "%tc1">% %<\AcVar ViewSectionStartId>%-%<\AcVar ViewSectionEndId>%\PVARIA %<\AcVar ViewScale \f "%sn">%
 71
     4
 62
   256
 62
   257
300
ANSI31
 40
1.0
 90
        0
290
     0
290
     0
 90
        6
 40
0.0
 40
1.570796326794896
 40
0.2617993877991494
 40
1.308996938995747
 40
-0.2617993877991494
 40
1.832595714594044
  0
ACDBSECTIONVIEWSTYLE
  5
5C0
102
{ACAD_XDICTIONARY
360
D99
102
}
102
{ACAD_REACTORS
330
1C3
102
}
330
1C3
100
AcDbModelDocViewStyle
 70
     0
  3
Metric50
290
     0
100
AcDbSectionViewStyle
 70
     0
 71
     0
 90
      102
 71
     1
340
11
 62
   256
 40
5.0
340
0
340
0
 62
   256
 40
5.0
300
I, O, Q, S, X, Z
 40
10.0
 90
        0
 40
2.5
 90
        0
 71
     2
340
16
 90
       25
 62
   256
340
16
 90
       50
 62
   256
 40
5.0
 40
2.5
 40
5.0
 71
     3
340
11
 62
   256
 40
5.0
 90
        0
 40
15.0
 90
        1
300
%<\AcVar ViewSectionStartId>%-%<\AcVar ViewSectionEndId>% (%<\AcVar ViewScale \f "%sn">%)
 71
     4
 62
   256
 62
   257
300
ANSI31
 40
1.0
 90
        0
290
     0
290
     0
 90
        6
 40
0.0
 40
1.570796326794896
 40
0.2617993877991494
 40
1.308996938995747
 40
-0.2617993877991494
 40
1.832595714594045
  0
TABLESTYLE
  5
1AE
102
{ACAD_XDICTIONARY
360
35F
102
}
102
{ACAD_REACTORS
330
1AD
102
}
330
1AD
100
AcDbTableStyle
280
     0
  3
Standard
 70
     0
 71
     0
 40
0.06
 41
0.06
280
     0
281
     0
  7
STANDARD
140
0.18
170
     2
 62
     0
 63
     7
283
     0
 90
      512
 91
        0
  1

274
    -2
284
     1
 64
     0
275
    -2
285
     1
 65
     0
276
    -2
286
     1
 66
     0
277
    -2
287
     1
 67
     0
278
    -2
288
     1
 68
     0
279
    -2
289
     1
 69
     0
  7
STANDARD
140
0.25
170
     5
 62
     0
 63
     7
283
     0
 90
      512
 91
        0
  1

274
    -2
284
     1
 64
     0
275
    -2
285
     1
 65
     0
276
    -2
286
     1
 66
     0
277
    -2
287
     1
 67
     0
278
    -2
288
     1
 68
     0
279
    -2
289
     1
 69
     0
  7
STANDARD
140
0.18
170
     5
 62
     0
 63
     7
283
     0
 90
      512
 91
        0
  1

274
    -2
284
     1
 64
     0
275
    -2
285
     1
 65
     0
276
    -2
286
     1
 66
     0
277
    -2
287
     1
 67
     0
278
    -2
288
     1
 68
     0
279
    -2
289
     1
 69
     0
  0
VISUALSTYLE
  5
199
102
{ACAD_XDICTIONARY
360
DB5
102
}
102
{ACAD_REACTORS
330
193
102
}
330
193
100
AcDbVisualStyle
  2
2dWireframe
 70
     4
177
     2
291
     0
 71
     0
176
     1
 72
     2
176
     1
 73
     0
176
     1
 90
        0
176
     1
 40
0.6
176
     1
 41
30.0
176
     1
 63
     7
421
 16777215
176
     1
 74
     1
176
     1
 91
        4
176
     1
 64
     7
176
     1
 65
   257
176
     1
 75
     1
176
     1
175
     1
176
     1
 42
1.0
176
     1
 92
        0
176
     1
 66
   257
176
     1
 43
1.0
176
     1
 76
     1
176
     1
 77
     6
176
     1
 78
     2
176
     1
 67
     7
176
     1
 79
     5
176
     1
170
     0
176
     1
171
     0
176
     1
290
     0
176
     1
 93
        1
176
     1
 44
0.0
176
     1
173
     0
176
     1
1001
ACAD
1000
AcDbSavedByObjectVersion
1070
     0
  0
VISUALSTYLE
  5
198
102
{ACAD_XDICTIONARY
360
DB3
102
}
102
{ACAD_REACTORS
330
193
102
}
330
193
100
AcDbVisualStyle
  2
Basic
 70
     7
177
     2
291
     1
 71
     1
176
     1
 72
     0
176
     1
 73
     1
176
     1
 90
        0
176
     1
 40
0.6
176
     1
 41
30.0
176
     1
 63
     7
421
 16777215
176
     1
 74
     0
176
     1
 91
        4
176
     1
 64
     7
176
     1
 65
   257
176
     1
 75
     1
176
     1
175
     1
176
     1
 42
1.0
176
     1
 92
        8
176
     1
 66
     7
176
     1
 43
1.0
176
     1
 76
     1
176
     1
 77
     6
176
     1
 78
     2
176
     1
 67
     7
176
     1
 79
     5
176
     1
170
     0
176
     1
171
     0
176
     1
290
     0
176
     1
 93
        1
176
     1
 44
0.0
176
     1
173
     0
176
     1
1001
ACAD
1000
AcDbSavedByObjectVersion
1070
     0
  0
VISUALSTYLE
  5
19F
102
{ACAD_XDICTIONARY
360
DC1
102
}
102
{ACAD_REACTORS
330
193
102
}
330
193
100
AcDbVisualStyle
  2
Brighten
 70
    12
177
     2
291
     1
 71
     2
176
     1
 72
     2
176
     1
 73
     0
176
     1
 90
        0
176
     1
 40
0.6
176
     1
 41
30.0
176
     1
 63
     7
421
 16777215
176
     1
 74
     1
176
     1
 91
        4
176
     1
 64
     7
176
     1
 65
   257
176
     1
 75
     1
176
     1
175
     1
176
     1
 42
1.0
176
     1
 92
        8
176
     1
 66
     7
176
     1
 43
1.0
176
     1
 76
     1
176
     1
 77
     6
176
     1
 78
     2
176
     1
 67
     7
176
     1
 79
     5
176
     1
170
     0
176
     1
171
     0
176
     1
290
     0
176
     1
 93
        1
176
     1
 44
50.0
176
     1
173
     0
176
     1
1001
ACAD
1000
AcDbSavedByObjectVersion
1070
     0
  0
VISUALSTYLE
  5
1A3
102
{ACAD_XDICTIONARY
360
DC9
102
}
102
{ACAD_REACTORS
330
193
102
}
330
193
100
AcDbVisualStyle
  2
ColorChange
 70
    16
177
     2
291
     1
 71
     2
176
     1
 72
     2
176
     1
 73
     3
176
     1
 90
        0
176
     1
 40
0.6
176
     1
 41
30.0
176
     1
 63
     8
421
  8421504
176
     1
 74
     1
176
     1
 91
        4
176
     1
 64
     7
176
     1
 65
   257
176
     1
 75
     1
176
     1
175
     1
176
     1
 42
1.0
176
     1
 92
        8
176
     1
 66
     8
424
  8421504
176
     1
 43
1.0
176
     1
 76
     1
176
     1
 77
     6
176
     1
 78
     2
176
     1
 67
     7
176
     1
 79
     5
176
     1
170
     0
176
     1
171
     0
176
     1
290
     0
176
     1
 93
        1
176
     1
 44
0.0
176
     1
173
     0
176
     1
1001
ACAD
1000
AcDbSavedByObjectVersion
1070
     0
  0
VISUALSTYLE
  5
19C
102
{ACAD_XDICTIONARY
360
DBB
102
}
102
{ACAD_REACTORS
330
193
102
}
330
193
100
AcDbVisualStyle
  2
Conceptual
 70
     9
177
     2
291
     0
 71
     3
176
     1
 72
     2
176
     1
 73
     0
176
     1
 90
        0
176
     1
 40
0.6
176
     1
 41
30.0
176
     1
 63
     7
421
 16777215
176
     1
 74
     2
176
     1
 91
        2
176
     1
 64
     7
176
     1
 65
   257
176
     1
 75
     1
176
     1
175
     1
176
     1
 42
179.0
176
     1
 92
        8
176
     1
 66
     7
176
     1
 43
1.0
176
     1
 76
     1
176
     1
 77
     6
176
     1
 78
     2
176
     1
 67
     7
176
     1
 79
     3
176
     1
170
     0
176
     1
171
     0
176
     1
290
     0
176
     1
 93
        1
176
     1
 44
0.0
176
     1
173
     0
176
     1
1001
ACAD
1000
AcDbSavedByObjectVersion
1070
     0
  0
VISUALSTYLE
  5
19E
102
{ACAD_XDICTIONARY
360
DBF
102
}
102
{ACAD_REACTORS
330
193
102
}
330
193
100
AcDbVisualStyle
  2
Dim
 70
    11
177
     2
291
     1
 71
     2
176
     1
 72
     2
176
     1
 73
     0
176
     1
 90
        0
176
     1
 40
0.6
176
     1
 41
30.0
176
     1
 63
     7
421
 16777215
176
     1
 74
     1
176
     1
 91
        4
176
     1
 64
     7
176
     1
 65
   257
176
     1
 75
     1
176
     1
175
     1
176
     1
 42
1.0
176
     1
 92
        8
176
     1
 66
     7
176
     1
 43
1.0
176
     1
 76
     1
176
     1
 77
     6
176
     1
 78
     2
176
     1
 67
     7
176
     1
 79
     5
176
     1
170
     0
176
     1
171
     0
176
     1
290
     0
176
     1
 93
        1
176
     1
 44
-50.0
176
     1
173
     0
176
     1
1001
ACAD
1000
AcDbSavedByObjectVersion
1070
     0
  0
VISUALSTYLE
  5
1AB
102
{ACAD_XDICTIONARY
360
DD9
102
}
102
{ACAD_REACTORS
330
193
102
}
330
193
100
AcDbVisualStyle
  2
EdgeColorOff
 70
    22
177
     2
291
     1
 71
     2
176
     0
 72
     2
176
     0
 73
     0
176
     0
 90
        0
176
     0
 40
0.6
176
     0
 41
30.0
176
     0
 63
     7
421
 16777215
176
     0
 74
     1
176
     0
 91
        4
176
     0
 64
     7
176
     0
 65
   257
176
     0
 75
     1
176
     0
175
     1
176
     0
 42
1.0
176
     0
 92
        8
176
     2
 66
     7
176
     0
 43
1.0
176
     0
 76
     1
176
     0
 77
     6
176
     0
 78
     2
176
     0
 67
     7
176
     0
 79
     5
176
     0
170
     0
176
     0
171
     0
176
     0
290
     0
176
     0
 93
        1
176
     0
 44
0.0
176
     0
173
     0
176
     0
1001
ACAD
1000
AcDbSavedByObjectVersion
1070
     0
  0
VISUALSTYLE
  5
1A2
102
{ACAD_XDICTIONARY
360
DC7
102
}
102
{ACAD_REACTORS
330
193
102
}
330
193
100
AcDbVisualStyle
  2
Facepattern
 70
    15
177
     2
291
     1
 71
     2
176
     1
 72
     2
176
     1
 73
     0
176
     1
 90
        0
176
     1
 40
0.6
176
     1
 41
30.0
176
     1
 63
     7
421
 16777215
176
     1
 74
     1
176
     1
 91
        4
176
     1
 64
     7
176
     1
 65
   257
176
     1
 75
     1
176
     1
175
     1
176
     1
 42
1.0
176
     1
 92
        8
176
     1
 66
     7
176
     1
 43
1.0
176
     1
 76
     1
176
     1
 77
     6
176
     1
 78
     2
176
     1
 67
     7
176
     1
 79
     5
176
     1
170
     0
176
     1
171
     0
176
     1
290
     0
176
     1
 93
        1
176
     1
 44
0.0
176
     1
173
     0
176
     1
1001
ACAD
1000
AcDbSavedByObjectVersion
1070
     0
  0
VISUALSTYLE
  5
194
102
{ACAD_XDICTIONARY
360
DAB
102
}
102
{ACAD_REACTORS
330
193
102
}
330
193
100
AcDbVisualStyle
  2
Flat
 70
     0
177
     2
291
     1
 71
     2
176
     1
 72
     1
176
     1
 73
     1
176
     1
 90
        2
176
     1
 40
0.6
176
     1
 41
30.0
176
     1
 63
     7
421
 16777215
176
     1
 74
     0
176
     1
 91
        0
176
     1
 64
     7
176
     1
 65
   257
176
     1
 75
     1
176
     1
175
     1
176
     1
 42
1.0
176
     1
 92
        8
176
     1
 66
     7
176
     1
 43
1.0
176
     1
 76
     1
176
     1
 77
     6
176
     1
 78
     2
176
     1
 67
     7
176
     1
 79
     5
176
     1
170
     0
176
     1
171
     0
176
     1
290
     0
176
     1
 93
       13
176
     1
 44
0.0
176
     1
173
     0
176
     1
1001
ACAD
1000
AcDbSavedByObjectVersion
1070
     0
  0
VISUALSTYLE
  5
195
102
{ACAD_XDICTIONARY
360
DAD
102
}
102
{ACAD_REACTORS
330
193
102
}
330
193
100
AcDbVisualStyle
  2
FlatWithEdges
 70
     1
177
     2
291
     1
 71
     2
176
     1
 72
     1
176
     1
 73
     1
176
     1
 90
        2
176
     1
 40
0.6
176
     1
 41
30.0
176
     1
 63
     7
421
 16777215
176
     1
 74
     1
176
     1
 91
        0
176
     1
 64
     7
176
     1
 65
   257
176
     1
 75
     1
176
     1
175
     1
176
     1
 42
1.0
176
     1
 92
        0
176
     1
 66
   257
176
     1
 43
1.0
176
     1
 76
     1
176
     1
 77
     6
176
     1
 78
     2
176
     1
 67
     7
176
     1
 79
     5
176
     1
170
     0
176
     1
171
     0
176
     1
290
     0
176
     1
 93
       13
176
     1
 44
0.0
176
     1
173
     0
176
     1
1001
ACAD
1000
AcDbSavedByObjectVersion
1070
     0
  0
VISUALSTYLE
  5
196
102
{ACAD_XDICTIONARY
360
DAF
102
}
102
{ACAD_REACTORS
330
193
102
}
330
193
100
AcDbVisualStyle
  2
Gouraud
 70
     2
177
     2
291
     1
 71
     2
176
     1
 72
     2
176
     1
 73
     1
176
     1
 90
        2
176
     1
 40
0.6
176
     1
 41
30.0
176
     1
 63
     7
421
 16777215
176
     1
 74
     0
176
     1
 91
        0
176
     1
 64
     7
176
     1
 65
   257
176
     1
 75
     1
176
     1
175
     1
176
     1
 42
1.0
176
     1
 92
        0
176
     1
 66
     7
176
     1
 43
1.0
176
     1
 76
     1
176
     1
 77
     6
176
     1
 78
     2
176
     1
 67
     7
176
     1
 79
     5
176
     1
170
     0
176
     1
171
     0
176
     1
290
     0
176
     1
 93
       13
176
     1
 44
0.0
176
     1
173
     0
176
     1
1001
ACAD
1000
AcDbSavedByObjectVersion
1070
     0
  0
VISUALSTYLE
  5
197
102
{ACAD_XDICTIONARY
360
DB1
102
}
102
{ACAD_REACTORS
330
193
102
}
330
193
100
AcDbVisualStyle
  2
GouraudWithEdges
 70
     3
177
     2
291
     1
 71
     2
176
     1
 72
     2
176
     1
 73
     1
176
     1
 90
        2
176
     1
 40
0.6
176
     1
 41
30.0
176
     1
 63
     7
421
 16777215
176
     1
 74
     1
176
     1
 91
        0
176
     1
 64
     7
176
     1
 65
   257
176
     1
 75
     1
176
     1
175
     1
176
     1
 42
1.0
176
     1
 92
        0
176
     1
 66
   257
176
     1
 43
1.0
176
     1
 76
     1
176
     1
 77
     6
176
     1
 78
     2
176
     1
 67
     7
176
     1
 79
     5
176
     1
170
     0
176
     1
171
     0
176
     1
290
     0
176
     1
 93
       13
176
     1
 44
0.0
176
     1
173
     0
176
     1
1001
ACAD
1000
AcDbSavedByObjectVersion
1070
     0
  0
VISUALSTYLE
  5
19B
102
{ACAD_XDICTIONARY
360
DB9
102
}
102
{ACAD_REACTORS
330
193
102
}
330
193
100
AcDbVisualStyle
  2
Hidden
 70
     6
177
     2
291
     0
 71
     1
176
     1
 72
     2
176
     1
 73
     2
176
     1
 90
        0
176
     1
 40
0.6
176
     1
 41
30.0
176
     1
 63
     7
421
 16777215
176
     1
 74
     2
176
     1
 91
        2
176
     1
 64
     7
176
     1
 65
   257
176
     1
 75
     2
176
     1
175
     1
176
     1
 42
40.0
176
     1
 92
        0
176
     1
 66
   257
176
     1
 43
1.0
176
     1
 76
     1
176
     1
 77
     6
176
     1
 78
     2
176
     1
 67
     7
176
     1
 79
     3
176
     1
170
     0
176
     1
171
     0
176
     1
290
     0
176
     1
 93
        1
176
     1
 44
0.0
176
     1
173
     0
176
     1
1001
ACAD
1000
AcDbSavedByObjectVersion
1070
     0
  0
VISUALSTYLE
  5
1A9
102
{ACAD_XDICTIONARY
360
DD5
102
}
102
{ACAD_REACTORS
330
193
102
}
330
193
100
AcDbVisualStyle
  2
JitterOff
 70
    20
177
     2
291
     1
 71
     2
176
     0
 72
     2
176
     0
 73
     0
176
     0
 90
        0
176
     0
 40
0.6
176
     0
 41
30.0
176
     0
 63
     7
421
 16777215
176
     0
 74
     1
176
     0
 91
        4
176
     0
 64
     7
176
     0
 65
   257
176
     0
 75
     1
176
     0
175
     1
176
     0
 42
1.0
176
     0
 92
       10
176
     2
 66
     7
176
     0
 43
1.0
176
     0
 76
     1
176
     0
 77
     6
176
     0
 78
     2
176
     0
 67
     7
176
     0
 79
     5
176
     0
170
     0
176
     0
171
     0
176
     0
290
     0
176
     0
 93
        1
176
     0
 44
0.0
176
     0
173
     0
176
     0
1001
ACAD
1000
AcDbSavedByObjectVersion
1070
     0
  0
VISUALSTYLE
  5
1A1
102
{ACAD_XDICTIONARY
360
DC5
102
}
102
{ACAD_REACTORS
330
193
102
}
330
193
100
AcDbVisualStyle
  2
Linepattern
 70
    14
177
     2
291
     1
 71
     2
176
     1
 72
     2
176
     1
 73
     0
176
     1
 90
        0
176
     1
 40
0.6
176
     1
 41
30.0
176
     1
 63
     7
421
 16777215
176
     1
 74
     1
176
     1
 91
        4
176
     1
 64
     7
176
     1
 65
   257
176
     1
 75
     7
176
     1
175
     7
176
     1
 42
1.0
176
     1
 92
        8
176
     1
 66
     7
176
     1
 43
1.0
176
     1
 76
     1
176
     1
 77
     6
176
     1
 78
     2
176
     1
 67
     7
176
     1
 79
     5
176
     1
170
     0
176
     1
171
     0
176
     1
290
     0
176
     1
 93
        1
176
     1
 44
0.0
176
     1
173
     0
176
     1
1001
ACAD
1000
AcDbSavedByObjectVersion
1070
     0
  0
VISUALSTYLE
  5
1AA
102
{ACAD_XDICTIONARY
360
DD7
102
}
102
{ACAD_REACTORS
330
193
102
}
330
193
100
AcDbVisualStyle
  2
OverhangOff
 70
    21
177
     2
291
     1
 71
     2
176
     0
 72
     2
176
     0
 73
     0
176
     0
 90
        0
176
     0
 40
0.6
176
     0
 41
30.0
176
     0
 63
     7
421
 16777215
176
     0
 74
     1
176
     0
 91
        4
176
     0
 64
     7
176
     0
 65
   257
176
     0
 75
     1
176
     0
175
     1
176
     0
 42
1.0
176
     0
 92
        9
176
     2
 66
     7
176
     0
 43
1.0
176
     0
 76
     1
176
     0
 77
     6
176
     0
 78
     2
176
     0
 67
     7
176
     0
 79
     5
176
     0
170
     0
176
     0
171
     0
176
     0
290
     0
176
     0
 93
        1
176
     0
 44
0.0
176
     0
173
     0
176
     0
1001
ACAD
1000
AcDbSavedByObjectVersion
1070
     0
  0
VISUALSTYLE
  5
19D
102
{ACAD_XDICTIONARY
360
DBD
102
}
102
{ACAD_REACTORS
330
193
102
}
330
193
100
AcDbVisualStyle
  2
Realistic
 70
     8
177
     2
291
     0
 71
     2
176
     1
 72
     3
176
     1
 73
     0
176
     1
 90
        2
176
     1
 40
0.6
176
     1
 41
30.0
176
     1
 63
     7
421
 16777215
176
     1
 74
     0
176
     1
 91
        0
176
     1
 64
     7
176
     1
 65
   257
176
     1
 75
     1
176
     1
175
     1
176
     1
 42
1.0
176
     1
 92
        8
176
     1
 66
   257
176
     1
 43
1.0
176
     1
 76
     1
176
     1
 77
     6
176
     1
 78
     2
176
     1
 67
     7
176
     1
 79
     3
176
     1
170
     0
176
     1
171
     0
176
     1
290
     0
176
     1
 93
       13
176
     1
 44
0.0
176
     1
173
     0
176
     1
1001
ACAD
1000
AcDbSavedByObjectVersion
1070
     0
  0
VISUALSTYLE
  5
1A8
102
{ACAD_XDICTIONARY
360
DD3
102
}
102
{ACAD_REACTORS
330
193
102
}
330
193
100
AcDbVisualStyle
  2
Shaded
 70
    27
177
     2
291
     0
 71
     2
176
     1
 72
     2
176
     1
 73
     1
176
     1
 90
        2
176
     1
 40
0.6
176
     1
 41
30.0
176
     1
 63
     7
421
 16777215
176
     1
 74
     0
176
     1
 91
        4
176
     1
 64
     7
176
     1
 65
   257
176
     1
 75
     1
176
     1
175
     1
176
     1
 42
1.0
176
     1
 92
        8
176
     1
 66
   257
176
     1
 43
1.0
176
     1
 76
     1
176
     1
 77
     6
176
     1
 78
     2
176
     1
 67
     8
425
  7895160
176
     1
 79
     3
176
     1
170
     0
176
     1
171
     0
176
     1
290
     0
176
     1
 93
        5
176
     1
 44
0.0
176
     1
173
     0
176
     1
1001
ACAD
1000
AcDbSavedByObjectVersion
1070
     0
  0
VISUALSTYLE
  5
1A7
102
{ACAD_XDICTIONARY
360
DD1
102
}
102
{ACAD_REACTORS
330
193
102
}
330
193
100
AcDbVisualStyle
  2
Shaded with edges
 70
    26
177
     2
291
     0
 71
     2
176
     1
 72
     2
176
     1
 73
     1
176
     1
 90
        2
176
     1
 40
0.6
176
     1
 41
30.0
176
     1
 63
     7
421
 16777215
176
     1
 74
     1
176
     1
 91
        2
176
     1
 64
     7
176
     1
 65
   257
176
     1
 75
     2
176
     1
175
     1
176
     1
 42
1.0
176
     1
 92
        8
176
     1
 66
   257
176
     1
 43
1.0
176
     1
 76
     1
176
     1
 77
     6
176
     1
 78
     2
176
     1
 67
     7
176
     1
 79
     3
176
     1
170
     0
176
     1
171
     0
176
     1
290
     0
176
     1
 93
        5
176
     1
 44
0.0
176
     1
173
     0
176
     1
1001
ACAD
1000
AcDbSavedByObjectVersion
1070
     0
  0
VISUALSTYLE
  5
1A4
102
{ACAD_XDICTIONARY
360
DCB
102
}
102
{ACAD_REACTORS
330
193
102
}
330
193
100
AcDbVisualStyle
  2
Shades of Gray
 70
    23
177
     2
291
     0
 71
     2
176
     1
 72
     2
176
     1
 73
     3
176
     1
 90
        0
176
     1
 40
0.6
176
     1
 41
30.0
176
     1
 63
     7
421
 16777215
176
     1
 74
     2
176
     1
 91
        2
176
     1
 64
     7
176
     1
 65
     7
176
     1
 75
     1
176
     1
175
     1
176
     1
 42
40.0
176
     1
 92
        8
176
     1
 66
     7
176
     1
 43
1.0
176
     1
 76
     1
176
     1
 77
     6
176
     1
 78
     2
176
     1
 67
     7
176
     1
 79
     3
176
     1
170
     0
176
     1
171
     0
176
     1
290
     0
176
     1
 93
        1
176
     1
 44
0.0
176
     1
173
     0
176
     1
1001
ACAD
1000
AcDbSavedByObjectVersion
1070
     0
  0
VISUALSTYLE
  5
1A5
102
{ACAD_XDICTIONARY
360
DCD
102
}
102
{ACAD_REACTORS
330
193
102
}
330
193
100
AcDbVisualStyle
  2
Sketchy
 70
    24
177
     2
291
     0
 71
     1
176
     1
 72
     2
176
     1
 73
     2
176
     1
 90
        0
176
     1
 40
0.6
176
     1
 41
30.0
176
     1
 63
     7
421
 16777215
176
     1
 74
     2
176
     1
 91
        2
176
     1
 64
     7
176
     1
 65
     7
176
     1
 75
     1
176
     1
175
     1
176
     1
 42
40.0
176
     1
 92
       11
176
     1
 66
     7
176
     1
 43
1.0
176
     1
 76
     1
176
     1
 77
     6
176
     1
 78
     2
176
     1
 67
     7
176
     1
 79
     6
176
     1
170
     0
176
     1
171
     0
176
     1
290
     0
176
     1
 93
        1
176
     1
 44
0.0
176
     1
173
     0
176
     1
1001
ACAD
1000
AcDbSavedByObjectVersion
1070
     0
  0
VISUALSTYLE
  5
1A0
102
{ACAD_XDICTIONARY
360
DC3
102
}
102
{ACAD_REACTORS
330
193
102
}
330
193
100
AcDbVisualStyle
  2
Thicken
 70
    13
177
     2
291
     1
 71
     2
176
     1
 72
     2
176
     1
 73
     0
176
     1
 90
        0
176
     1
 40
0.6
176
     1
 41
30.0
176
     1
 63
     7
421
 16777215
176
     1
 74
     1
176
     1
 91
        4
176
     1
 64
     7
176
     1
 65
   257
176
     1
 75
     1
176
     1
175
     1
176
     1
 42
1.0
176
     1
 92
       12
176
     1
 66
     7
176
     1
 43
1.0
176
     1
 76
     1
176
     1
 77
     6
176
     1
 78
     2
176
     1
 67
     7
176
     1
 79
     5
176
     1
170
     0
176
     1
171
     0
176
     1
290
     0
176
     1
 93
        1
176
     1
 44
0.0
176
     1
173
     0
176
     1
1001
ACAD
1000
AcDbSavedByObjectVersion
1070
     0
  0
VISUALSTYLE
  5
19A
102
{ACAD_XDICTIONARY
360
DB7
102
}
102
{ACAD_REACTORS
330
193
102
}
330
193
100
AcDbVisualStyle
  2
Wireframe
 70
     5
177
     2
291
     0
 71
     0
176
     1
 72
     2
176
     1
 73
     0
176
     1
 90
        0
176
     1
 40
0.6
176
     1
 41
30.0
176
     1
 63
     7
421
 16777215
176
     1
 74
     1
176
     1
 91
        4
176
     1
 64
     7
176
     1
 65
   257
176
     1
 75
     1
176
     1
175
     1
176
     1
 42
1.0
176
     1
 92
        0
176
     1
 66
   257
176
     1
 43
1.0
176
     1
 76
     1
176
     1
 77
     6
176
     1
 78
     2
176
     1
 67
     7
176
     1
 79
     3
176
     1
170
     0
176
     1
171
     0
176
     1
290
     0
176
     1
 93
        1
176
     1
 44
0.0
176
     1
173
     0
176
     1
1001
ACAD
1000
AcDbSavedByObjectVersion
1070
     0
  0
VISUALSTYLE
  5
1A6
102
{ACAD_XDICTIONARY
360
DCF
102
}
102
{ACAD_REACTORS
330
193
102
}
330
193
100
AcDbVisualStyle
  2
X-Ray
 70
    25
177
     2
291
     0
 71
     2
176
     1
 72
     2
176
     1
 73
     1
176
     1
 90
        1
176
     1
 40
0.5
176
     1
 41
30.0
176
     1
 63
     7
421
 16777215
176
     1
 74
     1
176
     1
 91
        0
176
     1
 64
     7
176
     1
 65
   257
176
     1
 75
     1
176
     1
175
     1
176
     1
 42
1.0
176
     1
 92
        8
176
     1
 66
     7
176
     1
 43
1.0
176
     1
 76
     1
176
     1
 77
     6
176
     1
 78
     2
176
     1
 67
     7
176
     1
 79
     3
176
     1
170
     0
176
     1
171
     0
176
     1
290
     0
176
     1
 93
       13
176
     1
 44
0.0
176
     1
173
     0
176
     1
1001
ACAD
1000
AcDbSavedByObjectVersion
1070
     0
  0
DICTIONARYVAR
  5
2D1
102
{ACAD_REACTORS
330
2CB
102
}
330
2CB
100
DictionaryVariables
280
     0
  1
1:1
  0
DICTIONARYVAR
  5
2CD
102
{ACAD_REACTORS
330
2CB
102
}
330
2CB
100
DictionaryVariables
280
     0
  1
STANDARD
  0
DICTIONARYVAR
  5
2CC
102
{ACAD_REACTORS
330
2CB
102
}
330
2CB
100
DictionaryVariables
280
     0
  1
STANDARD
  0
DICTIONARYVAR
  5
2CE
102
{ACAD_REACTORS
330
2CB
102
}
330
2CB
100
DictionaryVariables
280
     0
  1
Imperial24
  0
DICTIONARYVAR
  5
2CF
102
{ACAD_REACTORS
330
2CB
102
}
330
2CB
100
DictionaryVariables
280
     0
  1
Imperial24
  0
DICTIONARYVAR
  5
2D3
102
{ACAD_REACTORS
330
2CB
102
}
330
2CB
100
DictionaryVariables
280
     0
  1
1
  0
DICTIONARYVAR
  5
2D4
102
{ACAD_REACTORS
330
2CB
102
}
330
2CB
100
DictionaryVariables
280
     0
  1
15
  0
DICTIONARYVAR
  5
2D2
102
{ACAD_REACTORS
330
2CB
102
}
330
2CB
100
DictionaryVariables
280
     0
  1
0
  0
DICTIONARYVAR
  5
2D0
102
{ACAD_REACTORS
330
2CB
102
}
330
2CB
100
DictionaryVariables
280
     0
  1
0
  0
DICTIONARY
  5
D97
330
1C7
100
AcDbDictionary
280
     1
281
     1
  3
ACAD_XREC_ROUNDTRIP
360
D98
  0
DICTIONARY
  5
D9B
330
5C1
100
AcDbDictionary
280
     1
281
     1
  3
ACAD_XREC_ROUNDTRIP
360
D9C
  0
DICTIONARY
  5
184
330
183
100
AcDbDictionary
280
     1
281
     1
  3
BUMPTILE
360
186
  3
DIFFUSETILE
360
185
  3
OPACITYTILE
360
189
  3
REFLECTIONTILE
360
188
  3
REFRACTIONTILE
360
18A
  3
SPECULARTILE
360
187
  0
DICTIONARY
  5
17C
330
17B
100
AcDbDictionary
280
     1
281
     1
  3
BUMPTILE
360
17E
  3
DIFFUSETILE
360
17D
  3
OPACITYTILE
360
181
  3
REFLECTIONTILE
360
180
  3
REFRACTIONTILE
360
182
  3
SPECULARTILE
360
17F
  0
DICTIONARY
  5
18C
330
18B
100
AcDbDictionary
280
     1
281
     1
  3
BUMPTILE
360
18E
  3
DIFFUSETILE
360
18D
  3
OPACITYTILE
360
191
  3
REFLECTIONTILE
360
190
  3
REFRACTIONTILE
360
192
  3
SPECULARTILE
360
18F
  0
DICTIONARY
  5
D95
330
1C5
100
AcDbDictionary
280
     1
281
     1
  3
ACAD_XREC_ROUNDTRIP
360
D96
  0
DICTIONARY
  5
D99
330
5C0
100
AcDbDictionary
280
     1
281
     1
  3
ACAD_XREC_ROUNDTRIP
360
D9A
  0
DICTIONARY
  5
35F
330
1AE
100
AcDbDictionary
280
     1
281
     1
  3
ACAD_ROUNDTRIP_2008_TABLESTYLE_CELLSTYLEMAP
360
DA9
  0
DICTIONARY
  5
DB5
330
199
100
AcDbDictionary
280
     1
281
     1
  3
ACAD_XREC_ROUNDTRIP
360
DB6
  0
DICTIONARY
  5
DB3
330
198
100
AcDbDictionary
280
     1
281
     1
  3
ACAD_XREC_ROUNDTRIP
360
DB4
  0
DICTIONARY
  5
DC1
330
19F
100
AcDbDictionary
280
     1
281
     1
  3
ACAD_XREC_ROUNDTRIP
360
DC2
  0
DICTIONARY
  5
DC9
330
1A3
100
AcDbDictionary
280
     1
281
     1
  3
ACAD_XREC_ROUNDTRIP
360
DCA
  0
DICTIONARY
  5
DBB
330
19C
100
AcDbDictionary
280
     1
281
     1
  3
ACAD_XREC_ROUNDTRIP
360
DBC
  0
DICTIONARY
  5
DBF
330
19E
100
AcDbDictionary
280
     1
281
     1
  3
ACAD_XREC_ROUNDTRIP
360
DC0
  0
DICTIONARY
  5
DD9
330
1AB
100
AcDbDictionary
280
     1
281
     1
  3
ACAD_XREC_ROUNDTRIP
360
DDA
  0
DICTIONARY
  5
DC7
330
1A2
100
AcDbDictionary
280
     1
281
     1
  3
ACAD_XREC_ROUNDTRIP
360
DC8
  0
DICTIONARY
  5
DAB
330
194
100
AcDbDictionary
280
     1
281
     1
  3
ACAD_XREC_ROUNDTRIP
360
DAC
  0
DICTIONARY
  5
DAD
330
195
100
AcDbDictionary
280
     1
281
     1
  3
ACAD_XREC_ROUNDTRIP
360
DAE
  0
DICTIONARY
  5
DAF
330
196
100
AcDbDictionary
280
     1
281
     1
  3
ACAD_XREC_ROUNDTRIP
360
DB0
  0
DICTIONARY
  5
DB1
330
197
100
AcDbDictionary
280
     1
281
     1
  3
ACAD_XREC_ROUNDTRIP
360
DB2
  0
DICTIONARY
  5
DB9
330
19B
100
AcDbDictionary
280
     1
281
     1
  3
ACAD_XREC_ROUNDTRIP
360
DBA
  0
DICTIONARY
  5
DD5
330
1A9
100
AcDbDictionary
280
     1
281
     1
  3
ACAD_XREC_ROUNDTRIP
360
DD6
  0
DICTIONARY
  5
DC5
330
1A1
100
AcDbDictionary
280
     1
281
     1
  3
ACAD_XREC_ROUNDTRIP
360
DC6
  0
DICTIONARY
  5
DD7
330
1AA
100
AcDbDictionary
280
     1
281
     1
  3
ACAD_XREC_ROUNDTRIP
360
DD8
  0
DICTIONARY
  5
DBD
330
19D
100
AcDbDictionary
280
     1
281
     1
  3
ACAD_XREC_ROUNDTRIP
360
DBE
  0
DICTIONARY
  5
DD3
330
1A8
100
AcDbDictionary
280
     1
281
     1
  3
ACAD_XREC_ROUNDTRIP
360
DD4
  0
DICTIONARY
  5
DD1
330
1A7
100
AcDbDictionary
280
     1
281
     1
  3
ACAD_XREC_ROUNDTRIP
360
DD2
  0
DICTIONARY
  5
DCB
330
1A4
100
AcDbDictionary
280
     1
281
     1
  3
ACAD_XREC_ROUNDTRIP
360
DCC
  0
DICTIONARY
  5
DCD
330
1A5
100
AcDbDictionary
280
     1
281
     1
  3
ACAD_XREC_ROUNDTRIP
360
DCE
  0
DICTIONARY
  5
DC3
330
1A0
100
AcDbDictionary
280
     1
281
     1
  3
ACAD_XREC_ROUNDTRIP
360
DC4
  0
DICTIONARY
  5
DB7
330
19A
100
AcDbDictionary
280
     1
281
     1
  3
ACAD_XREC_ROUNDTRIP
360
DB8
  0
DICTIONARY
  5
DCF
330
1A6
100
AcDbDictionary
280
     1
281
     1
  3
ACAD_XREC_ROUNDTRIP
360
DD0
  0
XRECORD
  5
D98
102
{ACAD_REACTORS
330
D97
102
}
330
D97
100
AcDbXrecord
280
     1
102
DISPLAYNAME
  1
Imperial24
102
FLAGS
 90
        0
  0
XRECORD
  5
D9C
102
{ACAD_REACTORS
330
D9B
102
}
330
D9B
100
AcDbXrecord
280
     1
102
DISPLAYNAME
  1
Metric50
102
FLAGS
 90
        0
  0
XRECORD
  5
186
102
{ACAD_REACTORS
330
184
102
}
330
184
100
AcDbXrecord
280
     1
270
     1
271
     1
  0
XRECORD
  5
185
102
{ACAD_REACTORS
330
184
102
}
330
184
100
AcDbXrecord
280
     1
270
     1
271
     1
  0
XRECORD
  5
189
102
{ACAD_REACTORS
330
184
102
}
330
184
100
AcDbXrecord
280
     1
270
     1
271
     1
  0
XRECORD
  5
188
102
{ACAD_REACTORS
330
184
102
}
330
184
100
AcDbXrecord
280
     1
270
     1
271
     1
  0
XRECORD
  5
18A
102
{ACAD_REACTORS
330
184
102
}
330
184
100
AcDbXrecord
280
     1
270
     1
271
     1
  0
XRECORD
  5
187
102
{ACAD_REACTORS
330
184
102
}
330
184
100
AcDbXrecord
280
     1
270
     1
271
     1
  0
XRECORD
  5
17E
102
{ACAD_REACTORS
330
17C
102
}
330
17C
100
AcDbXrecord
280
     1
270
     1
271
     1
  0
XRECORD
  5
17D
102
{ACAD_REACTORS
330
17C
102
}
330
17C
100
AcDbXrecord
280
     1
270
     1
271
     1
  0
XRECORD
  5
181
102
{ACAD_REACTORS
330
17C
102
}
330
17C
100
AcDbXrecord
280
     1
270
     1
271
     1
  0
XRECORD
  5
180
102
{ACAD_REACTORS
330
17C
102
}
330
17C
100
AcDbXrecord
280
     1
270
     1
271
     1
  0
XRECORD
  5
182
102
{ACAD_REACTORS
330
17C
102
}
330
17C
100
AcDbXrecord
280
     1
270
     1
271
     1
  0
XRECORD
  5
17F
102
{ACAD_REACTORS
330
17C
102
}
330
17C
100
AcDbXrecord
280
     1
270
     1
271
     1
  0
XRECORD
  5
18E
102
{ACAD_REACTORS
330
18C
102
}
330
18C
100
AcDbXrecord
280
     1
270
     1
271
     1
  0
XRECORD
  5
18D
102
{ACAD_REACTORS
330
18C
102
}
330
18C
100
AcDbXrecord
280
     1
270
     1
271
     1
  0
XRECORD
  5
191
102
{ACAD_REACTORS
330
18C
102
}
330
18C
100
AcDbXrecord
280
     1
270
     1
271
     1
  0
XRECORD
  5
190
102
{ACAD_REACTORS
330
18C
102
}
330
18C
100
AcDbXrecord
280
     1
270
     1
271
     1
  0
XRECORD
  5
192
102
{ACAD_REACTORS
330
18C
102
}
330
18C
100
AcDbXrecord
280
     1
270
     1
271
     1
  0
XRECORD
  5
18F
102
{ACAD_REACTORS
330
18C
102
}
330
18C
100
AcDbXrecord
280
     1
270
     1
271
     1
  0
XRECORD
  5
D96
102
{ACAD_REACTORS
330
D95
102
}
330
D95
100
AcDbXrecord
280
     1
102
DISPLAYNAME
  1
Imperial24
102
FLAGS
 90
        0
  0
XRECORD
  5
D9A
102
{ACAD_REACTORS
330
D99
102
}
330
D99
100
AcDbXrecord
280
     1
102
DISPLAYNAME
  1
Metric50
102
FLAGS
 90
        0
  0
CELLSTYLEMAP
  5
DA9
102
{ACAD_REACTORS
330
35F
102
}
330
35F
100
AcDbCellStyleMap
 90
        3
300
CELLSTYLE
  1
TABLEFORMAT_BEGIN
 90
        5
170
     1
 91
        0
 92
    32768
 62
   257
 93
        1
300
CONTENTFORMAT
  1
CONTENTFORMAT_BEGIN
 90
        0
 91
        0
 92
      512
 93
        0
300

 40
0.0
140
1.0
 94
        5
 62
     0
340
11
144
0.25
309
CONTENTFORMAT_END
171
     1
301
MARGIN
  1
CELLMARGIN_BEGIN
 40
0.06
 40
0.06
 40
0.06
 40
0.06
 40
0.18
 40
0.18
309
CELLMARGIN_END
 94
        6
 95
        1
302
GRIDFORMAT
  1
GRIDFORMAT_BEGIN
 90
        0
 91
        1
 62
     0
 92
       -2
340
0
 93
        0
 40
0.045
309
GRIDFORMAT_END
 95
        2
302
GRIDFORMAT
  1
GRIDFORMAT_BEGIN
 90
        0
 91
        1
 62
     0
 92
       -2
340
0
 93
        0
 40
0.045
309
GRIDFORMAT_END
 95
        4
302
GRIDFORMAT
  1
GRIDFORMAT_BEGIN
 90
        0
 91
        1
 62
     0
 92
       -2
340
0
 93
        0
 40
0.045
309
GRIDFORMAT_END
 95
        8
302
GRIDFORMAT
  1
GRIDFORMAT_BEGIN
 90
        0
 91
        1
 62
     0
 92
       -2
340
0
 93
        0
 40
0.045
309
GRIDFORMAT_END
 95
       16
302
GRIDFORMAT
  1
GRIDFORMAT_BEGIN
 90
        0
 91
        1
 62
     0
 92
       -2
340
0
 93
        0
 40
0.045
309
GRIDFORMAT_END
 95
       32
302
GRIDFORMAT
  1
GRIDFORMAT_BEGIN
 90
        0
 91
        1
 62
     0
 92
       -2
340
0
 93
        0
 40
0.045
309
GRIDFORMAT_END
309
TABLEFORMAT_END
  1
CELLSTYLE_BEGIN
 90
        1
 91
        1
300
_TITLE
309
CELLSTYLE_END
300
CELLSTYLE
  1
TABLEFORMAT_BEGIN
 90
        5
170
     1
 91
        0
 92
        0
 62
   257
 93
        1
300
CONTENTFORMAT
  1
CONTENTFORMAT_BEGIN
 90
        0
 91
        0
 92
      512
 93
        0
300

 40
0.0
140
1.0
 94
        5
 62
     0
340
11
144
0.18
309
CONTENTFORMAT_END
171
     1
301
MARGIN
  1
CELLMARGIN_BEGIN
 40
0.06
 40
0.06
 40
0.06
 40
0.06
 40
0.18
 40
0.18
309
CELLMARGIN_END
 94
        6
 95
        1
302
GRIDFORMAT
  1
GRIDFORMAT_BEGIN
 90
        0
 91
        1
 62
     0
 92
       -2
340
0
 93
        0
 40
0.045
309
GRIDFORMAT_END
 95
        2
302
GRIDFORMAT
  1
GRIDFORMAT_BEGIN
 90
        0
 91
        1
 62
     0
 92
       -2
340
0
 93
        0
 40
0.045
309
GRIDFORMAT_END
 95
        4
302
GRIDFORMAT
  1
GRIDFORMAT_BEGIN
 90
        0
 91
        1
 62
     0
 92
       -2
340
0
 93
        0
 40
0.045
309
GRIDFORMAT_END
 95
        8
302
GRIDFORMAT
  1
GRIDFORMAT_BEGIN
 90
        0
 91
        1
 62
     0
 92
       -2
340
0
 93
        0
 40
0.045
309
GRIDFORMAT_END
 95
       16
302
GRIDFORMAT
  1
GRIDFORMAT_BEGIN
 90
        0
 91
        1
 62
     0
 92
       -2
340
0
 93
        0
 40
0.045
309
GRIDFORMAT_END
 95
       32
302
GRIDFORMAT
  1
GRIDFORMAT_BEGIN
 90
        0
 91
        1
 62
     0
 92
       -2
340
0
 93
        0
 40
0.045
309
GRIDFORMAT_END
309
TABLEFORMAT_END
  1
CELLSTYLE_BEGIN
 90
        2
 91
        1
300
_HEADER
309
CELLSTYLE_END
300
CELLSTYLE
  1
TABLEFORMAT_BEGIN
 90
        5
170
     1
 91
        0
 92
        0
 62
   257
 93
        1
300
CONTENTFORMAT
  1
CONTENTFORMAT_BEGIN
 90
        0
 91
        0
 92
      512
 93
        0
300

 40
0.0
140
1.0
 94
        2
 62
     0
340
11
144
0.18
309
CONTENTFORMAT_END
171
     1
301
MARGIN
  1
CELLMARGIN_BEGIN
 40
0.06
 40
0.06
 40
0.06
 40
0.06
 40
0.18
 40
0.18
309
CELLMARGIN_END
 94
        6
 95
        1
302
GRIDFORMAT
  1
GRIDFORMAT_BEGIN
 90
        0
 91
        1
 62
     0
 92
       -2
340
0
 93
        0
 40
0.045
309
GRIDFORMAT_END
 95
        2
302
GRIDFORMAT
  1
GRIDFORMAT_BEGIN
 90
        0
 91
        1
 62
     0
 92
       -2
340
0
 93
        0
 40
0.045
309
GRIDFORMAT_END
 95
        4
302
GRIDFORMAT
  1
GRIDFORMAT_BEGIN
 90
        0
 91
        1
 62
     0
 92
       -2
340
0
 93
        0
 40
0.045
309
GRIDFORMAT_END
 95
        8
302
GRIDFORMAT
  1
GRIDFORMAT_BEGIN
 90
        0
 91
        1
 62
     0
 92
       -2
340
0
 93
        0
 40
0.045
309
GRIDFORMAT_END
 95
       16
302
GRIDFORMAT
  1
GRIDFORMAT_BEGIN
 90
        0
 91
        1
 62
     0
 92
       -2
340
0
 93
        0
 40
0.045
309
GRIDFORMAT_END
 95
       32
302
GRIDFORMAT
  1
GRIDFORMAT_BEGIN
 90
        0
 91
        1
 62
     0
 92
       -2
340
0
 93
        0
 40
0.045
309
GRIDFORMAT_END
309
TABLEFORMAT_END
  1
CELLSTYLE_BEGIN
 90
        3
 91
        2
300
_DATA
309
CELLSTYLE_END
  0
XRECORD
  5
DB6
102
{ACAD_REACTORS
330
DB5
102
}
330
DB5
100
AcDbXrecord
280
     1
102
RTVSPost2010Prop28
280
     1
102
RTVSPost2010PropOp28
 70
     1
102
RTVSPost2010Prop29
280
     1
102
RTVSPost2010PropOp29
 70
     1
102
RTVSPost2010Prop30
280
     0
102
RTVSPost2010PropOp30
 70
     1
102
RTVSPost2010Prop31
280
     0
102
RTVSPost2010PropOp31
 70
     1
102
RTVSPost2010Prop32
280
     0
102
RTVSPost2010PropOp32
 70
     1
102
RTVSPost2010Prop33
280
     0
102
RTVSPost2010PropOp33
 70
     1
102
RTVSPost2010Prop34
280
     0
102
RTVSPost2010PropOp34
 70
     1
102
RTVSPost2010Prop35
280
     0
102
RTVSPost2010PropOp35
 70
     1
102
RTVSPost2010Prop36
280
     0
102
RTVSPost2010PropOp36
 70
     1
102
RTVSPost2010Prop37
 90
       50
102
RTVSPost2010PropOp37
 70
     1
102
RTVSPost2010Prop38
140
0.0
102
RTVSPost2010PropOp38
 70
     1
102
RTVSPost2010Prop39
140
1.0
102
RTVSPost2010PropOp39
 70
     1
102
RTVSPost2010Prop40
 90
        0
102
RTVSPost2010PropOp40
 70
     1
102
RTVSPost2010Prop41ColorIndex
 90
       18
102
RTVSPost2010Prop41ColorRGB
 90
        0
102
RTVSPost2010PropOp41
 70
     1
102
RTVSPost2010Prop42
 90
       50
102
RTVSPost2010PropOp42
 70
     1
102
RTVSPost2010Prop43
 90
        3
102
RTVSPost2010PropOp43
 70
     1
102
RTVSPost2010Prop44ColorIndex
 90
        5
102
RTVSPost2010Prop44ColorRGB
 90
      255
102
RTVSPost2010PropOp44
 70
     1
102
RTVSPost2010Prop45
280
     0
102
RTVSPost2010PropOp45
 70
     1
102
RTVSPost2010Prop46
 90
       50
102
RTVSPost2010PropOp46
 70
     1
102
RTVSPost2010Prop47
 90
       50
102
RTVSPost2010PropOp47
 70
     1
102
RTVSPost2010Prop48
 90
       50
102
RTVSPost2010PropOp48
 70
     1
102
RTVSPost2010Prop49
280
     0
102
RTVSPost2010PropOp49
 70
     1
102
RTVSPost2010Prop50
 90
       50
102
RTVSPost2010PropOp50
 70
     1
102
RTVSPost2010Prop51ColorIndex
 90
      256
102
RTVSPost2010Prop51ColorRGB
 90
-16777216
102
RTVSPost2010PropOp51
 70
     0
102
RTVSPost2010Prop52
140
1.0
102
RTVSPost2010PropOp52
 70
     0
102
RTVSPost2010Prop53
 90
        2
102
RTVSPost2010PropOp53
 70
     1
102
RTVSPost2010Prop54
  1
strokes_ogs.tif
102
RTVSPost2010PropOp54
 70
     1
102
RTVSPost2010Prop55
280
     0
102
RTVSPost2010PropOp55
 70
     1
102
RTVSPost2010Prop56
140
1.0
102
RTVSPost2010PropOp56
 70
     1
102
RTVSPost2010Prop57
140
1.0
102
RTVSPost2010PropOp57
 70
     1
  0
XRECORD
  5
DB4
102
{ACAD_REACTORS
330
DB3
102
}
330
DB3
100
AcDbXrecord
280
     1
102
RTVSPost2010Prop28
280
     0
102
RTVSPost2010PropOp28
 70
     1
102
RTVSPost2010Prop29
280
     1
102
RTVSPost2010PropOp29
 70
     1
102
RTVSPost2010Prop30
280
     1
102
RTVSPost2010PropOp30
 70
     1
102
RTVSPost2010Prop31
280
     0
102
RTVSPost2010PropOp31
 70
     1
102
RTVSPost2010Prop32
280
     0
102
RTVSPost2010PropOp32
 70
     1
102
RTVSPost2010Prop33
280
     0
102
RTVSPost2010PropOp33
 70
     1
102
RTVSPost2010Prop34
280
     0
102
RTVSPost2010PropOp34
 70
     1
102
RTVSPost2010Prop35
280
     0
102
RTVSPost2010PropOp35
 70
     1
102
RTVSPost2010Prop36
280
     0
102
RTVSPost2010PropOp36
 70
     1
102
RTVSPost2010Prop37
 90
       50
102
RTVSPost2010PropOp37
 70
     1
102
RTVSPost2010Prop38
140
0.0
102
RTVSPost2010PropOp38
 70
     1
102
RTVSPost2010Prop39
140
1.0
102
RTVSPost2010PropOp39
 70
     1
102
RTVSPost2010Prop40
 90
        0
102
RTVSPost2010PropOp40
 70
     1
102
RTVSPost2010Prop41ColorIndex
 90
       18
102
RTVSPost2010Prop41ColorRGB
 90
        0
102
RTVSPost2010PropOp41
 70
     1
102
RTVSPost2010Prop42
 90
       50
102
RTVSPost2010PropOp42
 70
     1
102
RTVSPost2010Prop43
 90
        3
102
RTVSPost2010PropOp43
 70
     1
102
RTVSPost2010Prop44ColorIndex
 90
        5
102
RTVSPost2010Prop44ColorRGB
 90
      255
102
RTVSPost2010PropOp44
 70
     1
102
RTVSPost2010Prop45
280
     0
102
RTVSPost2010PropOp45
 70
     1
102
RTVSPost2010Prop46
 90
       50
102
RTVSPost2010PropOp46
 70
     1
102
RTVSPost2010Prop47
 90
       50
102
RTVSPost2010PropOp47
 70
     1
102
RTVSPost2010Prop48
 90
       50
102
RTVSPost2010PropOp48
 70
     1
102
RTVSPost2010Prop49
280
     0
102
RTVSPost2010PropOp49
 70
     1
102
RTVSPost2010Prop50
 90
       50
102
RTVSPost2010PropOp50
 70
     1
102
RTVSPost2010Prop51ColorIndex
 90
      256
102
RTVSPost2010Prop51ColorRGB
 90
-16777216
102
RTVSPost2010PropOp51
 70
     0
102
RTVSPost2010Prop52
140
1.0
102
RTVSPost2010PropOp52
 70
     0
102
RTVSPost2010Prop53
 90
        2
102
RTVSPost2010PropOp53
 70
     1
102
RTVSPost2010Prop54
  1
strokes_ogs.tif
102
RTVSPost2010PropOp54
 70
     1
102
RTVSPost2010Prop55
280
     0
102
RTVSPost2010PropOp55
 70
     1
102
RTVSPost2010Prop56
140
1.0
102
RTVSPost2010PropOp56
 70
     1
102
RTVSPost2010Prop57
140
1.0
102
RTVSPost2010PropOp57
 70
     1
  0
XRECORD
  5
DC2
102
{ACAD_REACTORS
330
DC1
102
}
330
DC1
100
AcDbXrecord
280
     1
102
RTVSPost2010Prop28
280
     0
102
RTVSPost2010PropOp28
 70
     1
102
RTVSPost2010Prop29
280
     1
102
RTVSPost2010PropOp29
 70
     1
102
RTVSPost2010Prop30
280
     1
102
RTVSPost2010PropOp30
 70
     1
102
RTVSPost2010Prop31
280
     0
102
RTVSPost2010PropOp31
 70
     1
102
RTVSPost2010Prop32
280
     0
102
RTVSPost2010PropOp32
 70
     1
102
RTVSPost2010Prop33
280
     0
102
RTVSPost2010PropOp33
 70
     1
102
RTVSPost2010Prop34
280
     0
102
RTVSPost2010PropOp34
 70
     1
102
RTVSPost2010Prop35
280
     0
102
RTVSPost2010PropOp35
 70
     1
102
RTVSPost2010Prop36
280
     0
102
RTVSPost2010PropOp36
 70
     1
102
RTVSPost2010Prop37
 90
       50
102
RTVSPost2010PropOp37
 70
     1
102
RTVSPost2010Prop38
140
0.0
102
RTVSPost2010PropOp38
 70
     1
102
RTVSPost2010Prop39
140
1.0
102
RTVSPost2010PropOp39
 70
     1
102
RTVSPost2010Prop40
 90
        0
102
RTVSPost2010PropOp40
 70
     1
102
RTVSPost2010Prop41ColorIndex
 90
       18
102
RTVSPost2010Prop41ColorRGB
 90
        0
102
RTVSPost2010PropOp41
 70
     1
102
RTVSPost2010Prop42
 90
       50
102
RTVSPost2010PropOp42
 70
     1
102
RTVSPost2010Prop43
 90
        3
102
RTVSPost2010PropOp43
 70
     1
102
RTVSPost2010Prop44ColorIndex
 90
        5
102
RTVSPost2010Prop44ColorRGB
 90
      255
102
RTVSPost2010PropOp44
 70
     1
102
RTVSPost2010Prop45
280
     0
102
RTVSPost2010PropOp45
 70
     1
102
RTVSPost2010Prop46
 90
       50
102
RTVSPost2010PropOp46
 70
     1
102
RTVSPost2010Prop47
 90
       50
102
RTVSPost2010PropOp47
 70
     1
102
RTVSPost2010Prop48
 90
       50
102
RTVSPost2010PropOp48
 70
     1
102
RTVSPost2010Prop49
280
     0
102
RTVSPost2010PropOp49
 70
     1
102
RTVSPost2010Prop50
 90
       50
102
RTVSPost2010PropOp50
 70
     1
102
RTVSPost2010Prop51ColorIndex
 90
      256
102
RTVSPost2010Prop51ColorRGB
 90
-16777216
102
RTVSPost2010PropOp51
 70
     0
102
RTVSPost2010Prop52
140
1.0
102
RTVSPost2010PropOp52
 70
     0
102
RTVSPost2010Prop53
 90
        2
102
RTVSPost2010PropOp53
 70
     1
102
RTVSPost2010Prop54
  1
strokes_ogs.tif
102
RTVSPost2010PropOp54
 70
     1
102
RTVSPost2010Prop55
280
     0
102
RTVSPost2010PropOp55
 70
     1
102
RTVSPost2010Prop56
140
1.0
102
RTVSPost2010PropOp56
 70
     1
102
RTVSPost2010Prop57
140
1.0
102
RTVSPost2010PropOp57
 70
     1
  0
XRECORD
  5
DCA
102
{ACAD_REACTORS
330
DC9
102
}
330
DC9
100
AcDbXrecord
280
     1
102
RTVSPost2010Prop28
280
     0
102
RTVSPost2010PropOp28
 70
     1
102
RTVSPost2010Prop29
280
     1
102
RTVSPost2010PropOp29
 70
     1
102
RTVSPost2010Prop30
280
     1
102
RTVSPost2010PropOp30
 70
     1
102
RTVSPost2010Prop31
280
     0
102
RTVSPost2010PropOp31
 70
     1
102
RTVSPost2010Prop32
280
     0
102
RTVSPost2010PropOp32
 70
     1
102
RTVSPost2010Prop33
280
     0
102
RTVSPost2010PropOp33
 70
     1
102
RTVSPost2010Prop34
280
     0
102
RTVSPost2010PropOp34
 70
     1
102
RTVSPost2010Prop35
280
     0
102
RTVSPost2010PropOp35
 70
     1
102
RTVSPost2010Prop36
280
     0
102
RTVSPost2010PropOp36
 70
     1
102
RTVSPost2010Prop37
 90
       50
102
RTVSPost2010PropOp37
 70
     1
102
RTVSPost2010Prop38
140
0.0
102
RTVSPost2010PropOp38
 70
     1
102
RTVSPost2010Prop39
140
1.0
102
RTVSPost2010PropOp39
 70
     1
102
RTVSPost2010Prop40
 90
        0
102
RTVSPost2010PropOp40
 70
     1
102
RTVSPost2010Prop41ColorIndex
 90
       18
102
RTVSPost2010Prop41ColorRGB
 90
        0
102
RTVSPost2010PropOp41
 70
     1
102
RTVSPost2010Prop42
 90
       50
102
RTVSPost2010PropOp42
 70
     1
102
RTVSPost2010Prop43
 90
        3
102
RTVSPost2010PropOp43
 70
     1
102
RTVSPost2010Prop44ColorIndex
 90
        5
102
RTVSPost2010Prop44ColorRGB
 90
      255
102
RTVSPost2010PropOp44
 70
     1
102
RTVSPost2010Prop45
280
     0
102
RTVSPost2010PropOp45
 70
     1
102
RTVSPost2010Prop46
 90
       50
102
RTVSPost2010PropOp46
 70
     1
102
RTVSPost2010Prop47
 90
       50
102
RTVSPost2010PropOp47
 70
     1
102
RTVSPost2010Prop48
 90
       50
102
RTVSPost2010PropOp48
 70
     1
102
RTVSPost2010Prop49
280
     0
102
RTVSPost2010PropOp49
 70
     1
102
RTVSPost2010Prop50
 90
       50
102
RTVSPost2010PropOp50
 70
     1
102
RTVSPost2010Prop51ColorIndex
 90
      256
102
RTVSPost2010Prop51ColorRGB
 90
-16777216
102
RTVSPost2010PropOp51
 70
     0
102
RTVSPost2010Prop52
140
1.0
102
RTVSPost2010PropOp52
 70
     0
102
RTVSPost2010Prop53
 90
        2
102
RTVSPost2010PropOp53
 70
     1
102
RTVSPost2010Prop54
  1
strokes_ogs.tif
102
RTVSPost2010PropOp54
 70
     1
102
RTVSPost2010Prop55
280
     0
102
RTVSPost2010PropOp55
 70
     1
102
RTVSPost2010Prop56
140
1.0
102
RTVSPost2010PropOp56
 70
     1
102
RTVSPost2010Prop57
140
1.0
102
RTVSPost2010PropOp57
 70
     1
  0
XRECORD
  5
DBC
102
{ACAD_REACTORS
330
DBB
102
}
330
DBB
100
AcDbXrecord
280
     1
102
RTVSPost2010Prop28
280
     0
102
RTVSPost2010PropOp28
 70
     1
102
RTVSPost2010Prop29
280
     1
102
RTVSPost2010PropOp29
 70
     1
102
RTVSPost2010Prop30
280
     1
102
RTVSPost2010PropOp30
 70
     1
102
RTVSPost2010Prop31
280
     0
102
RTVSPost2010PropOp31
 70
     1
102
RTVSPost2010Prop32
280
     0
102
RTVSPost2010PropOp32
 70
     1
102
RTVSPost2010Prop33
280
     0
102
RTVSPost2010PropOp33
 70
     1
102
RTVSPost2010Prop34
280
     0
102
RTVSPost2010PropOp34
 70
     1
102
RTVSPost2010Prop35
280
     0
102
RTVSPost2010PropOp35
 70
     1
102
RTVSPost2010Prop36
280
     0
102
RTVSPost2010PropOp36
 70
     1
102
RTVSPost2010Prop37
 90
       50
102
RTVSPost2010PropOp37
 70
     1
102
RTVSPost2010Prop38
140
0.0
102
RTVSPost2010PropOp38
 70
     1
102
RTVSPost2010Prop39
140
1.0
102
RTVSPost2010PropOp39
 70
     1
102
RTVSPost2010Prop40
 90
        0
102
RTVSPost2010PropOp40
 70
     1
102
RTVSPost2010Prop41ColorIndex
 90
       18
102
RTVSPost2010Prop41ColorRGB
 90
        0
102
RTVSPost2010PropOp41
 70
     1
102
RTVSPost2010Prop42
 90
       50
102
RTVSPost2010PropOp42
 70
     1
102
RTVSPost2010Prop43
 90
        3
102
RTVSPost2010PropOp43
 70
     1
102
RTVSPost2010Prop44ColorIndex
 90
        5
102
RTVSPost2010Prop44ColorRGB
 90
      255
102
RTVSPost2010PropOp44
 70
     1
102
RTVSPost2010Prop45
280
     0
102
RTVSPost2010PropOp45
 70
     1
102
RTVSPost2010Prop46
 90
       50
102
RTVSPost2010PropOp46
 70
     1
102
RTVSPost2010Prop47
 90
       50
102
RTVSPost2010PropOp47
 70
     1
102
RTVSPost2010Prop48
 90
       50
102
RTVSPost2010PropOp48
 70
     1
102
RTVSPost2010Prop49
280
     0
102
RTVSPost2010PropOp49
 70
     1
102
RTVSPost2010Prop50
 90
       50
102
RTVSPost2010PropOp50
 70
     1
102
RTVSPost2010Prop51ColorIndex
 90
      256
102
RTVSPost2010Prop51ColorRGB
 90
-16777216
102
RTVSPost2010PropOp51
 70
     0
102
RTVSPost2010Prop52
140
1.0
102
RTVSPost2010PropOp52
 70
     0
102
RTVSPost2010Prop53
 90
        2
102
RTVSPost2010PropOp53
 70
     1
102
RTVSPost2010Prop54
  1
strokes_ogs.tif
102
RTVSPost2010PropOp54
 70
     1
102
RTVSPost2010Prop55
280
     0
102
RTVSPost2010PropOp55
 70
     1
102
RTVSPost2010Prop56
140
1.0
102
RTVSPost2010PropOp56
 70
     1
102
RTVSPost2010Prop57
140
1.0
102
RTVSPost2010PropOp57
 70
     1
  0
XRECORD
  5
DC0
102
{ACAD_REACTORS
330
DBF
102
}
330
DBF
100
AcDbXrecord
280
     1
102
RTVSPost2010Prop28
280
     0
102
RTVSPost2010PropOp28
 70
     1
102
RTVSPost2010Prop29
280
     1
102
RTVSPost2010PropOp29
 70
     1
102
RTVSPost2010Prop30
280
     1
102
RTVSPost2010PropOp30
 70
     1
102
RTVSPost2010Prop31
280
     0
102
RTVSPost2010PropOp31
 70
     1
102
RTVSPost2010Prop32
280
     0
102
RTVSPost2010PropOp32
 70
     1
102
RTVSPost2010Prop33
280
     0
102
RTVSPost2010PropOp33
 70
     1
102
RTVSPost2010Prop34
280
     0
102
RTVSPost2010PropOp34
 70
     1
102
RTVSPost2010Prop35
280
     0
102
RTVSPost2010PropOp35
 70
     1
102
RTVSPost2010Prop36
280
     0
102
RTVSPost2010PropOp36
 70
     1
102
RTVSPost2010Prop37
 90
       50
102
RTVSPost2010PropOp37
 70
     1
102
RTVSPost2010Prop38
140
0.0
102
RTVSPost2010PropOp38
 70
     1
102
RTVSPost2010Prop39
140
1.0
102
RTVSPost2010PropOp39
 70
     1
102
RTVSPost2010Prop40
 90
        0
102
RTVSPost2010PropOp40
 70
     1
102
RTVSPost2010Prop41ColorIndex
 90
       18
102
RTVSPost2010Prop41ColorRGB
 90
        0
102
RTVSPost2010PropOp41
 70
     1
102
RTVSPost2010Prop42
 90
       50
102
RTVSPost2010PropOp42
 70
     1
102
RTVSPost2010Prop43
 90
        3
102
RTVSPost2010PropOp43
 70
     1
102
RTVSPost2010Prop44ColorIndex
 90
        5
102
RTVSPost2010Prop44ColorRGB
 90
      255
102
RTVSPost2010PropOp44
 70
     1
102
RTVSPost2010Prop45
280
     0
102
RTVSPost2010PropOp45
 70
     1
102
RTVSPost2010Prop46
 90
       50
102
RTVSPost2010PropOp46
 70
     1
102
RTVSPost2010Prop47
 90
       50
102
RTVSPost2010PropOp47
 70
     1
102
RTVSPost2010Prop48
 90
       50
102
RTVSPost2010PropOp48
 70
     1
102
RTVSPost2010Prop49
280
     0
102
RTVSPost2010PropOp49
 70
     1
102
RTVSPost2010Prop50
 90
       50
102
RTVSPost2010PropOp50
 70
     1
102
RTVSPost2010Prop51ColorIndex
 90
      256
102
RTVSPost2010Prop51ColorRGB
 90
-16777216
102
RTVSPost2010PropOp51
 70
     0
102
RTVSPost2010Prop52
140
1.0
102
RTVSPost2010PropOp52
 70
     0
102
RTVSPost2010Prop53
 90
        2
102
RTVSPost2010PropOp53
 70
     1
102
RTVSPost2010Prop54
  1
strokes_ogs.tif
102
RTVSPost2010PropOp54
 70
     1
102
RTVSPost2010Prop55
280
     0
102
RTVSPost2010PropOp55
 70
     1
102
RTVSPost2010Prop56
140
1.0
102
RTVSPost2010PropOp56
 70
     1
102
RTVSPost2010Prop57
140
1.0
102
RTVSPost2010PropOp57
 70
     1
  0
XRECORD
  5
DDA
102
{ACAD_REACTORS
330
DD9
102
}
330
DD9
100
AcDbXrecord
280
     1
102
RTVSPost2010Prop28
280
     0
102
RTVSPost2010PropOp28
 70
     1
102
RTVSPost2010Prop29
280
     1
102
RTVSPost2010PropOp29
 70
     1
102
RTVSPost2010Prop30
280
     1
102
RTVSPost2010PropOp30
 70
     1
102
RTVSPost2010Prop31
280
     0
102
RTVSPost2010PropOp31
 70
     1
102
RTVSPost2010Prop32
280
     0
102
RTVSPost2010PropOp32
 70
     1
102
RTVSPost2010Prop33
280
     0
102
RTVSPost2010PropOp33
 70
     1
102
RTVSPost2010Prop34
280
     0
102
RTVSPost2010PropOp34
 70
     1
102
RTVSPost2010Prop35
280
     0
102
RTVSPost2010PropOp35
 70
     1
102
RTVSPost2010Prop36
280
     0
102
RTVSPost2010PropOp36
 70
     1
102
RTVSPost2010Prop37
 90
       50
102
RTVSPost2010PropOp37
 70
     0
102
RTVSPost2010Prop38
140
0.0
102
RTVSPost2010PropOp38
 70
     0
102
RTVSPost2010Prop39
140
1.0
102
RTVSPost2010PropOp39
 70
     0
102
RTVSPost2010Prop40
 90
        0
102
RTVSPost2010PropOp40
 70
     0
102
RTVSPost2010Prop41ColorIndex
 90
       18
102
RTVSPost2010Prop41ColorRGB
 90
        0
102
RTVSPost2010PropOp41
 70
     0
102
RTVSPost2010Prop42
 90
       50
102
RTVSPost2010PropOp42
 70
     0
102
RTVSPost2010Prop43
 90
        3
102
RTVSPost2010PropOp43
 70
     0
102
RTVSPost2010Prop44ColorIndex
 90
        5
102
RTVSPost2010Prop44ColorRGB
 90
      255
102
RTVSPost2010PropOp44
 70
     0
102
RTVSPost2010Prop45
280
     0
102
RTVSPost2010PropOp45
 70
     1
102
RTVSPost2010Prop46
 90
       50
102
RTVSPost2010PropOp46
 70
     0
102
RTVSPost2010Prop47
 90
       50
102
RTVSPost2010PropOp47
 70
     0
102
RTVSPost2010Prop48
 90
       50
102
RTVSPost2010PropOp48
 70
     0
102
RTVSPost2010Prop49
280
     0
102
RTVSPost2010PropOp49
 70
     1
102
RTVSPost2010Prop50
 90
       50
102
RTVSPost2010PropOp50
 70
     0
102
RTVSPost2010Prop51ColorIndex
 90
      256
102
RTVSPost2010Prop51ColorRGB
 90
-16777216
102
RTVSPost2010PropOp51
 70
     0
102
RTVSPost2010Prop52
140
1.0
102
RTVSPost2010PropOp52
 70
     0
102
RTVSPost2010Prop53
 90
        2
102
RTVSPost2010PropOp53
 70
     0
102
RTVSPost2010Prop54
  1
strokes_ogs.tif
102
RTVSPost2010PropOp54
 70
     0
102
RTVSPost2010Prop55
280
     0
102
RTVSPost2010PropOp55
 70
     1
102
RTVSPost2010Prop56
140
1.0
102
RTVSPost2010PropOp56
 70
     0
102
RTVSPost2010Prop57
140
1.0
102
RTVSPost2010PropOp57
 70
     0
  0
XRECORD
  5
DC8
102
{ACAD_REACTORS
330
DC7
102
}
330
DC7
100
AcDbXrecord
280
     1
102
RTVSPost2010Prop28
280
     0
102
RTVSPost2010PropOp28
 70
     1
102
RTVSPost2010Prop29
280
     1
102
RTVSPost2010PropOp29
 70
     1
102
RTVSPost2010Prop30
280
     1
102
RTVSPost2010PropOp30
 70
     1
102
RTVSPost2010Prop31
280
     0
102
RTVSPost2010PropOp31
 70
     1
102
RTVSPost2010Prop32
280
     0
102
RTVSPost2010PropOp32
 70
     1
102
RTVSPost2010Prop33
280
     0
102
RTVSPost2010PropOp33
 70
     1
102
RTVSPost2010Prop34
280
     0
102
RTVSPost2010PropOp34
 70
     1
102
RTVSPost2010Prop35
280
     0
102
RTVSPost2010PropOp35
 70
     1
102
RTVSPost2010Prop36
280
     0
102
RTVSPost2010PropOp36
 70
     1
102
RTVSPost2010Prop37
 90
       50
102
RTVSPost2010PropOp37
 70
     1
102
RTVSPost2010Prop38
140
0.0
102
RTVSPost2010PropOp38
 70
     1
102
RTVSPost2010Prop39
140
1.0
102
RTVSPost2010PropOp39
 70
     1
102
RTVSPost2010Prop40
 90
        0
102
RTVSPost2010PropOp40
 70
     1
102
RTVSPost2010Prop41ColorIndex
 90
       18
102
RTVSPost2010Prop41ColorRGB
 90
        0
102
RTVSPost2010PropOp41
 70
     1
102
RTVSPost2010Prop42
 90
       50
102
RTVSPost2010PropOp42
 70
     1
102
RTVSPost2010Prop43
 90
        3
102
RTVSPost2010PropOp43
 70
     1
102
RTVSPost2010Prop44ColorIndex
 90
        5
102
RTVSPost2010Prop44ColorRGB
 90
      255
102
RTVSPost2010PropOp44
 70
     1
102
RTVSPost2010Prop45
280
     0
102
RTVSPost2010PropOp45
 70
     1
102
RTVSPost2010Prop46
 90
       50
102
RTVSPost2010PropOp46
 70
     1
102
RTVSPost2010Prop47
 90
       50
102
RTVSPost2010PropOp47
 70
     1
102
RTVSPost2010Prop48
 90
       50
102
RTVSPost2010PropOp48
 70
     1
102
RTVSPost2010Prop49
280
     0
102
RTVSPost2010PropOp49
 70
     1
102
RTVSPost2010Prop50
 90
       50
102
RTVSPost2010PropOp50
 70
     1
102
RTVSPost2010Prop51ColorIndex
 90
      256
102
RTVSPost2010Prop51ColorRGB
 90
-16777216
102
RTVSPost2010PropOp51
 70
     0
102
RTVSPost2010Prop52
140
1.0
102
RTVSPost2010PropOp52
 70
     0
102
RTVSPost2010Prop53
 90
        2
102
RTVSPost2010PropOp53
 70
     1
102
RTVSPost2010Prop54
  1
strokes_ogs.tif
102
RTVSPost2010PropOp54
 70
     1
102
RTVSPost2010Prop55
280
     0
102
RTVSPost2010PropOp55
 70
     1
102
RTVSPost2010Prop56
140
1.0
102
RTVSPost2010PropOp56
 70
     1
102
RTVSPost2010Prop57
140
1.0
102
RTVSPost2010PropOp57
 70
     1
  0
XRECORD
  5
DAC
102
{ACAD_REACTORS
330
DAB
102
}
330
DAB
100
AcDbXrecord
280
     1
102
RTVSPost2010Prop28
280
     0
102
RTVSPost2010PropOp28
 70
     1
102
RTVSPost2010Prop29
280
     1
102
RTVSPost2010PropOp29
 70
     1
102
RTVSPost2010Prop30
280
     1
102
RTVSPost2010PropOp30
 70
     1
102
RTVSPost2010Prop31
280
     0
102
RTVSPost2010PropOp31
 70
     1
102
RTVSPost2010Prop32
280
     0
102
RTVSPost2010PropOp32
 70
     1
102
RTVSPost2010Prop33
280
     0
102
RTVSPost2010PropOp33
 70
     1
102
RTVSPost2010Prop34
280
     0
102
RTVSPost2010PropOp34
 70
     1
102
RTVSPost2010Prop35
280
     0
102
RTVSPost2010PropOp35
 70
     1
102
RTVSPost2010Prop36
280
     0
102
RTVSPost2010PropOp36
 70
     1
102
RTVSPost2010Prop37
 90
       50
102
RTVSPost2010PropOp37
 70
     1
102
RTVSPost2010Prop38
140
0.0
102
RTVSPost2010PropOp38
 70
     1
102
RTVSPost2010Prop39
140
1.0
102
RTVSPost2010PropOp39
 70
     1
102
RTVSPost2010Prop40
 90
        0
102
RTVSPost2010PropOp40
 70
     1
102
RTVSPost2010Prop41ColorIndex
 90
       18
102
RTVSPost2010Prop41ColorRGB
 90
        0
102
RTVSPost2010PropOp41
 70
     1
102
RTVSPost2010Prop42
 90
       50
102
RTVSPost2010PropOp42
 70
     1
102
RTVSPost2010Prop43
 90
        3
102
RTVSPost2010PropOp43
 70
     1
102
RTVSPost2010Prop44ColorIndex
 90
        5
102
RTVSPost2010Prop44ColorRGB
 90
      255
102
RTVSPost2010PropOp44
 70
     1
102
RTVSPost2010Prop45
280
     0
102
RTVSPost2010PropOp45
 70
     1
102
RTVSPost2010Prop46
 90
       50
102
RTVSPost2010PropOp46
 70
     1
102
RTVSPost2010Prop47
 90
       50
102
RTVSPost2010PropOp47
 70
     1
102
RTVSPost2010Prop48
 90
       50
102
RTVSPost2010PropOp48
 70
     1
102
RTVSPost2010Prop49
280
     0
102
RTVSPost2010PropOp49
 70
     1
102
RTVSPost2010Prop50
 90
       50
102
RTVSPost2010PropOp50
 70
     1
102
RTVSPost2010Prop51ColorIndex
 90
      256
102
RTVSPost2010Prop51ColorRGB
 90
-16777216
102
RTVSPost2010PropOp51
 70
     0
102
RTVSPost2010Prop52
140
1.0
102
RTVSPost2010PropOp52
 70
     0
102
RTVSPost2010Prop53
 90
        2
102
RTVSPost2010PropOp53
 70
     1
102
RTVSPost2010Prop54
  1
strokes_ogs.tif
102
RTVSPost2010PropOp54
 70
     1
102
RTVSPost2010Prop55
280
     0
102
RTVSPost2010PropOp55
 70
     1
102
RTVSPost2010Prop56
140
1.0
102
RTVSPost2010PropOp56
 70
     1
102
RTVSPost2010Prop57
140
1.0
102
RTVSPost2010PropOp57
 70
     1
  0
XRECORD
  5
DAE
102
{ACAD_REACTORS
330
DAD
102
}
330
DAD
100
AcDbXrecord
280
     1
102
RTVSPost2010Prop28
280
     0
102
RTVSPost2010PropOp28
 70
     1
102
RTVSPost2010Prop29
280
     1
102
RTVSPost2010PropOp29
 70
     1
102
RTVSPost2010Prop30
280
     1
102
RTVSPost2010PropOp30
 70
     1
102
RTVSPost2010Prop31
280
     0
102
RTVSPost2010PropOp31
 70
     1
102
RTVSPost2010Prop32
280
     0
102
RTVSPost2010PropOp32
 70
     1
102
RTVSPost2010Prop33
280
     0
102
RTVSPost2010PropOp33
 70
     1
102
RTVSPost2010Prop34
280
     0
102
RTVSPost2010PropOp34
 70
     1
102
RTVSPost2010Prop35
280
     0
102
RTVSPost2010PropOp35
 70
     1
102
RTVSPost2010Prop36
280
     0
102
RTVSPost2010PropOp36
 70
     1
102
RTVSPost2010Prop37
 90
       50
102
RTVSPost2010PropOp37
 70
     1
102
RTVSPost2010Prop38
140
0.0
102
RTVSPost2010PropOp38
 70
     1
102
RTVSPost2010Prop39
140
1.0
102
RTVSPost2010PropOp39
 70
     1
102
RTVSPost2010Prop40
 90
        0
102
RTVSPost2010PropOp40
 70
     1
102
RTVSPost2010Prop41ColorIndex
 90
       18
102
RTVSPost2010Prop41ColorRGB
 90
        0
102
RTVSPost2010PropOp41
 70
     1
102
RTVSPost2010Prop42
 90
       50
102
RTVSPost2010PropOp42
 70
     1
102
RTVSPost2010Prop43
 90
        3
102
RTVSPost2010PropOp43
 70
     1
102
RTVSPost2010Prop44ColorIndex
 90
        5
102
RTVSPost2010Prop44ColorRGB
 90
      255
102
RTVSPost2010PropOp44
 70
     1
102
RTVSPost2010Prop45
280
     0
102
RTVSPost2010PropOp45
 70
     1
102
RTVSPost2010Prop46
 90
       50
102
RTVSPost2010PropOp46
 70
     1
102
RTVSPost2010Prop47
 90
       50
102
RTVSPost2010PropOp47
 70
     1
102
RTVSPost2010Prop48
 90
       50
102
RTVSPost2010PropOp48
 70
     1
102
RTVSPost2010Prop49
280
     0
102
RTVSPost2010PropOp49
 70
     1
102
RTVSPost2010Prop50
 90
       50
102
RTVSPost2010PropOp50
 70
     1
102
RTVSPost2010Prop51ColorIndex
 90
      256
102
RTVSPost2010Prop51ColorRGB
 90
-16777216
102
RTVSPost2010PropOp51
 70
     0
102
RTVSPost2010Prop52
140
1.0
102
RTVSPost2010PropOp52
 70
     0
102
RTVSPost2010Prop53
 90
        2
102
RTVSPost2010PropOp53
 70
     1
102
RTVSPost2010Prop54
  1
strokes_ogs.tif
102
RTVSPost2010PropOp54
 70
     1
102
RTVSPost2010Prop55
280
     0
102
RTVSPost2010PropOp55
 70
     1
102
RTVSPost2010Prop56
140
1.0
102
RTVSPost2010PropOp56
 70
     1
102
RTVSPost2010Prop57
140
1.0
102
RTVSPost2010PropOp57
 70
     1
  0
XRECORD
  5
DB0
102
{ACAD_REACTORS
330
DAF
102
}
330
DAF
100
AcDbXrecord
280
     1
102
RTVSPost2010Prop28
280
     0
102
RTVSPost2010PropOp28
 70
     1
102
RTVSPost2010Prop29
280
     1
102
RTVSPost2010PropOp29
 70
     1
102
RTVSPost2010Prop30
280
     1
102
RTVSPost2010PropOp30
 70
     1
102
RTVSPost2010Prop31
280
     0
102
RTVSPost2010PropOp31
 70
     1
102
RTVSPost2010Prop32
280
     0
102
RTVSPost2010PropOp32
 70
     1
102
RTVSPost2010Prop33
280
     0
102
RTVSPost2010PropOp33
 70
     1
102
RTVSPost2010Prop34
280
     0
102
RTVSPost2010PropOp34
 70
     1
102
RTVSPost2010Prop35
280
     0
102
RTVSPost2010PropOp35
 70
     1
102
RTVSPost2010Prop36
280
     0
102
RTVSPost2010PropOp36
 70
     1
102
RTVSPost2010Prop37
 90
       50
102
RTVSPost2010PropOp37
 70
     1
102
RTVSPost2010Prop38
140
0.0
102
RTVSPost2010PropOp38
 70
     1
102
RTVSPost2010Prop39
140
1.0
102
RTVSPost2010PropOp39
 70
     1
102
RTVSPost2010Prop40
 90
        0
102
RTVSPost2010PropOp40
 70
     1
102
RTVSPost2010Prop41ColorIndex
 90
       18
102
RTVSPost2010Prop41ColorRGB
 90
        0
102
RTVSPost2010PropOp41
 70
     1
102
RTVSPost2010Prop42
 90
       50
102
RTVSPost2010PropOp42
 70
     1
102
RTVSPost2010Prop43
 90
        3
102
RTVSPost2010PropOp43
 70
     1
102
RTVSPost2010Prop44ColorIndex
 90
        5
102
RTVSPost2010Prop44ColorRGB
 90
      255
102
RTVSPost2010PropOp44
 70
     1
102
RTVSPost2010Prop45
280
     0
102
RTVSPost2010PropOp45
 70
     1
102
RTVSPost2010Prop46
 90
       50
102
RTVSPost2010PropOp46
 70
     1
102
RTVSPost2010Prop47
 90
       50
102
RTVSPost2010PropOp47
 70
     1
102
RTVSPost2010Prop48
 90
       50
102
RTVSPost2010PropOp48
 70
     1
102
RTVSPost2010Prop49
280
     0
102
RTVSPost2010PropOp49
 70
     1
102
RTVSPost2010Prop50
 90
       50
102
RTVSPost2010PropOp50
 70
     1
102
RTVSPost2010Prop51ColorIndex
 90
      256
102
RTVSPost2010Prop51ColorRGB
 90
-16777216
102
RTVSPost2010PropOp51
 70
     0
102
RTVSPost2010Prop52
140
1.0
102
RTVSPost2010PropOp52
 70
     0
102
RTVSPost2010Prop53
 90
        2
102
RTVSPost2010PropOp53
 70
     1
102
RTVSPost2010Prop54
  1
strokes_ogs.tif
102
RTVSPost2010PropOp54
 70
     1
102
RTVSPost2010Prop55
280
     0
102
RTVSPost2010PropOp55
 70
     1
102
RTVSPost2010Prop56
140
1.0
102
RTVSPost2010PropOp56
 70
     1
102
RTVSPost2010Prop57
140
1.0
102
RTVSPost2010PropOp57
 70
     1
  0
XRECORD
  5
DB2
102
{ACAD_REACTORS
330
DB1
102
}
330
DB1
100
AcDbXrecord
280
     1
102
RTVSPost2010Prop28
280
     0
102
RTVSPost2010PropOp28
 70
     1
102
RTVSPost2010Prop29
280
     1
102
RTVSPost2010PropOp29
 70
     1
102
RTVSPost2010Prop30
280
     1
102
RTVSPost2010PropOp30
 70
     1
102
RTVSPost2010Prop31
280
     0
102
RTVSPost2010PropOp31
 70
     1
102
RTVSPost2010Prop32
280
     0
102
RTVSPost2010PropOp32
 70
     1
102
RTVSPost2010Prop33
280
     0
102
RTVSPost2010PropOp33
 70
     1
102
RTVSPost2010Prop34
280
     0
102
RTVSPost2010PropOp34
 70
     1
102
RTVSPost2010Prop35
280
     0
102
RTVSPost2010PropOp35
 70
     1
102
RTVSPost2010Prop36
280
     0
102
RTVSPost2010PropOp36
 70
     1
102
RTVSPost2010Prop37
 90
       50
102
RTVSPost2010PropOp37
 70
     1
102
RTVSPost2010Prop38
140
0.0
102
RTVSPost2010PropOp38
 70
     1
102
RTVSPost2010Prop39
140
1.0
102
RTVSPost2010PropOp39
 70
     1
102
RTVSPost2010Prop40
 90
        0
102
RTVSPost2010PropOp40
 70
     1
102
RTVSPost2010Prop41ColorIndex
 90
       18
102
RTVSPost2010Prop41ColorRGB
 90
        0
102
RTVSPost2010PropOp41
 70
     1
102
RTVSPost2010Prop42
 90
       50
102
RTVSPost2010PropOp42
 70
     1
102
RTVSPost2010Prop43
 90
        3
102
RTVSPost2010PropOp43
 70
     1
102
RTVSPost2010Prop44ColorIndex
 90
        5
102
RTVSPost2010Prop44ColorRGB
 90
      255
102
RTVSPost2010PropOp44
 70
     1
102
RTVSPost2010Prop45
280
     0
102
RTVSPost2010PropOp45
 70
     1
102
RTVSPost2010Prop46
 90
       50
102
RTVSPost2010PropOp46
 70
     1
102
RTVSPost2010Prop47
 90
       50
102
RTVSPost2010PropOp47
 70
     1
102
RTVSPost2010Prop48
 90
       50
102
RTVSPost2010PropOp48
 70
     1
102
RTVSPost2010Prop49
280
     0
102
RTVSPost2010PropOp49
 70
     1
102
RTVSPost2010Prop50
 90
       50
102
RTVSPost2010PropOp50
 70
     1
102
RTVSPost2010Prop51ColorIndex
 90
      256
102
RTVSPost2010Prop51ColorRGB
 90
-16777216
102
RTVSPost2010PropOp51
 70
     0
102
RTVSPost2010Prop52
140
1.0
102
RTVSPost2010PropOp52
 70
     0
102
RTVSPost2010Prop53
 90
        2
102
RTVSPost2010PropOp53
 70
     1
102
RTVSPost2010Prop54
  1
strokes_ogs.tif
102
RTVSPost2010PropOp54
 70
     1
102
RTVSPost2010Prop55
280
     0
102
RTVSPost2010PropOp55
 70
     1
102
RTVSPost2010Prop56
140
1.0
102
RTVSPost2010PropOp56
 70
     1
102
RTVSPost2010Prop57
140
1.0
102
RTVSPost2010PropOp57
 70
     1
  0
XRECORD
  5
DBA
102
{ACAD_REACTORS
330
DB9
102
}
330
DB9
100
AcDbXrecord
280
     1
102
RTVSPost2010Prop28
280
     0
102
RTVSPost2010PropOp28
 70
     1
102
RTVSPost2010Prop29
280
     1
102
RTVSPost2010PropOp29
 70
     1
102
RTVSPost2010Prop30
280
     1
102
RTVSPost2010PropOp30
 70
     1
102
RTVSPost2010Prop31
280
     0
102
RTVSPost2010PropOp31
 70
     1
102
RTVSPost2010Prop32
280
     0
102
RTVSPost2010PropOp32
 70
     1
102
RTVSPost2010Prop33
280
     0
102
RTVSPost2010PropOp33
 70
     1
102
RTVSPost2010Prop34
280
     0
102
RTVSPost2010PropOp34
 70
     1
102
RTVSPost2010Prop35
280
     0
102
RTVSPost2010PropOp35
 70
     1
102
RTVSPost2010Prop36
280
     0
102
RTVSPost2010PropOp36
 70
     1
102
RTVSPost2010Prop37
 90
       50
102
RTVSPost2010PropOp37
 70
     1
102
RTVSPost2010Prop38
140
0.0
102
RTVSPost2010PropOp38
 70
     1
102
RTVSPost2010Prop39
140
1.0
102
RTVSPost2010PropOp39
 70
     1
102
RTVSPost2010Prop40
 90
        0
102
RTVSPost2010PropOp40
 70
     1
102
RTVSPost2010Prop41ColorIndex
 90
       18
102
RTVSPost2010Prop41ColorRGB
 90
        0
102
RTVSPost2010PropOp41
 70
     1
102
RTVSPost2010Prop42
 90
       50
102
RTVSPost2010PropOp42
 70
     1
102
RTVSPost2010Prop43
 90
        3
102
RTVSPost2010PropOp43
 70
     1
102
RTVSPost2010Prop44ColorIndex
 90
        5
102
RTVSPost2010Prop44ColorRGB
 90
      255
102
RTVSPost2010PropOp44
 70
     1
102
RTVSPost2010Prop45
280
     0
102
RTVSPost2010PropOp45
 70
     1
102
RTVSPost2010Prop46
 90
       50
102
RTVSPost2010PropOp46
 70
     1
102
RTVSPost2010Prop47
 90
       50
102
RTVSPost2010PropOp47
 70
     1
102
RTVSPost2010Prop48
 90
       50
102
RTVSPost2010PropOp48
 70
     1
102
RTVSPost2010Prop49
280
     0
102
RTVSPost2010PropOp49
 70
     1
102
RTVSPost2010Prop50
 90
       50
102
RTVSPost2010PropOp50
 70
     1
102
RTVSPost2010Prop51ColorIndex
 90
      256
102
RTVSPost2010Prop51ColorRGB
 90
-16777216
102
RTVSPost2010PropOp51
 70
     0
102
RTVSPost2010Prop52
140
1.0
102
RTVSPost2010PropOp52
 70
     0
102
RTVSPost2010Prop53
 90
        2
102
RTVSPost2010PropOp53
 70
     1
102
RTVSPost2010Prop54
  1
strokes_ogs.tif
102
RTVSPost2010PropOp54
 70
     1
102
RTVSPost2010Prop55
280
     0
102
RTVSPost2010PropOp55
 70
     1
102
RTVSPost2010Prop56
140
1.0
102
RTVSPost2010PropOp56
 70
     1
102
RTVSPost2010Prop57
140
1.0
102
RTVSPost2010PropOp57
 70
     1
  0
XRECORD
  5
DD6
102
{ACAD_REACTORS
330
DD5
102
}
330
DD5
100
AcDbXrecord
280
     1
102
RTVSPost2010Prop28
280
     0
102
RTVSPost2010PropOp28
 70
     1
102
RTVSPost2010Prop29
280
     1
102
RTVSPost2010PropOp29
 70
     1
102
RTVSPost2010Prop30
280
     1
102
RTVSPost2010PropOp30
 70
     1
102
RTVSPost2010Prop31
280
     0
102
RTVSPost2010PropOp31
 70
     1
102
RTVSPost2010Prop32
280
     0
102
RTVSPost2010PropOp32
 70
     1
102
RTVSPost2010Prop33
280
     0
102
RTVSPost2010PropOp33
 70
     1
102
RTVSPost2010Prop34
280
     0
102
RTVSPost2010PropOp34
 70
     1
102
RTVSPost2010Prop35
280
     0
102
RTVSPost2010PropOp35
 70
     1
102
RTVSPost2010Prop36
280
     0
102
RTVSPost2010PropOp36
 70
     1
102
RTVSPost2010Prop37
 90
       50
102
RTVSPost2010PropOp37
 70
     0
102
RTVSPost2010Prop38
140
0.0
102
RTVSPost2010PropOp38
 70
     0
102
RTVSPost2010Prop39
140
1.0
102
RTVSPost2010PropOp39
 70
     0
102
RTVSPost2010Prop40
 90
        0
102
RTVSPost2010PropOp40
 70
     0
102
RTVSPost2010Prop41ColorIndex
 90
       18
102
RTVSPost2010Prop41ColorRGB
 90
        0
102
RTVSPost2010PropOp41
 70
     0
102
RTVSPost2010Prop42
 90
       50
102
RTVSPost2010PropOp42
 70
     0
102
RTVSPost2010Prop43
 90
        3
102
RTVSPost2010PropOp43
 70
     0
102
RTVSPost2010Prop44ColorIndex
 90
        5
102
RTVSPost2010Prop44ColorRGB
 90
      255
102
RTVSPost2010PropOp44
 70
     0
102
RTVSPost2010Prop45
280
     0
102
RTVSPost2010PropOp45
 70
     1
102
RTVSPost2010Prop46
 90
       50
102
RTVSPost2010PropOp46
 70
     0
102
RTVSPost2010Prop47
 90
       50
102
RTVSPost2010PropOp47
 70
     0
102
RTVSPost2010Prop48
 90
       50
102
RTVSPost2010PropOp48
 70
     0
102
RTVSPost2010Prop49
280
     0
102
RTVSPost2010PropOp49
 70
     1
102
RTVSPost2010Prop50
 90
       50
102
RTVSPost2010PropOp50
 70
     0
102
RTVSPost2010Prop51ColorIndex
 90
      256
102
RTVSPost2010Prop51ColorRGB
 90
-16777216
102
RTVSPost2010PropOp51
 70
     0
102
RTVSPost2010Prop52
140
1.0
102
RTVSPost2010PropOp52
 70
     0
102
RTVSPost2010Prop53
 90
        2
102
RTVSPost2010PropOp53
 70
     0
102
RTVSPost2010Prop54
  1
strokes_ogs.tif
102
RTVSPost2010PropOp54
 70
     0
102
RTVSPost2010Prop55
280
     0
102
RTVSPost2010PropOp55
 70
     1
102
RTVSPost2010Prop56
140
1.0
102
RTVSPost2010PropOp56
 70
     0
102
RTVSPost2010Prop57
140
1.0
102
RTVSPost2010PropOp57
 70
     0
  0
XRECORD
  5
DC6
102
{ACAD_REACTORS
330
DC5
102
}
330
DC5
100
AcDbXrecord
280
     1
102
RTVSPost2010Prop28
280
     0
102
RTVSPost2010PropOp28
 70
     1
102
RTVSPost2010Prop29
280
     1
102
RTVSPost2010PropOp29
 70
     1
102
RTVSPost2010Prop30
280
     1
102
RTVSPost2010PropOp30
 70
     1
102
RTVSPost2010Prop31
280
     0
102
RTVSPost2010PropOp31
 70
     1
102
RTVSPost2010Prop32
280
     0
102
RTVSPost2010PropOp32
 70
     1
102
RTVSPost2010Prop33
280
     0
102
RTVSPost2010PropOp33
 70
     1
102
RTVSPost2010Prop34
280
     0
102
RTVSPost2010PropOp34
 70
     1
102
RTVSPost2010Prop35
280
     0
102
RTVSPost2010PropOp35
 70
     1
102
RTVSPost2010Prop36
280
     0
102
RTVSPost2010PropOp36
 70
     1
102
RTVSPost2010Prop37
 90
       50
102
RTVSPost2010PropOp37
 70
     1
102
RTVSPost2010Prop38
140
0.0
102
RTVSPost2010PropOp38
 70
     1
102
RTVSPost2010Prop39
140
1.0
102
RTVSPost2010PropOp39
 70
     1
102
RTVSPost2010Prop40
 90
        0
102
RTVSPost2010PropOp40
 70
     1
102
RTVSPost2010Prop41ColorIndex
 90
       18
102
RTVSPost2010Prop41ColorRGB
 90
        0
102
RTVSPost2010PropOp41
 70
     1
102
RTVSPost2010Prop42
 90
       50
102
RTVSPost2010PropOp42
 70
     1
102
RTVSPost2010Prop43
 90
        3
102
RTVSPost2010PropOp43
 70
     1
102
RTVSPost2010Prop44ColorIndex
 90
        5
102
RTVSPost2010Prop44ColorRGB
 90
      255
102
RTVSPost2010PropOp44
 70
     1
102
RTVSPost2010Prop45
280
     0
102
RTVSPost2010PropOp45
 70
     1
102
RTVSPost2010Prop46
 90
       50
102
RTVSPost2010PropOp46
 70
     1
102
RTVSPost2010Prop47
 90
       50
102
RTVSPost2010PropOp47
 70
     1
102
RTVSPost2010Prop48
 90
       50
102
RTVSPost2010PropOp48
 70
     1
102
RTVSPost2010Prop49
280
     0
102
RTVSPost2010PropOp49
 70
     1
102
RTVSPost2010Prop50
 90
       50
102
RTVSPost2010PropOp50
 70
     1
102
RTVSPost2010Prop51ColorIndex
 90
      256
102
RTVSPost2010Prop51ColorRGB
 90
-16777216
102
RTVSPost2010PropOp51
 70
     0
102
RTVSPost2010Prop52
140
1.0
102
RTVSPost2010PropOp52
 70
     0
102
RTVSPost2010Prop53
 90
        2
102
RTVSPost2010PropOp53
 70
     1
102
RTVSPost2010Prop54
  1
strokes_ogs.tif
102
RTVSPost2010PropOp54
 70
     1
102
RTVSPost2010Prop55
280
     0
102
RTVSPost2010PropOp55
 70
     1
102
RTVSPost2010Prop56
140
1.0
102
RTVSPost2010PropOp56
 70
     1
102
RTVSPost2010Prop57
140
1.0
102
RTVSPost2010PropOp57
 70
     1
  0
XRECORD
  5
DD8
102
{ACAD_REACTORS
330
DD7
102
}
330
DD7
100
AcDbXrecord
280
     1
102
RTVSPost2010Prop28
280
     0
102
RTVSPost2010PropOp28
 70
     1
102
RTVSPost2010Prop29
280
     1
102
RTVSPost2010PropOp29
 70
     1
102
RTVSPost2010Prop30
280
     1
102
RTVSPost2010PropOp30
 70
     1
102
RTVSPost2010Prop31
280
     0
102
RTVSPost2010PropOp31
 70
     1
102
RTVSPost2010Prop32
280
     0
102
RTVSPost2010PropOp32
 70
     1
102
RTVSPost2010Prop33
280
     0
102
RTVSPost2010PropOp33
 70
     1
102
RTVSPost2010Prop34
280
     0
102
RTVSPost2010PropOp34
 70
     1
102
RTVSPost2010Prop35
280
     0
102
RTVSPost2010PropOp35
 70
     1
102
RTVSPost2010Prop36
280
     0
102
RTVSPost2010PropOp36
 70
     1
102
RTVSPost2010Prop37
 90
       50
102
RTVSPost2010PropOp37
 70
     0
102
RTVSPost2010Prop38
140
0.0
102
RTVSPost2010PropOp38
 70
     0
102
RTVSPost2010Prop39
140
1.0
102
RTVSPost2010PropOp39
 70
     0
102
RTVSPost2010Prop40
 90
        0
102
RTVSPost2010PropOp40
 70
     0
102
RTVSPost2010Prop41ColorIndex
 90
       18
102
RTVSPost2010Prop41ColorRGB
 90
        0
102
RTVSPost2010PropOp41
 70
     0
102
RTVSPost2010Prop42
 90
       50
102
RTVSPost2010PropOp42
 70
     0
102
RTVSPost2010Prop43
 90
        3
102
RTVSPost2010PropOp43
 70
     0
102
RTVSPost2010Prop44ColorIndex
 90
        5
102
RTVSPost2010Prop44ColorRGB
 90
      255
102
RTVSPost2010PropOp44
 70
     0
102
RTVSPost2010Prop45
280
     0
102
RTVSPost2010PropOp45
 70
     1
102
RTVSPost2010Prop46
 90
       50
102
RTVSPost2010PropOp46
 70
     0
102
RTVSPost2010Prop47
 90
       50
102
RTVSPost2010PropOp47
 70
     0
102
RTVSPost2010Prop48
 90
       50
102
RTVSPost2010PropOp48
 70
     0
102
RTVSPost2010Prop49
280
     0
102
RTVSPost2010PropOp49
 70
     1
102
RTVSPost2010Prop50
 90
       50
102
RTVSPost2010PropOp50
 70
     0
102
RTVSPost2010Prop51ColorIndex
 90
      256
102
RTVSPost2010Prop51ColorRGB
 90
-16777216
102
RTVSPost2010PropOp51
 70
     0
102
RTVSPost2010Prop52
140
1.0
102
RTVSPost2010PropOp52
 70
     0
102
RTVSPost2010Prop53
 90
        2
102
RTVSPost2010PropOp53
 70
     0
102
RTVSPost2010Prop54
  1
strokes_ogs.tif
102
RTVSPost2010PropOp54
 70
     0
102
RTVSPost2010Prop55
280
     0
102
RTVSPost2010PropOp55
 70
     1
102
RTVSPost2010Prop56
140
1.0
102
RTVSPost2010PropOp56
 70
     0
102
RTVSPost2010Prop57
140
1.0
102
RTVSPost2010PropOp57
 70
     0
  0
XRECORD
  5
DBE
102
{ACAD_REACTORS
330
DBD
102
}
330
DBD
100
AcDbXrecord
280
     1
102
RTVSPost2010Prop28
280
     0
102
RTVSPost2010PropOp28
 70
     1
102
RTVSPost2010Prop29
280
     1
102
RTVSPost2010PropOp29
 70
     1
102
RTVSPost2010Prop30
280
     1
102
RTVSPost2010PropOp30
 70
     1
102
RTVSPost2010Prop31
280
     0
102
RTVSPost2010PropOp31
 70
     1
102
RTVSPost2010Prop32
280
     0
102
RTVSPost2010PropOp32
 70
     1
102
RTVSPost2010Prop33
280
     0
102
RTVSPost2010PropOp33
 70
     1
102
RTVSPost2010Prop34
280
     0
102
RTVSPost2010PropOp34
 70
     1
102
RTVSPost2010Prop35
280
     0
102
RTVSPost2010PropOp35
 70
     1
102
RTVSPost2010Prop36
280
     0
102
RTVSPost2010PropOp36
 70
     1
102
RTVSPost2010Prop37
 90
       50
102
RTVSPost2010PropOp37
 70
     1
102
RTVSPost2010Prop38
140
0.0
102
RTVSPost2010PropOp38
 70
     1
102
RTVSPost2010Prop39
140
1.0
102
RTVSPost2010PropOp39
 70
     1
102
RTVSPost2010Prop40
 90
        0
102
RTVSPost2010PropOp40
 70
     1
102
RTVSPost2010Prop41ColorIndex
 90
       18
102
RTVSPost2010Prop41ColorRGB
 90
        0
102
RTVSPost2010PropOp41
 70
     1
102
RTVSPost2010Prop42
 90
       50
102
RTVSPost2010PropOp42
 70
     1
102
RTVSPost2010Prop43
 90
        3
102
RTVSPost2010PropOp43
 70
     1
102
RTVSPost2010Prop44ColorIndex
 90
        5
102
RTVSPost2010Prop44ColorRGB
 90
      255
102
RTVSPost2010PropOp44
 70
     1
102
RTVSPost2010Prop45
280
     0
102
RTVSPost2010PropOp45
 70
     1
102
RTVSPost2010Prop46
 90
       50
102
RTVSPost2010PropOp46
 70
     1
102
RTVSPost2010Prop47
 90
       50
102
RTVSPost2010PropOp47
 70
     1
102
RTVSPost2010Prop48
 90
       50
102
RTVSPost2010PropOp48
 70
     1
102
RTVSPost2010Prop49
280
     0
102
RTVSPost2010PropOp49
 70
     1
102
RTVSPost2010Prop50
 90
       50
102
RTVSPost2010PropOp50
 70
     1
102
RTVSPost2010Prop51ColorIndex
 90
      256
102
RTVSPost2010Prop51ColorRGB
 90
-16777216
102
RTVSPost2010PropOp51
 70
     0
102
RTVSPost2010Prop52
140
1.0
102
RTVSPost2010PropOp52
 70
     0
102
RTVSPost2010Prop53
 90
        2
102
RTVSPost2010PropOp53
 70
     1
102
RTVSPost2010Prop54
  1
strokes_ogs.tif
102
RTVSPost2010PropOp54
 70
     1
102
RTVSPost2010Prop55
280
     0
102
RTVSPost2010PropOp55
 70
     1
102
RTVSPost2010Prop56
140
1.0
102
RTVSPost2010PropOp56
 70
     1
102
RTVSPost2010Prop57
140
1.0
102
RTVSPost2010PropOp57
 70
     1
  0
XRECORD
  5
DD4
102
{ACAD_REACTORS
330
DD3
102
}
330
DD3
100
AcDbXrecord
280
     1
102
RTVSPost2010Prop28
280
     0
102
RTVSPost2010PropOp28
 70
     1
102
RTVSPost2010Prop29
280
     1
102
RTVSPost2010PropOp29
 70
     1
102
RTVSPost2010Prop30
280
     1
102
RTVSPost2010PropOp30
 70
     1
102
RTVSPost2010Prop31
280
     0
102
RTVSPost2010PropOp31
 70
     1
102
RTVSPost2010Prop32
280
     0
102
RTVSPost2010PropOp32
 70
     1
102
RTVSPost2010Prop33
280
     0
102
RTVSPost2010PropOp33
 70
     1
102
RTVSPost2010Prop34
280
     0
102
RTVSPost2010PropOp34
 70
     1
102
RTVSPost2010Prop35
280
     0
102
RTVSPost2010PropOp35
 70
     1
102
RTVSPost2010Prop36
280
     0
102
RTVSPost2010PropOp36
 70
     1
102
RTVSPost2010Prop37
 90
       50
102
RTVSPost2010PropOp37
 70
     1
102
RTVSPost2010Prop38
140
0.0
102
RTVSPost2010PropOp38
 70
     1
102
RTVSPost2010Prop39
140
1.0
102
RTVSPost2010PropOp39
 70
     1
102
RTVSPost2010Prop40
 90
        0
102
RTVSPost2010PropOp40
 70
     1
102
RTVSPost2010Prop41ColorIndex
 90
       18
102
RTVSPost2010Prop41ColorRGB
 90
        0
102
RTVSPost2010PropOp41
 70
     1
102
RTVSPost2010Prop42
 90
       50
102
RTVSPost2010PropOp42
 70
     1
102
RTVSPost2010Prop43
 90
        3
102
RTVSPost2010PropOp43
 70
     1
102
RTVSPost2010Prop44ColorIndex
 90
        5
102
RTVSPost2010Prop44ColorRGB
 90
      255
102
RTVSPost2010PropOp44
 70
     1
102
RTVSPost2010Prop45
280
     0
102
RTVSPost2010PropOp45
 70
     1
102
RTVSPost2010Prop46
 90
       50
102
RTVSPost2010PropOp46
 70
     1
102
RTVSPost2010Prop47
 90
       50
102
RTVSPost2010PropOp47
 70
     1
102
RTVSPost2010Prop48
 90
       50
102
RTVSPost2010PropOp48
 70
     1
102
RTVSPost2010Prop49
280
     0
102
RTVSPost2010PropOp49
 70
     1
102
RTVSPost2010Prop50
 90
       50
102
RTVSPost2010PropOp50
 70
     1
102
RTVSPost2010Prop51ColorIndex
 90
      256
102
RTVSPost2010Prop51ColorRGB
 90
-16777216
102
RTVSPost2010PropOp51
 70
     0
102
RTVSPost2010Prop52
140
1.0
102
RTVSPost2010PropOp52
 70
     0
102
RTVSPost2010Prop53
 90
        2
102
RTVSPost2010PropOp53
 70
     1
102
RTVSPost2010Prop54
  1
strokes_ogs.tif
102
RTVSPost2010PropOp54
 70
     1
102
RTVSPost2010Prop55
280
     0
102
RTVSPost2010PropOp55
 70
     1
102
RTVSPost2010Prop56
140
1.0
102
RTVSPost2010PropOp56
 70
     1
102
RTVSPost2010Prop57
140
1.0
102
RTVSPost2010PropOp57
 70
     1
  0
XRECORD
  5
DD2
102
{ACAD_REACTORS
330
DD1
102
}
330
DD1
100
AcDbXrecord
280
     1
102
RTVSPost2010Prop28
280
     0
102
RTVSPost2010PropOp28
 70
     1
102
RTVSPost2010Prop29
280
     1
102
RTVSPost2010PropOp29
 70
     1
102
RTVSPost2010Prop30
280
     1
102
RTVSPost2010PropOp30
 70
     1
102
RTVSPost2010Prop31
280
     0
102
RTVSPost2010PropOp31
 70
     1
102
RTVSPost2010Prop32
280
     0
102
RTVSPost2010PropOp32
 70
     1
102
RTVSPost2010Prop33
280
     0
102
RTVSPost2010PropOp33
 70
     1
102
RTVSPost2010Prop34
280
     0
102
RTVSPost2010PropOp34
 70
     1
102
RTVSPost2010Prop35
280
     0
102
RTVSPost2010PropOp35
 70
     1
102
RTVSPost2010Prop36
280
     0
102
RTVSPost2010PropOp36
 70
     1
102
RTVSPost2010Prop37
 90
       50
102
RTVSPost2010PropOp37
 70
     1
102
RTVSPost2010Prop38
140
0.0
102
RTVSPost2010PropOp38
 70
     1
102
RTVSPost2010Prop39
140
1.0
102
RTVSPost2010PropOp39
 70
     1
102
RTVSPost2010Prop40
 90
        0
102
RTVSPost2010PropOp40
 70
     1
102
RTVSPost2010Prop41ColorIndex
 90
       18
102
RTVSPost2010Prop41ColorRGB
 90
        0
102
RTVSPost2010PropOp41
 70
     1
102
RTVSPost2010Prop42
 90
       50
102
RTVSPost2010PropOp42
 70
     1
102
RTVSPost2010Prop43
 90
        3
102
RTVSPost2010PropOp43
 70
     1
102
RTVSPost2010Prop44ColorIndex
 90
        5
102
RTVSPost2010Prop44ColorRGB
 90
      255
102
RTVSPost2010PropOp44
 70
     1
102
RTVSPost2010Prop45
280
     0
102
RTVSPost2010PropOp45
 70
     1
102
RTVSPost2010Prop46
 90
       50
102
RTVSPost2010PropOp46
 70
     1
102
RTVSPost2010Prop47
 90
       50
102
RTVSPost2010PropOp47
 70
     1
102
RTVSPost2010Prop48
 90
       50
102
RTVSPost2010PropOp48
 70
     1
102
RTVSPost2010Prop49
280
     0
102
RTVSPost2010PropOp49
 70
     1
102
RTVSPost2010Prop50
 90
       50
102
RTVSPost2010PropOp50
 70
     1
102
RTVSPost2010Prop51ColorIndex
 90
      256
102
RTVSPost2010Prop51ColorRGB
 90
-16777216
102
RTVSPost2010PropOp51
 70
     0
102
RTVSPost2010Prop52
140
1.0
102
RTVSPost2010PropOp52
 70
     0
102
RTVSPost2010Prop53
 90
        2
102
RTVSPost2010PropOp53
 70
     1
102
RTVSPost2010Prop54
  1
strokes_ogs.tif
102
RTVSPost2010PropOp54
 70
     1
102
RTVSPost2010Prop55
280
     0
102
RTVSPost2010PropOp55
 70
     1
102
RTVSPost2010Prop56
140
1.0
102
RTVSPost2010PropOp56
 70
     1
102
RTVSPost2010Prop57
140
1.0
102
RTVSPost2010PropOp57
 70
     1
  0
XRECORD
  5
DCC
102
{ACAD_REACTORS
330
DCB
102
}
330
DCB
100
AcDbXrecord
280
     1
102
RTVSPost2010Prop28
280
     0
102
RTVSPost2010PropOp28
 70
     1
102
RTVSPost2010Prop29
280
     1
102
RTVSPost2010PropOp29
 70
     1
102
RTVSPost2010Prop30
280
     1
102
RTVSPost2010PropOp30
 70
     1
102
RTVSPost2010Prop31
280
     0
102
RTVSPost2010PropOp31
 70
     1
102
RTVSPost2010Prop32
280
     0
102
RTVSPost2010PropOp32
 70
     1
102
RTVSPost2010Prop33
280
     0
102
RTVSPost2010PropOp33
 70
     1
102
RTVSPost2010Prop34
280
     0
102
RTVSPost2010PropOp34
 70
     1
102
RTVSPost2010Prop35
280
     0
102
RTVSPost2010PropOp35
 70
     1
102
RTVSPost2010Prop36
280
     0
102
RTVSPost2010PropOp36
 70
     1
102
RTVSPost2010Prop37
 90
       50
102
RTVSPost2010PropOp37
 70
     1
102
RTVSPost2010Prop38
140
0.0
102
RTVSPost2010PropOp38
 70
     1
102
RTVSPost2010Prop39
140
1.0
102
RTVSPost2010PropOp39
 70
     1
102
RTVSPost2010Prop40
 90
        0
102
RTVSPost2010PropOp40
 70
     1
102
RTVSPost2010Prop41ColorIndex
 90
       18
102
RTVSPost2010Prop41ColorRGB
 90
        0
102
RTVSPost2010PropOp41
 70
     1
102
RTVSPost2010Prop42
 90
       50
102
RTVSPost2010PropOp42
 70
     1
102
RTVSPost2010Prop43
 90
        3
102
RTVSPost2010PropOp43
 70
     1
102
RTVSPost2010Prop44ColorIndex
 90
        5
102
RTVSPost2010Prop44ColorRGB
 90
      255
102
RTVSPost2010PropOp44
 70
     1
102
RTVSPost2010Prop45
280
     0
102
RTVSPost2010PropOp45
 70
     1
102
RTVSPost2010Prop46
 90
       50
102
RTVSPost2010PropOp46
 70
     1
102
RTVSPost2010Prop47
 90
       50
102
RTVSPost2010PropOp47
 70
     1
102
RTVSPost2010Prop48
 90
       50
102
RTVSPost2010PropOp48
 70
     1
102
RTVSPost2010Prop49
280
     0
102
RTVSPost2010PropOp49
 70
     1
102
RTVSPost2010Prop50
 90
       50
102
RTVSPost2010PropOp50
 70
     1
102
RTVSPost2010Prop51ColorIndex
 90
      256
102
RTVSPost2010Prop51ColorRGB
 90
-16777216
102
RTVSPost2010PropOp51
 70
     0
102
RTVSPost2010Prop52
140
1.0
102
RTVSPost2010PropOp52
 70
     0
102
RTVSPost2010Prop53
 90
        2
102
RTVSPost2010PropOp53
 70
     1
102
RTVSPost2010Prop54
  1
strokes_ogs.tif
102
RTVSPost2010PropOp54
 70
     1
102
RTVSPost2010Prop55
280
     0
102
RTVSPost2010PropOp55
 70
     1
102
RTVSPost2010Prop56
140
1.0
102
RTVSPost2010PropOp56
 70
     1
102
RTVSPost2010Prop57
140
1.0
102
RTVSPost2010PropOp57
 70
     1
  0
XRECORD
  5
DCE
102
{ACAD_REACTORS
330
DCD
102
}
330
DCD
100
AcDbXrecord
280
     1
102
RTVSPost2010Prop28
280
     0
102
RTVSPost2010PropOp28
 70
     1
102
RTVSPost2010Prop29
280
     1
102
RTVSPost2010PropOp29
 70
     1
102
RTVSPost2010Prop30
280
     1
102
RTVSPost2010PropOp30
 70
     1
102
RTVSPost2010Prop31
280
     0
102
RTVSPost2010PropOp31
 70
     1
102
RTVSPost2010Prop32
280
     0
102
RTVSPost2010PropOp32
 70
     1
102
RTVSPost2010Prop33
280
     0
102
RTVSPost2010PropOp33
 70
     1
102
RTVSPost2010Prop34
280
     0
102
RTVSPost2010PropOp34
 70
     1
102
RTVSPost2010Prop35
280
     0
102
RTVSPost2010PropOp35
 70
     1
102
RTVSPost2010Prop36
280
     0
102
RTVSPost2010PropOp36
 70
     1
102
RTVSPost2010Prop37
 90
       50
102
RTVSPost2010PropOp37
 70
     1
102
RTVSPost2010Prop38
140
0.0
102
RTVSPost2010PropOp38
 70
     1
102
RTVSPost2010Prop39
140
1.0
102
RTVSPost2010PropOp39
 70
     1
102
RTVSPost2010Prop40
 90
        0
102
RTVSPost2010PropOp40
 70
     1
102
RTVSPost2010Prop41ColorIndex
 90
       18
102
RTVSPost2010Prop41ColorRGB
 90
        0
102
RTVSPost2010PropOp41
 70
     1
102
RTVSPost2010Prop42
 90
       50
102
RTVSPost2010PropOp42
 70
     1
102
RTVSPost2010Prop43
 90
        3
102
RTVSPost2010PropOp43
 70
     1
102
RTVSPost2010Prop44ColorIndex
 90
        5
102
RTVSPost2010Prop44ColorRGB
 90
      255
102
RTVSPost2010PropOp44
 70
     1
102
RTVSPost2010Prop45
280
     0
102
RTVSPost2010PropOp45
 70
     1
102
RTVSPost2010Prop46
 90
       50
102
RTVSPost2010PropOp46
 70
     1
102
RTVSPost2010Prop47
 90
       50
102
RTVSPost2010PropOp47
 70
     1
102
RTVSPost2010Prop48
 90
       50
102
RTVSPost2010PropOp48
 70
     1
102
RTVSPost2010Prop49
280
     0
102
RTVSPost2010PropOp49
 70
     1
102
RTVSPost2010Prop50
 90
       50
102
RTVSPost2010PropOp50
 70
     1
102
RTVSPost2010Prop51ColorIndex
 90
      256
102
RTVSPost2010Prop51ColorRGB
 90
-16777216
102
RTVSPost2010PropOp51
 70
     0
102
RTVSPost2010Prop52
140
1.0
102
RTVSPost2010PropOp52
 70
     0
102
RTVSPost2010Prop53
 90
        2
102
RTVSPost2010PropOp53
 70
     1
102
RTVSPost2010Prop54
  1
strokes_ogs.tif
102
RTVSPost2010PropOp54
 70
     1
102
RTVSPost2010Prop55
280
     0
102
RTVSPost2010PropOp55
 70
     1
102
RTVSPost2010Prop56
140
1.0
102
RTVSPost2010PropOp56
 70
     1
102
RTVSPost2010Prop57
140
1.0
102
RTVSPost2010PropOp57
 70
     1
  0
XRECORD
  5
DC4
102
{ACAD_REACTORS
330
DC3
102
}
330
DC3
100
AcDbXrecord
280
     1
102
RTVSPost2010Prop28
280
     0
102
RTVSPost2010PropOp28
 70
     1
102
RTVSPost2010Prop29
280
     1
102
RTVSPost2010PropOp29
 70
     1
102
RTVSPost2010Prop30
280
     1
102
RTVSPost2010PropOp30
 70
     1
102
RTVSPost2010Prop31
280
     0
102
RTVSPost2010PropOp31
 70
     1
102
RTVSPost2010Prop32
280
     0
102
RTVSPost2010PropOp32
 70
     1
102
RTVSPost2010Prop33
280
     0
102
RTVSPost2010PropOp33
 70
     1
102
RTVSPost2010Prop34
280
     0
102
RTVSPost2010PropOp34
 70
     1
102
RTVSPost2010Prop35
280
     0
102
RTVSPost2010PropOp35
 70
     1
102
RTVSPost2010Prop36
280
     0
102
RTVSPost2010PropOp36
 70
     1
102
RTVSPost2010Prop37
 90
       50
102
RTVSPost2010PropOp37
 70
     1
102
RTVSPost2010Prop38
140
0.0
102
RTVSPost2010PropOp38
 70
     1
102
RTVSPost2010Prop39
140
1.0
102
RTVSPost2010PropOp39
 70
     1
102
RTVSPost2010Prop40
 90
        0
102
RTVSPost2010PropOp40
 70
     1
102
RTVSPost2010Prop41ColorIndex
 90
       18
102
RTVSPost2010Prop41ColorRGB
 90
        0
102
RTVSPost2010PropOp41
 70
     1
102
RTVSPost2010Prop42
 90
       50
102
RTVSPost2010PropOp42
 70
     1
102
RTVSPost2010Prop43
 90
        3
102
RTVSPost2010PropOp43
 70
     1
102
RTVSPost2010Prop44ColorIndex
 90
        5
102
RTVSPost2010Prop44ColorRGB
 90
      255
102
RTVSPost2010PropOp44
 70
     1
102
RTVSPost2010Prop45
280
     0
102
RTVSPost2010PropOp45
 70
     1
102
RTVSPost2010Prop46
 90
       50
102
RTVSPost2010PropOp46
 70
     1
102
RTVSPost2010Prop47
 90
       50
102
RTVSPost2010PropOp47
 70
     1
102
RTVSPost2010Prop48
 90
       50
102
RTVSPost2010PropOp48
 70
     1
102
RTVSPost2010Prop49
280
     0
102
RTVSPost2010PropOp49
 70
     1
102
RTVSPost2010Prop50
 90
       50
102
RTVSPost2010PropOp50
 70
     1
102
RTVSPost2010Prop51ColorIndex
 90
      256
102
RTVSPost2010Prop51ColorRGB
 90
-16777216
102
RTVSPost2010PropOp51
 70
     0
102
RTVSPost2010Prop52
140
1.0
102
RTVSPost2010PropOp52
 70
     0
102
RTVSPost2010Prop53
 90
        2
102
RTVSPost2010PropOp53
 70
     1
102
RTVSPost2010Prop54
  1
strokes_ogs.tif
102
RTVSPost2010PropOp54
 70
     1
102
RTVSPost2010Prop55
280
     0
102
RTVSPost2010PropOp55
 70
     1
102
RTVSPost2010Prop56
140
1.0
102
RTVSPost2010PropOp56
 70
     1
102
RTVSPost2010Prop57
140
1.0
102
RTVSPost2010PropOp57
 70
     1
  0
XRECORD
  5
DB8
102
{ACAD_REACTORS
330
DB7
102
}
330
DB7
100
AcDbXrecord
280
     1
102
RTVSPost2010Prop28
280
     0
102
RTVSPost2010PropOp28
 70
     1
102
RTVSPost2010Prop29
280
     1
102
RTVSPost2010PropOp29
 70
     1
102
RTVSPost2010Prop30
280
     1
102
RTVSPost2010PropOp30
 70
     1
102
RTVSPost2010Prop31
280
     0
102
RTVSPost2010PropOp31
 70
     1
102
RTVSPost2010Prop32
280
     0
102
RTVSPost2010PropOp32
 70
     1
102
RTVSPost2010Prop33
280
     0
102
RTVSPost2010PropOp33
 70
     1
102
RTVSPost2010Prop34
280
     0
102
RTVSPost2010PropOp34
 70
     1
102
RTVSPost2010Prop35
280
     0
102
RTVSPost2010PropOp35
 70
     1
102
RTVSPost2010Prop36
280
     0
102
RTVSPost2010PropOp36
 70
     1
102
RTVSPost2010Prop37
 90
       50
102
RTVSPost2010PropOp37
 70
     1
102
RTVSPost2010Prop38
140
0.0
102
RTVSPost2010PropOp38
 70
     1
102
RTVSPost2010Prop39
140
1.0
102
RTVSPost2010PropOp39
 70
     1
102
RTVSPost2010Prop40
 90
        0
102
RTVSPost2010PropOp40
 70
     1
102
RTVSPost2010Prop41ColorIndex
 90
       18
102
RTVSPost2010Prop41ColorRGB
 90
        0
102
RTVSPost2010PropOp41
 70
     1
102
RTVSPost2010Prop42
 90
       50
102
RTVSPost2010PropOp42
 70
     1
102
RTVSPost2010Prop43
 90
        3
102
RTVSPost2010PropOp43
 70
     1
102
RTVSPost2010Prop44ColorIndex
 90
        5
102
RTVSPost2010Prop44ColorRGB
 90
      255
102
RTVSPost2010PropOp44
 70
     1
102
RTVSPost2010Prop45
280
     0
102
RTVSPost2010PropOp45
 70
     1
102
RTVSPost2010Prop46
 90
       50
102
RTVSPost2010PropOp46
 70
     1
102
RTVSPost2010Prop47
 90
       50
102
RTVSPost2010PropOp47
 70
     1
102
RTVSPost2010Prop48
 90
       50
102
RTVSPost2010PropOp48
 70
     1
102
RTVSPost2010Prop49
280
     0
102
RTVSPost2010PropOp49
 70
     1
102
RTVSPost2010Prop50
 90
       50
102
RTVSPost2010PropOp50
 70
     1
102
RTVSPost2010Prop51ColorIndex
 90
      256
102
RTVSPost2010Prop51ColorRGB
 90
-16777216
102
RTVSPost2010PropOp51
 70
     0
102
RTVSPost2010Prop52
140
1.0
102
RTVSPost2010PropOp52
 70
     0
102
RTVSPost2010Prop53
 90
        2
102
RTVSPost2010PropOp53
 70
     1
102
RTVSPost2010Prop54
  1
strokes_ogs.tif
102
RTVSPost2010PropOp54
 70
     1
102
RTVSPost2010Prop55
280
     0
102
RTVSPost2010PropOp55
 70
     1
102
RTVSPost2010Prop56
140
1.0
102
RTVSPost2010PropOp56
 70
     1
102
RTVSPost2010Prop57
140
1.0
102
RTVSPost2010PropOp57
 70
     1
  0
XRECORD
  5
DD0
102
{ACAD_REACTORS
330
DCF
102
}
330
DCF
100
AcDbXrecord
280
     1
102
RTVSPost2010Prop28
280
     0
102
RTVSPost2010PropOp28
 70
     1
102
RTVSPost2010Prop29
280
     1
102
RTVSPost2010PropOp29
 70
     1
102
RTVSPost2010Prop30
280
     1
102
RTVSPost2010PropOp30
 70
     1
102
RTVSPost2010Prop31
280
     0
102
RTVSPost2010PropOp31
 70
     1
102
RTVSPost2010Prop32
280
     0
102
RTVSPost2010PropOp32
 70
     1
102
RTVSPost2010Prop33
280
     0
102
RTVSPost2010PropOp33
 70
     1
102
RTVSPost2010Prop34
280
     0
102
RTVSPost2010PropOp34
 70
     1
102
RTVSPost2010Prop35
280
     0
102
RTVSPost2010PropOp35
 70
     1
102
RTVSPost2010Prop36
280
     0
102
RTVSPost2010PropOp36
 70
     1
102
RTVSPost2010Prop37
 90
       50
102
RTVSPost2010PropOp37
 70
     1
102
RTVSPost2010Prop38
140
0.0
102
RTVSPost2010PropOp38
 70
     1
102
RTVSPost2010Prop39
140
1.0
102
RTVSPost2010PropOp39
 70
     1
102
RTVSPost2010Prop40
 90
        0
102
RTVSPost2010PropOp40
 70
     1
102
RTVSPost2010Prop41ColorIndex
 90
       18
102
RTVSPost2010Prop41ColorRGB
 90
        0
102
RTVSPost2010PropOp41
 70
     1
102
RTVSPost2010Prop42
 90
       50
102
RTVSPost2010PropOp42
 70
     1
102
RTVSPost2010Prop43
 90
        3
102
RTVSPost2010PropOp43
 70
     1
102
RTVSPost2010Prop44ColorIndex
 90
        5
102
RTVSPost2010Prop44ColorRGB
 90
      255
102
RTVSPost2010PropOp44
 70
     1
102
RTVSPost2010Prop45
280
     0
102
RTVSPost2010PropOp45
 70
     1
102
RTVSPost2010Prop46
 90
       50
102
RTVSPost2010PropOp46
 70
     1
102
RTVSPost2010Prop47
 90
       50
102
RTVSPost2010PropOp47
 70
     1
102
RTVSPost2010Prop48
 90
       50
102
RTVSPost2010PropOp48
 70
     1
102
RTVSPost2010Prop49
280
     0
102
RTVSPost2010PropOp49
 70
     1
102
RTVSPost2010Prop50
 90
       50
102
RTVSPost2010PropOp50
 70
     1
102
RTVSPost2010Prop51ColorIndex
 90
      256
102
RTVSPost2010Prop51ColorRGB
 90
-16777216
102
RTVSPost2010PropOp51
 70
     0
102
RTVSPost2010Prop52
140
1.0
102
RTVSPost2010PropOp52
 70
     0
102
RTVSPost2010Prop53
 90
        2
102
RTVSPost2010PropOp53
 70
     1
102
RTVSPost2010Prop54
  1
strokes_ogs.tif
102
RTVSPost2010PropOp54
 70
     1
102
RTVSPost2010Prop55
280
     0
102
RTVSPost2010PropOp55
 70
     1
102
RTVSPost2010Prop56
140
1.0
102
RTVSPost2010PropOp56
 70
     1
102
RTVSPost2010Prop57
140
1.0
102
RTVSPost2010PropOp57
 70
     1
  0
ENDSEC
  0
EOF
