  0
SECTION
  2
HEADER
  9
$ACADVER
  1
AC1024
  9
$ACADMAINTVER
 70
   225
  9
$DWGCODEPAGE
  3
ANSI_1252
  9
$LASTSAVEDBY
  1
kaschu
  9
$INSBASE
 10
0.0
 20
0.0
 30
0.0
  9
$EXTMIN
 10
-5.602445914561825
 20
-804.6187032060798
 30
-0.0029903937888375
  9
$EXTMAX
 10
4153.275841805917
 20
1628.8388490672
 30
0.0044701331014622
  9
$LIMMIN
 10
0.0
 20
0.0
  9
$LIMMAX
 10
12.0
 20
9.0
  9
$ORTHOMODE
 70
     0
  9
$REGENMODE
 70
     1
  9
$FILLMODE
 70
     1
  9
$QTEXTMODE
 70
     0
  9
$MIRRTEXT
 70
     1
  9
$LTSCALE
 40
1.0
  9
$ATTMODE
 70
     1
  9
$TEXTSIZE
 40
0.2
  9
$TRACEWID
 40
0.05
  9
$TEXTSTYLE
  7
STANDARD
  9
$CLAYER
  8
0
  9
$CELTYPE
  6
BYLAYER
  9
$CECOLOR
 62
   256
  9
$CELTSCALE
 40
1.0
  9
$DISPSILH
 70
     0
  9
$DIMSCALE
 40
1.0
  9
$DIMASZ
 40
0.18
  9
$DIMEXO
 40
0.0625
  9
$DIMDLI
 40
0.38
  9
$DIMRND
 40
0.0
  9
$DIMDLE
 40
0.0
  9
$DIMEXE
 40
0.18
  9
$DIMTP
 40
0.0
  9
$DIMTM
 40
0.0
  9
$DIMTXT
 40
0.18
  9
$DIMCEN
 40
0.09
  9
$DIMTSZ
 40
0.0
  9
$DIMTOL
 70
     0
  9
$DIMLIM
 70
     0
  9
$DIMTIH
 70
     1
  9
$DIMTOH
 70
     1
  9
$DIMSE1
 70
     0
  9
$DIMSE2
 70
     0
  9
$DIMTAD
 70
     0
  9
$DIMZIN
 70
     0
  9
$DIMBLK
  1

  9
$DIMASO
 70
     1
  9
$DIMSHO
 70
     1
  9
$DIMPOST
  1

  9
$DIMAPOST
  1

  9
$DIMALT
 70
     0
  9
$DIMALTD
 70
     2
  9
$DIMALTF
 40
25.4
  9
$DIMLFAC
 40
1.0
  9
$DIMTOFL
 70
     0
  9
$DIMTVP
 40
0.0
  9
$DIMTIX
 70
     0
  9
$DIMSOXD
 70
     0
  9
$DIMSAH
 70
     0
  9
$DIMBLK1
  1

  9
$DIMBLK2
  1

  9
$DIMSTYLE
  2
STANDARD
  9
$DIMCLRD
 70
     0
  9
$DIMCLRE
 70
     0
  9
$DIMCLRT
 70
     0
  9
$DIMTFAC
 40
1.0
  9
$DIMGAP
 40
0.09
  9
$DIMJUST
 70
     0
  9
$DIMSD1
 70
     0
  9
$DIMSD2
 70
     0
  9
$DIMTOLJ
 70
     1
  9
$DIMTZIN
 70
     0
  9
$DIMALTZ
 70
     0
  9
$DIMALTTZ
 70
     0
  9
$DIMUPT
 70
     0
  9
$DIMDEC
 70
     4
  9
$DIMTDEC
 70
     4
  9
$DIMALTU
 70
     2
  9
$DIMALTTD
 70
     2
  9
$DIMTXSTY
  7
STANDARD
  9
$DIMAUNIT
 70
     0
  9
$DIMADEC
 70
     0
  9
$DIMALTRND
 40
0.0
  9
$DIMAZIN
 70
     0
  9
$DIMDSEP
 70
    46
  9
$DIMATFIT
 70
     3
  9
$DIMFRAC
 70
     0
  9
$DIMLDRBLK
  1

  9
$DIMLUNIT
 70
     2
  9
$DIMLWD
 70
    -2
  9
$DIMLWE
 70
    -2
  9
$DIMTMOVE
 70
     0
  9
$DIMFXL
 40
1.0
  9
$DIMFXLON
 70
     0
  9
$DIMJOGANG
 40
0.7853981633974483
  9
$DIMTFILL
 70
     0
  9
$DIMTFILLCLR
 70
     0
  9
$DIMARCSYM
 70
     0
  9
$DIMLTYPE
  6

  9
$DIMLTEX1
  6

  9
$DIMLTEX2
  6

  9
$DIMTXTDIRECTION
 70
     0
  9
$LUNITS
 70
     2
  9
$LUPREC
 70
     4
  9
$SKETCHINC
 40
0.1
  9
$FILLETRAD
 40
0.5
  9
$AUNITS
 70
     0
  9
$AUPREC
 70
     0
  9
$MENU
  1
.
  9
$ELEVATION
 40
0.0
  9
$PELEVATION
 40
0.0
  9
$THICKNESS
 40
0.0
  9
$LIMCHECK
 70
     0
  9
$CHAMFERA
 40
0.5
  9
$CHAMFERB
 40
0.5
  9
$CHAMFERC
 40
1.0
  9
$CHAMFERD
 40
0.0
  9
$SKPOLY
 70
     0
  9
$TDCREATE
 40
2451762.456724537
  9
$TDUCREATE
 40
2451762.373400000
  9
$TDUPDATE
 40
2458181.622361111
  9
$TDUUPDATE
 40
2458181.580694445
  9
$TDINDWG
 40
0.0657400347
  9
$TDUSRTIMER
 40
0.0657400000
  9
$USRTIMER
 70
     1
  9
$ANGBASE
 50
0.0
  9
$ANGDIR
 70
     0
  9
$PDMODE
 70
     0
  9
$PDSIZE
 40
0.0
  9
$PLINEWID
 40
0.0
  9
$SPLFRAME
 70
     0
  9
$SPLINETYPE
 70
     6
  9
$SPLINESEGS
 70
     8
  9
$HANDSEED
  5
12E5
  9
$SURFTAB1
 70
     6
  9
$SURFTAB2
 70
     6
  9
$SURFTYPE
 70
     6
  9
$SURFU
 70
     6
  9
$SURFV
 70
     6
  9
$UCSBASE
  2

  9
$UCSNAME
  2

  9
$UCSORG
 10
0.0
 20
0.0
 30
0.0
  9
$UCSXDIR
 10
1.0
 20
0.0
 30
0.0
  9
$UCSYDIR
 10
0.0
 20
1.0
 30
0.0
  9
$UCSORTHOREF
  2

  9
$UCSORTHOVIEW
 70
     0
  9
$UCSORGTOP
 10
0.0
 20
0.0
 30
0.0
  9
$UCSORGBOTTOM
 10
0.0
 20
0.0
 30
0.0
  9
$UCSORGLEFT
 10
0.0
 20
0.0
 30
0.0
  9
$UCSORGRIGHT
 10
0.0
 20
0.0
 30
0.0
  9
$UCSORGFRONT
 10
0.0
 20
0.0
 30
0.0
  9
$UCSORGBACK
 10
0.0
 20
0.0
 30
0.0
  9
$PUCSBASE
  2

  9
$PUCSNAME
  2

  9
$PUCSORG
 10
0.0
 20
0.0
 30
0.0
  9
$PUCSXDIR
 10
1.0
 20
0.0
 30
0.0
  9
$PUCSYDIR
 10
0.0
 20
1.0
 30
0.0
  9
$PUCSORTHOREF
  2

  9
$PUCSORTHOVIEW
 70
     0
  9
$PUCSORGTOP
 10
0.0
 20
0.0
 30
0.0
  9
$PUCSORGBOTTOM
 10
0.0
 20
0.0
 30
0.0
  9
$PUCSORGLEFT
 10
0.0
 20
0.0
 30
0.0
  9
$PUCSORGRIGHT
 10
0.0
 20
0.0
 30
0.0
  9
$PUCSORGFRONT
 10
0.0
 20
0.0
 30
0.0
  9
$PUCSORGBACK
 10
0.0
 20
0.0
 30
0.0
  9
$USERI1
 70
     0
  9
$USERI2
 70
     0
  9
$USERI3
 70
     0
  9
$USERI4
 70
     0
  9
$USERI5
 70
     0
  9
$USERR1
 40
0.0
  9
$USERR2
 40
0.0
  9
$USERR3
 40
0.0
  9
$USERR4
 40
0.0
  9
$USERR5
 40
0.0
  9
$WORLDVIEW
 70
     1
  9
$SHADEDGE
 70
     3
  9
$SHADEDIF
 70
    70
  9
$TILEMODE
 70
     1
  9
$MAXACTVP
 70
    64
  9
$PINSBASE
 10
0.0
 20
0.0
 30
0.0
  9
$PLIMCHECK
 70
     0
  9
$PEXTMIN
 10
1.000000000000000E+20
 20
1.000000000000000E+20
 30
1.000000000000000E+20
  9
$PEXTMAX
 10
-1.000000000000000E+20
 20
-1.000000000000000E+20
 30
-1.000000000000000E+20
  9
$PLIMMIN
 10
0.0
 20
0.0
  9
$PLIMMAX
 10
12.0
 20
9.0
  9
$UNITMODE
 70
     0
  9
$VISRETAIN
 70
     1
  9
$PLINEGEN
 70
     0
  9
$PSLTSCALE
 70
     1
  9
$TREEDEPTH
 70
  3020
  9
$CMLSTYLE
  2
STANDARD
  9
$CMLJUST
 70
     0
  9
$CMLSCALE
 40
1.0
  9
$PROXYGRAPHICS
 70
     1
  9
$MEASUREMENT
 70
     0
  9
$CELWEIGHT
370
    -1
  9
$ENDCAPS
280
     0
  9
$JOINSTYLE
280
     0
  9
$LWDISPLAY
290
     0
  9
$INSUNITS
 70
     0
  9
$HYPERLINKBASE
  1

  9
$STYLESHEET
  1

  9
$XEDIT
290
     1
  9
$CEPSNTYPE
380
     0
  9
$PSTYLEMODE
290
     1
  9
$FINGERPRINTGUID
  2
{A42321FD-4D3B-470A-B3BE-A3689E04D828}
  9
$VERSIONGUID
  2
{6D66D667-29D0-794D-A3E1-06CCEA808D74}
  9
$EXTNAMES
290
     1
  9
$PSVPSCALE
 40
0.0
  9
$OLESTARTUP
290
     0
  9
$SORTENTS
280
   127
  9
$INDEXCTL
280
     0
  9
$HIDETEXT
280
     0
  9
$XCLIPFRAME
280
     2
  9
$HALOGAP
280
     0
  9
$OBSCOLOR
 70
   257
  9
$OBSLTYPE
280
     0
  9
$INTERSECTIONDISPLAY
280
     0
  9
$INTERSECTIONCOLOR
 70
   257
  9
$DIMASSOC
280
     1
  9
$PROJECTNAME
  1

  9
$CAMERADISPLAY
290
     0
  9
$LENSLENGTH
 40
50.0
  9
$CAMERAHEIGHT
 40
0.0
  9
$STEPSPERSEC
 40
2.0
  9
$STEPSIZE
 40
6.0
  9
$3DDWFPREC
 40
2.0
  9
$PSOLWIDTH
 40
0.25
  9
$PSOLHEIGHT
 40
4.0
  9
$LOFTANG1
 40
1.570796326794896
  9
$LOFTANG2
 40
1.570796326794896
  9
$LOFTMAG1
 40
0.0
  9
$LOFTMAG2
 40
0.0
  9
$LOFTPARAM
 70
     7
  9
$LOFTNORMALS
280
     1
  9
$LATITUDE
 40
37.795
  9
$LONGITUDE
 40
-122.394
  9
$NORTHDIRECTION
 40
0.0
  9
$TIMEZONE
 70
 -8000
  9
$LIGHTGLYPHDISPLAY
280
     1
  9
$TILEMODELIGHTSYNCH
280
     1
  9
$CMATERIAL
347
17B
  9
$SOLIDHIST
280
     0
  9
$SHOWHIST
280
     1
  9
$DWFFRAME
280
     2
  9
$DGNFRAME
280
     0
  9
$REALWORLDSCALE
290
     1
  9
$INTERFERECOLOR
 62
     1
  9
$INTERFEREOBJVS
345
19D
  9
$INTERFEREVPVS
346
19A
  9
$CSHADOW
280
     0
  9
$SHADOWPLANELOCATION
 40
0.0
  0
ENDSEC
  0
SECTION
  2
CLASSES
  0
CLASS
  1
ACDBDICTIONARYWDFLT
  2
AcDbDictionaryWithDefault
  3
ObjectDBX Classes
 90
        0
 91
        1
280
     0
281
     0
  0
CLASS
  1
MATERIAL
  2
AcDbMaterial
  3
ObjectDBX Classes
 90
     1153
 91
        3
280
     0
281
     0
  0
CLASS
  1
VISUALSTYLE
  2
AcDbVisualStyle
  3
ObjectDBX Classes
 90
     4095
 91
       24
280
     0
281
     0
  0
CLASS
  1
TABLESTYLE
  2
AcDbTableStyle
  3
ObjectDBX Classes
 90
     4095
 91
        1
280
     0
281
     0
  0
CLASS
  1
SCALE
  2
AcDbScale
  3
ObjectDBX Classes
 90
     1153
 91
       17
280
     0
281
     0
  0
CLASS
  1
MLEADERSTYLE
  2
AcDbMLeaderStyle
  3
ACDB_MLEADERSTYLE_CLASS
 90
     4095
 91
        1
280
     0
281
     0
  0
CLASS
  1
ACDBSECTIONVIEWSTYLE
  2
AcDbSectionViewStyle
  3
ObjectDBX Classes
 90
     1025
 91
        2
280
     0
281
     0
  0
CLASS
  1
ACDBDETAILVIEWSTYLE
  2
AcDbDetailViewStyle
  3
ObjectDBX Classes
 90
     1025
 91
        2
280
     0
281
     0
  0
CLASS
  1
DICTIONARYVAR
  2
AcDbDictionaryVar
  3
ObjectDBX Classes
 90
        0
 91
        9
280
     0
281
     0
  0
CLASS
  1
SORTENTSTABLE
  2
AcDbSortentsTable
  3
ObjectDBX Classes
 90
        0
 91
        2
280
     0
281
     0
  0
CLASS
  1
CELLSTYLEMAP
  2
AcDbCellStyleMap
  3
ObjectDBX Classes
 90
     1152
 91
        5
280
     0
281
     0
  0
ENDSEC
  0
SECTION
  2
TABLES
  0
TABLE
  2
VPORT
  5
8
330
0
100
AcDbSymbolTable
 70
     1
  0
VPORT
  5
155
330
8
100
AcDbSymbolTableRecord
100
AcDbViewportTableRecord
  2
*ACTIVE
 70
     0
 10
0.0
 20
0.0
 11
1.0
 21
1.0
 12
3276.276271791628
 22
-442.1864105173986
 13
0.0
 23
0.0
 14
0.5
 24
0.5
 15
0.5
 25
0.5
 16
0.0
 26
0.0
 36
1.0
 17
0.0
 27
0.0
 37
0.0
 40
4894.184692086081
 41
1.968098159509202
 42
50.0
 43
0.0
 44
0.0
 50
0.0
 51
0.0
 71
     0
 72
 10000
 73
     1
 74
     3
 75
     0
 76
     0
 77
     0
 78
     0
281
     0
 65
     1
110
0.0
120
0.0
130
0.0
111
1.0
121
0.0
131
0.0
112
0.0
122
1.0
132
0.0
 79
     0
146
0.0
348
199
 60
     3
 61
     5
292
     1
282
     1
141
0.0
142
0.0
 63
   250
421
  3355443
1001
ACAD_NAV_VCDISPLAY
1070
     3
  0
ENDTAB
  0
TABLE
  2
LTYPE
  5
5
330
0
100
AcDbSymbolTable
 70
     4
  0
LTYPE
  5
14
330
5
100
AcDbSymbolTableRecord
100
AcDbLinetypeTableRecord
  2
BYBLOCK
 70
     0
  3

 72
    65
 73
     0
 40
0.0
  0
LTYPE
  5
15
330
5
100
AcDbSymbolTableRecord
100
AcDbLinetypeTableRecord
  2
BYLAYER
 70
     0
  3

 72
    65
 73
     0
 40
0.0
  0
LTYPE
  5
16
330
5
100
AcDbSymbolTableRecord
100
AcDbLinetypeTableRecord
  2
CONTINUOUS
 70
     0
  3
Solid line
 72
    65
 73
     0
 40
0.0
  0
LTYPE
  5
1C4
330
5
100
AcDbSymbolTableRecord
100
AcDbLinetypeTableRecord
  2
PHANTOM2
 70
     0
  3
___ _ _ ___ _ _ ___ _ _ ___ _ _
 72
    65
 73
     6
 40
1.25
 49
0.625
 74
     0
 49
-0.125
 74
     0
 49
0.125
 74
     0
 49
-0.125
 74
     0
 49
0.125
 74
     0
 49
-0.125
 74
     0
  0
LTYPE
  5
5BE
330
5
100
AcDbSymbolTableRecord
100
AcDbLinetypeTableRecord
  2
CENTER
 70
     0
  3
____ _ ____ _ ____ _ ____
 72
    65
 73
     4
 40
47.4
 49
22.0
 74
     4
 75
     0
340
0
 46
0.0
 50
0.0
 44
0.0
 45
0.0
 49
-8.5
 74
     4
 75
     0
340
0
 46
0.0
 50
0.0
 44
0.0
 45
0.0
 49
8.5
 74
     4
 75
     0
340
0
 46
0.0
 50
0.0
 44
0.0
 45
0.0
 49
-8.5
 74
     4
 75
     0
340
0
 46
0.0
 50
0.0
 44
0.0
 45
0.0
  0
ENDTAB
  0
TABLE
  2
LAYER
  5
2
102
{ACAD_XDICTIONARY
360
1E1
102
}
330
0
100
AcDbSymbolTable
 70
     4
  0
LAYER
  5
10
102
{ACAD_XDICTIONARY
360
1CD
102
}
330
2
100
AcDbSymbolTableRecord
100
AcDbLayerTableRecord
  2
0
 70
     0
 62
     7
  6
CONTINUOUS
370
    -3
390
E0
347
18B
  0
LAYER
  5
296
330
2
100
AcDbSymbolTableRecord
100
AcDbLayerTableRecord
  2
HEWI
 70
     0
 62
     7
  6
CONTINUOUS
370
     9
390
E0
347
18B
1001
AcAecLayerStandard
1000

1000

1001
AcCmTransparency
1071
        0
  0
LAYER
  5
309
330
2
100
AcDbSymbolTableRecord
100
AcDbLayerTableRecord
  2
Defpoints
 70
     0
 62
     7
  6
CONTINUOUS
290
     0
370
    -3
390
E0
347
18B
  0
LAYER
  5
5BF
330
2
100
AcDbSymbolTableRecord
100
AcDbLayerTableRecord
  2
1
 70
     0
 62
     7
420
 16777215
  6
CONTINUOUS
370
    -3
390
E0
347
18B
  0
ENDTAB
  0
TABLE
  2
STYLE
  5
3
330
0
100
AcDbSymbolTable
 70
     1
  0
STYLE
  5
11
330
3
100
AcDbSymbolTableRecord
100
AcDbTextStyleTableRecord
  2
STANDARD
 70
     0
 40
0.0
 41
1.0
 50
0.0
 71
     0
 42
0.2
  3
txt
  4

  0
ENDTAB
  0
TABLE
  2
VIEW
  5
6
330
0
100
AcDbSymbolTable
 70
     2
  0
ENDTAB
  0
TABLE
  2
UCS
  5
7
330
0
100
AcDbSymbolTable
 70
     0
  0
ENDTAB
  0
TABLE
  2
APPID
  5
9
330
0
100
AcDbSymbolTable
 70
     6
  0
APPID
  5
12
330
9
100
AcDbSymbolTableRecord
100
AcDbRegAppTableRecord
  2
ACAD
 70
     0
  0
APPID
  5
1D1
330
9
100
AcDbSymbolTableRecord
100
AcDbRegAppTableRecord
  2
ACAD_NAV_VCDISPLAY
 70
     0
  0
APPID
  5
297
330
9
100
AcDbSymbolTableRecord
100
AcDbRegAppTableRecord
  2
AcAecLayerStandard
 70
     0
  0
APPID
  5
298
330
9
100
AcDbSymbolTableRecord
100
AcDbRegAppTableRecord
  2
AcCmTransparency
 70
     0
  0
APPID
  5
2AA
330
9
100
AcDbSymbolTableRecord
100
AcDbRegAppTableRecord
  2
ACAD_PSEXT
 70
     0
  0
APPID
  5
483
330
9
100
AcDbSymbolTableRecord
100
AcDbRegAppTableRecord
  2
ACAD_EXEMPT_FROM_CAD_STANDARDS
 70
     0
  0
ENDTAB
  0
TABLE
  2
DIMSTYLE
  5
A
330
0
100
AcDbSymbolTable
 70
     2
100
AcDbDimStyleTable
 71
     1
340
27
  0
DIMSTYLE
105
27
330
A
100
AcDbSymbolTableRecord
100
AcDbDimStyleTableRecord
  2
STANDARD
 70
     0
340
11
  0
ENDTAB
  0
TABLE
  2
BLOCK_RECORD
  5
1
330
0
100
AcDbSymbolTable
 70
     6
  0
BLOCK_RECORD
  5
1F
102
{ACAD_XDICTIONARY
360
D9
102
}
330
1
100
AcDbSymbolTableRecord
100
AcDbBlockTableRecord
  2
*MODEL_SPACE
340
1C8
 70
     0
280
     1
281
     0
  0
BLOCK_RECORD
  5
1B
102
{ACAD_XDICTIONARY
360
D7
102
}
330
1
100
AcDbSymbolTableRecord
100
AcDbBlockTableRecord
  2
*PAPER_SPACE
340
1C9
 70
     0
280
     1
281
     0
  0
BLOCK_RECORD
  5
C97
330
1
100
AcDbSymbolTableRecord
100
AcDbBlockTableRecord
  2
*D1
340
0
 70
     0
280
     1
281
     0
  0
BLOCK_RECORD
  5
CB0
330
1
100
AcDbSymbolTableRecord
100
AcDbBlockTableRecord
  2
*D2
340
0
 70
     0
280
     1
281
     0
  0
BLOCK_RECORD
  5
CBE
330
1
100
AcDbSymbolTableRecord
100
AcDbBlockTableRecord
  2
*D3
340
0
 70
     0
280
     1
281
     0
  0
ENDTAB
  0
ENDSEC
  0
SECTION
  2
BLOCKS
  0
BLOCK
  5
20
330
1F
100
AcDbEntity
  8
0
100
AcDbBlockBegin
  2
*MODEL_SPACE
 70
     0
 10
0.0
 20
0.0
 30
0.0
  3
*MODEL_SPACE
  1

  0
ENDBLK
  5
21
330
1F
100
AcDbEntity
  8
0
100
AcDbBlockEnd
  0
BLOCK
  5
1C
330
1B
100
AcDbEntity
 67
     1
  8
0
100
AcDbBlockBegin
  2
*PAPER_SPACE
 70
     0
 10
0.0
 20
0.0
 30
0.0
  3
*PAPER_SPACE
  1

  0
ENDBLK
  5
1D
330
1B
100
AcDbEntity
 67
     1
  8
0
100
AcDbBlockEnd
  0
BLOCK
  5
C98
330
C97
100
AcDbEntity
  8
0
100
AcDbBlockBegin
  2
*D1
 70
     1
 10
0.0
 20
0.0
 30
0.0
  3
*D1
  1

  0
LINE
  5
C9A
330
C97
100
AcDbEntity
  8
0
 62
     0
440
 16777216
370
    -2
100
AcDbLine
 10
2011.593491636296
 20
730.4782901043461
 30
0.0
 11
1610.291066414046
 21
730.4782901043459
 31
0.0
  0
LINE
  5
C9B
330
C97
100
AcDbEntity
  8
0
 62
     0
440
 16777216
370
    -2
100
AcDbLine
 10
2011.593491636296
 20
-181.6217098956541
 30
0.0
 11
1610.291066414047
 21
-181.6217098956542
 31
0.0
  0
LINE
  5
C9C
330
C97
100
AcDbEntity
  8
0
 62
     0
440
 16777216
370
    -2
100
AcDbLine
 10
1610.471066414046
 20
730.298290104346
 30
0.0
 11
1610.471066414046
 21
274.6082901043459
 31
0.0
  0
LINE
  5
C9D
330
C97
100
AcDbEntity
  8
0
 62
     0
440
 16777216
370
    -2
100
AcDbLine
 10
1610.471066414046
 20
-181.4417098956542
 30
0.0
 11
1610.471066414046
 21
274.2482901043459
 31
0.0
  0
SOLID
  5
C9E
330
C97
100
AcDbEntity
  8
0
 62
     0
440
 16777216
100
AcDbTrace
 10
1610.441066414046
 20
730.298290104346
 30
0.0
 11
1610.501066414046
 21
730.298290104346
 31
0.0
 12
1610.471066414046
 22
730.4782901043459
 32
0.0
 13
1610.471066414046
 23
730.4782901043459
 33
0.0
  0
SOLID
  5
C9F
330
C97
100
AcDbEntity
  8
0
 62
     0
440
 16777216
100
AcDbTrace
 10
1610.441066414046
 20
-181.4417098956542
 30
0.0
 11
1610.501066414046
 21
-181.4417098956542
 31
0.0
 12
1610.471066414046
 22
-181.6217098956542
 32
0.0
 13
1610.471066414046
 23
-181.6217098956542
 33
0.0
  0
MTEXT
  5
CA0
330
C97
100
AcDbEntity
  8
0
 62
     0
440
 16777216
100
AcDbMText
 10
1610.471066414046
 20
274.4282901043454
 30
0.0
 40
0.18
 41
0.0
 46
0.0
 71
     5
 72
     1
  1
\A1;912.1000
 73
     1
 44
1.0
  0
POINT
  5
CA1
330
C97
100
AcDbEntity
  8
Defpoints
 62
     0
440
 16777216
100
AcDbPoint
 10
2011.655991636295
 20
730.4782901043461
 30
0.0014780657201751
  0
POINT
  5
CA2
330
C97
100
AcDbEntity
  8
Defpoints
 62
     0
440
 16777216
100
AcDbPoint
 10
2011.655991636295
 20
-181.6217098956541
 30
0.0014780657201751
  0
POINT
  5
CA3
330
C97
100
AcDbEntity
  8
Defpoints
 62
     0
440
 16777216
100
AcDbPoint
 10
1610.471066414046
 20
-181.6217098956542
 30
0.0
  0
ENDBLK
  5
C99
330
C97
100
AcDbEntity
  8
0
100
AcDbBlockEnd
  0
BLOCK
  5
CB1
330
CB0
100
AcDbEntity
  8
0
100
AcDbBlockBegin
  2
*D2
 70
     1
 10
0.0
 20
0.0
 30
0.0
  3
*D2
  1

  0
LINE
  5
CB3
330
CB0
100
AcDbEntity
  8
0
 62
     0
440
 16777216
370
    -2
100
AcDbLine
 10
1446.946171777821
 20
1543.056673728005
 30
0.0
 11
1446.946171777821
 21
1081.492798434052
 31
0.0
  0
LINE
  5
CB4
330
CB0
100
AcDbEntity
  8
0
 62
     0
440
 16777216
370
    -2
100
AcDbLine
 10
534.8461717778214
 20
1543.056673728005
 30
0.0
 11
534.8461717778214
 21
1081.492798434052
 31
0.0
  0
LINE
  5
CB5
330
CB0
100
AcDbEntity
  8
0
 62
     0
440
 16777216
370
    -2
100
AcDbLine
 10
1446.766171777821
 20
1081.672798434052
 30
0.0
 11
991.5111717778215
 21
1081.672798434052
 31
0.0
  0
LINE
  5
CB6
330
CB0
100
AcDbEntity
  8
0
 62
     0
440
 16777216
370
    -2
100
AcDbLine
 10
535.0261717778213
 20
1081.672798434052
 30
0.0
 11
990.2811717778215
 21
1081.672798434052
 31
0.0
  0
SOLID
  5
CB7
330
CB0
100
AcDbEntity
  8
0
 62
     0
440
 16777216
100
AcDbTrace
 10
1446.766171777821
 20
1081.702798434052
 30
0.0
 11
1446.766171777821
 21
1081.642798434052
 31
0.0
 12
1446.946171777821
 22
1081.672798434052
 32
0.0
 13
1446.946171777821
 23
1081.672798434052
 33
0.0
  0
SOLID
  5
CB8
330
CB0
100
AcDbEntity
  8
0
 62
     0
440
 16777216
100
AcDbTrace
 10
535.0261717778213
 20
1081.702798434052
 30
0.0
 11
535.0261717778213
 21
1081.642798434052
 31
0.0
 12
534.8461717778214
 22
1081.672798434052
 32
0.0
 13
534.8461717778214
 23
1081.672798434052
 33
0.0
  0
MTEXT
  5
CB9
330
CB0
100
AcDbEntity
  8
0
 62
     0
440
 16777216
100
AcDbMText
 10
990.8961717778215
 20
1081.672798434052
 30
0.0
 40
0.18
 41
0.0
 46
0.0
 71
     5
 72
     1
  1
\A1;912.1000
 73
     1
 44
1.0
  0
POINT
  5
CBA
330
CB0
100
AcDbEntity
  8
Defpoints
 62
     0
440
 16777216
100
AcDbPoint
 10
1446.946171777821
 20
1543.119173728005
 30
0.0
  0
POINT
  5
CBB
330
CB0
100
AcDbEntity
  8
Defpoints
 62
     0
440
 16777216
100
AcDbPoint
 10
534.8461717778214
 20
1543.119173728005
 30
0.0
  0
POINT
  5
CBC
330
CB0
100
AcDbEntity
  8
Defpoints
 62
     0
440
 16777216
100
AcDbPoint
 10
534.8461717778214
 20
1081.672798434052
 30
0.0
  0
ENDBLK
  5
CB2
330
CB0
100
AcDbEntity
  8
0
100
AcDbBlockEnd
  0
BLOCK
  5
CBF
330
CBE
100
AcDbEntity
  8
0
100
AcDbBlockBegin
  2
*D3
 70
     1
 10
0.0
 20
0.0
 30
0.0
  3
*D3
  1

  0
LINE
  5
CC1
330
CBE
100
AcDbEntity
  8
0
 62
     0
440
 16777216
370
    -2
100
AcDbLine
 10
220.3999986980745
 20
1195.598847003024
 30
0.0
 11
456.6800190857644
 21
1195.598847003024
 31
0.0
  0
LINE
  5
CC2
330
CBE
100
AcDbEntity
  8
0
 62
     0
440
 16777216
370
    -2
100
AcDbLine
 10
220.3999986980745
 20
283.4988470030244
 30
0.0
 11
456.6800190857647
 21
283.4988470030245
 31
0.0
  0
LINE
  5
CC3
330
CBE
100
AcDbEntity
  8
0
 62
     0
440
 16777216
370
    -2
100
AcDbLine
 10
456.5000190857644
 20
1195.418847003024
 30
0.0
 11
456.5000190857646
 21
739.7288470030245
 31
0.0
  0
LINE
  5
CC4
330
CBE
100
AcDbEntity
  8
0
 62
     0
440
 16777216
370
    -2
100
AcDbLine
 10
456.5000190857647
 20
283.6788470030245
 30
0.0
 11
456.5000190857646
 21
739.3688470030245
 31
0.0
  0
SOLID
  5
CC5
330
CBE
100
AcDbEntity
  8
0
 62
     0
440
 16777216
100
AcDbTrace
 10
456.4700190857645
 20
1195.418847003024
 30
0.0
 11
456.5300190857644
 21
1195.418847003024
 31
0.0
 12
456.5000190857644
 22
1195.598847003024
 32
0.0
 13
456.5000190857644
 23
1195.598847003024
 33
0.0
  0
SOLID
  5
CC6
330
CBE
100
AcDbEntity
  8
0
 62
     0
440
 16777216
100
AcDbTrace
 10
456.4700190857648
 20
283.6788470030245
 30
0.0
 11
456.5300190857647
 21
283.6788470030245
 31
0.0
 12
456.5000190857647
 22
283.4988470030245
 32
0.0
 13
456.5000190857647
 23
283.4988470030245
 33
0.0
  0
MTEXT
  5
CC7
330
CBE
100
AcDbEntity
  8
0
 62
     0
440
 16777216
100
AcDbMText
 10
456.5000190857647
 20
739.5488470030243
 30
0.0
 40
0.18
 41
0.0
 46
0.0
 71
     5
 72
     1
  1
\A1;912.1000
 73
     1
 44
1.0
  0
POINT
  5
CC8
330
CBE
100
AcDbEntity
  8
Defpoints
 62
     0
440
 16777216
100
AcDbPoint
 10
220.3374986980744
 20
1195.598847003024
 30
0.0
  0
POINT
  5
CC9
330
CBE
100
AcDbEntity
  8
Defpoints
 62
     0
440
 16777216
100
AcDbPoint
 10
220.3374986980744
 20
283.4988470030244
 30
0.0
  0
POINT
  5
CCA
330
CBE
100
AcDbEntity
  8
Defpoints
 62
     0
440
 16777216
100
AcDbPoint
 10
456.5000190857647
 20
283.4988470030245
 30
0.0
  0
ENDBLK
  5
CC0
330
CBE
100
AcDbEntity
  8
0
100
AcDbBlockEnd
  0
ENDSEC
  0
SECTION
  2
ENTITIES
  0
LINE
  5
92E
330
1F
100
AcDbEntity
  8
HEWI
100
AcDbLine
 10
172.6374986980745
 20
1510.612383585244
 30
0.0
 11
172.8374986980743
 21
1510.812383585244
 31
0.0
  0
LINE
  5
92F
330
1F
100
AcDbEntity
  8
HEWI
100
AcDbLine
 10
178.6374986980745
 20
1509.112383585244
 30
0.0
 11
212.8380126980742
 21
1509.112383585244
 31
0.0
  0
LINE
  5
930
330
1F
100
AcDbEntity
  8
HEWI
100
AcDbLine
 10
227.8369826980743
 20
1509.112383585244
 30
0.0
 11
262.0374986980742
 21
1509.112383585244
 31
0.0
  0
LINE
  5
931
330
1F
100
AcDbEntity
  8
HEWI
100
AcDbLine
 10
172.8374986980743
 20
1552.412383585244
 30
0.0
 11
172.6374986980745
 21
1552.612383585244
 31
0.0
  0
LINE
  5
932
330
1F
100
AcDbEntity
  8
HEWI
100
AcDbLine
 10
170.0374986980741
 20
1552.612383585244
 30
0.0
 11
169.8374986980743
 21
1552.412383585244
 31
0.0
  0
LINE
  5
933
330
1F
100
AcDbEntity
  8
HEWI
100
AcDbLine
 10
169.8374986980743
 20
1510.812383585244
 30
0.0
 11
170.0374986980741
 21
1510.612383585244
 31
0.0
  0
LINE
  5
934
330
1F
100
AcDbEntity
  8
HEWI
100
AcDbLine
 10
172.6374986980745
 20
1552.612383585244
 30
0.0
 11
170.0374986980741
 21
1552.612383585244
 31
0.0
  0
LINE
  5
935
330
1F
100
AcDbEntity
  8
HEWI
100
AcDbLine
 10
170.0374986980741
 20
1510.612383585244
 30
0.0
 11
172.6374986980745
 21
1510.612383585244
 31
0.0
  0
LINE
  5
936
330
1F
100
AcDbEntity
  8
HEWI
100
AcDbLine
 10
270.6374986980745
 20
1510.612383585244
 30
0.0
 11
270.8374986980743
 21
1510.812383585244
 31
0.0
  0
LINE
  5
937
330
1F
100
AcDbEntity
  8
HEWI
100
AcDbLine
 10
270.8374986980743
 20
1552.412383585244
 30
0.0
 11
270.6374986980745
 21
1552.612383585244
 31
0.0
  0
LINE
  5
938
330
1F
100
AcDbEntity
  8
HEWI
100
AcDbLine
 10
268.0374986980742
 20
1552.612383585244
 30
0.0
 11
267.8374986980744
 21
1552.412383585244
 31
0.0
  0
LINE
  5
939
330
1F
100
AcDbEntity
  8
HEWI
100
AcDbLine
 10
267.8374986980744
 20
1510.812383585244
 30
0.0
 11
268.0374986980742
 21
1510.612383585244
 31
0.0
  0
LINE
  5
93A
330
1F
100
AcDbEntity
  8
HEWI
100
AcDbLine
 10
268.0374986980742
 20
1510.612383585244
 30
0.0
 11
270.6374986980745
 21
1510.612383585244
 31
0.0
  0
LINE
  5
93B
330
1F
100
AcDbEntity
  8
HEWI
100
AcDbLine
 10
270.6374986980745
 20
1552.612383585244
 30
0.0
 11
268.0374986980742
 21
1552.612383585244
 31
0.0
  0
LINE
  5
93C
330
1F
100
AcDbEntity
  8
HEWI
100
AcDbLine
 10
262.3374986980743
 20
1510.612383585244
 30
0.0
 11
262.8374986980743
 21
1511.112383585244
 31
0.0
  0
LINE
  5
93D
330
1F
100
AcDbEntity
  8
HEWI
100
AcDbLine
 10
262.8374986980743
 20
1552.112383585244
 30
0.0
 11
262.3374986980743
 21
1552.612383585244
 31
0.0
  0
LINE
  5
93E
330
1F
100
AcDbEntity
  8
HEWI
100
AcDbLine
 10
262.0374986980742
 20
1554.112383585244
 30
0.0
 11
178.6374986980745
 21
1554.112383585244
 31
0.0
  0
LINE
  5
93F
330
1F
100
AcDbEntity
  8
HEWI
100
AcDbLine
 10
178.3374986980743
 20
1552.612383585244
 30
0.0
 11
177.8374986980743
 21
1552.112383585244
 31
0.0
  0
LINE
  5
940
330
1F
100
AcDbEntity
  8
HEWI
100
AcDbLine
 10
177.8374986980743
 20
1511.112383585244
 30
0.0
 11
178.3374986980743
 21
1510.612383585244
 31
0.0
  0
LINE
  5
941
330
1F
100
AcDbEntity
  8
HEWI
100
AcDbLine
 10
216.3374986980743
 20
1515.306819585244
 30
0.0
 11
216.3374986980743
 21
1515.734659585244
 31
0.0
  0
LINE
  5
942
330
1F
100
AcDbEntity
  8
HEWI
100
AcDbLine
 10
224.3374986980744
 20
1515.306819585244
 30
0.0
 11
224.3374986980744
 21
1515.734777585244
 31
0.0
  0
LINE
  5
943
330
1F
100
AcDbEntity
  8
HEWI
100
AcDbLine
 10
216.3374986980743
 20
1515.306819585244
 30
0.0
 11
216.3374986980743
 21
1515.734659585244
 31
0.0
  0
LINE
  5
944
330
1F
100
AcDbEntity
  8
HEWI
100
AcDbLine
 10
224.3374986980744
 20
1515.306819585244
 30
0.0
 11
224.3374986980744
 21
1515.734777585244
 31
0.0
  0
LINE
  5
945
330
1F
100
AcDbEntity
  8
HEWI
100
AcDbLine
 10
172.6374986980745
 20
1531.612383585244
 30
0.0
 11
172.6374986980745
 21
1552.612383585244
 31
0.0
  0
LINE
  5
946
330
1F
100
AcDbEntity
  8
HEWI
100
AcDbLine
 10
172.6374986980745
 20
1510.612383585244
 30
0.0
 11
172.6374986980745
 21
1531.612383585244
 31
0.0
  0
LINE
  5
947
330
1F
100
AcDbEntity
  8
HEWI
100
AcDbLine
 10
170.0374986980741
 20
1510.612383585244
 30
0.0
 11
170.0374986980741
 21
1552.612383585244
 31
0.0
  0
LINE
  5
948
330
1F
100
AcDbEntity
  8
HEWI
100
AcDbLine
 10
169.8374986980743
 20
1552.412383585244
 30
0.0
 11
169.8374986980743
 21
1531.612383585244
 31
0.0
  0
LINE
  5
949
330
1F
100
AcDbEntity
  8
HEWI
100
AcDbLine
 10
169.8374986980743
 20
1531.612383585244
 30
0.0
 11
169.8374986980743
 21
1510.812383585244
 31
0.0
  0
LINE
  5
94A
330
1F
100
AcDbEntity
  8
HEWI
100
AcDbLine
 10
203.5032766980744
 20
1533.803273585244
 30
0.0
 11
203.6311146980743
 21
1533.803273585244
 31
0.0
  0
LINE
  5
94B
330
1F
100
AcDbEntity
  8
HEWI
100
AcDbLine
 10
237.0438806980742
 20
1533.803273585244
 30
0.0
 11
237.1572606980744
 21
1533.803273585244
 31
0.0
  0
LINE
  5
94C
330
1F
100
AcDbEntity
  8
HEWI
100
AcDbLine
 10
227.8374986980743
 20
1516.204187585244
 30
0.0
 11
227.8374986980743
 21
1443.846969585244
 31
0.0
  0
LINE
  5
94D
330
1F
100
AcDbEntity
  8
HEWI
100
AcDbLine
 10
225.8374986980744
 20
1444.713043585244
 30
0.0
 11
225.8374986980744
 21
1515.473843585244
 31
0.0
  0
LINE
  5
94E
330
1F
100
AcDbEntity
  8
HEWI
100
AcDbLine
 10
214.8374986980743
 20
1515.473843585244
 30
0.0
 11
214.8374986980743
 21
1444.713043585244
 31
0.0
  0
LINE
  5
94F
330
1F
100
AcDbEntity
  8
HEWI
100
AcDbLine
 10
212.8374986980743
 20
1443.846969585244
 30
0.0
 11
212.8374986980743
 21
1516.204187585244
 31
0.0
  0
LINE
  5
950
330
1F
100
AcDbEntity
  8
HEWI
100
AcDbLine
 10
225.7729806980742
 20
1515.663151585244
 30
0.0
 11
225.8374986980744
 21
1515.473843585244
 31
0.0
  0
LINE
  5
951
330
1F
100
AcDbEntity
  8
HEWI
100
AcDbLine
 10
214.9020146980742
 20
1515.663151585244
 30
0.0
 11
214.8374986980743
 21
1515.473843585244
 31
0.0
  0
LINE
  5
952
330
1F
100
AcDbEntity
  8
HEWI
100
AcDbLine
 10
178.0374986980741
 20
1381.112383585244
 30
0.0
 11
262.6374986980745
 21
1381.112383585244
 31
0.0
  0
LINE
  5
953
330
1F
100
AcDbEntity
  8
HEWI
100
AcDbLine
 10
178.0374986980741
 20
1584.112383585244
 30
0.0
 11
178.0374986980741
 21
1552.311165585244
 31
0.0
  0
LINE
  5
954
330
1F
100
AcDbEntity
  8
HEWI
100
AcDbLine
 10
178.0374986980741
 20
1510.911851585244
 30
0.0
 11
178.0374986980741
 21
1381.112383585244
 31
0.0
  0
LINE
  5
955
330
1F
100
AcDbEntity
  8
HEWI
100
AcDbLine
 10
262.6374986980745
 20
1584.112383585244
 30
0.0
 11
178.0374986980741
 21
1584.112383585244
 31
0.0
  0
LINE
  5
956
330
1F
100
AcDbEntity
  8
HEWI
100
AcDbLine
 10
262.6374986980745
 20
1584.112383585244
 30
0.0
 11
262.6374986980745
 21
1552.311165585244
 31
0.0
  0
LINE
  5
957
330
1F
100
AcDbEntity
  8
HEWI
100
AcDbLine
 10
262.6374986980745
 20
1510.911851585244
 30
0.0
 11
262.6374986980745
 21
1381.112383585244
 31
0.0
  0
LINE
  5
958
330
1F
100
AcDbEntity
  8
HEWI
100
AcDbLine
 10
178.0374986980741
 20
1587.612383585244
 30
0.0
 11
178.0374986980741
 21
1584.112383585244
 31
0.0
  0
LINE
  5
959
330
1F
100
AcDbEntity
  8
HEWI
100
AcDbLine
 10
178.0374986980741
 20
1587.612383585244
 30
0.0
 11
262.6374986980745
 21
1587.612383585244
 31
0.0
  0
LINE
  5
95A
330
1F
100
AcDbEntity
  8
HEWI
100
AcDbLine
 10
262.6374986980745
 20
1587.612383585244
 30
0.0
 11
262.6374986980745
 21
1584.112383585244
 31
0.0
  0
LINE
  5
95B
330
1F
100
AcDbEntity
  8
HEWI
100
AcDbLine
 10
262.6374986980745
 20
1377.612383585244
 30
0.0
 11
178.0374986980741
 21
1377.612383585244
 31
0.0
  0
LINE
  5
95C
330
1F
100
AcDbEntity
  8
HEWI
100
AcDbLine
 10
178.0374986980741
 20
1377.612383585244
 30
0.0
 11
178.0374986980741
 21
1381.112383585244
 31
0.0
  0
LINE
  5
95D
330
1F
100
AcDbEntity
  8
HEWI
100
AcDbLine
 10
262.6374986980745
 20
1377.612383585244
 30
0.0
 11
262.6374986980745
 21
1381.112383585244
 31
0.0
  0
LINE
  5
95E
330
1F
100
AcDbEntity
  8
HEWI
100
AcDbLine
 10
178.0374986980741
 20
1587.612383585244
 30
0.0
 11
177.8374606980742
 21
1587.612383585244
 31
0.0
  0
LINE
  5
95F
330
1F
100
AcDbEntity
  8
HEWI
100
AcDbLine
 10
178.0374986980741
 20
1586.112383585244
 30
0.0
 11
177.8374606980742
 21
1586.112383585244
 31
0.0
  0
LINE
  5
960
330
1F
100
AcDbEntity
  8
HEWI
100
AcDbLine
 10
262.6374986980745
 20
1587.612383585244
 30
0.0
 11
262.8375346980742
 21
1587.612383585244
 31
0.0
  0
LINE
  5
961
330
1F
100
AcDbEntity
  8
HEWI
100
AcDbLine
 10
262.6374986980745
 20
1586.112383585244
 30
0.0
 11
262.8375346980742
 21
1586.112383585244
 31
0.0
  0
LINE
  5
962
330
1F
100
AcDbEntity
  8
HEWI
100
AcDbLine
 10
270.6374986980745
 20
1531.612383585244
 30
0.0
 11
270.6374986980745
 21
1552.612383585244
 31
0.0
  0
LINE
  5
963
330
1F
100
AcDbEntity
  8
HEWI
100
AcDbLine
 10
270.6374986980745
 20
1510.612383585244
 30
0.0
 11
270.6374986980745
 21
1531.612383585244
 31
0.0
  0
LINE
  5
964
330
1F
100
AcDbEntity
  8
HEWI
100
AcDbLine
 10
270.8374986980743
 20
1552.412383585244
 30
0.0
 11
270.8374986980743
 21
1510.812383585244
 31
0.0
  0
LINE
  5
965
330
1F
100
AcDbEntity
  8
HEWI
100
AcDbLine
 10
268.0374986980742
 20
1510.612383585244
 30
0.0
 11
268.0374986980742
 21
1552.612383585244
 31
0.0
  0
LINE
  5
966
330
1F
100
AcDbEntity
  8
HEWI
100
AcDbLine
 10
178.6374986980745
 20
1509.112383585244
 30
0.0
 11
178.6374986980745
 21
1554.112383585244
 31
0.0
  0
LINE
  5
967
330
1F
100
AcDbEntity
  8
HEWI
100
AcDbLine
 10
262.0374986980742
 20
1554.112383585244
 30
0.0
 11
262.0374986980742
 21
1531.612383585244
 31
0.0
  0
LINE
  5
968
330
1F
100
AcDbEntity
  8
HEWI
100
AcDbLine
 10
262.0374986980742
 20
1531.612383585244
 30
0.0
 11
262.0374986980742
 21
1509.112383585244
 31
0.0
  0
LINE
  5
969
330
1F
100
AcDbEntity
  8
HEWI
100
AcDbLine
 10
262.3374986980743
 20
1553.812383585244
 30
0.0
 11
262.3374986980743
 21
1509.412383585244
 31
0.0
  0
LINE
  5
96A
330
1F
100
AcDbEntity
  8
HEWI
100
AcDbLine
 10
178.3374986980743
 20
1531.612383585244
 30
0.0
 11
178.3374986980743
 21
1553.812373585244
 31
0.0
  0
LINE
  5
96B
330
1F
100
AcDbEntity
  8
HEWI
100
AcDbLine
 10
178.3374986980743
 20
1509.412383585244
 30
0.0
 11
178.3374986980743
 21
1531.612383585244
 31
0.0
  0
LINE
  5
96C
330
1F
100
AcDbEntity
  8
HEWI
100
AcDbLine
 10
267.8374986980744
 20
1509.212383585244
 30
0.0
 11
262.8374986980743
 21
1509.212383585244
 31
0.0
  0
LINE
  5
96D
330
1F
100
AcDbEntity
  8
HEWI
100
AcDbLine
 10
262.8374986980743
 20
1554.012383585244
 30
0.0
 11
267.8374986980744
 21
1554.012383585244
 31
0.0
  0
LINE
  5
96E
330
1F
100
AcDbEntity
  8
HEWI
100
AcDbLine
 10
267.8374986980744
 20
1554.012383585244
 30
0.0
 11
267.8374986980744
 21
1509.212383585244
 31
0.0
  0
LINE
  5
96F
330
1F
100
AcDbEntity
  8
HEWI
100
AcDbLine
 10
262.8374986980743
 20
1509.212383585244
 30
0.0
 11
262.8374986980743
 21
1554.012383585244
 31
0.0
  0
LINE
  5
970
330
1F
100
AcDbEntity
  8
HEWI
100
AcDbLine
 10
177.8374986980743
 20
1509.212383585244
 30
0.0
 11
172.8374986980743
 21
1509.212383585244
 31
0.0
  0
LINE
  5
971
330
1F
100
AcDbEntity
  8
HEWI
100
AcDbLine
 10
172.8374986980743
 20
1554.012383585244
 30
0.0
 11
177.8374986980743
 21
1554.012383585244
 31
0.0
  0
LINE
  5
972
330
1F
100
AcDbEntity
  8
HEWI
100
AcDbLine
 10
172.8374986980743
 20
1509.212383585244
 30
0.0
 11
172.8374986980743
 21
1554.012383585244
 31
0.0
  0
LINE
  5
973
330
1F
100
AcDbEntity
  8
HEWI
100
AcDbLine
 10
177.8374986980743
 20
1554.012383585244
 30
0.0
 11
177.8374986980743
 21
1509.212383585244
 31
0.0
  0
LINE
  5
974
330
1F
100
AcDbEntity
  8
HEWI
100
AcDbLine
 10
177.8374986980743
 20
1505.712383585244
 30
0.0
 11
172.8374986980743
 21
1505.712383585244
 31
0.0
  0
LINE
  5
975
330
1F
100
AcDbEntity
  8
HEWI
100
AcDbLine
 10
172.8374986980743
 20
1505.712383585244
 30
0.0
 11
172.8374986980743
 21
1509.212383585244
 31
0.0
  0
LINE
  5
976
330
1F
100
AcDbEntity
  8
HEWI
100
AcDbLine
 10
177.8374986980743
 20
1509.212383585244
 30
0.0
 11
177.8374986980743
 21
1505.712383585244
 31
0.0
  0
LINE
  5
977
330
1F
100
AcDbEntity
  8
HEWI
100
AcDbLine
 10
267.8374986980744
 20
1505.712383585244
 30
0.0
 11
262.8374986980743
 21
1505.712383585244
 31
0.0
  0
LINE
  5
978
330
1F
100
AcDbEntity
  8
HEWI
100
AcDbLine
 10
267.8374986980744
 20
1509.212383585244
 30
0.0
 11
267.8374986980744
 21
1505.712383585244
 31
0.0
  0
LINE
  5
979
330
1F
100
AcDbEntity
  8
HEWI
100
AcDbLine
 10
262.8374986980743
 20
1505.712383585244
 30
0.0
 11
262.8374986980743
 21
1509.212383585244
 31
0.0
  0
LINE
  5
97A
330
1F
100
AcDbEntity
  8
HEWI
100
AcDbLine
 10
172.8374986980743
 20
1557.512383585244
 30
0.0
 11
177.8374986980743
 21
1557.512383585244
 31
0.0
  0
LINE
  5
97B
330
1F
100
AcDbEntity
  8
HEWI
100
AcDbLine
 10
172.8374986980743
 20
1554.012383585244
 30
0.0
 11
172.8374986980743
 21
1557.512383585244
 31
0.0
  0
LINE
  5
97C
330
1F
100
AcDbEntity
  8
HEWI
100
AcDbLine
 10
177.8374986980743
 20
1557.512383585244
 30
0.0
 11
177.8374986980743
 21
1554.012383585244
 31
0.0
  0
LINE
  5
97D
330
1F
100
AcDbEntity
  8
HEWI
100
AcDbLine
 10
262.8374986980743
 20
1557.512383585244
 30
0.0
 11
267.8374986980744
 21
1557.512383585244
 31
0.0
  0
LINE
  5
97E
330
1F
100
AcDbEntity
  8
HEWI
100
AcDbLine
 10
267.8374986980744
 20
1557.512383585244
 30
0.0
 11
267.8374986980744
 21
1554.012383585244
 31
0.0
  0
LINE
  5
97F
330
1F
100
AcDbEntity
  8
HEWI
100
AcDbLine
 10
262.8374986980743
 20
1554.012383585244
 30
0.0
 11
262.8374986980743
 21
1557.512383585244
 31
0.0
  0
LINE
  5
980
330
1F
100
AcDbEntity
  8
HEWI
100
AcDbLine
 10
172.8374986980743
 20
1381.112383585244
 30
0.0
 11
177.8374986980743
 21
1381.112383585244
 31
0.0
  0
LINE
  5
981
330
1F
100
AcDbEntity
  8
HEWI
100
AcDbLine
 10
172.8374986980743
 20
1505.712383585244
 30
0.0
 11
172.8374986980743
 21
1381.112383585244
 31
0.0
  0
LINE
  5
982
330
1F
100
AcDbEntity
  8
HEWI
100
AcDbLine
 10
177.8374986980743
 20
1505.712383585244
 30
0.0
 11
177.8374986980743
 21
1381.112383585244
 31
0.0
  0
LINE
  5
983
330
1F
100
AcDbEntity
  8
HEWI
100
AcDbLine
 10
262.8374986980743
 20
1381.112383585244
 30
0.0
 11
267.8374986980744
 21
1381.112383585244
 31
0.0
  0
LINE
  5
984
330
1F
100
AcDbEntity
  8
HEWI
100
AcDbLine
 10
267.8374986980744
 20
1377.612383585244
 30
0.0
 11
262.8374986980743
 21
1377.612383585244
 31
0.0
  0
LINE
  5
985
330
1F
100
AcDbEntity
  8
HEWI
100
AcDbLine
 10
267.8374986980744
 20
1381.112383585244
 30
0.0
 11
267.8374986980744
 21
1377.612383585244
 31
0.0
  0
LINE
  5
986
330
1F
100
AcDbEntity
  8
HEWI
100
AcDbLine
 10
262.8374986980743
 20
1377.612383585244
 30
0.0
 11
262.8374986980743
 21
1381.112383585244
 31
0.0
  0
LINE
  5
987
330
1F
100
AcDbEntity
  8
HEWI
100
AcDbLine
 10
177.8374986980743
 20
1377.612383585244
 30
0.0
 11
172.8374986980743
 21
1377.612383585244
 31
0.0
  0
LINE
  5
988
330
1F
100
AcDbEntity
  8
HEWI
100
AcDbLine
 10
172.8374986980743
 20
1377.612383585244
 30
0.0
 11
172.8374986980743
 21
1381.112383585244
 31
0.0
  0
LINE
  5
989
330
1F
100
AcDbEntity
  8
HEWI
100
AcDbLine
 10
177.8374986980743
 20
1381.112383585244
 30
0.0
 11
177.8374986980743
 21
1377.612383585244
 31
0.0
  0
LINE
  5
98A
330
1F
100
AcDbEntity
  8
HEWI
100
AcDbLine
 10
267.8374986980744
 20
1381.112383585244
 30
0.0
 11
267.8374986980744
 21
1505.712383585244
 31
0.0
  0
LINE
  5
98B
330
1F
100
AcDbEntity
  8
HEWI
100
AcDbLine
 10
262.8374986980743
 20
1381.112383585244
 30
0.0
 11
262.8374986980743
 21
1505.712383585244
 31
0.0
  0
LINE
  5
98C
330
1F
100
AcDbEntity
  8
HEWI
100
AcDbLine
 10
267.8374986980744
 20
1584.112383585244
 30
0.0
 11
262.8374986980743
 21
1584.112383585244
 31
0.0
  0
LINE
  5
98D
330
1F
100
AcDbEntity
  8
HEWI
100
AcDbLine
 10
267.8374986980744
 20
1557.512383585244
 30
0.0
 11
267.8374986980744
 21
1584.112383585244
 31
0.0
  0
LINE
  5
98E
330
1F
100
AcDbEntity
  8
HEWI
100
AcDbLine
 10
262.8374986980743
 20
1557.512383585244
 30
0.0
 11
262.8374986980743
 21
1584.112383585244
 31
0.0
  0
LINE
  5
98F
330
1F
100
AcDbEntity
  8
HEWI
100
AcDbLine
 10
177.8374986980743
 20
1584.112383585244
 30
0.0
 11
172.8374986980743
 21
1584.112383585244
 31
0.0
  0
LINE
  5
990
330
1F
100
AcDbEntity
  8
HEWI
100
AcDbLine
 10
172.8374986980743
 20
1584.112383585244
 30
0.0
 11
172.8374986980743
 21
1557.512383585244
 31
0.0
  0
LINE
  5
991
330
1F
100
AcDbEntity
  8
HEWI
100
AcDbLine
 10
177.8374986980743
 20
1584.112383585244
 30
0.0
 11
177.8374986980743
 21
1557.512383585244
 31
0.0
  0
LINE
  5
992
330
1F
100
AcDbEntity
  8
HEWI
100
AcDbLine
 10
262.8374986980743
 20
1587.612383585244
 30
0.0
 11
267.8374986980744
 21
1587.612383585244
 31
0.0
  0
LINE
  5
993
330
1F
100
AcDbEntity
  8
HEWI
100
AcDbLine
 10
267.8374986980744
 20
1587.612383585244
 30
0.0
 11
267.8374986980744
 21
1584.112383585244
 31
0.0
  0
LINE
  5
994
330
1F
100
AcDbEntity
  8
HEWI
100
AcDbLine
 10
262.8374986980743
 20
1584.112383585244
 30
0.0
 11
262.8374986980743
 21
1587.612383585244
 31
0.0
  0
LINE
  5
995
330
1F
100
AcDbEntity
  8
HEWI
100
AcDbLine
 10
172.8374986980743
 20
1587.612383585244
 30
0.0
 11
177.8374986980743
 21
1587.612383585244
 31
0.0
  0
LINE
  5
996
330
1F
100
AcDbEntity
  8
HEWI
100
AcDbLine
 10
172.8374986980743
 20
1584.112383585244
 30
0.0
 11
172.8374986980743
 21
1587.612383585244
 31
0.0
  0
LINE
  5
997
330
1F
100
AcDbEntity
  8
HEWI
100
AcDbLine
 10
177.8374986980743
 20
1587.612383585244
 30
0.0
 11
177.8374986980743
 21
1584.112383585244
 31
0.0
  0
LINE
  5
998
330
1F
100
AcDbEntity
  8
HEWI
100
AcDbLine
 10
262.8374986980743
 20
1377.612383585244
 30
0.0
 11
262.6374906980741
 21
1377.612383585244
 31
0.0
  0
LINE
  5
999
330
1F
100
AcDbEntity
  8
HEWI
100
AcDbLine
 10
178.0375046980744
 20
1377.612383585244
 30
0.0
 11
177.8374986980743
 21
1377.612383585244
 31
0.0
  0
LINE
  5
99A
330
1F
100
AcDbEntity
  8
HEWI
100
AcDbLine
 10
1444.146171777821
 20
1559.869173728005
 30
0.0
 11
1443.946171777821
 21
1559.669173728005
 31
0.0
  0
LINE
  5
99B
330
1F
100
AcDbEntity
  8
HEWI
100
AcDbLine
 10
1443.946171777821
 20
1526.569173728005
 30
0.0
 11
1444.146171777821
 21
1526.369173728005
 31
0.0
  0
LINE
  5
99C
330
1F
100
AcDbEntity
  8
HEWI
100
AcDbLine
 10
1444.146171777821
 20
1526.369173728005
 30
0.0
 11
1445.946171777822
 21
1526.369173728005
 31
0.0
  0
LINE
  5
99D
330
1F
100
AcDbEntity
  8
HEWI
100
AcDbLine
 10
1445.946171777822
 20
1559.869173728005
 30
0.0
 11
1444.146171777821
 21
1559.869173728005
 31
0.0
  0
LINE
  5
9A0
330
1F
100
AcDbEntity
  8
HEWI
100
AcDbLine
 10
1253.446171777822
 20
1527.910977728005
 30
0.0
 11
1217.446171777822
 21
1527.910977728005
 31
0.0
  0
LINE
  5
9A1
330
1F
100
AcDbEntity
  8
HEWI
100
AcDbLine
 10
1217.446171777822
 20
1450.961477728005
 30
0.0
 11
1253.446171777822
 21
1450.961477728005
 31
0.0
  0
LINE
  5
9A2
330
1F
100
AcDbEntity
  8
HEWI
100
AcDbLine
 10
564.7461717778214
 20
1454.319173728005
 30
0.0
 11
557.0461717778216
 21
1454.319173728005
 31
0.0
  0
LINE
  5
9A3
330
1F
100
AcDbEntity
  8
HEWI
100
AcDbLine
 10
557.0461717778216
 20
1427.319173728005
 30
0.0
 11
564.7461717778214
 21
1427.319173728005
 31
0.0
  0
LINE
  5
9A4
330
1F
100
AcDbEntity
  8
HEWI
100
AcDbLine
 10
557.0461717778216
 20
1454.319173728005
 30
0.0
 11
556.3461717778213
 21
1453.619173728005
 31
0.0
  0
LINE
  5
9A5
330
1F
100
AcDbEntity
  8
HEWI
100
AcDbLine
 10
556.3461717778213
 20
1428.019173728005
 30
0.0
 11
557.0461717778216
 21
1427.319173728005
 31
0.0
  0
LINE
  5
9A6
330
1F
100
AcDbEntity
  8
HEWI
100
AcDbLine
 10
564.7461717778214
 20
1427.319173728005
 30
0.0
 11
565.4461717778217
 21
1428.019173728005
 31
0.0
  0
LINE
  5
9A7
330
1F
100
AcDbEntity
  8
HEWI
100
AcDbLine
 10
565.4461717778217
 20
1453.619173728005
 30
0.0
 11
564.7461717778214
 21
1454.319173728005
 31
0.0
  0
LINE
  5
9A8
330
1F
100
AcDbEntity
  8
HEWI
100
AcDbLine
 10
555.8461717778214
 20
1428.819173728005
 30
0.0
 11
556.3461717778213
 21
1428.819173728005
 31
0.0
  0
LINE
  5
9A9
330
1F
100
AcDbEntity
  8
HEWI
100
AcDbLine
 10
556.3461717778213
 20
1452.819173728005
 30
0.0
 11
555.8461717778214
 21
1452.819173728005
 31
0.0
  0
LINE
  5
9AA
330
1F
100
AcDbEntity
  8
HEWI
100
AcDbLine
 10
1385.646171777821
 20
1457.169173728005
 30
0.0
 11
1385.446171777822
 21
1456.969173728005
 31
0.0
  0
LINE
  5
9AB
330
1F
100
AcDbEntity
  8
HEWI
100
AcDbLine
 10
1385.446171777822
 20
1424.569173728005
 30
0.0
 11
1385.646171777821
 21
1424.369173728005
 31
0.0
  0
LINE
  5
9AC
330
1F
100
AcDbEntity
  8
HEWI
100
AcDbLine
 10
1388.246171777821
 20
1424.369173728005
 30
0.0
 11
1388.446171777822
 21
1424.569173728005
 31
0.0
  0
LINE
  5
9AD
330
1F
100
AcDbEntity
  8
HEWI
100
AcDbLine
 10
1388.446171777822
 20
1456.969173728005
 30
0.0
 11
1388.246171777821
 21
1457.169173728005
 31
0.0
  0
LINE
  5
9AE
330
1F
100
AcDbEntity
  8
HEWI
100
AcDbLine
 10
1385.646171777821
 20
1424.369173728005
 30
0.0
 11
1388.246171777821
 21
1424.369173728005
 31
0.0
  0
LINE
  5
9AF
330
1F
100
AcDbEntity
  8
HEWI
100
AcDbLine
 10
1388.246171777821
 20
1457.169173728005
 30
0.0
 11
1385.646171777821
 21
1457.169173728005
 31
0.0
  0
LINE
  5
9B0
330
1F
100
AcDbEntity
  8
HEWI
100
AcDbLine
 10
1255.447665777822
 20
1526.269173728005
 30
0.0
 11
1443.946171777821
 21
1526.269173728005
 31
0.0
  0
LINE
  5
9B1
330
1F
100
AcDbEntity
  8
HEWI
100
AcDbLine
 10
736.4533657778215
 20
1526.269173728005
 30
0.0
 11
1215.446171777822
 21
1526.269173728005
 31
0.0
  0
LINE
  5
9B2
330
1F
100
AcDbEntity
  8
HEWI
100
AcDbLine
 10
602.8570737778213
 20
1526.269173728005
 30
0.0
 11
696.4454817778219
 21
1526.269173728005
 31
0.0
  0
LINE
  5
9B3
330
1F
100
AcDbEntity
  8
HEWI
100
AcDbLine
 10
1443.946171777821
 20
1559.969173728005
 30
0.0
 11
602.8691717778215
 21
1559.969173728005
 31
0.0
  0
LINE
  5
9B4
330
1F
100
AcDbEntity
  8
HEWI
100
AcDbLine
 10
698.4461717778217
 20
1450.961477728005
 30
0.0
 11
734.4461717778217
 21
1450.961477728005
 31
0.0
  0
LINE
  5
9B5
330
1F
100
AcDbEntity
  8
HEWI
100
AcDbLine
 10
734.4461717778217
 20
1527.910977728005
 30
0.0
 11
698.4461717778217
 21
1527.910977728005
 31
0.0
  0
LINE
  5
9B6
330
1F
100
AcDbEntity
  8
HEWI
100
AcDbLine
 10
566.4461717778217
 20
1453.169173728005
 30
0.0
 11
565.6461717778215
 21
1453.169173728005
 31
0.0
  0
LINE
  5
9B7
330
1F
100
AcDbEntity
  8
HEWI
100
AcDbLine
 10
565.6461717778215
 20
1428.369173728005
 30
0.0
 11
566.4461717778217
 21
1428.369173728005
 31
0.0
  0
LINE
  5
9B8
330
1F
100
AcDbEntity
  8
HEWI
100
AcDbLine
 10
565.6461717778215
 20
1453.169173728005
 30
0.0
 11
565.4461717778217
 21
1452.969173728005
 31
0.0
  0
LINE
  5
9B9
330
1F
100
AcDbEntity
  8
HEWI
100
AcDbLine
 10
565.4461717778217
 20
1428.569173728005
 30
0.0
 11
565.6461717778215
 21
1428.369173728005
 31
0.0
  0
LINE
  5
9BA
330
1F
100
AcDbEntity
  8
HEWI
100
AcDbLine
 10
1280.446171777821
 20
1428.269173728005
 30
0.0
 11
1385.446171777822
 21
1428.269173728005
 31
0.0
  0
LINE
  5
9BB
330
1F
100
AcDbEntity
  8
HEWI
100
AcDbLine
 10
1242.964213777821
 20
1428.269173728005
 30
0.0
 11
1280.446171777821
 21
1428.269173728005
 31
0.0
  0
LINE
  5
9BC
330
1F
100
AcDbEntity
  8
HEWI
100
AcDbLine
 10
723.9642137778214
 20
1428.269173728005
 30
0.0
 11
1227.896171777821
 21
1428.269173728005
 31
0.0
  0
LINE
  5
9BD
330
1F
100
AcDbEntity
  8
HEWI
100
AcDbLine
 10
566.4461717778217
 20
1428.269173728005
 30
0.0
 11
708.8961717778215
 21
1428.269173728005
 31
0.0
  0
LINE
  5
9BE
330
1F
100
AcDbEntity
  8
HEWI
100
AcDbLine
 10
696.4455277778211
 20
1453.269173728005
 30
0.0
 11
566.4461717778217
 21
1453.269173728005
 31
0.0
  0
LINE
  5
9BF
330
1F
100
AcDbEntity
  8
HEWI
100
AcDbLine
 10
1215.446171777822
 20
1453.269173728005
 30
0.0
 11
736.4517517778217
 21
1453.269173728005
 31
0.0
  0
LINE
  5
9C0
330
1F
100
AcDbEntity
  8
HEWI
100
AcDbLine
 10
1385.446171777822
 20
1453.269173728005
 30
0.0
 11
1255.447435777821
 21
1453.269173728005
 31
0.0
  0
LINE
  5
9C1
330
1F
100
AcDbEntity
  8
HEWI
100
AcDbLine
 10
1443.946171777821
 20
1543.119173728005
 30
0.0
 11
1443.946171777821
 21
1559.969173728005
 31
0.0
  0
LINE
  5
9C2
330
1F
100
AcDbEntity
  8
HEWI
100
AcDbLine
 10
1443.946171777821
 20
1526.269173728005
 30
0.0
 11
1443.946171777821
 21
1543.119173728005
 31
0.0
  0
LINE
  5
9C3
330
1F
100
AcDbEntity
  8
HEWI
100
AcDbLine
 10
734.4461717778217
 20
1450.961477728005
 30
0.0
 11
734.4461717778217
 21
1451.161477728005
 31
0.0
  0
LINE
  5
9C4
330
1F
100
AcDbEntity
  8
HEWI
100
AcDbLine
 10
734.4461717778217
 20
1527.910977728005
 30
0.0
 11
734.4461717778217
 21
1527.710977728005
 31
0.0
  0
LINE
  5
9C5
330
1F
100
AcDbEntity
  8
HEWI
100
AcDbLine
 10
736.4461717778217
 20
1526.980633728005
 30
0.0
 11
736.4461717778217
 21
1452.216443728005
 31
0.0
  0
LINE
  5
9C6
330
1F
100
AcDbEntity
  8
HEWI
100
AcDbLine
 10
734.4461717778217
 20
1451.161477728005
 30
0.0
 11
734.4461717778217
 21
1527.710977728005
 31
0.0
  0
LINE
  5
9C7
330
1F
100
AcDbEntity
  8
HEWI
100
AcDbLine
 10
698.4461717778217
 20
1451.161477728005
 30
0.0
 11
734.4461717778217
 21
1451.161477728005
 31
0.0
  0
LINE
  5
9C8
330
1F
100
AcDbEntity
  8
HEWI
100
AcDbLine
 10
734.4461717778217
 20
1527.710977728005
 30
0.0
 11
698.4461717778217
 21
1527.710977728005
 31
0.0
  0
LINE
  5
9C9
330
1F
100
AcDbEntity
  8
HEWI
100
AcDbLine
 10
696.4461717778217
 20
1452.216443728005
 30
0.0
 11
696.4461717778217
 21
1526.980633728005
 31
0.0
  0
LINE
  5
9CA
330
1F
100
AcDbEntity
  8
HEWI
100
AcDbLine
 10
698.4461717778217
 20
1527.710977728005
 30
0.0
 11
698.4461717778217
 21
1451.161477728005
 31
0.0
  0
LINE
  5
9CB
330
1F
100
AcDbEntity
  8
HEWI
100
AcDbLine
 10
698.4461717778217
 20
1450.961477728005
 30
0.0
 11
698.4461717778217
 21
1451.161477728005
 31
0.0
  0
LINE
  5
9CC
330
1F
100
AcDbEntity
  8
HEWI
100
AcDbLine
 10
698.4461717778217
 20
1527.910977728005
 30
0.0
 11
698.4461717778217
 21
1527.710977728005
 31
0.0
  0
LINE
  5
9CD
330
1F
100
AcDbEntity
  8
HEWI
100
AcDbLine
 10
1444.146171777821
 20
1526.369173728005
 30
0.0
 11
1444.146171777821
 21
1559.869173728005
 31
0.0
  0
LINE
  5
9CE
330
1F
100
AcDbEntity
  8
HEWI
100
AcDbLine
 10
1215.446171777822
 20
1452.440661728005
 30
0.0
 11
1215.446171777822
 21
1451.940661728005
 31
0.0
  0
LINE
  5
9CF
330
1F
100
AcDbEntity
  8
HEWI
100
AcDbLine
 10
1215.446171777822
 20
1527.498617728005
 30
0.0
 11
1215.446171777822
 21
1526.998617728005
 31
0.0
  0
LINE
  5
9D0
330
1F
100
AcDbEntity
  8
HEWI
100
AcDbLine
 10
1215.446171777822
 20
1526.998617728005
 30
0.0
 11
1215.446171777822
 21
1452.440661728005
 31
0.0
  0
LINE
  5
9DA
330
1F
100
AcDbEntity
  8
HEWI
100
AcDbLine
 10
1253.446171777822
 20
1450.961477728005
 30
0.0
 11
1253.446171777822
 21
1451.161477728005
 31
0.0
  0
LINE
  5
9DB
330
1F
100
AcDbEntity
  8
HEWI
100
AcDbLine
 10
1217.446171777822
 20
1451.161477728005
 30
0.0
 11
1253.446171777822
 21
1451.161477728005
 31
0.0
  0
LINE
  5
9DC
330
1F
100
AcDbEntity
  8
HEWI
100
AcDbLine
 10
1253.446171777822
 20
1527.710977728005
 30
0.0
 11
1217.446171777822
 21
1527.710977728005
 31
0.0
  0
LINE
  5
9DD
330
1F
100
AcDbEntity
  8
HEWI
100
AcDbLine
 10
1217.446171777822
 20
1450.961477728005
 30
0.0
 11
1217.446171777822
 21
1451.161477728005
 31
0.0
  0
LINE
  5
9DE
330
1F
100
AcDbEntity
  8
HEWI
100
AcDbLine
 10
1217.446171777822
 20
1527.710977728005
 30
0.0
 11
1217.446171777822
 21
1451.161477728005
 31
0.0
  0
LINE
  5
9DF
330
1F
100
AcDbEntity
  8
HEWI
100
AcDbLine
 10
1217.446171777822
 20
1527.910977728005
 30
0.0
 11
1217.446171777822
 21
1527.710977728005
 31
0.0
  0
LINE
  5
9E0
330
1F
100
AcDbEntity
  8
HEWI
100
AcDbLine
 10
565.4461717778217
 20
1453.619173728005
 30
0.0
 11
565.4461717778217
 21
1428.019173728005
 31
0.0
  0
LINE
  5
9E1
330
1F
100
AcDbEntity
  8
HEWI
100
AcDbLine
 10
564.7461717778214
 20
1440.819173728005
 30
0.0
 11
564.7461717778214
 21
1454.319173728005
 31
0.0
  0
LINE
  5
9E2
330
1F
100
AcDbEntity
  8
HEWI
100
AcDbLine
 10
564.7461717778214
 20
1427.319173728005
 30
0.0
 11
564.7461717778214
 21
1440.819173728005
 31
0.0
  0
LINE
  5
9E3
330
1F
100
AcDbEntity
  8
HEWI
100
AcDbLine
 10
557.0461717778216
 20
1427.319173728005
 30
0.0
 11
557.0461717778216
 21
1454.319173728005
 31
0.0
  0
LINE
  5
9E4
330
1F
100
AcDbEntity
  8
HEWI
100
AcDbLine
 10
556.3461717778213
 20
1453.619173728005
 30
0.0
 11
556.3461717778213
 21
1440.819173728005
 31
0.0
  0
LINE
  5
9E5
330
1F
100
AcDbEntity
  8
HEWI
100
AcDbLine
 10
556.3461717778213
 20
1440.819173728005
 30
0.0
 11
556.3461717778213
 21
1428.019173728005
 31
0.0
  0
LINE
  5
9E6
330
1F
100
AcDbEntity
  8
HEWI
100
AcDbLine
 10
555.8461717778214
 20
1428.819173728005
 30
0.0
 11
555.8461717778214
 21
1452.819173728005
 31
0.0
  0
LINE
  5
9E7
330
1F
100
AcDbEntity
  8
HEWI
100
AcDbLine
 10
547.8461957778213
 20
1599.119173728005
 30
0.0
 11
547.6461717778215
 21
1599.119173728005
 31
0.0
  0
LINE
  5
9E8
330
1F
100
AcDbEntity
  8
HEWI
100
AcDbLine
 10
547.6461717778215
 20
1599.119173728005
 30
0.0
 11
547.6461717778215
 21
1597.619173728005
 31
0.0
  0
LINE
  5
9E9
330
1F
100
AcDbEntity
  8
HEWI
100
AcDbLine
 10
545.0461717778217
 20
1599.119173728005
 30
0.0
 11
547.6461717778215
 21
1599.119173728005
 31
0.0
  0
LINE
  5
9EA
330
1F
100
AcDbEntity
  8
HEWI
100
AcDbLine
 10
545.0461717778217
 20
1597.619173728005
 30
0.0
 11
547.6461717778215
 21
1597.619173728005
 31
0.0
  0
LINE
  5
9EB
330
1F
100
AcDbEntity
  8
HEWI
100
AcDbLine
 10
535.0461717778216
 20
1597.619173728005
 30
0.0
 11
535.0461717778216
 21
1599.119173728005
 31
0.0
  0
LINE
  5
9EC
330
1F
100
AcDbEntity
  8
HEWI
100
AcDbLine
 10
545.0461717778217
 20
1599.119173728005
 30
0.0
 11
545.0461717778217
 21
1597.619173728005
 31
0.0
  0
LINE
  5
9ED
330
1F
100
AcDbEntity
  8
HEWI
100
AcDbLine
 10
535.0461717778216
 20
1599.119173728005
 30
0.0
 11
545.0461717778217
 21
1599.119173728005
 31
0.0
  0
LINE
  5
9EE
330
1F
100
AcDbEntity
  8
HEWI
100
AcDbLine
 10
545.0461717778217
 20
1597.619173728005
 30
0.0
 11
544.8461537778216
 21
1597.619173728005
 31
0.0
  0
LINE
  5
9EF
330
1F
100
AcDbEntity
  8
HEWI
100
AcDbLine
 10
1385.646171777821
 20
1424.369173728005
 30
0.0
 11
1385.646171777821
 21
1457.169173728005
 31
0.0
  0
LINE
  5
9F0
330
1F
100
AcDbEntity
  8
HEWI
100
AcDbLine
 10
1385.446171777822
 20
1456.969173728005
 30
0.0
 11
1385.446171777822
 21
1440.769173728005
 31
0.0
  0
LINE
  5
9F1
330
1F
100
AcDbEntity
  8
HEWI
100
AcDbLine
 10
1385.446171777822
 20
1440.769173728005
 30
0.0
 11
1385.446171777822
 21
1424.569173728005
 31
0.0
  0
LINE
  5
9FA
330
1F
100
AcDbEntity
  8
HEWI
100
AcDbLine
 10
720.954457777822
 20
1429.819173728005
 30
0.0
 11
711.9687817778217
 21
1429.819173728005
 31
0.0
  0
LINE
  5
9FB
330
1F
100
AcDbEntity
  8
HEWI
100
AcDbLine
 10
722.1461717778216
 20
1429.019173728005
 30
0.0
 11
710.746171777821
 21
1429.019173728005
 31
0.0
  0
LINE
  5
A04
330
1F
100
AcDbEntity
  8
HEWI
100
AcDbLine
 10
565.6461717778215
 20
1453.169173728005
 30
0.0
 11
565.6461717778215
 21
1428.369173728005
 31
0.0
  0
LINE
  5
A05
330
1F
100
AcDbEntity
  8
HEWI
100
AcDbLine
 10
558.8461717778214
 20
1565.519173728005
 30
0.0
 11
587.9461717778217
 21
1565.519173728005
 31
0.0
  0
LINE
  5
A06
330
1F
100
AcDbEntity
  8
HEWI
100
AcDbLine
 10
558.8461717778214
 20
1520.719173728005
 30
0.0
 11
587.9461717778217
 21
1520.719173728005
 31
0.0
  0
LINE
  5
A07
330
1F
100
AcDbEntity
  8
HEWI
100
AcDbLine
 10
544.8461717778213
 20
1389.119173728005
 30
0.0
 11
551.8461717778214
 21
1389.119173728005
 31
0.0
  0
LINE
  5
A08
330
1F
100
AcDbEntity
  8
HEWI
100
AcDbLine
 10
547.8461717778214
 20
1599.119173728005
 30
0.0
 11
551.8461717778214
 21
1599.119173728005
 31
0.0
  0
LINE
  5
A09
330
1F
100
AcDbEntity
  8
HEWI
100
AcDbLine
 10
547.8461717778214
 20
1597.619173728005
 30
0.0
 11
547.8461717778214
 21
1599.119173728005
 31
0.0
  0
LINE
  5
A0A
330
1F
100
AcDbEntity
  8
HEWI
100
AcDbLine
 10
544.8461717778213
 20
1597.619173728005
 30
0.0
 11
547.8461717778214
 21
1597.619173728005
 31
0.0
  0
LINE
  5
A0B
330
1F
100
AcDbEntity
  8
HEWI
100
AcDbLine
 10
534.8461717778214
 20
1389.119173728005
 30
0.0
 11
534.8461717778214
 21
1597.619173728005
 31
0.0
  0
LINE
  5
A0C
330
1F
100
AcDbEntity
  8
HEWI
100
AcDbLine
 10
534.8461717778214
 20
1597.619173728005
 30
0.0
 11
544.8461717778213
 21
1597.619173728005
 31
0.0
  0
LINE
  5
A0D
330
1F
100
AcDbEntity
  8
HEWI
100
AcDbLine
 10
534.8461717778214
 20
1389.119173728005
 30
0.0
 11
544.8461717778213
 21
1389.119173728005
 31
0.0
  0
LINE
  5
A0E
330
1F
100
AcDbEntity
  8
HEWI
100
AcDbLine
 10
544.8461717778213
 20
1597.619173728005
 30
0.0
 11
544.8461717778213
 21
1389.119173728005
 31
0.0
  0
LINE
  5
A12
330
1F
100
AcDbEntity
  8
HEWI
100
AcDbLine
 10
1227.896169777822
 20
1428.269171728005
 30
0.0
 11
1227.896169777822
 21
1428.269171728005
 31
0.0
  0
LINE
  5
A13
330
1F
100
AcDbEntity
  8
HEWI
100
AcDbLine
 10
708.8961697778217
 20
1428.269171728005
 30
0.0
 11
708.8961697778217
 21
1428.269171728005
 31
0.0
  0
LINE
  5
A14
330
1F
100
AcDbEntity
  8
HEWI
100
AcDbLine
 10
566.4461717778217
 20
1428.269173728005
 30
0.0
 11
566.4461717778217
 21
1453.269173728005
 31
0.0
  0
LINE
  5
A15
330
1F
100
AcDbEntity
  8
HEWI
100
AcDbLine
 10
1239.921709777821
 20
1429.819173728005
 30
0.0
 11
1230.922279777822
 21
1429.819173728005
 31
0.0
  0
LINE
  5
A16
330
1F
100
AcDbEntity
  8
HEWI
100
AcDbLine
 10
1241.146171777822
 20
1429.019173728005
 30
0.0
 11
1229.746171777821
 21
1429.019173728005
 31
0.0
  0
LINE
  5
A1E
330
1F
100
AcDbEntity
  8
HEWI
100
AcDbLine
 10
1446.946171777821
 20
1558.869173728005
 30
0.0
 11
1446.946171777821
 21
1527.369173728005
 31
0.0
  0
LINE
  5
A1F
330
1F
100
AcDbEntity
  8
HEWI
100
AcDbLine
 10
1445.946171777822
 20
1543.119173728005
 30
0.0
 11
1445.946171777822
 21
1559.869173728005
 31
0.0
  0
LINE
  5
A20
330
1F
100
AcDbEntity
  8
HEWI
100
AcDbLine
 10
1445.946171777822
 20
1526.369173728005
 30
0.0
 11
1445.946171777822
 21
1543.119173728005
 31
0.0
  0
LINE
  5
A21
330
1F
100
AcDbEntity
  8
HEWI
100
AcDbLine
 10
1255.446171777822
 20
1526.980633728005
 30
0.0
 11
1255.446171777822
 21
1452.216443728005
 31
0.0
  0
LINE
  5
A22
330
1F
100
AcDbEntity
  8
HEWI
100
AcDbLine
 10
1253.446171777822
 20
1451.161477728005
 30
0.0
 11
1253.446171777822
 21
1527.710977728005
 31
0.0
  0
LINE
  5
A23
330
1F
100
AcDbEntity
  8
HEWI
100
AcDbLine
 10
1253.446171777822
 20
1527.910977728005
 30
0.0
 11
1253.446171777822
 21
1527.710977728005
 31
0.0
  0
LINE
  5
A24
330
1F
100
AcDbEntity
  8
HEWI
100
AcDbLine
 10
1388.446171777822
 20
1456.969173728005
 30
0.0
 11
1388.446171777822
 21
1440.769173728005
 31
0.0
  0
LINE
  5
A25
330
1F
100
AcDbEntity
  8
HEWI
100
AcDbLine
 10
1388.446171777822
 20
1440.769173728005
 30
0.0
 11
1388.446171777822
 21
1424.569173728005
 31
0.0
  0
LINE
  5
A26
330
1F
100
AcDbEntity
  8
HEWI
100
AcDbLine
 10
1388.246171777821
 20
1440.769173728005
 30
0.0
 11
1388.246171777821
 21
1457.169173728005
 31
0.0
  0
LINE
  5
A27
330
1F
100
AcDbEntity
  8
HEWI
100
AcDbLine
 10
1388.246171777821
 20
1424.369173728005
 30
0.0
 11
1388.246171777821
 21
1440.769173728005
 31
0.0
  0
LINE
  5
A28
330
1F
100
AcDbEntity
  8
HEWI
100
AcDbLine
 10
555.3461717778214
 20
1517.219173728005
 30
0.0
 11
555.3461717778214
 21
1392.619173728005
 31
0.0
  0
LINE
  5
A29
330
1F
100
AcDbEntity
  8
HEWI
100
AcDbLine
 10
555.3461717778214
 20
1595.619173728005
 30
0.0
 11
555.3461717778214
 21
1569.019173728005
 31
0.0
  0
LINE
  5
A2A
330
1F
100
AcDbEntity
  8
HEWI
100
AcDbLine
 10
267.8374986980746
 20
1121.698847003024
 30
0.0
 11
268.0374986980744
 21
1121.498847003024
 31
0.0
  0
LINE
  5
A2B
330
1F
100
AcDbEntity
  8
HEWI
100
AcDbLine
 10
270.6374986980743
 20
1163.498847003024
 30
0.0
 11
268.0374986980744
 21
1163.498847003024
 31
0.0
  0
LINE
  5
A2C
330
1F
100
AcDbEntity
  8
HEWI
100
AcDbLine
 10
262.0374986980744
 20
1164.998847003024
 30
0.0
 11
178.6374986980743
 21
1164.998847003024
 31
0.0
  0
LINE
  5
A2D
330
1F
100
AcDbEntity
  8
HEWI
100
AcDbLine
 10
268.0374986980744
 20
1121.498847003024
 30
0.0
 11
270.6374986980743
 21
1121.498847003024
 31
0.0
  0
LINE
  5
A2E
330
1F
100
AcDbEntity
  8
HEWI
100
AcDbLine
 10
270.8374986980746
 20
1163.298847003024
 30
0.0
 11
270.6374986980743
 21
1163.498847003024
 31
0.0
  0
LINE
  5
A2F
330
1F
100
AcDbEntity
  8
HEWI
100
AcDbLine
 10
262.3374986980746
 20
1121.498847003024
 30
0.0
 11
262.8374986980746
 21
1121.998847003024
 31
0.0
  0
LINE
  5
A30
330
1F
100
AcDbEntity
  8
HEWI
100
AcDbLine
 10
237.1874986980745
 20
286.4988470030243
 30
0.0
 11
237.1874986980745
 21
1119.980447003024
 31
0.0
  0
LINE
  5
A31
330
1F
100
AcDbEntity
  8
HEWI
100
AcDbLine
 10
262.8374986980746
 20
1162.998847003024
 30
0.0
 11
262.3374986980746
 21
1163.498847003024
 31
0.0
  0
LINE
  5
A32
330
1F
100
AcDbEntity
  8
HEWI
100
AcDbLine
 10
203.4874986980742
 20
1120.099637003024
 30
0.0
 11
203.4874986980742
 21
286.4988470030243
 31
0.0
  0
LINE
  5
A33
330
1F
100
AcDbEntity
  8
HEWI
100
AcDbLine
 10
270.6374986980743
 20
1121.498847003024
 30
0.0
 11
270.8374986980746
 21
1121.698847003024
 31
0.0
  0
LINE
  5
A34
330
1F
100
AcDbEntity
  8
HEWI
100
AcDbLine
 10
237.2866826980742
 20
1119.998847003024
 30
0.0
 11
262.0374986980744
 21
1119.998847003024
 31
0.0
  0
LINE
  5
A35
330
1F
100
AcDbEntity
  8
HEWI
100
AcDbLine
 10
172.8374986980741
 20
1120.098847003024
 30
0.0
 11
177.8374986980741
 21
1120.098847003024
 31
0.0
  0
LINE
  5
A36
330
1F
100
AcDbEntity
  8
HEWI
100
AcDbLine
 10
177.8374986980741
 20
1121.998847003024
 30
0.0
 11
178.3374986980741
 21
1121.498847003024
 31
0.0
  0
LINE
  5
A37
330
1F
100
AcDbEntity
  8
HEWI
100
AcDbLine
 10
262.8374986980746
 20
1120.098847003024
 30
0.0
 11
267.8374986980746
 21
1120.098847003024
 31
0.0
  0
LINE
  5
A38
330
1F
100
AcDbEntity
  8
HEWI
100
AcDbLine
 10
178.3374986980741
 20
1163.498847003024
 30
0.0
 11
177.8374986980741
 21
1162.998847003024
 31
0.0
  0
LINE
  5
A39
330
1F
100
AcDbEntity
  8
HEWI
100
AcDbLine
 10
178.6374986980743
 20
1119.998847003024
 30
0.0
 11
203.3374986980746
 21
1119.998847003024
 31
0.0
  0
LINE
  5
A3A
330
1F
100
AcDbEntity
  8
HEWI
100
AcDbLine
 10
170.0374986980744
 20
1121.498847003024
 30
0.0
 11
172.6374986980743
 21
1121.498847003024
 31
0.0
  0
LINE
  5
A3B
330
1F
100
AcDbEntity
  8
HEWI
100
AcDbLine
 10
172.6374986980743
 20
1163.498847003024
 30
0.0
 11
170.0374986980744
 21
1163.498847003024
 31
0.0
  0
LINE
  5
A3C
330
1F
100
AcDbEntity
  8
HEWI
100
AcDbLine
 10
237.0874986980746
 20
284.4988470030243
 30
0.0
 11
237.0874986980746
 21
286.2988470030243
 31
0.0
  0
LINE
  5
A3D
330
1F
100
AcDbEntity
  8
HEWI
100
AcDbLine
 10
203.5874986980746
 20
286.2988470030243
 30
0.0
 11
203.5874986980746
 21
284.4988470030243
 31
0.0
  0
LINE
  5
A3E
330
1F
100
AcDbEntity
  8
HEWI
100
AcDbLine
 10
203.7874986980744
 20
286.4988470030243
 30
0.0
 11
203.5874986980746
 21
286.2988470030243
 31
0.0
  0
LINE
  5
A3F
330
1F
100
AcDbEntity
  8
HEWI
100
AcDbLine
 10
237.0874986980746
 20
286.2988470030243
 30
0.0
 11
236.8874986980743
 21
286.4988470030243
 31
0.0
  0
LINE
  5
A40
330
1F
100
AcDbEntity
  8
HEWI
100
AcDbLine
 10
172.6374986980743
 20
1121.498847003024
 30
0.0
 11
172.8374986980741
 21
1121.698847003024
 31
0.0
  0
LINE
  5
A41
330
1F
100
AcDbEntity
  8
HEWI
100
AcDbLine
 10
172.8374986980741
 20
1163.298847003024
 30
0.0
 11
172.6374986980743
 21
1163.498847003024
 31
0.0
  0
LINE
  5
A42
330
1F
100
AcDbEntity
  8
HEWI
100
AcDbLine
 10
170.0374986980744
 20
1163.498847003024
 30
0.0
 11
169.8374986980741
 21
1163.298847003024
 31
0.0
  0
LINE
  5
A43
330
1F
100
AcDbEntity
  8
HEWI
100
AcDbLine
 10
169.8374986980741
 20
1121.698847003024
 30
0.0
 11
170.0374986980744
 21
1121.498847003024
 31
0.0
  0
LINE
  5
A44
330
1F
100
AcDbEntity
  8
HEWI
100
AcDbLine
 10
233.8374986980745
 20
1173.398847003024
 30
0.0
 11
233.1374986980743
 21
1174.098847003024
 31
0.0
  0
LINE
  5
A45
330
1F
100
AcDbEntity
  8
HEWI
100
AcDbLine
 10
207.5374986980744
 20
1174.098847003024
 30
0.0
 11
206.8374986980745
 21
1173.398847003024
 31
0.0
  0
LINE
  5
A46
330
1F
100
AcDbEntity
  8
HEWI
100
AcDbLine
 10
233.8374986980745
 20
1165.698847003024
 30
0.0
 11
233.8374986980745
 21
1173.398847003024
 31
0.0
  0
LINE
  5
A47
330
1F
100
AcDbEntity
  8
HEWI
100
AcDbLine
 10
206.8374986980745
 20
1173.398847003024
 30
0.0
 11
206.8374986980745
 21
1165.698847003024
 31
0.0
  0
LINE
  5
A48
330
1F
100
AcDbEntity
  8
HEWI
100
AcDbLine
 10
206.8374986980745
 20
1165.698847003024
 30
0.0
 11
207.5374986980744
 21
1164.998847003024
 31
0.0
  0
LINE
  5
A49
330
1F
100
AcDbEntity
  8
HEWI
100
AcDbLine
 10
233.1374986980743
 20
1164.998847003024
 30
0.0
 11
233.8374986980745
 21
1165.698847003024
 31
0.0
  0
LINE
  5
A4A
330
1F
100
AcDbEntity
  8
HEWI
100
AcDbLine
 10
208.3374986980746
 20
1174.598847003024
 30
0.0
 11
208.3374986980746
 21
1174.098847003024
 31
0.0
  0
LINE
  5
A4B
330
1F
100
AcDbEntity
  8
HEWI
100
AcDbLine
 10
232.3374986980746
 20
1174.098847003024
 30
0.0
 11
232.3374986980746
 21
1174.598847003024
 31
0.0
  0
LINE
  5
A4C
330
1F
100
AcDbEntity
  8
HEWI
100
AcDbLine
 10
268.0374986980744
 20
1163.498847003024
 30
0.0
 11
267.8374986980746
 21
1163.298847003024
 31
0.0
  0
LINE
  5
A4D
330
1F
100
AcDbEntity
  8
HEWI
100
AcDbLine
 10
237.1874986980745
 20
286.4988470030243
 30
0.0
 11
203.4874986980742
 21
286.4988470030243
 31
0.0
  0
LINE
  5
A4E
330
1F
100
AcDbEntity
  8
HEWI
100
AcDbLine
 10
237.0874986980746
 20
286.2988470030243
 30
0.0
 11
203.5874986980746
 21
286.2988470030243
 31
0.0
  0
LINE
  5
A4F
330
1F
100
AcDbEntity
  8
HEWI
100
AcDbLine
 10
233.8374986980745
 20
1165.698847003024
 30
0.0
 11
206.8374986980745
 21
1165.698847003024
 31
0.0
  0
LINE
  5
A50
330
1F
100
AcDbEntity
  8
HEWI
100
AcDbLine
 10
206.8374986980745
 20
1173.398847003024
 30
0.0
 11
233.8374986980745
 21
1173.398847003024
 31
0.0
  0
LINE
  5
A51
330
1F
100
AcDbEntity
  8
HEWI
100
AcDbLine
 10
207.5374986980744
 20
1174.098847003024
 30
0.0
 11
233.1374986980743
 21
1174.098847003024
 31
0.0
  0
LINE
  5
A52
330
1F
100
AcDbEntity
  8
HEWI
100
AcDbLine
 10
208.3374986980746
 20
1174.598847003024
 30
0.0
 11
232.3374986980746
 21
1174.598847003024
 31
0.0
  0
LINE
  5
A53
330
1F
100
AcDbEntity
  8
HEWI
100
AcDbLine
 10
178.0374986980744
 20
1178.598847003024
 30
0.0
 11
178.0374986980744
 21
1182.798847003024
 31
0.0
  0
LINE
  5
A54
330
1F
100
AcDbEntity
  8
HEWI
100
AcDbLine
 10
262.6374986980743
 20
1182.798847003024
 30
0.0
 11
262.6374986980743
 21
1178.598847003024
 31
0.0
  0
LINE
  5
A55
330
1F
100
AcDbEntity
  8
HEWI
100
AcDbLine
 10
172.8374986980741
 20
1185.398847003024
 30
0.0
 11
172.8374986980741
 21
1182.798847003024
 31
0.0
  0
LINE
  5
A56
330
1F
100
AcDbEntity
  8
HEWI
100
AcDbLine
 10
267.8374986980746
 20
1182.798847003024
 30
0.0
 11
267.8374986980746
 21
1185.398847003024
 31
0.0
  0
LINE
  5
A57
330
1F
100
AcDbEntity
  8
HEWI
100
AcDbLine
 10
182.8374986980741
 20
1195.398847003024
 30
0.0
 11
257.8374986980746
 21
1195.398847003024
 31
0.0
  0
LINE
  5
A58
330
1F
100
AcDbEntity
  8
HEWI
100
AcDbLine
 10
172.8374986980741
 20
1171.598847003024
 30
0.0
 11
172.8374986980741
 21
1142.498847003024
 31
0.0
  0
LINE
  5
A59
330
1F
100
AcDbEntity
  8
HEWI
100
AcDbLine
 10
177.8374986980741
 20
1171.598847003024
 30
0.0
 11
177.8374986980741
 21
1142.498847003024
 31
0.0
  0
LINE
  5
A5A
330
1F
100
AcDbEntity
  8
HEWI
100
AcDbLine
 10
267.8374986980746
 20
1142.498847003024
 30
0.0
 11
267.8374986980746
 21
1171.598847003024
 31
0.0
  0
LINE
  5
A5B
330
1F
100
AcDbEntity
  8
HEWI
100
AcDbLine
 10
262.8374986980746
 20
1142.498847003024
 30
0.0
 11
262.8374986980746
 21
1171.598847003024
 31
0.0
  0
LINE
  5
A5C
330
1F
100
AcDbEntity
  8
HEWI
100
AcDbLine
 10
177.8374986980741
 20
1171.598847003024
 30
0.0
 11
172.8374986980741
 21
1171.598847003024
 31
0.0
  0
LINE
  5
A5D
330
1F
100
AcDbEntity
  8
HEWI
100
AcDbLine
 10
267.8374986980746
 20
1171.598847003024
 30
0.0
 11
262.8374986980746
 21
1171.598847003024
 31
0.0
  0
LINE
  5
A5E
330
1F
100
AcDbEntity
  8
HEWI
100
AcDbLine
 10
267.8374986980746
 20
1182.598847003024
 30
0.0
 11
267.8374986980746
 21
1178.598847003024
 31
0.0
  0
LINE
  5
A5F
330
1F
100
AcDbEntity
  8
HEWI
100
AcDbLine
 10
262.8374986980746
 20
1182.598847003024
 30
0.0
 11
262.8374986980746
 21
1178.598847003024
 31
0.0
  0
LINE
  5
A60
330
1F
100
AcDbEntity
  8
HEWI
100
AcDbLine
 10
172.8374986980741
 20
1182.598847003024
 30
0.0
 11
172.8374986980741
 21
1178.598847003024
 31
0.0
  0
LINE
  5
A61
330
1F
100
AcDbEntity
  8
HEWI
100
AcDbLine
 10
177.8374986980741
 20
1182.598847003024
 30
0.0
 11
177.8374986980741
 21
1178.598847003024
 31
0.0
  0
LINE
  5
A62
330
1F
100
AcDbEntity
  8
HEWI
100
AcDbLine
 10
177.8374986980741
 20
1182.598847003024
 30
0.0
 11
172.8374986980741
 21
1182.598847003024
 31
0.0
  0
LINE
  5
A63
330
1F
100
AcDbEntity
  8
HEWI
100
AcDbLine
 10
267.8374986980746
 20
1182.598847003024
 30
0.0
 11
262.8374986980746
 21
1182.598847003024
 31
0.0
  0
LINE
  5
A64
330
1F
100
AcDbEntity
  8
HEWI
100
AcDbLine
 10
267.8374986980746
 20
1182.598847003024
 30
0.0
 11
267.8374986980746
 21
1182.798863003024
 31
0.0
  0
LINE
  5
A65
330
1F
100
AcDbEntity
  8
HEWI
100
AcDbLine
 10
172.8374986980741
 20
1182.798863003024
 30
0.0
 11
172.8374986980741
 21
1182.598847003024
 31
0.0
  0
LINE
  5
A66
330
1F
100
AcDbEntity
  8
HEWI
100
AcDbLine
 10
262.8374986980746
 20
1182.598847003024
 30
0.0
 11
262.8374986980746
 21
1182.798863003024
 31
0.0
  0
LINE
  5
A67
330
1F
100
AcDbEntity
  8
HEWI
100
AcDbLine
 10
177.8374986980741
 20
1182.798863003024
 30
0.0
 11
177.8374986980741
 21
1182.598847003024
 31
0.0
  0
LINE
  5
A68
330
1F
100
AcDbEntity
  8
HEWI
100
AcDbLine
 10
257.8374986980746
 20
1195.598847003024
 30
0.0
 11
182.8374986980741
 21
1195.598847003024
 31
0.0
  0
LINE
  5
A69
330
1F
100
AcDbEntity
  8
HEWI
100
AcDbLine
 10
204.5874986980745
 20
283.4988470030243
 30
0.0
 11
236.0874986980746
 21
283.4988470030243
 31
0.0
  0
LINE
  5
A6A
330
1F
100
AcDbEntity
  8
HEWI
100
AcDbLine
 10
237.0874986980746
 20
284.4988470030243
 30
0.0
 11
203.5874986980746
 21
284.4988470030243
 31
0.0
  0
LINE
  5
A6B
330
1F
100
AcDbEntity
  8
HEWI
100
AcDbLine
 10
172.6374986980743
 20
1163.498847003024
 30
0.0
 11
172.6374986980743
 21
1121.498847003024
 31
0.0
  0
LINE
  5
A6C
330
1F
100
AcDbEntity
  8
HEWI
100
AcDbLine
 10
170.0374986980744
 20
1121.498847003024
 30
0.0
 11
170.0374986980744
 21
1163.498847003024
 31
0.0
  0
LINE
  5
A6D
330
1F
100
AcDbEntity
  8
HEWI
100
AcDbLine
 10
169.8374986980741
 20
1121.698847003024
 30
0.0
 11
169.8374986980741
 21
1163.298847003024
 31
0.0
  0
LINE
  5
A6E
330
1F
100
AcDbEntity
  8
HEWI
100
AcDbLine
 10
262.6374986980743
 20
1175.098847003024
 30
0.0
 11
178.0374986980744
 21
1175.098847003024
 31
0.0
  0
LINE
  5
A6F
330
1F
100
AcDbEntity
  8
HEWI
100
AcDbLine
 10
178.0374986980744
 20
1175.098847003024
 30
0.0
 11
178.0374986980744
 21
1178.598847003024
 31
0.0
  0
LINE
  5
A70
330
1F
100
AcDbEntity
  8
HEWI
100
AcDbLine
 10
178.0374986980744
 20
1178.598847003024
 30
0.0
 11
262.6374986980743
 21
1178.598847003024
 31
0.0
  0
LINE
  5
A71
330
1F
100
AcDbEntity
  8
HEWI
100
AcDbLine
 10
262.6374986980743
 20
1178.598847003024
 30
0.0
 11
262.6374986980743
 21
1175.098847003024
 31
0.0
  0
LINE
  5
A72
330
1F
100
AcDbEntity
  8
HEWI
100
AcDbLine
 10
178.0374986980744
 20
1182.798847003024
 30
0.0
 11
172.8374986980741
 21
1182.798847003024
 31
0.0
  0
LINE
  5
A73
330
1F
100
AcDbEntity
  8
HEWI
100
AcDbLine
 10
262.6374986980743
 20
1182.798847003024
 30
0.0
 11
267.8374986980746
 21
1182.798847003024
 31
0.0
  0
LINE
  5
A74
330
1F
100
AcDbEntity
  8
HEWI
100
AcDbLine
 10
270.6374986980743
 20
1163.498847003024
 30
0.0
 11
270.6374986980743
 21
1121.498847003024
 31
0.0
  0
LINE
  5
A75
330
1F
100
AcDbEntity
  8
HEWI
100
AcDbLine
 10
270.8374986980746
 20
1163.298847003024
 30
0.0
 11
270.8374986980746
 21
1121.698847003024
 31
0.0
  0
LINE
  5
A76
330
1F
100
AcDbEntity
  8
HEWI
100
AcDbLine
 10
268.0374986980744
 20
1121.498847003024
 30
0.0
 11
268.0374986980744
 21
1163.498847003024
 31
0.0
  0
LINE
  5
A77
330
1F
100
AcDbEntity
  8
HEWI
100
AcDbLine
 10
178.6374986980743
 20
1164.998847003024
 30
0.0
 11
178.6374986980743
 21
1119.998847003024
 31
0.0
  0
LINE
  5
A78
330
1F
100
AcDbEntity
  8
HEWI
100
AcDbLine
 10
262.0374986980744
 20
1164.998847003024
 30
0.0
 11
262.0374986980744
 21
1119.998847003024
 31
0.0
  0
LINE
  5
A79
330
1F
100
AcDbEntity
  8
HEWI
100
AcDbLine
 10
262.3374986980746
 20
1120.298847003024
 30
0.0
 11
262.3374986980746
 21
1164.698847003024
 31
0.0
  0
LINE
  5
A7A
330
1F
100
AcDbEntity
  8
HEWI
100
AcDbLine
 10
178.3374986980741
 20
1120.298847003024
 30
0.0
 11
178.3374986980741
 21
1164.698847003024
 31
0.0
  0
LINE
  5
A7B
330
1F
100
AcDbEntity
  8
HEWI
100
AcDbLine
 10
262.8374986980746
 20
1142.498847003024
 30
0.0
 11
267.8374986980746
 21
1142.498847003024
 31
0.0
  0
LINE
  5
A7C
330
1F
100
AcDbEntity
  8
HEWI
100
AcDbLine
 10
267.8374986980746
 20
1120.098847003024
 30
0.0
 11
267.8374986980746
 21
1142.498847003024
 31
0.0
  0
LINE
  5
A7D
330
1F
100
AcDbEntity
  8
HEWI
100
AcDbLine
 10
262.8374986980746
 20
1120.098847003024
 30
0.0
 11
262.8374986980746
 21
1142.498847003024
 31
0.0
  0
LINE
  5
A7E
330
1F
100
AcDbEntity
  8
HEWI
100
AcDbLine
 10
172.8374986980741
 20
1142.498847003024
 30
0.0
 11
177.8374986980741
 21
1142.498847003024
 31
0.0
  0
LINE
  5
A7F
330
1F
100
AcDbEntity
  8
HEWI
100
AcDbLine
 10
172.8374986980741
 20
1142.498847003024
 30
0.0
 11
172.8374986980741
 21
1120.098847003024
 31
0.0
  0
LINE
  5
A80
330
1F
100
AcDbEntity
  8
HEWI
100
AcDbLine
 10
177.8374986980741
 20
1142.498847003024
 30
0.0
 11
177.8374986980741
 21
1120.098847003024
 31
0.0
  0
LINE
  5
A81
330
1F
100
AcDbEntity
  8
HEWI
100
AcDbLine
 10
172.8374986980741
 20
1175.098847003024
 30
0.0
 11
172.8374986980741
 21
1171.598847003024
 31
0.0
  0
LINE
  5
A82
330
1F
100
AcDbEntity
  8
HEWI
100
AcDbLine
 10
177.8374986980741
 20
1175.098847003024
 30
0.0
 11
177.8374986980741
 21
1171.598847003024
 31
0.0
  0
LINE
  5
A83
330
1F
100
AcDbEntity
  8
HEWI
100
AcDbLine
 10
267.8374986980746
 20
1175.098847003024
 30
0.0
 11
267.8374986980746
 21
1171.598847003024
 31
0.0
  0
LINE
  5
A84
330
1F
100
AcDbEntity
  8
HEWI
100
AcDbLine
 10
262.8374986980746
 20
1171.598847003024
 30
0.0
 11
262.8374986980746
 21
1175.098847003024
 31
0.0
  0
LINE
  5
A85
330
1F
100
AcDbEntity
  8
HEWI
100
AcDbLine
 10
267.8374986980746
 20
1175.098847003024
 30
0.0
 11
262.8374986980746
 21
1175.098847003024
 31
0.0
  0
LINE
  5
A86
330
1F
100
AcDbEntity
  8
HEWI
100
AcDbLine
 10
177.8374986980741
 20
1175.098847003024
 30
0.0
 11
172.8374986980741
 21
1175.098847003024
 31
0.0
  0
LINE
  5
A87
330
1F
100
AcDbEntity
  8
HEWI
100
AcDbLine
 10
262.8374986980746
 20
1178.598847003024
 30
0.0
 11
267.8374986980746
 21
1178.598847003024
 31
0.0
  0
LINE
  5
A88
330
1F
100
AcDbEntity
  8
HEWI
100
AcDbLine
 10
267.8374986980746
 20
1175.098847003024
 30
0.0
 11
267.8374986980746
 21
1178.598847003024
 31
0.0
  0
LINE
  5
A89
330
1F
100
AcDbEntity
  8
HEWI
100
AcDbLine
 10
262.8374986980746
 20
1175.098847003024
 30
0.0
 11
262.8374986980746
 21
1178.598847003024
 31
0.0
  0
LINE
  5
A8A
330
1F
100
AcDbEntity
  8
HEWI
100
AcDbLine
 10
172.8374986980741
 20
1178.598847003024
 30
0.0
 11
177.8374986980741
 21
1178.598847003024
 31
0.0
  0
LINE
  5
A8B
330
1F
100
AcDbEntity
  8
HEWI
100
AcDbLine
 10
172.8374986980741
 20
1175.098847003024
 30
0.0
 11
172.8374986980741
 21
1178.598847003024
 31
0.0
  0
LINE
  5
A8C
330
1F
100
AcDbEntity
  8
HEWI
100
AcDbLine
 10
177.8374986980741
 20
1178.598847003024
 30
0.0
 11
177.8374986980741
 21
1175.098847003024
 31
0.0
  0
LINE
  5
A8D
330
1F
100
AcDbEntity
  8
HEWI
100
AcDbLine
 10
1784.358093207717
 20
1522.3800810772
 30
0.0014780657201751
 11
2376.571845207718
 21
1180.4653130772
 31
0.0014780657201751
  0
LINE
  5
A8E
330
1F
100
AcDbEntity
  8
HEWI
100
AcDbLine
 10
2376.763265207717
 20
1180.470265077199
 30
0.0014780657201751
 11
2378.036057207718
 21
1179.7354190772
 31
0.0014780657201751
  0
LINE
  5
A8F
330
1F
100
AcDbEntity
  8
HEWI
100
AcDbLine
 10
2394.786057207718
 20
1208.7472690772
 30
0.0014780657201751
 11
2393.513265207717
 21
1209.4821170772
 31
0.0014780657201751
  0
LINE
  5
A90
330
1F
100
AcDbEntity
  8
HEWI
100
AcDbLine
 10
2385.138265207717
 20
1208.6525090772
 30
0.0014780657201751
 11
2384.996845207718
 21
1208.570859077199
 31
0.0014780657201751
  0
LINE
  5
A91
330
1F
100
AcDbEntity
  8
HEWI
100
AcDbLine
 10
2373.294227207718
 20
1188.3013310772
 30
0.0014780657201751
 11
2373.294227207718
 21
1188.1380330772
 31
0.0014780657201751
  0
LINE
  5
A93
330
1F
100
AcDbEntity
  8
HEWI
100
AcDbLine
 10
1729.296727207717
 20
1532.5567030772
 30
0.0014780657201751
 11
1729.296727207717
 21
1532.3934030772
 31
0.0014780657201751
  0
LINE
  5
A94
330
1F
100
AcDbEntity
  8
HEWI
100
AcDbLine
 10
1744.004547207718
 20
1506.9187090772
 30
0.0014780657201751
 11
1744.145969207718
 21
1506.8370610772
 31
0.0014780657201751
  0
LINE
  5
A95
330
1F
100
AcDbEntity
  8
HEWI
100
AcDbLine
 10
1735.484447207717
 20
1543.2314670772
 30
0.0014780657201751
 11
1733.645969207717
 21
1542.1700210772
 31
0.0014780657201751
  0
LINE
  5
A96
330
1F
100
AcDbEntity
  8
HEWI
100
AcDbLine
 10
1754.645969207718
 20
1505.7969550772
 30
0.0014780657201751
 11
1756.484447207717
 21
1506.8584010772
 31
0.0014780657201751
  0
LINE
  5
A97
330
1F
100
AcDbEntity
  8
HEWI
100
AcDbLine
 10
1760.833689207717
 20
1516.4717190772
 30
0.0014780657201751
 11
1760.833689207717
 21
1516.6350190772
 31
0.0014780657201751
  0
LINE
  5
A98
330
1F
100
AcDbEntity
  8
HEWI
100
AcDbLine
 10
1746.125867207717
 20
1542.1097130772
 30
0.0014780657201751
 11
1745.984447207717
 21
1542.1913630772
 31
0.0014780657201751
  0
LINE
  5
A99
330
1F
100
AcDbEntity
  8
HEWI
100
AcDbLine
 10
2256.182089207718
 20
1200.2814210772
 30
0.0014780657201751
 11
2256.182089207718
 21
1249.9721810772
 31
0.0014780657201751
  0
LINE
  5
A9A
330
1F
100
AcDbEntity
  8
HEWI
100
AcDbLine
 10
2218.948071207718
 20
1271.4686150772
 30
0.0014780657201751
 11
2218.948071207718
 21
1210.4876270772
 31
0.0014780657201751
  0
LINE
  5
A9B
330
1F
100
AcDbEntity
  8
HEWI
100
AcDbLine
 10
2219.575279207719
 20
1209.2895170772
 30
0.0014780657201751
 11
2245.031123207718
 21
1194.5925790772
 31
0.0014780657201751
  0
LINE
  5
A9C
330
1F
100
AcDbEntity
  8
HEWI
100
AcDbLine
 10
1770.058563207718
 20
1482.1534810772
 30
0.0014780657201751
 11
1764.613841207718
 21
1485.2969930772
 31
0.0014780657201751
  0
LINE
  5
A9D
330
1F
100
AcDbEntity
  8
HEWI
100
AcDbLine
 10
1751.113841207718
 20
1461.9143070772
 30
0.0014780657201751
 11
1756.558563207718
 21
1458.7707950772
 31
0.0014780657201751
  0
LINE
  5
A9E
330
1F
100
AcDbEntity
  8
HEWI
100
AcDbLine
 10
1757.863841207718
 20
1484.6283530772
 30
0.0014780657201751
 11
1757.368865207718
 21
1484.3425790772
 31
0.0014780657201751
  0
LINE
  5
A9F
330
1F
100
AcDbEntity
  8
HEWI
100
AcDbLine
 10
1748.317899207717
 20
1468.6658450772
 30
0.0014780657201751
 11
1748.317899207717
 21
1468.0942970772
 31
0.0014780657201751
  0
LINE
  5
AA2
330
1F
100
AcDbEntity
  8
HEWI
100
AcDbLine
 10
1712.862055207718
 20
1592.4467270772
 30
0.0014780657201751
 11
1712.862055207718
 21
1591.2219810772
 31
0.0014780657201751
  0
LINE
  5
AA3
330
1F
100
AcDbEntity
  8
HEWI
100
AcDbLine
 10
1726.026269207717
 20
1416.0734130772
 30
0.0014780657201751
 11
1779.233517207717
 21
1446.7926330772
 31
0.0014780657201751
  0
LINE
  5
AA4
330
1F
100
AcDbEntity
  8
HEWI
100
AcDbLine
 10
1830.130153207718
 20
1556.4800530772
 30
0.0014780657201751
 11
1830.130153207718
 21
1556.6433510772
 31
0.0014780657201751
  0
LINE
  5
AA5
330
1F
100
AcDbEntity
  8
HEWI
100
AcDbLine
 10
1815.422333207718
 20
1582.1180450772
 30
0.0014780657201751
 11
1815.280911207717
 21
1582.1996950772
 31
0.0014780657201751
  0
LINE
  5
AA6
330
1F
100
AcDbEntity
  8
HEWI
100
AcDbLine
 10
2345.610997207717
 20
1120.8383010772
 30
0.0014780657201751
 11
2345.752419207718
 21
1120.9199510772
 31
0.0014780657201751
  0
LINE
  5
AA7
330
1F
100
AcDbEntity
  8
HEWI
100
AcDbLine
 10
2357.207547207718
 20
1140.7608190772
 30
0.0014780657201751
 11
2357.207547207718
 21
1140.924117077199
 31
0.0014780657201751
  0
LINE
  5
AA8
330
1F
100
AcDbEntity
  8
HEWI
100
AcDbLine
 10
2335.572519207718
 20
1121.087475077199
 30
0.0014780657201751
 11
2337.410997207717
 21
1120.0260290772
 31
0.0014780657201751
  0
LINE
  5
AA9
330
1F
100
AcDbEntity
  8
HEWI
100
AcDbLine
 10
2353.810997207718
 20
1148.4316630772
 30
0.0014780657201751
 11
2351.972519207718
 21
1149.4931070772
 31
0.0014780657201751
  0
LINE
  5
AAA
330
1F
100
AcDbEntity
  8
HEWI
100
AcDbLine
 10
2343.772519207718
 20
1148.680835077199
 30
0.0014780657201751
 11
2343.631097207717
 21
1148.599185077199
 31
0.0014780657201751
  0
LINE
  5
AAB
330
1F
100
AcDbEntity
  8
HEWI
100
AcDbLine
 10
2332.175967207718
 20
1128.758319077199
 30
0.0014780657201751
 11
2332.175967207718
 21
1128.5950190772
 31
0.0014780657201751
  0
LINE
  5
AAF
330
1F
100
AcDbEntity
  8
HEWI
100
AcDbLine
 10
2393.421845207718
 20
1209.6503690772
 30
0.0014780657201751
 11
1801.600383207718
 21
1551.3386490772
 31
0.0014780657201751
  0
LINE
  5
AB0
330
1F
100
AcDbEntity
  8
HEWI
100
AcDbLine
 10
1797.949793207718
 20
1581.0279030772
 30
0.0014780657201751
 11
1743.001053207717
 21
1549.3032330772
 31
0.0014780657201751
  0
LINE
  5
AB1
330
1F
100
AcDbEntity
  8
HEWI
100
AcDbLine
 10
1819.063095207718
 20
1541.2561490772
 30
0.0014780657201751
 11
1820.449793207717
 21
1542.0567590772
 31
0.0014780657201751
  0
LINE
  5
AB2
330
1F
100
AcDbEntity
  8
HEWI
100
AcDbLine
 10
1761.477087207718
 20
1508.0088530772
 30
0.0014780657201751
 11
1785.363155207718
 21
1521.799479077199
 31
0.0014780657201751
  0
LINE
  5
AB4
330
1F
100
AcDbEntity
  8
HEWI
100
AcDbLine
 10
1889.193671207718
 20
1412.1622830772
 30
0.0014780657201751
 11
1889.193671207718
 21
1461.8530430772
 31
0.0014780657201751
  0
LINE
  5
AB5
330
1F
100
AcDbEntity
  8
HEWI
100
AcDbLine
 10
1851.959651207718
 20
1483.3494770772
 30
0.0014780657201751
 11
1851.959651207718
 21
1422.3684910772
 31
0.0014780657201751
  0
LINE
  5
AB6
330
1F
100
AcDbEntity
  8
HEWI
100
AcDbLine
 10
1852.586859207718
 20
1421.1703810772
 30
0.0014780657201751
 11
1878.042703207718
 21
1406.4734410772
 31
0.0014780657201751
  0
LINE
  5
AB8
330
1F
100
AcDbEntity
  8
HEWI
100
AcDbLine
 10
1763.944959207718
 20
1480.1784470772
 30
0.0014780657201751
 11
1763.803537207717
 21
1480.0967970772
 31
0.0014780657201751
  0
LINE
  5
AB9
330
1F
100
AcDbEntity
  8
HEWI
100
AcDbLine
 10
1755.176835207718
 20
1465.1549090772
 30
0.0014780657201751
 11
1755.176835207718
 21
1464.9916110772
 31
0.0014780657201751
  0
LINE
  5
ABA
330
1F
100
AcDbEntity
  8
HEWI
100
AcDbLine
 10
1757.325867207717
 20
1505.7276150772
 30
0.0014780657201751
 11
1760.861401207718
 21
1507.7688570772
 31
0.0014780657201751
  0
LINE
  5
ABB
330
1F
100
AcDbEntity
  8
HEWI
100
AcDbLine
 10
1712.720633207717
 20
1591.3036310772
 30
0.0014780657201751
 11
1712.720633207717
 21
1421.0640950772
 31
0.0014780657201751
  0
LINE
  5
ABC
330
1F
100
AcDbEntity
  8
HEWI
100
AcDbLine
 10
1821.459293207718
 20
1542.7550650772
 30
0.0014780657201751
 11
1824.501011207718
 21
1544.5112030772
 31
0.0014780657201751
  0
LINE
  5
ABD
330
1F
100
AcDbEntity
  8
HEWI
100
AcDbLine
 10
1722.349313207718
 20
1413.9505230772
 30
0.0014780657201751
 11
1725.884847207718
 21
1415.9917650772
 31
0.0014780657201751
  0
LINE
  5
ABF
330
1F
100
AcDbEntity
  8
HEWI
100
AcDbLine
 10
1758.260643207718
 20
1458.9019730772
 30
0.0014780657201751
 11
2332.214257207717
 21
1127.5296990772
 31
0.0014780657201751
  0
LINE
  5
AC0
330
1F
100
AcDbEntity
  8
HEWI
100
AcDbLine
 10
2344.714257207717
 20
1149.1803350772
 30
0.0014780657201751
 11
2256.181219207718
 21
1200.2949090772
 31
0.0014780657201751
  0
LINE
  5
AC1
330
1F
100
AcDbEntity
  8
HEWI
100
AcDbLine
 10
2218.948071207717
 20
1221.791478011059
 30
0.0014780657201751
 11
1889.199825207717
 21
1412.1717150772
 31
0.0014780657201751
  0
LINE
  5
AC2
330
1F
100
AcDbEntity
  8
HEWI
100
AcDbLine
 10
1851.964191207718
 20
1433.6697190772
 30
0.0014780657201751
 11
1770.760643207718
 21
1480.5526090772
 31
0.0014780657201751
  0
LINE
  5
AC8
330
1F
100
AcDbEntity
  8
HEWI
100
AcDbLine
 10
1888.607883207717
 20
1411.9171030772
 30
0.0014780657201751
 11
1888.607883207717
 21
1462.1912330772
 31
0.0014780657201751
  0
LINE
  5
AC9
330
1F
100
AcDbEntity
  8
HEWI
100
AcDbLine
 10
1880.829709207717
 20
1466.6817050772
 30
0.0014780657201751
 11
1880.829709207717
 21
1407.4263730772
 31
0.0014780657201751
  0
LINE
  5
ACA
330
1F
100
AcDbEntity
  8
HEWI
100
AcDbLine
 10
1878.001283207717
 20
1406.5649970772
 30
0.0014780657201751
 11
1878.001283207717
 21
1468.3144430772
 31
0.0014780657201751
  0
LINE
  5
ACB
330
1F
100
AcDbEntity
  8
HEWI
100
AcDbLine
 10
1852.545439207717
 20
1421.2619350772
 30
0.0014780657201751
 11
1878.001283207717
 21
1406.5649970772
 31
0.0014780657201751
  0
LINE
  5
ACC
330
1F
100
AcDbEntity
  8
HEWI
100
AcDbLine
 10
1852.545439207717
 20
1483.0113810772
 30
0.0014780657201751
 11
1852.545439207717
 21
1421.2619350772
 31
0.0014780657201751
  0
LINE
  5
AD8
330
1F
100
AcDbEntity
  8
HEWI
100
AcDbLine
 10
2219.533857207718
 20
1209.3810730772
 30
0.0014780657201751
 11
2244.989701207718
 21
1194.684135077199
 31
0.0014780657201751
  0
LINE
  5
AD9
330
1F
100
AcDbEntity
  8
HEWI
100
AcDbLine
 10
2219.533857207718
 20
1271.1305190772
 30
0.0014780657201751
 11
2219.533857207718
 21
1209.3810730772
 31
0.0014780657201751
  0
LINE
  5
ADD
330
1F
100
AcDbEntity
  8
HEWI
100
AcDbLine
 10
1724.276269207717
 20
1587.7110470772
 30
0.0014780657201751
 11
1721.306419207717
 21
1589.4256890772
 31
0.0014780657201751
  0
LINE
  5
ADE
330
1F
100
AcDbEntity
  8
HEWI
100
AcDbLine
 10
1781.127653207718
 20
1623.963495077199
 30
0.0014780657201751
 11
1784.097501207718
 21
1622.2488510772
 31
0.0014780657201751
  0
LINE
  5
ADF
330
1F
100
AcDbEntity
  8
HEWI
100
AcDbLine
 10
1717.629465207718
 20
1587.3027990772
 30
0.0014780657201751
 11
1717.629465207718
 21
1586.0780530772
 31
0.0014780657201751
  0
LINE
  5
AE0
330
1F
100
AcDbEntity
  8
HEWI
100
AcDbLine
 10
1721.306419207717
 20
1589.4256890772
 30
0.0014780657201751
 11
1721.306419207717
 21
1589.2623770772
 31
0.0014780657201751
  0
LINE
  5
AE1
330
1F
100
AcDbEntity
  8
HEWI
100
AcDbLine
 10
1784.804609207717
 20
1626.0863850772
 30
0.0014780657201751
 11
1784.804609207717
 21
1625.923073077199
 31
0.0014780657201751
  0
LINE
  5
AE2
330
1F
100
AcDbEntity
  8
HEWI
100
AcDbLine
 10
1715.790987207718
 20
1588.3642430772
 30
0.0014780657201751
 11
1717.629465207718
 21
1587.3027990772
 31
0.0014780657201751
  0
LINE
  5
AE3
330
1F
100
AcDbEntity
  8
HEWI
100
AcDbLine
 10
1715.790987207718
 20
1587.1394990772
 30
0.0014780657201751
 11
1717.629465207718
 21
1586.0780530772
 31
0.0014780657201751
  0
LINE
  5
AE4
330
1F
100
AcDbEntity
  8
HEWI
100
AcDbLine
 10
1784.804609207717
 20
1626.0863850772
 30
0.0014780657201751
 11
1782.966131207718
 21
1627.1478310772
 31
0.0014780657201751
  0
LINE
  5
AE5
330
1F
100
AcDbEntity
  8
HEWI
100
AcDbLine
 10
1715.790987207718
 20
1588.3642430772
 30
0.0014780657201751
 11
1715.790987207718
 21
1587.1394990772
 31
0.0014780657201751
  0
LINE
  5
AE6
330
1F
100
AcDbEntity
  8
HEWI
100
AcDbLine
 10
1715.790987207718
 20
1596.5292090772
 30
0.0014780657201751
 11
1768.823995207717
 21
1627.1478310772
 31
0.0014780657201751
  0
LINE
  5
AE9
330
1F
100
AcDbEntity
  8
HEWI
100
AcDbLine
 10
2216.351889207718
 20
1242.8368070772
 30
0.0014780657201751
 11
2216.316521207717
 21
1242.8163890772
 31
0.0014780657201751
  0
LINE
  5
AF4
330
1F
100
AcDbEntity
  8
HEWI
100
AcDbLine
 10
2216.316521207717
 20
1242.8163890772
 30
0.0014780657201751
 11
2216.351889207718
 21
1242.8368070772
 31
0.0014780657201751
  0
LINE
  5
AF9
330
1F
100
AcDbEntity
  8
HEWI
100
AcDbLine
 10
1758.310643207718
 20
1458.988575077199
 30
0.0014780657201751
 11
1758.311253207718
 21
1458.9882250772
 31
0.0014780657201751
  0
LINE
  5
AFA
330
1F
100
AcDbEntity
  8
HEWI
100
AcDbLine
 10
1725.549061207718
 20
1555.2961330772
 30
0.0014780657201751
 11
1746.125867207717
 21
1543.4161070772
 31
0.0014780657201751
  0
LINE
  5
AFB
330
1F
100
AcDbEntity
  8
HEWI
100
AcDbLine
 10
1729.084595207718
 20
1557.337373077199
 30
0.0014780657201751
 11
1749.661401207718
 21
1545.4573490772
 31
0.0014780657201751
  0
LINE
  5
AFC
330
1F
100
AcDbEntity
  8
HEWI
100
AcDbLine
 10
1725.549061207718
 20
1518.7170850772
 30
0.0014780657201751
 11
1738.699569207718
 21
1511.1246350772
 31
0.0014780657201751
  0
LINE
  5
AFD
330
1F
100
AcDbEntity
  8
HEWI
100
AcDbLine
 10
1813.301011207718
 20
1582.1996950772
 30
0.0014780657201751
 11
1792.724205207718
 21
1594.0797190772
 31
0.0014780657201751
  0
LINE
  5
AFE
330
1F
100
AcDbEntity
  8
HEWI
100
AcDbLine
 10
1809.765477207718
 20
1580.158453077199
 30
0.0014780657201751
 11
1789.188671207718
 21
1592.038479077199
 31
0.0014780657201751
  0
LINE
  5
AFF
330
1F
100
AcDbEntity
  8
HEWI
100
AcDbLine
 10
1729.084595207718
 20
1557.337373077199
 30
0.0014780657201751
 11
1725.549061207718
 21
1555.2961330772
 31
0.0014780657201751
  0
LINE
  5
B00
330
1F
100
AcDbEntity
  8
HEWI
100
AcDbLine
 10
1792.724205207718
 20
1594.0797190772
 30
0.0014780657201751
 11
1789.188671207718
 21
1592.038479077199
 31
0.0014780657201751
  0
LINE
  5
B01
330
1F
100
AcDbEntity
  8
HEWI
100
AcDbLine
 10
1715.649565207718
 20
1416.9816110772
 30
0.0014780657201751
 11
1720.599313207718
 21
1414.1238730772
 31
0.0014780657201751
  0
LINE
  5
B02
330
1F
100
AcDbEntity
  8
HEWI
100
AcDbLine
 10
1784.946029207717
 20
1626.0047370772
 30
0.0014780657201751
 11
1787.774457207717
 21
1624.371743077199
 31
0.0014780657201751
  0
LINE
  5
B03
330
1F
100
AcDbEntity
  8
HEWI
100
AcDbLine
 10
1781.410495207717
 20
1623.963495077199
 30
0.0014780657201751
 11
1784.238923207718
 21
1622.3305010772
 31
0.0014780657201751
  0
LINE
  5
B04
330
1F
100
AcDbEntity
  8
HEWI
100
AcDbLine
 10
1717.770885207718
 20
1587.2211490772
 30
0.0014780657201751
 11
1720.599313207718
 21
1585.5881550772
 31
0.0014780657201751
  0
LINE
  5
B05
330
1F
100
AcDbEntity
  8
HEWI
100
AcDbLine
 10
1721.306419207717
 20
1589.2623910772
 30
0.0014780657201751
 11
1724.134847207718
 21
1587.6293970772
 31
0.0014780657201751
  0
LINE
  5
B06
330
1F
100
AcDbEntity
  8
HEWI
100
AcDbLine
 10
1721.306419207717
 20
1589.2623910772
 30
0.0014780657201751
 11
1717.770885207718
 21
1587.2211490772
 31
0.0014780657201751
  0
LINE
  5
B07
330
1F
100
AcDbEntity
  8
HEWI
100
AcDbLine
 10
1717.770885207718
 20
1585.996403077199
 30
0.0014780657201751
 11
1717.770885207718
 21
1587.2211490772
 31
0.0014780657201751
  0
LINE
  5
B08
330
1F
100
AcDbEntity
  8
HEWI
100
AcDbLine
 10
1784.946029207717
 20
1626.0047370772
 30
0.0014780657201751
 11
1781.410495207717
 21
1623.963495077199
 31
0.0014780657201751
  0
LINE
  5
B09
330
1F
100
AcDbEntity
  8
HEWI
100
AcDbLine
 10
1781.410495207717
 20
1623.963495077199
 30
0.0014780657201751
 11
1781.410495207717
 21
1623.8001830772
 31
0.0014780657201751
  0
LINE
  5
B0A
330
1F
100
AcDbEntity
  8
HEWI
100
AcDbLine
 10
1715.649565207718
 20
1587.2211490772
 30
0.0014780657201751
 11
1717.770885207718
 21
1585.996403077199
 31
0.0014780657201751
  0
LINE
  5
B0B
330
1F
100
AcDbEntity
  8
HEWI
100
AcDbLine
 10
1715.649565207718
 20
1587.2211490772
 30
0.0014780657201751
 11
1715.649565207718
 21
1416.9816110772
 31
0.0014780657201751
  0
LINE
  5
B23
330
1F
100
AcDbEntity
  8
HEWI
100
AcDbLine
 10
2378.036057207718
 20
1179.7354190772
 30
0.0014780657201751
 11
2378.036881207718
 21
1179.7349450772
 31
0.0014780657201751
  0
LINE
  5
B24
330
1F
100
AcDbEntity
  8
HEWI
100
AcDbLine
 10
1756.483415207717
 20
1506.8578050772
 30
0.0014780657201751
 11
1756.484447207717
 21
1506.8584010772
 31
0.0014780657201751
  0
LINE
  5
B25
330
1F
100
AcDbEntity
  8
HEWI
100
AcDbLine
 10
2255.596303207718
 20
1200.0362410772
 30
0.0014780657201751
 11
2255.596303207718
 21
1250.3103710772
 31
0.0014780657201751
  0
LINE
  5
B26
330
1F
100
AcDbEntity
  8
HEWI
100
AcDbLine
 10
2247.818129207718
 20
1254.8008410772
 30
0.0014780657201751
 11
2247.818129207718
 21
1195.5455110772
 31
0.0014780657201751
  0
LINE
  5
B27
330
1F
100
AcDbEntity
  8
HEWI
100
AcDbLine
 10
2244.989701207718
 20
1194.684135077199
 30
0.0014780657201751
 11
2244.989701207718
 21
1256.4335810772
 31
0.0014780657201751
  0
LINE
  5
B28
330
1F
100
AcDbEntity
  8
HEWI
100
AcDbLine
 10
1726.751141207718
 20
1417.6756330772
 30
0.0014780657201751
 11
1778.208619207718
 21
1447.3846230772
 31
0.0014780657201751
  0
LINE
  5
B29
330
1F
100
AcDbEntity
  8
HEWI
100
AcDbLine
 10
1726.751141207718
 20
1583.4244390772
 30
0.0014780657201751
 11
1726.751141207718
 21
1560.5899510772
 31
0.0014780657201751
  0
LINE
  5
B2A
330
1F
100
AcDbEntity
  8
HEWI
100
AcDbLine
 10
1726.751141207718
 20
1518.0209970772
 30
0.0014780657201751
 11
1726.751141207718
 21
1417.6756330772
 31
0.0014780657201751
  0
LINE
  5
B2B
330
1F
100
AcDbEntity
  8
HEWI
100
AcDbLine
 10
1786.572375207717
 20
1617.962245077199
 30
0.0014780657201751
 11
1726.751141207718
 21
1583.4244390772
 31
0.0014780657201751
  0
LINE
  5
B2C
330
1F
100
AcDbEntity
  8
HEWI
100
AcDbLine
 10
1786.572375207717
 20
1617.962245077199
 30
0.0014780657201751
 11
1786.572375207717
 21
1574.4583630772
 31
0.0014780657201751
  0
LINE
  5
B2D
330
1F
100
AcDbEntity
  8
HEWI
100
AcDbLine
 10
1786.572375207717
 20
1521.102787077199
 30
0.0014780657201751
 11
1786.572375207717
 21
1471.4247610772
 31
0.0014780657201751
  0
LINE
  5
B2E
330
1F
100
AcDbEntity
  8
HEWI
100
AcDbLine
 10
1724.276269207717
 20
1587.7110470772
 30
0.0014780657201751
 11
1784.097501207718
 21
1622.2488510772
 31
0.0014780657201751
  0
LINE
  5
B2F
330
1F
100
AcDbEntity
  8
HEWI
100
AcDbLine
 10
1721.306419207717
 20
1589.4256890772
 30
0.0014780657201751
 11
1717.629465207718
 21
1587.3027990772
 31
0.0014780657201751
  0
LINE
  5
B30
330
1F
100
AcDbEntity
  8
HEWI
100
AcDbLine
 10
1717.770913207718
 20
1586.1597190772
 30
0.0014780657201751
 11
1717.629465207718
 21
1586.0780530772
 31
0.0014780657201751
  0
LINE
  5
B31
330
1F
100
AcDbEntity
  8
HEWI
100
AcDbLine
 10
1781.127653207718
 20
1623.963495077199
 30
0.0014780657201751
 11
1784.804609207717
 21
1626.0863850772
 31
0.0014780657201751
  0
LINE
  5
B32
330
1F
100
AcDbEntity
  8
HEWI
100
AcDbLine
 10
1820.448687207718
 20
1542.0561210772
 30
0.0014780657201751
 11
1820.449793207717
 21
1542.0567590772
 31
0.0014780657201751
  0
LINE
  5
B33
330
1F
100
AcDbEntity
  8
HEWI
100
AcDbLine
 10
1809.765477207718
 20
1580.158453077199
 30
0.0014780657201751
 11
1813.301011207718
 21
1582.1996950772
 31
0.0014780657201751
  0
LINE
  5
B34
330
1F
100
AcDbEntity
  8
HEWI
100
AcDbLine
 10
1746.125867207717
 20
1543.4161070772
 30
0.0014780657201751
 11
1749.661401207718
 21
1545.4573490772
 31
0.0014780657201751
  0
LINE
  5
B35
330
1F
100
AcDbEntity
  8
HEWI
100
AcDbLine
 10
1725.549061207718
 20
1518.7170850772
 30
0.0014780657201751
 11
1723.074187207718
 21
1517.2882170772
 31
0.0014780657201751
  0
LINE
  5
B36
330
1F
100
AcDbEntity
  8
HEWI
100
AcDbLine
 10
1723.074187207718
 20
1559.5827390772
 30
0.0014780657201751
 11
1726.609721207717
 21
1561.6239810772
 31
0.0014780657201751
  0
LINE
  5
B37
330
1F
100
AcDbEntity
  8
HEWI
100
AcDbLine
 10
1786.713797207718
 20
1596.325085077199
 30
0.0014780657201751
 11
1790.249331207717
 21
1598.3663270772
 31
0.0014780657201751
  0
LINE
  5
B38
330
1F
100
AcDbEntity
  8
HEWI
100
AcDbLine
 10
1723.074187207718
 20
1415.5527430772
 30
0.0014780657201751
 11
1726.609721207717
 21
1417.5939830772
 31
0.0014780657201751
  0
LINE
  5
B39
330
1F
100
AcDbEntity
  8
HEWI
100
AcDbLine
 10
1723.074187207718
 20
1517.2882170772
 30
0.0014780657201751
 11
1723.074187207718
 21
1415.5527430772
 31
0.0014780657201751
  0
LINE
  5
B3A
330
1F
100
AcDbEntity
  8
HEWI
100
AcDbLine
 10
1726.609721207717
 20
1518.1038630772
 30
0.0014780657201751
 11
1726.609721207717
 21
1417.5939830772
 31
0.0014780657201751
  0
LINE
  5
B3B
330
1F
100
AcDbEntity
  8
HEWI
100
AcDbLine
 10
1790.249331207717
 20
1469.3009830772
 30
0.0014780657201751
 11
1790.249331207717
 21
1518.9780970772
 31
0.0014780657201751
  0
LINE
  5
B3C
330
1F
100
AcDbEntity
  8
HEWI
100
AcDbLine
 10
1786.713797207718
 20
1471.3434670772
 30
0.0014780657201751
 11
1786.713797207718
 21
1521.018991077199
 31
0.0014780657201751
  0
LINE
  5
B3D
330
1F
100
AcDbEntity
  8
HEWI
100
AcDbLine
 10
1790.249331207717
 20
1620.0851350772
 30
0.0014780657201751
 11
1786.713797207718
 21
1618.0438950772
 31
0.0014780657201751
  0
LINE
  5
B3E
330
1F
100
AcDbEntity
  8
HEWI
100
AcDbLine
 10
1790.249331207717
 20
1598.3663270772
 30
0.0014780657201751
 11
1790.249331207717
 21
1620.0851350772
 31
0.0014780657201751
  0
LINE
  5
B3F
330
1F
100
AcDbEntity
  8
HEWI
100
AcDbLine
 10
1786.713797207718
 20
1596.325085077199
 30
0.0014780657201751
 11
1786.713797207718
 21
1618.0438950772
 31
0.0014780657201751
  0
LINE
  5
B40
330
1F
100
AcDbEntity
  8
HEWI
100
AcDbLine
 10
1726.609721207717
 20
1583.3427890772
 30
0.0014780657201751
 11
1723.074187207718
 21
1581.301549077199
 31
0.0014780657201751
  0
LINE
  5
B41
330
1F
100
AcDbEntity
  8
HEWI
100
AcDbLine
 10
1723.074187207718
 20
1581.301549077199
 30
0.0014780657201751
 11
1723.074187207718
 21
1559.5827390772
 31
0.0014780657201751
  0
LINE
  5
B42
330
1F
100
AcDbEntity
  8
HEWI
100
AcDbLine
 10
1726.609721207717
 20
1583.3427890772
 30
0.0014780657201751
 11
1726.609721207717
 21
1561.6239810772
 31
0.0014780657201751
  0
LINE
  5
B43
330
1F
100
AcDbEntity
  8
HEWI
100
AcDbLine
 10
1784.238923207718
 20
1622.3305010772
 30
0.0014780657201751
 11
1787.774457207717
 21
1624.371743077199
 31
0.0014780657201751
  0
LINE
  5
B44
330
1F
100
AcDbEntity
  8
HEWI
100
AcDbLine
 10
1720.599313207718
 20
1585.5881550772
 30
0.0014780657201751
 11
1724.134847207718
 21
1587.6293970772
 31
0.0014780657201751
  0
ARC
  5
B47
330
1F
100
AcDbEntity
  8
HEWI
100
AcDbCircle
 10
262.0374986980742
 20
1553.812383585244
 30
0.0
 40
0.3
100
AcDbArc
 50
0.0
 51
90.0
  0
ARC
  5
B48
330
1F
100
AcDbEntity
  8
HEWI
100
AcDbCircle
 10
262.0374986980742
 20
1509.412383585244
 30
0.0
 40
0.3
100
AcDbArc
 50
270.0
 51
0.0
  0
ARC
  5
B49
330
1F
100
AcDbEntity
  8
HEWI
100
AcDbCircle
 10
178.6374986980745
 20
1509.412383585244
 30
0.0
 40
0.3
100
AcDbArc
 50
180.0
 51
270.0
  0
ARC
  5
B4A
330
1F
100
AcDbEntity
  8
HEWI
100
AcDbCircle
 10
178.6374986980745
 20
1553.812383585244
 30
0.0
 40
0.3
100
AcDbArc
 50
90.0
 51
180.0
  0
CIRCLE
  5
B4B
330
1F
100
AcDbEntity
  8
HEWI
100
AcDbCircle
 10
-220.3374986980743
 20
1531.612383585244
 30
0.0
 40
16.85
210
0.0
220
0.0
230
-1.0
  0
CIRCLE
  5
B4C
330
1F
100
AcDbEntity
  8
HEWI
100
AcDbCircle
 10
220.3374986980743
 20
1531.612383585244
 30
0.0
 40
15.75
  0
CIRCLE
  5
B4D
330
1F
100
AcDbEntity
  8
HEWI
100
AcDbCircle
 10
-220.3374986980743
 20
1531.612383585244
 30
0.0
 40
16.75
210
0.0
220
0.0
230
-1.0
  0
ARC
  5
B4E
330
1F
100
AcDbEntity
  8
HEWI
100
AcDbCircle
 10
-220.3374986980743
 20
1531.612383585244
 30
0.0
 40
17.04999999999999
210
0.0
220
0.0
230
-1.0
100
AcDbArc
 50
251.1809369999971
 51
288.8190630000029
  0
ARC
  5
B4F
330
1F
100
AcDbEntity
  8
HEWI
100
AcDbCircle
 10
-227.6374986980745
 20
1516.204187585244
 30
0.0
 40
0.2
210
0.0
220
0.0
230
-1.0
100
AcDbArc
 50
64.64963000000565
 51
180.0
  0
ARC
  5
B50
330
1F
100
AcDbEntity
  8
HEWI
100
AcDbCircle
 10
-213.0374986980742
 20
1516.204187585244
 30
0.0
 40
0.2
210
0.0
220
0.0
230
-1.0
100
AcDbArc
 50
0.0
 51
115.3503699999943
  0
CIRCLE
  5
B51
330
1F
100
AcDbEntity
  8
HEWI
100
AcDbCircle
 10
220.3374986980743
 20
1429.262383585244
 30
0.0
 40
16.2
  0
CIRCLE
  5
B52
330
1F
100
AcDbEntity
  8
HEWI
100
AcDbCircle
 10
-220.3374986980743
 20
1429.262383585244
 30
0.0
 40
16.4
210
0.0
220
0.0
230
-1.0
  0
ARC
  5
B53
330
1F
100
AcDbEntity
  8
HEWI
100
AcDbCircle
 10
1445.946171777822
 20
1558.869173728005
 30
0.0
 40
1.0
100
AcDbArc
 50
0.0
 51
90.0
  0
ARC
  5
B54
330
1F
100
AcDbEntity
  8
HEWI
100
AcDbCircle
 10
1445.946171777822
 20
1527.369173728005
 30
0.0
 40
1.0
100
AcDbArc
 50
270.0
 51
0.0
  0
ARC
  5
B55
330
1F
100
AcDbEntity
  8
HEWI
100
AcDbCircle
 10
555.8461717778214
 20
1429.319173728005
 30
0.0
 40
0.5
100
AcDbArc
 50
180.0
 51
270.0
  0
ARC
  5
B56
330
1F
100
AcDbEntity
  8
HEWI
100
AcDbCircle
 10
555.8461717778214
 20
1452.319173728005
 30
0.0
 40
0.5
100
AcDbArc
 50
90.0
 51
180.0
  0
ARC
  5
B57
330
1F
100
AcDbEntity
  8
HEWI
100
AcDbCircle
 10
710.746171777821
 20
1429.819173728005
 30
0.0
 40
0.8
100
AcDbArc
 50
245.0166050000056
 51
270.0
  0
ARC
  5
B58
330
1F
100
AcDbEntity
  8
HEWI
100
AcDbCircle
 10
722.1461717778216
 20
1429.819173728005
 30
0.0
 40
0.8
100
AcDbArc
 50
270.0
 51
295.6430130000013
  0
ARC
  5
B59
330
1F
100
AcDbEntity
  8
HEWI
100
AcDbCircle
 10
1229.746171777821
 20
1429.819173728005
 30
0.0
 40
0.8
100
AcDbArc
 50
245.0166050000056
 51
270.0
  0
ARC
  5
B5A
330
1F
100
AcDbEntity
  8
HEWI
100
AcDbCircle
 10
1241.146171777822
 20
1429.819173728005
 30
0.0
 40
0.8
100
AcDbArc
 50
270.0
 51
295.6430130000013
  0
CIRCLE
  5
B5F
330
1F
100
AcDbEntity
  8
HEWI
100
AcDbCircle
 10
587.9461717778217
 20
1537.119173728005
 30
0.0
 40
1.149999999999999
  0
CIRCLE
  5
B60
330
1F
100
AcDbEntity
  8
HEWI
100
AcDbCircle
 10
-587.9461717778217
 20
1537.119173728005
 30
0.0
 40
1.45
210
0.0
220
0.0
230
-1.0
  0
CIRCLE
  5
B61
330
1F
100
AcDbEntity
  8
HEWI
100
AcDbCircle
 10
587.9461717778217
 20
1549.119173728005
 30
0.0
 40
1.149999999999999
  0
CIRCLE
  5
B62
330
1F
100
AcDbEntity
  8
HEWI
100
AcDbCircle
 10
-587.9461717778217
 20
1549.119173728005
 30
0.0
 40
1.45
210
0.0
220
0.0
230
-1.0
  0
ARC
  5
B68
330
1F
100
AcDbEntity
  8
HEWI
100
AcDbCircle
 10
-587.9461717778217
 20
1543.119173728005
 30
0.0
 40
4.891099999999999
210
0.0
220
0.0
230
-1.0
100
AcDbArc
 50
86.78250400000607
 51
93.22313999999281
  0
ARC
  5
B69
330
1F
100
AcDbEntity
  8
HEWI
100
AcDbCircle
 10
-587.9461717778217
 20
1543.119173728005
 30
0.0
 40
4.891099999999999
210
0.0
220
0.0
230
-1.0
100
AcDbArc
 50
266.7768790000021
 51
273.217515000001
  0
ARC
  5
B78
330
1F
100
AcDbEntity
  8
HEWI
100
AcDbCircle
 10
587.9461717778217
 20
1543.119173728005
 30
0.0
 40
5.5
100
AcDbArc
 50
78.558759999998
 51
101.446882000001
  0
ARC
  5
B79
330
1F
100
AcDbEntity
  8
HEWI
100
AcDbCircle
 10
587.9461717778217
 20
1543.119173728005
 30
0.0
 40
5.5
100
AcDbArc
 50
258.5531300000024
 51
281.4412520000065
  0
ARC
  5
B7F
330
1F
100
AcDbEntity
  8
HEWI
100
AcDbCircle
 10
587.9461717778217
 20
1543.119173728005
 30
0.0
 40
5.099999999999999
100
AcDbArc
 50
82.58062099999852
 51
97.42499199999993
  0
ARC
  5
B80
330
1F
100
AcDbEntity
  8
HEWI
100
AcDbCircle
 10
587.9461717778217
 20
1543.119173728005
 30
0.0
 40
5.099999999999999
100
AcDbArc
 50
262.5749980000063
 51
277.4193680000001
  0
CIRCLE
  5
B8D
330
1F
100
AcDbEntity
  8
HEWI
100
AcDbCircle
 10
-587.9461717778217
 20
1543.119173728005
 30
0.0
 40
21.0
210
0.0
220
0.0
230
-1.0
  0
CIRCLE
  5
B8E
330
1F
100
AcDbEntity
  8
HEWI
100
AcDbCircle
 10
587.9461717778217
 20
1543.119173728005
 30
0.0
 40
20.8
  0
ARC
  5
B8F
330
1F
100
AcDbEntity
  8
HEWI
100
AcDbCircle
 10
-587.9461717778217
 20
1543.119173728005
 30
0.0
 40
22.5
210
0.0
220
0.0
230
-1.0
100
AcDbArc
 50
84.59999900000147
 51
270.0
  0
ARC
  5
B90
330
1F
100
AcDbEntity
  8
HEWI
100
AcDbCircle
 10
-587.9461717778217
 20
1543.119173728005
 30
0.0
 40
22.5
210
0.0
220
0.0
230
-1.0
100
AcDbArc
 50
270.0
 51
275.4000020000023
  0
ARC
  5
B91
330
1F
100
AcDbEntity
  8
HEWI
100
AcDbCircle
 10
587.9461717778217
 20
1543.119173728005
 30
0.0
 40
22.4
100
AcDbArc
 50
270.0
 51
90.0
  0
ARC
  5
B92
330
1F
100
AcDbEntity
  8
HEWI
100
AcDbCircle
 10
-558.8461717778214
 20
1517.219173728005
 30
-0.0000000000000113
 40
3.5
210
0.0000000000000001
220
0.0
230
-1.0
100
AcDbArc
 50
0.0
 51
90.0
  0
ARC
  5
B93
330
1F
100
AcDbEntity
  8
HEWI
100
AcDbCircle
 10
-558.8461717778214
 20
1569.019173728005
 30
-0.0000000000000113
 40
3.5
210
0.0000000000000001
220
0.0
230
-1.0
100
AcDbArc
 50
270.0
 51
0.0
  0
ARC
  5
B94
330
1F
100
AcDbEntity
  8
HEWI
100
AcDbCircle
 10
551.8461717778214
 20
1392.619173728005
 30
0.0
 40
3.5
100
AcDbArc
 50
270.0
 51
0.0
  0
ARC
  5
B95
330
1F
100
AcDbEntity
  8
HEWI
100
AcDbCircle
 10
551.8461717778214
 20
1595.619173728005
 30
0.0
 40
3.5
100
AcDbArc
 50
0.0
 51
90.0
  0
ARC
  5
B96
330
1F
100
AcDbEntity
  8
HEWI
100
AcDbCircle
 10
236.0874986980746
 20
284.4988470030243
 30
0.0
 40
1.0
100
AcDbArc
 50
270.0
 51
0.0
  0
ARC
  5
B97
330
1F
100
AcDbEntity
  8
HEWI
100
AcDbCircle
 10
204.5874986980745
 20
284.4988470030243
 30
0.0
 40
1.0
100
AcDbArc
 50
180.0
 51
270.0
  0
ARC
  5
B98
330
1F
100
AcDbEntity
  8
HEWI
100
AcDbCircle
 10
208.8374986980745
 20
1174.598847003024
 30
0.0
 40
0.5
100
AcDbArc
 50
90.0
 51
180.0
  0
ARC
  5
B99
330
1F
100
AcDbEntity
  8
HEWI
100
AcDbCircle
 10
231.8374986980746
 20
1174.598847003024
 30
0.0
 40
0.5
100
AcDbArc
 50
0.0
 51
90.0
  0
ARC
  5
B9A
330
1F
100
AcDbEntity
  8
HEWI
100
AcDbCircle
 10
262.0374986980744
 20
1164.698847003024
 30
0.0
 40
0.3
100
AcDbArc
 50
0.0
 51
90.0
  0
ARC
  5
B9B
330
1F
100
AcDbEntity
  8
HEWI
100
AcDbCircle
 10
262.0374986980744
 20
1120.298847003024
 30
0.0
 40
0.3
100
AcDbArc
 50
270.0
 51
0.0
  0
ARC
  5
B9C
330
1F
100
AcDbEntity
  8
HEWI
100
AcDbCircle
 10
178.6374986980743
 20
1120.298847003024
 30
0.0
 40
0.3
100
AcDbArc
 50
180.0
 51
270.0
  0
ARC
  5
B9D
330
1F
100
AcDbEntity
  8
HEWI
100
AcDbCircle
 10
178.6374986980743
 20
1164.698847003024
 30
0.0
 40
0.3
100
AcDbArc
 50
90.0
 51
180.0
  0
ARC
  5
B9E
330
1F
100
AcDbEntity
  8
HEWI
100
AcDbCircle
 10
182.8374986980741
 20
1185.398847003024
 30
0.0
 40
10.0
100
AcDbArc
 50
90.0
 51
180.0
  0
ARC
  5
B9F
330
1F
100
AcDbEntity
  8
HEWI
100
AcDbCircle
 10
257.8374986980746
 20
1185.398847003024
 30
0.0
 40
10.0
100
AcDbArc
 50
0.0
 51
90.0
  0
ARC
  5
BA0
330
1F
100
AcDbEntity
  8
HEWI
100
AcDbCircle
 10
182.8374986980741
 20
1185.598847003024
 30
0.0
 40
10.0
100
AcDbArc
 50
90.0
 51
180.0
  0
ARC
  5
BA1
330
1F
100
AcDbEntity
  8
HEWI
100
AcDbCircle
 10
257.8374986980746
 20
1185.598847003024
 30
0.0
 40
10.0
100
AcDbArc
 50
0.0
 51
90.0
  0
ELLIPSE
  5
BA2
330
1F
100
AcDbEntity
  8
HEWI
100
AcDbEllipse
 10
736.2461717778209
 20
1452.216443728005
 30
0.0
 11
-0.2
 21
0.0
 31
0.0
210
0.0
220
0.0
230
1.0
 40
0.90136
 41
2.514698896745269
 42
3.141592653589792
  0
ELLIPSE
  5
BA3
330
1F
100
AcDbEntity
  8
HEWI
100
AcDbEllipse
 10
696.6461717778216
 20
1452.216443728005
 30
0.0
 11
-0.2
 21
0.0
 31
0.0
210
0.0
220
0.0
230
1.0
 40
0.90136
 41
0.0
 42
0.6599300405254422
  0
ELLIPSE
  5
BA4
330
1F
100
AcDbEntity
  8
HEWI
100
AcDbEllipse
 10
1255.246171777821
 20
1452.216443728005
 30
0.0
 11
-0.2
 21
0.0
 31
0.0
210
0.0
220
0.0
230
1.0
 40
0.90136
 41
2.514698896745269
 42
3.141592653589792
  0
ELLIPSE
  5
BA5
330
1F
100
AcDbEntity
  8
HEWI
100
AcDbEllipse
 10
1215.646171777821
 20
1452.216443728005
 30
0.0
 11
-0.2
 21
0.0
 31
0.0
210
0.0
220
0.0
230
1.0
 40
0.90136
 41
0.0
 42
0.6599300405254422
  0
ELLIPSE
  5
BA8
330
1F
100
AcDbEntity
  8
HEWI
100
AcDbEllipse
 10
2384.996845207718
 20
1195.0578410772
 30
0.0014780657201751
 11
-8.425000000000013
 21
-14.59252805376778
 31
0.0000000000000009
210
0.0000000000000001
220
0.0
230
1.0
 40
0.5773500000000001
 41
3.032520484728692
 42
5.497787082124818
  0
ELLIPSE
  5
BA9
330
1F
100
AcDbEntity
  8
HEWI
100
AcDbEllipse
 10
2384.996845207718
 20
1195.0578410772
 30
0.0014780657201751
 11
-8.425000000000013
 21
-14.59252805376778
 31
0.0000000000000009
210
0.0000000000000001
220
0.0
230
1.0
 40
0.5773500000000001
 41
5.497787082124836
 42
6.283185307179585
  0
ELLIPSE
  5
BAA
330
1F
100
AcDbEntity
  8
HEWI
100
AcDbEllipse
 10
2384.996845207718
 20
1195.0578410772
 30
0.0014780657201751
 11
-8.425000000000013
 21
-14.59252805376778
 31
0.0000000000000009
210
0.0000000000000001
220
0.0
230
1.0
 40
0.5773500000000001
 41
0.0
 42
0.1090722203014215
  0
ELLIPSE
  5
BAB
330
1F
100
AcDbEntity
  8
HEWI
100
AcDbEllipse
 10
1878.142703207718
 20
1406.6466470772
 30
0.0014780657201751
 11
0.1000000000000001
 21
0.1732050807568877
 31
0.0
210
0.0000000000000001
220
0.0
230
1.0
 40
0.5773500000000001
 41
2.356194490192324
 42
3.141625891313581
  0
ELLIPSE
  5
BAC
330
1F
100
AcDbEntity
  8
HEWI
100
AcDbEllipse
 10
1884.577375207717
 20
1400.4067310772
 30
0.0014780657201751
 11
6.250000000000009
 21
10.82531754730547
 31
-0.0000000000000006
210
0.0000000000000001
220
0.0
230
1.0
 40
0.5773500000000001
 41
0.3375012380270948
 42
0.7774340912830191
  0
ELLIPSE
  5
BAD
330
1F
100
AcDbEntity
  8
HEWI
100
AcDbEllipse
 10
1884.718797207717
 20
1400.3250810772
 30
0.0014780657201751
 11
-6.350000000000009
 21
-10.99852262806236
 31
0.0000000000000007
210
0.0000000000000001
220
0.0
230
1.0
 40
0.5773500000000001
 41
3.479093891616886
 42
4.374887742357595
  0
ELLIPSE
  5
BAE
330
1F
100
AcDbEntity
  8
HEWI
100
AcDbEllipse
 10
1888.466463207717
 20
1411.9987530772
 30
0.0014780657201751
 11
-0.0045105253370017
 21
0.1999491314339331
 31
0.0
210
0.0000000000000001
220
0.0
230
1.0
 40
0.7704340000000001
 41
2.703634106693062
 42
4.27443043348785
  0
ELLIPSE
  5
BAF
330
1F
100
AcDbEntity
  8
HEWI
100
AcDbEllipse
 10
1852.686859207717
 20
1421.3435850772
 30
0.0014780657201751
 11
0.1000000000000001
 21
0.1732050807568877
 31
0.0
210
0.0000000000000001
220
0.0
230
1.0
 40
0.5773500000000001
 41
2.356194490192374
 42
3.141625891313653
  0
ELLIPSE
  5
BB0
330
1F
100
AcDbEntity
  8
HEWI
100
AcDbEllipse
 10
2385.138265207717
 20
1194.9761910772
 30
0.0014780657201751
 11
8.375000000000012
 21
14.50592551338933
 31
-0.0000000000000009
210
0.0000000000000001
220
0.0
230
1.0
 40
0.5773500000000001
 41
0.0000980943355945
 42
3.141592582898991
  0
ELLIPSE
  5
BB1
330
1F
100
AcDbEntity
  8
HEWI
100
AcDbEllipse
 10
2384.996845207718
 20
1195.0578410772
 30
0.0014780657201751
 11
-8.275000000000012
 21
-14.33272043263245
 31
0.0000000000000009
210
0.0000000000000001
220
0.0
230
1.0
 40
0.5773500000000001
 41
3.926990745042931
 42
5.497787137022993
  0
ELLIPSE
  5
BB9
330
1F
100
AcDbEntity
  8
HEWI
100
AcDbEllipse
 10
1746.125867207717
 20
1525.1265830772
 30
0.0014780657201751
 11
-10.39999999999996
 21
18.01332839871635
 31
0.0000000000000001
210
0.0000000000000001
220
0.0
230
1.0
 40
0.5773500000000001
 41
3.926990855691212
 42
5.497787193948148
  0
ELLIPSE
  5
BBA
330
1F
100
AcDbEntity
  8
HEWI
100
AcDbEllipse
 10
1744.216679207718
 20
1519.1253330772
 30
0.0014780657201751
 11
0.5749999999999979
 21
-0.9959292143521055
 31
0.0
210
0.0000000000000001
220
0.0
230
1.0
 40
0.5773500000000001
 41
2.479404354681209
 42
6.283185307179585
  0
ELLIPSE
  5
BBB
330
1F
100
AcDbEntity
  8
HEWI
100
AcDbEllipse
 10
1744.216679207718
 20
1519.1253330772
 30
0.0014780657201751
 11
0.5749999999999979
 21
-0.9959292143521055
 31
0.0
210
0.0000000000000001
220
0.0
230
1.0
 40
0.5773500000000001
 41
0.0
 42
0.6427507115122314
  0
ELLIPSE
  5
BBC
330
1F
100
AcDbEntity
  8
HEWI
100
AcDbEllipse
 10
1744.004547207718
 20
1519.0028590772
 30
0.0014780657201751
 11
-0.7249999999999977
 21
1.255736835487437
 31
0.0
210
0.0000000000000001
220
0.0
230
1.0
 40
0.5773500000000001
 41
0.0
 42
6.283185307179585
  0
ELLIPSE
  5
BBD
330
1F
100
AcDbEntity
  8
HEWI
100
AcDbEllipse
 10
1744.216679207718
 20
1528.9232930772
 30
0.0014780657201751
 11
0.5749999999999979
 21
-0.9959292143521055
 31
0.0
210
0.0000000000000001
220
0.0
230
1.0
 40
0.5773500000000001
 41
2.479404354681209
 42
6.283185307179585
  0
ELLIPSE
  5
BBE
330
1F
100
AcDbEntity
  8
HEWI
100
AcDbEllipse
 10
1744.216679207718
 20
1528.9232930772
 30
0.0014780657201751
 11
0.5749999999999979
 21
-0.9959292143521055
 31
0.0
210
0.0000000000000001
220
0.0
230
1.0
 40
0.5773500000000001
 41
0.0
 42
0.6621879402192526
  0
ELLIPSE
  5
BBF
330
1F
100
AcDbEntity
  8
HEWI
100
AcDbEllipse
 10
1744.004547207718
 20
1528.8008190772
 30
0.0014780657201751
 11
-0.7249999999999977
 21
1.255736835487437
 31
0.0
210
0.0000000000000001
220
0.0
230
1.0
 40
0.5773500000000001
 41
0.0
 42
6.283185307179585
  0
ELLIPSE
  5
BC0
330
1F
100
AcDbEntity
  8
HEWI
100
AcDbEllipse
 10
2251.707217207718
 20
1188.444219077199
 30
0.0014780657201751
 11
-6.350000000000009
 21
-10.99852262806236
 31
0.0000000000000007
210
0.0000000000000001
220
0.0
230
1.0
 40
0.5773500000000001
 41
3.479093891616879
 42
4.374887742357597
  0
ELLIPSE
  5
BC1
330
1F
100
AcDbEntity
  8
HEWI
100
AcDbEllipse
 10
2255.454883207718
 20
1200.1178910772
 30
0.0014780657201751
 11
-0.0045105253370017
 21
0.1999491314339331
 31
0.0
210
0.0000000000000001
220
0.0
230
1.0
 40
0.7704340000000001
 41
2.703634106693091
 42
4.274430433487878
  0
ELLIPSE
  5
BC2
330
1F
100
AcDbEntity
  8
HEWI
100
AcDbEllipse
 10
2251.565795207718
 20
1188.5258690772
 30
0.0014780657201751
 11
6.250000000000009
 21
10.82531754730547
 31
-0.0000000000000006
210
0.0000000000000001
220
0.0
230
1.0
 40
0.5773500000000001
 41
0.3375012380270975
 42
0.7773640491278135
  0
ELLIPSE
  5
BC3
330
1F
100
AcDbEntity
  8
HEWI
100
AcDbEllipse
 10
2245.131123207718
 20
1194.7657830772
 30
0.0014780657201751
 11
0.1000000000000001
 21
0.1732050807568877
 31
0.0
210
0.0000000000000001
220
0.0
230
1.0
 40
0.5773500000000001
 41
2.356194490191925
 42
3.141625891313018
  0
ELLIPSE
  5
BC4
330
1F
100
AcDbEntity
  8
HEWI
100
AcDbEllipse
 10
2219.675279207718
 20
1209.4627230772
 30
0.0014780657201751
 11
0.1000000000000001
 21
0.1732050807568877
 31
0.0
210
0.0000000000000001
220
0.0
230
1.0
 40
0.5773500000000001
 41
2.356194490192721
 42
3.141625891314147
  0
ELLIPSE
  5
BC5
330
1F
100
AcDbEntity
  8
HEWI
100
AcDbEllipse
 10
1763.803537207717
 20
1470.176363077199
 30
0.0014780657201751
 11
6.400000000000009
 21
11.08512516844081
 31
-0.0000000000000007
210
0.0000000000000001
220
0.0
230
1.0
 40
0.5773500000000001
 41
6.053849171723184
 42
6.283185307179585
  0
ELLIPSE
  5
BC6
330
1F
100
AcDbEntity
  8
HEWI
100
AcDbEllipse
 10
1763.803537207717
 20
1470.176363077199
 30
0.0014780657201751
 11
6.400000000000009
 21
11.08512516844081
 31
-0.0000000000000007
210
0.0000000000000001
220
0.0
230
1.0
 40
0.5773500000000001
 41
0.0
 42
3.345207018385638
  0
ELLIPSE
  5
BC7
330
1F
100
AcDbEntity
  8
HEWI
100
AcDbEllipse
 10
1763.308563207718
 20
1470.462137077199
 30
0.0014780657201751
 11
-6.750000000000009
 21
-11.69134295108991
 31
0.0000000000000007
210
0.0000000000000001
220
0.0
230
1.0
 40
0.5773500000000001
 41
2.74732278186224
 42
5.49778713811928
  0
ELLIPSE
  5
BC8
330
1F
100
AcDbEntity
  8
HEWI
100
AcDbEllipse
 10
1763.308563207718
 20
1470.462137077199
 30
0.0014780657201751
 11
-6.750000000000009
 21
-11.69134295108991
 31
0.0000000000000007
210
0.0000000000000001
220
0.0
230
1.0
 40
0.5773500000000001
 41
5.497787138119325
 42
6.283185307179585
  0
ELLIPSE
  5
BC9
330
1F
100
AcDbEntity
  8
HEWI
100
AcDbEllipse
 10
1763.308563207718
 20
1470.462137077199
 30
0.0014780657201751
 11
-6.750000000000009
 21
-11.69134295108991
 31
0.0000000000000007
210
0.0000000000000001
220
0.0
230
1.0
 40
0.5773500000000001
 41
0.0
 42
0.3803290573329213
  0
ELLIPSE
  5
BCA
330
1F
100
AcDbEntity
  8
HEWI
100
AcDbEllipse
 10
1757.863841207718
 20
1473.6056490772
 30
0.0014780657201751
 11
6.750000000000009
 21
11.69134295108991
 31
-0.0000000000000007
210
0.0000000000000001
220
0.0
230
1.0
 40
0.5773500000000001
 41
0.0000981862520306
 42
3.141592736093067
  0
ELLIPSE
  5
BCB
330
1F
100
AcDbEntity
  8
HEWI
100
AcDbEllipse
 10
1757.368865207718
 20
1473.8914230772
 30
0.0014780657201751
 11
-6.400000000000009
 21
-11.08512516844081
 31
0.0000000000000007
210
0.0000000000000001
220
0.0
230
1.0
 40
0.5773500000000001
 41
3.926990811529739
 42
5.49778717922766
  0
ELLIPSE
  5
BD3
330
1F
100
AcDbEntity
  8
HEWI
100
AcDbEllipse
 10
1722.862055207718
 20
1592.4467270772
 30
0.0014780657201751
 11
-10.0
 21
0.0000000000000013
 31
0.0
210
0.0
220
0.0
230
1.0
 40
0.5773500000000001
 41
5.497787143782137
 42
7.068583470577034
  0
ELLIPSE
  5
BD4
330
1F
100
AcDbEntity
  8
HEWI
100
AcDbEllipse
 10
1722.862055207718
 20
1591.2219810772
 30
0.0014780657201751
 11
10.0
 21
0.0
 31
0.0
210
0.0
220
0.0
230
1.0
 40
0.5773500000000001
 41
3.141592671241446
 42
3.92699081698724
  0
ELLIPSE
  5
BD5
330
1F
100
AcDbEntity
  8
HEWI
100
AcDbEllipse
 10
1775.895063207717
 20
1623.065349077199
 30
0.0014780657201751
 11
-10.0
 21
0.0000000000000013
 31
0.0
210
0.0
220
0.0
230
1.0
 40
0.5773500000000001
 41
3.926990816987238
 42
5.497787143782139
  0
ELLIPSE
  5
BD6
330
1F
100
AcDbEntity
  8
HEWI
100
AcDbEllipse
 10
2343.772519207718
 20
1135.2902910772
 30
0.0014780657201751
 11
8.200000000000013
 21
14.20281662206478
 31
-0.0000000000000008
210
0.0000000000000001
220
0.0
230
1.0
 40
0.5773500000000001
 41
0.0000982519666973
 42
3.141592775208943
  0
ELLIPSE
  5
BD7
330
1F
100
AcDbEntity
  8
HEWI
100
AcDbEllipse
 10
2343.631097207717
 20
1135.3719410772
 30
0.0014780657201751
 11
-8.100000000000013
 21
-14.0296115413079
 31
0.0000000000000008
210
0.0000000000000001
220
0.0
230
1.0
 40
0.5773500000000001
 41
3.926990790266798
 42
5.497787077638088
  0
ELLIPSE
  5
BEA
330
1F
100
AcDbEntity
  8
HEWI
100
AcDbEllipse
 10
1764.510643207718
 20
1469.7272910772
 30
0.0014780657201751
 11
-6.200000000000011
 21
-10.73871500692703
 31
0.0000000000000006
210
0.0000000000000001
220
0.0
230
1.0
 40
0.5773500000000001
 41
3.141592591238171
 42
5.497787148362093
  0
ELLIPSE
  5
BEB
330
1F
100
AcDbEntity
  8
HEWI
100
AcDbEllipse
 10
1764.510643207718
 20
1469.7272910772
 30
0.0014780657201751
 11
-6.200000000000011
 21
-10.73871500692703
 31
0.0000000000000006
210
0.0000000000000001
220
0.0
230
1.0
 40
0.5773500000000001
 41
5.497787148362117
 42
6.283185307179585
  0
ELLIPSE
  5
BEC
330
1F
100
AcDbEntity
  8
HEWI
100
AcDbEllipse
 10
1763.944959207718
 20
1470.0538890772
 30
0.0014780657201751
 11
6.200000000000011
 21
10.73871500692703
 31
-0.0000000000000006
210
0.0000000000000001
220
0.0
230
1.0
 40
0.5773500000000001
 41
0.0431969188520131
 42
3.09839582687438
  0
ELLIPSE
  5
BED
330
1F
100
AcDbEntity
  8
HEWI
100
AcDbEllipse
 10
1763.803537207717
 20
1470.1355390772
 30
0.0014780657201751
 11
-6.100000000000009
 21
-10.56550992617014
 31
0.0000000000000006
210
0.0000000000000001
220
0.0
230
1.0
 40
0.5773500000000001
 41
3.926990745649506
 42
5.497787132170347
  0
ELLIPSE
  5
BEE
330
1F
100
AcDbEntity
  8
HEWI
100
AcDbEllipse
 10
1722.720633207718
 20
1591.3036310772
 30
0.0014780657201751
 11
-10.0
 21
0.0000000000000013
 31
0.0
210
0.0
220
0.0
230
1.0
 40
0.5773500000000001
 41
6.114815466320263
 42
7.068583470577033
  0
ELLIPSE
  5
BEF
330
1F
100
AcDbEntity
  8
HEWI
100
AcDbEllipse
 10
1722.720633207718
 20
1421.0640950772
 30
0.0014780657201751
 11
10.0
 21
0.0
 31
0.0
210
0.0
220
0.0
230
1.0
 40
0.5773500000000001
 41
3.141592671241444
 42
3.926990816987238
  0
ELLIPSE
  5
BF7
330
1F
100
AcDbEntity
  8
HEWI
100
AcDbEllipse
 10
1764.510643207718
 20
1469.7272910772
 30
0.0014780657201751
 11
6.250000000000009
 21
10.82531754730547
 31
-0.0000000000000006
210
0.0000000000000001
220
0.0
230
1.0
 40
0.5773500000000001
 41
0.0000983094200936
 42
3.141592756621086
  0
ELLIPSE
  5
C0D
330
1F
100
AcDbEntity
  8
HEWI
100
AcDbEllipse
 10
2387.118165207718
 20
1193.8330950772
 30
0.0014780657201751
 11
7.875000000000013
 21
13.6399001096049
 31
-0.0000000000000008
210
0.0000000000000001
220
0.0
230
1.0
 40
0.5773499999999999
 41
0.0
 42
6.283185307179585
  0
ELLIPSE
  5
C0E
330
1F
100
AcDbEntity
  8
HEWI
100
AcDbEllipse
 10
2386.411057207718
 20
1194.2413450772
 30
0.0014780657201751
 11
-8.375000000000012
 21
-14.50592551338933
 31
0.0000000000000009
210
0.0000000000000001
220
0.0
230
1.0
 40
0.5773500000000001
 41
3.141592582898993
 42
5.497787148951771
  0
ELLIPSE
  5
C0F
330
1F
100
AcDbEntity
  8
HEWI
100
AcDbEllipse
 10
2386.411057207718
 20
1194.2413450772
 30
0.0014780657201751
 11
-8.375000000000012
 21
-14.50592551338933
 31
0.0000000000000009
210
0.0000000000000001
220
0.0
230
1.0
 40
0.5773500000000001
 41
3.055100685148879
 42
3.141592582898997
  0
ELLIPSE
  5
C10
330
1F
100
AcDbEntity
  8
HEWI
100
AcDbEllipse
 10
2386.411057207718
 20
1194.2413450772
 30
0.0014780657201751
 11
-8.375000000000012
 21
-14.50592551338933
 31
0.0000000000000009
210
0.0000000000000001
220
0.0
230
1.0
 40
0.5773500000000001
 41
0.0000980943355945
 42
0.0127625705852062
  0
ELLIPSE
  5
C11
330
1F
100
AcDbEntity
  8
HEWI
100
AcDbEllipse
 10
2386.411057207718
 20
1194.2413450772
 30
0.0014780657201751
 11
-8.375000000000012
 21
-14.50592551338933
 31
0.0000000000000009
210
0.0000000000000001
220
0.0
230
1.0
 40
0.5773500000000001
 41
5.4977871489518
 42
6.283185307179585
  0
ELLIPSE
  5
C12
330
1F
100
AcDbEntity
  8
HEWI
100
AcDbEllipse
 10
1745.984447207717
 20
1525.0449330772
 30
0.0014780657201751
 11
10.49999999999996
 21
-18.18653347947323
 31
-0.0000000000000001
210
0.0000000000000001
220
0.0
230
1.0
 40
0.5773500000000001
 41
0.7853982079759429
 42
3.141592644450164
  0
ELLIPSE
  5
C13
330
1F
100
AcDbEntity
  8
HEWI
100
AcDbEllipse
 10
1745.984447207717
 20
1525.0449330772
 30
0.0014780657201751
 11
10.49999999999996
 21
-18.18653347947323
 31
-0.0000000000000001
210
0.0000000000000001
220
0.0
230
1.0
 40
0.5773500000000001
 41
0.0
 42
0.7853982209012567
  0
ELLIPSE
  5
C14
330
1F
100
AcDbEntity
  8
HEWI
100
AcDbEllipse
 10
1744.145969207718
 20
1523.9834890772
 30
0.0014780657201751
 11
-10.49999999999996
 21
18.18653347947323
 31
0.0000000000000001
210
0.0000000000000001
220
0.0
230
1.0
 40
0.5773500000000001
 41
2.356194542868195
 42
6.283185307179585
  0
ELLIPSE
  5
C15
330
1F
100
AcDbEntity
  8
HEWI
100
AcDbEllipse
 10
1744.145969207718
 20
1523.9834890772
 30
0.0014780657201751
 11
-10.49999999999996
 21
18.18653347947323
 31
0.0000000000000001
210
0.0000000000000001
220
0.0
230
1.0
 40
0.5773500000000001
 41
0.0
 42
0.7853982209012567
  0
ELLIPSE
  5
C16
330
1F
100
AcDbEntity
  8
HEWI
100
AcDbEllipse
 10
1744.004547207718
 20
1523.9018390772
 30
0.0014780657201751
 11
10.39999999999996
 21
-18.01332839871635
 31
-0.0000000000000001
210
0.0000000000000001
220
0.0
230
1.0
 40
0.5773500000000001
 41
0.0
 42
6.283185307179585
  0
ELLIPSE
  5
C17
330
1F
100
AcDbEntity
  8
HEWI
100
AcDbEllipse
 10
1724.276269207717
 20
1584.8533090772
 30
0.0014780657201751
 11
1.749999999999993
 21
-3.03108891324554
 31
0.0
210
0.0000000000000001
220
0.0
230
1.0
 40
0.5773500000000001
 41
0.7853981633974502
 42
2.356194490192344
  0
ELLIPSE
  5
C18
330
1F
100
AcDbEntity
  8
HEWI
100
AcDbEllipse
 10
1784.097501207718
 20
1619.3911130772
 30
0.0014780657201751
 11
-1.749999999999993
 21
3.03108891324554
 31
0.0
210
0.0000000000000001
220
0.0
230
1.0
 40
0.5773500000000001
 41
3.926990816987244
 42
5.497787143782137
  0
ELLIPSE
  5
C19
330
1F
100
AcDbEntity
  8
HEWI
100
AcDbEllipse
 10
1724.276269207717
 20
1419.1045030772
 30
0.0014780657201751
 11
1.749999999999993
 21
-3.03108891324554
 31
0.0
210
0.0000000000000001
220
0.0
230
1.0
 40
0.5773500000000001
 41
6.24278606932204
 42
7.068583470577034
  0
ELLIPSE
  5
C1A
330
1F
100
AcDbEntity
  8
HEWI
100
AcDbEllipse
 10
1815.280911207717
 20
1565.0532670772
 30
0.0014780657201751
 11
10.49999999999996
 21
-18.18653347947323
 31
-0.0000000000000001
210
0.0000000000000001
220
0.0
230
1.0
 40
0.5773500000000001
 41
0.7853982079759429
 42
2.723466415931778
  0
ELLIPSE
  5
C1B
330
1F
100
AcDbEntity
  8
HEWI
100
AcDbEllipse
 10
1815.280911207717
 20
1565.0532670772
 30
0.0014780657201751
 11
10.49999999999996
 21
-18.18653347947323
 31
-0.0000000000000001
210
0.0000000000000001
220
0.0
230
1.0
 40
0.5773500000000001
 41
0.2743985194675122
 42
0.785398207975943
  0
ELLIPSE
  5
C1C
330
1F
100
AcDbEntity
  8
HEWI
100
AcDbEllipse
 10
1815.422333207718
 20
1565.1349170772
 30
0.0014780657201751
 11
-10.39999999999996
 21
18.01332839871635
 31
0.0000000000000001
210
0.0000000000000001
220
0.0
230
1.0
 40
0.5773500000000001
 41
3.926990855691212
 42
5.497787193948148
  0
ELLIPSE
  5
C1D
330
1F
100
AcDbEntity
  8
HEWI
100
AcDbEllipse
 10
2345.752419207718
 20
1134.1471950772
 30
0.0014780657201751
 11
8.100000000000013
 21
14.0296115413079
 31
-0.0000000000000008
210
0.0000000000000001
220
0.0
230
1.0
 40
0.5773500000000001
 41
0.0
 42
6.283185307179585
  0
ELLIPSE
  5
C1E
330
1F
100
AcDbEntity
  8
HEWI
100
AcDbEllipse
 10
2345.610997207717
 20
1134.2288450772
 30
0.0014780657201751
 11
-8.200000000000013
 21
-14.20281662206478
 31
0.0000000000000008
210
0.0000000000000001
220
0.0
230
1.0
 40
0.5773500000000001
 41
2.356194522953644
 42
5.497787239904765
  0
ELLIPSE
  5
C1F
330
1F
100
AcDbEntity
  8
HEWI
100
AcDbEllipse
 10
2345.610997207717
 20
1134.2288450772
 30
0.0014780657201751
 11
-8.200000000000013
 21
-14.20281662206478
 31
0.0000000000000008
210
0.0000000000000001
220
0.0
230
1.0
 40
0.5773500000000001
 41
5.497787090545674
 42
6.283185307179585
  0
ELLIPSE
  5
C20
330
1F
100
AcDbEntity
  8
HEWI
100
AcDbEllipse
 10
2345.610997207717
 20
1134.2288450772
 30
0.0014780657201751
 11
-8.200000000000013
 21
-14.20281662206478
 31
0.0000000000000008
210
0.0000000000000001
220
0.0
230
1.0
 40
0.5773500000000001
 41
0.0
 42
0.7853982166338525
  0
ELLIPSE
  5
C21
330
1F
100
AcDbEntity
  8
HEWI
100
AcDbEllipse
 10
1750.227087207718
 20
1527.4944230772
 30
0.0014780657201751
 11
-11.24999999999996
 21
19.48557158514989
 31
0.0000000000000001
210
0.0000000000000001
220
0.0
230
1.0
 40
0.5773500000000001
 41
3.141592633453015
 42
5.781512264351679
  0
ELLIPSE
  5
C22
330
1F
100
AcDbEntity
  8
HEWI
100
AcDbEllipse
 10
1750.227087207718
 20
1527.4944230772
 30
0.0014780657201751
 11
-11.24999999999996
 21
19.48557158514989
 31
0.0000000000000001
210
0.0000000000000001
220
0.0
230
1.0
 40
0.5773500000000001
 41
3.047344825601216
 42
3.141592633453016
  0
ELLIPSE
  5
C23
330
1F
100
AcDbEntity
  8
HEWI
100
AcDbEllipse
 10
1809.199793207717
 20
1561.5423310772
 30
0.0014780657201751
 11
11.24999999999996
 21
-19.48557158514989
 31
-0.0000000000000001
210
0.0000000000000001
220
0.0
230
1.0
 40
0.5773500000000001
 41
0.7853981768713063
 42
3.141592633453008
  0
ELLIPSE
  5
C24
330
1F
100
AcDbEntity
  8
HEWI
100
AcDbEllipse
 10
1809.199793207717
 20
1561.5423310772
 30
0.0014780657201751
 11
11.24999999999996
 21
-19.48557158514989
 31
-0.0000000000000001
210
0.0000000000000001
220
0.0
230
1.0
 40
0.5773500000000001
 41
0.0
 42
0.7853982053489418
  0
ELLIPSE
  5
C25
330
1F
100
AcDbEntity
  8
HEWI
100
AcDbEllipse
 10
1809.411925207718
 20
1561.6648050772
 30
0.0014780657201751
 11
-11.09999999999995
 21
19.22576396401456
 31
0.0000000000000001
210
0.0000000000000001
220
0.0
230
1.0
 40
0.5773500000000001
 41
3.920314964521928
 42
5.497787143023204
  0
ELLIPSE
  5
C26
330
1F
100
AcDbEntity
  8
HEWI
100
AcDbEllipse
 10
1750.014955207718
 20
1527.3719490772
 30
0.0014780657201751
 11
11.09999999999995
 21
-19.22576396401456
 31
-0.0000000000000001
210
0.0000000000000001
220
0.0
230
1.0
 40
0.5773500000000001
 41
0.7853981827559711
 42
2.520833618341038
  0
ELLIPSE
  5
C27
330
1F
100
AcDbEntity
  8
HEWI
100
AcDbEllipse
 10
1750.014955207718
 20
1527.3719490772
 30
0.0014780657201751
 11
11.09999999999995
 21
-19.22576396401456
 31
-0.0000000000000001
210
0.0000000000000001
220
0.0
230
1.0
 40
0.5773500000000001
 41
0.2714532781273649
 42
0.78539818275597
  0
ELLIPSE
  5
C28
330
1F
100
AcDbEntity
  8
HEWI
100
AcDbEllipse
 10
1813.301011207718
 20
1563.9101710772
 30
0.0014780657201751
 11
-11.19999999999995
 21
19.39896904477144
 31
0.0000000000000001
210
0.0000000000000001
220
0.0
230
1.0
 40
0.5773500000000001
 41
3.141592684533645
 42
5.497787143782139
  0
ELLIPSE
  5
C29
330
1F
100
AcDbEntity
  8
HEWI
100
AcDbEllipse
 10
1809.765477207718
 20
1561.8689290772
 30
0.0014780657201751
 11
11.19999999999995
 21
-19.39896904477144
 31
-0.0000000000000001
210
0.0000000000000001
220
0.0
230
1.0
 40
0.5773500000000001
 41
0.0634209679311333
 42
2.356194490192347
  0
ELLIPSE
  5
C2A
330
1F
100
AcDbEntity
  8
HEWI
100
AcDbEllipse
 10
1746.125867207717
 20
1525.1265830772
 30
0.0014780657201751
 11
11.19999999999995
 21
-19.39896904477144
 31
-0.0000000000000001
210
0.0000000000000001
220
0.0
230
1.0
 40
0.5773500000000001
 41
5.837717251296927
 42
8.639379797371931
  0
ELLIPSE
  5
C2B
330
1F
100
AcDbEntity
  8
HEWI
100
AcDbEllipse
 10
1749.661401207718
 20
1527.1678250772
 30
0.0014780657201751
 11
-11.19999999999995
 21
19.39896904477144
 31
0.0000000000000001
210
0.0000000000000001
220
0.0
230
1.0
 40
0.5773500000000001
 41
3.141592684533646
 42
5.497787143782138
  0
ELLIPSE
  5
C2C
330
1F
100
AcDbEntity
  8
HEWI
100
AcDbEllipse
 10
1725.549061207718
 20
1515.8593470772
 30
0.0014780657201751
 11
-1.749999999999993
 21
3.03108891324554
 31
0.0
210
0.0000000000000001
220
0.0
230
1.0
 40
0.5773500000000001
 41
5.497787143782139
 42
7.068583470577037
  0
ELLIPSE
  5
C2D
330
1F
100
AcDbEntity
  8
HEWI
100
AcDbEllipse
 10
1725.549061207718
 20
1558.1538710772
 30
0.0014780657201751
 11
-1.749999999999993
 21
3.03108891324554
 31
0.0
210
0.0000000000000001
220
0.0
230
1.0
 40
0.5773500000000001
 41
0.785398163397452
 42
2.356194490192347
  0
ELLIPSE
  5
C2E
330
1F
100
AcDbEntity
  8
HEWI
100
AcDbEllipse
 10
1729.084595207718
 20
1560.1951110772
 30
0.0014780657201751
 11
1.749999999999993
 21
-3.03108891324554
 31
0.0
210
0.0000000000000001
220
0.0
230
1.0
 40
0.5773500000000001
 41
3.926990816987244
 42
5.497787143782141
  0
ELLIPSE
  5
C2F
330
1F
100
AcDbEntity
  8
HEWI
100
AcDbEllipse
 10
1792.724205207718
 20
1596.937457077199
 30
0.0014780657201751
 11
1.749999999999993
 21
-3.03108891324554
 31
0.0
210
0.0000000000000001
220
0.0
230
1.0
 40
0.5773500000000001
 41
3.926990816987247
 42
5.497787143782136
  0
ELLIPSE
  5
C30
330
1F
100
AcDbEntity
  8
HEWI
100
AcDbEllipse
 10
1789.188671207718
 20
1594.8962170772
 30
0.0014780657201751
 11
-1.749999999999993
 21
3.03108891324554
 31
0.0
210
0.0000000000000001
220
0.0
230
1.0
 40
0.5773500000000001
 41
0.7853981633974559
 42
2.356194490192345
  0
ELLIPSE
  5
C31
330
1F
100
AcDbEntity
  8
HEWI
100
AcDbEllipse
 10
1720.599313207718
 20
1416.9816110772
 30
0.0014780657201751
 11
1.749999999999993
 21
-3.03108891324554
 31
0.0
210
0.0000000000000001
220
0.0
230
1.0
 40
0.5773500000000001
 41
5.497787143782137
 42
7.068583470577027
  0
ELLIPSE
  5
C32
330
1F
100
AcDbEntity
  8
HEWI
100
AcDbEllipse
 10
1724.134847207718
 20
1419.022853077199
 30
0.0014780657201751
 11
-1.749999999999993
 21
3.03108891324554
 31
0.0
210
0.0000000000000001
220
0.0
230
1.0
 40
0.5773500000000001
 41
3.141592572267125
 42
3.926990816987246
  0
ELLIPSE
  5
C33
330
1F
100
AcDbEntity
  8
HEWI
100
AcDbEllipse
 10
1787.774457207717
 20
1621.514005077199
 30
0.0014780657201751
 11
-1.749999999999993
 21
3.03108891324554
 31
0.0
210
0.0000000000000001
220
0.0
230
1.0
 40
0.5773500000000001
 41
3.926990816987244
 42
5.497787143782137
  0
ELLIPSE
  5
C34
330
1F
100
AcDbEntity
  8
HEWI
100
AcDbEllipse
 10
1784.238923207718
 20
1619.4727630772
 30
0.0014780657201751
 11
1.749999999999993
 21
-3.03108891324554
 31
0.0
210
0.0000000000000001
220
0.0
230
1.0
 40
0.5773500000000001
 41
0.7853981633974458
 42
2.356194490192355
  0
ELLIPSE
  5
C35
330
1F
100
AcDbEntity
  8
HEWI
100
AcDbEllipse
 10
1720.599313207718
 20
1582.7304170772
 30
0.0014780657201751
 11
1.749999999999993
 21
-3.03108891324554
 31
0.0
210
0.0000000000000001
220
0.0
230
1.0
 40
0.5773500000000001
 41
0.7853981633974496
 42
2.356194490192345
  0
ELLIPSE
  5
C36
330
1F
100
AcDbEntity
  8
HEWI
100
AcDbEllipse
 10
1724.134847207718
 20
1584.7716590772
 30
0.0014780657201751
 11
-1.749999999999993
 21
3.03108891324554
 31
0.0
210
0.0000000000000001
220
0.0
230
1.0
 40
0.5773500000000001
 41
3.926990816987244
 42
5.497787143782139
  0
SPLINE
  5
C37
330
1F
100
AcDbEntity
  8
HEWI
100
AcDbSpline
210
0.0
220
0.0
230
1.0
 70
     8
 71
     3
 72
    16
 73
    12
 74
     0
 42
0.000000001
 43
0.0000000001
 40
0.0
 40
0.0
 40
0.0
 40
0.0
 40
0.1945552639644181
 40
0.1945552639644181
 40
0.3878946385599309
 40
0.3878946385599309
 40
0.5892372746630532
 40
0.5892372746630532
 40
0.8080348914056749
 40
0.8080348914056749
 40
1.0
 40
1.0
 40
1.0
 40
1.0
 10
227.837506905098
 20
1516.20419159892
 30
0.0
 10
227.837488524463
 20
1516.204183710177
 30
0.0
 10
227.8036751074505
 20
1516.189671407487
 30
0.0
 10
227.6759073798362
 20
1516.135993368825
 30
0.0
 10
227.5808518022368
 20
1516.096423877249
 30
0.0
 10
227.3400094746221
 20
1515.999449729664
 30
0.0
 10
227.1893725511063
 20
1515.940270058265
 30
0.0
 10
226.8410986231261
 20
1515.809464384966
 30
0.0
 10
226.6358512771112
 20
1515.735518786084
 30
0.0
 10
226.2339550816732
 20
1515.598857566344
 30
0.0
 10
226.0352513462162
 20
1515.534497530915
 30
0.0
 10
225.8374977147805
 20
1515.473842699345
 30
0.0
  0
SPLINE
  5
C38
330
1F
100
AcDbEntity
  8
HEWI
100
AcDbSpline
210
0.0
220
0.0
230
1.0
 70
     8
 71
     3
 72
    16
 73
    12
 74
     0
 42
0.000000001
 43
0.0000000001
 40
0.0
 40
0.0
 40
0.0
 40
0.0
 40
0.2320133565498035
 40
0.2320133565498035
 40
0.464168575931434
 40
0.464168575931434
 40
0.6954789313312828
 40
0.6954789313312828
 40
0.9117015930972556
 40
0.9117015930972556
 40
1.0
 40
1.0
 40
1.0
 40
1.0
 10
214.8374977147805
 20
1515.473842699345
 30
0.0
 10
214.5994240395244
 20
1515.546864461671
 30
0.0
 10
214.3594624006328
 20
1515.625493881312
 30
0.0
 10
213.9156362585686
 20
1515.779394507718
 30
0.0
 10
213.7052929969723
 20
1515.85685938381
 30
0.0
 10
213.3450480976271
 20
1515.994958993771
 30
0.0
 10
213.1894569067049
 20
1516.057646658569
 30
0.0
 10
212.9670366923037
 20
1516.149125045147
 30
0.0
 10
212.8920238883729
 20
1516.180997442822
 30
0.0
 10
212.8446695728171
 20
1516.201125071682
 30
0.0
 10
212.8375805970045
 20
1516.204152260655
 30
0.0
 10
212.8375069438216
 20
1516.20418371324
 30
0.0
  0
SPLINE
  5
C3C
330
1F
100
AcDbEntity
  8
HEWI
100
AcDbSpline
210
0.0
220
0.0
230
1.0
 70
     8
 71
     3
 72
    12
 73
     8
 74
     0
 42
0.000000001
 43
0.0000000001
 40
0.0
 40
0.0
 40
0.0
 40
0.0
 40
0.3456277780081103
 40
0.3456277780081103
 40
0.6912555560162207
 40
0.6912555560162207
 40
1.0
 40
1.0
 40
1.0
 40
1.0
 10
203.3374976985697
 20
1531.612383526828
 30
0.0
 10
203.3374976985697
 20
1529.253946300142
 30
0.0
 10
203.8362531807579
 20
1526.95257869139
 30
0.0
 10
205.6036123730096
 20
1522.842122700933
 30
0.0
 10
206.8653354864896
 20
1521.027479186993
 30
0.0
 10
209.7325404956464
 20
1518.190121971407
 30
0.0
 10
211.2810548351685
 20
1517.093594320753
 30
0.0
 10
213.0287583978879
 20
1516.263302384522
 30
0.0
  0
SPLINE
  5
C3D
330
1F
100
AcDbEntity
  8
HEWI
100
AcDbSpline
210
0.0
220
0.0
230
1.0
 70
     8
 71
     3
 72
     8
 73
     4
 74
     0
 42
0.000000001
 43
0.0000000001
 40
0.0
 40
0.0
 40
0.0
 40
0.0
 40
1.0
 40
1.0
 40
1.0
 40
1.0
 10
227.0916579439245
 20
1516.011684841277
 30
0.0
 10
227.2637228878461
 20
1516.086137684621
 30
0.0
 10
227.4339618606623
 20
1516.163101924896
 30
0.0
 10
227.602371395229
 20
1516.242547986441
 30
0.0
  0
SPLINE
  5
C3E
330
1F
100
AcDbEntity
  8
HEWI
100
AcDbSpline
210
0.0
220
0.0
230
1.0
 70
     8
 71
     3
 72
    22
 73
    18
 74
     0
 42
0.000000001
 43
0.0000000001
 40
0.0
 40
0.0
 40
0.0
 40
0.0
 40
0.1261546713333348
 40
0.1261546713333348
 40
0.271709779130951
 40
0.271709779130951
 40
0.4172648869285672
 40
0.4172648869285672
 40
0.5628199947261832
 40
0.5628199947261832
 40
0.7083751025237993
 40
0.7083751025237993
 40
0.8539302103214152
 40
0.8539302103214152
 40
0.9994853181190311
 40
0.9994853181190311
 40
1.0
 40
1.0
 40
1.0
 40
1.0
 10
227.7579820845863
 20
1516.31691379939
 30
0.0
 10
229.4487413292531
 20
1517.135386946236
 30
0.0
 10
230.952494598404
 20
1518.206470698611
 30
0.0
 10
233.7807716656957
 20
1520.991645920337
 30
0.0
 10
235.0460617096492
 20
1522.800027025035
 30
0.0
 10
236.8245201641725
 20
1526.903076507595
 30
0.0
 10
237.3294605996389
 20
1529.224294891692
 30
0.0
 10
237.3453374917694
 20
1533.884641463206
 30
0.0
 10
236.8528303215285
 20
1536.228261079515
 30
0.0
 10
235.0833600975211
 20
1540.36578739844
 30
0.0
 10
233.8206198425005
 20
1542.18307514602
 30
0.0
 10
230.7969121690208
 20
1545.182009645168
 30
0.0
 10
229.022372513517
 20
1546.387424275797
 30
0.0
 10
225.0236096139806
 20
1548.09780844708
 30
0.0
 10
222.7015042352304
 20
1548.608951450131
 30
0.0
 10
220.3540371767149
 20
1548.612377493343
 30
0.0
 10
220.3457663585241
 20
1548.612383347676
 30
0.0
 10
220.3374961125119
 20
1548.612382990603
 30
0.0
  0
SPLINE
  5
C3F
330
1F
100
AcDbEntity
  8
HEWI
100
AcDbSpline
210
0.0
220
0.0
230
1.0
 70
     8
 71
     3
 72
    14
 73
    10
 74
     0
 42
0.000000001
 43
0.0000000001
 40
0.0
 40
0.0
 40
0.0
 40
0.0
 40
0.2493364146684839
 40
0.2493364146684839
 40
0.4995576097789893
 40
0.4995576097789893
 40
0.7497788048894947
 40
0.7497788048894947
 40
1.0
 40
1.0
 40
1.0
 40
1.0
 10
220.3374961130403
 20
1548.612382990603
 30
0.0
 10
218.0068914259564
 20
1548.612282365523
 30
0.0
 10
215.7217260800075
 20
1548.11890541061
 30
0.0
 10
211.6918399368642
 20
1546.412962289136
 30
0.0
 10
209.9285585456696
 20
1545.22250505373
 30
0.0
 10
206.8796805071811
 20
1542.217503927323
 30
0.0
 10
205.6355792140084
 20
1540.441826100422
 30
0.0
 10
203.839651235684
 20
1536.294960314679
 30
0.0
 10
203.3374976985697
 20
1533.970820753514
 30
0.0
 10
203.3374976985697
 20
1531.612383526828
 30
0.0
  0
SPLINE
  5
C40
330
1F
100
AcDbEntity
  8
HEWI
100
AcDbSpline
210
0.0000000000000001
220
0.0000000000000013
230
1.0
 70
     8
 71
     3
 72
    10
 73
     6
 74
     0
 42
0.000000001
 43
0.0000000001
 40
0.0
 40
0.0
 40
0.0
 40
0.0
 40
0.0691533484577913
 40
0.5486690255593603
 40
1.0
 40
1.0
 40
1.0
 40
1.0
 10
1254.691774893298
 20
1527.690787286521
 30
-0.0000000000000002
 10
1254.671871186009
 20
1527.701420531254
 30
-0.0000000000000002
 10
1254.508726012962
 20
1527.782607107627
 30
-0.0000000000000002
 10
1254.069749109274
 20
1527.875582405024
 30
-0.0000000000000004
 10
1253.66108599904
 20
1527.905858688515
 30
-0.0000000000000004
 10
1253.445057164088
 20
1527.904865849874
 30
-0.0000000000000004
  0
SPLINE
  5
C41
330
1F
100
AcDbEntity
  8
HEWI
100
AcDbSpline
210
0.0000000000000001
220
0.0000000000000013
230
1.0
 70
     8
 71
     3
 72
    10
 73
     6
 74
     0
 42
0.000000001
 43
0.0000000001
 40
0.0
 40
0.0
 40
0.0
 40
0.0
 40
0.0691533484577913
 40
0.5486690255593603
 40
1.0
 40
1.0
 40
1.0
 40
1.0
 10
1254.691774893298
 20
1527.690787286521
 30
-0.0000000000000002
 10
1254.671871186009
 20
1527.701420531254
 30
-0.0000000000000002
 10
1254.508726012962
 20
1527.782607107627
 30
-0.0000000000000002
 10
1254.069749109274
 20
1527.875582405024
 30
-0.0000000000000004
 10
1253.66108599904
 20
1527.905858688515
 30
-0.0000000000000004
 10
1253.445057164088
 20
1527.904865849874
 30
-0.0000000000000004
  0
SPLINE
  5
C42
330
1F
100
AcDbEntity
  8
HEWI
100
AcDbSpline
210
0.0
220
0.0
230
1.0
 70
     8
 71
     3
 72
    11
 73
     7
 74
     0
 42
0.000000001
 43
0.0000000001
 40
0.0
 40
0.0
 40
0.0
 40
0.0
 40
0.0085407042298158
 40
0.294495578516009
 40
0.6285837272446312
 40
1.0
 40
1.0
 40
1.0
 40
1.0
 10
1255.443971727722
 20
1526.981232906142
 30
-0.0000000000000002
 10
1255.444720396764
 20
1526.983874069551
 30
-0.0000000000000002
 10
1255.469307919851
 20
1527.074790361509
 30
-0.0000000000000002
 10
1255.358156857775
 20
1527.271386434436
 30
-0.0000000000000002
 10
1255.133405684128
 20
1527.496004762344
 30
-0.0000000000000002
 10
1254.860361070801
 20
1527.63073986249
 30
-0.0000000000000002
 10
1254.691774893298
 20
1527.690787286521
 30
-0.0000000000000002
  0
SPLINE
  5
C43
330
1F
100
AcDbEntity
  8
HEWI
100
AcDbSpline
210
0.0
220
0.0
230
1.0
 70
     8
 71
     3
 72
    12
 73
     8
 74
     0
 42
0.000000001
 43
0.0000000001
 40
0.0
 40
0.0
 40
0.0
 40
0.0
 40
0.129584674490289
 40
0.3660981216981058
 40
0.6122957521584437
 40
0.8793126725148667
 40
1.0
 40
1.0
 40
1.0
 40
1.0
 10
1217.177590324242
 20
1527.888160519589
 30
0.0
 10
1217.051305131237
 20
1527.885112683551
 30
0.0
 10
1216.710847222819
 20
1527.860558946039
 30
0.0
 10
1216.201482130488
 20
1527.718220424974
 30
0.0
 10
1215.744905901804
 20
1527.487137745947
 30
0.0
 10
1215.47840224839
 20
1527.24451365671
 30
0.0
 10
1215.463499649451
 20
1527.044279861846
 30
0.0
 10
1215.469541120521
 20
1526.978112383031
 30
0.0
  0
SPLINE
  5
C44
330
1F
100
AcDbEntity
  8
HEWI
100
AcDbSpline
210
0.0000000000000001
220
0.0000000000000013
230
1.0
 70
     8
 71
     3
 72
    10
 73
     6
 74
     0
 42
0.000000001
 43
0.0000000001
 40
0.0
 40
0.0
 40
0.0
 40
0.0
 40
0.0691533484577662
 40
0.5486690255593675
 40
1.0
 40
1.0
 40
1.0
 40
1.0
 10
735.6917748932978
 20
1527.690787286521
 30
0.0
 10
735.6718711860089
 20
1527.701420531254
 30
0.0
 10
735.5087260129626
 20
1527.782607107628
 30
-0.0000000000000002
 10
735.0697491092746
 20
1527.875582405024
 30
-0.0000000000000002
 10
734.66108599904
 20
1527.905858688515
 30
-0.0000000000000002
 10
734.4450571640886
 20
1527.904865849874
 30
-0.0000000000000002
  0
SPLINE
  5
C45
330
1F
100
AcDbEntity
  8
HEWI
100
AcDbSpline
210
0.0000000000000001
220
0.0000000000000013
230
1.0
 70
     8
 71
     3
 72
    10
 73
     6
 74
     0
 42
0.000000001
 43
0.0000000001
 40
0.0
 40
0.0
 40
0.0
 40
0.0
 40
0.0691533484577662
 40
0.5486690255593675
 40
1.0
 40
1.0
 40
1.0
 40
1.0
 10
735.6917748932978
 20
1527.690787286521
 30
0.0
 10
735.6718711860089
 20
1527.701420531254
 30
0.0
 10
735.5087260129626
 20
1527.782607107628
 30
-0.0000000000000002
 10
735.0697491092746
 20
1527.875582405024
 30
-0.0000000000000002
 10
734.66108599904
 20
1527.905858688515
 30
-0.0000000000000002
 10
734.4450571640886
 20
1527.904865849874
 30
-0.0000000000000002
  0
SPLINE
  5
C46
330
1F
100
AcDbEntity
  8
HEWI
100
AcDbSpline
210
0.0
220
0.0
230
1.0
 70
     8
 71
     3
 72
    11
 73
     7
 74
     0
 42
0.000000001
 43
0.0000000001
 40
0.0
 40
0.0
 40
0.0
 40
0.0
 40
0.0085407042298183
 40
0.2944955785160063
 40
0.6285837272446197
 40
1.0
 40
1.0
 40
1.0
 40
1.0
 10
736.4439717277223
 20
1526.981232906142
 30
0.0
 10
736.4447203967634
 20
1526.983874069551
 30
0.0
 10
736.4693079198501
 20
1527.074790361509
 30
0.0
 10
736.3581568577751
 20
1527.271386434436
 30
0.0
 10
736.1334056841274
 20
1527.496004762344
 30
0.0
 10
735.8603610708009
 20
1527.63073986249
 30
0.0
 10
735.6917748932978
 20
1527.690787286521
 30
0.0
  0
SPLINE
  5
C47
330
1F
100
AcDbEntity
  8
HEWI
100
AcDbSpline
210
0.0
220
0.0
230
1.0
 70
     8
 71
     3
 72
    12
 73
     8
 74
     0
 42
0.000000001
 43
0.0000000001
 40
0.0
 40
0.0
 40
0.0
 40
0.0
 40
0.1295846744902901
 40
0.3660981216981005
 40
0.6122957521584405
 40
0.8793126725148658
 40
1.0
 40
1.0
 40
1.0
 40
1.0
 10
698.1775903242419
 20
1527.888160519589
 30
0.0000000000000002
 10
698.0513051312368
 20
1527.885112683551
 30
0.0000000000000002
 10
697.7108472228187
 20
1527.860558946039
 30
0.0000000000000002
 10
697.201482130487
 20
1527.718220424974
 30
0.0000000000000002
 10
696.7449059018049
 20
1527.487137745947
 30
0.0000000000000002
 10
696.4784022483895
 20
1527.24451365671
 30
0.0000000000000002
 10
696.4634996494519
 20
1527.044279861846
 30
0.0000000000000002
 10
696.4695411205216
 20
1526.978112383031
 30
0.0000000000000002
  0
SPLINE
  5
C48
330
1F
100
AcDbEntity
  8
HEWI
100
AcDbSpline
210
0.0000000000000001
220
-0.0000000000000006
230
1.0
 70
     8
 71
     3
 72
    16
 73
    12
 74
     0
 42
0.000000001
 43
0.0000000001
 40
0.0
 40
0.0
 40
0.0
 40
0.0
 40
0.0127710530080071
 40
0.0127710530080071
 40
0.298714081222836
 40
0.298714081222836
 40
0.5432081856598872
 40
0.5432081856598872
 40
0.7705827780638037
 40
0.7705827780638037
 40
1.0
 40
1.0
 40
1.0
 40
1.0
 10
736.1367117201439
 20
1451.723092557455
 30
0.0
 10
736.133667792717
 20
1451.718585366894
 30
0.0
 10
736.1305631044411
 20
1451.714080726685
 30
0.0
 10
736.0563721824988
 20
1451.608566228314
 30
0.0
 10
735.9533441509106
 20
1451.506721085021
 30
0.0
 10
735.7123229446046
 20
1451.333105137088
 30
0.0
 10
735.5791192701239
 20
1451.257539506046
 30
-0.0000000000000002
 10
735.2901615066562
 20
1451.134834392797
 30
-0.0000000000000002
 10
735.133500920841
 20
1451.084986936481
 30
-0.0000000000000002
 10
734.8021807222835
 20
1451.016634411838
 30
-0.0000000000000002
 10
734.622974603058
 20
1450.99782016973
 30
-0.0000000000000002
 10
734.4461715964375
 20
1450.99782016973
 30
-0.0000000000000002
  0
SPLINE
  5
C49
330
1F
100
AcDbEntity
  8
HEWI
100
AcDbSpline
210
-0.0000000000000002
220
-0.0000000000000002
230
1.0
 70
     8
 71
     3
 72
    16
 73
    12
 74
     0
 42
0.000000001
 43
0.0000000001
 40
0.0
 40
0.0
 40
0.0
 40
0.0
 40
0.2318639328501264
 40
0.2318639328501264
 40
0.4638696371680758
 40
0.4638696371680758
 40
0.6950310216224952
 40
0.6950310216224952
 40
0.9111144293793211
 40
0.9111144293793211
 40
1.0
 40
1.0
 40
1.0
 40
1.0
 10
736.4461715964376
 20
1526.980632842106
 30
0.0
 10
736.4461715964376
 20
1527.053654604433
 30
0.0
 10
736.4025904698105
 20
1527.132284024073
 30
0.0
 10
736.2367900919366
 20
1527.28618465048
 30
0.0
 10
736.1121214401523
 20
1527.363649526571
 30
0.0
 10
735.7986966874291
 20
1527.501749136532
 30
0.0
 10
735.6051375369638
 20
1527.56443680133
 30
0.0
 10
735.189938810498
 20
1527.655915187908
 30
-0.0000000000000002
 10
734.9645319908136
 20
1527.687787585583
 30
-0.0000000000000002
 10
734.6399707567675
 20
1527.70795824169
 30
-0.0000000000000002
 10
734.5429231430066
 20
1527.71097779731
 30
-0.0000000000000002
 10
734.4461715964375
 20
1527.71097779731
 30
-0.0000000000000002
  0
SPLINE
  5
C4A
330
1F
100
AcDbEntity
  8
HEWI
100
AcDbSpline
210
-0.0000000000000002
220
0.0000000000000002
230
1.0
 70
     8
 71
     3
 72
    16
 73
    12
 74
     0
 42
0.000000001
 43
0.0000000001
 40
0.0
 40
0.0
 40
0.0
 40
0.0
 40
0.1771404143545236
 40
0.1771404143545236
 40
0.3522186943510297
 40
0.3522186943510297
 40
0.539954319336339
 40
0.539954319336339
 40
0.7594025013289695
 40
0.7594025013289695
 40
1.0
 40
1.0
 40
1.0
 40
1.0
 10
734.4461715964375
 20
1451.161478513752
 30
-0.0000000000000002
 10
734.6425234061885
 20
1451.161478513752
 30
-0.0000000000000002
 10
734.8414919861866
 20
1451.180547508312
 30
-0.0000000000000002
 10
735.2095710984908
 20
1451.249983403262
 30
-0.0000000000000002
 10
735.3836778056924
 20
1451.300583868182
 30
-0.0000000000000002
 10
735.704795242736
 20
1451.425272942182
 30
0.0
 10
735.8529135049752
 20
1451.502066834775
 30
0.0
 10
736.1208279448933
 20
1451.678535133636
 30
0.0
 10
736.2353499058704
 20
1451.782083051289
 30
0.0
 10
736.4004595176079
 20
1451.996801788418
 30
0.0
 10
736.4461715964376
 20
1452.110770853377
 30
0.0
 10
736.4461715964376
 20
1452.216444085343
 30
0.0
  0
SPLINE
  5
C4B
330
1F
100
AcDbEntity
  8
HEWI
100
AcDbSpline
210
0.0
220
0.0
230
1.0
 70
     8
 71
     3
 72
    16
 73
    12
 74
     0
 42
0.000000001
 43
0.0000000001
 40
0.0
 40
0.0
 40
0.0
 40
0.0
 40
0.1945552639644179
 40
0.1945552639644179
 40
0.3878946385599321
 40
0.3878946385599321
 40
0.5892372746630514
 40
0.5892372746630514
 40
0.8080348914056751
 40
0.8080348914056751
 40
1.0
 40
1.0
 40
1.0
 40
1.0
 10
698.4461715964376
 20
1527.71097779731
 30
0.0000000000000002
 10
698.2371543884578
 20
1527.71097779731
 30
0.0000000000000002
 10
698.0253264459657
 20
1527.696461550249
 30
0.0000000000000002
 10
697.6320598921661
 20
1527.642783511586
 30
0.0000000000000002
 10
697.4453195079473
 20
1527.603214020009
 30
0.0000000000000002
 10
697.1094125745034
 20
1527.506239872425
 30
0.0000000000000002
 10
696.9577450752827
 20
1527.447060201026
 30
0.0000000000000002
 10
696.7016356277695
 20
1527.316254527727
 30
0.0000000000000002
 10
696.5988486076899
 20
1527.242308928846
 30
0.0000000000000002
 10
696.4760154548262
 20
1527.105647709105
 30
0.0000000000000002
 10
696.4461715964375
 20
1527.041287673676
 30
0.0000000000000002
 10
696.4461715964375
 20
1526.980632842106
 30
0.0000000000000002
  0
SPLINE
  5
C4C
330
1F
100
AcDbEntity
  8
HEWI
100
AcDbSpline
210
0.0
220
0.0
230
1.0
 70
     8
 71
     3
 72
    16
 73
    12
 74
     0
 42
0.000000001
 43
0.0000000001
 40
0.0
 40
0.0
 40
0.0
 40
0.0
 40
0.2481016251448624
 40
0.2481016251448624
 40
0.4963851440995061
 40
0.4963851440995061
 40
0.7438538839225557
 40
0.7438538839225557
 40
0.9181884979193776
 40
0.9181884979193776
 40
1.0
 40
1.0
 40
1.0
 40
1.0
 10
696.4461715964375
 20
1452.216444085343
 30
0.0000000000000002
 10
696.4461715964375
 20
1452.107456123327
 30
0.0000000000000002
 10
696.4948550936237
 20
1451.989578089126
 30
0.0000000000000002
 10
696.6781899944931
 20
1451.758204662897
 30
0.0000000000000002
 10
696.8156332752528
 20
1451.641201615372
 30
0.0000000000000002
 10
697.1630477692865
 20
1451.433479816703
 30
0.0000000000000002
 10
697.379425324561
 20
1451.339266688294
 30
0.0000000000000002
 10
697.7917908124295
 20
1451.224929310718
 30
0.0000000000000002
 10
697.9798539092776
 20
1451.190196417928
 30
0.0000000000000002
 10
698.2619547096078
 20
1451.165528748739
 30
0.0000000000000002
 10
698.3542118612099
 20
1451.161478513752
 30
0.0000000000000002
 10
698.4461715964376
 20
1451.161478513752
 30
0.0000000000000002
  0
SPLINE
  5
C4D
330
1F
100
AcDbEntity
  8
HEWI
100
AcDbSpline
210
0.0
220
0.0
230
1.0
 70
     8
 71
     3
 72
    16
 73
    12
 74
     0
 42
0.000000001
 43
0.0000000001
 40
0.0
 40
0.0
 40
0.0
 40
0.0
 40
0.1053123592843669
 40
0.1053123592843669
 40
0.3301327988397534
 40
0.3301327988397534
 40
0.6504275187068417
 40
0.6504275187068417
 40
0.9722491720567552
 40
0.9722491720567552
 40
1.0
 40
1.0
 40
1.0
 40
1.0
 10
698.4461715964376
 20
1450.99782016973
 30
0.0000000000000002
 10
698.3633986554191
 20
1450.99782016973
 30
0.0000000000000002
 10
698.2803498226281
 20
1451.00180916288
 30
0.0000000000000002
 10
698.0262748961763
 20
1451.026105980206
 30
0.0000000000000002
 10
697.8569668828781
 20
1451.060351189767
 30
0.0000000000000002
 10
697.4856430616514
 20
1451.172947072497
 30
0.0000000000000002
 10
697.2911286820749
 20
1451.265689341105
 30
0.0000000000000002
 10
696.9786711020419
 20
1451.469999042397
 30
0.0000000000000002
 10
696.8550557610337
 20
1451.585055748533
 30
0.0000000000000002
 10
696.7653445800793
 20
1451.708872294915
 30
0.0000000000000002
 10
696.7585088867049
 20
1451.718720700452
 30
0.0000000000000002
 10
696.751964001844
 20
1451.728579715353
 30
0.0000000000000002
  0
SPLINE
  5
C4E
330
1F
100
AcDbEntity
  8
HEWI
100
AcDbSpline
210
0.0
220
0.0
230
1.0
 70
     8
 71
     3
 72
     8
 73
     4
 74
     0
 42
0.000000001
 43
0.0000000001
 40
0.0
 40
0.0
 40
0.0
 40
0.0
 40
1.0
 40
1.0
 40
1.0
 40
1.0
 10
698.1873342103722
 20
1527.882872119612
 30
0.0000000000000002
 10
698.2731274119046
 20
1527.888701517306
 30
0.0000000000000002
 10
698.3599171064038
 20
1527.89171909785
 30
0.0000000000000002
 10
698.4461715964376
 20
1527.89171909785
 30
0.0000000000000002
  0
SPLINE
  5
C4F
330
1F
100
AcDbEntity
  8
HEWI
100
AcDbSpline
210
-0.0000000000000002
220
0.0000000000000002
230
1.0
 70
     8
 71
     3
 72
    16
 73
    12
 74
     0
 42
0.000000001
 43
0.0000000001
 40
0.0
 40
0.0
 40
0.0
 40
0.0
 40
0.1771404143545236
 40
0.1771404143545236
 40
0.3522186943510297
 40
0.3522186943510297
 40
0.539954319336339
 40
0.539954319336339
 40
0.7594025013289695
 40
0.7594025013289695
 40
1.0
 40
1.0
 40
1.0
 40
1.0
 10
1253.446171596438
 20
1451.161478513752
 30
-0.0000000000000004
 10
1253.642523406188
 20
1451.161478513752
 30
-0.0000000000000004
 10
1253.841491986186
 20
1451.180547508312
 30
-0.0000000000000004
 10
1254.209571098491
 20
1451.249983403262
 30
-0.0000000000000004
 10
1254.383677805692
 20
1451.300583868182
 30
-0.0000000000000004
 10
1254.704795242736
 20
1451.425272942182
 30
-0.0000000000000002
 10
1254.852913504976
 20
1451.502066834775
 30
-0.0000000000000002
 10
1255.120827944893
 20
1451.678535133636
 30
-0.0000000000000002
 10
1255.235349905871
 20
1451.782083051289
 30
-0.0000000000000002
 10
1255.400459517608
 20
1451.996801788418
 30
-0.0000000000000002
 10
1255.446171596437
 20
1452.110770853377
 30
-0.0000000000000002
 10
1255.446171596437
 20
1452.216444085342
 30
-0.0000000000000002
  0
SPLINE
  5
C50
330
1F
100
AcDbEntity
  8
HEWI
100
AcDbSpline
210
-0.0000000000000002
220
0.0000000000000003
230
1.0
 70
     8
 71
     3
 72
    16
 73
    12
 74
     0
 42
0.000000001
 43
0.0000000001
 40
0.0
 40
0.0
 40
0.0
 40
0.0
 40
0.012771053008153
 40
0.012771053008153
 40
0.2987140812229396
 40
0.2987140812229396
 40
0.5432081856599547
 40
0.5432081856599547
 40
0.7705827780638374
 40
0.7705827780638374
 40
1.0
 40
1.0
 40
1.0
 40
1.0
 10
1255.136711720144
 20
1451.723092557455
 30
-0.0000000000000002
 10
1255.133667792717
 20
1451.718585366894
 30
-0.0000000000000002
 10
1255.130563104441
 20
1451.714080726685
 30
-0.0000000000000002
 10
1255.056372182498
 20
1451.608566228314
 30
-0.0000000000000002
 10
1254.953344150911
 20
1451.506721085021
 30
-0.0000000000000002
 10
1254.712322944605
 20
1451.333105137088
 30
-0.0000000000000002
 10
1254.579119270124
 20
1451.257539506046
 30
-0.0000000000000002
 10
1254.290161506656
 20
1451.134834392797
 30
-0.0000000000000004
 10
1254.133500920842
 20
1451.084986936481
 30
-0.0000000000000004
 10
1253.802180722283
 20
1451.016634411838
 30
-0.0000000000000004
 10
1253.622974603058
 20
1450.99782016973
 30
-0.0000000000000004
 10
1253.446171596438
 20
1450.99782016973
 30
-0.0000000000000004
  0
SPLINE
  5
C51
330
1F
100
AcDbEntity
  8
HEWI
100
AcDbSpline
210
0.0
220
0.0
230
1.0
 70
     8
 71
     3
 72
    16
 73
    12
 74
     0
 42
0.000000001
 43
0.0000000001
 40
0.0
 40
0.0
 40
0.0
 40
0.0
 40
0.1053123592843732
 40
0.1053123592843732
 40
0.3301327988397731
 40
0.3301327988397731
 40
0.6504275187068806
 40
0.6504275187068806
 40
0.9722491720568132
 40
0.9722491720568132
 40
1.0
 40
1.0
 40
1.0
 40
1.0
 10
1217.446171596437
 20
1450.99782016973
 30
0.0
 10
1217.363398655419
 20
1450.99782016973
 30
0.0
 10
1217.280349822628
 20
1451.00180916288
 30
0.0
 10
1217.026274896176
 20
1451.026105980206
 30
0.0
 10
1216.856966882878
 20
1451.060351189767
 30
0.0
 10
1216.485643061651
 20
1451.172947072497
 30
0.0
 10
1216.291128682075
 20
1451.265689341105
 30
0.0
 10
1215.978671102043
 20
1451.469999042397
 30
0.0
 10
1215.855055761035
 20
1451.585055748533
 30
0.0
 10
1215.765344580079
 20
1451.708872294915
 30
0.0
 10
1215.758508886704
 20
1451.718720700452
 30
0.0
 10
1215.751964001845
 20
1451.728579715353
 30
0.0
  0
SPLINE
  5
C52
330
1F
100
AcDbEntity
  8
HEWI
100
AcDbSpline
210
0.0
220
0.0
230
1.0
 70
     8
 71
     3
 72
    16
 73
    12
 74
     0
 42
0.000000001
 43
0.0000000001
 40
0.0
 40
0.0
 40
0.0
 40
0.0
 40
0.1945552639644179
 40
0.1945552639644179
 40
0.3878946385599321
 40
0.3878946385599321
 40
0.5892372746630514
 40
0.5892372746630514
 40
0.8080348914056751
 40
0.8080348914056751
 40
1.0
 40
1.0
 40
1.0
 40
1.0
 10
1217.446171596437
 20
1527.71097779731
 30
0.0
 10
1217.237154388459
 20
1527.71097779731
 30
0.0
 10
1217.025326445966
 20
1527.696461550249
 30
0.0
 10
1216.632059892167
 20
1527.642783511586
 30
0.0
 10
1216.445319507948
 20
1527.603214020009
 30
0.0
 10
1216.109412574504
 20
1527.506239872425
 30
0.0
 10
1215.957745075282
 20
1527.447060201026
 30
0.0
 10
1215.701635627769
 20
1527.316254527727
 30
0.0
 10
1215.59884860769
 20
1527.242308928846
 30
0.0
 10
1215.476015454826
 20
1527.105647709105
 30
0.0
 10
1215.446171596437
 20
1527.041287673676
 30
0.0
 10
1215.446171596437
 20
1526.980632842106
 30
0.0
  0
SPLINE
  5
C53
330
1F
100
AcDbEntity
  8
HEWI
100
AcDbSpline
210
0.0
220
0.0
230
1.0
 70
     8
 71
     3
 72
    16
 73
    12
 74
     0
 42
0.000000001
 43
0.0000000001
 40
0.0
 40
0.0
 40
0.0
 40
0.0
 40
0.2481016251448624
 40
0.2481016251448624
 40
0.4963851440995061
 40
0.4963851440995061
 40
0.7438538839225557
 40
0.7438538839225557
 40
0.9181884979193776
 40
0.9181884979193776
 40
1.0
 40
1.0
 40
1.0
 40
1.0
 10
1215.446171596437
 20
1452.216444085342
 30
0.0
 10
1215.446171596437
 20
1452.107456123327
 30
0.0
 10
1215.494855093625
 20
1451.989578089126
 30
0.0
 10
1215.678189994493
 20
1451.758204662897
 30
0.0
 10
1215.815633275254
 20
1451.641201615372
 30
0.0
 10
1216.163047769286
 20
1451.433479816703
 30
0.0
 10
1216.379425324561
 20
1451.339266688294
 30
0.0
 10
1216.791790812429
 20
1451.224929310718
 30
0.0
 10
1216.979853909277
 20
1451.190196417928
 30
0.0
 10
1217.261954709608
 20
1451.165528748739
 30
0.0
 10
1217.35421186121
 20
1451.161478513752
 30
0.0
 10
1217.446171596437
 20
1451.161478513752
 30
0.0
  0
SPLINE
  5
C54
330
1F
100
AcDbEntity
  8
HEWI
100
AcDbSpline
210
0.0
220
0.0
230
1.0
 70
     8
 71
     3
 72
     8
 73
     4
 74
     0
 42
0.000000001
 43
0.0000000001
 40
0.0
 40
0.0
 40
0.0
 40
0.0
 40
1.0
 40
1.0
 40
1.0
 40
1.0
 10
1217.187334210372
 20
1527.882872119612
 30
0.0
 10
1217.273127411905
 20
1527.888701517306
 30
0.0
 10
1217.359917106405
 20
1527.89171909785
 30
0.0
 10
1217.446171596437
 20
1527.89171909785
 30
0.0
  0
SPLINE
  5
C5E
330
1F
100
AcDbEntity
  8
HEWI
100
AcDbSpline
210
0.0
220
-0.0000000000000002
230
1.0
 70
     8
 71
     3
 72
    14
 73
    10
 74
     0
 42
0.000000001
 43
0.0000000001
 40
0.0
 40
0.0
 40
0.0
 40
0.0
 40
0.2499087050623483
 40
0.2499087050623483
 40
0.4999391367082322
 40
0.4999391367082322
 40
0.7499695683541161
 40
0.7499695683541161
 40
1.0
 40
1.0
 40
1.0
 40
1.0
 10
1242.996139732033
 20
1428.269192943697
 30
-0.0000000000000002
 10
1243.002038771822
 20
1428.265669992676
 30
-0.0000000000000002
 10
1242.149804840702
 20
1428.821512840777
 30
-0.0000000000000002
 10
1239.426231597941
 20
1430.108621363764
 30
-0.0000000000000004
 10
1237.49032898434
 20
1430.803946410866
 30
0.0000000000000004
 10
1233.430607999208
 20
1430.809772507574
 30
0.0000000000000002
 10
1231.495164080322
 20
1430.120917078752
 30
0.0
 10
1228.742962131684
 20
1428.823131431111
 30
-0.0000000000000002
 10
1227.89615819951
 20
1428.269164917723
 30
-0.0000000000000002
 10
1227.896168981051
 20
1428.269171957393
 30
-0.0000000000000002
  0
SPLINE
  5
C5F
330
1F
100
AcDbEntity
  8
HEWI
100
AcDbSpline
210
0.0
220
-0.0000000000000002
230
1.0
 70
     8
 71
     3
 72
    14
 73
    10
 74
     0
 42
0.000000001
 43
0.0000000001
 40
0.0
 40
0.0
 40
0.0
 40
0.0
 40
0.249909423420967
 40
0.249909423420967
 40
0.4999405692898073
 40
0.4999405692898073
 40
0.7499717151586476
 40
0.7499717151586476
 40
1.0
 40
1.0
 40
1.0
 40
1.0
 10
723.996139731716
 20
1428.269192943887
 30
0.0
 10
724.0020388024008
 20
1428.265669972732
 30
0.0
 10
723.1498048651261
 20
1428.821512829235
 30
0.0
 10
720.4262315979417
 20
1430.108621363764
 30
-0.0000000000000002
 10
718.4903289843401
 20
1430.803946410866
 30
-0.0000000000000002
 10
714.4306079992079
 20
1430.809772507574
 30
0.0000000000000004
 10
712.4951640803215
 20
1430.120917078752
 30
0.0000000000000002
 10
709.7429778779728
 20
1428.823138856186
 30
0.0
 10
708.8961775789998
 20
1428.269177595464
 30
0.0
 10
708.8961689810144
 20
1428.269171957369
 30
0.0
  0
SPLINE
  5
C65
330
1F
100
AcDbEntity
  8
HEWI
100
AcDbSpline
210
-0.0000000000000002
220
-0.0000000000000002
230
1.0
 70
     8
 71
     3
 72
    16
 73
    12
 74
     0
 42
0.000000001
 43
0.0000000001
 40
0.0
 40
0.0
 40
0.0
 40
0.0
 40
0.2318639328501264
 40
0.2318639328501264
 40
0.4638696371680758
 40
0.4638696371680758
 40
0.6950310216224952
 40
0.6950310216224952
 40
0.9111144293793211
 40
0.9111144293793211
 40
1.0
 40
1.0
 40
1.0
 40
1.0
 10
1255.446171596437
 20
1526.980632842106
 30
-0.0000000000000002
 10
1255.446171596437
 20
1527.053654604433
 30
-0.0000000000000002
 10
1255.40259046981
 20
1527.132284024073
 30
-0.0000000000000002
 10
1255.236790091937
 20
1527.28618465048
 30
-0.0000000000000002
 10
1255.112121440152
 20
1527.363649526571
 30
-0.0000000000000002
 10
1254.798696687429
 20
1527.501749136532
 30
-0.0000000000000002
 10
1254.605137536965
 20
1527.56443680133
 30
-0.0000000000000002
 10
1254.189938810498
 20
1527.655915187908
 30
-0.0000000000000004
 10
1253.964531990815
 20
1527.687787585583
 30
-0.0000000000000004
 10
1253.639970756767
 20
1527.707958241689
 30
-0.0000000000000004
 10
1253.542923143007
 20
1527.71097779731
 30
-0.0000000000000004
 10
1253.446171596438
 20
1527.71097779731
 30
-0.0000000000000004
  0
SPLINE
  5
C68
330
1F
100
AcDbEntity
  8
HEWI
100
AcDbSpline
210
0.0
220
0.0000000000000001
230
1.0
 70
     8
 71
     3
 72
    16
 73
    12
 74
     0
 42
0.000000001
 43
0.0000000001
 40
0.0
 40
0.0
 40
0.0
 40
0.0
 40
0.24976624795592
 40
0.24976624795592
 40
0.4995497416883016
 40
0.4995497416883016
 40
0.7493332354206832
 40
0.7493332354206832
 40
0.9991167291530643
 40
0.9991167291530643
 40
1.0
 40
1.0
 40
1.0
 40
1.0
 10
237.3374011028752
 20
1119.998921287098
 30
-0.0000000000000024
 10
237.3452699017018
 20
1119.992976822049
 30
-0.0000000000000024
 10
236.8527696568992
 20
1120.371131958051
 30
-0.0000000000000024
 10
235.0833605175687
 20
1121.658453804339
 30
-0.0000000000000026
 10
233.8206202625481
 20
1122.557248947249
 30
-0.0000000000000026
 10
230.7969125890688
 20
1124.463545367523
 30
-0.0000000000000028
 10
229.0223729335651
 20
1125.48821535982
 30
-0.0000000000000028
 10
225.0236100340282
 20
1127.139999830088
 30
-0.0000000000000028
 10
222.7015046552785
 20
1127.755486565387
 30
-0.000000000000003
 10
220.3540372400055
 20
1127.759438055079
 30
-0.000000000000003
 10
220.3457660651054
 20
1127.75944445839
 30
-0.000000000000003
 10
220.3374954624339
 20
1127.759443357618
 30
-0.000000000000003
  0
SPLINE
  5
C69
330
1F
100
AcDbEntity
  8
HEWI
100
AcDbSpline
210
0.0
220
0.0000000000000001
230
1.0
 70
     8
 71
     3
 72
    14
 73
    10
 74
     0
 42
0.000000001
 43
0.0000000001
 40
0.0
 40
0.0
 40
0.0
 40
0.0
 40
0.2493364395575
 40
0.2493364395575
 40
0.4995576263716667
 40
0.4995576263716667
 40
0.7497788131858333
 40
0.7497788131858333
 40
1.0
 40
1.0
 40
1.0
 40
1.0
 10
220.3374974628389
 20
1127.759443357884
 30
-0.000000000000003
 10
218.0068924537534
 20
1127.759133507949
 30
-0.000000000000003
 10
215.7217267675221
 20
1127.162940982415
 30
-0.0000000000000028
 10
211.6918403569118
 20
1125.510376268571
 30
-0.0000000000000028
 10
209.9285589657172
 20
1124.493508409309
 30
-0.0000000000000028
 10
206.8796809272292
 20
1122.575015961543
 30
-0.0000000000000026
 10
205.635579634056
 20
1121.689809363871
 30
-0.0000000000000026
 10
203.8396516557316
 20
1120.38440430856
 30
-0.0000000000000024
 10
203.3374854258325
 20
1119.998838242376
 30
-0.0000000000000024
 10
203.3374956397135
 20
1119.998846083001
 30
-0.0000000000000024
  0
SPLINE
  5
C6A
330
1F
100
AcDbEntity
  8
HEWI
100
AcDbSpline
210
-0.0000000000000053
220
-0.0000000000000031
230
1.0
 70
     8
 71
     3
 72
    32
 73
    28
 74
     0
 42
0.000000001
 43
0.0000000001
 40
0.0
 40
0.0
 40
0.0
 40
0.0
 40
0.0097547437558306
 40
0.0501869647739229
 40
0.0906596601230324
 40
0.1315860734370124
 40
0.1731759471848212
 40
0.2153751434309213
 40
0.2579757629970849
 40
0.3007611639244178
 40
0.343569050847028
 40
0.3863294322924939
 40
0.4290295765310855
 40
0.471677564957283
 40
0.5142908690255205
 40
0.5568908698951344
 40
0.5995002484869941
 40
0.6421353231979826
 40
0.6848202801311143
 40
0.7275787860472106
 40
0.7704314110072024
 40
0.813389370526648
 40
0.8564411975890507
 40
0.8995072084200605
 40
0.9424041278519583
 40
0.9848709497503104
 40
1.0
 40
1.0
 40
1.0
 40
1.0
 10
2378.167109818257
 20
1179.688363210315
 30
0.0014780657202319
 10
2378.251023622358
 20
1179.631790297367
 30
0.0014780657201751
 10
2378.690713161189
 20
1179.356689018137
 30
0.0014780657201183
 10
2379.598642265508
 20
1179.062981259515
 30
0.0014780657201183
 10
2380.872466006714
 20
1178.84193187859
 30
0.0014780657201183
 10
2382.231050215531
 20
1178.866322917896
 30
0.0014780657200615
 10
2383.649479598562
 20
1179.117007472521
 30
0.0014780657201183
 10
2385.113625682243
 20
1179.598802275101
 30
0.0014780657202319
 10
2386.600283483883
 20
1180.304944620895
 30
0.0014780657202319
 10
2388.084849046886
 20
1181.224513407123
 30
0.0014780657200045
 10
2389.542913986148
 20
1182.34127365561
 30
0.0014780657201751
 10
2390.952049467808
 20
1183.636151093519
 30
0.0014780657201751
 10
2392.291838202165
 20
1185.088328955446
 30
0.0014780657202319
 10
2393.543351461051
 20
1186.675531704249
 30
0.0014780657201183
 10
2394.68889561496
 20
1188.374029134247
 30
0.0014780657201183
 10
2395.712106189898
 20
1190.158836512627
 30
0.0014780657202319
 10
2396.598064631399
 20
1192.003891124318
 30
0.0014780657202319
 10
2397.333556196853
 20
1193.882498433099
 30
0.0014780657202319
 10
2397.907202624856
 20
1195.767740507547
 30
0.0014780657201183
 10
2398.309519014135
 20
1197.632962216164
 30
0.0014780657202887
 10
2398.532824664835
 20
1199.451948014624
 30
0.0014780657201751
 10
2398.571139170394
 20
1201.199039812818
 30
0.0014780657201183
 10
2398.420197203727
 20
1202.848607708178
 30
0.0014780657201751
 10
2398.077919789924
 20
1204.374441939447
 30
0.0014780657202319
 10
2397.54626380501
 20
1205.74889583285
 30
0.0014780657202319
 10
2396.981813340797
 20
1206.695235320506
 30
0.0014780657201751
 10
2396.603408887058
 20
1207.178161913745
 30
0.0014780657202319
 10
2396.500149866241
 20
1207.301191624871
 30
0.0014780657202887
  0
SPLINE
  5
C6B
330
1F
100
AcDbEntity
  8
HEWI
100
AcDbSpline
210
0.000000000000153
220
0.0000000000001297
230
1.0
 70
     8
 71
     2
 72
     6
 73
     3
 74
     0
 42
0.000000001
 43
0.0000000001
 40
0.0
 40
0.0
 40
0.0
 40
1.0
 40
1.0
 40
1.0
 10
2396.425248869915
 20
1207.381177664395
 30
0.0014780657201183
 10
2395.808516852
 20
1208.108463360215
 30
0.0014780657201183
 10
2395.016088801158
 20
1208.605025677996
 30
0.0014780657201751
  0
SPLINE
  5
C6C
330
1F
100
AcDbEntity
  8
HEWI
100
AcDbSpline
210
-0.7299282901955179
220
-0.6835237312429232
230
0.0
 70
    24
 71
     1
 72
     4
 73
     2
 74
     0
 42
0.000000001
 43
0.0000000001
 40
0.0
 40
0.0
 40
1.0
 40
1.0
 10
2396.500149866241
 20
1207.301191624871
 30
0.0014780657202887
 10
2396.425248869915
 20
1207.381177664395
 30
0.0014780657201183
  0
SPLINE
  5
C6D
330
1F
100
AcDbEntity
  8
HEWI
100
AcDbSpline
210
-0.000000000000003
220
0.0000000000000015
230
1.0
 70
     8
 71
     3
 72
    18
 73
    14
 74
     0
 42
0.000000001
 43
0.0000000001
 40
0.0
 40
0.0
 40
0.0
 40
0.0
 40
0.0609206607118729
 40
0.1585455018245766
 40
0.2560681093578092
 40
0.3534892689828585
 40
0.4508426729518198
 40
0.548174234720687
 40
0.6455310516955054
 40
0.7429518277381609
 40
0.8404897564260735
 40
0.9381947149021755
 40
1.0
 40
1.0
 40
1.0
 40
1.0
 10
1756.271717865537
 20
1483.617760681799
 30
0.0014780657201771
 10
1756.012606062257
 20
1483.450739866619
 30
0.0014780657201767
 10
1755.341005040269
 20
1482.980085594796
 30
0.0014780657201751
 10
1754.280840136692
 20
1482.090179594076
 30
0.0014780657201751
 10
1753.126477303978
 20
1480.904200860384
 30
0.0014780657201805
 10
1752.053802095925
 20
1479.577497870917
 30
0.0014780657201715
 10
1751.084346458575
 20
1478.137342722375
 30
0.0014780657201769
 10
1750.237821929363
 20
1476.613699861607
 30
0.0014780657201697
 10
1749.531668160405
 20
1475.037899722622
 30
0.0014780657201733
 10
1748.980716496035
 20
1473.44193556233
 30
0.0014780657201769
 10
1748.597061701288
 20
1471.85872749151
 30
0.0014780657201751
 10
1748.415167626826
 20
1470.50741827551
 30
0.0014780657201715
 10
1748.383709660787
 20
1469.706422465848
 30
0.0014780657201787
 10
1748.383584238069
 20
1469.40069203421
 30
0.0014780657201751
  0
SPLINE
  5
C70
330
1F
100
AcDbEntity
  8
HEWI
100
AcDbSpline
210
-0.0000000000000819
220
0.0000000000002458
230
1.0
 70
     8
 71
     3
 72
    12
 73
     8
 74
     0
 42
0.000000001
 43
0.0000000001
 40
0.0
 40
0.0
 40
0.0
 40
0.0
 40
0.4819191747820274
 40
0.4819191747820274
 40
0.9641916649228575
 40
0.9641916649228575
 40
1.0
 40
1.0
 40
1.0
 40
1.0
 10
1888.607884200532
 20
1411.917104041713
 30
0.0014780657201751
 10
1888.786105775453
 20
1411.931012017622
 30
0.0014780657201751
 10
1888.930104697626
 20
1411.95765273121
 30
0.0014780657201609
 10
1889.128047708077
 20
1412.032711889869
 30
0.0014780657201893
 10
1889.185076911073
 20
1412.082327096121
 30
0.0014780657201609
 10
1889.193326217337
 20
1412.1485299223
 30
0.0014780657201619
 10
1889.193621632585
 20
1412.153173750776
 30
0.0014780657201629
 10
1889.193642829429
 20
1412.15789714047
 30
0.0014780657201639
  0
SPLINE
  5
C71
330
1F
100
AcDbEntity
  8
HEWI
100
AcDbSpline
210
-0.0000000000000007
220
-0.0000000000000143
230
1.0
 70
     8
 71
     3
 72
    16
 73
    12
 74
     0
 42
0.000000001
 43
0.0000000001
 40
0.0
 40
0.0
 40
0.0
 40
0.0
 40
0.1771404143545236
 40
0.1771404143545236
 40
0.3522186943510297
 40
0.3522186943510297
 40
0.539954319336339
 40
0.539954319336339
 40
0.7594025013289695
 40
0.7594025013289695
 40
1.0
 40
1.0
 40
1.0
 40
1.0
 10
1878.001282482733
 20
1406.564997064411
 30
0.0014780657201609
 10
1878.140124178906
 20
1406.484836773751
 30
0.0014780657201609
 10
1878.302000886881
 20
1406.431408938255
 30
0.0014780657201609
 10
1878.641175340341
 20
1406.383390234375
 30
0.0014780657201609
 10
1878.822369935526
 20
1406.387160558134
 30
0.0014780657201609
 10
1879.197499025604
 20
1406.44335835245
 30
0.0014780657201893
 10
1879.395823134871
 20
1406.499624726369
 30
0.0014780657201609
 10
1879.810437960155
 20
1406.664337245844
 30
0.0014780657201893
 10
1880.029651902814
 20
1406.781940205796
 30
0.0014780657201751
 10
1880.451653293701
 20
1407.066088503688
 30
0.0014780657201751
 10
1880.656908414764
 20
1407.240324198885
 30
0.0014780657201751
 10
1880.829709607479
 20
1407.426372846611
 30
0.0014780657201751
  0
SPLINE
  5
C72
330
1F
100
AcDbEntity
  8
HEWI
100
AcDbSpline
210
-0.000000000000023
220
-0.000000000000025
230
1.0
 70
     8
 71
     3
 72
    12
 73
     8
 74
     0
 42
0.000000001
 43
0.0000000001
 40
0.0
 40
0.0
 40
0.0
 40
0.0
 40
0.4720492667056421
 40
0.4720492667056421
 40
0.8313757663914039
 40
0.8313757663914039
 40
1.0
 40
1.0
 40
1.0
 40
1.0
 10
1851.959679698504
 20
1422.368470753328
 30
0.0014780657201751
 10
1851.959419878799
 20
1422.155561662014
 30
0.0014780657201751
 10
1852.001483576594
 20
1421.945298973679
 30
0.0014780657201751
 10
1852.15396551772
 20
1421.622025601777
 30
0.0014780657201609
 10
1852.247911614757
 20
1421.494353242406
 30
0.0014780657201609
 10
1852.419699853273
 20
1421.343059821658
 30
0.0014780657201609
 10
1852.480413007643
 20
1421.299477925808
 30
0.0014780657201751
 10
1852.545438360017
 20
1421.26193552111
 30
0.0014780657201609
  0
SPLINE
  5
C73
330
1F
100
AcDbEntity
  8
HEWI
100
AcDbSpline
210
-0.0000000000000888
220
0.0000000000003996
230
1.0
 70
     8
 71
     3
 72
    12
 73
     8
 74
     0
 42
0.000000001
 43
0.0000000001
 40
0.0
 40
0.0
 40
0.0
 40
0.0
 40
0.4819191747820373
 40
0.4819191747820373
 40
0.9641916649228775
 40
0.9641916649228775
 40
1.0
 40
1.0
 40
1.0
 40
1.0
 10
2255.596303636349
 20
1200.036241290968
 30
0.0014780657201751
 10
2255.77452521127
 20
1200.050149266876
 30
0.0014780657201751
 10
2255.918524133444
 20
1200.076789980465
 30
0.0014780657201183
 10
2256.116467143895
 20
1200.151849139124
 30
0.0014780657201751
 10
2256.173496346892
 20
1200.201464345376
 30
0.0014780657201751
 10
2256.181745653155
 20
1200.267667171555
 30
0.0014780657201225
 10
2256.182041068404
 20
1200.272311000031
 30
0.0014780657201267
 10
2256.182062265247
 20
1200.277034389725
 30
0.0014780657201309
  0
SPLINE
  5
C74
330
1F
100
AcDbEntity
  8
HEWI
100
AcDbSpline
210
-0.0000000000000027
220
-0.0000000000000571
230
1.0
 70
     8
 71
     3
 72
    16
 73
    12
 74
     0
 42
0.000000001
 43
0.0000000001
 40
0.0
 40
0.0
 40
0.0
 40
0.0
 40
0.1771404143545236
 40
0.1771404143545236
 40
0.3522186943510297
 40
0.3522186943510297
 40
0.539954319336339
 40
0.539954319336339
 40
0.7594025013289695
 40
0.7594025013289695
 40
1.0
 40
1.0
 40
1.0
 40
1.0
 10
2244.989701918551
 20
1194.684134313666
 30
0.0014780657201183
 10
2245.128543614725
 20
1194.603974023006
 30
0.0014780657201751
 10
2245.290420322699
 20
1194.550546187509
 30
0.0014780657201183
 10
2245.629594776159
 20
1194.50252748363
 30
0.0014780657201183
 10
2245.810789371344
 20
1194.506297807389
 30
0.0014780657201751
 10
2246.185918461423
 20
1194.562495601704
 30
0.0014780657201751
 10
2246.38424257069
 20
1194.618761975624
 30
0.0014780657201183
 10
2246.798857395974
 20
1194.783474495099
 30
0.0014780657202319
 10
2247.018071338633
 20
1194.90107745505
 30
0.0014780657201751
 10
2247.44007272952
 20
1195.185225752943
 30
0.0014780657201751
 10
2247.645327850582
 20
1195.359461448139
 30
0.0014780657201183
 10
2247.818129043297
 20
1195.545510095866
 30
0.0014780657201751
  0
SPLINE
  5
C75
330
1F
100
AcDbEntity
  8
HEWI
100
AcDbSpline
210
0.0
220
0.0
230
1.0
 70
     8
 71
     3
 72
    12
 73
     8
 74
     0
 42
0.000000001
 43
0.0000000001
 40
0.0
 40
0.0
 40
0.0
 40
0.0
 40
0.4720492667055878
 40
0.4720492667055878
 40
0.8313757663913866
 40
0.8313757663913866
 40
1.0
 40
1.0
 40
1.0
 40
1.0
 10
2218.948099134323
 20
1210.487608002583
 30
0.0014780657201183
 10
2218.947839314616
 20
1210.274698911269
 30
0.0014780657201185
 10
2218.989903012412
 20
1210.064436222934
 30
0.0014780657201225
 10
2219.142384953538
 20
1209.741162851031
 30
0.0014780657201183
 10
2219.236331050575
 20
1209.613490491661
 30
0.0014780657201751
 10
2219.408119289091
 20
1209.462197070912
 30
0.0014780657201751
 10
2219.46883244346
 20
1209.418615175063
 30
0.0014780657201751
 10
2219.533857795836
 20
1209.381072770365
 30
0.0014780657201183
  0
SPLINE
  5
C7D
330
1F
100
AcDbEntity
  8
HEWI
100
AcDbSpline
210
-0.0000000000000039
220
-0.0000000000000058
230
1.0
 70
     8
 71
     3
 72
     8
 73
     4
 74
     0
 42
0.000000001
 43
0.0000000001
 40
0.0
 40
0.0
 40
0.0
 40
0.0
 40
1.0
 40
1.0
 40
1.0
 40
1.0
 10
1802.273844940876
 20
1550.982354013333
 30
0.0014780657201771
 10
1801.926754083408
 20
1551.246469669159
 30
0.0014780657201773
 10
1801.566137258976
 20
1551.49640143781
 30
0.0014780657201775
 10
1801.194349180981
 20
1551.731489827403
 30
0.0014780657201773
  0
SPLINE
  5
C7E
330
1F
100
AcDbEntity
  8
HEWI
100
AcDbSpline
210
0.0
220
0.0
230
1.0
 70
     8
 71
     3
 72
     8
 73
     4
 74
     0
 42
0.000000001
 43
0.0000000001
 40
0.0
 40
0.0
 40
0.0
 40
0.0
 40
1.0
 40
1.0
 40
1.0
 40
1.0
 10
1801.792824747406
 20
1551.299132676262
 30
0.0014780657201681
 10
1801.523777927418
 20
1551.49532801091
 30
0.0014780657201681
 10
1801.247413395751
 20
1551.683246812664
 30
0.0014780657201681
 10
1800.964835608029
 20
1551.862572262708
 30
0.0014780657201681
  0
SPLINE
  5
C8B
330
1F
100
AcDbEntity
  8
HEWI
100
AcDbSpline
210
0.0000000000000104
220
0.0000000000000034
230
1.0
 70
     8
 71
     3
 72
    12
 73
     8
 74
     0
 42
0.000000001
 43
0.0000000001
 40
0.0
 40
0.0
 40
0.0
 40
0.0
 40
0.4375819185970551
 40
0.4375819185970551
 40
0.8751638371941103
 40
0.8751638371941103
 40
1.0
 40
1.0
 40
1.0
 40
1.0
 10
1783.602527182865
 20
1528.39257000064
 30
0.0014780657201679
 10
1783.602527182865
 20
1526.466914068719
 30
0.0014780657201609
 10
1783.684562620768
 20
1524.947724248484
 30
0.0014780657201715
 10
1784.025411937463
 20
1522.837804279221
 30
0.0014780657201823
 10
1784.282679228868
 20
1522.237813322774
 30
0.0014780657201893
 10
1784.791898263687
 20
1521.960359948199
 30
0.0014780657201779
 10
1784.915428603987
 20
1521.929180115014
 30
0.0014780657201761
 10
1785.053656796727
 20
1521.926714635569
 30
0.0014780657201747
  0
SPLINE
  5
C8C
330
1F
100
AcDbEntity
  8
HEWI
100
AcDbSpline
210
0.0000000000000008
220
0.0000000000000053
230
1.0
 70
     8
 71
     3
 72
    14
 73
    10
 74
     0
 42
0.000000001
 43
0.0000000001
 40
0.0
 40
0.0
 40
0.0
 40
0.0
 40
0.1326684696569503
 40
0.1326684696569503
 40
0.5655689330822339
 40
0.5655689330822339
 40
0.9984693965075166
 40
0.9984693965075166
 40
1.0
 40
1.0
 40
1.0
 40
1.0
 10
1803.140615834007
 20
1550.499835661744
 30
0.0014780657201707
 10
1802.653459562565
 20
1550.86641727484
 30
0.0014780657201703
 10
1802.139440258891
 20
1551.203562669435
 30
0.0014780657201705
 10
1799.862247568137
 20
1552.505087418748
 30
0.0014780657201751
 10
1797.882907444216
 20
1553.183171335183
 30
0.0014780657201609
 10
1793.887367081611
 20
1553.621544231603
 30
0.0014780657201715
 10
1791.810175777406
 20
1553.342166602297
 30
0.0014780657201769
 10
1790.147472273124
 20
1552.388228014621
 30
0.0014780657201715
 10
1790.141619888806
 20
1552.384859147426
 30
0.0014780657201715
 10
1790.135773213846
 20
1552.381482380303
 30
0.0014780657201715
  0
SPLINE
  5
C8D
330
1F
100
AcDbEntity
  8
HEWI
100
AcDbSpline
210
-0.0000000000000003
220
-0.0000000000000001
230
1.0
 70
     8
 71
     3
 72
    14
 73
    10
 74
     0
 42
0.000000001
 43
0.0000000001
 40
0.0
 40
0.0
 40
0.0
 40
0.0
 40
0.2493364709088911
 40
0.2493364709088911
 40
0.4995576472725941
 40
0.4995576472725941
 40
0.7497788236362971
 40
0.7497788236362971
 40
1.0
 40
1.0
 40
1.0
 40
1.0
 10
1790.135773214077
 20
1552.381482380436
 30
0.0014780657201715
 10
1788.488005276947
 20
1551.429808371895
 30
0.0014780657201663
 10
1787.293720642219
 20
1549.850657977614
 30
0.0014780657201751
 10
1785.612700208835
 20
1546.137909891623
 30
0.0014780657201697
 10
1785.084906138836
 20
1544.03091445044
 30
0.0014780657201805
 10
1784.28560282228
 20
1539.549420795931
 30
0.0014780657201787
 10
1784.031825949359
 20
1537.230299615128
 30
0.0014780657201733
 10
1783.684973864169
 20
1532.578283970362
 30
0.0014780657201679
 10
1783.602527182865
 20
1530.318225932562
 30
0.0014780657201751
 10
1783.602527182865
 20
1528.39257000064
 30
0.0014780657201679
  0
SPLINE
  5
C8E
330
1F
100
AcDbEntity
  8
HEWI
100
AcDbSpline
210
0.0
220
0.0
230
1.0
 70
    24
 71
     1
 72
     5
 73
     3
 74
     0
 42
0.000000001
 43
0.0000000001
 40
0.0
 40
0.0
 40
0.2666666666666667
 40
1.0
 40
1.0
 10
163.8374977147805
 20
1531.612383525578
 30
0.0
 10
167.8374977147805
 20
1531.612383525578
 30
0.0
 10
178.8374977147805
 20
1531.612383525578
 30
0.0
  0
SPLINE
  5
C8F
330
1F
100
AcDbEntity
  8
HEWI
100
AcDbSpline
210
0.0
220
0.0
230
1.0
 70
    24
 71
     1
 72
     5
 73
     3
 74
     0
 42
0.000000001
 43
0.0000000001
 40
0.0
 40
0.0
 40
0.2666666666666667
 40
1.0
 40
1.0
 10
276.8374977147805
 20
1531.612383525578
 30
0.0
 10
272.8374977147805
 20
1531.612383525578
 30
0.0
 10
261.8374977147805
 20
1531.612383525578
 30
0.0
  0
SPLINE
  5
C90
330
1F
100
AcDbEntity
  8
HEWI
100
AcDbSpline
210
0.0
220
0.0
230
1.0
 70
    24
 71
     1
 72
     5
 73
     3
 74
     0
 42
0.000000001
 43
0.0000000001
 40
0.0
 40
0.0
 40
0.2149255813020745
 40
1.0
 40
1.0
 10
220.3374977147805
 20
1509.151290440394
 30
0.0
 10
220.3374977147805
 20
1513.151290440394
 30
0.0
 10
220.3374977147805
 20
1527.762383525578
 30
0.0
  0
SPLINE
  5
C91
330
1F
100
AcDbEntity
  8
HEWI
100
AcDbSpline
210
0.0
220
0.0
230
1.0
 70
    24
 71
     1
 72
     5
 73
     3
 74
     0
 42
0.000000001
 43
0.0000000001
 40
0.0
 40
0.0
 40
0.6800000000000001
 40
1.0
 40
1.0
 10
268.837497714781
 20
1531.612383525578
 30
0.0
 10
260.337497714781
 20
1531.612383525578
 30
0.0
 10
256.337497714781
 20
1531.612383525578
 30
0.0
  0
SPLINE
  5
C92
330
1F
100
AcDbEntity
  8
HEWI
100
AcDbSpline
210
0.0
220
0.0
230
1.0
 70
    24
 71
     1
 72
     5
 73
     3
 74
     0
 42
0.000000001
 43
0.0000000001
 40
0.0
 40
0.0
 40
0.6800000000000001
 40
1.0
 40
1.0
 10
171.8374977147805
 20
1531.612383525578
 30
0.0
 10
180.3374977147805
 20
1531.612383525578
 30
0.0
 10
184.3374977147805
 20
1531.612383525578
 30
0.0
  0
SPLINE
  5
C93
330
1F
100
AcDbEntity
  8
HEWI
100
AcDbSpline
210
0.0
220
0.0
230
1.0
 70
    24
 71
     1
 72
     5
 73
     3
 74
     0
 42
0.000000001
 43
0.0000000001
 40
0.0
 40
0.0
 40
0.185185185185186
 40
1.0
 40
1.0
 10
220.3374981348281
 20
1180.598847986318
 30
0.0
 10
220.3374981348281
 20
1176.598847986318
 30
0.0
 10
220.3374981348281
 20
1158.998847986318
 30
0.0
  0
LINE
  5
C94
330
1F
100
AcDbEntity
  8
HEWI
100
AcDbLine
 10
199.4874986980744
 20
1531.612383585244
 30
0.0
 11
241.1874986980742
 21
1531.612383585244
 31
0.0
  0
LINE
  5
C95
330
1F
100
AcDbEntity
  8
HEWI
100
AcDbLine
 10
220.3374986980743
 20
1510.762383585244
 30
0.0
 11
220.3374986980743
 21
1552.462383585244
 31
0.0
  0
LINE
  5
1285
330
1F
100
AcDbEntity
  8
HEWI
100
AcDbLine
 10
1365.195881777822
 20
1425.910179728005
 30
0.0
 11
1364.224347777821
 21
1426.147077728005
 31
0.0
  0
LINE
  5
1286
330
1F
100
AcDbEntity
  8
HEWI
100
AcDbLine
 10
1365.446171777822
 20
1428.575437728005
 30
0.0
 11
1365.446171777822
 21
1427.969173728005
 31
0.0
  0
LINE
  5
1287
330
1F
100
AcDbEntity
  8
HEWI
100
AcDbLine
 10
1364.446171777822
 20
1427.394083728005
 30
0.0
 11
1364.446171777822
 21
1428.264255728005
 31
0.0
  0
LINE
  5
1288
330
1F
100
AcDbEntity
  8
HEWI
100
AcDbLine
 10
1280.696461777822
 20
1425.910179728005
 30
0.0
 11
1281.667995777822
 21
1426.147077728005
 31
0.0
  0
LINE
  5
1289
330
1F
100
AcDbEntity
  8
HEWI
100
AcDbLine
 10
1364.446171777822
 20
1428.264255728005
 30
0.0
 11
1281.446171777822
 21
1428.264255728005
 31
0.0
  0
LINE
  5
128A
330
1F
100
AcDbEntity
  8
HEWI
100
AcDbLine
 10
1364.224347777821
 20
1426.147077728005
 30
0.0
 11
1281.667995777822
 21
1426.147077728005
 31
0.0
  0
LINE
  5
128B
330
1F
100
AcDbEntity
  8
HEWI
100
AcDbLine
 10
1280.446171777821
 20
1427.969173728005
 30
0.0
 11
1280.446171777821
 21
1428.575437728005
 31
0.0
  0
LINE
  5
128C
330
1F
100
AcDbEntity
  8
HEWI
100
AcDbLine
 10
1281.446171777822
 20
1428.264255728005
 30
0.0
 11
1281.446171777822
 21
1427.394083728005
 31
0.0
  0
LINE
  5
128D
330
1F
100
AcDbEntity
  8
HEWI
100
AcDbLine
 10
1365.446171777822
 20
1428.575425728005
 30
0.0
 11
1280.446171777821
 21
1428.575425728005
 31
0.0
  0
LINE
  5
128E
330
1F
100
AcDbEntity
  8
HEWI
100
AcDbLine
 10
1365.446171777822
 20
1428.575425728005
 30
0.0
 11
1365.446171777822
 21
1428.269173728005
 31
0.0
  0
LINE
  5
128F
330
1F
100
AcDbEntity
  8
HEWI
100
AcDbLine
 10
1280.446171777821
 20
1428.269173728005
 30
0.0
 11
1280.446171777821
 21
1428.575425728005
 31
0.0
  0
ELLIPSE
  5
1290
330
1F
100
AcDbEntity
  8
HEWI
100
AcDbEllipse
 10
1364.446171777822
 20
1427.969173728005
 30
0.0
 11
1.0
 21
0.0
 31
0.0
210
0.0
220
0.0
230
1.0
 40
0.57509
 41
4.71238898038469
 42
6.283185307179562
  0
ELLIPSE
  5
1291
330
1F
100
AcDbEntity
  8
HEWI
100
AcDbEllipse
 10
1281.446171777822
 20
1427.969173728005
 30
0.0
 11
-1.0
 21
0.0000000000000001
 31
0.0
210
0.0
220
0.0
230
1.0
 40
0.57509
 41
0.0
 42
1.570796326794897
  0
SPLINE
  5
1292
330
1F
100
AcDbEntity
  8
HEWI
100
AcDbSpline
210
0.0
220
0.0
230
1.0
 70
     8
 71
     3
 72
    10
 73
     6
 74
     0
 42
0.000000001
 43
0.0000000001
 40
0.0
 40
0.0
 40
0.0
 40
0.0
 40
0.5631963510114813
 40
0.5631963510114813
 40
1.0
 40
1.0
 40
1.0
 40
1.0
 10
1365.446171596437
 20
1427.969173668343
 30
0.0
 10
1365.446171596437
 20
1427.62285906121
 30
0.0
 10
1365.423544123545
 20
1427.234768372727
 30
0.0
 10
1365.330481619329
 20
1426.534896258892
 30
0.0
 10
1365.27123196846
 20
1426.219195279835
 30
0.0
 10
1365.195882133723
 20
1425.910179741264
 30
0.0
  0
SPLINE
  5
1293
330
1F
100
AcDbEntity
  8
HEWI
100
AcDbSpline
210
0.0
220
0.0
230
1.0
 70
     8
 71
     3
 72
    10
 73
     6
 74
     0
 42
0.000000001
 43
0.0000000001
 40
0.0
 40
0.0
 40
0.0
 40
0.0
 40
0.4861134168230314
 40
0.4861134168230314
 40
1.0
 40
1.0
 40
1.0
 40
1.0
 10
1364.224347459778
 20
1426.147077139568
 30
0.0
 10
1364.297693023288
 20
1426.352935824184
 30
0.0
 10
1364.354970744255
 20
1426.567960697536
 30
0.0
 10
1364.429871665364
 20
1426.991809340918
 30
0.0
 10
1364.446171596436
 20
1427.205490697053
 30
0.0
 10
1364.446171596437
 20
1427.394083620614
 30
0.0
  0
SPLINE
  5
1294
330
1F
100
AcDbEntity
  8
HEWI
100
AcDbSpline
210
0.0000000000000013
220
-0.0000000000000017
230
1.0
 70
     8
 71
     3
 72
    12
 73
     8
 74
     0
 42
0.000000001
 43
0.0000000001
 40
0.0
 40
0.0
 40
0.0
 40
0.0
 40
0.4202079642026861
 40
0.4202079642026861
 40
0.8401692150779277
 40
0.8401692150779277
 40
1.0
 40
1.0
 40
1.0
 40
1.0
 10
1364.446171596436
 20
1428.26425662643
 30
0.0000000000000002
 10
1364.556872630737
 20
1428.26425662643
 30
0.0000000000000002
 10
1364.669097776842
 20
1428.283493465475
 30
-0.0000000000000002
 10
1364.877904231808
 20
1428.356950621517
 30
-0.0000000000000002
 10
1364.977354070681
 20
1428.412125854115
 30
-0.0000000000000002
 10
1365.09685833703
 20
1428.507257273836
 30
-0.0000000000000002
 10
1365.128274622203
 20
1428.535736893764
 30
-0.0000000000000002
 10
1365.157839772365
 20
1428.566095324776
 30
-0.0000000000000002
  0
SPLINE
  5
1295
330
1F
100
AcDbEntity
  8
HEWI
100
AcDbSpline
210
0.0
220
0.0
230
1.0
 70
     8
 71
     3
 72
    10
 73
     6
 74
     0
 42
0.000000001
 43
0.0000000001
 40
0.0
 40
0.0
 40
0.0
 40
0.0
 40
0.5635302216462811
 40
0.5635302216462811
 40
1.0
 40
1.0
 40
1.0
 40
1.0
 10
1280.696461059152
 20
1425.910179741264
 30
0.0
 10
1280.599800824315
 20
1426.306590889747
 30
0.0
 10
1280.529917741049
 20
1426.715449920741
 30
0.0
 10
1280.459559219608
 20
1427.404720614198
 30
0.0
 10
1280.446171596437
 20
1427.699253961642
 30
0.0
 10
1280.446171596437
 20
1427.969173668345
 30
0.0
  0
SPLINE
  5
1296
330
1F
100
AcDbEntity
  8
HEWI
100
AcDbSpline
210
0.0
220
0.0
230
1.0
 70
     8
 71
     3
 72
    10
 73
     6
 74
     0
 42
0.000000001
 43
0.0000000001
 40
0.0
 40
0.0
 40
0.0
 40
0.0
 40
0.4830490318618912
 40
0.4830490318618912
 40
1.0
 40
1.0
 40
1.0
 40
1.0
 10
1281.446171596437
 20
1427.394083620615
 30
0.0
 10
1281.446171596437
 20
1427.216465000803
 30
0.0
 10
1281.460503769216
 20
1427.016836802131
 30
0.0
 10
1281.530466856543
 20
1426.594673042778
 30
0.0
 10
1281.590146994571
 20
1426.365574866558
 30
0.0
 10
1281.667995733096
 20
1426.147077139568
 30
0.0
  0
SPLINE
  5
1297
330
1F
100
AcDbEntity
  8
HEWI
100
AcDbSpline
210
0.0
220
0.0
230
1.0
 70
     8
 71
     3
 72
    12
 73
     8
 74
     0
 42
0.000000001
 43
0.0000000001
 40
0.0
 40
0.0
 40
0.0
 40
0.0
 40
0.3099027414590628
 40
0.3099027414590628
 40
0.7381692089327201
 40
0.7381692089327201
 40
1.0
 40
1.0
 40
1.0
 40
1.0
 10
1280.733381721759
 20
1428.567226344038
 30
0.0
 10
1280.790650916955
 20
1428.508395532406
 30
0.0
 10
1280.855310816774
 20
1428.456231688883
 30
0.0
 10
1281.020583603922
 20
1428.35379102351
 30
0.0
 10
1281.128212774409
 20
1428.310197987431
 30
0.0
 10
1281.306552441691
 20
1428.271731983831
 30
0.0
 10
1281.376555581809
 20
1428.26425662643
 30
0.0
 10
1281.446171596436
 20
1428.26425662643
 30
0.0
  0
SPLINE
  5
1298
330
1F
100
AcDbEntity
  8
HEWI
100
AcDbSpline
210
0.0
220
0.0
230
1.0
 70
     8
 71
     3
 72
    26
 73
    22
 74
     0
 42
0.000000001
 43
0.0000000001
 40
0.0
 40
0.0
 40
0.0
 40
0.0
 40
0.0625
 40
0.0625
 40
0.1249999999999999
 40
0.1249999999999999
 40
0.25
 40
0.25
 40
0.3750000000000001
 40
0.3750000000000001
 40
0.5000000000000001
 40
0.5000000000000001
 40
0.6250000000000001
 40
0.6250000000000001
 40
0.7500000000000002
 40
0.7500000000000002
 40
0.8750000000000001
 40
0.8750000000000001
 40
0.9375
 40
0.9375
 40
1.0
 40
1.0
 40
1.0
 40
1.0
 10
1280.696461059152
 20
1425.910179741264
 30
0.0
 10
1281.17945484127
 20
1423.929384637611
 30
0.0
 10
1282.299364027134
 20
1422.190316161069
 30
0.0
 10
1285.058439227309
 20
1419.211220499693
 30
0.0
 10
1286.650959089968
 20
1417.997449432468
 30
0.0
 10
1291.766616341887
 20
1414.793916721861
 30
0.0
 10
1295.507316314828
 20
1413.314262263877
 30
0.0
 10
1303.167484702892
 20
1411.026469292681
 30
0.0
 10
1307.121276131649
 20
1410.240398693385
 30
0.0
 10
1314.994631011104
 20
1409.21487773935
 30
0.0
 10
1318.949439777511
 20
1408.970240299351
 30
0.0
 10
1326.891999826057
 20
1408.968113851501
 30
0.0
 10
1330.904104031564
 20
1409.214282495993
 30
0.0
 10
1338.825544645409
 20
1410.248933320418
 30
0.0
 10
1342.73318409758
 20
1411.028143203591
 30
0.0
 10
1350.399901407726
 20
1413.31951978993
 30
0.0
 10
1354.185841600933
 20
1414.8249056697
 30
0.0
 10
1359.266421746614
 20
1418.016510997755
 30
0.0
 10
1360.849990009067
 20
1419.225843564211
 30
0.0
 10
1363.598194387391
 20
1422.198714363758
 30
0.0
 10
1364.71416559978
 20
1423.934622731821
 30
0.0
 10
1365.195882133723
 20
1425.910179741264
 30
0.0
  0
SPLINE
  5
1299
330
1F
100
AcDbEntity
  8
HEWI
100
AcDbSpline
210
0.0
220
0.0
230
1.0
 70
     8
 71
     3
 72
    24
 73
    20
 74
     0
 42
0.000000001
 43
0.0000000001
 40
0.0
 40
0.0
 40
0.0
 40
0.0
 40
0.0625000000000001
 40
0.0625000000000001
 40
0.1250000000000001
 40
0.1250000000000001
 40
0.2500000000000001
 40
0.2500000000000001
 40
0.3749999999999999
 40
0.3749999999999999
 40
0.5
 40
0.5
 40
0.7499999999999999
 40
0.7499999999999999
 40
0.8749999999999998
 40
0.8749999999999998
 40
0.9375
 40
0.9375
 40
1.0
 40
1.0
 40
1.0
 40
1.0
 10
1281.667995733096
 20
1426.147077139568
 30
0.0
 10
1282.139041729802
 20
1424.215280834083
 30
0.0
 10
1283.281957729242
 20
1422.548405457965
 30
0.0
 10
1285.991104546939
 20
1419.738172959419
 30
0.0
 10
1287.592653189975
 20
1418.558370578575
 30
0.0
 10
1292.583034760588
 20
1415.53217584382
 30
0.0
 10
1296.273567179771
 20
1414.104966827223
 30
0.0
 10
1303.714555021065
 20
1411.933354664829
 30
0.0
 10
1307.511182690318
 20
1411.190100045429
 30
0.0
 10
1315.215411981897
 20
1410.202900121378
 30
0.0
 10
1319.119605071133
 20
1409.967850769029
 30
0.0
 10
1330.696453256796
 20
1409.971836189053
 30
0.0
 10
1338.368430651424
 20
1410.823994313254
 30
0.0
 10
1349.637119422496
 20
1414.109134334929
 30
0.0
 10
1353.322652358489
 20
1415.538437749425
 30
0.0
 10
1358.308915258983
 20
1418.564884167908
 30
0.0
 10
1359.902475773335
 20
1419.738478598147
 30
0.0
 10
1362.617161752109
 20
1422.556415126882
 30
0.0000000000000002
 10
1363.754406943687
 20
1424.219814496148
 30
0.0
 10
1364.224347459778
 20
1426.147077139568
 30
0.0
  0
ARC
  5
129A
330
1F
100
AcDbEntity
  8
HEWI
100
AcDbCircle
 10
-220.3374986980743
 20
1398.489281253587
 30
0.0506470513072029
 40
1.0
210
0.0
220
0.0000341017414125
230
-0.9999999994185358
100
AcDbArc
 50
269.7294510000034
 51
358.4591849999951
  0
ARC
  5
129B
330
1F
100
AcDbEntity
  8
HEWI
100
AcDbCircle
 10
-220.3374986980743
 20
1398.435483253587
 30
-0.0506470513057536
 40
1.0
210
0.0
220
-0.0000341017414099
230
-0.9999999994185358
100
AcDbArc
 50
180.0000169999978
 51
269.7162699999944
  0
SPLINE
  5
129C
330
1F
100
AcDbEntity
  8
HEWI
100
AcDbSpline
210
0.0
220
0.0
230
1.0
 70
    24
 71
     3
 72
    18
 73
    14
 74
     0
 42
0.000000001
 43
0.0000000001
 40
0.0
 40
0.0
 40
0.0
 40
0.0
 40
0.0000373139214179
 40
0.0000373139214179
 40
0.2582671291461362
 40
0.2582671291461362
 40
0.5164969443708549
 40
0.5164969443708549
 40
0.774726759595573
 40
0.774726759595573
 40
0.9038416672079319
 40
0.9038416672079319
 40
1.0
 40
1.0
 40
1.0
 40
1.0
 10
220.3374977147805
 20
1397.462389247763
 30
0.0
 10
220.3374977147805
 20
1397.462387247563
 30
0.0
 10
220.3374977147805
 20
1397.462385247363
 30
0.0
 10
220.3374977147805
 20
1397.46132370874
 30
0.0
 10
220.3374977147805
 20
1397.707492353232
 30
0.0
 10
220.3374977147805
 20
1398.742143177657
 30
0.0
 10
220.3374977147805
 20
1399.52135306083
 30
0.0
 10
220.3374977147805
 20
1401.812729647169
 30
0.0
 10
220.3374977147805
 20
1403.318115526939
 30
0.0
 10
220.3374977147805
 20
1406.509720854993
 30
0.0
 10
220.3374977147805
 20
1407.71905342145
 30
0.0
 10
220.3374977147805
 20
1410.31251164677
 30
0.0
 10
220.3374977147805
 20
1411.557905308846
 30
0.0
 10
220.3374977147805
 20
1412.937611598411
 30
0.0
  0
SPLINE
  5
129D
330
1F
100
AcDbEntity
  8
HEWI
100
AcDbSpline
210
0.0
220
0.0
230
1.0
 70
    24
 71
     3
 72
    16
 73
    12
 74
     0
 42
0.000000001
 43
0.0000000001
 40
0.0
 40
0.0
 40
0.0
 40
0.0
 40
0.000152944034077
 40
0.000152944034077
 40
0.5190822591166055
 40
0.5190822591166055
 40
0.7785469166578701
 40
0.7785469166578701
 40
0.9082792454285021
 40
0.9082792454285021
 40
1.0
 40
1.0
 40
1.0
 40
1.0
 10
219.3374977147805
 20
1398.462385656447
 30
0.0
 10
219.3374977147805
 20
1398.462387656647
 30
0.0
 10
219.3374977147805
 20
1398.462389656847
 30
0.0
 10
219.3374977147805
 20
1398.465046046292
 30
0.0
 10
219.3374977147805
 20
1399.317204170493
 30
0.0
 10
219.3374977147805
 20
1402.602344192168
 30
0.0
 10
219.3374977147805
 20
1404.031647606664
 30
0.0
 10
219.3374977147805
 20
1407.058094025147
 30
0.0
 10
219.3374977147805
 20
1408.231688455385
 30
0.0
 10
219.3374977147805
 20
1410.636797262359
 30
0.0
 10
219.3374977147805
 20
1411.760114933133
 30
0.0
 10
219.3374977147805
 20
1413.013942996754
 30
0.0
  0
SPLINE
  5
129E
330
1F
100
AcDbEntity
  8
HEWI
100
AcDbSpline
210
0.0
220
0.0
230
1.0
 70
    24
 71
     3
 72
    16
 73
    12
 74
     0
 42
0.000000001
 43
0.0000000001
 40
0.0
 40
0.0
 40
0.0
 40
0.0
 40
0.0885422502503431
 40
0.0885422502503431
 40
0.2187514650788223
 40
0.2187514650788223
 40
0.4791698947357806
 40
0.4791698947357806
 40
0.7395883243927389
 40
0.7395883243927389
 40
1.0
 40
1.0
 40
1.0
 40
1.0
 10
221.3374977147805
 20
1412.867042004129
 30
0.0
 10
221.3374977147805
 20
1411.668494200192
 30
0.0
 10
221.3374977147805
 20
1410.591977944578
 30
0.0
 10
221.3374977147805
 20
1408.231382816658
 30
0.0
 10
221.3374977147805
 20
1407.051580435814
 30
0.0
 10
221.3374977147805
 20
1404.025385701058
 30
0.0
 10
221.3374977147805
 20
1402.598176684462
 30
0.0
 10
221.3374977147805
 20
1400.426564522067
 30
0.0
 10
221.3374977147805
 20
1399.683309902668
 30
0.0
 10
221.3374977147805
 20
1398.696122780317
 30
0.0
 10
221.3374977147805
 20
1398.461072818628
 30
0.0
 10
221.3374977147805
 20
1398.462388996723
 30
0.0
  0
SPLINE
  5
129F
330
1F
100
AcDbEntity
  8
HEWI
100
AcDbSpline
210
0.0000000000005112
220
-0.0000000000005194
230
1.0
 70
     8
 71
     3
 72
    10
 73
     6
 74
     0
 42
0.000000001
 43
0.0000000001
 40
0.0
 40
0.0
 40
0.0
 40
0.0
 40
0.1441527267371693
 40
0.6895602132492385
 40
1.0
 40
1.0
 40
1.0
 40
1.0
 10
2326.984069663568
 20
1128.349543495486
 30
0.0014780657202319
 10
2327.068573894824
 20
1128.39124235044
 30
0.0014780657201183
 10
2327.4656534859
 20
1128.604827521984
 30
0.0014780657201183
 10
2327.98546658439
 20
1129.04435899864
 30
0.0014780657201183
 10
2328.386302381789
 20
1129.481770614126
 30
0.0014780657201183
 10
2328.523486047587
 20
1129.650584306405
 30
0.0014780657201207
  0
SPLINE
  5
12A0
330
1F
100
AcDbEntity
  8
HEWI
100
AcDbSpline
210
-0.0000000000000014
220
-0.0000000000000055
230
1.0
 70
     8
 71
     3
 72
    34
 73
    30
 74
     0
 42
0.000000001
 43
0.0000000001
 40
0.0
 40
0.0
 40
0.0
 40
0.0
 40
0.0170765232535957
 40
0.03678942886046
 40
0.0582733027026277
 40
0.0819029038239325
 40
0.1087368915662005
 40
0.13820532163213
 40
0.1704814080667138
 40
0.2072309792061246
 40
0.2492468773173125
 40
0.292737009671493
 40
0.338106011594863
 40
0.3856767955746595
 40
0.4357943103039902
 40
0.4888358463872647
 40
0.5453075460786466
 40
0.5999000292571633
 40
0.6508903334195893
 40
0.6989260379594798
 40
0.7444450574976962
 40
0.7878192920641807
 40
0.8338116282924536
 40
0.8778311564828616
 40
0.9113633290353872
 40
0.9408255212178515
 40
0.9675515765119341
 40
0.9912895517489703
 40
1.0
 40
1.0
 40
1.0
 40
1.0
 10
2269.834837236513
 20
1163.540835369646
 30
0.0014780657202319
 10
2269.996548845725
 20
1163.08801101792
 30
0.0014780657202319
 10
2270.382711716613
 20
1162.116824438232
 30
0.0014780657202319
 10
2271.125322018905
 20
1160.607591287246
 30
0.0014780657202319
 10
2272.06143947557
 20
1158.981499667389
 30
0.0014780657201183
 10
2273.196540720971
 20
1157.243241967955
 30
0.0014780657201751
 10
2274.543656237833
 20
1155.393278778604
 30
0.0014780657202319
 10
2276.119230873936
 20
1153.44631604057
 30
0.0014780657201183
 10
2277.938851727919
 20
1151.393332154271
 30
0.0014780657201183
 10
2280.042732548388
 20
1149.185001580093
 30
0.0014780657202319
 10
2282.415269935586
 20
1146.890371871007
 30
0.0014780657201751
 10
2285.004274717939
 20
1144.590155210386
 30
0.0014780657201751
 10
2287.742298691831
 20
1142.355440610621
 30
0.0014780657202319
 10
2290.642637414423
 20
1140.181109219514
 30
0.0014780657202319
 10
2293.718642020379
 20
1138.063252356915
 30
0.0014780657201751
 10
2296.988059015365
 20
1135.997457199496
 30
0.0014780657201183
 10
2300.352235022207
 20
1134.042285112405
 30
0.0014780657201183
 10
2303.675323366871
 20
1132.275859520912
 30
0.0014780657201751
 10
2306.82017823517
 20
1130.782714924526
 30
0.0014780657201183
 10
2309.767074879699
 20
1129.562765964113
 30
0.0014780657202319
 10
2312.539314592999
 20
1128.59742854323
 30
0.0014780657201183
 10
2315.241699676786
 20
1127.847877727134
 30
0.0014780657201183
 10
2317.875755235056
 20
1127.330284954639
 30
0.0014780657201751
 10
2320.260322867007
 20
1127.081373603743
 30
0.0014780657201751
 10
2322.286968826336
 20
1127.055995834211
 30
0.0014780657201751
 10
2323.947126178166
 20
1127.222919131767
 30
0.0014780657202319
 10
2325.365804888456
 20
1127.578714944671
 30
0.0014780657202319
 10
2326.374300513069
 20
1127.95928358487
 30
0.0014780657201751
 10
2326.88291863641
 20
1128.281746715374
 30
0.0014780657201751
 10
2327.017155422331
 20
1128.37430111667
 30
0.0014780657201183
  0
SPLINE
  5
12A1
330
1F
100
AcDbEntity
  8
HEWI
100
AcDbSpline
210
-0.0000000000000162
220
0.000000000000022
230
1.0
 70
     8
 71
     3
 72
    10
 73
     6
 74
     0
 42
0.000000001
 43
0.0000000001
 40
0.0
 40
0.0
 40
0.0
 40
0.0
 40
0.1525320085938942
 40
0.1525320085938942
 40
1.0
 40
1.0
 40
1.0
 40
1.0
 10
2326.953726433732
 20
1128.312577101321
 30
0.0014780657202307
 10
2327.040443572234
 20
1128.364733562997
 30
0.0014780657202315
 10
2327.126086225959
 20
1128.41915171254
 30
0.0014780657202319
 10
2327.680211574266
 20
1128.791383940131
 30
0.0014780657202319
 10
2328.107178751249
 20
1129.179035805329
 30
0.0014780657202319
 10
2328.461483603323
 20
1129.655314554633
 30
0.0014780657202255
  0
SPLINE
  5
12A2
330
1F
100
AcDbEntity
  8
HEWI
100
AcDbSpline
210
-0.0000000000000014
220
-0.0000000000000028
230
1.0
 70
     8
 71
     3
 72
    24
 73
    20
 74
     0
 42
0.000000001
 43
0.0000000001
 40
0.0
 40
0.0
 40
0.0
 40
0.0
 40
0.0406914560186902
 40
0.0406914560186902
 40
0.1063064640116087
 40
0.1063064640116087
 40
0.2375364799974456
 40
0.2375364799974456
 40
0.3687664959832825
 40
0.3687664959832825
 40
0.4999965119691196
 40
0.4999965119691196
 40
0.7624565439407933
 40
0.7624565439407933
 40
0.8936865599266305
 40
0.8936865599266305
 40
0.9593015679195488
 40
0.9593015679195488
 40
1.0
 40
1.0
 40
1.0
 40
1.0
 10
2270.10909978445
 20
1163.360588481636
 30
0.0014780657201561
 10
2270.510367304091
 20
1162.252420209089
 30
0.0014780657201661
 10
2271.046809166997
 20
1161.149021782989
 30
0.0014780657201291
 10
2272.598638778825
 20
1158.394313414817
 30
0.0014780657201751
 10
2273.731104684715
 20
1156.777179309074
 30
0.0014780657201751
 10
2277.259837334004
 20
1152.268986909959
 30
0.0014780657201751
 10
2279.869437833799
 20
1149.597022076606
 30
0.0014780657201751
 10
2285.131010795103
 20
1144.78613760534
 30
0.0014780657201183
 10
2287.815631965673
 20
1142.62930599434
 30
0.0014780657201751
 10
2293.263344741565
 20
1138.678022194032
 30
0.0014780657202319
 10
2296.024026150024
 20
1136.892225047168
 30
0.0014780657201183
 10
2304.210094006874
 20
1132.169250648235
 30
0.0014780657201183
 10
2309.635001247726
 20
1129.73296318722
 30
0.0014780657201751
 10
2317.603167492831
 20
1127.814845856228
 30
0.0014780657201751
 10
2320.209232824158
 20
1127.477254686704
 30
0.0014780657201751
 10
2323.735053133876
 20
1127.912704534827
 30
0.0014780657201751
 10
2324.861870579806
 20
1128.220372018777
 30
0.0014780657200615
 10
2326.416975127732
 20
1129.186509064837
 30
0.0014780657201075
 10
2326.952417670311
 20
1129.670853801511
 30
0.0014780657201141
 10
2327.352524613361
 20
1130.315095673538
 30
0.0014780657201439
  0
ENDSEC
  0
SECTION
  2
OBJECTS
  0
DICTIONARY
  5
C
330
0
100
AcDbDictionary
281
     1
  3
ACAD_CIP_PREVIOUS_PRODUCT_INFO
350
1CC
  3
ACAD_COLOR
350
1AC
  3
ACAD_DETAILVIEWSTYLE
350
1C6
  3
ACAD_GROUP
350
D
  3
ACAD_LAYOUT
350
1A
  3
ACAD_MATERIAL
350
17A
  3
ACAD_MLEADERSTYLE
350
1C1
  3
ACAD_MLINESTYLE
350
17
  3
ACAD_PLOTSETTINGS
350
19
  3
ACAD_PLOTSTYLENAME
350
DF
  3
ACAD_SCALELIST
350
1AF
  3
ACAD_SECTIONVIEWSTYLE
350
1C3
  3
ACAD_TABLESTYLE
350
1AD
  3
ACAD_VISUALSTYLE
350
193
  3
ACDB_RECOMPOSE_DATA
350
12A4
  3
AcDbVariableDictionary
350
2CB
  3
AcDsDecomposeData
350
12AA
  0
DICTIONARY
  5
1E1
330
2
100
AcDbDictionary
280
     1
281
     1
  3
ACAD_LAYERSTATES
360
1E2
  0
DICTIONARY
  5
1CD
330
10
100
AcDbDictionary
280
     1
281
     1
  3
ADSK_XREC_LAYER_RECONCILED
360
1CE
  0
DICTIONARY
  5
D9
330
1F
100
AcDbDictionary
280
     1
281
     1
  3
ACAD_LAYOUTSELFREF
360
177
  3
ACAD_SORTENTS
360
292
  0
DICTIONARY
  5
D7
330
1B
100
AcDbDictionary
280
     1
281
     1
  3
ACAD_LAYOUTSELFREF
360
176
  0
XRECORD
  5
1CC
102
{ACAD_REACTORS
330
C
102
}
330
C
100
AcDbXrecord
280
     1
300
ACDLT
300
2017
300
ACDLT_F_S
  0
DICTIONARY
  5
1AC
102
{ACAD_REACTORS
330
C
102
}
330
C
100
AcDbDictionary
281
     1
  0
DICTIONARY
  5
1C6
102
{ACAD_REACTORS
330
C
102
}
330
C
100
AcDbDictionary
281
     1
  3
Imperial24
350
1C7
  3
Metric50
350
5C1
  0
DICTIONARY
  5
D
102
{ACAD_REACTORS
330
C
102
}
330
C
100
AcDbDictionary
281
     1
  0
DICTIONARY
  5
1A
102
{ACAD_REACTORS
330
C
102
}
330
C
100
AcDbDictionary
281
     1
  3
Layout1
350
1C9
  3
Model
350
1C8
  0
DICTIONARY
  5
17A
102
{ACAD_REACTORS
330
C
102
}
330
C
100
AcDbDictionary
281
     1
  3
ByBlock
350
183
  3
ByLayer
350
17B
  3
Global
350
18B
  0
DICTIONARY
  5
1C1
102
{ACAD_REACTORS
330
C
102
}
330
C
100
AcDbDictionary
281
     1
  3
Standard
350
1C2
  0
DICTIONARY
  5
17
102
{ACAD_REACTORS
330
C
102
}
330
C
100
AcDbDictionary
281
     1
  3
STANDARD
350
18
  0
DICTIONARY
  5
19
102
{ACAD_REACTORS
330
C
102
}
330
C
100
AcDbDictionary
281
     1
  0
ACDBDICTIONARYWDFLT
  5
DF
102
{ACAD_REACTORS
330
C
102
}
330
C
100
AcDbDictionary
281
     1
  3
Normal
350
E0
100
AcDbDictionaryWithDefault
340
E0
  0
DICTIONARY
  5
1AF
102
{ACAD_REACTORS
330
C
102
}
330
C
100
AcDbDictionary
281
     1
  3
A0
350
1B0
  3
A1
350
1B1
  3
A2
350
1B2
  3
A3
350
1B3
  3
A4
350
1B4
  3
A5
350
1B5
  3
A6
350
1B6
  3
A7
350
1B7
  3
A8
350
1B8
  3
A9
350
1B9
  3
B0
350
1BA
  3
B1
350
1BB
  3
B2
350
1BC
  3
B3
350
1BD
  3
B4
350
1BE
  3
B5
350
1BF
  3
B6
350
1C0
  0
DICTIONARY
  5
1C3
102
{ACAD_REACTORS
330
C
102
}
330
C
100
AcDbDictionary
281
     1
  3
Imperial24
350
1C5
  3
Metric50
350
5C0
  0
DICTIONARY
  5
1AD
102
{ACAD_REACTORS
330
C
102
}
330
C
100
AcDbDictionary
281
     1
  3
Standard
350
1AE
  0
DICTIONARY
  5
193
102
{ACAD_REACTORS
330
C
102
}
330
C
100
AcDbDictionary
281
     1
  3
2dWireframe
350
199
  3
Basic
350
198
  3
Brighten
350
19F
  3
ColorChange
350
1A3
  3
Conceptual
350
19C
  3
Dim
350
19E
  3
EdgeColorOff
350
1AB
  3
Facepattern
350
1A2
  3
Flat
350
194
  3
FlatWithEdges
350
195
  3
Gouraud
350
196
  3
GouraudWithEdges
350
197
  3
Hidden
350
19B
  3
JitterOff
350
1A9
  3
Linepattern
350
1A1
  3
OverhangOff
350
1AA
  3
Realistic
350
19D
  3
Shaded
350
1A8
  3
Shaded with edges
350
1A7
  3
Shades of Gray
350
1A4
  3
Sketchy
350
1A5
  3
Thicken
350
1A0
  3
Wireframe
350
19A
  3
X-Ray
350
1A6
  0
XRECORD
  5
12A4
102
{ACAD_REACTORS
330
C
102
}
330
C
100
AcDbXrecord
280
     1
 90
        1
330
1AE
  0
DICTIONARY
  5
2CB
102
{ACAD_REACTORS
330
C
102
}
330
C
100
AcDbDictionary
281
     1
  3
CANNOSCALE
350
2D1
  3
CMLEADERSTYLE
350
2CD
  3
CTABLESTYLE
350
2CC
  3
CVIEWDETAILSTYLE
350
2CE
  3
CVIEWSECTIONSTYLE
350
2CF
  3
LAYEREVAL
350
2D3
  3
LAYERNOTIFY
350
2D4
  3
LIGHTINGUNITS
350
2D2
  3
MSLTSCALE
350
2D0
  0
DICTIONARY
  5
12AA
102
{ACAD_REACTORS
330
C
102
}
330
C
100
AcDbDictionary
281
     1
  3
AcDsRecords
350
12AC
  3
AcDsSchemas
350
12AB
1001
ACAD
1070
     2
  0
DICTIONARY
  5
1E2
102
{ACAD_REACTORS
330
1E1
102
}
330
1E1
100
AcDbDictionary
281
     1
  0
XRECORD
  5
1CE
102
{ACAD_REACTORS
330
1CD
102
}
330
1CD
100
AcDbXrecord
280
     1
290
     1
  0
XRECORD
  5
177
102
{ACAD_REACTORS
330
D9
102
}
330
D9
100
AcDbXrecord
280
     1
340
1F
  0
SORTENTSTABLE
  5
292
102
{ACAD_REACTORS
330
D9
102
}
330
D9
100
AcDbSortentsTable
330
1F
  0
XRECORD
  5
176
102
{ACAD_REACTORS
330
D7
102
}
330
D7
100
AcDbXrecord
280
     1
340
1B
  0
ACDBDETAILVIEWSTYLE
  5
1C7
102
{ACAD_XDICTIONARY
360
12DF
102
}
102
{ACAD_REACTORS
330
1C6
102
}
330
1C6
100
AcDbModelDocViewStyle
 70
     0
  3
Imperial24
290
     0
100
AcDbDetailViewStyle
 70
     0
 71
     0
 90
        3
 71
     1
340
11
 62
   256
 40
0.24
340
0
 62
   256
 40
0.24
300

 40
0.36
280
     3
 71
     2
340
16
 90
       25
 62
   256
 71
     3
340
11
 62
   256
 40
0.24
 90
        1
 40
0.75
 90
        1
300
%<\AcVar ViewType \f "%tc1">% %<\AcVar ViewDetailId>%\PVARIA %<\AcVar ViewScale \f "%sn">%
 71
     4
340
16
 90
       25
 62
   256
340
16
 90
       25
 62
   256
280
     0
  0
ACDBDETAILVIEWSTYLE
  5
5C1
102
{ACAD_XDICTIONARY
360
12E3
102
}
102
{ACAD_REACTORS
330
1C6
102
}
330
1C6
100
AcDbModelDocViewStyle
 70
     0
  3
Metric50
290
     0
100
AcDbDetailViewStyle
 70
     0
 71
     0
 90
        3
 71
     1
340
11
 62
   256
 40
5.0
340
0
 62
   256
 40
5.0
300

 40
0.0
280
     1
 71
     2
340
16
 90
       25
 62
   256
 71
     3
340
11
 62
   256
 40
5.0
 90
        0
 40
15.0
 90
        1
300
%<\AcVar ViewDetailId>% (%<\AcVar ViewScale \f "%sn">%)
 71
     4
340
16
 90
       25
 62
   256
340
16
 90
       25
 62
   256
280
     0
  0
LAYOUT
  5
1C9
102
{ACAD_REACTORS
330
1A
102
}
330
1A
100
AcDbPlotSettings
  1

  2
\\srvadruck01\MFSA15
  4

  6

 40
0.0
 41
0.0
 42
0.0
 43
0.0
 44
0.0
 45
0.0
 46
0.0
 47
0.0
 48
0.0
 49
0.0
140
0.0
141
0.0
142
1.0
143
1.0
 70
   688
 72
     0
 73
     0
 74
     5
  7

 75
    16
147
1.0
 76
     0
 77
     2
 78
   300
148
0.0
149
0.0
100
AcDbLayout
  1
Layout1
 70
     1
 71
     1
 10
0.0
 20
0.0
 11
12.0
 21
9.0
 12
0.0
 22
0.0
 32
0.0
 14
1.000000000000000E+20
 24
1.000000000000000E+20
 34
1.000000000000000E+20
 15
-1.000000000000000E+20
 25
-1.000000000000000E+20
 35
-1.000000000000000E+20
146
0.0
 13
0.0
 23
0.0
 33
0.0
 16
1.0
 26
0.0
 36
0.0
 17
0.0
 27
1.0
 37
0.0
 76
     0
330
1B
  0
LAYOUT
  5
1C8
102
{ACAD_REACTORS
330
1A
102
}
330
1A
100
AcDbPlotSettings
  1

  2
\\srvadruck01\MFSA15
  4
A4
  6

 40
5.027082920074462
 41
5.027099609375
 42
5.027069091796875
 43
5.027069091796875
 44
209.9733276367186
 45
296.9259948730469
 46
0.0
 47
0.0
 48
0.0
 49
0.0
140
0.0
141
0.0
142
1.0
143
250.9557649309207
 70
 11952
 72
     0
 73
     1
 74
     0
  7

 75
     0
147
0.003984766001591
 76
     0
 77
     2
 78
   300
148
18758.74732672532
149
6385.478578639141
100
AcDbLayout
  1
Model
 70
     1
 71
     0
 10
0.0
 20
0.0
 11
12.0
 21
9.0
 12
0.0
 22
0.0
 32
0.0
 14
0.0
 24
0.0
 34
0.0
 15
0.0
 25
0.0
 35
0.0
146
0.0
 13
0.0
 23
0.0
 33
0.0
 16
1.0
 26
0.0
 36
0.0
 17
0.0
 27
1.0
 37
0.0
 76
     0
330
1F
331
155
1001
ACAD_PSEXT
1000
\\srvadruck01\MFSA15
1000
KONICA MINOLTA C754SeriesPCL
1000
Marketing
1000

1070
     0
  0
MATERIAL
  5
183
102
{ACAD_XDICTIONARY
360
184
102
}
102
{ACAD_REACTORS
330
17A
102
}
330
17A
100
AcDbMaterial
  1
ByBlock
 72
     0
 43
0.0208333333333333
 43
0.0
 43
0.0
 43
0.0
 43
0.0
 43
0.0208333333333333
 43
0.0
 43
0.0
 43
0.0
 43
0.0
 43
1.0
 43
0.0
 43
0.0
 43
0.0
 43
0.0
 43
1.0
 77
     0
 47
0.0208333333333333
 47
0.0
 47
0.0
 47
0.0
 47
0.0
 47
0.0208333333333333
 47
0.0
 47
0.0
 47
0.0
 47
0.0
 47
1.0
 47
0.0
 47
0.0
 47
0.0
 47
0.0
 47
1.0
171
     0
 49
0.0208333333333333
 49
0.0
 49
0.0
 49
0.0
 49
0.0
 49
0.0208333333333333
 49
0.0
 49
0.0
 49
0.0
 49
0.0
 49
1.0
 49
0.0
 49
0.0
 49
0.0
 49
0.0
 49
1.0
175
     0
142
0.0208333333333333
142
0.0
142
0.0
142
0.0
142
0.0
142
0.0208333333333333
142
0.0
142
0.0
142
0.0
142
0.0
142
1.0
142
0.0
142
0.0
142
0.0
142
0.0
142
1.0
179
     0
144
0.0208333333333333
144
0.0
144
0.0
144
0.0
144
0.0
144
0.0208333333333333
144
0.0
144
0.0
144
0.0
144
0.0
144
1.0
144
0.0
144
0.0
144
0.0
144
0.0
144
1.0
147
0.0208333333333333
147
0.0
147
0.0
147
0.0
147
0.0
147
0.0208333333333333
147
0.0
147
0.0
147
0.0
147
0.0
147
1.0
147
0.0
147
0.0
147
0.0
147
0.0
147
1.0
  0
MATERIAL
  5
17B
102
{ACAD_XDICTIONARY
360
17C
102
}
102
{ACAD_REACTORS
330
17A
102
}
330
17A
100
AcDbMaterial
  1
ByLayer
 72
     0
 43
0.0208333333333333
 43
0.0
 43
0.0
 43
0.0
 43
0.0
 43
0.0208333333333333
 43
0.0
 43
0.0
 43
0.0
 43
0.0
 43
1.0
 43
0.0
 43
0.0
 43
0.0
 43
0.0
 43
1.0
 77
     0
 47
0.0208333333333333
 47
0.0
 47
0.0
 47
0.0
 47
0.0
 47
0.0208333333333333
 47
0.0
 47
0.0
 47
0.0
 47
0.0
 47
1.0
 47
0.0
 47
0.0
 47
0.0
 47
0.0
 47
1.0
171
     0
 49
0.0208333333333333
 49
0.0
 49
0.0
 49
0.0
 49
0.0
 49
0.0208333333333333
 49
0.0
 49
0.0
 49
0.0
 49
0.0
 49
1.0
 49
0.0
 49
0.0
 49
0.0
 49
0.0
 49
1.0
175
     0
142
0.0208333333333333
142
0.0
142
0.0
142
0.0
142
0.0
142
0.0208333333333333
142
0.0
142
0.0
142
0.0
142
0.0
142
1.0
142
0.0
142
0.0
142
0.0
142
0.0
142
1.0
179
     0
144
0.0208333333333333
144
0.0
144
0.0
144
0.0
144
0.0
144
0.0208333333333333
144
0.0
144
0.0
144
0.0
144
0.0
144
1.0
144
0.0
144
0.0
144
0.0
144
0.0
144
1.0
147
0.0208333333333333
147
0.0
147
0.0
147
0.0
147
0.0
147
0.0208333333333333
147
0.0
147
0.0
147
0.0
147
0.0
147
1.0
147
0.0
147
0.0
147
0.0
147
0.0
147
1.0
  0
MATERIAL
  5
18B
102
{ACAD_XDICTIONARY
360
18C
102
}
102
{ACAD_REACTORS
330
17A
102
}
330
17A
100
AcDbMaterial
  1
Global
 72
     0
 43
0.0208333333333333
 43
0.0
 43
0.0
 43
0.0
 43
0.0
 43
0.0208333333333333
 43
0.0
 43
0.0
 43
0.0
 43
0.0
 43
1.0
 43
0.0
 43
0.0
 43
0.0
 43
0.0
 43
1.0
 77
     0
 47
0.0208333333333333
 47
0.0
 47
0.0
 47
0.0
 47
0.0
 47
0.0208333333333333
 47
0.0
 47
0.0
 47
0.0
 47
0.0
 47
1.0
 47
0.0
 47
0.0
 47
0.0
 47
0.0
 47
1.0
171
     0
 49
0.0208333333333333
 49
0.0
 49
0.0
 49
0.0
 49
0.0
 49
0.0208333333333333
 49
0.0
 49
0.0
 49
0.0
 49
0.0
 49
1.0
 49
0.0
 49
0.0
 49
0.0
 49
0.0
 49
1.0
175
     0
142
0.0208333333333333
142
0.0
142
0.0
142
0.0
142
0.0
142
0.0208333333333333
142
0.0
142
0.0
142
0.0
142
0.0
142
1.0
142
0.0
142
0.0
142
0.0
142
0.0
142
1.0
179
     0
144
0.0208333333333333
144
0.0
144
0.0
144
0.0
144
0.0
144
0.0208333333333333
144
0.0
144
0.0
144
0.0
144
0.0
144
1.0
144
0.0
144
0.0
144
0.0
144
0.0
144
1.0
147
0.0208333333333333
147
0.0
147
0.0
147
0.0
147
0.0
147
0.0208333333333333
147
0.0
147
0.0
147
0.0
147
0.0
147
1.0
147
0.0
147
0.0
147
0.0
147
0.0
147
1.0
  0
MLEADERSTYLE
  5
1C2
102
{ACAD_REACTORS
330
1C1
102
}
330
1C1
100
AcDbMLeaderStyle
179
     2
170
     2
171
     1
172
     0
 90
        2
 40
0.0
 41
0.0
173
     1
 91
-1056964608
340
14
 92
       -2
290
     1
 42
0.09
291
     1
 43
0.36
  3
Standard
 44
0.18
300

342
11
174
     1
178
     6
175
     1
176
     0
 93
-1056964608
 45
0.18
292
     0
297
     0
 46
0.18
 94
-1056964608
 47
1.0
 49
1.0
140
1.0
293
     1
141
0.0
294
     1
177
     0
142
1.0
295
     0
296
     0
143
0.125
271
     0
272
     9
273
     9
  0
MLINESTYLE
  5
18
102
{ACAD_REACTORS
330
17
102
}
330
17
100
AcDbMlineStyle
  2
STANDARD
 70
     0
  3

 62
   256
 51
90.0
 52
90.0
 71
     2
 49
0.5
 62
   256
  6
BYLAYER
 49
-0.5
 62
   256
  6
BYLAYER
  0
ACDBPLACEHOLDER
  5
E0
102
{ACAD_REACTORS
330
DF
102
}
330
DF
  0
SCALE
  5
1B0
102
{ACAD_REACTORS
330
1AF
102
}
330
1AF
100
AcDbScale
 70
     0
300
1:1
140
1.0
141
1.0
290
     1
  0
SCALE
  5
1B1
102
{ACAD_REACTORS
330
1AF
102
}
330
1AF
100
AcDbScale
 70
     0
300
1/128" = 1'-0"
140
0.0078125
141
12.0
290
     0
  0
SCALE
  5
1B2
102
{ACAD_REACTORS
330
1AF
102
}
330
1AF
100
AcDbScale
 70
     0
300
1/64" = 1'-0"
140
0.015625
141
12.0
290
     0
  0
SCALE
  5
1B3
102
{ACAD_REACTORS
330
1AF
102
}
330
1AF
100
AcDbScale
 70
     0
300
1/32" = 1'-0"
140
0.03125
141
12.0
290
     0
  0
SCALE
  5
1B4
102
{ACAD_REACTORS
330
1AF
102
}
330
1AF
100
AcDbScale
 70
     0
300
1/16" = 1'-0"
140
0.0625
141
12.0
290
     0
  0
SCALE
  5
1B5
102
{ACAD_REACTORS
330
1AF
102
}
330
1AF
100
AcDbScale
 70
     0
300
3/32" = 1'-0"
140
0.09375
141
12.0
290
     0
  0
SCALE
  5
1B6
102
{ACAD_REACTORS
330
1AF
102
}
330
1AF
100
AcDbScale
 70
     0
300
1/8" = 1'-0"
140
0.125
141
12.0
290
     0
  0
SCALE
  5
1B7
102
{ACAD_REACTORS
330
1AF
102
}
330
1AF
100
AcDbScale
 70
     0
300
3/16" = 1'-0"
140
0.1875
141
12.0
290
     0
  0
SCALE
  5
1B8
102
{ACAD_REACTORS
330
1AF
102
}
330
1AF
100
AcDbScale
 70
     0
300
1/4" = 1'-0"
140
0.25
141
12.0
290
     0
  0
SCALE
  5
1B9
102
{ACAD_REACTORS
330
1AF
102
}
330
1AF
100
AcDbScale
 70
     0
300
3/8" = 1'-0"
140
0.375
141
12.0
290
     0
  0
SCALE
  5
1BA
102
{ACAD_REACTORS
330
1AF
102
}
330
1AF
100
AcDbScale
 70
     0
300
1/2" = 1'-0"
140
0.5
141
12.0
290
     0
  0
SCALE
  5
1BB
102
{ACAD_REACTORS
330
1AF
102
}
330
1AF
100
AcDbScale
 70
     0
300
3/4" = 1'-0"
140
0.75
141
12.0
290
     0
  0
SCALE
  5
1BC
102
{ACAD_REACTORS
330
1AF
102
}
330
1AF
100
AcDbScale
 70
     0
300
1" = 1'-0"
140
1.0
141
12.0
290
     0
  0
SCALE
  5
1BD
102
{ACAD_REACTORS
330
1AF
102
}
330
1AF
100
AcDbScale
 70
     0
300
1-1/2" = 1'-0"
140
1.5
141
12.0
290
     0
  0
SCALE
  5
1BE
102
{ACAD_REACTORS
330
1AF
102
}
330
1AF
100
AcDbScale
 70
     0
300
3" = 1'-0"
140
3.0
141
12.0
290
     0
  0
SCALE
  5
1BF
102
{ACAD_REACTORS
330
1AF
102
}
330
1AF
100
AcDbScale
 70
     0
300
6" = 1'-0"
140
6.0
141
12.0
290
     0
  0
SCALE
  5
1C0
102
{ACAD_REACTORS
330
1AF
102
}
330
1AF
100
AcDbScale
 70
     0
300
1'-0" = 1'-0"
140
12.0
141
12.0
290
     0
  0
ACDBSECTIONVIEWSTYLE
  5
1C5
102
{ACAD_XDICTIONARY
360
12DD
102
}
102
{ACAD_REACTORS
330
1C3
102
}
330
1C3
100
AcDbModelDocViewStyle
 70
     0
  3
Imperial24
290
     0
100
AcDbSectionViewStyle
 70
     0
 71
     0
 90
       78
 71
     1
340
11
 62
   256
 40
0.24
340
0
340
0
 62
   256
 40
0.24
300
I, O, Q, S, X, Z
 40
0.48
 90
        3
 40
0.18
 90
        1
 71
     2
340
1C4
 90
       25
 62
   256
340
16
 90
       50
 62
   256
 40
0.24
 40
0.0
 40
0.24
 71
     3
340
11
 62
   256
 40
0.24
 90
        1
 40
0.75
 90
        1
300
%<\AcVar ViewType \f "%tc1">% %<\AcVar ViewSectionStartId>%-%<\AcVar ViewSectionEndId>%\PVARIA %<\AcVar ViewScale \f "%sn">%
 71
     4
 62
   256
 62
   257
300
ANSI31
 40
1.0
 90
        0
290
     0
290
     0
 90
        6
 40
0.0
 40
1.570796326794896
 40
0.2617993877991494
 40
1.308996938995747
 40
-0.2617993877991494
 40
1.832595714594044
  0
ACDBSECTIONVIEWSTYLE
  5
5C0
102
{ACAD_XDICTIONARY
360
12E1
102
}
102
{ACAD_REACTORS
330
1C3
102
}
330
1C3
100
AcDbModelDocViewStyle
 70
     0
  3
Metric50
290
     0
100
AcDbSectionViewStyle
 70
     0
 71
     0
 90
      102
 71
     1
340
11
 62
   256
 40
5.0
340
0
340
0
 62
   256
 40
5.0
300
I, O, Q, S, X, Z
 40
10.0
 90
        0
 40
2.5
 90
        0
 71
     2
340
16
 90
       25
 62
   256
340
16
 90
       50
 62
   256
 40
5.0
 40
2.5
 40
5.0
 71
     3
340
11
 62
   256
 40
5.0
 90
        0
 40
15.0
 90
        1
300
%<\AcVar ViewSectionStartId>%-%<\AcVar ViewSectionEndId>% (%<\AcVar ViewScale \f "%sn">%)
 71
     4
 62
   256
 62
   257
300
ANSI31
 40
1.0
 90
        0
290
     0
290
     0
 90
        6
 40
0.0
 40
1.570796326794896
 40
0.2617993877991494
 40
1.308996938995747
 40
-0.2617993877991494
 40
1.832595714594046
  0
TABLESTYLE
  5
1AE
102
{ACAD_XDICTIONARY
360
35F
102
}
102
{ACAD_REACTORS
330
1AD
102
}
330
1AD
100
AcDbTableStyle
280
     0
  3
Standard
 70
     0
 71
     0
 40
0.06
 41
0.06
280
     0
281
     0
  7
STANDARD
140
0.18
170
     2
 62
     0
 63
     7
283
     0
 90
      512
 91
        0
  1

274
    -2
284
     1
 64
     0
275
    -2
285
     1
 65
     0
276
    -2
286
     1
 66
     0
277
    -2
287
     1
 67
     0
278
    -2
288
     1
 68
     0
279
    -2
289
     1
 69
     0
  7
STANDARD
140
0.25
170
     5
 62
     0
 63
     7
283
     0
 90
      512
 91
        0
  1

274
    -2
284
     1
 64
     0
275
    -2
285
     1
 65
     0
276
    -2
286
     1
 66
     0
277
    -2
287
     1
 67
     0
278
    -2
288
     1
 68
     0
279
    -2
289
     1
 69
     0
  7
STANDARD
140
0.18
170
     5
 62
     0
 63
     7
283
     0
 90
      512
 91
        0
  1

274
    -2
284
     1
 64
     0
275
    -2
285
     1
 65
     0
276
    -2
286
     1
 66
     0
277
    -2
287
     1
 67
     0
278
    -2
288
     1
 68
     0
279
    -2
289
     1
 69
     0
  0
VISUALSTYLE
  5
199
102
{ACAD_XDICTIONARY
360
12B7
102
}
102
{ACAD_REACTORS
330
193
102
}
330
193
100
AcDbVisualStyle
  2
2dWireframe
 70
     4
177
     2
291
     0
 71
     0
176
     1
 72
     2
176
     1
 73
     0
176
     1
 90
        0
176
     1
 40
0.6
176
     1
 41
30.0
176
     1
 63
     7
421
 16777215
176
     1
 74
     1
176
     1
 91
        4
176
     1
 64
     7
176
     1
 65
   257
176
     1
 75
     1
176
     1
175
     1
176
     1
 42
1.0
176
     1
 92
        0
176
     1
 66
   257
176
     1
 43
1.0
176
     1
 76
     1
176
     1
 77
     6
176
     1
 78
     2
176
     1
 67
     7
176
     1
 79
     5
176
     1
170
     0
176
     1
171
     0
176
     1
290
     0
176
     1
 93
        1
176
     1
 44
0.0
176
     1
173
     0
176
     1
1001
ACAD
1000
AcDbSavedByObjectVersion
1070
     0
  0
VISUALSTYLE
  5
198
102
{ACAD_XDICTIONARY
360
12B5
102
}
102
{ACAD_REACTORS
330
193
102
}
330
193
100
AcDbVisualStyle
  2
Basic
 70
     7
177
     2
291
     1
 71
     1
176
     1
 72
     0
176
     1
 73
     1
176
     1
 90
        0
176
     1
 40
0.6
176
     1
 41
30.0
176
     1
 63
     7
421
 16777215
176
     1
 74
     0
176
     1
 91
        4
176
     1
 64
     7
176
     1
 65
   257
176
     1
 75
     1
176
     1
175
     1
176
     1
 42
1.0
176
     1
 92
        8
176
     1
 66
     7
176
     1
 43
1.0
176
     1
 76
     1
176
     1
 77
     6
176
     1
 78
     2
176
     1
 67
     7
176
     1
 79
     5
176
     1
170
     0
176
     1
171
     0
176
     1
290
     0
176
     1
 93
        1
176
     1
 44
0.0
176
     1
173
     0
176
     1
1001
ACAD
1000
AcDbSavedByObjectVersion
1070
     0
  0
VISUALSTYLE
  5
19F
102
{ACAD_XDICTIONARY
360
12C3
102
}
102
{ACAD_REACTORS
330
193
102
}
330
193
100
AcDbVisualStyle
  2
Brighten
 70
    12
177
     2
291
     1
 71
     2
176
     1
 72
     2
176
     1
 73
     0
176
     1
 90
        0
176
     1
 40
0.6
176
     1
 41
30.0
176
     1
 63
     7
421
 16777215
176
     1
 74
     1
176
     1
 91
        4
176
     1
 64
     7
176
     1
 65
   257
176
     1
 75
     1
176
     1
175
     1
176
     1
 42
1.0
176
     1
 92
        8
176
     1
 66
     7
176
     1
 43
1.0
176
     1
 76
     1
176
     1
 77
     6
176
     1
 78
     2
176
     1
 67
     7
176
     1
 79
     5
176
     1
170
     0
176
     1
171
     0
176
     1
290
     0
176
     1
 93
        1
176
     1
 44
50.0
176
     1
173
     0
176
     1
1001
ACAD
1000
AcDbSavedByObjectVersion
1070
     0
  0
VISUALSTYLE
  5
1A3
102
{ACAD_XDICTIONARY
360
12CB
102
}
102
{ACAD_REACTORS
330
193
102
}
330
193
100
AcDbVisualStyle
  2
ColorChange
 70
    16
177
     2
291
     1
 71
     2
176
     1
 72
     2
176
     1
 73
     3
176
     1
 90
        0
176
     1
 40
0.6
176
     1
 41
30.0
176
     1
 63
     8
421
  8421504
176
     1
 74
     1
176
     1
 91
        4
176
     1
 64
     7
176
     1
 65
   257
176
     1
 75
     1
176
     1
175
     1
176
     1
 42
1.0
176
     1
 92
        8
176
     1
 66
     8
424
  8421504
176
     1
 43
1.0
176
     1
 76
     1
176
     1
 77
     6
176
     1
 78
     2
176
     1
 67
     7
176
     1
 79
     5
176
     1
170
     0
176
     1
171
     0
176
     1
290
     0
176
     1
 93
        1
176
     1
 44
0.0
176
     1
173
     0
176
     1
1001
ACAD
1000
AcDbSavedByObjectVersion
1070
     0
  0
VISUALSTYLE
  5
19C
102
{ACAD_XDICTIONARY
360
12BD
102
}
102
{ACAD_REACTORS
330
193
102
}
330
193
100
AcDbVisualStyle
  2
Conceptual
 70
     9
177
     2
291
     0
 71
     3
176
     1
 72
     2
176
     1
 73
     0
176
     1
 90
        0
176
     1
 40
0.6
176
     1
 41
30.0
176
     1
 63
     7
421
 16777215
176
     1
 74
     2
176
     1
 91
        2
176
     1
 64
     7
176
     1
 65
   257
176
     1
 75
     1
176
     1
175
     1
176
     1
 42
179.0
176
     1
 92
        8
176
     1
 66
     7
176
     1
 43
1.0
176
     1
 76
     1
176
     1
 77
     6
176
     1
 78
     2
176
     1
 67
     7
176
     1
 79
     3
176
     1
170
     0
176
     1
171
     0
176
     1
290
     0
176
     1
 93
        1
176
     1
 44
0.0
176
     1
173
     0
176
     1
1001
ACAD
1000
AcDbSavedByObjectVersion
1070
     0
  0
VISUALSTYLE
  5
19E
102
{ACAD_XDICTIONARY
360
12C1
102
}
102
{ACAD_REACTORS
330
193
102
}
330
193
100
AcDbVisualStyle
  2
Dim
 70
    11
177
     2
291
     1
 71
     2
176
     1
 72
     2
176
     1
 73
     0
176
     1
 90
        0
176
     1
 40
0.6
176
     1
 41
30.0
176
     1
 63
     7
421
 16777215
176
     1
 74
     1
176
     1
 91
        4
176
     1
 64
     7
176
     1
 65
   257
176
     1
 75
     1
176
     1
175
     1
176
     1
 42
1.0
176
     1
 92
        8
176
     1
 66
     7
176
     1
 43
1.0
176
     1
 76
     1
176
     1
 77
     6
176
     1
 78
     2
176
     1
 67
     7
176
     1
 79
     5
176
     1
170
     0
176
     1
171
     0
176
     1
290
     0
176
     1
 93
        1
176
     1
 44
-50.0
176
     1
173
     0
176
     1
1001
ACAD
1000
AcDbSavedByObjectVersion
1070
     0
  0
VISUALSTYLE
  5
1AB
102
{ACAD_XDICTIONARY
360
12DB
102
}
102
{ACAD_REACTORS
330
193
102
}
330
193
100
AcDbVisualStyle
  2
EdgeColorOff
 70
    22
177
     2
291
     1
 71
     2
176
     0
 72
     2
176
     0
 73
     0
176
     0
 90
        0
176
     0
 40
0.6
176
     0
 41
30.0
176
     0
 63
     7
421
 16777215
176
     0
 74
     1
176
     0
 91
        4
176
     0
 64
     7
176
     0
 65
   257
176
     0
 75
     1
176
     0
175
     1
176
     0
 42
1.0
176
     0
 92
        8
176
     2
 66
     7
176
     0
 43
1.0
176
     0
 76
     1
176
     0
 77
     6
176
     0
 78
     2
176
     0
 67
     7
176
     0
 79
     5
176
     0
170
     0
176
     0
171
     0
176
     0
290
     0
176
     0
 93
        1
176
     0
 44
0.0
176
     0
173
     0
176
     0
1001
ACAD
1000
AcDbSavedByObjectVersion
1070
     0
  0
VISUALSTYLE
  5
1A2
102
{ACAD_XDICTIONARY
360
12C9
102
}
102
{ACAD_REACTORS
330
193
102
}
330
193
100
AcDbVisualStyle
  2
Facepattern
 70
    15
177
     2
291
     1
 71
     2
176
     1
 72
     2
176
     1
 73
     0
176
     1
 90
        0
176
     1
 40
0.6
176
     1
 41
30.0
176
     1
 63
     7
421
 16777215
176
     1
 74
     1
176
     1
 91
        4
176
     1
 64
     7
176
     1
 65
   257
176
     1
 75
     1
176
     1
175
     1
176
     1
 42
1.0
176
     1
 92
        8
176
     1
 66
     7
176
     1
 43
1.0
176
     1
 76
     1
176
     1
 77
     6
176
     1
 78
     2
176
     1
 67
     7
176
     1
 79
     5
176
     1
170
     0
176
     1
171
     0
176
     1
290
     0
176
     1
 93
        1
176
     1
 44
0.0
176
     1
173
     0
176
     1
1001
ACAD
1000
AcDbSavedByObjectVersion
1070
     0
  0
VISUALSTYLE
  5
194
102
{ACAD_XDICTIONARY
360
12AD
102
}
102
{ACAD_REACTORS
330
193
102
}
330
193
100
AcDbVisualStyle
  2
Flat
 70
     0
177
     2
291
     1
 71
     2
176
     1
 72
     1
176
     1
 73
     1
176
     1
 90
        2
176
     1
 40
0.6
176
     1
 41
30.0
176
     1
 63
     7
421
 16777215
176
     1
 74
     0
176
     1
 91
        0
176
     1
 64
     7
176
     1
 65
   257
176
     1
 75
     1
176
     1
175
     1
176
     1
 42
1.0
176
     1
 92
        8
176
     1
 66
     7
176
     1
 43
1.0
176
     1
 76
     1
176
     1
 77
     6
176
     1
 78
     2
176
     1
 67
     7
176
     1
 79
     5
176
     1
170
     0
176
     1
171
     0
176
     1
290
     0
176
     1
 93
       13
176
     1
 44
0.0
176
     1
173
     0
176
     1
1001
ACAD
1000
AcDbSavedByObjectVersion
1070
     0
  0
VISUALSTYLE
  5
195
102
{ACAD_XDICTIONARY
360
12AF
102
}
102
{ACAD_REACTORS
330
193
102
}
330
193
100
AcDbVisualStyle
  2
FlatWithEdges
 70
     1
177
     2
291
     1
 71
     2
176
     1
 72
     1
176
     1
 73
     1
176
     1
 90
        2
176
     1
 40
0.6
176
     1
 41
30.0
176
     1
 63
     7
421
 16777215
176
     1
 74
     1
176
     1
 91
        0
176
     1
 64
     7
176
     1
 65
   257
176
     1
 75
     1
176
     1
175
     1
176
     1
 42
1.0
176
     1
 92
        0
176
     1
 66
   257
176
     1
 43
1.0
176
     1
 76
     1
176
     1
 77
     6
176
     1
 78
     2
176
     1
 67
     7
176
     1
 79
     5
176
     1
170
     0
176
     1
171
     0
176
     1
290
     0
176
     1
 93
       13
176
     1
 44
0.0
176
     1
173
     0
176
     1
1001
ACAD
1000
AcDbSavedByObjectVersion
1070
     0
  0
VISUALSTYLE
  5
196
102
{ACAD_XDICTIONARY
360
12B1
102
}
102
{ACAD_REACTORS
330
193
102
}
330
193
100
AcDbVisualStyle
  2
Gouraud
 70
     2
177
     2
291
     1
 71
     2
176
     1
 72
     2
176
     1
 73
     1
176
     1
 90
        2
176
     1
 40
0.6
176
     1
 41
30.0
176
     1
 63
     7
421
 16777215
176
     1
 74
     0
176
     1
 91
        0
176
     1
 64
     7
176
     1
 65
   257
176
     1
 75
     1
176
     1
175
     1
176
     1
 42
1.0
176
     1
 92
        0
176
     1
 66
     7
176
     1
 43
1.0
176
     1
 76
     1
176
     1
 77
     6
176
     1
 78
     2
176
     1
 67
     7
176
     1
 79
     5
176
     1
170
     0
176
     1
171
     0
176
     1
290
     0
176
     1
 93
       13
176
     1
 44
0.0
176
     1
173
     0
176
     1
1001
ACAD
1000
AcDbSavedByObjectVersion
1070
     0
  0
VISUALSTYLE
  5
197
102
{ACAD_XDICTIONARY
360
12B3
102
}
102
{ACAD_REACTORS
330
193
102
}
330
193
100
AcDbVisualStyle
  2
GouraudWithEdges
 70
     3
177
     2
291
     1
 71
     2
176
     1
 72
     2
176
     1
 73
     1
176
     1
 90
        2
176
     1
 40
0.6
176
     1
 41
30.0
176
     1
 63
     7
421
 16777215
176
     1
 74
     1
176
     1
 91
        0
176
     1
 64
     7
176
     1
 65
   257
176
     1
 75
     1
176
     1
175
     1
176
     1
 42
1.0
176
     1
 92
        0
176
     1
 66
   257
176
     1
 43
1.0
176
     1
 76
     1
176
     1
 77
     6
176
     1
 78
     2
176
     1
 67
     7
176
     1
 79
     5
176
     1
170
     0
176
     1
171
     0
176
     1
290
     0
176
     1
 93
       13
176
     1
 44
0.0
176
     1
173
     0
176
     1
1001
ACAD
1000
AcDbSavedByObjectVersion
1070
     0
  0
VISUALSTYLE
  5
19B
102
{ACAD_XDICTIONARY
360
12BB
102
}
102
{ACAD_REACTORS
330
193
102
}
330
193
100
AcDbVisualStyle
  2
Hidden
 70
     6
177
     2
291
     0
 71
     1
176
     1
 72
     2
176
     1
 73
     2
176
     1
 90
        0
176
     1
 40
0.6
176
     1
 41
30.0
176
     1
 63
     7
421
 16777215
176
     1
 74
     2
176
     1
 91
        2
176
     1
 64
     7
176
     1
 65
   257
176
     1
 75
     2
176
     1
175
     1
176
     1
 42
40.0
176
     1
 92
        0
176
     1
 66
   257
176
     1
 43
1.0
176
     1
 76
     1
176
     1
 77
     6
176
     1
 78
     2
176
     1
 67
     7
176
     1
 79
     3
176
     1
170
     0
176
     1
171
     0
176
     1
290
     0
176
     1
 93
        1
176
     1
 44
0.0
176
     1
173
     0
176
     1
1001
ACAD
1000
AcDbSavedByObjectVersion
1070
     0
  0
VISUALSTYLE
  5
1A9
102
{ACAD_XDICTIONARY
360
12D7
102
}
102
{ACAD_REACTORS
330
193
102
}
330
193
100
AcDbVisualStyle
  2
JitterOff
 70
    20
177
     2
291
     1
 71
     2
176
     0
 72
     2
176
     0
 73
     0
176
     0
 90
        0
176
     0
 40
0.6
176
     0
 41
30.0
176
     0
 63
     7
421
 16777215
176
     0
 74
     1
176
     0
 91
        4
176
     0
 64
     7
176
     0
 65
   257
176
     0
 75
     1
176
     0
175
     1
176
     0
 42
1.0
176
     0
 92
       10
176
     2
 66
     7
176
     0
 43
1.0
176
     0
 76
     1
176
     0
 77
     6
176
     0
 78
     2
176
     0
 67
     7
176
     0
 79
     5
176
     0
170
     0
176
     0
171
     0
176
     0
290
     0
176
     0
 93
        1
176
     0
 44
0.0
176
     0
173
     0
176
     0
1001
ACAD
1000
AcDbSavedByObjectVersion
1070
     0
  0
VISUALSTYLE
  5
1A1
102
{ACAD_XDICTIONARY
360
12C7
102
}
102
{ACAD_REACTORS
330
193
102
}
330
193
100
AcDbVisualStyle
  2
Linepattern
 70
    14
177
     2
291
     1
 71
     2
176
     1
 72
     2
176
     1
 73
     0
176
     1
 90
        0
176
     1
 40
0.6
176
     1
 41
30.0
176
     1
 63
     7
421
 16777215
176
     1
 74
     1
176
     1
 91
        4
176
     1
 64
     7
176
     1
 65
   257
176
     1
 75
     7
176
     1
175
     7
176
     1
 42
1.0
176
     1
 92
        8
176
     1
 66
     7
176
     1
 43
1.0
176
     1
 76
     1
176
     1
 77
     6
176
     1
 78
     2
176
     1
 67
     7
176
     1
 79
     5
176
     1
170
     0
176
     1
171
     0
176
     1
290
     0
176
     1
 93
        1
176
     1
 44
0.0
176
     1
173
     0
176
     1
1001
ACAD
1000
AcDbSavedByObjectVersion
1070
     0
  0
VISUALSTYLE
  5
1AA
102
{ACAD_XDICTIONARY
360
12D9
102
}
102
{ACAD_REACTORS
330
193
102
}
330
193
100
AcDbVisualStyle
  2
OverhangOff
 70
    21
177
     2
291
     1
 71
     2
176
     0
 72
     2
176
     0
 73
     0
176
     0
 90
        0
176
     0
 40
0.6
176
     0
 41
30.0
176
     0
 63
     7
421
 16777215
176
     0
 74
     1
176
     0
 91
        4
176
     0
 64
     7
176
     0
 65
   257
176
     0
 75
     1
176
     0
175
     1
176
     0
 42
1.0
176
     0
 92
        9
176
     2
 66
     7
176
     0
 43
1.0
176
     0
 76
     1
176
     0
 77
     6
176
     0
 78
     2
176
     0
 67
     7
176
     0
 79
     5
176
     0
170
     0
176
     0
171
     0
176
     0
290
     0
176
     0
 93
        1
176
     0
 44
0.0
176
     0
173
     0
176
     0
1001
ACAD
1000
AcDbSavedByObjectVersion
1070
     0
  0
VISUALSTYLE
  5
19D
102
{ACAD_XDICTIONARY
360
12BF
102
}
102
{ACAD_REACTORS
330
193
102
}
330
193
100
AcDbVisualStyle
  2
Realistic
 70
     8
177
     2
291
     0
 71
     2
176
     1
 72
     3
176
     1
 73
     0
176
     1
 90
        2
176
     1
 40
0.6
176
     1
 41
30.0
176
     1
 63
     7
421
 16777215
176
     1
 74
     0
176
     1
 91
        0
176
     1
 64
     7
176
     1
 65
   257
176
     1
 75
     1
176
     1
175
     1
176
     1
 42
1.0
176
     1
 92
        8
176
     1
 66
   257
176
     1
 43
1.0
176
     1
 76
     1
176
     1
 77
     6
176
     1
 78
     2
176
     1
 67
     7
176
     1
 79
     3
176
     1
170
     0
176
     1
171
     0
176
     1
290
     0
176
     1
 93
       13
176
     1
 44
0.0
176
     1
173
     0
176
     1
1001
ACAD
1000
AcDbSavedByObjectVersion
1070
     0
  0
VISUALSTYLE
  5
1A8
102
{ACAD_XDICTIONARY
360
12D5
102
}
102
{ACAD_REACTORS
330
193
102
}
330
193
100
AcDbVisualStyle
  2
Shaded
 70
    27
177
     2
291
     0
 71
     2
176
     1
 72
     2
176
     1
 73
     1
176
     1
 90
        2
176
     1
 40
0.6
176
     1
 41
30.0
176
     1
 63
     7
421
 16777215
176
     1
 74
     0
176
     1
 91
        4
176
     1
 64
     7
176
     1
 65
   257
176
     1
 75
     1
176
     1
175
     1
176
     1
 42
1.0
176
     1
 92
        8
176
     1
 66
   257
176
     1
 43
1.0
176
     1
 76
     1
176
     1
 77
     6
176
     1
 78
     2
176
     1
 67
     8
425
  7895160
176
     1
 79
     3
176
     1
170
     0
176
     1
171
     0
176
     1
290
     0
176
     1
 93
        5
176
     1
 44
0.0
176
     1
173
     0
176
     1
1001
ACAD
1000
AcDbSavedByObjectVersion
1070
     0
  0
VISUALSTYLE
  5
1A7
102
{ACAD_XDICTIONARY
360
12D3
102
}
102
{ACAD_REACTORS
330
193
102
}
330
193
100
AcDbVisualStyle
  2
Shaded with edges
 70
    26
177
     2
291
     0
 71
     2
176
     1
 72
     2
176
     1
 73
     1
176
     1
 90
        2
176
     1
 40
0.6
176
     1
 41
30.0
176
     1
 63
     7
421
 16777215
176
     1
 74
     1
176
     1
 91
        2
176
     1
 64
     7
176
     1
 65
   257
176
     1
 75
     2
176
     1
175
     1
176
     1
 42
1.0
176
     1
 92
        8
176
     1
 66
   257
176
     1
 43
1.0
176
     1
 76
     1
176
     1
 77
     6
176
     1
 78
     2
176
     1
 67
     7
176
     1
 79
     3
176
     1
170
     0
176
     1
171
     0
176
     1
290
     0
176
     1
 93
        5
176
     1
 44
0.0
176
     1
173
     0
176
     1
1001
ACAD
1000
AcDbSavedByObjectVersion
1070
     0
  0
VISUALSTYLE
  5
1A4
102
{ACAD_XDICTIONARY
360
12CD
102
}
102
{ACAD_REACTORS
330
193
102
}
330
193
100
AcDbVisualStyle
  2
Shades of Gray
 70
    23
177
     2
291
     0
 71
     2
176
     1
 72
     2
176
     1
 73
     3
176
     1
 90
        0
176
     1
 40
0.6
176
     1
 41
30.0
176
     1
 63
     7
421
 16777215
176
     1
 74
     2
176
     1
 91
        2
176
     1
 64
     7
176
     1
 65
     7
176
     1
 75
     1
176
     1
175
     1
176
     1
 42
40.0
176
     1
 92
        8
176
     1
 66
     7
176
     1
 43
1.0
176
     1
 76
     1
176
     1
 77
     6
176
     1
 78
     2
176
     1
 67
     7
176
     1
 79
     3
176
     1
170
     0
176
     1
171
     0
176
     1
290
     0
176
     1
 93
        1
176
     1
 44
0.0
176
     1
173
     0
176
     1
1001
ACAD
1000
AcDbSavedByObjectVersion
1070
     0
  0
VISUALSTYLE
  5
1A5
102
{ACAD_XDICTIONARY
360
12CF
102
}
102
{ACAD_REACTORS
330
193
102
}
330
193
100
AcDbVisualStyle
  2
Sketchy
 70
    24
177
     2
291
     0
 71
     1
176
     1
 72
     2
176
     1
 73
     2
176
     1
 90
        0
176
     1
 40
0.6
176
     1
 41
30.0
176
     1
 63
     7
421
 16777215
176
     1
 74
     2
176
     1
 91
        2
176
     1
 64
     7
176
     1
 65
     7
176
     1
 75
     1
176
     1
175
     1
176
     1
 42
40.0
176
     1
 92
       11
176
     1
 66
     7
176
     1
 43
1.0
176
     1
 76
     1
176
     1
 77
     6
176
     1
 78
     2
176
     1
 67
     7
176
     1
 79
     6
176
     1
170
     0
176
     1
171
     0
176
     1
290
     0
176
     1
 93
        1
176
     1
 44
0.0
176
     1
173
     0
176
     1
1001
ACAD
1000
AcDbSavedByObjectVersion
1070
     0
  0
VISUALSTYLE
  5
1A0
102
{ACAD_XDICTIONARY
360
12C5
102
}
102
{ACAD_REACTORS
330
193
102
}
330
193
100
AcDbVisualStyle
  2
Thicken
 70
    13
177
     2
291
     1
 71
     2
176
     1
 72
     2
176
     1
 73
     0
176
     1
 90
        0
176
     1
 40
0.6
176
     1
 41
30.0
176
     1
 63
     7
421
 16777215
176
     1
 74
     1
176
     1
 91
        4
176
     1
 64
     7
176
     1
 65
   257
176
     1
 75
     1
176
     1
175
     1
176
     1
 42
1.0
176
     1
 92
       12
176
     1
 66
     7
176
     1
 43
1.0
176
     1
 76
     1
176
     1
 77
     6
176
     1
 78
     2
176
     1
 67
     7
176
     1
 79
     5
176
     1
170
     0
176
     1
171
     0
176
     1
290
     0
176
     1
 93
        1
176
     1
 44
0.0
176
     1
173
     0
176
     1
1001
ACAD
1000
AcDbSavedByObjectVersion
1070
     0
  0
VISUALSTYLE
  5
19A
102
{ACAD_XDICTIONARY
360
12B9
102
}
102
{ACAD_REACTORS
330
193
102
}
330
193
100
AcDbVisualStyle
  2
Wireframe
 70
     5
177
     2
291
     0
 71
     0
176
     1
 72
     2
176
     1
 73
     0
176
     1
 90
        0
176
     1
 40
0.6
176
     1
 41
30.0
176
     1
 63
     7
421
 16777215
176
     1
 74
     1
176
     1
 91
        4
176
     1
 64
     7
176
     1
 65
   257
176
     1
 75
     1
176
     1
175
     1
176
     1
 42
1.0
176
     1
 92
        0
176
     1
 66
   257
176
     1
 43
1.0
176
     1
 76
     1
176
     1
 77
     6
176
     1
 78
     2
176
     1
 67
     7
176
     1
 79
     3
176
     1
170
     0
176
     1
171
     0
176
     1
290
     0
176
     1
 93
        1
176
     1
 44
0.0
176
     1
173
     0
176
     1
1001
ACAD
1000
AcDbSavedByObjectVersion
1070
     0
  0
VISUALSTYLE
  5
1A6
102
{ACAD_XDICTIONARY
360
12D1
102
}
102
{ACAD_REACTORS
330
193
102
}
330
193
100
AcDbVisualStyle
  2
X-Ray
 70
    25
177
     2
291
     0
 71
     2
176
     1
 72
     2
176
     1
 73
     1
176
     1
 90
        1
176
     1
 40
0.5
176
     1
 41
30.0
176
     1
 63
     7
421
 16777215
176
     1
 74
     1
176
     1
 91
        0
176
     1
 64
     7
176
     1
 65
   257
176
     1
 75
     1
176
     1
175
     1
176
     1
 42
1.0
176
     1
 92
        8
176
     1
 66
     7
176
     1
 43
1.0
176
     1
 76
     1
176
     1
 77
     6
176
     1
 78
     2
176
     1
 67
     7
176
     1
 79
     3
176
     1
170
     0
176
     1
171
     0
176
     1
290
     0
176
     1
 93
       13
176
     1
 44
0.0
176
     1
173
     0
176
     1
1001
ACAD
1000
AcDbSavedByObjectVersion
1070
     0
  0
DICTIONARYVAR
  5
2D1
102
{ACAD_REACTORS
330
2CB
102
}
330
2CB
100
DictionaryVariables
280
     0
  1
1:1
  0
DICTIONARYVAR
  5
2CD
102
{ACAD_REACTORS
330
2CB
102
}
330
2CB
100
DictionaryVariables
280
     0
  1
STANDARD
  0
DICTIONARYVAR
  5
2CC
102
{ACAD_REACTORS
330
2CB
102
}
330
2CB
100
DictionaryVariables
280
     0
  1
STANDARD
  0
DICTIONARYVAR
  5
2CE
102
{ACAD_REACTORS
330
2CB
102
}
330
2CB
100
DictionaryVariables
280
     0
  1
Imperial24
  0
DICTIONARYVAR
  5
2CF
102
{ACAD_REACTORS
330
2CB
102
}
330
2CB
100
DictionaryVariables
280
     0
  1
Imperial24
  0
DICTIONARYVAR
  5
2D3
102
{ACAD_REACTORS
330
2CB
102
}
330
2CB
100
DictionaryVariables
280
     0
  1
1
  0
DICTIONARYVAR
  5
2D4
102
{ACAD_REACTORS
330
2CB
102
}
330
2CB
100
DictionaryVariables
280
     0
  1
15
  0
DICTIONARYVAR
  5
2D2
102
{ACAD_REACTORS
330
2CB
102
}
330
2CB
100
DictionaryVariables
280
     0
  1
0
  0
DICTIONARYVAR
  5
2D0
102
{ACAD_REACTORS
330
2CB
102
}
330
2CB
100
DictionaryVariables
280
     0
  1
0
  0
DICTIONARY
  5
12AC
102
{ACAD_REACTORS
330
12AA
102
}
330
12AA
100
AcDbDictionary
281
     1
  0
DICTIONARY
  5
12AB
102
{ACAD_REACTORS
330
12AA
102
}
330
12AA
100
AcDbDictionary
281
     1
  3
879620944
350
12A5
  3
879620960
350
12A6
  3
879620976
350
12A7
  3
879620992
350
12A8
  3
879621008
350
12A9
  0
DICTIONARY
  5
12DF
330
1C7
100
AcDbDictionary
280
     1
281
     1
  3
ACAD_XREC_ROUNDTRIP
360
12E0
  0
DICTIONARY
  5
12E3
330
5C1
100
AcDbDictionary
280
     1
281
     1
  3
ACAD_XREC_ROUNDTRIP
360
12E4
  0
DICTIONARY
  5
184
330
183
100
AcDbDictionary
280
     1
281
     1
  3
BUMPTILE
360
186
  3
DIFFUSETILE
360
185
  3
OPACITYTILE
360
189
  3
REFLECTIONTILE
360
188
  3
REFRACTIONTILE
360
18A
  3
SPECULARTILE
360
187
  0
DICTIONARY
  5
17C
330
17B
100
AcDbDictionary
280
     1
281
     1
  3
BUMPTILE
360
17E
  3
DIFFUSETILE
360
17D
  3
OPACITYTILE
360
181
  3
REFLECTIONTILE
360
180
  3
REFRACTIONTILE
360
182
  3
SPECULARTILE
360
17F
  0
DICTIONARY
  5
18C
330
18B
100
AcDbDictionary
280
     1
281
     1
  3
BUMPTILE
360
18E
  3
DIFFUSETILE
360
18D
  3
OPACITYTILE
360
191
  3
REFLECTIONTILE
360
190
  3
REFRACTIONTILE
360
192
  3
SPECULARTILE
360
18F
  0
DICTIONARY
  5
12DD
330
1C5
100
AcDbDictionary
280
     1
281
     1
  3
ACAD_XREC_ROUNDTRIP
360
12DE
  0
DICTIONARY
  5
12E1
330
5C0
100
AcDbDictionary
280
     1
281
     1
  3
ACAD_XREC_ROUNDTRIP
360
12E2
  0
DICTIONARY
  5
35F
330
1AE
100
AcDbDictionary
280
     1
281
     1
  3
ACAD_ROUNDTRIP_2008_TABLESTYLE_CELLSTYLEMAP
360
12A3
  0
DICTIONARY
  5
12B7
330
199
100
AcDbDictionary
280
     1
281
     1
  3
ACAD_XREC_ROUNDTRIP
360
12B8
  0
DICTIONARY
  5
12B5
330
198
100
AcDbDictionary
280
     1
281
     1
  3
ACAD_XREC_ROUNDTRIP
360
12B6
  0
DICTIONARY
  5
12C3
330
19F
100
AcDbDictionary
280
     1
281
     1
  3
ACAD_XREC_ROUNDTRIP
360
12C4
  0
DICTIONARY
  5
12CB
330
1A3
100
AcDbDictionary
280
     1
281
     1
  3
ACAD_XREC_ROUNDTRIP
360
12CC
  0
DICTIONARY
  5
12BD
330
19C
100
AcDbDictionary
280
     1
281
     1
  3
ACAD_XREC_ROUNDTRIP
360
12BE
  0
DICTIONARY
  5
12C1
330
19E
100
AcDbDictionary
280
     1
281
     1
  3
ACAD_XREC_ROUNDTRIP
360
12C2
  0
DICTIONARY
  5
12DB
330
1AB
100
AcDbDictionary
280
     1
281
     1
  3
ACAD_XREC_ROUNDTRIP
360
12DC
  0
DICTIONARY
  5
12C9
330
1A2
100
AcDbDictionary
280
     1
281
     1
  3
ACAD_XREC_ROUNDTRIP
360
12CA
  0
DICTIONARY
  5
12AD
330
194
100
AcDbDictionary
280
     1
281
     1
  3
ACAD_XREC_ROUNDTRIP
360
12AE
  0
DICTIONARY
  5
12AF
330
195
100
AcDbDictionary
280
     1
281
     1
  3
ACAD_XREC_ROUNDTRIP
360
12B0
  0
DICTIONARY
  5
12B1
330
196
100
AcDbDictionary
280
     1
281
     1
  3
ACAD_XREC_ROUNDTRIP
360
12B2
  0
DICTIONARY
  5
12B3
330
197
100
AcDbDictionary
280
     1
281
     1
  3
ACAD_XREC_ROUNDTRIP
360
12B4
  0
DICTIONARY
  5
12BB
330
19B
100
AcDbDictionary
280
     1
281
     1
  3
ACAD_XREC_ROUNDTRIP
360
12BC
  0
DICTIONARY
  5
12D7
330
1A9
100
AcDbDictionary
280
     1
281
     1
  3
ACAD_XREC_ROUNDTRIP
360
12D8
  0
DICTIONARY
  5
12C7
330
1A1
100
AcDbDictionary
280
     1
281
     1
  3
ACAD_XREC_ROUNDTRIP
360
12C8
  0
DICTIONARY
  5
12D9
330
1AA
100
AcDbDictionary
280
     1
281
     1
  3
ACAD_XREC_ROUNDTRIP
360
12DA
  0
DICTIONARY
  5
12BF
330
19D
100
AcDbDictionary
280
     1
281
     1
  3
ACAD_XREC_ROUNDTRIP
360
12C0
  0
DICTIONARY
  5
12D5
330
1A8
100
AcDbDictionary
280
     1
281
     1
  3
ACAD_XREC_ROUNDTRIP
360
12D6
  0
DICTIONARY
  5
12D3
330
1A7
100
AcDbDictionary
280
     1
281
     1
  3
ACAD_XREC_ROUNDTRIP
360
12D4
  0
DICTIONARY
  5
12CD
330
1A4
100
AcDbDictionary
280
     1
281
     1
  3
ACAD_XREC_ROUNDTRIP
360
12CE
  0
DICTIONARY
  5
12CF
330
1A5
100
AcDbDictionary
280
     1
281
     1
  3
ACAD_XREC_ROUNDTRIP
360
12D0
  0
DICTIONARY
  5
12C5
330
1A0
100
AcDbDictionary
280
     1
281
     1
  3
ACAD_XREC_ROUNDTRIP
360
12C6
  0
DICTIONARY
  5
12B9
330
19A
100
AcDbDictionary
280
     1
281
     1
  3
ACAD_XREC_ROUNDTRIP
360
12BA
  0
DICTIONARY
  5
12D1
330
1A6
100
AcDbDictionary
280
     1
281
     1
  3
ACAD_XREC_ROUNDTRIP
360
12D2
  0
XRECORD
  5
12A5
102
{ACAD_REACTORS
330
12AB
102
}
330
12AB
100
AcDbXrecord
280
     1
  1
AcDb_Thumbnail_Schema
102
{ATTRRECORD
341
12A6
  2
AcDbDs::TreatedAsObjectData
280
     1
291
     1
102
ATTRRECORD}
102
{ATTRRECORD
341
12A7
  2
AcDbDs::Legacy
280
     1
291
     1
102
ATTRRECORD}
  2
AcDbDs::ID
280
    10
 91
        8
102
{ATTRRECORD
341
12A8
  2
AcDs:Indexable
280
     1
291
     1
102
ATTRRECORD}
102
{ATTRRECORD
341
12A9
  2
AcDbDs::HandleAttribute
280
     7
282
     1
102
ATTRRECORD}
  2
Thumbnail_Data
280
    15
 91
        0
  0
XRECORD
  5
12A6
102
{ACAD_REACTORS
330
12AB
102
}
330
12AB
100
AcDbXrecord
280
     1
  1
AcDbDs::TreatedAsObjectDataSchema
  2
AcDbDs::TreatedAsObjectData
280
     1
 91
        0
  0
XRECORD
  5
12A7
102
{ACAD_REACTORS
330
12AB
102
}
330
12AB
100
AcDbXrecord
280
     1
  1
AcDbDs::LegacySchema
  2
AcDbDs::Legacy
280
     1
 91
        0
  0
XRECORD
  5
12A8
102
{ACAD_REACTORS
330
12AB
102
}
330
12AB
100
AcDbXrecord
280
     1
  1
AcDbDs::IndexedPropertySchema
  2
AcDs:Indexable
280
     1
 91
        0
  0
XRECORD
  5
12A9
102
{ACAD_REACTORS
330
12AB
102
}
330
12AB
100
AcDbXrecord
280
     1
  1
AcDbDs::HandleAttributeSchema
  2
AcDbDs::HandleAttribute
280
     7
 91
        1
284
     1
  0
XRECORD
  5
12E0
102
{ACAD_REACTORS
330
12DF
102
}
330
12DF
100
AcDbXrecord
280
     1
102
DISPLAYNAME
  1
Imperial24
102
FLAGS
 90
        0
  0
XRECORD
  5
12E4
102
{ACAD_REACTORS
330
12E3
102
}
330
12E3
100
AcDbXrecord
280
     1
102
DISPLAYNAME
  1
Metric50
102
FLAGS
 90
        0
  0
XRECORD
  5
186
102
{ACAD_REACTORS
330
184
102
}
330
184
100
AcDbXrecord
280
     1
270
     1
271
     1
  0
XRECORD
  5
185
102
{ACAD_REACTORS
330
184
102
}
330
184
100
AcDbXrecord
280
     1
270
     1
271
     1
  0
XRECORD
  5
189
102
{ACAD_REACTORS
330
184
102
}
330
184
100
AcDbXrecord
280
     1
270
     1
271
     1
  0
XRECORD
  5
188
102
{ACAD_REACTORS
330
184
102
}
330
184
100
AcDbXrecord
280
     1
270
     1
271
     1
  0
XRECORD
  5
18A
102
{ACAD_REACTORS
330
184
102
}
330
184
100
AcDbXrecord
280
     1
270
     1
271
     1
  0
XRECORD
  5
187
102
{ACAD_REACTORS
330
184
102
}
330
184
100
AcDbXrecord
280
     1
270
     1
271
     1
  0
XRECORD
  5
17E
102
{ACAD_REACTORS
330
17C
102
}
330
17C
100
AcDbXrecord
280
     1
270
     1
271
     1
  0
XRECORD
  5
17D
102
{ACAD_REACTORS
330
17C
102
}
330
17C
100
AcDbXrecord
280
     1
270
     1
271
     1
  0
XRECORD
  5
181
102
{ACAD_REACTORS
330
17C
102
}
330
17C
100
AcDbXrecord
280
     1
270
     1
271
     1
  0
XRECORD
  5
180
102
{ACAD_REACTORS
330
17C
102
}
330
17C
100
AcDbXrecord
280
     1
270
     1
271
     1
  0
XRECORD
  5
182
102
{ACAD_REACTORS
330
17C
102
}
330
17C
100
AcDbXrecord
280
     1
270
     1
271
     1
  0
XRECORD
  5
17F
102
{ACAD_REACTORS
330
17C
102
}
330
17C
100
AcDbXrecord
280
     1
270
     1
271
     1
  0
XRECORD
  5
18E
102
{ACAD_REACTORS
330
18C
102
}
330
18C
100
AcDbXrecord
280
     1
270
     1
271
     1
  0
XRECORD
  5
18D
102
{ACAD_REACTORS
330
18C
102
}
330
18C
100
AcDbXrecord
280
     1
270
     1
271
     1
  0
XRECORD
  5
191
102
{ACAD_REACTORS
330
18C
102
}
330
18C
100
AcDbXrecord
280
     1
270
     1
271
     1
  0
XRECORD
  5
190
102
{ACAD_REACTORS
330
18C
102
}
330
18C
100
AcDbXrecord
280
     1
270
     1
271
     1
  0
XRECORD
  5
192
102
{ACAD_REACTORS
330
18C
102
}
330
18C
100
AcDbXrecord
280
     1
270
     1
271
     1
  0
XRECORD
  5
18F
102
{ACAD_REACTORS
330
18C
102
}
330
18C
100
AcDbXrecord
280
     1
270
     1
271
     1
  0
XRECORD
  5
12DE
102
{ACAD_REACTORS
330
12DD
102
}
330
12DD
100
AcDbXrecord
280
     1
102
DISPLAYNAME
  1
Imperial24
102
FLAGS
 90
        0
  0
XRECORD
  5
12E2
102
{ACAD_REACTORS
330
12E1
102
}
330
12E1
100
AcDbXrecord
280
     1
102
DISPLAYNAME
  1
Metric50
102
FLAGS
 90
        0
  0
CELLSTYLEMAP
  5
12A3
102
{ACAD_REACTORS
330
35F
102
}
330
35F
100
AcDbCellStyleMap
 90
        3
300
CELLSTYLE
  1
TABLEFORMAT_BEGIN
 90
        5
170
     1
 91
        0
 92
    32768
 62
   257
 93
        1
300
CONTENTFORMAT
  1
CONTENTFORMAT_BEGIN
 90
        0
 91
        0
 92
      512
 93
        0
300

 40
0.0
140
1.0
 94
        5
 62
     0
340
11
144
0.25
309
CONTENTFORMAT_END
171
     1
301
MARGIN
  1
CELLMARGIN_BEGIN
 40
0.06
 40
0.06
 40
0.06
 40
0.06
 40
0.18
 40
0.18
309
CELLMARGIN_END
 94
        6
 95
        1
302
GRIDFORMAT
  1
GRIDFORMAT_BEGIN
 90
        0
 91
        1
 62
     0
 92
       -2
340
0
 93
        0
 40
0.045
309
GRIDFORMAT_END
 95
        2
302
GRIDFORMAT
  1
GRIDFORMAT_BEGIN
 90
        0
 91
        1
 62
     0
 92
       -2
340
0
 93
        0
 40
0.045
309
GRIDFORMAT_END
 95
        4
302
GRIDFORMAT
  1
GRIDFORMAT_BEGIN
 90
        0
 91
        1
 62
     0
 92
       -2
340
0
 93
        0
 40
0.045
309
GRIDFORMAT_END
 95
        8
302
GRIDFORMAT
  1
GRIDFORMAT_BEGIN
 90
        0
 91
        1
 62
     0
 92
       -2
340
0
 93
        0
 40
0.045
309
GRIDFORMAT_END
 95
       16
302
GRIDFORMAT
  1
GRIDFORMAT_BEGIN
 90
        0
 91
        1
 62
     0
 92
       -2
340
0
 93
        0
 40
0.045
309
GRIDFORMAT_END
 95
       32
302
GRIDFORMAT
  1
GRIDFORMAT_BEGIN
 90
        0
 91
        1
 62
     0
 92
       -2
340
0
 93
        0
 40
0.045
309
GRIDFORMAT_END
309
TABLEFORMAT_END
  1
CELLSTYLE_BEGIN
 90
        1
 91
        1
300
_TITLE
309
CELLSTYLE_END
300
CELLSTYLE
  1
TABLEFORMAT_BEGIN
 90
        5
170
     1
 91
        0
 92
        0
 62
   257
 93
        1
300
CONTENTFORMAT
  1
CONTENTFORMAT_BEGIN
 90
        0
 91
        0
 92
      512
 93
        0
300

 40
0.0
140
1.0
 94
        5
 62
     0
340
11
144
0.18
309
CONTENTFORMAT_END
171
     1
301
MARGIN
  1
CELLMARGIN_BEGIN
 40
0.06
 40
0.06
 40
0.06
 40
0.06
 40
0.18
 40
0.18
309
CELLMARGIN_END
 94
        6
 95
        1
302
GRIDFORMAT
  1
GRIDFORMAT_BEGIN
 90
        0
 91
        1
 62
     0
 92
       -2
340
0
 93
        0
 40
0.045
309
GRIDFORMAT_END
 95
        2
302
GRIDFORMAT
  1
GRIDFORMAT_BEGIN
 90
        0
 91
        1
 62
     0
 92
       -2
340
0
 93
        0
 40
0.045
309
GRIDFORMAT_END
 95
        4
302
GRIDFORMAT
  1
GRIDFORMAT_BEGIN
 90
        0
 91
        1
 62
     0
 92
       -2
340
0
 93
        0
 40
0.045
309
GRIDFORMAT_END
 95
        8
302
GRIDFORMAT
  1
GRIDFORMAT_BEGIN
 90
        0
 91
        1
 62
     0
 92
       -2
340
0
 93
        0
 40
0.045
309
GRIDFORMAT_END
 95
       16
302
GRIDFORMAT
  1
GRIDFORMAT_BEGIN
 90
        0
 91
        1
 62
     0
 92
       -2
340
0
 93
        0
 40
0.045
309
GRIDFORMAT_END
 95
       32
302
GRIDFORMAT
  1
GRIDFORMAT_BEGIN
 90
        0
 91
        1
 62
     0
 92
       -2
340
0
 93
        0
 40
0.045
309
GRIDFORMAT_END
309
TABLEFORMAT_END
  1
CELLSTYLE_BEGIN
 90
        2
 91
        1
300
_HEADER
309
CELLSTYLE_END
300
CELLSTYLE
  1
TABLEFORMAT_BEGIN
 90
        5
170
     1
 91
        0
 92
        0
 62
   257
 93
        1
300
CONTENTFORMAT
  1
CONTENTFORMAT_BEGIN
 90
        0
 91
        0
 92
      512
 93
        0
300

 40
0.0
140
1.0
 94
        2
 62
     0
340
11
144
0.18
309
CONTENTFORMAT_END
171
     1
301
MARGIN
  1
CELLMARGIN_BEGIN
 40
0.06
 40
0.06
 40
0.06
 40
0.06
 40
0.18
 40
0.18
309
CELLMARGIN_END
 94
        6
 95
        1
302
GRIDFORMAT
  1
GRIDFORMAT_BEGIN
 90
        0
 91
        1
 62
     0
 92
       -2
340
0
 93
        0
 40
0.045
309
GRIDFORMAT_END
 95
        2
302
GRIDFORMAT
  1
GRIDFORMAT_BEGIN
 90
        0
 91
        1
 62
     0
 92
       -2
340
0
 93
        0
 40
0.045
309
GRIDFORMAT_END
 95
        4
302
GRIDFORMAT
  1
GRIDFORMAT_BEGIN
 90
        0
 91
        1
 62
     0
 92
       -2
340
0
 93
        0
 40
0.045
309
GRIDFORMAT_END
 95
        8
302
GRIDFORMAT
  1
GRIDFORMAT_BEGIN
 90
        0
 91
        1
 62
     0
 92
       -2
340
0
 93
        0
 40
0.045
309
GRIDFORMAT_END
 95
       16
302
GRIDFORMAT
  1
GRIDFORMAT_BEGIN
 90
        0
 91
        1
 62
     0
 92
       -2
340
0
 93
        0
 40
0.045
309
GRIDFORMAT_END
 95
       32
302
GRIDFORMAT
  1
GRIDFORMAT_BEGIN
 90
        0
 91
        1
 62
     0
 92
       -2
340
0
 93
        0
 40
0.045
309
GRIDFORMAT_END
309
TABLEFORMAT_END
  1
CELLSTYLE_BEGIN
 90
        3
 91
        2
300
_DATA
309
CELLSTYLE_END
  0
XRECORD
  5
12B8
102
{ACAD_REACTORS
330
12B7
102
}
330
12B7
100
AcDbXrecord
280
     1
102
RTVSPost2010Prop28
280
     1
102
RTVSPost2010PropOp28
 70
     1
102
RTVSPost2010Prop29
280
     1
102
RTVSPost2010PropOp29
 70
     1
102
RTVSPost2010Prop30
280
     0
102
RTVSPost2010PropOp30
 70
     1
102
RTVSPost2010Prop31
280
     0
102
RTVSPost2010PropOp31
 70
     1
102
RTVSPost2010Prop32
280
     0
102
RTVSPost2010PropOp32
 70
     1
102
RTVSPost2010Prop33
280
     0
102
RTVSPost2010PropOp33
 70
     1
102
RTVSPost2010Prop34
280
     0
102
RTVSPost2010PropOp34
 70
     1
102
RTVSPost2010Prop35
280
     0
102
RTVSPost2010PropOp35
 70
     1
102
RTVSPost2010Prop36
280
     0
102
RTVSPost2010PropOp36
 70
     1
102
RTVSPost2010Prop37
 90
       50
102
RTVSPost2010PropOp37
 70
     1
102
RTVSPost2010Prop38
140
0.0
102
RTVSPost2010PropOp38
 70
     1
102
RTVSPost2010Prop39
140
1.0
102
RTVSPost2010PropOp39
 70
     1
102
RTVSPost2010Prop40
 90
        0
102
RTVSPost2010PropOp40
 70
     1
102
RTVSPost2010Prop41ColorIndex
 90
       18
102
RTVSPost2010Prop41ColorRGB
 90
        0
102
RTVSPost2010PropOp41
 70
     1
102
RTVSPost2010Prop42
 90
       50
102
RTVSPost2010PropOp42
 70
     1
102
RTVSPost2010Prop43
 90
        3
102
RTVSPost2010PropOp43
 70
     1
102
RTVSPost2010Prop44ColorIndex
 90
        5
102
RTVSPost2010Prop44ColorRGB
 90
      255
102
RTVSPost2010PropOp44
 70
     1
102
RTVSPost2010Prop45
280
     0
102
RTVSPost2010PropOp45
 70
     1
102
RTVSPost2010Prop46
 90
       50
102
RTVSPost2010PropOp46
 70
     1
102
RTVSPost2010Prop47
 90
       50
102
RTVSPost2010PropOp47
 70
     1
102
RTVSPost2010Prop48
 90
       50
102
RTVSPost2010PropOp48
 70
     1
102
RTVSPost2010Prop49
280
     0
102
RTVSPost2010PropOp49
 70
     1
102
RTVSPost2010Prop50
 90
       50
102
RTVSPost2010PropOp50
 70
     1
102
RTVSPost2010Prop51ColorIndex
 90
      256
102
RTVSPost2010Prop51ColorRGB
 90
-16777216
102
RTVSPost2010PropOp51
 70
     0
102
RTVSPost2010Prop52
140
1.0
102
RTVSPost2010PropOp52
 70
     0
102
RTVSPost2010Prop53
 90
        2
102
RTVSPost2010PropOp53
 70
     1
102
RTVSPost2010Prop54
  1
strokes_ogs.tif
102
RTVSPost2010PropOp54
 70
     1
102
RTVSPost2010Prop55
280
     0
102
RTVSPost2010PropOp55
 70
     1
102
RTVSPost2010Prop56
140
1.0
102
RTVSPost2010PropOp56
 70
     1
102
RTVSPost2010Prop57
140
1.0
102
RTVSPost2010PropOp57
 70
     1
  0
XRECORD
  5
12B6
102
{ACAD_REACTORS
330
12B5
102
}
330
12B5
100
AcDbXrecord
280
     1
102
RTVSPost2010Prop28
280
     0
102
RTVSPost2010PropOp28
 70
     1
102
RTVSPost2010Prop29
280
     1
102
RTVSPost2010PropOp29
 70
     1
102
RTVSPost2010Prop30
280
     1
102
RTVSPost2010PropOp30
 70
     1
102
RTVSPost2010Prop31
280
     0
102
RTVSPost2010PropOp31
 70
     1
102
RTVSPost2010Prop32
280
     0
102
RTVSPost2010PropOp32
 70
     1
102
RTVSPost2010Prop33
280
     0
102
RTVSPost2010PropOp33
 70
     1
102
RTVSPost2010Prop34
280
     0
102
RTVSPost2010PropOp34
 70
     1
102
RTVSPost2010Prop35
280
     0
102
RTVSPost2010PropOp35
 70
     1
102
RTVSPost2010Prop36
280
     0
102
RTVSPost2010PropOp36
 70
     1
102
RTVSPost2010Prop37
 90
       50
102
RTVSPost2010PropOp37
 70
     1
102
RTVSPost2010Prop38
140
0.0
102
RTVSPost2010PropOp38
 70
     1
102
RTVSPost2010Prop39
140
1.0
102
RTVSPost2010PropOp39
 70
     1
102
RTVSPost2010Prop40
 90
        0
102
RTVSPost2010PropOp40
 70
     1
102
RTVSPost2010Prop41ColorIndex
 90
       18
102
RTVSPost2010Prop41ColorRGB
 90
        0
102
RTVSPost2010PropOp41
 70
     1
102
RTVSPost2010Prop42
 90
       50
102
RTVSPost2010PropOp42
 70
     1
102
RTVSPost2010Prop43
 90
        3
102
RTVSPost2010PropOp43
 70
     1
102
RTVSPost2010Prop44ColorIndex
 90
        5
102
RTVSPost2010Prop44ColorRGB
 90
      255
102
RTVSPost2010PropOp44
 70
     1
102
RTVSPost2010Prop45
280
     0
102
RTVSPost2010PropOp45
 70
     1
102
RTVSPost2010Prop46
 90
       50
102
RTVSPost2010PropOp46
 70
     1
102
RTVSPost2010Prop47
 90
       50
102
RTVSPost2010PropOp47
 70
     1
102
RTVSPost2010Prop48
 90
       50
102
RTVSPost2010PropOp48
 70
     1
102
RTVSPost2010Prop49
280
     0
102
RTVSPost2010PropOp49
 70
     1
102
RTVSPost2010Prop50
 90
       50
102
RTVSPost2010PropOp50
 70
     1
102
RTVSPost2010Prop51ColorIndex
 90
      256
102
RTVSPost2010Prop51ColorRGB
 90
-16777216
102
RTVSPost2010PropOp51
 70
     0
102
RTVSPost2010Prop52
140
1.0
102
RTVSPost2010PropOp52
 70
     0
102
RTVSPost2010Prop53
 90
        2
102
RTVSPost2010PropOp53
 70
     1
102
RTVSPost2010Prop54
  1
strokes_ogs.tif
102
RTVSPost2010PropOp54
 70
     1
102
RTVSPost2010Prop55
280
     0
102
RTVSPost2010PropOp55
 70
     1
102
RTVSPost2010Prop56
140
1.0
102
RTVSPost2010PropOp56
 70
     1
102
RTVSPost2010Prop57
140
1.0
102
RTVSPost2010PropOp57
 70
     1
  0
XRECORD
  5
12C4
102
{ACAD_REACTORS
330
12C3
102
}
330
12C3
100
AcDbXrecord
280
     1
102
RTVSPost2010Prop28
280
     0
102
RTVSPost2010PropOp28
 70
     1
102
RTVSPost2010Prop29
280
     1
102
RTVSPost2010PropOp29
 70
     1
102
RTVSPost2010Prop30
280
     1
102
RTVSPost2010PropOp30
 70
     1
102
RTVSPost2010Prop31
280
     0
102
RTVSPost2010PropOp31
 70
     1
102
RTVSPost2010Prop32
280
     0
102
RTVSPost2010PropOp32
 70
     1
102
RTVSPost2010Prop33
280
     0
102
RTVSPost2010PropOp33
 70
     1
102
RTVSPost2010Prop34
280
     0
102
RTVSPost2010PropOp34
 70
     1
102
RTVSPost2010Prop35
280
     0
102
RTVSPost2010PropOp35
 70
     1
102
RTVSPost2010Prop36
280
     0
102
RTVSPost2010PropOp36
 70
     1
102
RTVSPost2010Prop37
 90
       50
102
RTVSPost2010PropOp37
 70
     1
102
RTVSPost2010Prop38
140
0.0
102
RTVSPost2010PropOp38
 70
     1
102
RTVSPost2010Prop39
140
1.0
102
RTVSPost2010PropOp39
 70
     1
102
RTVSPost2010Prop40
 90
        0
102
RTVSPost2010PropOp40
 70
     1
102
RTVSPost2010Prop41ColorIndex
 90
       18
102
RTVSPost2010Prop41ColorRGB
 90
        0
102
RTVSPost2010PropOp41
 70
     1
102
RTVSPost2010Prop42
 90
       50
102
RTVSPost2010PropOp42
 70
     1
102
RTVSPost2010Prop43
 90
        3
102
RTVSPost2010PropOp43
 70
     1
102
RTVSPost2010Prop44ColorIndex
 90
        5
102
RTVSPost2010Prop44ColorRGB
 90
      255
102
RTVSPost2010PropOp44
 70
     1
102
RTVSPost2010Prop45
280
     0
102
RTVSPost2010PropOp45
 70
     1
102
RTVSPost2010Prop46
 90
       50
102
RTVSPost2010PropOp46
 70
     1
102
RTVSPost2010Prop47
 90
       50
102
RTVSPost2010PropOp47
 70
     1
102
RTVSPost2010Prop48
 90
       50
102
RTVSPost2010PropOp48
 70
     1
102
RTVSPost2010Prop49
280
     0
102
RTVSPost2010PropOp49
 70
     1
102
RTVSPost2010Prop50
 90
       50
102
RTVSPost2010PropOp50
 70
     1
102
RTVSPost2010Prop51ColorIndex
 90
      256
102
RTVSPost2010Prop51ColorRGB
 90
-16777216
102
RTVSPost2010PropOp51
 70
     0
102
RTVSPost2010Prop52
140
1.0
102
RTVSPost2010PropOp52
 70
     0
102
RTVSPost2010Prop53
 90
        2
102
RTVSPost2010PropOp53
 70
     1
102
RTVSPost2010Prop54
  1
strokes_ogs.tif
102
RTVSPost2010PropOp54
 70
     1
102
RTVSPost2010Prop55
280
     0
102
RTVSPost2010PropOp55
 70
     1
102
RTVSPost2010Prop56
140
1.0
102
RTVSPost2010PropOp56
 70
     1
102
RTVSPost2010Prop57
140
1.0
102
RTVSPost2010PropOp57
 70
     1
  0
XRECORD
  5
12CC
102
{ACAD_REACTORS
330
12CB
102
}
330
12CB
100
AcDbXrecord
280
     1
102
RTVSPost2010Prop28
280
     0
102
RTVSPost2010PropOp28
 70
     1
102
RTVSPost2010Prop29
280
     1
102
RTVSPost2010PropOp29
 70
     1
102
RTVSPost2010Prop30
280
     1
102
RTVSPost2010PropOp30
 70
     1
102
RTVSPost2010Prop31
280
     0
102
RTVSPost2010PropOp31
 70
     1
102
RTVSPost2010Prop32
280
     0
102
RTVSPost2010PropOp32
 70
     1
102
RTVSPost2010Prop33
280
     0
102
RTVSPost2010PropOp33
 70
     1
102
RTVSPost2010Prop34
280
     0
102
RTVSPost2010PropOp34
 70
     1
102
RTVSPost2010Prop35
280
     0
102
RTVSPost2010PropOp35
 70
     1
102
RTVSPost2010Prop36
280
     0
102
RTVSPost2010PropOp36
 70
     1
102
RTVSPost2010Prop37
 90
       50
102
RTVSPost2010PropOp37
 70
     1
102
RTVSPost2010Prop38
140
0.0
102
RTVSPost2010PropOp38
 70
     1
102
RTVSPost2010Prop39
140
1.0
102
RTVSPost2010PropOp39
 70
     1
102
RTVSPost2010Prop40
 90
        0
102
RTVSPost2010PropOp40
 70
     1
102
RTVSPost2010Prop41ColorIndex
 90
       18
102
RTVSPost2010Prop41ColorRGB
 90
        0
102
RTVSPost2010PropOp41
 70
     1
102
RTVSPost2010Prop42
 90
       50
102
RTVSPost2010PropOp42
 70
     1
102
RTVSPost2010Prop43
 90
        3
102
RTVSPost2010PropOp43
 70
     1
102
RTVSPost2010Prop44ColorIndex
 90
        5
102
RTVSPost2010Prop44ColorRGB
 90
      255
102
RTVSPost2010PropOp44
 70
     1
102
RTVSPost2010Prop45
280
     0
102
RTVSPost2010PropOp45
 70
     1
102
RTVSPost2010Prop46
 90
       50
102
RTVSPost2010PropOp46
 70
     1
102
RTVSPost2010Prop47
 90
       50
102
RTVSPost2010PropOp47
 70
     1
102
RTVSPost2010Prop48
 90
       50
102
RTVSPost2010PropOp48
 70
     1
102
RTVSPost2010Prop49
280
     0
102
RTVSPost2010PropOp49
 70
     1
102
RTVSPost2010Prop50
 90
       50
102
RTVSPost2010PropOp50
 70
     1
102
RTVSPost2010Prop51ColorIndex
 90
      256
102
RTVSPost2010Prop51ColorRGB
 90
-16777216
102
RTVSPost2010PropOp51
 70
     0
102
RTVSPost2010Prop52
140
1.0
102
RTVSPost2010PropOp52
 70
     0
102
RTVSPost2010Prop53
 90
        2
102
RTVSPost2010PropOp53
 70
     1
102
RTVSPost2010Prop54
  1
strokes_ogs.tif
102
RTVSPost2010PropOp54
 70
     1
102
RTVSPost2010Prop55
280
     0
102
RTVSPost2010PropOp55
 70
     1
102
RTVSPost2010Prop56
140
1.0
102
RTVSPost2010PropOp56
 70
     1
102
RTVSPost2010Prop57
140
1.0
102
RTVSPost2010PropOp57
 70
     1
  0
XRECORD
  5
12BE
102
{ACAD_REACTORS
330
12BD
102
}
330
12BD
100
AcDbXrecord
280
     1
102
RTVSPost2010Prop28
280
     0
102
RTVSPost2010PropOp28
 70
     1
102
RTVSPost2010Prop29
280
     1
102
RTVSPost2010PropOp29
 70
     1
102
RTVSPost2010Prop30
280
     1
102
RTVSPost2010PropOp30
 70
     1
102
RTVSPost2010Prop31
280
     0
102
RTVSPost2010PropOp31
 70
     1
102
RTVSPost2010Prop32
280
     0
102
RTVSPost2010PropOp32
 70
     1
102
RTVSPost2010Prop33
280
     0
102
RTVSPost2010PropOp33
 70
     1
102
RTVSPost2010Prop34
280
     0
102
RTVSPost2010PropOp34
 70
     1
102
RTVSPost2010Prop35
280
     0
102
RTVSPost2010PropOp35
 70
     1
102
RTVSPost2010Prop36
280
     0
102
RTVSPost2010PropOp36
 70
     1
102
RTVSPost2010Prop37
 90
       50
102
RTVSPost2010PropOp37
 70
     1
102
RTVSPost2010Prop38
140
0.0
102
RTVSPost2010PropOp38
 70
     1
102
RTVSPost2010Prop39
140
1.0
102
RTVSPost2010PropOp39
 70
     1
102
RTVSPost2010Prop40
 90
        0
102
RTVSPost2010PropOp40
 70
     1
102
RTVSPost2010Prop41ColorIndex
 90
       18
102
RTVSPost2010Prop41ColorRGB
 90
        0
102
RTVSPost2010PropOp41
 70
     1
102
RTVSPost2010Prop42
 90
       50
102
RTVSPost2010PropOp42
 70
     1
102
RTVSPost2010Prop43
 90
        3
102
RTVSPost2010PropOp43
 70
     1
102
RTVSPost2010Prop44ColorIndex
 90
        5
102
RTVSPost2010Prop44ColorRGB
 90
      255
102
RTVSPost2010PropOp44
 70
     1
102
RTVSPost2010Prop45
280
     0
102
RTVSPost2010PropOp45
 70
     1
102
RTVSPost2010Prop46
 90
       50
102
RTVSPost2010PropOp46
 70
     1
102
RTVSPost2010Prop47
 90
       50
102
RTVSPost2010PropOp47
 70
     1
102
RTVSPost2010Prop48
 90
       50
102
RTVSPost2010PropOp48
 70
     1
102
RTVSPost2010Prop49
280
     0
102
RTVSPost2010PropOp49
 70
     1
102
RTVSPost2010Prop50
 90
       50
102
RTVSPost2010PropOp50
 70
     1
102
RTVSPost2010Prop51ColorIndex
 90
      256
102
RTVSPost2010Prop51ColorRGB
 90
-16777216
102
RTVSPost2010PropOp51
 70
     0
102
RTVSPost2010Prop52
140
1.0
102
RTVSPost2010PropOp52
 70
     0
102
RTVSPost2010Prop53
 90
        2
102
RTVSPost2010PropOp53
 70
     1
102
RTVSPost2010Prop54
  1
strokes_ogs.tif
102
RTVSPost2010PropOp54
 70
     1
102
RTVSPost2010Prop55
280
     0
102
RTVSPost2010PropOp55
 70
     1
102
RTVSPost2010Prop56
140
1.0
102
RTVSPost2010PropOp56
 70
     1
102
RTVSPost2010Prop57
140
1.0
102
RTVSPost2010PropOp57
 70
     1
  0
XRECORD
  5
12C2
102
{ACAD_REACTORS
330
12C1
102
}
330
12C1
100
AcDbXrecord
280
     1
102
RTVSPost2010Prop28
280
     0
102
RTVSPost2010PropOp28
 70
     1
102
RTVSPost2010Prop29
280
     1
102
RTVSPost2010PropOp29
 70
     1
102
RTVSPost2010Prop30
280
     1
102
RTVSPost2010PropOp30
 70
     1
102
RTVSPost2010Prop31
280
     0
102
RTVSPost2010PropOp31
 70
     1
102
RTVSPost2010Prop32
280
     0
102
RTVSPost2010PropOp32
 70
     1
102
RTVSPost2010Prop33
280
     0
102
RTVSPost2010PropOp33
 70
     1
102
RTVSPost2010Prop34
280
     0
102
RTVSPost2010PropOp34
 70
     1
102
RTVSPost2010Prop35
280
     0
102
RTVSPost2010PropOp35
 70
     1
102
RTVSPost2010Prop36
280
     0
102
RTVSPost2010PropOp36
 70
     1
102
RTVSPost2010Prop37
 90
       50
102
RTVSPost2010PropOp37
 70
     1
102
RTVSPost2010Prop38
140
0.0
102
RTVSPost2010PropOp38
 70
     1
102
RTVSPost2010Prop39
140
1.0
102
RTVSPost2010PropOp39
 70
     1
102
RTVSPost2010Prop40
 90
        0
102
RTVSPost2010PropOp40
 70
     1
102
RTVSPost2010Prop41ColorIndex
 90
       18
102
RTVSPost2010Prop41ColorRGB
 90
        0
102
RTVSPost2010PropOp41
 70
     1
102
RTVSPost2010Prop42
 90
       50
102
RTVSPost2010PropOp42
 70
     1
102
RTVSPost2010Prop43
 90
        3
102
RTVSPost2010PropOp43
 70
     1
102
RTVSPost2010Prop44ColorIndex
 90
        5
102
RTVSPost2010Prop44ColorRGB
 90
      255
102
RTVSPost2010PropOp44
 70
     1
102
RTVSPost2010Prop45
280
     0
102
RTVSPost2010PropOp45
 70
     1
102
RTVSPost2010Prop46
 90
       50
102
RTVSPost2010PropOp46
 70
     1
102
RTVSPost2010Prop47
 90
       50
102
RTVSPost2010PropOp47
 70
     1
102
RTVSPost2010Prop48
 90
       50
102
RTVSPost2010PropOp48
 70
     1
102
RTVSPost2010Prop49
280
     0
102
RTVSPost2010PropOp49
 70
     1
102
RTVSPost2010Prop50
 90
       50
102
RTVSPost2010PropOp50
 70
     1
102
RTVSPost2010Prop51ColorIndex
 90
      256
102
RTVSPost2010Prop51ColorRGB
 90
-16777216
102
RTVSPost2010PropOp51
 70
     0
102
RTVSPost2010Prop52
140
1.0
102
RTVSPost2010PropOp52
 70
     0
102
RTVSPost2010Prop53
 90
        2
102
RTVSPost2010PropOp53
 70
     1
102
RTVSPost2010Prop54
  1
strokes_ogs.tif
102
RTVSPost2010PropOp54
 70
     1
102
RTVSPost2010Prop55
280
     0
102
RTVSPost2010PropOp55
 70
     1
102
RTVSPost2010Prop56
140
1.0
102
RTVSPost2010PropOp56
 70
     1
102
RTVSPost2010Prop57
140
1.0
102
RTVSPost2010PropOp57
 70
     1
  0
XRECORD
  5
12DC
102
{ACAD_REACTORS
330
12DB
102
}
330
12DB
100
AcDbXrecord
280
     1
102
RTVSPost2010Prop28
280
     0
102
RTVSPost2010PropOp28
 70
     1
102
RTVSPost2010Prop29
280
     1
102
RTVSPost2010PropOp29
 70
     1
102
RTVSPost2010Prop30
280
     1
102
RTVSPost2010PropOp30
 70
     1
102
RTVSPost2010Prop31
280
     0
102
RTVSPost2010PropOp31
 70
     1
102
RTVSPost2010Prop32
280
     0
102
RTVSPost2010PropOp32
 70
     1
102
RTVSPost2010Prop33
280
     0
102
RTVSPost2010PropOp33
 70
     1
102
RTVSPost2010Prop34
280
     0
102
RTVSPost2010PropOp34
 70
     1
102
RTVSPost2010Prop35
280
     0
102
RTVSPost2010PropOp35
 70
     1
102
RTVSPost2010Prop36
280
     0
102
RTVSPost2010PropOp36
 70
     1
102
RTVSPost2010Prop37
 90
       50
102
RTVSPost2010PropOp37
 70
     0
102
RTVSPost2010Prop38
140
0.0
102
RTVSPost2010PropOp38
 70
     0
102
RTVSPost2010Prop39
140
1.0
102
RTVSPost2010PropOp39
 70
     0
102
RTVSPost2010Prop40
 90
        0
102
RTVSPost2010PropOp40
 70
     0
102
RTVSPost2010Prop41ColorIndex
 90
       18
102
RTVSPost2010Prop41ColorRGB
 90
        0
102
RTVSPost2010PropOp41
 70
     0
102
RTVSPost2010Prop42
 90
       50
102
RTVSPost2010PropOp42
 70
     0
102
RTVSPost2010Prop43
 90
        3
102
RTVSPost2010PropOp43
 70
     0
102
RTVSPost2010Prop44ColorIndex
 90
        5
102
RTVSPost2010Prop44ColorRGB
 90
      255
102
RTVSPost2010PropOp44
 70
     0
102
RTVSPost2010Prop45
280
     0
102
RTVSPost2010PropOp45
 70
     1
102
RTVSPost2010Prop46
 90
       50
102
RTVSPost2010PropOp46
 70
     0
102
RTVSPost2010Prop47
 90
       50
102
RTVSPost2010PropOp47
 70
     0
102
RTVSPost2010Prop48
 90
       50
102
RTVSPost2010PropOp48
 70
     0
102
RTVSPost2010Prop49
280
     0
102
RTVSPost2010PropOp49
 70
     1
102
RTVSPost2010Prop50
 90
       50
102
RTVSPost2010PropOp50
 70
     0
102
RTVSPost2010Prop51ColorIndex
 90
      256
102
RTVSPost2010Prop51ColorRGB
 90
-16777216
102
RTVSPost2010PropOp51
 70
     0
102
RTVSPost2010Prop52
140
1.0
102
RTVSPost2010PropOp52
 70
     0
102
RTVSPost2010Prop53
 90
        2
102
RTVSPost2010PropOp53
 70
     0
102
RTVSPost2010Prop54
  1
strokes_ogs.tif
102
RTVSPost2010PropOp54
 70
     0
102
RTVSPost2010Prop55
280
     0
102
RTVSPost2010PropOp55
 70
     1
102
RTVSPost2010Prop56
140
1.0
102
RTVSPost2010PropOp56
 70
     0
102
RTVSPost2010Prop57
140
1.0
102
RTVSPost2010PropOp57
 70
     0
  0
XRECORD
  5
12CA
102
{ACAD_REACTORS
330
12C9
102
}
330
12C9
100
AcDbXrecord
280
     1
102
RTVSPost2010Prop28
280
     0
102
RTVSPost2010PropOp28
 70
     1
102
RTVSPost2010Prop29
280
     1
102
RTVSPost2010PropOp29
 70
     1
102
RTVSPost2010Prop30
280
     1
102
RTVSPost2010PropOp30
 70
     1
102
RTVSPost2010Prop31
280
     0
102
RTVSPost2010PropOp31
 70
     1
102
RTVSPost2010Prop32
280
     0
102
RTVSPost2010PropOp32
 70
     1
102
RTVSPost2010Prop33
280
     0
102
RTVSPost2010PropOp33
 70
     1
102
RTVSPost2010Prop34
280
     0
102
RTVSPost2010PropOp34
 70
     1
102
RTVSPost2010Prop35
280
     0
102
RTVSPost2010PropOp35
 70
     1
102
RTVSPost2010Prop36
280
     0
102
RTVSPost2010PropOp36
 70
     1
102
RTVSPost2010Prop37
 90
       50
102
RTVSPost2010PropOp37
 70
     1
102
RTVSPost2010Prop38
140
0.0
102
RTVSPost2010PropOp38
 70
     1
102
RTVSPost2010Prop39
140
1.0
102
RTVSPost2010PropOp39
 70
     1
102
RTVSPost2010Prop40
 90
        0
102
RTVSPost2010PropOp40
 70
     1
102
RTVSPost2010Prop41ColorIndex
 90
       18
102
RTVSPost2010Prop41ColorRGB
 90
        0
102
RTVSPost2010PropOp41
 70
     1
102
RTVSPost2010Prop42
 90
       50
102
RTVSPost2010PropOp42
 70
     1
102
RTVSPost2010Prop43
 90
        3
102
RTVSPost2010PropOp43
 70
     1
102
RTVSPost2010Prop44ColorIndex
 90
        5
102
RTVSPost2010Prop44ColorRGB
 90
      255
102
RTVSPost2010PropOp44
 70
     1
102
RTVSPost2010Prop45
280
     0
102
RTVSPost2010PropOp45
 70
     1
102
RTVSPost2010Prop46
 90
       50
102
RTVSPost2010PropOp46
 70
     1
102
RTVSPost2010Prop47
 90
       50
102
RTVSPost2010PropOp47
 70
     1
102
RTVSPost2010Prop48
 90
       50
102
RTVSPost2010PropOp48
 70
     1
102
RTVSPost2010Prop49
280
     0
102
RTVSPost2010PropOp49
 70
     1
102
RTVSPost2010Prop50
 90
       50
102
RTVSPost2010PropOp50
 70
     1
102
RTVSPost2010Prop51ColorIndex
 90
      256
102
RTVSPost2010Prop51ColorRGB
 90
-16777216
102
RTVSPost2010PropOp51
 70
     0
102
RTVSPost2010Prop52
140
1.0
102
RTVSPost2010PropOp52
 70
     0
102
RTVSPost2010Prop53
 90
        2
102
RTVSPost2010PropOp53
 70
     1
102
RTVSPost2010Prop54
  1
strokes_ogs.tif
102
RTVSPost2010PropOp54
 70
     1
102
RTVSPost2010Prop55
280
     0
102
RTVSPost2010PropOp55
 70
     1
102
RTVSPost2010Prop56
140
1.0
102
RTVSPost2010PropOp56
 70
     1
102
RTVSPost2010Prop57
140
1.0
102
RTVSPost2010PropOp57
 70
     1
  0
XRECORD
  5
12AE
102
{ACAD_REACTORS
330
12AD
102
}
330
12AD
100
AcDbXrecord
280
     1
102
RTVSPost2010Prop28
280
     0
102
RTVSPost2010PropOp28
 70
     1
102
RTVSPost2010Prop29
280
     1
102
RTVSPost2010PropOp29
 70
     1
102
RTVSPost2010Prop30
280
     1
102
RTVSPost2010PropOp30
 70
     1
102
RTVSPost2010Prop31
280
     0
102
RTVSPost2010PropOp31
 70
     1
102
RTVSPost2010Prop32
280
     0
102
RTVSPost2010PropOp32
 70
     1
102
RTVSPost2010Prop33
280
     0
102
RTVSPost2010PropOp33
 70
     1
102
RTVSPost2010Prop34
280
     0
102
RTVSPost2010PropOp34
 70
     1
102
RTVSPost2010Prop35
280
     0
102
RTVSPost2010PropOp35
 70
     1
102
RTVSPost2010Prop36
280
     0
102
RTVSPost2010PropOp36
 70
     1
102
RTVSPost2010Prop37
 90
       50
102
RTVSPost2010PropOp37
 70
     1
102
RTVSPost2010Prop38
140
0.0
102
RTVSPost2010PropOp38
 70
     1
102
RTVSPost2010Prop39
140
1.0
102
RTVSPost2010PropOp39
 70
     1
102
RTVSPost2010Prop40
 90
        0
102
RTVSPost2010PropOp40
 70
     1
102
RTVSPost2010Prop41ColorIndex
 90
       18
102
RTVSPost2010Prop41ColorRGB
 90
        0
102
RTVSPost2010PropOp41
 70
     1
102
RTVSPost2010Prop42
 90
       50
102
RTVSPost2010PropOp42
 70
     1
102
RTVSPost2010Prop43
 90
        3
102
RTVSPost2010PropOp43
 70
     1
102
RTVSPost2010Prop44ColorIndex
 90
        5
102
RTVSPost2010Prop44ColorRGB
 90
      255
102
RTVSPost2010PropOp44
 70
     1
102
RTVSPost2010Prop45
280
     0
102
RTVSPost2010PropOp45
 70
     1
102
RTVSPost2010Prop46
 90
       50
102
RTVSPost2010PropOp46
 70
     1
102
RTVSPost2010Prop47
 90
       50
102
RTVSPost2010PropOp47
 70
     1
102
RTVSPost2010Prop48
 90
       50
102
RTVSPost2010PropOp48
 70
     1
102
RTVSPost2010Prop49
280
     0
102
RTVSPost2010PropOp49
 70
     1
102
RTVSPost2010Prop50
 90
       50
102
RTVSPost2010PropOp50
 70
     1
102
RTVSPost2010Prop51ColorIndex
 90
      256
102
RTVSPost2010Prop51ColorRGB
 90
-16777216
102
RTVSPost2010PropOp51
 70
     0
102
RTVSPost2010Prop52
140
1.0
102
RTVSPost2010PropOp52
 70
     0
102
RTVSPost2010Prop53
 90
        2
102
RTVSPost2010PropOp53
 70
     1
102
RTVSPost2010Prop54
  1
strokes_ogs.tif
102
RTVSPost2010PropOp54
 70
     1
102
RTVSPost2010Prop55
280
     0
102
RTVSPost2010PropOp55
 70
     1
102
RTVSPost2010Prop56
140
1.0
102
RTVSPost2010PropOp56
 70
     1
102
RTVSPost2010Prop57
140
1.0
102
RTVSPost2010PropOp57
 70
     1
  0
XRECORD
  5
12B0
102
{ACAD_REACTORS
330
12AF
102
}
330
12AF
100
AcDbXrecord
280
     1
102
RTVSPost2010Prop28
280
     0
102
RTVSPost2010PropOp28
 70
     1
102
RTVSPost2010Prop29
280
     1
102
RTVSPost2010PropOp29
 70
     1
102
RTVSPost2010Prop30
280
     1
102
RTVSPost2010PropOp30
 70
     1
102
RTVSPost2010Prop31
280
     0
102
RTVSPost2010PropOp31
 70
     1
102
RTVSPost2010Prop32
280
     0
102
RTVSPost2010PropOp32
 70
     1
102
RTVSPost2010Prop33
280
     0
102
RTVSPost2010PropOp33
 70
     1
102
RTVSPost2010Prop34
280
     0
102
RTVSPost2010PropOp34
 70
     1
102
RTVSPost2010Prop35
280
     0
102
RTVSPost2010PropOp35
 70
     1
102
RTVSPost2010Prop36
280
     0
102
RTVSPost2010PropOp36
 70
     1
102
RTVSPost2010Prop37
 90
       50
102
RTVSPost2010PropOp37
 70
     1
102
RTVSPost2010Prop38
140
0.0
102
RTVSPost2010PropOp38
 70
     1
102
RTVSPost2010Prop39
140
1.0
102
RTVSPost2010PropOp39
 70
     1
102
RTVSPost2010Prop40
 90
        0
102
RTVSPost2010PropOp40
 70
     1
102
RTVSPost2010Prop41ColorIndex
 90
       18
102
RTVSPost2010Prop41ColorRGB
 90
        0
102
RTVSPost2010PropOp41
 70
     1
102
RTVSPost2010Prop42
 90
       50
102
RTVSPost2010PropOp42
 70
     1
102
RTVSPost2010Prop43
 90
        3
102
RTVSPost2010PropOp43
 70
     1
102
RTVSPost2010Prop44ColorIndex
 90
        5
102
RTVSPost2010Prop44ColorRGB
 90
      255
102
RTVSPost2010PropOp44
 70
     1
102
RTVSPost2010Prop45
280
     0
102
RTVSPost2010PropOp45
 70
     1
102
RTVSPost2010Prop46
 90
       50
102
RTVSPost2010PropOp46
 70
     1
102
RTVSPost2010Prop47
 90
       50
102
RTVSPost2010PropOp47
 70
     1
102
RTVSPost2010Prop48
 90
       50
102
RTVSPost2010PropOp48
 70
     1
102
RTVSPost2010Prop49
280
     0
102
RTVSPost2010PropOp49
 70
     1
102
RTVSPost2010Prop50
 90
       50
102
RTVSPost2010PropOp50
 70
     1
102
RTVSPost2010Prop51ColorIndex
 90
      256
102
RTVSPost2010Prop51ColorRGB
 90
-16777216
102
RTVSPost2010PropOp51
 70
     0
102
RTVSPost2010Prop52
140
1.0
102
RTVSPost2010PropOp52
 70
     0
102
RTVSPost2010Prop53
 90
        2
102
RTVSPost2010PropOp53
 70
     1
102
RTVSPost2010Prop54
  1
strokes_ogs.tif
102
RTVSPost2010PropOp54
 70
     1
102
RTVSPost2010Prop55
280
     0
102
RTVSPost2010PropOp55
 70
     1
102
RTVSPost2010Prop56
140
1.0
102
RTVSPost2010PropOp56
 70
     1
102
RTVSPost2010Prop57
140
1.0
102
RTVSPost2010PropOp57
 70
     1
  0
XRECORD
  5
12B2
102
{ACAD_REACTORS
330
12B1
102
}
330
12B1
100
AcDbXrecord
280
     1
102
RTVSPost2010Prop28
280
     0
102
RTVSPost2010PropOp28
 70
     1
102
RTVSPost2010Prop29
280
     1
102
RTVSPost2010PropOp29
 70
     1
102
RTVSPost2010Prop30
280
     1
102
RTVSPost2010PropOp30
 70
     1
102
RTVSPost2010Prop31
280
     0
102
RTVSPost2010PropOp31
 70
     1
102
RTVSPost2010Prop32
280
     0
102
RTVSPost2010PropOp32
 70
     1
102
RTVSPost2010Prop33
280
     0
102
RTVSPost2010PropOp33
 70
     1
102
RTVSPost2010Prop34
280
     0
102
RTVSPost2010PropOp34
 70
     1
102
RTVSPost2010Prop35
280
     0
102
RTVSPost2010PropOp35
 70
     1
102
RTVSPost2010Prop36
280
     0
102
RTVSPost2010PropOp36
 70
     1
102
RTVSPost2010Prop37
 90
       50
102
RTVSPost2010PropOp37
 70
     1
102
RTVSPost2010Prop38
140
0.0
102
RTVSPost2010PropOp38
 70
     1
102
RTVSPost2010Prop39
140
1.0
102
RTVSPost2010PropOp39
 70
     1
102
RTVSPost2010Prop40
 90
        0
102
RTVSPost2010PropOp40
 70
     1
102
RTVSPost2010Prop41ColorIndex
 90
       18
102
RTVSPost2010Prop41ColorRGB
 90
        0
102
RTVSPost2010PropOp41
 70
     1
102
RTVSPost2010Prop42
 90
       50
102
RTVSPost2010PropOp42
 70
     1
102
RTVSPost2010Prop43
 90
        3
102
RTVSPost2010PropOp43
 70
     1
102
RTVSPost2010Prop44ColorIndex
 90
        5
102
RTVSPost2010Prop44ColorRGB
 90
      255
102
RTVSPost2010PropOp44
 70
     1
102
RTVSPost2010Prop45
280
     0
102
RTVSPost2010PropOp45
 70
     1
102
RTVSPost2010Prop46
 90
       50
102
RTVSPost2010PropOp46
 70
     1
102
RTVSPost2010Prop47
 90
       50
102
RTVSPost2010PropOp47
 70
     1
102
RTVSPost2010Prop48
 90
       50
102
RTVSPost2010PropOp48
 70
     1
102
RTVSPost2010Prop49
280
     0
102
RTVSPost2010PropOp49
 70
     1
102
RTVSPost2010Prop50
 90
       50
102
RTVSPost2010PropOp50
 70
     1
102
RTVSPost2010Prop51ColorIndex
 90
      256
102
RTVSPost2010Prop51ColorRGB
 90
-16777216
102
RTVSPost2010PropOp51
 70
     0
102
RTVSPost2010Prop52
140
1.0
102
RTVSPost2010PropOp52
 70
     0
102
RTVSPost2010Prop53
 90
        2
102
RTVSPost2010PropOp53
 70
     1
102
RTVSPost2010Prop54
  1
strokes_ogs.tif
102
RTVSPost2010PropOp54
 70
     1
102
RTVSPost2010Prop55
280
     0
102
RTVSPost2010PropOp55
 70
     1
102
RTVSPost2010Prop56
140
1.0
102
RTVSPost2010PropOp56
 70
     1
102
RTVSPost2010Prop57
140
1.0
102
RTVSPost2010PropOp57
 70
     1
  0
XRECORD
  5
12B4
102
{ACAD_REACTORS
330
12B3
102
}
330
12B3
100
AcDbXrecord
280
     1
102
RTVSPost2010Prop28
280
     0
102
RTVSPost2010PropOp28
 70
     1
102
RTVSPost2010Prop29
280
     1
102
RTVSPost2010PropOp29
 70
     1
102
RTVSPost2010Prop30
280
     1
102
RTVSPost2010PropOp30
 70
     1
102
RTVSPost2010Prop31
280
     0
102
RTVSPost2010PropOp31
 70
     1
102
RTVSPost2010Prop32
280
     0
102
RTVSPost2010PropOp32
 70
     1
102
RTVSPost2010Prop33
280
     0
102
RTVSPost2010PropOp33
 70
     1
102
RTVSPost2010Prop34
280
     0
102
RTVSPost2010PropOp34
 70
     1
102
RTVSPost2010Prop35
280
     0
102
RTVSPost2010PropOp35
 70
     1
102
RTVSPost2010Prop36
280
     0
102
RTVSPost2010PropOp36
 70
     1
102
RTVSPost2010Prop37
 90
       50
102
RTVSPost2010PropOp37
 70
     1
102
RTVSPost2010Prop38
140
0.0
102
RTVSPost2010PropOp38
 70
     1
102
RTVSPost2010Prop39
140
1.0
102
RTVSPost2010PropOp39
 70
     1
102
RTVSPost2010Prop40
 90
        0
102
RTVSPost2010PropOp40
 70
     1
102
RTVSPost2010Prop41ColorIndex
 90
       18
102
RTVSPost2010Prop41ColorRGB
 90
        0
102
RTVSPost2010PropOp41
 70
     1
102
RTVSPost2010Prop42
 90
       50
102
RTVSPost2010PropOp42
 70
     1
102
RTVSPost2010Prop43
 90
        3
102
RTVSPost2010PropOp43
 70
     1
102
RTVSPost2010Prop44ColorIndex
 90
        5
102
RTVSPost2010Prop44ColorRGB
 90
      255
102
RTVSPost2010PropOp44
 70
     1
102
RTVSPost2010Prop45
280
     0
102
RTVSPost2010PropOp45
 70
     1
102
RTVSPost2010Prop46
 90
       50
102
RTVSPost2010PropOp46
 70
     1
102
RTVSPost2010Prop47
 90
       50
102
RTVSPost2010PropOp47
 70
     1
102
RTVSPost2010Prop48
 90
       50
102
RTVSPost2010PropOp48
 70
     1
102
RTVSPost2010Prop49
280
     0
102
RTVSPost2010PropOp49
 70
     1
102
RTVSPost2010Prop50
 90
       50
102
RTVSPost2010PropOp50
 70
     1
102
RTVSPost2010Prop51ColorIndex
 90
      256
102
RTVSPost2010Prop51ColorRGB
 90
-16777216
102
RTVSPost2010PropOp51
 70
     0
102
RTVSPost2010Prop52
140
1.0
102
RTVSPost2010PropOp52
 70
     0
102
RTVSPost2010Prop53
 90
        2
102
RTVSPost2010PropOp53
 70
     1
102
RTVSPost2010Prop54
  1
strokes_ogs.tif
102
RTVSPost2010PropOp54
 70
     1
102
RTVSPost2010Prop55
280
     0
102
RTVSPost2010PropOp55
 70
     1
102
RTVSPost2010Prop56
140
1.0
102
RTVSPost2010PropOp56
 70
     1
102
RTVSPost2010Prop57
140
1.0
102
RTVSPost2010PropOp57
 70
     1
  0
XRECORD
  5
12BC
102
{ACAD_REACTORS
330
12BB
102
}
330
12BB
100
AcDbXrecord
280
     1
102
RTVSPost2010Prop28
280
     0
102
RTVSPost2010PropOp28
 70
     1
102
RTVSPost2010Prop29
280
     1
102
RTVSPost2010PropOp29
 70
     1
102
RTVSPost2010Prop30
280
     1
102
RTVSPost2010PropOp30
 70
     1
102
RTVSPost2010Prop31
280
     0
102
RTVSPost2010PropOp31
 70
     1
102
RTVSPost2010Prop32
280
     0
102
RTVSPost2010PropOp32
 70
     1
102
RTVSPost2010Prop33
280
     0
102
RTVSPost2010PropOp33
 70
     1
102
RTVSPost2010Prop34
280
     0
102
RTVSPost2010PropOp34
 70
     1
102
RTVSPost2010Prop35
280
     0
102
RTVSPost2010PropOp35
 70
     1
102
RTVSPost2010Prop36
280
     0
102
RTVSPost2010PropOp36
 70
     1
102
RTVSPost2010Prop37
 90
       50
102
RTVSPost2010PropOp37
 70
     1
102
RTVSPost2010Prop38
140
0.0
102
RTVSPost2010PropOp38
 70
     1
102
RTVSPost2010Prop39
140
1.0
102
RTVSPost2010PropOp39
 70
     1
102
RTVSPost2010Prop40
 90
        0
102
RTVSPost2010PropOp40
 70
     1
102
RTVSPost2010Prop41ColorIndex
 90
       18
102
RTVSPost2010Prop41ColorRGB
 90
        0
102
RTVSPost2010PropOp41
 70
     1
102
RTVSPost2010Prop42
 90
       50
102
RTVSPost2010PropOp42
 70
     1
102
RTVSPost2010Prop43
 90
        3
102
RTVSPost2010PropOp43
 70
     1
102
RTVSPost2010Prop44ColorIndex
 90
        5
102
RTVSPost2010Prop44ColorRGB
 90
      255
102
RTVSPost2010PropOp44
 70
     1
102
RTVSPost2010Prop45
280
     0
102
RTVSPost2010PropOp45
 70
     1
102
RTVSPost2010Prop46
 90
       50
102
RTVSPost2010PropOp46
 70
     1
102
RTVSPost2010Prop47
 90
       50
102
RTVSPost2010PropOp47
 70
     1
102
RTVSPost2010Prop48
 90
       50
102
RTVSPost2010PropOp48
 70
     1
102
RTVSPost2010Prop49
280
     0
102
RTVSPost2010PropOp49
 70
     1
102
RTVSPost2010Prop50
 90
       50
102
RTVSPost2010PropOp50
 70
     1
102
RTVSPost2010Prop51ColorIndex
 90
      256
102
RTVSPost2010Prop51ColorRGB
 90
-16777216
102
RTVSPost2010PropOp51
 70
     0
102
RTVSPost2010Prop52
140
1.0
102
RTVSPost2010PropOp52
 70
     0
102
RTVSPost2010Prop53
 90
        2
102
RTVSPost2010PropOp53
 70
     1
102
RTVSPost2010Prop54
  1
strokes_ogs.tif
102
RTVSPost2010PropOp54
 70
     1
102
RTVSPost2010Prop55
280
     0
102
RTVSPost2010PropOp55
 70
     1
102
RTVSPost2010Prop56
140
1.0
102
RTVSPost2010PropOp56
 70
     1
102
RTVSPost2010Prop57
140
1.0
102
RTVSPost2010PropOp57
 70
     1
  0
XRECORD
  5
12D8
102
{ACAD_REACTORS
330
12D7
102
}
330
12D7
100
AcDbXrecord
280
     1
102
RTVSPost2010Prop28
280
     0
102
RTVSPost2010PropOp28
 70
     1
102
RTVSPost2010Prop29
280
     1
102
RTVSPost2010PropOp29
 70
     1
102
RTVSPost2010Prop30
280
     1
102
RTVSPost2010PropOp30
 70
     1
102
RTVSPost2010Prop31
280
     0
102
RTVSPost2010PropOp31
 70
     1
102
RTVSPost2010Prop32
280
     0
102
RTVSPost2010PropOp32
 70
     1
102
RTVSPost2010Prop33
280
     0
102
RTVSPost2010PropOp33
 70
     1
102
RTVSPost2010Prop34
280
     0
102
RTVSPost2010PropOp34
 70
     1
102
RTVSPost2010Prop35
280
     0
102
RTVSPost2010PropOp35
 70
     1
102
RTVSPost2010Prop36
280
     0
102
RTVSPost2010PropOp36
 70
     1
102
RTVSPost2010Prop37
 90
       50
102
RTVSPost2010PropOp37
 70
     0
102
RTVSPost2010Prop38
140
0.0
102
RTVSPost2010PropOp38
 70
     0
102
RTVSPost2010Prop39
140
1.0
102
RTVSPost2010PropOp39
 70
     0
102
RTVSPost2010Prop40
 90
        0
102
RTVSPost2010PropOp40
 70
     0
102
RTVSPost2010Prop41ColorIndex
 90
       18
102
RTVSPost2010Prop41ColorRGB
 90
        0
102
RTVSPost2010PropOp41
 70
     0
102
RTVSPost2010Prop42
 90
       50
102
RTVSPost2010PropOp42
 70
     0
102
RTVSPost2010Prop43
 90
        3
102
RTVSPost2010PropOp43
 70
     0
102
RTVSPost2010Prop44ColorIndex
 90
        5
102
RTVSPost2010Prop44ColorRGB
 90
      255
102
RTVSPost2010PropOp44
 70
     0
102
RTVSPost2010Prop45
280
     0
102
RTVSPost2010PropOp45
 70
     1
102
RTVSPost2010Prop46
 90
       50
102
RTVSPost2010PropOp46
 70
     0
102
RTVSPost2010Prop47
 90
       50
102
RTVSPost2010PropOp47
 70
     0
102
RTVSPost2010Prop48
 90
       50
102
RTVSPost2010PropOp48
 70
     0
102
RTVSPost2010Prop49
280
     0
102
RTVSPost2010PropOp49
 70
     1
102
RTVSPost2010Prop50
 90
       50
102
RTVSPost2010PropOp50
 70
     0
102
RTVSPost2010Prop51ColorIndex
 90
      256
102
RTVSPost2010Prop51ColorRGB
 90
-16777216
102
RTVSPost2010PropOp51
 70
     0
102
RTVSPost2010Prop52
140
1.0
102
RTVSPost2010PropOp52
 70
     0
102
RTVSPost2010Prop53
 90
        2
102
RTVSPost2010PropOp53
 70
     0
102
RTVSPost2010Prop54
  1
strokes_ogs.tif
102
RTVSPost2010PropOp54
 70
     0
102
RTVSPost2010Prop55
280
     0
102
RTVSPost2010PropOp55
 70
     1
102
RTVSPost2010Prop56
140
1.0
102
RTVSPost2010PropOp56
 70
     0
102
RTVSPost2010Prop57
140
1.0
102
RTVSPost2010PropOp57
 70
     0
  0
XRECORD
  5
12C8
102
{ACAD_REACTORS
330
12C7
102
}
330
12C7
100
AcDbXrecord
280
     1
102
RTVSPost2010Prop28
280
     0
102
RTVSPost2010PropOp28
 70
     1
102
RTVSPost2010Prop29
280
     1
102
RTVSPost2010PropOp29
 70
     1
102
RTVSPost2010Prop30
280
     1
102
RTVSPost2010PropOp30
 70
     1
102
RTVSPost2010Prop31
280
     0
102
RTVSPost2010PropOp31
 70
     1
102
RTVSPost2010Prop32
280
     0
102
RTVSPost2010PropOp32
 70
     1
102
RTVSPost2010Prop33
280
     0
102
RTVSPost2010PropOp33
 70
     1
102
RTVSPost2010Prop34
280
     0
102
RTVSPost2010PropOp34
 70
     1
102
RTVSPost2010Prop35
280
     0
102
RTVSPost2010PropOp35
 70
     1
102
RTVSPost2010Prop36
280
     0
102
RTVSPost2010PropOp36
 70
     1
102
RTVSPost2010Prop37
 90
       50
102
RTVSPost2010PropOp37
 70
     1
102
RTVSPost2010Prop38
140
0.0
102
RTVSPost2010PropOp38
 70
     1
102
RTVSPost2010Prop39
140
1.0
102
RTVSPost2010PropOp39
 70
     1
102
RTVSPost2010Prop40
 90
        0
102
RTVSPost2010PropOp40
 70
     1
102
RTVSPost2010Prop41ColorIndex
 90
       18
102
RTVSPost2010Prop41ColorRGB
 90
        0
102
RTVSPost2010PropOp41
 70
     1
102
RTVSPost2010Prop42
 90
       50
102
RTVSPost2010PropOp42
 70
     1
102
RTVSPost2010Prop43
 90
        3
102
RTVSPost2010PropOp43
 70
     1
102
RTVSPost2010Prop44ColorIndex
 90
        5
102
RTVSPost2010Prop44ColorRGB
 90
      255
102
RTVSPost2010PropOp44
 70
     1
102
RTVSPost2010Prop45
280
     0
102
RTVSPost2010PropOp45
 70
     1
102
RTVSPost2010Prop46
 90
       50
102
RTVSPost2010PropOp46
 70
     1
102
RTVSPost2010Prop47
 90
       50
102
RTVSPost2010PropOp47
 70
     1
102
RTVSPost2010Prop48
 90
       50
102
RTVSPost2010PropOp48
 70
     1
102
RTVSPost2010Prop49
280
     0
102
RTVSPost2010PropOp49
 70
     1
102
RTVSPost2010Prop50
 90
       50
102
RTVSPost2010PropOp50
 70
     1
102
RTVSPost2010Prop51ColorIndex
 90
      256
102
RTVSPost2010Prop51ColorRGB
 90
-16777216
102
RTVSPost2010PropOp51
 70
     0
102
RTVSPost2010Prop52
140
1.0
102
RTVSPost2010PropOp52
 70
     0
102
RTVSPost2010Prop53
 90
        2
102
RTVSPost2010PropOp53
 70
     1
102
RTVSPost2010Prop54
  1
strokes_ogs.tif
102
RTVSPost2010PropOp54
 70
     1
102
RTVSPost2010Prop55
280
     0
102
RTVSPost2010PropOp55
 70
     1
102
RTVSPost2010Prop56
140
1.0
102
RTVSPost2010PropOp56
 70
     1
102
RTVSPost2010Prop57
140
1.0
102
RTVSPost2010PropOp57
 70
     1
  0
XRECORD
  5
12DA
102
{ACAD_REACTORS
330
12D9
102
}
330
12D9
100
AcDbXrecord
280
     1
102
RTVSPost2010Prop28
280
     0
102
RTVSPost2010PropOp28
 70
     1
102
RTVSPost2010Prop29
280
     1
102
RTVSPost2010PropOp29
 70
     1
102
RTVSPost2010Prop30
280
     1
102
RTVSPost2010PropOp30
 70
     1
102
RTVSPost2010Prop31
280
     0
102
RTVSPost2010PropOp31
 70
     1
102
RTVSPost2010Prop32
280
     0
102
RTVSPost2010PropOp32
 70
     1
102
RTVSPost2010Prop33
280
     0
102
RTVSPost2010PropOp33
 70
     1
102
RTVSPost2010Prop34
280
     0
102
RTVSPost2010PropOp34
 70
     1
102
RTVSPost2010Prop35
280
     0
102
RTVSPost2010PropOp35
 70
     1
102
RTVSPost2010Prop36
280
     0
102
RTVSPost2010PropOp36
 70
     1
102
RTVSPost2010Prop37
 90
       50
102
RTVSPost2010PropOp37
 70
     0
102
RTVSPost2010Prop38
140
0.0
102
RTVSPost2010PropOp38
 70
     0
102
RTVSPost2010Prop39
140
1.0
102
RTVSPost2010PropOp39
 70
     0
102
RTVSPost2010Prop40
 90
        0
102
RTVSPost2010PropOp40
 70
     0
102
RTVSPost2010Prop41ColorIndex
 90
       18
102
RTVSPost2010Prop41ColorRGB
 90
        0
102
RTVSPost2010PropOp41
 70
     0
102
RTVSPost2010Prop42
 90
       50
102
RTVSPost2010PropOp42
 70
     0
102
RTVSPost2010Prop43
 90
        3
102
RTVSPost2010PropOp43
 70
     0
102
RTVSPost2010Prop44ColorIndex
 90
        5
102
RTVSPost2010Prop44ColorRGB
 90
      255
102
RTVSPost2010PropOp44
 70
     0
102
RTVSPost2010Prop45
280
     0
102
RTVSPost2010PropOp45
 70
     1
102
RTVSPost2010Prop46
 90
       50
102
RTVSPost2010PropOp46
 70
     0
102
RTVSPost2010Prop47
 90
       50
102
RTVSPost2010PropOp47
 70
     0
102
RTVSPost2010Prop48
 90
       50
102
RTVSPost2010PropOp48
 70
     0
102
RTVSPost2010Prop49
280
     0
102
RTVSPost2010PropOp49
 70
     1
102
RTVSPost2010Prop50
 90
       50
102
RTVSPost2010PropOp50
 70
     0
102
RTVSPost2010Prop51ColorIndex
 90
      256
102
RTVSPost2010Prop51ColorRGB
 90
-16777216
102
RTVSPost2010PropOp51
 70
     0
102
RTVSPost2010Prop52
140
1.0
102
RTVSPost2010PropOp52
 70
     0
102
RTVSPost2010Prop53
 90
        2
102
RTVSPost2010PropOp53
 70
     0
102
RTVSPost2010Prop54
  1
strokes_ogs.tif
102
RTVSPost2010PropOp54
 70
     0
102
RTVSPost2010Prop55
280
     0
102
RTVSPost2010PropOp55
 70
     1
102
RTVSPost2010Prop56
140
1.0
102
RTVSPost2010PropOp56
 70
     0
102
RTVSPost2010Prop57
140
1.0
102
RTVSPost2010PropOp57
 70
     0
  0
XRECORD
  5
12C0
102
{ACAD_REACTORS
330
12BF
102
}
330
12BF
100
AcDbXrecord
280
     1
102
RTVSPost2010Prop28
280
     0
102
RTVSPost2010PropOp28
 70
     1
102
RTVSPost2010Prop29
280
     1
102
RTVSPost2010PropOp29
 70
     1
102
RTVSPost2010Prop30
280
     1
102
RTVSPost2010PropOp30
 70
     1
102
RTVSPost2010Prop31
280
     0
102
RTVSPost2010PropOp31
 70
     1
102
RTVSPost2010Prop32
280
     0
102
RTVSPost2010PropOp32
 70
     1
102
RTVSPost2010Prop33
280
     0
102
RTVSPost2010PropOp33
 70
     1
102
RTVSPost2010Prop34
280
     0
102
RTVSPost2010PropOp34
 70
     1
102
RTVSPost2010Prop35
280
     0
102
RTVSPost2010PropOp35
 70
     1
102
RTVSPost2010Prop36
280
     0
102
RTVSPost2010PropOp36
 70
     1
102
RTVSPost2010Prop37
 90
       50
102
RTVSPost2010PropOp37
 70
     1
102
RTVSPost2010Prop38
140
0.0
102
RTVSPost2010PropOp38
 70
     1
102
RTVSPost2010Prop39
140
1.0
102
RTVSPost2010PropOp39
 70
     1
102
RTVSPost2010Prop40
 90
        0
102
RTVSPost2010PropOp40
 70
     1
102
RTVSPost2010Prop41ColorIndex
 90
       18
102
RTVSPost2010Prop41ColorRGB
 90
        0
102
RTVSPost2010PropOp41
 70
     1
102
RTVSPost2010Prop42
 90
       50
102
RTVSPost2010PropOp42
 70
     1
102
RTVSPost2010Prop43
 90
        3
102
RTVSPost2010PropOp43
 70
     1
102
RTVSPost2010Prop44ColorIndex
 90
        5
102
RTVSPost2010Prop44ColorRGB
 90
      255
102
RTVSPost2010PropOp44
 70
     1
102
RTVSPost2010Prop45
280
     0
102
RTVSPost2010PropOp45
 70
     1
102
RTVSPost2010Prop46
 90
       50
102
RTVSPost2010PropOp46
 70
     1
102
RTVSPost2010Prop47
 90
       50
102
RTVSPost2010PropOp47
 70
     1
102
RTVSPost2010Prop48
 90
       50
102
RTVSPost2010PropOp48
 70
     1
102
RTVSPost2010Prop49
280
     0
102
RTVSPost2010PropOp49
 70
     1
102
RTVSPost2010Prop50
 90
       50
102
RTVSPost2010PropOp50
 70
     1
102
RTVSPost2010Prop51ColorIndex
 90
      256
102
RTVSPost2010Prop51ColorRGB
 90
-16777216
102
RTVSPost2010PropOp51
 70
     0
102
RTVSPost2010Prop52
140
1.0
102
RTVSPost2010PropOp52
 70
     0
102
RTVSPost2010Prop53
 90
        2
102
RTVSPost2010PropOp53
 70
     1
102
RTVSPost2010Prop54
  1
strokes_ogs.tif
102
RTVSPost2010PropOp54
 70
     1
102
RTVSPost2010Prop55
280
     0
102
RTVSPost2010PropOp55
 70
     1
102
RTVSPost2010Prop56
140
1.0
102
RTVSPost2010PropOp56
 70
     1
102
RTVSPost2010Prop57
140
1.0
102
RTVSPost2010PropOp57
 70
     1
  0
XRECORD
  5
12D6
102
{ACAD_REACTORS
330
12D5
102
}
330
12D5
100
AcDbXrecord
280
     1
102
RTVSPost2010Prop28
280
     0
102
RTVSPost2010PropOp28
 70
     1
102
RTVSPost2010Prop29
280
     1
102
RTVSPost2010PropOp29
 70
     1
102
RTVSPost2010Prop30
280
     1
102
RTVSPost2010PropOp30
 70
     1
102
RTVSPost2010Prop31
280
     0
102
RTVSPost2010PropOp31
 70
     1
102
RTVSPost2010Prop32
280
     0
102
RTVSPost2010PropOp32
 70
     1
102
RTVSPost2010Prop33
280
     0
102
RTVSPost2010PropOp33
 70
     1
102
RTVSPost2010Prop34
280
     0
102
RTVSPost2010PropOp34
 70
     1
102
RTVSPost2010Prop35
280
     0
102
RTVSPost2010PropOp35
 70
     1
102
RTVSPost2010Prop36
280
     0
102
RTVSPost2010PropOp36
 70
     1
102
RTVSPost2010Prop37
 90
       50
102
RTVSPost2010PropOp37
 70
     1
102
RTVSPost2010Prop38
140
0.0
102
RTVSPost2010PropOp38
 70
     1
102
RTVSPost2010Prop39
140
1.0
102
RTVSPost2010PropOp39
 70
     1
102
RTVSPost2010Prop40
 90
        0
102
RTVSPost2010PropOp40
 70
     1
102
RTVSPost2010Prop41ColorIndex
 90
       18
102
RTVSPost2010Prop41ColorRGB
 90
        0
102
RTVSPost2010PropOp41
 70
     1
102
RTVSPost2010Prop42
 90
       50
102
RTVSPost2010PropOp42
 70
     1
102
RTVSPost2010Prop43
 90
        3
102
RTVSPost2010PropOp43
 70
     1
102
RTVSPost2010Prop44ColorIndex
 90
        5
102
RTVSPost2010Prop44ColorRGB
 90
      255
102
RTVSPost2010PropOp44
 70
     1
102
RTVSPost2010Prop45
280
     0
102
RTVSPost2010PropOp45
 70
     1
102
RTVSPost2010Prop46
 90
       50
102
RTVSPost2010PropOp46
 70
     1
102
RTVSPost2010Prop47
 90
       50
102
RTVSPost2010PropOp47
 70
     1
102
RTVSPost2010Prop48
 90
       50
102
RTVSPost2010PropOp48
 70
     1
102
RTVSPost2010Prop49
280
     0
102
RTVSPost2010PropOp49
 70
     1
102
RTVSPost2010Prop50
 90
       50
102
RTVSPost2010PropOp50
 70
     1
102
RTVSPost2010Prop51ColorIndex
 90
      256
102
RTVSPost2010Prop51ColorRGB
 90
-16777216
102
RTVSPost2010PropOp51
 70
     0
102
RTVSPost2010Prop52
140
1.0
102
RTVSPost2010PropOp52
 70
     0
102
RTVSPost2010Prop53
 90
        2
102
RTVSPost2010PropOp53
 70
     1
102
RTVSPost2010Prop54
  1
strokes_ogs.tif
102
RTVSPost2010PropOp54
 70
     1
102
RTVSPost2010Prop55
280
     0
102
RTVSPost2010PropOp55
 70
     1
102
RTVSPost2010Prop56
140
1.0
102
RTVSPost2010PropOp56
 70
     1
102
RTVSPost2010Prop57
140
1.0
102
RTVSPost2010PropOp57
 70
     1
  0
XRECORD
  5
12D4
102
{ACAD_REACTORS
330
12D3
102
}
330
12D3
100
AcDbXrecord
280
     1
102
RTVSPost2010Prop28
280
     0
102
RTVSPost2010PropOp28
 70
     1
102
RTVSPost2010Prop29
280
     1
102
RTVSPost2010PropOp29
 70
     1
102
RTVSPost2010Prop30
280
     1
102
RTVSPost2010PropOp30
 70
     1
102
RTVSPost2010Prop31
280
     0
102
RTVSPost2010PropOp31
 70
     1
102
RTVSPost2010Prop32
280
     0
102
RTVSPost2010PropOp32
 70
     1
102
RTVSPost2010Prop33
280
     0
102
RTVSPost2010PropOp33
 70
     1
102
RTVSPost2010Prop34
280
     0
102
RTVSPost2010PropOp34
 70
     1
102
RTVSPost2010Prop35
280
     0
102
RTVSPost2010PropOp35
 70
     1
102
RTVSPost2010Prop36
280
     0
102
RTVSPost2010PropOp36
 70
     1
102
RTVSPost2010Prop37
 90
       50
102
RTVSPost2010PropOp37
 70
     1
102
RTVSPost2010Prop38
140
0.0
102
RTVSPost2010PropOp38
 70
     1
102
RTVSPost2010Prop39
140
1.0
102
RTVSPost2010PropOp39
 70
     1
102
RTVSPost2010Prop40
 90
        0
102
RTVSPost2010PropOp40
 70
     1
102
RTVSPost2010Prop41ColorIndex
 90
       18
102
RTVSPost2010Prop41ColorRGB
 90
        0
102
RTVSPost2010PropOp41
 70
     1
102
RTVSPost2010Prop42
 90
       50
102
RTVSPost2010PropOp42
 70
     1
102
RTVSPost2010Prop43
 90
        3
102
RTVSPost2010PropOp43
 70
     1
102
RTVSPost2010Prop44ColorIndex
 90
        5
102
RTVSPost2010Prop44ColorRGB
 90
      255
102
RTVSPost2010PropOp44
 70
     1
102
RTVSPost2010Prop45
280
     0
102
RTVSPost2010PropOp45
 70
     1
102
RTVSPost2010Prop46
 90
       50
102
RTVSPost2010PropOp46
 70
     1
102
RTVSPost2010Prop47
 90
       50
102
RTVSPost2010PropOp47
 70
     1
102
RTVSPost2010Prop48
 90
       50
102
RTVSPost2010PropOp48
 70
     1
102
RTVSPost2010Prop49
280
     0
102
RTVSPost2010PropOp49
 70
     1
102
RTVSPost2010Prop50
 90
       50
102
RTVSPost2010PropOp50
 70
     1
102
RTVSPost2010Prop51ColorIndex
 90
      256
102
RTVSPost2010Prop51ColorRGB
 90
-16777216
102
RTVSPost2010PropOp51
 70
     0
102
RTVSPost2010Prop52
140
1.0
102
RTVSPost2010PropOp52
 70
     0
102
RTVSPost2010Prop53
 90
        2
102
RTVSPost2010PropOp53
 70
     1
102
RTVSPost2010Prop54
  1
strokes_ogs.tif
102
RTVSPost2010PropOp54
 70
     1
102
RTVSPost2010Prop55
280
     0
102
RTVSPost2010PropOp55
 70
     1
102
RTVSPost2010Prop56
140
1.0
102
RTVSPost2010PropOp56
 70
     1
102
RTVSPost2010Prop57
140
1.0
102
RTVSPost2010PropOp57
 70
     1
  0
XRECORD
  5
12CE
102
{ACAD_REACTORS
330
12CD
102
}
330
12CD
100
AcDbXrecord
280
     1
102
RTVSPost2010Prop28
280
     0
102
RTVSPost2010PropOp28
 70
     1
102
RTVSPost2010Prop29
280
     1
102
RTVSPost2010PropOp29
 70
     1
102
RTVSPost2010Prop30
280
     1
102
RTVSPost2010PropOp30
 70
     1
102
RTVSPost2010Prop31
280
     0
102
RTVSPost2010PropOp31
 70
     1
102
RTVSPost2010Prop32
280
     0
102
RTVSPost2010PropOp32
 70
     1
102
RTVSPost2010Prop33
280
     0
102
RTVSPost2010PropOp33
 70
     1
102
RTVSPost2010Prop34
280
     0
102
RTVSPost2010PropOp34
 70
     1
102
RTVSPost2010Prop35
280
     0
102
RTVSPost2010PropOp35
 70
     1
102
RTVSPost2010Prop36
280
     0
102
RTVSPost2010PropOp36
 70
     1
102
RTVSPost2010Prop37
 90
       50
102
RTVSPost2010PropOp37
 70
     1
102
RTVSPost2010Prop38
140
0.0
102
RTVSPost2010PropOp38
 70
     1
102
RTVSPost2010Prop39
140
1.0
102
RTVSPost2010PropOp39
 70
     1
102
RTVSPost2010Prop40
 90
        0
102
RTVSPost2010PropOp40
 70
     1
102
RTVSPost2010Prop41ColorIndex
 90
       18
102
RTVSPost2010Prop41ColorRGB
 90
        0
102
RTVSPost2010PropOp41
 70
     1
102
RTVSPost2010Prop42
 90
       50
102
RTVSPost2010PropOp42
 70
     1
102
RTVSPost2010Prop43
 90
        3
102
RTVSPost2010PropOp43
 70
     1
102
RTVSPost2010Prop44ColorIndex
 90
        5
102
RTVSPost2010Prop44ColorRGB
 90
      255
102
RTVSPost2010PropOp44
 70
     1
102
RTVSPost2010Prop45
280
     0
102
RTVSPost2010PropOp45
 70
     1
102
RTVSPost2010Prop46
 90
       50
102
RTVSPost2010PropOp46
 70
     1
102
RTVSPost2010Prop47
 90
       50
102
RTVSPost2010PropOp47
 70
     1
102
RTVSPost2010Prop48
 90
       50
102
RTVSPost2010PropOp48
 70
     1
102
RTVSPost2010Prop49
280
     0
102
RTVSPost2010PropOp49
 70
     1
102
RTVSPost2010Prop50
 90
       50
102
RTVSPost2010PropOp50
 70
     1
102
RTVSPost2010Prop51ColorIndex
 90
      256
102
RTVSPost2010Prop51ColorRGB
 90
-16777216
102
RTVSPost2010PropOp51
 70
     0
102
RTVSPost2010Prop52
140
1.0
102
RTVSPost2010PropOp52
 70
     0
102
RTVSPost2010Prop53
 90
        2
102
RTVSPost2010PropOp53
 70
     1
102
RTVSPost2010Prop54
  1
strokes_ogs.tif
102
RTVSPost2010PropOp54
 70
     1
102
RTVSPost2010Prop55
280
     0
102
RTVSPost2010PropOp55
 70
     1
102
RTVSPost2010Prop56
140
1.0
102
RTVSPost2010PropOp56
 70
     1
102
RTVSPost2010Prop57
140
1.0
102
RTVSPost2010PropOp57
 70
     1
  0
XRECORD
  5
12D0
102
{ACAD_REACTORS
330
12CF
102
}
330
12CF
100
AcDbXrecord
280
     1
102
RTVSPost2010Prop28
280
     0
102
RTVSPost2010PropOp28
 70
     1
102
RTVSPost2010Prop29
280
     1
102
RTVSPost2010PropOp29
 70
     1
102
RTVSPost2010Prop30
280
     1
102
RTVSPost2010PropOp30
 70
     1
102
RTVSPost2010Prop31
280
     0
102
RTVSPost2010PropOp31
 70
     1
102
RTVSPost2010Prop32
280
     0
102
RTVSPost2010PropOp32
 70
     1
102
RTVSPost2010Prop33
280
     0
102
RTVSPost2010PropOp33
 70
     1
102
RTVSPost2010Prop34
280
     0
102
RTVSPost2010PropOp34
 70
     1
102
RTVSPost2010Prop35
280
     0
102
RTVSPost2010PropOp35
 70
     1
102
RTVSPost2010Prop36
280
     0
102
RTVSPost2010PropOp36
 70
     1
102
RTVSPost2010Prop37
 90
       50
102
RTVSPost2010PropOp37
 70
     1
102
RTVSPost2010Prop38
140
0.0
102
RTVSPost2010PropOp38
 70
     1
102
RTVSPost2010Prop39
140
1.0
102
RTVSPost2010PropOp39
 70
     1
102
RTVSPost2010Prop40
 90
        0
102
RTVSPost2010PropOp40
 70
     1
102
RTVSPost2010Prop41ColorIndex
 90
       18
102
RTVSPost2010Prop41ColorRGB
 90
        0
102
RTVSPost2010PropOp41
 70
     1
102
RTVSPost2010Prop42
 90
       50
102
RTVSPost2010PropOp42
 70
     1
102
RTVSPost2010Prop43
 90
        3
102
RTVSPost2010PropOp43
 70
     1
102
RTVSPost2010Prop44ColorIndex
 90
        5
102
RTVSPost2010Prop44ColorRGB
 90
      255
102
RTVSPost2010PropOp44
 70
     1
102
RTVSPost2010Prop45
280
     0
102
RTVSPost2010PropOp45
 70
     1
102
RTVSPost2010Prop46
 90
       50
102
RTVSPost2010PropOp46
 70
     1
102
RTVSPost2010Prop47
 90
       50
102
RTVSPost2010PropOp47
 70
     1
102
RTVSPost2010Prop48
 90
       50
102
RTVSPost2010PropOp48
 70
     1
102
RTVSPost2010Prop49
280
     0
102
RTVSPost2010PropOp49
 70
     1
102
RTVSPost2010Prop50
 90
       50
102
RTVSPost2010PropOp50
 70
     1
102
RTVSPost2010Prop51ColorIndex
 90
      256
102
RTVSPost2010Prop51ColorRGB
 90
-16777216
102
RTVSPost2010PropOp51
 70
     0
102
RTVSPost2010Prop52
140
1.0
102
RTVSPost2010PropOp52
 70
     0
102
RTVSPost2010Prop53
 90
        2
102
RTVSPost2010PropOp53
 70
     1
102
RTVSPost2010Prop54
  1
strokes_ogs.tif
102
RTVSPost2010PropOp54
 70
     1
102
RTVSPost2010Prop55
280
     0
102
RTVSPost2010PropOp55
 70
     1
102
RTVSPost2010Prop56
140
1.0
102
RTVSPost2010PropOp56
 70
     1
102
RTVSPost2010Prop57
140
1.0
102
RTVSPost2010PropOp57
 70
     1
  0
XRECORD
  5
12C6
102
{ACAD_REACTORS
330
12C5
102
}
330
12C5
100
AcDbXrecord
280
     1
102
RTVSPost2010Prop28
280
     0
102
RTVSPost2010PropOp28
 70
     1
102
RTVSPost2010Prop29
280
     1
102
RTVSPost2010PropOp29
 70
     1
102
RTVSPost2010Prop30
280
     1
102
RTVSPost2010PropOp30
 70
     1
102
RTVSPost2010Prop31
280
     0
102
RTVSPost2010PropOp31
 70
     1
102
RTVSPost2010Prop32
280
     0
102
RTVSPost2010PropOp32
 70
     1
102
RTVSPost2010Prop33
280
     0
102
RTVSPost2010PropOp33
 70
     1
102
RTVSPost2010Prop34
280
     0
102
RTVSPost2010PropOp34
 70
     1
102
RTVSPost2010Prop35
280
     0
102
RTVSPost2010PropOp35
 70
     1
102
RTVSPost2010Prop36
280
     0
102
RTVSPost2010PropOp36
 70
     1
102
RTVSPost2010Prop37
 90
       50
102
RTVSPost2010PropOp37
 70
     1
102
RTVSPost2010Prop38
140
0.0
102
RTVSPost2010PropOp38
 70
     1
102
RTVSPost2010Prop39
140
1.0
102
RTVSPost2010PropOp39
 70
     1
102
RTVSPost2010Prop40
 90
        0
102
RTVSPost2010PropOp40
 70
     1
102
RTVSPost2010Prop41ColorIndex
 90
       18
102
RTVSPost2010Prop41ColorRGB
 90
        0
102
RTVSPost2010PropOp41
 70
     1
102
RTVSPost2010Prop42
 90
       50
102
RTVSPost2010PropOp42
 70
     1
102
RTVSPost2010Prop43
 90
        3
102
RTVSPost2010PropOp43
 70
     1
102
RTVSPost2010Prop44ColorIndex
 90
        5
102
RTVSPost2010Prop44ColorRGB
 90
      255
102
RTVSPost2010PropOp44
 70
     1
102
RTVSPost2010Prop45
280
     0
102
RTVSPost2010PropOp45
 70
     1
102
RTVSPost2010Prop46
 90
       50
102
RTVSPost2010PropOp46
 70
     1
102
RTVSPost2010Prop47
 90
       50
102
RTVSPost2010PropOp47
 70
     1
102
RTVSPost2010Prop48
 90
       50
102
RTVSPost2010PropOp48
 70
     1
102
RTVSPost2010Prop49
280
     0
102
RTVSPost2010PropOp49
 70
     1
102
RTVSPost2010Prop50
 90
       50
102
RTVSPost2010PropOp50
 70
     1
102
RTVSPost2010Prop51ColorIndex
 90
      256
102
RTVSPost2010Prop51ColorRGB
 90
-16777216
102
RTVSPost2010PropOp51
 70
     0
102
RTVSPost2010Prop52
140
1.0
102
RTVSPost2010PropOp52
 70
     0
102
RTVSPost2010Prop53
 90
        2
102
RTVSPost2010PropOp53
 70
     1
102
RTVSPost2010Prop54
  1
strokes_ogs.tif
102
RTVSPost2010PropOp54
 70
     1
102
RTVSPost2010Prop55
280
     0
102
RTVSPost2010PropOp55
 70
     1
102
RTVSPost2010Prop56
140
1.0
102
RTVSPost2010PropOp56
 70
     1
102
RTVSPost2010Prop57
140
1.0
102
RTVSPost2010PropOp57
 70
     1
  0
XRECORD
  5
12BA
102
{ACAD_REACTORS
330
12B9
102
}
330
12B9
100
AcDbXrecord
280
     1
102
RTVSPost2010Prop28
280
     0
102
RTVSPost2010PropOp28
 70
     1
102
RTVSPost2010Prop29
280
     1
102
RTVSPost2010PropOp29
 70
     1
102
RTVSPost2010Prop30
280
     1
102
RTVSPost2010PropOp30
 70
     1
102
RTVSPost2010Prop31
280
     0
102
RTVSPost2010PropOp31
 70
     1
102
RTVSPost2010Prop32
280
     0
102
RTVSPost2010PropOp32
 70
     1
102
RTVSPost2010Prop33
280
     0
102
RTVSPost2010PropOp33
 70
     1
102
RTVSPost2010Prop34
280
     0
102
RTVSPost2010PropOp34
 70
     1
102
RTVSPost2010Prop35
280
     0
102
RTVSPost2010PropOp35
 70
     1
102
RTVSPost2010Prop36
280
     0
102
RTVSPost2010PropOp36
 70
     1
102
RTVSPost2010Prop37
 90
       50
102
RTVSPost2010PropOp37
 70
     1
102
RTVSPost2010Prop38
140
0.0
102
RTVSPost2010PropOp38
 70
     1
102
RTVSPost2010Prop39
140
1.0
102
RTVSPost2010PropOp39
 70
     1
102
RTVSPost2010Prop40
 90
        0
102
RTVSPost2010PropOp40
 70
     1
102
RTVSPost2010Prop41ColorIndex
 90
       18
102
RTVSPost2010Prop41ColorRGB
 90
        0
102
RTVSPost2010PropOp41
 70
     1
102
RTVSPost2010Prop42
 90
       50
102
RTVSPost2010PropOp42
 70
     1
102
RTVSPost2010Prop43
 90
        3
102
RTVSPost2010PropOp43
 70
     1
102
RTVSPost2010Prop44ColorIndex
 90
        5
102
RTVSPost2010Prop44ColorRGB
 90
      255
102
RTVSPost2010PropOp44
 70
     1
102
RTVSPost2010Prop45
280
     0
102
RTVSPost2010PropOp45
 70
     1
102
RTVSPost2010Prop46
 90
       50
102
RTVSPost2010PropOp46
 70
     1
102
RTVSPost2010Prop47
 90
       50
102
RTVSPost2010PropOp47
 70
     1
102
RTVSPost2010Prop48
 90
       50
102
RTVSPost2010PropOp48
 70
     1
102
RTVSPost2010Prop49
280
     0
102
RTVSPost2010PropOp49
 70
     1
102
RTVSPost2010Prop50
 90
       50
102
RTVSPost2010PropOp50
 70
     1
102
RTVSPost2010Prop51ColorIndex
 90
      256
102
RTVSPost2010Prop51ColorRGB
 90
-16777216
102
RTVSPost2010PropOp51
 70
     0
102
RTVSPost2010Prop52
140
1.0
102
RTVSPost2010PropOp52
 70
     0
102
RTVSPost2010Prop53
 90
        2
102
RTVSPost2010PropOp53
 70
     1
102
RTVSPost2010Prop54
  1
strokes_ogs.tif
102
RTVSPost2010PropOp54
 70
     1
102
RTVSPost2010Prop55
280
     0
102
RTVSPost2010PropOp55
 70
     1
102
RTVSPost2010Prop56
140
1.0
102
RTVSPost2010PropOp56
 70
     1
102
RTVSPost2010Prop57
140
1.0
102
RTVSPost2010PropOp57
 70
     1
  0
XRECORD
  5
12D2
102
{ACAD_REACTORS
330
12D1
102
}
330
12D1
100
AcDbXrecord
280
     1
102
RTVSPost2010Prop28
280
     0
102
RTVSPost2010PropOp28
 70
     1
102
RTVSPost2010Prop29
280
     1
102
RTVSPost2010PropOp29
 70
     1
102
RTVSPost2010Prop30
280
     1
102
RTVSPost2010PropOp30
 70
     1
102
RTVSPost2010Prop31
280
     0
102
RTVSPost2010PropOp31
 70
     1
102
RTVSPost2010Prop32
280
     0
102
RTVSPost2010PropOp32
 70
     1
102
RTVSPost2010Prop33
280
     0
102
RTVSPost2010PropOp33
 70
     1
102
RTVSPost2010Prop34
280
     0
102
RTVSPost2010PropOp34
 70
     1
102
RTVSPost2010Prop35
280
     0
102
RTVSPost2010PropOp35
 70
     1
102
RTVSPost2010Prop36
280
     0
102
RTVSPost2010PropOp36
 70
     1
102
RTVSPost2010Prop37
 90
       50
102
RTVSPost2010PropOp37
 70
     1
102
RTVSPost2010Prop38
140
0.0
102
RTVSPost2010PropOp38
 70
     1
102
RTVSPost2010Prop39
140
1.0
102
RTVSPost2010PropOp39
 70
     1
102
RTVSPost2010Prop40
 90
        0
102
RTVSPost2010PropOp40
 70
     1
102
RTVSPost2010Prop41ColorIndex
 90
       18
102
RTVSPost2010Prop41ColorRGB
 90
        0
102
RTVSPost2010PropOp41
 70
     1
102
RTVSPost2010Prop42
 90
       50
102
RTVSPost2010PropOp42
 70
     1
102
RTVSPost2010Prop43
 90
        3
102
RTVSPost2010PropOp43
 70
     1
102
RTVSPost2010Prop44ColorIndex
 90
        5
102
RTVSPost2010Prop44ColorRGB
 90
      255
102
RTVSPost2010PropOp44
 70
     1
102
RTVSPost2010Prop45
280
     0
102
RTVSPost2010PropOp45
 70
     1
102
RTVSPost2010Prop46
 90
       50
102
RTVSPost2010PropOp46
 70
     1
102
RTVSPost2010Prop47
 90
       50
102
RTVSPost2010PropOp47
 70
     1
102
RTVSPost2010Prop48
 90
       50
102
RTVSPost2010PropOp48
 70
     1
102
RTVSPost2010Prop49
280
     0
102
RTVSPost2010PropOp49
 70
     1
102
RTVSPost2010Prop50
 90
       50
102
RTVSPost2010PropOp50
 70
     1
102
RTVSPost2010Prop51ColorIndex
 90
      256
102
RTVSPost2010Prop51ColorRGB
 90
-16777216
102
RTVSPost2010PropOp51
 70
     0
102
RTVSPost2010Prop52
140
1.0
102
RTVSPost2010PropOp52
 70
     0
102
RTVSPost2010Prop53
 90
        2
102
RTVSPost2010PropOp53
 70
     1
102
RTVSPost2010Prop54
  1
strokes_ogs.tif
102
RTVSPost2010PropOp54
 70
     1
102
RTVSPost2010Prop55
280
     0
102
RTVSPost2010PropOp55
 70
     1
102
RTVSPost2010Prop56
140
1.0
102
RTVSPost2010PropOp56
 70
     1
102
RTVSPost2010Prop57
140
1.0
102
RTVSPost2010PropOp57
 70
     1
  0
ENDSEC
  0
EOF
