  0
SECTION
  2
HEADER
  9
$ACADVER
  1
AC1024
  9
$ACADMAINTVER
 70
   205
  9
$DWGCODEPAGE
  3
ANSI_1252
  9
$LASTSAVEDBY
  1
kaschu
  9
$INSBASE
 10
0.0
 20
0.0
 30
0.0
  9
$EXTMIN
 10
-3635.026860792657
 20
-5999.415184945312
 30
-0.0029903937887778
  9
$EXTMAX
 10
415.2967841595418
 20
-1441.135111413995
 30
0.0029920673813101
  9
$LIMMIN
 10
0.0
 20
0.0
  9
$LIMMAX
 10
0.0
 20
0.0
  9
$ORTHOMODE
 70
     1
  9
$REGENMODE
 70
     1
  9
$FILLMODE
 70
     1
  9
$QTEXTMODE
 70
     0
  9
$MIRRTEXT
 70
     1
  9
$LTSCALE
 40
1.0
  9
$ATTMODE
 70
     1
  9
$TEXTSIZE
 40
0.0
  9
$TRACEWID
 40
0.05
  9
$TEXTSTYLE
  7
STANDARD
  9
$CLAYER
  8
0
  9
$CELTYPE
  6
CONTINUOUS
  9
$CECOLOR
 62
   256
  9
$CELTSCALE
 40
1.0
  9
$DISPSILH
 70
     0
  9
$DIMSCALE
 40
1.0
  9
$DIMASZ
 40
0.18
  9
$DIMEXO
 40
0.0625
  9
$DIMDLI
 40
0.38
  9
$DIMRND
 40
0.0
  9
$DIMDLE
 40
0.0
  9
$DIMEXE
 40
0.18
  9
$DIMTP
 40
0.0
  9
$DIMTM
 40
0.0
  9
$DIMTXT
 40
0.18
  9
$DIMCEN
 40
0.09
  9
$DIMTSZ
 40
0.0
  9
$DIMTOL
 70
     0
  9
$DIMLIM
 70
     0
  9
$DIMTIH
 70
     1
  9
$DIMTOH
 70
     1
  9
$DIMSE1
 70
     0
  9
$DIMSE2
 70
     0
  9
$DIMTAD
 70
     0
  9
$DIMZIN
 70
     0
  9
$DIMBLK
  1

  9
$DIMASO
 70
     1
  9
$DIMSHO
 70
     1
  9
$DIMPOST
  1

  9
$DIMAPOST
  1

  9
$DIMALT
 70
     0
  9
$DIMALTD
 70
     2
  9
$DIMALTF
 40
25.4
  9
$DIMLFAC
 40
1.0
  9
$DIMTOFL
 70
     0
  9
$DIMTVP
 40
0.0
  9
$DIMTIX
 70
     0
  9
$DIMSOXD
 70
     0
  9
$DIMSAH
 70
     0
  9
$DIMBLK1
  1

  9
$DIMBLK2
  1

  9
$DIMSTYLE
  2
STANDARD
  9
$DIMCLRD
 70
     0
  9
$DIMCLRE
 70
     0
  9
$DIMCLRT
 70
     0
  9
$DIMTFAC
 40
1.0
  9
$DIMGAP
 40
0.09
  9
$DIMJUST
 70
     0
  9
$DIMSD1
 70
     0
  9
$DIMSD2
 70
     0
  9
$DIMTOLJ
 70
     1
  9
$DIMTZIN
 70
     0
  9
$DIMALTZ
 70
     0
  9
$DIMALTTZ
 70
     0
  9
$DIMUPT
 70
     0
  9
$DIMDEC
 70
     4
  9
$DIMTDEC
 70
     4
  9
$DIMALTU
 70
     2
  9
$DIMALTTD
 70
     2
  9
$DIMTXSTY
  7
STANDARD
  9
$DIMAUNIT
 70
     0
  9
$DIMADEC
 70
     0
  9
$DIMALTRND
 40
0.0
  9
$DIMAZIN
 70
     0
  9
$DIMDSEP
 70
    46
  9
$DIMATFIT
 70
     3
  9
$DIMFRAC
 70
     0
  9
$DIMLDRBLK
  1

  9
$DIMLUNIT
 70
     2
  9
$DIMLWD
 70
    -2
  9
$DIMLWE
 70
    -2
  9
$DIMTMOVE
 70
     0
  9
$DIMFXL
 40
1.0
  9
$DIMFXLON
 70
     0
  9
$DIMJOGANG
 40
0.7853981633974483
  9
$DIMTFILL
 70
     0
  9
$DIMTFILLCLR
 70
     0
  9
$DIMARCSYM
 70
     0
  9
$DIMLTYPE
  6

  9
$DIMLTEX1
  6

  9
$DIMLTEX2
  6

  9
$DIMTXTDIRECTION
 70
     0
  9
$LUNITS
 70
     2
  9
$LUPREC
 70
     4
  9
$SKETCHINC
 40
0.1
  9
$FILLETRAD
 40
0.0
  9
$AUNITS
 70
     0
  9
$AUPREC
 70
     0
  9
$MENU
  1
acad
  9
$ELEVATION
 40
0.0
  9
$PELEVATION
 40
0.0
  9
$THICKNESS
 40
0.0
  9
$LIMCHECK
 70
     0
  9
$CHAMFERA
 40
0.0
  9
$CHAMFERB
 40
0.0
  9
$CHAMFERC
 40
0.0
  9
$CHAMFERD
 40
0.0
  9
$SKPOLY
 70
     0
  9
$TDCREATE
 40
2305824.133323553
  9
$TDUCREATE
 40
2305824.091656887
  9
$TDUPDATE
 40
2458502.742076447
  9
$TDUUPDATE
 40
2458502.700409781
  9
$TDINDWG
 40
0.0767735648
  9
$TDUSRTIMER
 40
0.0767734838
  9
$USRTIMER
 70
     1
  9
$ANGBASE
 50
0.0
  9
$ANGDIR
 70
     0
  9
$PDMODE
 70
     0
  9
$PDSIZE
 40
0.0
  9
$PLINEWID
 40
0.0
  9
$SPLFRAME
 70
     0
  9
$SPLINETYPE
 70
     6
  9
$SPLINESEGS
 70
     8
  9
$HANDSEED
  5
2081
  9
$SURFTAB1
 70
     6
  9
$SURFTAB2
 70
     6
  9
$SURFTYPE
 70
     6
  9
$SURFU
 70
     6
  9
$SURFV
 70
     6
  9
$UCSBASE
  2

  9
$UCSNAME
  2

  9
$UCSORG
 10
0.0
 20
0.0
 30
0.0
  9
$UCSXDIR
 10
1.0
 20
0.0
 30
0.0
  9
$UCSYDIR
 10
0.0
 20
1.0
 30
0.0
  9
$UCSORTHOREF
  2

  9
$UCSORTHOVIEW
 70
     0
  9
$UCSORGTOP
 10
0.0
 20
0.0
 30
0.0
  9
$UCSORGBOTTOM
 10
0.0
 20
0.0
 30
0.0
  9
$UCSORGLEFT
 10
0.0
 20
0.0
 30
0.0
  9
$UCSORGRIGHT
 10
0.0
 20
0.0
 30
0.0
  9
$UCSORGFRONT
 10
0.0
 20
0.0
 30
0.0
  9
$UCSORGBACK
 10
0.0
 20
0.0
 30
0.0
  9
$PUCSBASE
  2

  9
$PUCSNAME
  2

  9
$PUCSORG
 10
0.0
 20
0.0
 30
0.0
  9
$PUCSXDIR
 10
1.0
 20
0.0
 30
0.0
  9
$PUCSYDIR
 10
0.0
 20
1.0
 30
0.0
  9
$PUCSORTHOREF
  2

  9
$PUCSORTHOVIEW
 70
     0
  9
$PUCSORGTOP
 10
0.0
 20
0.0
 30
0.0
  9
$PUCSORGBOTTOM
 10
0.0
 20
0.0
 30
0.0
  9
$PUCSORGLEFT
 10
0.0
 20
0.0
 30
0.0
  9
$PUCSORGRIGHT
 10
0.0
 20
0.0
 30
0.0
  9
$PUCSORGFRONT
 10
0.0
 20
0.0
 30
0.0
  9
$PUCSORGBACK
 10
0.0
 20
0.0
 30
0.0
  9
$USERI1
 70
     0
  9
$USERI2
 70
     0
  9
$USERI3
 70
     0
  9
$USERI4
 70
     0
  9
$USERI5
 70
     0
  9
$USERR1
 40
0.0
  9
$USERR2
 40
0.0
  9
$USERR3
 40
0.0
  9
$USERR4
 40
0.0
  9
$USERR5
 40
0.0
  9
$WORLDVIEW
 70
     1
  9
$SHADEDGE
 70
     3
  9
$SHADEDIF
 70
    70
  9
$TILEMODE
 70
     1
  9
$MAXACTVP
 70
    16
  9
$PINSBASE
 10
0.0
 20
0.0
 30
0.0
  9
$PLIMCHECK
 70
     0
  9
$PEXTMIN
 10
1.000000000000000E+20
 20
1.000000000000000E+20
 30
1.000000000000000E+20
  9
$PEXTMAX
 10
-1.000000000000000E+20
 20
-1.000000000000000E+20
 30
-1.000000000000000E+20
  9
$PLIMMIN
 10
0.0
 20
0.0
  9
$PLIMMAX
 10
12.0
 20
9.0
  9
$UNITMODE
 70
     0
  9
$VISRETAIN
 70
     0
  9
$PLINEGEN
 70
     1
  9
$PSLTSCALE
 70
     0
  9
$TREEDEPTH
 70
  3020
  9
$CMLSTYLE
  2
STANDARD
  9
$CMLJUST
 70
     0
  9
$CMLSCALE
 40
1.0
  9
$PROXYGRAPHICS
 70
     1
  9
$MEASUREMENT
 70
     0
  9
$CELWEIGHT
370
    -1
  9
$ENDCAPS
280
     0
  9
$JOINSTYLE
280
     0
  9
$LWDISPLAY
290
     0
  9
$INSUNITS
 70
     0
  9
$HYPERLINKBASE
  1

  9
$STYLESHEET
  1

  9
$XEDIT
290
     1
  9
$CEPSNTYPE
380
     0
  9
$PSTYLEMODE
290
     1
  9
$FINGERPRINTGUID
  2
{5243222F-CC4B-4302-8C19-076DE45F7F99}
  9
$VERSIONGUID
  2
{6B34CC0C-7FC7-4FD3-A6D8-5B98341BF1D4}
  9
$EXTNAMES
290
     1
  9
$PSVPSCALE
 40
0.0
  9
$OLESTARTUP
290
     0
  9
$SORTENTS
280
   127
  9
$INDEXCTL
280
     0
  9
$HIDETEXT
280
     0
  9
$XCLIPFRAME
280
     2
  9
$HALOGAP
280
     0
  9
$OBSCOLOR
 70
   257
  9
$OBSLTYPE
280
     0
  9
$INTERSECTIONDISPLAY
280
     0
  9
$INTERSECTIONCOLOR
 70
   257
  9
$DIMASSOC
280
     1
  9
$PROJECTNAME
  1

  9
$CAMERADISPLAY
290
     0
  9
$LENSLENGTH
 40
50.0
  9
$CAMERAHEIGHT
 40
0.0
  9
$STEPSPERSEC
 40
2.0
  9
$STEPSIZE
 40
6.0
  9
$3DDWFPREC
 40
2.0
  9
$PSOLWIDTH
 40
0.25
  9
$PSOLHEIGHT
 40
4.0
  9
$LOFTANG1
 40
1.570796326794896
  9
$LOFTANG2
 40
1.570796326794896
  9
$LOFTMAG1
 40
0.0
  9
$LOFTMAG2
 40
0.0
  9
$LOFTPARAM
 70
     7
  9
$LOFTNORMALS
280
     1
  9
$LATITUDE
 40
37.795
  9
$LONGITUDE
 40
-122.394
  9
$NORTHDIRECTION
 40
0.0
  9
$TIMEZONE
 70
 -8000
  9
$LIGHTGLYPHDISPLAY
280
     1
  9
$TILEMODELIGHTSYNCH
280
     1
  9
$CMATERIAL
347
31A
  9
$SOLIDHIST
280
     0
  9
$SHOWHIST
280
     1
  9
$DWFFRAME
280
     2
  9
$DGNFRAME
280
     0
  9
$REALWORLDSCALE
290
     1
  9
$INTERFERECOLOR
 62
     1
  9
$INTERFEREOBJVS
345
33C
  9
$INTERFEREVPVS
346
339
  9
$CSHADOW
280
     0
  9
$SHADOWPLANELOCATION
 40
0.0
  0
ENDSEC
  0
SECTION
  2
CLASSES
  0
CLASS
  1
IMAGE
  2
AcDbRasterImage
  3
ISM
 90
     2175
 91
        0
280
     0
281
     1
  0
CLASS
  1
DICTIONARYVAR
  2
AcDbDictionaryVar
  3
ObjectDBX Classes
 90
        0
 91
        9
280
     0
281
     0
  0
CLASS
  1
RASTERVARIABLES
  2
AcDbRasterVariables
  3
ISM
 90
        0
 91
        0
280
     0
281
     0
  0
CLASS
  1
IMAGEDEF
  2
AcDbRasterImageDef
  3
ISM
 90
        0
 91
        0
280
     0
281
     0
  0
CLASS
  1
IMAGEDEF_REACTOR
  2
AcDbRasterImageDefReactor
  3
ISM
 90
        1
 91
        0
280
     0
281
     0
  0
CLASS
  1
IDBUFFER
  2
AcDbIdBuffer
  3
ObjectDBX Classes
 90
        0
 91
        0
280
     0
281
     0
  0
CLASS
  1
SPATIAL_FILTER
  2
AcDbSpatialFilter
  3
ObjectDBX Classes
 90
        0
 91
        0
280
     0
281
     0
  0
CLASS
  1
SORTENTSTABLE
  2
AcDbSortentsTable
  3
ObjectDBX Classes
 90
        0
 91
        4
280
     0
281
     0
  0
CLASS
  1
LAYER_INDEX
  2
AcDbLayerIndex
  3
ObjectDBX Classes
 90
        0
 91
        0
280
     0
281
     0
  0
CLASS
  1
SPATIAL_INDEX
  2
AcDbSpatialIndex
  3
ObjectDBX Classes
 90
        0
 91
        0
280
     0
281
     0
  0
CLASS
  1
OBJECT_PTR
  2
CAseDLPNTableRecord
  3
"ASE-LPNTableRecord"
 90
        0
 91
        0
280
     0
281
     0
  0
CLASS
  1
PLOTSETTINGS
  2
AcDbPlotSettings
  3
ObjectDBX Classes
 90
        0
 91
        0
280
     0
281
     0
  0
CLASS
  1
ACDBDICTIONARYWDFLT
  2
AcDbDictionaryWithDefault
  3
ObjectDBX Classes
 90
        0
 91
        1
280
     0
281
     0
  0
CLASS
  1
WIPEOUT
  2
AcDbWipeout
  3
WipeOut|Product Desc: Object Enabler for WipeOut entity | Company: Autodesk, Inc. | WEB Address: www.autodesk.com
 90
     2175
 91
        0
280
     0
281
     1
  0
CLASS
  1
WIPEOUTVARIABLES
  2
AcDbWipeoutVariables
  3
"WipeOut|Product Desc:     WipeOut Dbx Application|Company:          Autodesk, Inc.|WEB Address:      www.autodesk.com"
 90
        0
 91
        0
280
     0
281
     0
  0
CLASS
  1
RTEXT
  2
RText
  3
RText|AutoCAD Express Tool|expresstools@autodesk.com
 90
        0
 91
        0
280
     0
281
     1
  0
CLASS
  1
ARCALIGNEDTEXT
  2
AcDbArcAlignedText
  3
ATEXT|AutoCAD Express Tool|expresstools@autodesk.com
 90
        0
 91
        0
280
     0
281
     1
  0
CLASS
  1
MATERIAL
  2
AcDbMaterial
  3
ObjectDBX Classes
 90
     1153
 91
        3
280
     0
281
     0
  0
CLASS
  1
VISUALSTYLE
  2
AcDbVisualStyle
  3
ObjectDBX Classes
 90
     4095
 91
       24
280
     0
281
     0
  0
CLASS
  1
TABLESTYLE
  2
AcDbTableStyle
  3
ObjectDBX Classes
 90
     4095
 91
        1
280
     0
281
     0
  0
CLASS
  1
SCALE
  2
AcDbScale
  3
ObjectDBX Classes
 90
     1153
 91
       17
280
     0
281
     0
  0
CLASS
  1
MLEADERSTYLE
  2
AcDbMLeaderStyle
  3
ACDB_MLEADERSTYLE_CLASS
 90
     4095
 91
        1
280
     0
281
     0
  0
CLASS
  1
ACDBSECTIONVIEWSTYLE
  2
AcDbSectionViewStyle
  3
ObjectDBX Classes
 90
     1025
 91
        1
280
     0
281
     0
  0
CLASS
  1
ACDBDETAILVIEWSTYLE
  2
AcDbDetailViewStyle
  3
ObjectDBX Classes
 90
     1025
 91
        1
280
     0
281
     0
  0
CLASS
  1
CELLSTYLEMAP
  2
AcDbCellStyleMap
  3
ObjectDBX Classes
 90
     1152
 91
       16
280
     0
281
     0
  0
ENDSEC
  0
SECTION
  2
TABLES
  0
TABLE
  2
VPORT
  5
7
330
0
100
AcDbSymbolTable
 70
     1
  0
VPORT
  5
15
330
7
100
AcDbSymbolTableRecord
100
AcDbViewportTableRecord
  2
*ACTIVE
 70
     0
 10
0.0
 20
0.0
 11
1.0
 21
1.0
 12
-1203.53326627788
 22
-2194.143495803551
 13
0.0
 23
0.0
 14
1.0
 24
1.0
 15
0.0
 25
0.0
 16
0.0
 26
0.0
 36
1.0
 17
0.0
 27
0.0
 37
0.0
 40
2002.31240367823
 41
2.257301808066759
 42
50.0
 43
0.0
 44
0.0
 50
0.0
 51
0.0
 71
     0
 72
   100
 73
     1
 74
     1
 75
     0
 76
     0
 77
     0
 78
     0
281
     0
 65
     1
110
0.0
120
0.0
130
0.0
111
1.0
121
0.0
131
0.0
112
0.0
122
1.0
132
0.0
 79
     0
146
0.0
348
338
 60
     3
 61
     5
292
     1
282
     1
141
0.0
142
0.0
 63
   250
421
  3355443
1001
ACAD_NAV_VCDISPLAY
1070
     3
  0
ENDTAB
  0
TABLE
  2
LTYPE
  5
4
330
0
100
AcDbSymbolTable
 70
     4
  0
LTYPE
  5
11
330
4
100
AcDbSymbolTableRecord
100
AcDbLinetypeTableRecord
  2
BYBLOCK
 70
     0
  3

 72
    65
 73
     0
 40
0.0
  0
LTYPE
  5
12
330
4
100
AcDbSymbolTableRecord
100
AcDbLinetypeTableRecord
  2
BYLAYER
 70
     0
  3

 72
    65
 73
     0
 40
0.0
  0
LTYPE
  5
13
330
4
100
AcDbSymbolTableRecord
100
AcDbLinetypeTableRecord
  2
CONTINUOUS
 70
     0
  3
Solid line
 72
    65
 73
     0
 40
0.0
  0
LTYPE
  5
1E
330
4
100
AcDbSymbolTableRecord
100
AcDbLinetypeTableRecord
  2
STANDARD
 70
     0
  3

 72
    65
 73
     0
 40
0.0
  0
LTYPE
  5
A65
330
4
100
AcDbSymbolTableRecord
100
AcDbLinetypeTableRecord
  2
CUSTOM
 70
     0
  3

 72
    65
 73
     0
 40
0.0
  0
ENDTAB
  0
TABLE
  2
LAYER
  5
2
102
{ACAD_XDICTIONARY
360
372
102
}
330
0
100
AcDbSymbolTable
 70
     4
  0
LAYER
  5
14
102
{ACAD_XDICTIONARY
360
65A
102
}
330
2
100
AcDbSymbolTableRecord
100
AcDbLayerTableRecord
  2
0
 70
     0
 62
     7
  6
CONTINUOUS
370
    -3
390
318
347
32A
  0
LAYER
  5
1D
102
{ACAD_XDICTIONARY
360
65C
102
}
330
2
100
AcDbSymbolTableRecord
100
AcDbLayerTableRecord
  2
BEMA_UNG
 70
     0
 62
   171
  6
CONTINUOUS
370
    -3
390
318
347
32A
  0
LAYER
  5
36D
102
{ACAD_XDICTIONARY
360
65E
102
}
330
2
100
AcDbSymbolTableRecord
100
AcDbLayerTableRecord
  2
HEWI
 70
     0
 62
     7
  6
CONTINUOUS
370
     9
390
318
347
32A
1001
AcAecLayerStandard
1000

1000

1001
AcCmTransparency
1071
        0
  0
LAYER
  5
554
330
2
100
AcDbSymbolTableRecord
100
AcDbLayerTableRecord
  2
Defpoints
 70
     0
 62
     7
  6
CONTINUOUS
290
     0
370
    -3
390
318
347
32A
  0
ENDTAB
  0
TABLE
  2
STYLE
  5
3
330
0
100
AcDbSymbolTable
 70
     1
  0
STYLE
  5
17
330
3
100
AcDbSymbolTableRecord
100
AcDbTextStyleTableRecord
  2
STANDARD
 70
     0
 40
0.0
 41
1.0
 50
0.0
 71
     0
 42
0.0
  3
txt
  4

  0
ENDTAB
  0
TABLE
  2
VIEW
  5
5
330
0
100
AcDbSymbolTable
 70
     0
  0
ENDTAB
  0
TABLE
  2
UCS
  5
6
330
0
100
AcDbSymbolTable
 70
     0
  0
ENDTAB
  0
TABLE
  2
APPID
  5
8
330
0
100
AcDbSymbolTable
 70
     8
  0
APPID
  5
16
330
8
100
AcDbSymbolTableRecord
100
AcDbRegAppTableRecord
  2
ACAD
 70
     0
  0
APPID
  5
36E
330
8
100
AcDbSymbolTableRecord
100
AcDbRegAppTableRecord
  2
ACAD_NAV_VCDISPLAY
 70
     0
  0
APPID
  5
36F
330
8
100
AcDbSymbolTableRecord
100
AcDbRegAppTableRecord
  2
AcAecLayerStandard
 70
     0
  0
APPID
  5
370
330
8
100
AcDbSymbolTableRecord
100
AcDbRegAppTableRecord
  2
AcCmTransparency
 70
     0
  0
APPID
  5
371
330
8
100
AcDbSymbolTableRecord
100
AcDbRegAppTableRecord
  2
ACAD_PSEXT
 70
     0
  0
APPID
  5
484
330
8
100
AcDbSymbolTableRecord
100
AcDbRegAppTableRecord
  2
ACAD_EXEMPT_FROM_CAD_STANDARDS
 70
     0
  0
APPID
  5
781
330
8
100
AcDbSymbolTableRecord
100
AcDbRegAppTableRecord
  2
GradientColor1ACI
 70
     0
  0
APPID
  5
782
330
8
100
AcDbSymbolTableRecord
100
AcDbRegAppTableRecord
  2
GradientColor2ACI
 70
     0
  0
ENDTAB
  0
TABLE
  2
DIMSTYLE
  5
9
330
0
100
AcDbSymbolTable
 70
     2
100
AcDbDimStyleTable
 71
     1
340
18
  0
DIMSTYLE
105
18
330
9
100
AcDbSymbolTableRecord
100
AcDbDimStyleTableRecord
  2
STANDARD
 70
     0
340
17
  0
ENDTAB
  0
TABLE
  2
BLOCK_RECORD
  5
1
330
0
100
AcDbSymbolTable
 70
    18
  0
BLOCK_RECORD
  5
A
102
{ACAD_XDICTIONARY
360
1F03
102
}
330
1
100
AcDbSymbolTableRecord
100
AcDbBlockTableRecord
  2
*MODEL_SPACE
340
368
 70
     0
280
     1
281
     0
  0
BLOCK_RECORD
  5
B
330
1
100
AcDbSymbolTableRecord
100
AcDbBlockTableRecord
  2
*PAPER_SPACE
340
369
 70
     0
280
     1
281
     0
  0
BLOCK_RECORD
  5
555
330
1
100
AcDbSymbolTableRecord
100
AcDbBlockTableRecord
  2
*D0
340
0
 70
     0
280
     1
281
     0
  0
BLOCK_RECORD
  5
98E
330
1
100
AcDbSymbolTableRecord
100
AcDbBlockTableRecord
  2
*D1
340
0
 70
     0
280
     1
281
     0
  0
BLOCK_RECORD
  5
E39
330
1
100
AcDbSymbolTableRecord
100
AcDbBlockTableRecord
  2
*D2
340
0
 70
     0
280
     1
281
     0
  0
BLOCK_RECORD
  5
E7D
330
1
100
AcDbSymbolTableRecord
100
AcDbBlockTableRecord
  2
*D3
340
0
 70
     0
280
     1
281
     0
  0
BLOCK_RECORD
  5
FD5
330
1
100
AcDbSymbolTableRecord
100
AcDbBlockTableRecord
  2
*D4
340
0
 70
     0
280
     1
281
     0
  0
BLOCK_RECORD
  5
FFB
330
1
100
AcDbSymbolTableRecord
100
AcDbBlockTableRecord
  2
*D5
340
0
 70
     0
280
     1
281
     0
  0
BLOCK_RECORD
  5
1009
330
1
100
AcDbSymbolTableRecord
100
AcDbBlockTableRecord
  2
*D6
340
0
 70
     0
280
     1
281
     0
  0
BLOCK_RECORD
  5
1618
330
1
100
AcDbSymbolTableRecord
100
AcDbBlockTableRecord
  2
*D8
340
0
 70
     0
280
     1
281
     0
  0
BLOCK_RECORD
  5
1A65
330
1
100
AcDbSymbolTableRecord
100
AcDbBlockTableRecord
  2
*D11
340
0
 70
     0
280
     1
281
     0
  0
BLOCK_RECORD
  5
1BB7
330
1
100
AcDbSymbolTableRecord
100
AcDbBlockTableRecord
  2
*D12
340
0
 70
     0
280
     1
281
     0
  0
BLOCK_RECORD
  5
1F06
330
1
100
AcDbSymbolTableRecord
100
AcDbBlockTableRecord
  2
*D14
340
0
 70
     0
280
     1
281
     0
  0
BLOCK_RECORD
  5
1F4A
330
1
100
AcDbSymbolTableRecord
100
AcDbBlockTableRecord
  2
*D15
340
0
 70
     0
280
     1
281
     0
  0
BLOCK_RECORD
  5
1F8E
330
1
100
AcDbSymbolTableRecord
100
AcDbBlockTableRecord
  2
*D16
340
0
 70
     0
280
     1
281
     0
  0
BLOCK_RECORD
  5
203E
330
1
100
AcDbSymbolTableRecord
100
AcDbBlockTableRecord
  2
*D17
340
0
 70
     0
280
     1
281
     0
  0
ENDTAB
  0
ENDSEC
  0
SECTION
  2
BLOCKS
  0
BLOCK
  5
D
330
A
100
AcDbEntity
  8
0
100
AcDbBlockBegin
  2
*MODEL_SPACE
 70
     0
 10
0.0
 20
0.0
 30
0.0
  3
*MODEL_SPACE
  1

  0
ENDBLK
  5
E
330
A
100
AcDbEntity
  8
0
100
AcDbBlockEnd
  0
BLOCK
  5
F
330
B
100
AcDbEntity
 67
     1
  8
0
100
AcDbBlockBegin
  2
*PAPER_SPACE
 70
     0
 10
0.0
 20
0.0
 30
0.0
  3
*PAPER_SPACE
  1

  0
ENDBLK
  5
10
330
B
100
AcDbEntity
 67
     1
  8
0
100
AcDbBlockEnd
  0
BLOCK
  5
556
330
555
100
AcDbEntity
  8
0
100
AcDbBlockBegin
  2
*D0
 70
     1
 10
0.0
 20
0.0
 30
0.0
  3
*D0
  1

  0
LINE
  5
558
330
555
100
AcDbEntity
  8
0
  6
Continuous
 62
     0
440
 16777216
370
    -2
100
AcDbLine
 10
-1571.884155084999
 20
-1674.538160844551
 30
0.0
 11
-1571.884155084999
 21
-1948.499022356918
 31
0.0
  0
LINE
  5
559
330
555
100
AcDbEntity
  8
0
  6
Continuous
 62
     0
440
 16777216
370
    -2
100
AcDbLine
 10
-871.8841930849997
 20
-1674.538160844551
 30
0.0
 11
-871.8841930849997
 21
-1948.499022356918
 31
0.0
  0
LINE
  5
55A
330
555
100
AcDbEntity
  8
0
  6
Continuous
 62
     0
440
 16777216
370
    -2
100
AcDbLine
 10
-1571.704155084999
 20
-1948.319022356918
 30
0.0
 11
-1222.514174084999
 21
-1948.319022356918
 31
0.0
  0
LINE
  5
55B
330
555
100
AcDbEntity
  8
0
  6
Continuous
 62
     0
440
 16777216
370
    -2
100
AcDbLine
 10
-872.0641930849996
 20
-1948.319022356918
 30
0.0
 11
-1221.254174084999
 21
-1948.319022356918
 31
0.0
  0
SOLID
  5
55C
330
555
100
AcDbEntity
  8
0
  6
Continuous
 62
     0
440
 16777216
100
AcDbTrace
 10
-1571.704155084999
 20
-1948.289022356918
 30
0.0
 11
-1571.704155084999
 21
-1948.349022356918
 31
0.0
 12
-1571.884155084999
 22
-1948.319022356918
 32
0.0
 13
-1571.884155084999
 23
-1948.319022356918
 33
0.0
  0
SOLID
  5
55D
330
555
100
AcDbEntity
  8
0
  6
Continuous
 62
     0
440
 16777216
100
AcDbTrace
 10
-872.0641930849996
 20
-1948.289022356918
 30
0.0
 11
-872.0641930849996
 21
-1948.349022356918
 31
0.0
 12
-871.8841930849997
 22
-1948.319022356918
 32
0.0
 13
-871.8841930849997
 23
-1948.319022356918
 33
0.0
  0
MTEXT
  5
55E
330
555
100
AcDbEntity
  8
0
  6
Continuous
 62
     0
440
 16777216
100
AcDbMText
 10
-1221.884174084999
 20
-1948.319022356918
 30
0.0
 40
0.18
 41
0.0
 46
0.0
 71
     5
 72
     1
  1
\A1;700.0000
 73
     1
 44
1.0
  0
POINT
  5
55F
330
555
100
AcDbEntity
  8
Defpoints
  6
Continuous
 62
     0
440
 16777216
100
AcDbPoint
 10
-1571.884155084999
 20
-1674.475660844551
 30
0.0
  0
POINT
  5
560
330
555
100
AcDbEntity
  8
Defpoints
  6
Continuous
 62
     0
440
 16777216
100
AcDbPoint
 10
-871.8841930849997
 20
-1674.475660844551
 30
0.0
  0
POINT
  5
561
330
555
100
AcDbEntity
  8
Defpoints
  6
Continuous
 62
     0
440
 16777216
100
AcDbPoint
 10
-871.8841930849997
 20
-1948.319022356918
 30
0.0
  0
ENDBLK
  5
557
330
555
100
AcDbEntity
  8
0
100
AcDbBlockEnd
  0
BLOCK
  5
98F
330
98E
100
AcDbEntity
  8
0
100
AcDbBlockBegin
  2
*D1
 70
     1
 10
0.0
 20
0.0
 30
0.0
  3
*D1
  1

  0
LINE
  5
991
330
98E
100
AcDbEntity
  8
0
  6
Continuous
 62
     0
440
 16777216
370
    -2
100
AcDbLine
 10
-671.8841930849996
 20
-1685.2228015
 30
0.0
 11
-671.8841930849996
 21
-1441.684931733702
 31
0.0
  0
LINE
  5
992
330
98E
100
AcDbEntity
  8
0
  6
Continuous
 62
     0
440
 16777216
370
    -2
100
AcDbLine
 10
-1571.884155084999
 20
-1685.2228015
 30
0.0
 11
-1571.884155084999
 21
-1441.684931733702
 31
0.0
  0
LINE
  5
993
330
98E
100
AcDbEntity
  8
0
  6
Continuous
 62
     0
440
 16777216
370
    -2
100
AcDbLine
 10
-672.0641930849994
 20
-1441.864931733702
 30
0.0
 11
-1121.254174084999
 21
-1441.864931733702
 31
0.0
  0
LINE
  5
994
330
98E
100
AcDbEntity
  8
0
  6
Continuous
 62
     0
440
 16777216
370
    -2
100
AcDbLine
 10
-1571.704155084999
 20
-1441.864931733702
 30
0.0
 11
-1122.514174084999
 21
-1441.864931733702
 31
0.0
  0
SOLID
  5
995
330
98E
100
AcDbEntity
  8
0
  6
Continuous
 62
     0
440
 16777216
100
AcDbTrace
 10
-672.0641930849994
 20
-1441.834931733702
 30
0.0
 11
-672.0641930849994
 21
-1441.894931733702
 31
0.0
 12
-671.8841930849996
 22
-1441.864931733702
 32
0.0
 13
-671.8841930849996
 23
-1441.864931733702
 33
0.0
  0
SOLID
  5
996
330
98E
100
AcDbEntity
  8
0
  6
Continuous
 62
     0
440
 16777216
100
AcDbTrace
 10
-1571.704155084999
 20
-1441.834931733702
 30
0.0
 11
-1571.704155084999
 21
-1441.894931733702
 31
0.0
 12
-1571.884155084999
 22
-1441.864931733702
 32
0.0
 13
-1571.884155084999
 23
-1441.864931733702
 33
0.0
  0
MTEXT
  5
997
330
98E
100
AcDbEntity
  8
0
  6
Continuous
 62
     0
440
 16777216
100
AcDbMText
 10
-1121.884174084999
 20
-1441.864931733702
 30
0.0
 40
0.18
 41
0.0
 46
0.0
 71
     5
 72
     1
  1
\A1;900.0000
 73
     1
 44
1.0
  0
POINT
  5
998
330
98E
100
AcDbEntity
  8
Defpoints
  6
Continuous
 62
     0
440
 16777216
100
AcDbPoint
 10
-671.8841930849996
 20
-1685.2853015
 30
0.0
  0
POINT
  5
999
330
98E
100
AcDbEntity
  8
Defpoints
  6
Continuous
 62
     0
440
 16777216
100
AcDbPoint
 10
-1571.884155084999
 20
-1685.2853015
 30
0.0
  0
POINT
  5
99A
330
98E
100
AcDbEntity
  8
Defpoints
  6
Continuous
 62
     0
440
 16777216
100
AcDbPoint
 10
-1571.884155084999
 20
-1441.864931733702
 30
0.0
  0
ENDBLK
  5
990
330
98E
100
AcDbEntity
  8
0
100
AcDbBlockEnd
  0
BLOCK
  5
E3A
330
E39
100
AcDbEntity
  8
0
100
AcDbBlockBegin
  2
*D2
 70
     1
 10
0.0
 20
0.0
 30
0.0
  3
*D2
  1

  0
LINE
  5
E3C
330
E39
100
AcDbEntity
  8
0
  6
Continuous
 62
     0
440
 16777216
370
    -2
100
AcDbLine
 10
-2058.778195915001
 20
-1755.122799499999
 30
0.0
 11
-2058.778195915001
 21
-1438.826499125775
 31
0.0
  0
LINE
  5
E3D
330
E39
100
AcDbEntity
  8
0
  6
Continuous
 62
     0
440
 16777216
370
    -2
100
AcDbLine
 10
-2958.778157915
 20
-1685.222801499997
 30
0.0
 11
-2958.778157915
 21
-1438.826499125775
 31
0.0
  0
LINE
  5
E3E
330
E39
100
AcDbEntity
  8
0
  6
Continuous
 62
     0
440
 16777216
370
    -2
100
AcDbLine
 10
-2058.958195915001
 20
-1439.006499125775
 30
0.0
 11
-2508.148176915001
 21
-1439.006499125775
 31
0.0
  0
LINE
  5
E3F
330
E39
100
AcDbEntity
  8
0
  6
Continuous
 62
     0
440
 16777216
370
    -2
100
AcDbLine
 10
-2958.598157915
 20
-1439.006499125775
 30
0.0
 11
-2509.408176915001
 21
-1439.006499125775
 31
0.0
  0
SOLID
  5
E40
330
E39
100
AcDbEntity
  8
0
  6
Continuous
 62
     0
440
 16777216
100
AcDbTrace
 10
-2058.958195915001
 20
-1438.976499125775
 30
0.0
 11
-2058.958195915001
 21
-1439.036499125775
 31
0.0
 12
-2058.778195915001
 22
-1439.006499125775
 32
0.0
 13
-2058.778195915001
 23
-1439.006499125775
 33
0.0
  0
SOLID
  5
E41
330
E39
100
AcDbEntity
  8
0
  6
Continuous
 62
     0
440
 16777216
100
AcDbTrace
 10
-2958.598157915
 20
-1438.976499125775
 30
0.0
 11
-2958.598157915
 21
-1439.036499125775
 31
0.0
 12
-2958.778157915
 22
-1439.006499125775
 32
0.0
 13
-2958.778157915
 23
-1439.006499125775
 33
0.0
  0
MTEXT
  5
E42
330
E39
100
AcDbEntity
  8
0
  6
Continuous
 62
     0
440
 16777216
100
AcDbMText
 10
-2508.778176915001
 20
-1439.006499125775
 30
0.0
 40
0.18
 41
0.0
 46
0.0
 71
     5
 72
     1
  1
\A1;900.0000
 73
     1
 44
1.0
  0
POINT
  5
E43
330
E39
100
AcDbEntity
  8
Defpoints
  6
Continuous
 62
     0
440
 16777216
100
AcDbPoint
 10
-2058.778195915001
 20
-1755.185299499999
 30
0.0
  0
POINT
  5
E44
330
E39
100
AcDbEntity
  8
Defpoints
  6
Continuous
 62
     0
440
 16777216
100
AcDbPoint
 10
-2958.778157915
 20
-1685.285301499998
 30
0.0
  0
POINT
  5
E45
330
E39
100
AcDbEntity
  8
Defpoints
  6
Continuous
 62
     0
440
 16777216
100
AcDbPoint
 10
-2958.778157915
 20
-1439.006499125775
 30
0.0
  0
ENDBLK
  5
E3B
330
E39
100
AcDbEntity
  8
0
100
AcDbBlockEnd
  0
BLOCK
  5
E7E
330
E7D
100
AcDbEntity
  8
0
100
AcDbBlockBegin
  2
*D3
 70
     1
 10
0.0
 20
0.0
 30
0.0
  3
*D3
  1

  0
LINE
  5
E80
330
E7D
100
AcDbEntity
  8
0
  6
Continuous
 62
     0
440
 16777216
370
    -2
100
AcDbLine
 10
-2958.778157915
 20
-1685.222801499997
 30
0.0
 11
-2958.778157915
 21
-1488.083773311466
 31
0.0
  0
LINE
  5
E81
330
E7D
100
AcDbEntity
  8
0
  6
Continuous
 62
     0
440
 16777216
370
    -2
100
AcDbLine
 10
-2058.778195915
 20
-1685.222801500001
 30
0.0
 11
-2058.778195915
 21
-1488.083773311466
 31
0.0
  0
LINE
  5
E82
330
E7D
100
AcDbEntity
  8
0
  6
Continuous
 62
     0
440
 16777216
370
    -2
100
AcDbLine
 10
-2958.598157915
 20
-1488.263773311466
 30
0.0
 11
-2509.408176915
 21
-1488.263773311466
 31
0.0
  0
LINE
  5
E83
330
E7D
100
AcDbEntity
  8
0
  6
Continuous
 62
     0
440
 16777216
370
    -2
100
AcDbLine
 10
-2058.958195915
 20
-1488.263773311466
 30
0.0
 11
-2508.148176915
 21
-1488.263773311466
 31
0.0
  0
SOLID
  5
E84
330
E7D
100
AcDbEntity
  8
0
  6
Continuous
 62
     0
440
 16777216
100
AcDbTrace
 10
-2958.598157915
 20
-1488.233773311466
 30
0.0
 11
-2958.598157915
 21
-1488.293773311466
 31
0.0
 12
-2958.778157915
 22
-1488.263773311466
 32
0.0
 13
-2958.778157915
 23
-1488.263773311466
 33
0.0
  0
SOLID
  5
E85
330
E7D
100
AcDbEntity
  8
0
  6
Continuous
 62
     0
440
 16777216
100
AcDbTrace
 10
-2058.958195915
 20
-1488.233773311466
 30
0.0
 11
-2058.958195915
 21
-1488.293773311466
 31
0.0
 12
-2058.778195915
 22
-1488.263773311466
 32
0.0
 13
-2058.778195915
 23
-1488.263773311466
 33
0.0
  0
MTEXT
  5
E86
330
E7D
100
AcDbEntity
  8
0
  6
Continuous
 62
     0
440
 16777216
100
AcDbMText
 10
-2508.778176915
 20
-1488.263773311466
 30
0.0
 40
0.18
 41
0.0
 46
0.0
 71
     5
 72
     1
  1
\A1;900.0000
 73
     1
 44
1.0
  0
POINT
  5
E87
330
E7D
100
AcDbEntity
  8
Defpoints
  6
Continuous
 62
     0
440
 16777216
100
AcDbPoint
 10
-2958.778157915
 20
-1685.285301499998
 30
0.0
  0
POINT
  5
E88
330
E7D
100
AcDbEntity
  8
Defpoints
  6
Continuous
 62
     0
440
 16777216
100
AcDbPoint
 10
-2058.778195915
 20
-1685.285301500001
 30
0.0
  0
POINT
  5
E89
330
E7D
100
AcDbEntity
  8
Defpoints
  6
Continuous
 62
     0
440
 16777216
100
AcDbPoint
 10
-2058.778195915
 20
-1488.263773311466
 30
0.0
  0
ENDBLK
  5
E7F
330
E7D
100
AcDbEntity
  8
0
100
AcDbBlockEnd
  0
BLOCK
  5
FD6
330
FD5
100
AcDbEntity
  8
0
100
AcDbBlockBegin
  2
*D4
 70
     1
 10
0.0
 20
0.0
 30
0.0
  3
*D4
  1

  0
LINE
  5
FD8
330
FD5
100
AcDbEntity
  8
0
  6
Continuous
 62
     0
440
 16777216
370
    -2
100
AcDbLine
 10
-821.884193084999
 20
-1685.222801499997
 30
0.0
 11
-821.884193084999
 21
-1513.013430958396
 31
0.0
  0
LINE
  5
FD9
330
FD5
100
AcDbEntity
  8
0
  6
Continuous
 62
     0
440
 16777216
370
    -2
100
AcDbLine
 10
-1571.884155084999
 20
-1685.2228015
 30
0.0
 11
-1571.884155084999
 21
-1513.013430958396
 31
0.0
  0
LINE
  5
FDA
330
FD5
100
AcDbEntity
  8
0
  6
Continuous
 62
     0
440
 16777216
370
    -2
100
AcDbLine
 10
-822.0641930849989
 20
-1513.193430958396
 30
0.0
 11
-1196.239174084999
 21
-1513.193430958396
 31
0.0
  0
LINE
  5
FDB
330
FD5
100
AcDbEntity
  8
0
  6
Continuous
 62
     0
440
 16777216
370
    -2
100
AcDbLine
 10
-1571.704155084998
 20
-1513.193430958396
 30
0.0
 11
-1197.529174084998
 21
-1513.193430958396
 31
0.0
  0
SOLID
  5
FDC
330
FD5
100
AcDbEntity
  8
0
  6
Continuous
 62
     0
440
 16777216
100
AcDbTrace
 10
-822.0641930849989
 20
-1513.163430958396
 30
0.0
 11
-822.0641930849989
 21
-1513.223430958396
 31
0.0
 12
-821.884193084999
 22
-1513.193430958396
 32
0.0
 13
-821.884193084999
 23
-1513.193430958396
 33
0.0
  0
SOLID
  5
FDD
330
FD5
100
AcDbEntity
  8
0
  6
Continuous
 62
     0
440
 16777216
100
AcDbTrace
 10
-1571.704155084998
 20
-1513.163430958396
 30
0.0
 11
-1571.704155084998
 21
-1513.223430958396
 31
0.0
 12
-1571.884155084999
 22
-1513.193430958396
 32
0.0
 13
-1571.884155084999
 23
-1513.193430958396
 33
0.0
  0
MTEXT
  5
FDE
330
FD5
100
AcDbEntity
  8
0
  6
Continuous
 62
     0
440
 16777216
100
AcDbMText
 10
-1196.884174084998
 20
-1513.193430958396
 30
0.0
 40
0.18
 41
0.0
 46
0.0
 71
     5
 72
     1
  1
\A1;750.0000
 73
     1
 44
1.0
  0
POINT
  5
FDF
330
FD5
100
AcDbEntity
  8
Defpoints
  6
Continuous
 62
     0
440
 16777216
100
AcDbPoint
 10
-821.884193084999
 20
-1685.285301499998
 30
0.0
  0
POINT
  5
FE0
330
FD5
100
AcDbEntity
  8
Defpoints
  6
Continuous
 62
     0
440
 16777216
100
AcDbPoint
 10
-1571.884155084999
 20
-1685.2853015
 30
0.0
  0
POINT
  5
FE1
330
FD5
100
AcDbEntity
  8
Defpoints
  6
Continuous
 62
     0
440
 16777216
100
AcDbPoint
 10
-1571.884155084999
 20
-1513.193430958396
 30
0.0
  0
ENDBLK
  5
FD7
330
FD5
100
AcDbEntity
  8
0
100
AcDbBlockEnd
  0
BLOCK
  5
FFC
330
FFB
100
AcDbEntity
  8
0
100
AcDbBlockBegin
  2
*D5
 70
     1
 10
0.0
 20
0.0
 30
0.0
  3
*D5
  1

  0
LINE
  5
FFE
330
FFB
100
AcDbEntity
  8
0
  6
Continuous
 62
     0
440
 16777216
370
    -2
100
AcDbLine
 10
-871.884193084999
 20
-1685.222801499997
 30
0.0
 11
-871.884193084999
 21
-1482.543854341207
 31
0.0
  0
LINE
  5
FFF
330
FFB
100
AcDbEntity
  8
0
  6
Continuous
 62
     0
440
 16777216
370
    -2
100
AcDbLine
 10
-1571.884155084999
 20
-1685.2228015
 30
0.0
 11
-1571.884155084999
 21
-1482.543854341207
 31
0.0
  0
LINE
  5
1000
330
FFB
100
AcDbEntity
  8
0
  6
Continuous
 62
     0
440
 16777216
370
    -2
100
AcDbLine
 10
-872.0641930849989
 20
-1482.723854341208
 30
0.0
 11
-1221.254174084998
 21
-1482.723854341208
 31
0.0
  0
LINE
  5
1001
330
FFB
100
AcDbEntity
  8
0
  6
Continuous
 62
     0
440
 16777216
370
    -2
100
AcDbLine
 10
-1571.704155084998
 20
-1482.723854341208
 30
0.0
 11
-1222.514174084999
 21
-1482.723854341208
 31
0.0
  0
SOLID
  5
1002
330
FFB
100
AcDbEntity
  8
0
  6
Continuous
 62
     0
440
 16777216
100
AcDbTrace
 10
-872.0641930849989
 20
-1482.693854341207
 30
0.0
 11
-872.0641930849989
 21
-1482.753854341208
 31
0.0
 12
-871.884193084999
 22
-1482.723854341208
 32
0.0
 13
-871.884193084999
 23
-1482.723854341208
 33
0.0
  0
SOLID
  5
1003
330
FFB
100
AcDbEntity
  8
0
  6
Continuous
 62
     0
440
 16777216
100
AcDbTrace
 10
-1571.704155084998
 20
-1482.693854341207
 30
0.0
 11
-1571.704155084998
 21
-1482.753854341208
 31
0.0
 12
-1571.884155084999
 22
-1482.723854341208
 32
0.0
 13
-1571.884155084999
 23
-1482.723854341208
 33
0.0
  0
MTEXT
  5
1004
330
FFB
100
AcDbEntity
  8
0
  6
Continuous
 62
     0
440
 16777216
100
AcDbMText
 10
-1221.884174084999
 20
-1482.723854341208
 30
0.0
 40
0.18
 41
0.0
 46
0.0
 71
     5
 72
     1
  1
\A1;700.0000
 73
     1
 44
1.0
  0
POINT
  5
1005
330
FFB
100
AcDbEntity
  8
Defpoints
  6
Continuous
 62
     0
440
 16777216
100
AcDbPoint
 10
-871.884193084999
 20
-1685.285301499998
 30
0.0
  0
POINT
  5
1006
330
FFB
100
AcDbEntity
  8
Defpoints
  6
Continuous
 62
     0
440
 16777216
100
AcDbPoint
 10
-1571.884155084999
 20
-1685.2853015
 30
0.0
  0
POINT
  5
1007
330
FFB
100
AcDbEntity
  8
Defpoints
  6
Continuous
 62
     0
440
 16777216
100
AcDbPoint
 10
-1571.884155084999
 20
-1482.723854341208
 30
0.0
  0
ENDBLK
  5
FFD
330
FFB
100
AcDbEntity
  8
0
100
AcDbBlockEnd
  0
BLOCK
  5
100A
330
1009
100
AcDbEntity
  8
0
100
AcDbBlockBegin
  2
*D6
 70
     1
 10
0.0
 20
0.0
 30
0.0
  3
*D6
  1

  0
LINE
  5
100C
330
1009
100
AcDbEntity
  8
0
  6
Continuous
 62
     0
440
 16777216
370
    -2
100
AcDbLine
 10
-871.884193084999
 20
-1685.222801499997
 30
0.0
 11
-871.884193084999
 21
-1440.211033253052
 31
0.0
  0
LINE
  5
100D
330
1009
100
AcDbEntity
  8
0
  6
Continuous
 62
     0
440
 16777216
370
    -2
100
AcDbLine
 10
-1571.884155084999
 20
-1685.2228015
 30
0.0
 11
-1571.884155084999
 21
-1440.211033253052
 31
0.0
  0
LINE
  5
100E
330
1009
100
AcDbEntity
  8
0
  6
Continuous
 62
     0
440
 16777216
370
    -2
100
AcDbLine
 10
-872.0641930849989
 20
-1440.391033253052
 30
0.0
 11
-1221.254174084998
 21
-1440.391033253052
 31
0.0
  0
LINE
  5
100F
330
1009
100
AcDbEntity
  8
0
  6
Continuous
 62
     0
440
 16777216
370
    -2
100
AcDbLine
 10
-1571.704155084998
 20
-1440.391033253052
 30
0.0
 11
-1222.514174084999
 21
-1440.391033253052
 31
0.0
  0
SOLID
  5
1010
330
1009
100
AcDbEntity
  8
0
  6
Continuous
 62
     0
440
 16777216
100
AcDbTrace
 10
-872.0641930849989
 20
-1440.361033253052
 30
0.0
 11
-872.0641930849989
 21
-1440.421033253052
 31
0.0
 12
-871.884193084999
 22
-1440.391033253052
 32
0.0
 13
-871.884193084999
 23
-1440.391033253052
 33
0.0
  0
SOLID
  5
1011
330
1009
100
AcDbEntity
  8
0
  6
Continuous
 62
     0
440
 16777216
100
AcDbTrace
 10
-1571.704155084998
 20
-1440.361033253052
 30
0.0
 11
-1571.704155084998
 21
-1440.421033253052
 31
0.0
 12
-1571.884155084999
 22
-1440.391033253052
 32
0.0
 13
-1571.884155084999
 23
-1440.391033253052
 33
0.0
  0
MTEXT
  5
1012
330
1009
100
AcDbEntity
  8
0
  6
Continuous
 62
     0
440
 16777216
100
AcDbMText
 10
-1221.884174084999
 20
-1440.391033253052
 30
0.0
 40
0.18
 41
0.0
 46
0.0
 71
     5
 72
     1
  1
\A1;700.0000
 73
     1
 44
1.0
  0
POINT
  5
1013
330
1009
100
AcDbEntity
  8
Defpoints
  6
Continuous
 62
     0
440
 16777216
100
AcDbPoint
 10
-871.884193084999
 20
-1685.285301499998
 30
0.0
  0
POINT
  5
1014
330
1009
100
AcDbEntity
  8
Defpoints
  6
Continuous
 62
     0
440
 16777216
100
AcDbPoint
 10
-1571.884155084999
 20
-1685.2853015
 30
0.0
  0
POINT
  5
1015
330
1009
100
AcDbEntity
  8
Defpoints
  6
Continuous
 62
     0
440
 16777216
100
AcDbPoint
 10
-1571.884155084999
 20
-1440.391033253052
 30
0.0
  0
ENDBLK
  5
100B
330
1009
100
AcDbEntity
  8
0
100
AcDbBlockEnd
  0
BLOCK
  5
1619
330
1618
100
AcDbEntity
  8
0
100
AcDbBlockBegin
  2
*D8
 70
     1
 10
0.0
 20
0.0
 30
0.0
  3
*D8
  1

  0
LINE
  5
161B
330
1618
100
AcDbEntity
  8
0
  6
Continuous
 62
     0
440
 16777216
370
    -2
100
AcDbLine
 10
-871.884193084999
 20
-1685.222801499997
 30
0.0
 11
-871.884193084999
 21
-1531.693040944239
 31
0.0
  0
LINE
  5
161C
330
1618
100
AcDbEntity
  8
0
  6
Continuous
 62
     0
440
 16777216
370
    -2
100
AcDbLine
 10
-1571.884155084999
 20
-1685.222801500001
 30
0.0
 11
-1571.884155084999
 21
-1531.693040944239
 31
0.0
  0
LINE
  5
161D
330
1618
100
AcDbEntity
  8
0
  6
Continuous
 62
     0
440
 16777216
370
    -2
100
AcDbLine
 10
-872.0641930849989
 20
-1531.873040944239
 30
0.0
 11
-1221.254174084999
 21
-1531.873040944239
 31
0.0
  0
LINE
  5
161E
330
1618
100
AcDbEntity
  8
0
  6
Continuous
 62
     0
440
 16777216
370
    -2
100
AcDbLine
 10
-1571.704155084999
 20
-1531.873040944239
 30
0.0
 11
-1222.514174084999
 21
-1531.873040944239
 31
0.0
  0
SOLID
  5
161F
330
1618
100
AcDbEntity
  8
0
  6
Continuous
 62
     0
440
 16777216
100
AcDbTrace
 10
-872.0641930849989
 20
-1531.843040944238
 30
0.0
 11
-872.0641930849989
 21
-1531.903040944239
 31
0.0
 12
-871.884193084999
 22
-1531.873040944239
 32
0.0
 13
-871.884193084999
 23
-1531.873040944239
 33
0.0
  0
SOLID
  5
1620
330
1618
100
AcDbEntity
  8
0
  6
Continuous
 62
     0
440
 16777216
100
AcDbTrace
 10
-1571.704155084999
 20
-1531.843040944238
 30
0.0
 11
-1571.704155084999
 21
-1531.903040944239
 31
0.0
 12
-1571.884155084999
 22
-1531.873040944239
 32
0.0
 13
-1571.884155084999
 23
-1531.873040944239
 33
0.0
  0
MTEXT
  5
1621
330
1618
100
AcDbEntity
  8
0
  6
Continuous
 62
     0
440
 16777216
100
AcDbMText
 10
-1221.884174084999
 20
-1531.873040944239
 30
0.0
 40
0.18
 41
0.0
 46
0.0
 71
     5
 72
     1
  1
\A1;700.0000
 73
     1
 44
1.0
  0
POINT
  5
1622
330
1618
100
AcDbEntity
  8
Defpoints
  6
Continuous
 62
     0
440
 16777216
100
AcDbPoint
 10
-871.884193084999
 20
-1685.285301499998
 30
0.0
  0
POINT
  5
1623
330
1618
100
AcDbEntity
  8
Defpoints
  6
Continuous
 62
     0
440
 16777216
100
AcDbPoint
 10
-1571.884155084999
 20
-1685.285301500001
 30
0.0
  0
POINT
  5
1624
330
1618
100
AcDbEntity
  8
Defpoints
  6
Continuous
 62
     0
440
 16777216
100
AcDbPoint
 10
-1571.884155084999
 20
-1531.873040944239
 30
0.0
  0
ENDBLK
  5
161A
330
1618
100
AcDbEntity
  8
0
100
AcDbBlockEnd
  0
BLOCK
  5
1A66
330
1A65
100
AcDbEntity
  8
0
100
AcDbBlockBegin
  2
*D11
 70
     1
 10
0.0
 20
0.0
 30
0.0
  3
*D11
  1

  0
LINE
  5
1A68
330
1A65
100
AcDbEntity
  8
0
  6
Continuous
 62
     0
440
 16777216
370
    -2
100
AcDbLine
 10
-860.7841550849954
 20
-1696.997799500018
 30
0.0
 11
-860.7841550849954
 21
-1441.135111413995
 31
0.0
  0
LINE
  5
1A69
330
1A65
100
AcDbEntity
  8
0
  6
Continuous
 62
     0
440
 16777216
370
    -2
100
AcDbLine
 10
-1571.884155084997
 20
-1696.997799499998
 30
0.0
 11
-1571.884155084997
 21
-1441.135111413995
 31
0.0
  0
LINE
  5
1A6A
330
1A65
100
AcDbEntity
  8
0
  6
Continuous
 62
     0
440
 16777216
370
    -2
100
AcDbLine
 10
-860.9641550849955
 20
-1441.315111413995
 30
0.0
 11
-1215.749155084996
 21
-1441.315111413995
 31
0.0
  0
LINE
  5
1A6B
330
1A65
100
AcDbEntity
  8
0
  6
Continuous
 62
     0
440
 16777216
370
    -2
100
AcDbLine
 10
-1571.704155084997
 20
-1441.315111413995
 30
0.0
 11
-1216.919155084996
 21
-1441.315111413995
 31
0.0
  0
SOLID
  5
1A6C
330
1A65
100
AcDbEntity
  8
0
  6
Continuous
 62
     0
440
 16777216
100
AcDbTrace
 10
-860.9641550849955
 20
-1441.285111413995
 30
0.0
 11
-860.9641550849955
 21
-1441.345111413995
 31
0.0
 12
-860.7841550849954
 22
-1441.315111413995
 32
0.0
 13
-860.7841550849954
 23
-1441.315111413995
 33
0.0
  0
SOLID
  5
1A6D
330
1A65
100
AcDbEntity
  8
0
  6
Continuous
 62
     0
440
 16777216
100
AcDbTrace
 10
-1571.704155084997
 20
-1441.285111413995
 30
0.0
 11
-1571.704155084997
 21
-1441.345111413995
 31
0.0
 12
-1571.884155084997
 22
-1441.315111413995
 32
0.0
 13
-1571.884155084997
 23
-1441.315111413995
 33
0.0
  0
MTEXT
  5
1A6E
330
1A65
100
AcDbEntity
  8
0
  6
Continuous
 62
     0
440
 16777216
100
AcDbMText
 10
-1216.334155084996
 20
-1441.315111413995
 30
0.0
 40
0.18
 41
0.0
 46
0.0
 71
     5
 72
     1
  1
\A1;711.1000
 73
     1
 44
1.0
  0
POINT
  5
1A6F
330
1A65
100
AcDbEntity
  8
Defpoints
  6
Continuous
 62
     0
440
 16777216
100
AcDbPoint
 10
-860.7841550849954
 20
-1697.060299500018
 30
0.0
  0
POINT
  5
1A70
330
1A65
100
AcDbEntity
  8
Defpoints
  6
Continuous
 62
     0
440
 16777216
100
AcDbPoint
 10
-1571.884155084997
 20
-1697.060299499998
 30
0.0
  0
POINT
  5
1A71
330
1A65
100
AcDbEntity
  8
Defpoints
  6
Continuous
 62
     0
440
 16777216
100
AcDbPoint
 10
-1571.884155084997
 20
-1441.315111413995
 30
0.0
  0
ENDBLK
  5
1A67
330
1A65
100
AcDbEntity
  8
0
100
AcDbBlockEnd
  0
BLOCK
  5
1BB8
330
1BB7
100
AcDbEntity
  8
0
100
AcDbBlockBegin
  2
*D12
 70
     1
 10
0.0
 20
0.0
 30
0.0
  3
*D12
  1

  0
LINE
  5
1BBA
330
1BB7
100
AcDbEntity
  8
0
  6
Continuous
 62
     0
440
 16777216
370
    -2
100
AcDbLine
 10
-2083.136030632054
 20
-1693.611067542989
 30
0.0
 11
-2083.136030632054
 21
-1584.050034244742
 31
0.0
  0
LINE
  5
1BBB
330
1BB7
100
AcDbEntity
  8
0
  6
Continuous
 62
     0
440
 16777216
370
    -2
100
AcDbLine
 10
-2945.236030632056
 20
-1705.372799500019
 30
0.0
 11
-2945.236030632056
 21
-1584.050034244742
 31
0.0
  0
LINE
  5
1BBC
330
1BB7
100
AcDbEntity
  8
0
  6
Continuous
 62
     0
440
 16777216
370
    -2
100
AcDbLine
 10
-2083.316030632054
 20
-1584.230034244742
 30
0.0
 11
-2513.541030632055
 21
-1584.230034244742
 31
0.0
  0
LINE
  5
1BBD
330
1BB7
100
AcDbEntity
  8
0
  6
Continuous
 62
     0
440
 16777216
370
    -2
100
AcDbLine
 10
-2945.056030632056
 20
-1584.230034244742
 30
0.0
 11
-2514.831030632055
 21
-1584.230034244742
 31
0.0
  0
SOLID
  5
1BBE
330
1BB7
100
AcDbEntity
  8
0
  6
Continuous
 62
     0
440
 16777216
100
AcDbTrace
 10
-2083.316030632054
 20
-1584.200034244742
 30
0.0
 11
-2083.316030632054
 21
-1584.260034244742
 31
0.0
 12
-2083.136030632054
 22
-1584.230034244742
 32
0.0
 13
-2083.136030632054
 23
-1584.230034244742
 33
0.0
  0
SOLID
  5
1BBF
330
1BB7
100
AcDbEntity
  8
0
  6
Continuous
 62
     0
440
 16777216
100
AcDbTrace
 10
-2945.056030632056
 20
-1584.200034244742
 30
0.0
 11
-2945.056030632056
 21
-1584.260034244742
 31
0.0
 12
-2945.236030632056
 22
-1584.230034244742
 32
0.0
 13
-2945.236030632056
 23
-1584.230034244742
 33
0.0
  0
MTEXT
  5
1BC0
330
1BB7
100
AcDbEntity
  8
0
  6
Continuous
 62
     0
440
 16777216
100
AcDbMText
 10
-2514.186030632055
 20
-1584.230034244742
 30
0.0
 40
0.18
 41
0.0
 46
0.0
 71
     5
 72
     1
  1
\A1;862.1000
 73
     1
 44
1.0
  0
POINT
  5
1BC1
330
1BB7
100
AcDbEntity
  8
Defpoints
  6
Continuous
 62
     0
440
 16777216
100
AcDbPoint
 10
-2083.136030632054
 20
-1693.673567542989
 30
0.0
  0
POINT
  5
1BC2
330
1BB7
100
AcDbEntity
  8
Defpoints
  6
Continuous
 62
     0
440
 16777216
100
AcDbPoint
 10
-2945.236030632056
 20
-1705.435299500019
 30
0.0
  0
POINT
  5
1BC3
330
1BB7
100
AcDbEntity
  8
Defpoints
  6
Continuous
 62
     0
440
 16777216
100
AcDbPoint
 10
-2945.236030632056
 20
-1584.230034244742
 30
0.0
  0
ENDBLK
  5
1BB9
330
1BB7
100
AcDbEntity
  8
0
100
AcDbBlockEnd
  0
BLOCK
  5
1F07
330
1F06
100
AcDbEntity
  8
0
100
AcDbBlockBegin
  2
*D14
 70
     1
 10
0.0
 20
0.0
 30
0.0
  3
*D14
  1

  0
LINE
  5
1F09
330
1F06
100
AcDbEntity
  8
0
  6
Continuous
 62
     0
440
 16777216
370
    -2
100
AcDbLine
 10
-639.7908301605735
 20
-1705.372799500019
 30
0.0
 11
-639.7908301605735
 21
-1463.060074111291
 31
0.0
  0
LINE
  5
1F0A
330
1F06
100
AcDbEntity
  8
0
  6
Continuous
 62
     0
440
 16777216
370
    -2
100
AcDbLine
 10
-1551.890830160575
 20
-1705.372799499995
 30
0.0
 11
-1551.890830160575
 21
-1463.060074111291
 31
0.0
  0
LINE
  5
1F0B
330
1F06
100
AcDbEntity
  8
0
  6
Continuous
 62
     0
440
 16777216
370
    -2
100
AcDbLine
 10
-639.9708301605734
 20
-1463.240074111291
 30
0.0
 11
-1095.225830160574
 21
-1463.240074111291
 31
0.0
  0
LINE
  5
1F0C
330
1F06
100
AcDbEntity
  8
0
  6
Continuous
 62
     0
440
 16777216
370
    -2
100
AcDbLine
 10
-1551.710830160575
 20
-1463.240074111291
 30
0.0
 11
-1096.455830160574
 21
-1463.240074111291
 31
0.0
  0
SOLID
  5
1F0D
330
1F06
100
AcDbEntity
  8
0
  6
Continuous
 62
     0
440
 16777216
100
AcDbTrace
 10
-639.9708301605734
 20
-1463.210074111291
 30
0.0
 11
-639.9708301605734
 21
-1463.270074111291
 31
0.0
 12
-639.7908301605735
 22
-1463.240074111291
 32
0.0
 13
-639.7908301605735
 23
-1463.240074111291
 33
0.0
  0
SOLID
  5
1F0E
330
1F06
100
AcDbEntity
  8
0
  6
Continuous
 62
     0
440
 16777216
100
AcDbTrace
 10
-1551.710830160575
 20
-1463.210074111291
 30
0.0
 11
-1551.710830160575
 21
-1463.270074111291
 31
0.0
 12
-1551.890830160575
 22
-1463.240074111291
 32
0.0
 13
-1551.890830160575
 23
-1463.240074111291
 33
0.0
  0
MTEXT
  5
1F0F
330
1F06
100
AcDbEntity
  8
0
  6
Continuous
 62
     0
440
 16777216
100
AcDbMText
 10
-1095.840830160574
 20
-1463.240074111291
 30
0.0
 40
0.18
 41
0.0
 46
0.0
 71
     5
 72
     1
  1
\A1;912.1000
 73
     1
 44
1.0
  0
POINT
  5
1F10
330
1F06
100
AcDbEntity
  8
Defpoints
  6
Continuous
 62
     0
440
 16777216
100
AcDbPoint
 10
-639.7908301605735
 20
-1705.435299500019
 30
0.0
  0
POINT
  5
1F11
330
1F06
100
AcDbEntity
  8
Defpoints
  6
Continuous
 62
     0
440
 16777216
100
AcDbPoint
 10
-1551.890830160575
 20
-1705.435299499995
 30
0.0
  0
POINT
  5
1F12
330
1F06
100
AcDbEntity
  8
Defpoints
  6
Continuous
 62
     0
440
 16777216
100
AcDbPoint
 10
-1551.890830160575
 20
-1463.240074111291
 30
0.0
  0
ENDBLK
  5
1F08
330
1F06
100
AcDbEntity
  8
0
100
AcDbBlockEnd
  0
BLOCK
  5
1F4B
330
1F4A
100
AcDbEntity
  8
0
100
AcDbBlockBegin
  2
*D15
 70
     1
 10
0.0
 20
0.0
 30
0.0
  3
*D15
  1

  0
LINE
  5
1F4D
330
1F4A
100
AcDbEntity
  8
0
  6
Continuous
 62
     0
440
 16777216
370
    -2
100
AcDbLine
 10
-639.7908301605735
 20
-1705.372799500019
 30
0.0
 11
-639.7908301605735
 21
-1521.291576949788
 31
0.0
  0
LINE
  5
1F4E
330
1F4A
100
AcDbEntity
  8
0
  6
Continuous
 62
     0
440
 16777216
370
    -2
100
AcDbLine
 10
-1551.890830160575
 20
-1705.372799499995
 30
0.0
 11
-1551.890830160575
 21
-1521.291576949788
 31
0.0
  0
LINE
  5
1F4F
330
1F4A
100
AcDbEntity
  8
0
  6
Continuous
 62
     0
440
 16777216
370
    -2
100
AcDbLine
 10
-639.9708301605734
 20
-1521.471576949788
 30
0.0
 11
-1095.225830160574
 21
-1521.471576949788
 31
0.0
  0
LINE
  5
1F50
330
1F4A
100
AcDbEntity
  8
0
  6
Continuous
 62
     0
440
 16777216
370
    -2
100
AcDbLine
 10
-1551.710830160575
 20
-1521.471576949788
 30
0.0
 11
-1096.455830160574
 21
-1521.471576949788
 31
0.0
  0
SOLID
  5
1F51
330
1F4A
100
AcDbEntity
  8
0
  6
Continuous
 62
     0
440
 16777216
100
AcDbTrace
 10
-639.9708301605734
 20
-1521.441576949788
 30
0.0
 11
-639.9708301605734
 21
-1521.501576949788
 31
0.0
 12
-639.7908301605735
 22
-1521.471576949788
 32
0.0
 13
-639.7908301605735
 23
-1521.471576949788
 33
0.0
  0
SOLID
  5
1F52
330
1F4A
100
AcDbEntity
  8
0
  6
Continuous
 62
     0
440
 16777216
100
AcDbTrace
 10
-1551.710830160575
 20
-1521.441576949788
 30
0.0
 11
-1551.710830160575
 21
-1521.501576949788
 31
0.0
 12
-1551.890830160575
 22
-1521.471576949788
 32
0.0
 13
-1551.890830160575
 23
-1521.471576949788
 33
0.0
  0
MTEXT
  5
1F53
330
1F4A
100
AcDbEntity
  8
0
  6
Continuous
 62
     0
440
 16777216
100
AcDbMText
 10
-1095.840830160574
 20
-1521.471576949788
 30
0.0
 40
0.18
 41
0.0
 46
0.0
 71
     5
 72
     1
  1
\A1;912.1000
 73
     1
 44
1.0
  0
POINT
  5
1F54
330
1F4A
100
AcDbEntity
  8
Defpoints
  6
Continuous
 62
     0
440
 16777216
100
AcDbPoint
 10
-639.7908301605735
 20
-1705.435299500019
 30
0.0
  0
POINT
  5
1F55
330
1F4A
100
AcDbEntity
  8
Defpoints
  6
Continuous
 62
     0
440
 16777216
100
AcDbPoint
 10
-1551.890830160575
 20
-1705.435299499995
 30
0.0
  0
POINT
  5
1F56
330
1F4A
100
AcDbEntity
  8
Defpoints
  6
Continuous
 62
     0
440
 16777216
100
AcDbPoint
 10
-1551.890830160575
 20
-1521.471576949788
 30
0.0
  0
ENDBLK
  5
1F4C
330
1F4A
100
AcDbEntity
  8
0
100
AcDbBlockEnd
  0
BLOCK
  5
1F8F
330
1F8E
100
AcDbEntity
  8
0
100
AcDbBlockBegin
  2
*D16
 70
     1
 10
0.0
 20
0.0
 30
0.0
  3
*D16
  1

  0
LINE
  5
1F91
330
1F8E
100
AcDbEntity
  8
0
  6
Continuous
 62
     0
440
 16777216
370
    -2
100
AcDbLine
 10
-1817.450930396314
 20
-2324.970916101018
 30
0.0
 11
-1446.51906107554
 21
-2324.970916101018
 31
0.0
  0
LINE
  5
1F92
330
1F8E
100
AcDbEntity
  8
0
  6
Continuous
 62
     0
440
 16777216
370
    -2
100
AcDbLine
 10
-1817.450930396326
 20
-3184.070916101018
 30
0.0
 11
-1446.51906107554
 21
-3184.070916101018
 31
0.0
  0
LINE
  5
1F93
330
1F8E
100
AcDbEntity
  8
0
  6
Continuous
 62
     0
440
 16777216
370
    -2
100
AcDbLine
 10
-1446.69906107554
 20
-2325.150916101017
 30
0.0
 11
-1446.69906107554
 21
-2754.340916101018
 31
0.0
  0
LINE
  5
1F94
330
1F8E
100
AcDbEntity
  8
0
  6
Continuous
 62
     0
440
 16777216
370
    -2
100
AcDbLine
 10
-1446.69906107554
 20
-3183.890916101018
 30
0.0
 11
-1446.69906107554
 21
-2754.700916101018
 31
0.0
  0
SOLID
  5
1F95
330
1F8E
100
AcDbEntity
  8
0
  6
Continuous
 62
     0
440
 16777216
100
AcDbTrace
 10
-1446.72906107554
 20
-2325.150916101017
 30
0.0
 11
-1446.66906107554
 21
-2325.150916101017
 31
0.0
 12
-1446.69906107554
 22
-2324.970916101018
 32
0.0
 13
-1446.69906107554
 23
-2324.970916101018
 33
0.0
  0
SOLID
  5
1F96
330
1F8E
100
AcDbEntity
  8
0
  6
Continuous
 62
     0
440
 16777216
100
AcDbTrace
 10
-1446.72906107554
 20
-3183.890916101018
 30
0.0
 11
-1446.66906107554
 21
-3183.890916101018
 31
0.0
 12
-1446.69906107554
 22
-3184.070916101018
 32
0.0
 13
-1446.69906107554
 23
-3184.070916101018
 33
0.0
  0
MTEXT
  5
1F97
330
1F8E
100
AcDbEntity
  8
0
  6
Continuous
 62
     0
440
 16777216
100
AcDbMText
 10
-1446.69906107554
 20
-2754.520916101018
 30
0.0
 40
0.18
 41
0.0
 46
0.0
 71
     5
 72
     1
  1
\A1;859.1000
 73
     1
 44
1.0
  0
POINT
  5
1F98
330
1F8E
100
AcDbEntity
  8
Defpoints
  6
Continuous
 62
     0
440
 16777216
100
AcDbPoint
 10
-1817.513430396314
 20
-2324.970916101018
 30
0.0
  0
POINT
  5
1F99
330
1F8E
100
AcDbEntity
  8
Defpoints
  6
Continuous
 62
     0
440
 16777216
100
AcDbPoint
 10
-1817.513430396326
 20
-3184.070916101018
 30
0.0
  0
POINT
  5
1F9A
330
1F8E
100
AcDbEntity
  8
Defpoints
  6
Continuous
 62
     0
440
 16777216
100
AcDbPoint
 10
-1446.69906107554
 20
-3184.070916101018
 30
0.0
  0
ENDBLK
  5
1F90
330
1F8E
100
AcDbEntity
  8
0
100
AcDbBlockEnd
  0
BLOCK
  5
203F
330
203E
100
AcDbEntity
  8
0
100
AcDbBlockBegin
  2
*D17
 70
     1
 10
0.0
 20
0.0
 30
0.0
  3
*D17
  1

  0
LINE
  5
2041
330
203E
100
AcDbEntity
  8
0
  6
Continuous
 62
     0
440
 16777216
370
    -2
100
AcDbLine
 10
-789.7908301605735
 20
-1705.372799500019
 30
0.0
 11
-789.7908301605735
 21
-1516.755532044375
 31
0.0
  0
LINE
  5
2042
330
203E
100
AcDbEntity
  8
0
  6
Continuous
 62
     0
440
 16777216
370
    -2
100
AcDbLine
 10
-1551.890830160575
 20
-1705.372799499999
 30
0.0
 11
-1551.890830160575
 21
-1516.755532044375
 31
0.0
  0
LINE
  5
2043
330
203E
100
AcDbEntity
  8
0
  6
Continuous
 62
     0
440
 16777216
370
    -2
100
AcDbLine
 10
-789.9708301605734
 20
-1516.935532044375
 30
0.0
 11
-1170.195830160574
 21
-1516.935532044375
 31
0.0
  0
LINE
  5
2044
330
203E
100
AcDbEntity
  8
0
  6
Continuous
 62
     0
440
 16777216
370
    -2
100
AcDbLine
 10
-1551.710830160575
 20
-1516.935532044375
 30
0.0
 11
-1171.485830160574
 21
-1516.935532044375
 31
0.0
  0
SOLID
  5
2045
330
203E
100
AcDbEntity
  8
0
  6
Continuous
 62
     0
440
 16777216
100
AcDbTrace
 10
-789.9708301605734
 20
-1516.905532044376
 30
0.0
 11
-789.9708301605734
 21
-1516.965532044375
 31
0.0
 12
-789.7908301605735
 22
-1516.935532044375
 32
0.0
 13
-789.7908301605735
 23
-1516.935532044375
 33
0.0
  0
SOLID
  5
2046
330
203E
100
AcDbEntity
  8
0
  6
Continuous
 62
     0
440
 16777216
100
AcDbTrace
 10
-1551.710830160575
 20
-1516.905532044376
 30
0.0
 11
-1551.710830160575
 21
-1516.965532044375
 31
0.0
 12
-1551.890830160575
 22
-1516.935532044375
 32
0.0
 13
-1551.890830160575
 23
-1516.935532044375
 33
0.0
  0
MTEXT
  5
2047
330
203E
100
AcDbEntity
  8
0
  6
Continuous
 62
     0
440
 16777216
100
AcDbMText
 10
-1170.840830160574
 20
-1516.935532044375
 30
0.0
 40
0.18
 41
0.0
 46
0.0
 71
     5
 72
     1
  1
\A1;762.1000
 73
     1
 44
1.0
  0
POINT
  5
2048
330
203E
100
AcDbEntity
  8
Defpoints
  6
Continuous
 62
     0
440
 16777216
100
AcDbPoint
 10
-789.7908301605735
 20
-1705.435299500019
 30
0.0
  0
POINT
  5
2049
330
203E
100
AcDbEntity
  8
Defpoints
  6
Continuous
 62
     0
440
 16777216
100
AcDbPoint
 10
-1551.890830160575
 20
-1705.435299499999
 30
0.0
  0
POINT
  5
204A
330
203E
100
AcDbEntity
  8
Defpoints
  6
Continuous
 62
     0
440
 16777216
100
AcDbPoint
 10
-1551.890830160575
 20
-1516.935532044375
 30
0.0
  0
ENDBLK
  5
2040
330
203E
100
AcDbEntity
  8
0
100
AcDbBlockEnd
  0
ENDSEC
  0
SECTION
  2
ENTITIES
  0
LINE
  5
1804
330
A
100
AcDbEntity
  8
HEWI
100
AcDbLine
 10
-1769.813430396316
 20
-1726.4352995
 30
0.0
 11
-1770.013430396317
 21
-1726.2352995
 31
0.0
  0
LINE
  5
1805
330
A
100
AcDbEntity
  8
HEWI
100
AcDbLine
 10
-1775.813430396316
 20
-1727.9352995
 30
0.0
 11
-1810.013944396315
 21
-1727.935299499999
 31
0.0
  0
LINE
  5
1806
330
A
100
AcDbEntity
  8
HEWI
100
AcDbLine
 10
-1825.012914396316
 20
-1727.935299499998
 30
0.0
 11
-1859.213430396316
 21
-1727.935299499997
 31
0.0
  0
LINE
  5
1807
330
A
100
AcDbEntity
  8
HEWI
100
AcDbLine
 10
-1770.013430396315
 20
-1684.6352995
 30
0.0
 11
-1769.813430396315
 21
-1684.4352995
 31
0.0
  0
LINE
  5
1808
330
A
100
AcDbEntity
  8
HEWI
100
AcDbLine
 10
-1767.213430396314
 20
-1684.4352995
 30
0.0
 11
-1767.013430396314
 21
-1684.6352995
 31
0.0
  0
LINE
  5
1809
330
A
100
AcDbEntity
  8
HEWI
100
AcDbLine
 10
-1767.013430396314
 20
-1726.2352995
 30
0.0
 11
-1767.213430396316
 21
-1726.4352995
 31
0.0
  0
LINE
  5
180A
330
A
100
AcDbEntity
  8
HEWI
100
AcDbLine
 10
-1769.813430396315
 20
-1684.4352995
 30
0.0
 11
-1767.213430396314
 21
-1684.4352995
 31
0.0
  0
LINE
  5
180B
330
A
100
AcDbEntity
  8
HEWI
100
AcDbLine
 10
-1767.213430396316
 20
-1726.4352995
 30
0.0
 11
-1769.813430396316
 21
-1726.4352995
 31
0.0
  0
LINE
  5
180C
330
A
100
AcDbEntity
  8
HEWI
100
AcDbLine
 10
-1867.813430396316
 20
-1726.435299499997
 30
0.0
 11
-1868.013430396317
 21
-1726.235299499997
 31
0.0
  0
LINE
  5
180D
330
A
100
AcDbEntity
  8
HEWI
100
AcDbLine
 10
-1868.013430396315
 20
-1684.635299499997
 30
0.0
 11
-1867.813430396315
 21
-1684.435299499997
 31
0.0
  0
LINE
  5
180E
330
A
100
AcDbEntity
  8
HEWI
100
AcDbLine
 10
-1865.213430396314
 20
-1684.435299499997
 30
0.0
 11
-1865.013430396315
 21
-1684.635299499997
 31
0.0
  0
LINE
  5
180F
330
A
100
AcDbEntity
  8
HEWI
100
AcDbLine
 10
-1865.013430396317
 20
-1726.235299499997
 30
0.0
 11
-1865.213430396315
 21
-1726.435299499997
 31
0.0
  0
LINE
  5
1810
330
A
100
AcDbEntity
  8
HEWI
100
AcDbLine
 10
-1865.213430396315
 20
-1726.435299499997
 30
0.0
 11
-1867.813430396316
 21
-1726.435299499997
 31
0.0
  0
LINE
  5
1811
330
A
100
AcDbEntity
  8
HEWI
100
AcDbLine
 10
-1867.813430396315
 20
-1684.435299499997
 30
0.0
 11
-1865.213430396314
 21
-1684.435299499997
 31
0.0
  0
LINE
  5
1812
330
A
100
AcDbEntity
  8
HEWI
100
AcDbLine
 10
-1859.513430396317
 20
-1726.435299499997
 30
0.0
 11
-1860.013430396314
 21
-1725.935299499997
 31
0.0
  0
LINE
  5
1813
330
A
100
AcDbEntity
  8
HEWI
100
AcDbLine
 10
-1860.013430396314
 20
-1684.935299499997
 30
0.0
 11
-1859.513430396317
 21
-1684.435299499997
 31
0.0
  0
LINE
  5
1814
330
A
100
AcDbEntity
  8
HEWI
100
AcDbLine
 10
-1859.213430396315
 20
-1682.935299499997
 30
0.0
 11
-1775.813430396315
 21
-1682.9352995
 31
0.0
  0
LINE
  5
1815
330
A
100
AcDbEntity
  8
HEWI
100
AcDbLine
 10
-1775.513430396317
 20
-1684.4352995
 30
0.0
 11
-1775.013430396315
 21
-1684.9352995
 31
0.0
  0
LINE
  5
1816
330
A
100
AcDbEntity
  8
HEWI
100
AcDbLine
 10
-1775.013430396316
 20
-1725.9352995
 30
0.0
 11
-1775.513430396317
 21
-1726.4352995
 31
0.0
  0
LINE
  5
1817
330
A
100
AcDbEntity
  8
HEWI
100
AcDbLine
 10
-1813.513430396314
 20
-1721.740863499999
 30
0.0
 11
-1813.513430396314
 21
-1721.3130235
 31
0.0
  0
LINE
  5
1818
330
A
100
AcDbEntity
  8
HEWI
100
AcDbLine
 10
-1821.513430396316
 20
-1721.740863499998
 30
0.0
 11
-1821.513430396316
 21
-1721.312905499999
 31
0.0
  0
LINE
  5
1819
330
A
100
AcDbEntity
  8
HEWI
100
AcDbLine
 10
-1813.513430396314
 20
-1721.740863499999
 30
0.0
 11
-1813.513430396314
 21
-1721.3130235
 31
0.0
  0
LINE
  5
181A
330
A
100
AcDbEntity
  8
HEWI
100
AcDbLine
 10
-1821.513430396316
 20
-1721.740863499998
 30
0.0
 11
-1821.513430396316
 21
-1721.312905499999
 31
0.0
  0
LINE
  5
181B
330
A
100
AcDbEntity
  8
HEWI
100
AcDbLine
 10
-1769.813430396315
 20
-1705.4352995
 30
0.0
 11
-1769.813430396315
 21
-1684.4352995
 31
0.0
  0
LINE
  5
181C
330
A
100
AcDbEntity
  8
HEWI
100
AcDbLine
 10
-1769.813430396316
 20
-1726.4352995
 30
0.0
 11
-1769.813430396315
 21
-1705.4352995
 31
0.0
  0
LINE
  5
181D
330
A
100
AcDbEntity
  8
HEWI
100
AcDbLine
 10
-1767.213430396316
 20
-1726.4352995
 30
0.0
 11
-1767.213430396314
 21
-1684.4352995
 31
0.0
  0
LINE
  5
181E
330
A
100
AcDbEntity
  8
HEWI
100
AcDbLine
 10
-1767.013430396314
 20
-1684.6352995
 30
0.0
 11
-1767.013430396314
 21
-1705.4352995
 31
0.0
  0
LINE
  5
181F
330
A
100
AcDbEntity
  8
HEWI
100
AcDbLine
 10
-1767.013430396314
 20
-1705.4352995
 30
0.0
 11
-1767.013430396314
 21
-1726.2352995
 31
0.0
  0
LINE
  5
1820
330
A
100
AcDbEntity
  8
HEWI
100
AcDbLine
 10
-1800.679208396315
 20
-1703.244409499999
 30
0.0
 11
-1800.807046396316
 21
-1703.244409499999
 31
0.0
  0
LINE
  5
1821
330
A
100
AcDbEntity
  8
HEWI
100
AcDbLine
 10
-1834.219812396314
 20
-1703.244409499998
 30
0.0
 11
-1834.333192396315
 21
-1703.244409499998
 31
0.0
  0
LINE
  5
1822
330
A
100
AcDbEntity
  8
HEWI
100
AcDbLine
 10
-1825.013430396316
 20
-1720.843495499999
 30
0.0
 11
-1825.013430396318
 21
-1793.206013994445
 31
0.0
  0
LINE
  5
1823
330
A
100
AcDbEntity
  8
HEWI
100
AcDbLine
 10
-1823.013430396318
 20
-1792.340660758251
 30
0.0
 11
-1823.013430396316
 21
-1721.573839499998
 31
0.0
  0
LINE
  5
1824
330
A
100
AcDbEntity
  8
HEWI
100
AcDbLine
 10
-1812.013430396316
 20
-1721.573839499999
 30
0.0
 11
-1812.013430396318
 21
-1792.342049085966
 31
0.0
  0
LINE
  5
1825
330
A
100
AcDbEntity
  8
HEWI
100
AcDbLine
 10
-1810.013430396316
 20
-1793.208019537183
 30
0.0
 11
-1810.013430396314
 21
-1720.8434955
 31
0.0
  0
LINE
  5
1826
330
A
100
AcDbEntity
  8
HEWI
100
AcDbLine
 10
-1822.948912396316
 20
-1721.384531499999
 30
0.0
 11
-1823.013430396316
 21
-1721.573839499998
 31
0.0
  0
LINE
  5
1827
330
A
100
AcDbEntity
  8
HEWI
100
AcDbLine
 10
-1812.077946396317
 20
-1721.384531499999
 30
0.0
 11
-1812.013430396316
 21
-1721.573839499999
 31
0.0
  0
LINE
  5
1828
330
A
100
AcDbEntity
  8
HEWI
100
AcDbLine
 10
-1775.213430396321
 20
-1855.9352995
 30
0.0
 11
-1815.224430409234
 21
-1855.935299499999
 31
0.0
  0
LINE
  5
1829
330
A
100
AcDbEntity
  8
HEWI
100
AcDbLine
 10
-1820.22443038101
 20
-1855.935299499999
 30
0.0
 11
-1859.81343039632
 21
-1855.935299499997
 31
0.0
  0
LINE
  5
182A
330
A
100
AcDbEntity
  8
HEWI
100
AcDbLine
 10
-1775.213430396314
 20
-1652.9352995
 30
0.0
 11
-1775.213430396315
 21
-1684.7365175
 31
0.0
  0
LINE
  5
182B
330
A
100
AcDbEntity
  8
HEWI
100
AcDbLine
 10
-1775.213430396316
 20
-1726.1358315
 30
0.0
 11
-1775.213430396321
 21
-1855.9352995
 31
0.0
  0
LINE
  5
182C
330
A
100
AcDbEntity
  8
HEWI
100
AcDbLine
 10
-1859.813430396314
 20
-1652.935299499997
 30
0.0
 11
-1775.213430396314
 21
-1652.9352995
 31
0.0
  0
LINE
  5
182D
330
A
100
AcDbEntity
  8
HEWI
100
AcDbLine
 10
-1859.813430396314
 20
-1652.935299499997
 30
0.0
 11
-1859.813430396315
 21
-1684.736517499997
 31
0.0
  0
LINE
  5
182E
330
A
100
AcDbEntity
  8
HEWI
100
AcDbLine
 10
-1859.813430396316
 20
-1726.135831499997
 30
0.0
 11
-1859.81343039632
 21
-1855.935299499997
 31
0.0
  0
LINE
  5
182F
330
A
100
AcDbEntity
  8
HEWI
100
AcDbLine
 10
-1775.213430396314
 20
-1649.4352995
 30
0.0
 11
-1775.213430396314
 21
-1652.9352995
 31
0.0
  0
LINE
  5
1830
330
A
100
AcDbEntity
  8
HEWI
100
AcDbLine
 10
-1775.213430396314
 20
-1649.4352995
 30
0.0
 11
-1859.813430396314
 21
-1649.435299499997
 31
0.0
  0
LINE
  5
1831
330
A
100
AcDbEntity
  8
HEWI
100
AcDbLine
 10
-1859.813430396314
 20
-1649.435299499997
 30
0.0
 11
-1859.813430396314
 21
-1652.935299499997
 31
0.0
  0
LINE
  5
1832
330
A
100
AcDbEntity
  8
HEWI
100
AcDbLine
 10
-1859.81343039632
 20
-1859.435299499997
 30
0.0
 11
-1820.22443038101
 21
-1859.435299499999
 31
0.0
  0
LINE
  5
1833
330
A
100
AcDbEntity
  8
HEWI
100
AcDbLine
 10
-1815.224430409234
 20
-1859.435299499999
 30
0.0
 11
-1775.213430396321
 21
-1859.4352995
 31
0.0
  0
LINE
  5
1834
330
A
100
AcDbEntity
  8
HEWI
100
AcDbLine
 10
-1775.213430396321
 20
-1859.4352995
 30
0.0
 11
-1775.213430396321
 21
-1855.9352995
 31
0.0
  0
LINE
  5
1835
330
A
100
AcDbEntity
  8
HEWI
100
AcDbLine
 10
-1859.81343039632
 20
-1859.435299499997
 30
0.0
 11
-1859.81343039632
 21
-1855.935299499997
 31
0.0
  0
LINE
  5
1836
330
A
100
AcDbEntity
  8
HEWI
100
AcDbLine
 10
-1775.213430396314
 20
-1649.4352995
 30
0.0
 11
-1775.013392396314
 21
-1649.4352995
 31
0.0
  0
LINE
  5
1837
330
A
100
AcDbEntity
  8
HEWI
100
AcDbLine
 10
-1775.213430396314
 20
-1650.9352995
 30
0.0
 11
-1775.013392396314
 21
-1650.9352995
 31
0.0
  0
LINE
  5
1838
330
A
100
AcDbEntity
  8
HEWI
100
AcDbLine
 10
-1859.813430396314
 20
-1649.435299499997
 30
0.0
 11
-1860.013466396314
 21
-1649.435299499997
 31
0.0
  0
LINE
  5
1839
330
A
100
AcDbEntity
  8
HEWI
100
AcDbLine
 10
-1859.813430396314
 20
-1650.935299499997
 30
0.0
 11
-1860.013466396314
 21
-1650.935299499997
 31
0.0
  0
LINE
  5
183A
330
A
100
AcDbEntity
  8
HEWI
100
AcDbLine
 10
-1867.813430396316
 20
-1705.435299499997
 30
0.0
 11
-1867.813430396315
 21
-1684.435299499997
 31
0.0
  0
LINE
  5
183B
330
A
100
AcDbEntity
  8
HEWI
100
AcDbLine
 10
-1867.813430396316
 20
-1726.435299499997
 30
0.0
 11
-1867.813430396316
 21
-1705.435299499997
 31
0.0
  0
LINE
  5
183C
330
A
100
AcDbEntity
  8
HEWI
100
AcDbLine
 10
-1868.013430396315
 20
-1684.635299499997
 30
0.0
 11
-1868.013430396317
 21
-1726.235299499997
 31
0.0
  0
LINE
  5
183D
330
A
100
AcDbEntity
  8
HEWI
100
AcDbLine
 10
-1865.213430396315
 20
-1726.435299499997
 30
0.0
 11
-1865.213430396314
 21
-1684.435299499997
 31
0.0
  0
LINE
  5
183E
330
A
100
AcDbEntity
  8
HEWI
100
AcDbLine
 10
-1775.813430396316
 20
-1727.9352995
 30
0.0
 11
-1775.813430396315
 21
-1682.9352995
 31
0.0
  0
LINE
  5
183F
330
A
100
AcDbEntity
  8
HEWI
100
AcDbLine
 10
-1859.213430396315
 20
-1682.935299499997
 30
0.0
 11
-1859.213430396316
 21
-1705.435299499997
 31
0.0
  0
LINE
  5
1840
330
A
100
AcDbEntity
  8
HEWI
100
AcDbLine
 10
-1859.213430396316
 20
-1705.435299499997
 30
0.0
 11
-1859.213430396316
 21
-1727.935299499997
 31
0.0
  0
LINE
  5
1841
330
A
100
AcDbEntity
  8
HEWI
100
AcDbLine
 10
-1859.513430396317
 20
-1683.235299499997
 30
0.0
 11
-1859.513430396317
 21
-1727.635299499997
 31
0.0
  0
LINE
  5
1842
330
A
100
AcDbEntity
  8
HEWI
100
AcDbLine
 10
-1775.513430396317
 20
-1705.4352995
 30
0.0
 11
-1775.513430396317
 21
-1683.2353095
 31
0.0
  0
LINE
  5
1843
330
A
100
AcDbEntity
  8
HEWI
100
AcDbLine
 10
-1775.513430396317
 20
-1727.6352995
 30
0.0
 11
-1775.513430396317
 21
-1705.4352995
 31
0.0
  0
LINE
  5
1844
330
A
100
AcDbEntity
  8
HEWI
100
AcDbLine
 10
-1865.013430396317
 20
-1727.835299499997
 30
0.0
 11
-1860.013430396314
 21
-1727.835299499997
 31
0.0
  0
LINE
  5
1845
330
A
100
AcDbEntity
  8
HEWI
100
AcDbLine
 10
-1860.013430396314
 20
-1683.035299499997
 30
0.0
 11
-1865.013430396315
 21
-1683.035299499997
 31
0.0
  0
LINE
  5
1846
330
A
100
AcDbEntity
  8
HEWI
100
AcDbLine
 10
-1865.013430396315
 20
-1683.035299499997
 30
0.0
 11
-1865.013430396317
 21
-1727.835299499997
 31
0.0
  0
LINE
  5
1847
330
A
100
AcDbEntity
  8
HEWI
100
AcDbLine
 10
-1860.013430396314
 20
-1727.835299499997
 30
0.0
 11
-1860.013430396314
 21
-1683.035299499997
 31
0.0
  0
LINE
  5
1848
330
A
100
AcDbEntity
  8
HEWI
100
AcDbLine
 10
-1775.013430396316
 20
-1727.8352995
 30
0.0
 11
-1770.013430396317
 21
-1727.8352995
 31
0.0
  0
LINE
  5
1849
330
A
100
AcDbEntity
  8
HEWI
100
AcDbLine
 10
-1770.013430396315
 20
-1683.0352995
 30
0.0
 11
-1775.013430396315
 21
-1683.0352995
 31
0.0
  0
LINE
  5
184A
330
A
100
AcDbEntity
  8
HEWI
100
AcDbLine
 10
-1770.013430396317
 20
-1727.8352995
 30
0.0
 11
-1770.013430396315
 21
-1683.0352995
 31
0.0
  0
LINE
  5
184B
330
A
100
AcDbEntity
  8
HEWI
100
AcDbLine
 10
-1775.013430396315
 20
-1683.0352995
 30
0.0
 11
-1775.013430396316
 21
-1727.8352995
 31
0.0
  0
LINE
  5
184C
330
A
100
AcDbEntity
  8
HEWI
100
AcDbLine
 10
-1775.013430396316
 20
-1731.3352995
 30
0.0
 11
-1770.013430396317
 21
-1731.3352995
 31
0.0
  0
LINE
  5
184D
330
A
100
AcDbEntity
  8
HEWI
100
AcDbLine
 10
-1770.013430396317
 20
-1731.3352995
 30
0.0
 11
-1770.013430396317
 21
-1727.8352995
 31
0.0
  0
LINE
  5
184E
330
A
100
AcDbEntity
  8
HEWI
100
AcDbLine
 10
-1775.013430396316
 20
-1727.8352995
 30
0.0
 11
-1775.013430396316
 21
-1731.3352995
 31
0.0
  0
LINE
  5
184F
330
A
100
AcDbEntity
  8
HEWI
100
AcDbLine
 10
-1865.013430396317
 20
-1731.335299499997
 30
0.0
 11
-1860.013430396314
 21
-1731.335299499997
 31
0.0
  0
LINE
  5
1850
330
A
100
AcDbEntity
  8
HEWI
100
AcDbLine
 10
-1865.013430396317
 20
-1727.835299499997
 30
0.0
 11
-1865.013430396317
 21
-1731.335299499997
 31
0.0
  0
LINE
  5
1851
330
A
100
AcDbEntity
  8
HEWI
100
AcDbLine
 10
-1860.013430396314
 20
-1731.335299499997
 30
0.0
 11
-1860.013430396314
 21
-1727.835299499997
 31
0.0
  0
LINE
  5
1852
330
A
100
AcDbEntity
  8
HEWI
100
AcDbLine
 10
-1770.013430396315
 20
-1679.5352995
 30
0.0
 11
-1775.013430396315
 21
-1679.5352995
 31
0.0
  0
LINE
  5
1853
330
A
100
AcDbEntity
  8
HEWI
100
AcDbLine
 10
-1770.013430396315
 20
-1683.0352995
 30
0.0
 11
-1770.013430396315
 21
-1679.5352995
 31
0.0
  0
LINE
  5
1854
330
A
100
AcDbEntity
  8
HEWI
100
AcDbLine
 10
-1775.013430396315
 20
-1679.5352995
 30
0.0
 11
-1775.013430396315
 21
-1683.0352995
 31
0.0
  0
LINE
  5
1855
330
A
100
AcDbEntity
  8
HEWI
100
AcDbLine
 10
-1860.013430396313
 20
-1679.535299499997
 30
0.0
 11
-1865.013430396315
 21
-1679.535299499997
 31
0.0
  0
LINE
  5
1856
330
A
100
AcDbEntity
  8
HEWI
100
AcDbLine
 10
-1865.013430396315
 20
-1679.535299499997
 30
0.0
 11
-1865.013430396315
 21
-1683.035299499997
 31
0.0
  0
LINE
  5
1857
330
A
100
AcDbEntity
  8
HEWI
100
AcDbLine
 10
-1860.013430396314
 20
-1683.035299499997
 30
0.0
 11
-1860.013430396313
 21
-1679.535299499997
 31
0.0
  0
LINE
  5
1858
330
A
100
AcDbEntity
  8
HEWI
100
AcDbLine
 10
-1770.01343039632
 20
-1855.9352995
 30
0.0
 11
-1775.01343039632
 21
-1855.9352995
 31
0.0
  0
LINE
  5
1859
330
A
100
AcDbEntity
  8
HEWI
100
AcDbLine
 10
-1770.013430396317
 20
-1731.3352995
 30
0.0
 11
-1770.01343039632
 21
-1855.9352995
 31
0.0
  0
LINE
  5
185A
330
A
100
AcDbEntity
  8
HEWI
100
AcDbLine
 10
-1775.013430396316
 20
-1731.3352995
 30
0.0
 11
-1775.01343039632
 21
-1855.9352995
 31
0.0
  0
LINE
  5
185B
330
A
100
AcDbEntity
  8
HEWI
100
AcDbLine
 10
-1860.013430396318
 20
-1855.935299499997
 30
0.0
 11
-1865.01343039632
 21
-1855.935299499997
 31
0.0
  0
LINE
  5
185C
330
A
100
AcDbEntity
  8
HEWI
100
AcDbLine
 10
-1865.01343039632
 20
-1859.435299499997
 30
0.0
 11
-1860.013430396318
 21
-1859.435299499997
 31
0.0
  0
LINE
  5
185D
330
A
100
AcDbEntity
  8
HEWI
100
AcDbLine
 10
-1865.01343039632
 20
-1855.935299499997
 30
0.0
 11
-1865.01343039632
 21
-1859.435299499997
 31
0.0
  0
LINE
  5
185E
330
A
100
AcDbEntity
  8
HEWI
100
AcDbLine
 10
-1860.013430396318
 20
-1859.435299499997
 30
0.0
 11
-1860.013430396318
 21
-1855.935299499997
 31
0.0
  0
LINE
  5
185F
330
A
100
AcDbEntity
  8
HEWI
100
AcDbLine
 10
-1775.01343039632
 20
-1859.4352995
 30
0.0
 11
-1770.01343039632
 21
-1859.4352995
 31
0.0
  0
LINE
  5
1860
330
A
100
AcDbEntity
  8
HEWI
100
AcDbLine
 10
-1770.01343039632
 20
-1859.4352995
 30
0.0
 11
-1770.01343039632
 21
-1855.9352995
 31
0.0
  0
LINE
  5
1861
330
A
100
AcDbEntity
  8
HEWI
100
AcDbLine
 10
-1775.01343039632
 20
-1855.9352995
 30
0.0
 11
-1775.01343039632
 21
-1859.4352995
 31
0.0
  0
LINE
  5
1862
330
A
100
AcDbEntity
  8
HEWI
100
AcDbLine
 10
-1865.01343039632
 20
-1855.935299499997
 30
0.0
 11
-1865.013430396317
 21
-1731.335299499997
 31
0.0
  0
LINE
  5
1863
330
A
100
AcDbEntity
  8
HEWI
100
AcDbLine
 10
-1860.013430396318
 20
-1855.935299499997
 30
0.0
 11
-1860.013430396314
 21
-1731.335299499997
 31
0.0
  0
LINE
  5
1864
330
A
100
AcDbEntity
  8
HEWI
100
AcDbLine
 10
-1865.013430396314
 20
-1652.935299499997
 30
0.0
 11
-1860.013430396313
 21
-1652.935299499997
 31
0.0
  0
LINE
  5
1865
330
A
100
AcDbEntity
  8
HEWI
100
AcDbLine
 10
-1865.013430396315
 20
-1679.535299499997
 30
0.0
 11
-1865.013430396314
 21
-1652.935299499997
 31
0.0
  0
LINE
  5
1866
330
A
100
AcDbEntity
  8
HEWI
100
AcDbLine
 10
-1860.013430396313
 20
-1679.535299499997
 30
0.0
 11
-1860.013430396313
 21
-1652.935299499997
 31
0.0
  0
LINE
  5
1867
330
A
100
AcDbEntity
  8
HEWI
100
AcDbLine
 10
-1775.013430396314
 20
-1652.9352995
 30
0.0
 11
-1770.013430396315
 21
-1652.9352995
 31
0.0
  0
LINE
  5
1868
330
A
100
AcDbEntity
  8
HEWI
100
AcDbLine
 10
-1770.013430396315
 20
-1652.9352995
 30
0.0
 11
-1770.013430396315
 21
-1679.5352995
 31
0.0
  0
LINE
  5
1869
330
A
100
AcDbEntity
  8
HEWI
100
AcDbLine
 10
-1775.013430396314
 20
-1652.9352995
 30
0.0
 11
-1775.013430396315
 21
-1679.5352995
 31
0.0
  0
LINE
  5
186A
330
A
100
AcDbEntity
  8
HEWI
100
AcDbLine
 10
-1860.013430396313
 20
-1649.435299499997
 30
0.0
 11
-1865.013430396314
 21
-1649.435299499997
 31
0.0
  0
LINE
  5
186B
330
A
100
AcDbEntity
  8
HEWI
100
AcDbLine
 10
-1865.013430396314
 20
-1649.435299499997
 30
0.0
 11
-1865.013430396314
 21
-1652.935299499997
 31
0.0
  0
LINE
  5
186C
330
A
100
AcDbEntity
  8
HEWI
100
AcDbLine
 10
-1860.013430396313
 20
-1652.935299499997
 30
0.0
 11
-1860.013430396313
 21
-1649.435299499997
 31
0.0
  0
LINE
  5
186D
330
A
100
AcDbEntity
  8
HEWI
100
AcDbLine
 10
-1770.013430396315
 20
-1649.4352995
 30
0.0
 11
-1775.013430396314
 21
-1649.4352995
 31
0.0
  0
LINE
  5
186E
330
A
100
AcDbEntity
  8
HEWI
100
AcDbLine
 10
-1770.013430396315
 20
-1652.9352995
 30
0.0
 11
-1770.013430396315
 21
-1649.4352995
 31
0.0
  0
LINE
  5
186F
330
A
100
AcDbEntity
  8
HEWI
100
AcDbLine
 10
-1775.013430396314
 20
-1649.4352995
 30
0.0
 11
-1775.013430396314
 21
-1652.9352995
 31
0.0
  0
LINE
  5
1870
330
A
100
AcDbEntity
  8
HEWI
100
AcDbLine
 10
-1860.013430396318
 20
-1859.435299499997
 30
0.0
 11
-1859.813422396318
 21
-1859.435299499997
 31
0.0
  0
LINE
  5
1871
330
A
100
AcDbEntity
  8
HEWI
100
AcDbLine
 10
-1775.21343639632
 20
-1859.4352995
 30
0.0
 11
-1775.01343039632
 21
-1859.4352995
 31
0.0
  0
LINE
  5
1872
330
A
100
AcDbEntity
  8
HEWI
100
AcDbLine
 10
-2851.899472492436
 20
-1688.685299499943
 30
0.0
 11
-2851.699472492434
 21
-1688.885299499944
 31
0.0
  0
LINE
  5
1873
330
A
100
AcDbEntity
  8
HEWI
100
AcDbLine
 10
-2851.699472492437
 20
-1721.985299499944
 30
0.0
 11
-2851.899472492437
 21
-1722.185299499945
 31
0.0
  0
LINE
  5
1874
330
A
100
AcDbEntity
  8
HEWI
100
AcDbLine
 10
-2851.899472492437
 20
-1722.185299499945
 30
0.0
 11
-2853.699472492437
 21
-1722.185299499944
 31
0.0
  0
LINE
  5
1875
330
A
100
AcDbEntity
  8
HEWI
100
AcDbLine
 10
-2853.699472492436
 20
-1688.685299499943
 30
0.0
 11
-2851.899472492436
 21
-1688.685299499943
 31
0.0
  0
LINE
  5
1876
330
A
100
AcDbEntity
  8
HEWI
100
AcDbLine
 10
-2623.199472492436
 20
-1721.055855499954
 30
0.0
 11
-2583.199472492436
 21
-1721.055855499956
 31
0.0
  0
LINE
  5
1877
330
A
100
AcDbEntity
  8
HEWI
100
AcDbLine
 10
-2583.199472492438
 20
-1796.613811499956
 30
0.0
 11
-2623.19947249244
 21
-1796.613811499954
 31
0.0
  0
LINE
  5
1878
330
A
100
AcDbEntity
  8
HEWI
100
AcDbLine
 10
-2661.199472492436
 20
-1720.643495499954
 30
0.0
 11
-2625.199472492435
 21
-1720.643495499955
 31
0.0
  0
LINE
  5
1879
330
A
100
AcDbEntity
  8
HEWI
100
AcDbLine
 10
-2625.199472492438
 20
-1797.592995499954
 30
0.0
 11
-2661.199472492441
 21
-1797.592995499953
 31
0.0
  0
LINE
  5
187A
330
A
100
AcDbEntity
  8
HEWI
100
AcDbLine
 10
-2122.499472492438
 20
-1794.235299499979
 30
0.0
 11
-2114.799472492439
 21
-1794.235299499979
 31
0.0
  0
LINE
  5
187B
330
A
100
AcDbEntity
  8
HEWI
100
AcDbLine
 10
-2114.79947249244
 20
-1821.235299499979
 30
0.0
 11
-2122.499472492439
 21
-1821.235299499979
 31
0.0
  0
LINE
  5
187C
330
A
100
AcDbEntity
  8
HEWI
100
AcDbLine
 10
-2114.799472492439
 20
-1794.235299499979
 30
0.0
 11
-2114.099472492441
 21
-1794.935299499979
 31
0.0
  0
LINE
  5
187D
330
A
100
AcDbEntity
  8
HEWI
100
AcDbLine
 10
-2114.099472492441
 20
-1820.535299499979
 30
0.0
 11
-2114.79947249244
 21
-1821.235299499979
 31
0.0
  0
LINE
  5
187E
330
A
100
AcDbEntity
  8
HEWI
100
AcDbLine
 10
-2122.499472492439
 20
-1821.235299499979
 30
0.0
 11
-2123.19947249244
 21
-1820.535299499978
 31
0.0
  0
LINE
  5
187F
330
A
100
AcDbEntity
  8
HEWI
100
AcDbLine
 10
-2123.19947249244
 20
-1794.935299499978
 30
0.0
 11
-2122.499472492438
 21
-1794.235299499979
 31
0.0
  0
LINE
  5
1880
330
A
100
AcDbEntity
  8
HEWI
100
AcDbLine
 10
-2113.59947249244
 20
-1819.735299499979
 30
0.0
 11
-2114.099472492441
 21
-1819.735299499979
 31
0.0
  0
LINE
  5
1881
330
A
100
AcDbEntity
  8
HEWI
100
AcDbLine
 10
-2114.099472492439
 20
-1795.735299499979
 30
0.0
 11
-2113.599472492438
 21
-1795.735299499979
 31
0.0
  0
LINE
  5
1888
330
A
100
AcDbEntity
  8
HEWI
100
AcDbLine
 10
-2663.200966492437
 20
-1722.285299499952
 30
0.0
 11
-2851.699472492437
 21
-1722.285299499944
 31
0.0
  0
LINE
  5
1889
330
A
100
AcDbEntity
  8
HEWI
100
AcDbLine
 10
-2294.206666492435
 20
-1722.285299499971
 30
0.0
 11
-2733.198270492437
 21
-1722.285299499951
 31
0.0
  0
LINE
  5
188A
330
A
100
AcDbEntity
  8
HEWI
100
AcDbLine
 10
-2160.610374492435
 20
-1722.285299499976
 30
0.0
 11
-2254.198782492437
 21
-1722.285299499972
 31
0.0
  0
LINE
  5
188B
330
A
100
AcDbEntity
  8
HEWI
100
AcDbLine
 10
-2851.699472492434
 20
-1688.585299499927
 30
0.0
 11
-2160.622472492434
 21
-1688.585299499976
 31
0.0
  0
LINE
  5
188C
330
A
100
AcDbEntity
  8
HEWI
100
AcDbLine
 10
-2256.199472492439
 20
-1797.592995499973
 30
0.0
 11
-2292.199472492439
 21
-1797.592995499971
 31
0.0
  0
LINE
  5
188D
330
A
100
AcDbEntity
  8
HEWI
100
AcDbLine
 10
-2292.199472492436
 20
-1720.643495499972
 30
0.0
 11
-2256.199472492436
 21
-1720.643495499973
 31
0.0
  0
LINE
  5
188E
330
A
100
AcDbEntity
  8
HEWI
100
AcDbLine
 10
-2124.199472492441
 20
-1795.385299499978
 30
0.0
 11
-2123.399472492438
 21
-1795.385299499978
 31
0.0
  0
LINE
  5
188F
330
A
100
AcDbEntity
  8
HEWI
100
AcDbLine
 10
-2123.39947249244
 20
-1820.185299499978
 30
0.0
 11
-2124.19947249244
 21
-1820.185299499978
 31
0.0
  0
LINE
  5
1890
330
A
100
AcDbEntity
  8
HEWI
100
AcDbLine
 10
-2123.399472492438
 20
-1795.385299499978
 30
0.0
 11
-2123.199472492438
 21
-1795.585299499979
 31
0.0
  0
LINE
  5
1891
330
A
100
AcDbEntity
  8
HEWI
100
AcDbLine
 10
-2123.19947249244
 20
-1819.985299499978
 30
0.0
 11
-2123.39947249244
 21
-1820.185299499978
 31
0.0
  0
LINE
  5
1892
330
A
100
AcDbEntity
  8
HEWI
100
AcDbLine
 10
-2773.19947249244
 20
-1820.285299499948
 30
0.0
 11
-2793.19947249244
 21
-1820.285299499948
 31
0.0
  0
LINE
  5
1894
330
A
100
AcDbEntity
  8
HEWI
100
AcDbLine
 10
-2650.71751449244
 20
-1820.285299499954
 30
0.0
 11
-2773.19947249244
 21
-1820.285299499948
 31
0.0
  0
LINE
  5
1895
330
A
100
AcDbEntity
  8
HEWI
100
AcDbLine
 10
-2281.71751449244
 20
-1820.285299499972
 30
0.0
 11
-2785.649472402557
 21
-1820.28529949999
 31
0.0
  0
LINE
  5
1896
330
A
100
AcDbEntity
  8
HEWI
100
AcDbLine
 10
-2124.19947249244
 20
-1820.285299499979
 30
0.0
 11
-2266.64947249244
 21
-1820.285299499973
 31
0.0
  0
LINE
  5
1897
330
A
100
AcDbEntity
  8
HEWI
100
AcDbLine
 10
-2254.198828492439
 20
-1795.285299499973
 30
0.0
 11
-2124.199472492441
 21
-1795.285299499978
 31
0.0
  0
LINE
  5
1898
330
A
100
AcDbEntity
  8
HEWI
100
AcDbLine
 10
-2733.399472538229
 20
-1795.285299499961
 30
0.0
 11
-2294.20505249244
 21
-1795.285299499971
 31
0.0
  0
LINE
  5
1899
330
A
100
AcDbEntity
  8
HEWI
100
AcDbLine
 10
-2793.19947249244
 20
-1795.285299499947
 30
0.0
 11
-2663.200736492438
 21
-1795.285299499952
 31
0.0
  0
LINE
  5
189A
330
A
100
AcDbEntity
  8
HEWI
100
AcDbLine
 10
-2851.699472492435
 20
-1705.435299499945
 30
0.0
 11
-2851.699472492434
 21
-1688.585299499944
 31
0.0
  0
LINE
  5
189B
330
A
100
AcDbEntity
  8
HEWI
100
AcDbLine
 10
-2851.699472492437
 20
-1722.285299499944
 30
0.0
 11
-2851.699472492435
 21
-1705.435299499945
 31
0.0
  0
LINE
  5
189C
330
A
100
AcDbEntity
  8
HEWI
100
AcDbLine
 10
-2292.199472492439
 20
-1797.592995499971
 30
0.0
 11
-2292.199472492438
 21
-1797.392995499972
 31
0.0
  0
LINE
  5
189D
330
A
100
AcDbEntity
  8
HEWI
100
AcDbLine
 10
-2292.199472492436
 20
-1720.643495499972
 30
0.0
 11
-2292.199472492436
 21
-1720.843495499971
 31
0.0
  0
LINE
  5
189E
330
A
100
AcDbEntity
  8
HEWI
100
AcDbLine
 10
-2294.199472492434
 20
-1721.573839499971
 30
0.0
 11
-2294.199472492438
 21
-1796.338029499971
 31
0.0
  0
LINE
  5
189F
330
A
100
AcDbEntity
  8
HEWI
100
AcDbLine
 10
-2292.199472492438
 20
-1797.392995499972
 30
0.0
 11
-2292.199472492436
 21
-1720.843495499971
 31
0.0
  0
LINE
  5
18A0
330
A
100
AcDbEntity
  8
HEWI
100
AcDbLine
 10
-2256.199472492438
 20
-1797.392995499973
 30
0.0
 11
-2292.199472492438
 21
-1797.392995499972
 31
0.0
  0
LINE
  5
18A1
330
A
100
AcDbEntity
  8
HEWI
100
AcDbLine
 10
-2292.199472492436
 20
-1720.843495499971
 30
0.0
 11
-2256.199472492436
 21
-1720.843495499973
 31
0.0
  0
LINE
  5
18A2
330
A
100
AcDbEntity
  8
HEWI
100
AcDbLine
 10
-2254.19947249244
 20
-1796.338029499973
 30
0.0
 11
-2254.199472492436
 21
-1721.573839499973
 31
0.0
  0
LINE
  5
18A3
330
A
100
AcDbEntity
  8
HEWI
100
AcDbLine
 10
-2256.199472492436
 20
-1720.843495499973
 30
0.0
 11
-2256.199472492438
 21
-1797.392995499973
 31
0.0
  0
LINE
  5
18A4
330
A
100
AcDbEntity
  8
HEWI
100
AcDbLine
 10
-2256.199472492439
 20
-1797.592995499973
 30
0.0
 11
-2256.199472492438
 21
-1797.392995499973
 31
0.0
  0
LINE
  5
18A5
330
A
100
AcDbEntity
  8
HEWI
100
AcDbLine
 10
-2256.199472492436
 20
-1720.643495499973
 30
0.0
 11
-2256.199472492436
 21
-1720.843495499973
 31
0.0
  0
LINE
  5
18A6
330
A
100
AcDbEntity
  8
HEWI
100
AcDbLine
 10
-2851.899472492437
 20
-1722.185299499945
 30
0.0
 11
-2851.899472492436
 21
-1688.685299499943
 31
0.0
  0
LINE
  5
18A7
330
A
100
AcDbEntity
  8
HEWI
100
AcDbLine
 10
-2623.19947249244
 20
-1796.113811499954
 30
0.0
 11
-2623.19947249244
 21
-1796.613811499954
 31
0.0
  0
LINE
  5
18A8
330
A
100
AcDbEntity
  8
HEWI
100
AcDbLine
 10
-2623.199472492436
 20
-1721.055855499954
 30
0.0
 11
-2623.199472492437
 21
-1721.555855499954
 31
0.0
  0
LINE
  5
18A9
330
A
100
AcDbEntity
  8
HEWI
100
AcDbLine
 10
-2623.199472492437
 20
-1721.555855499954
 30
0.0
 11
-2623.19947249244
 21
-1796.113811499954
 31
0.0
  0
LINE
  5
18AA
330
A
100
AcDbEntity
  8
HEWI
100
AcDbLine
 10
-2623.199472492437
 20
-1721.555855499954
 30
0.0
 11
-2583.199472492436
 21
-1721.555855499956
 31
0.0
  0
LINE
  5
18AB
330
A
100
AcDbEntity
  8
HEWI
100
AcDbLine
 10
-2583.199472492438
 20
-1796.113811499956
 30
0.0
 11
-2623.19947249244
 21
-1796.113811499954
 31
0.0
  0
LINE
  5
18AC
330
A
100
AcDbEntity
  8
HEWI
100
AcDbLine
 10
-2620.699472492437
 20
-1724.668263499954
 30
0.0
 11
-2620.69947249244
 21
-1793.168263499954
 31
0.0
  0
LINE
  5
18AD
330
A
100
AcDbEntity
  8
HEWI
100
AcDbLine
 10
-2619.699472492437
 20
-1723.668263499954
 30
0.0
 11
-2586.699472492437
 21
-1723.668263499957
 31
0.0
  0
LINE
  5
18AE
330
A
100
AcDbEntity
  8
HEWI
100
AcDbLine
 10
-2619.69947249244
 20
-1794.168263499954
 30
0.0
 11
-2586.69947249244
 21
-1794.168263499957
 31
0.0
  0
LINE
  5
18AF
330
A
100
AcDbEntity
  8
HEWI
100
AcDbLine
 10
-2585.699472492437
 20
-1724.668263499956
 30
0.0
 11
-2585.699472492438
 21
-1793.168263499956
 31
0.0
  0
LINE
  5
18B0
330
A
100
AcDbEntity
  8
HEWI
100
AcDbLine
 10
-2583.199472492438
 20
-1796.613811499956
 30
0.0
 11
-2583.199472492438
 21
-1796.113811499956
 31
0.0
  0
LINE
  5
18B1
330
A
100
AcDbEntity
  8
HEWI
100
AcDbLine
 10
-2583.199472492436
 20
-1721.555855499956
 30
0.0
 11
-2583.199472492436
 21
-1721.055855499956
 31
0.0
  0
LINE
  5
18B2
330
A
100
AcDbEntity
  8
HEWI
100
AcDbLine
 10
-2583.199472492436
 20
-1721.555855499956
 30
0.0
 11
-2583.199472492438
 21
-1796.113811499956
 31
0.0
  0
LINE
  5
18B3
330
A
100
AcDbEntity
  8
HEWI
100
AcDbLine
 10
-2661.199472492441
 20
-1797.592995499953
 30
0.0
 11
-2661.199472492441
 21
-1797.392995499953
 31
0.0
  0
LINE
  5
18B4
330
A
100
AcDbEntity
  8
HEWI
100
AcDbLine
 10
-2625.199472492438
 20
-1797.392995499955
 30
0.0
 11
-2661.199472492441
 21
-1797.392995499953
 31
0.0
  0
LINE
  5
18B5
330
A
100
AcDbEntity
  8
HEWI
100
AcDbLine
 10
-2661.199472492436
 20
-1720.843495499953
 30
0.0
 11
-2625.199472492435
 21
-1720.843495499954
 31
0.0
  0
LINE
  5
18B6
330
A
100
AcDbEntity
  8
HEWI
100
AcDbLine
 10
-2625.199472492438
 20
-1797.592995499954
 30
0.0
 11
-2625.199472492438
 21
-1797.392995499955
 31
0.0
  0
LINE
  5
18B7
330
A
100
AcDbEntity
  8
HEWI
100
AcDbLine
 10
-2625.199472492435
 20
-1720.843495499954
 30
0.0
 11
-2625.199472492438
 21
-1797.392995499955
 31
0.0
  0
LINE
  5
18B8
330
A
100
AcDbEntity
  8
HEWI
100
AcDbLine
 10
-2625.199472492435
 20
-1720.643495499955
 30
0.0
 11
-2625.199472492435
 21
-1720.843495499954
 31
0.0
  0
LINE
  5
18B9
330
A
100
AcDbEntity
  8
HEWI
100
AcDbLine
 10
-2123.19947249244
 20
-1794.935299499978
 30
0.0
 11
-2123.19947249244
 21
-1820.535299499978
 31
0.0
  0
LINE
  5
18BA
330
A
100
AcDbEntity
  8
HEWI
100
AcDbLine
 10
-2122.499472492439
 20
-1807.735299499978
 30
0.0
 11
-2122.499472492438
 21
-1794.235299499979
 31
0.0
  0
LINE
  5
18BB
330
A
100
AcDbEntity
  8
HEWI
100
AcDbLine
 10
-2122.499472492439
 20
-1821.235299499979
 30
0.0
 11
-2122.499472492439
 21
-1807.735299499978
 31
0.0
  0
LINE
  5
18BC
330
A
100
AcDbEntity
  8
HEWI
100
AcDbLine
 10
-2114.79947249244
 20
-1821.235299499979
 30
0.0
 11
-2114.799472492439
 21
-1794.235299499979
 31
0.0
  0
LINE
  5
18BD
330
A
100
AcDbEntity
  8
HEWI
100
AcDbLine
 10
-2114.099472492441
 20
-1794.935299499979
 30
0.0
 11
-2114.099472492439
 21
-1807.735299499979
 31
0.0
  0
LINE
  5
18BE
330
A
100
AcDbEntity
  8
HEWI
100
AcDbLine
 10
-2114.099472492439
 20
-1807.735299499979
 30
0.0
 11
-2114.099472492441
 21
-1820.535299499979
 31
0.0
  0
LINE
  5
18BF
330
A
100
AcDbEntity
  8
HEWI
100
AcDbLine
 10
-2113.59947249244
 20
-1819.735299499979
 30
0.0
 11
-2113.599472492438
 21
-1795.735299499979
 31
0.0
  0
LINE
  5
18C0
330
A
100
AcDbEntity
  8
HEWI
100
AcDbLine
 10
-2105.599496492432
 20
-1649.43529949998
 30
0.0
 11
-2105.399472492432
 21
-1649.43529949998
 31
0.0
  0
LINE
  5
18C1
330
A
100
AcDbEntity
  8
HEWI
100
AcDbLine
 10
-2105.399472492432
 20
-1649.43529949998
 30
0.0
 11
-2105.399472492432
 21
-1650.93529949998
 31
0.0
  0
LINE
  5
18C2
330
A
100
AcDbEntity
  8
HEWI
100
AcDbLine
 10
-2102.799472492431
 20
-1649.43529949998
 30
0.0
 11
-2105.399472492432
 21
-1649.43529949998
 31
0.0
  0
LINE
  5
18C3
330
A
100
AcDbEntity
  8
HEWI
100
AcDbLine
 10
-2102.799472492431
 20
-1650.93529949998
 30
0.0
 11
-2105.399472492432
 21
-1650.93529949998
 31
0.0
  0
LINE
  5
18C4
330
A
100
AcDbEntity
  8
HEWI
100
AcDbLine
 10
-2092.799472492434
 20
-1650.935299499979
 30
0.0
 11
-2092.799472492433
 21
-1649.435299499979
 31
0.0
  0
LINE
  5
18C5
330
A
100
AcDbEntity
  8
HEWI
100
AcDbLine
 10
-2102.799472492431
 20
-1649.43529949998
 30
0.0
 11
-2102.799472492431
 21
-1650.93529949998
 31
0.0
  0
LINE
  5
18C6
330
A
100
AcDbEntity
  8
HEWI
100
AcDbLine
 10
-2092.799472492433
 20
-1649.435299499979
 30
0.0
 11
-2102.799472492431
 21
-1649.43529949998
 31
0.0
  0
LINE
  5
18C7
330
A
100
AcDbEntity
  8
HEWI
100
AcDbLine
 10
-2102.799472492431
 20
-1650.93529949998
 30
0.0
 11
-2102.599454492432
 21
-1650.93529949998
 31
0.0
  0
LINE
  5
18C8
330
A
100
AcDbEntity
  8
HEWI
100
AcDbLine
 10
-2793.39947249244
 20
-1820.285299499948
 30
0.0
 11
-2793.399472492439
 21
-1795.285299499947
 31
0.0
  0
LINE
  5
18C9
330
A
100
AcDbEntity
  8
HEWI
100
AcDbLine
 10
-2793.19947249244
 20
-1795.285299499947
 30
0.0
 11
-2793.199472492441
 21
-1807.785299499948
 31
0.0
  0
LINE
  5
18CA
330
A
100
AcDbEntity
  8
HEWI
100
AcDbLine
 10
-2793.199472492441
 20
-1807.785299499948
 30
0.0
 11
-2793.19947249244
 21
-1820.285299499948
 31
0.0
  0
LINE
  5
18CB
330
A
100
AcDbEntity
  8
HEWI
100
AcDbLine
 10
-2278.70775849244
 20
-1818.735299499971
 30
0.0
 11
-2269.72208249244
 21
-1818.735299499972
 31
0.0
  0
LINE
  5
18CC
330
A
100
AcDbEntity
  8
HEWI
100
AcDbLine
 10
-2279.89947249244
 20
-1819.535299499972
 30
0.0
 11
-2268.499472492439
 21
-1819.535299499973
 31
0.0
  0
LINE
  5
18CE
330
A
100
AcDbEntity
  8
HEWI
100
AcDbLine
 10
-2620.44947249244
 20
-1792.918263499955
 30
0.0
 11
-2620.449472492438
 21
-1758.918263499955
 31
0.0
  0
LINE
  5
18CF
330
A
100
AcDbEntity
  8
HEWI
100
AcDbLine
 10
-2586.949472492438
 20
-1793.918263499955
 30
0.0
 11
-2619.44947249244
 21
-1793.918263499955
 31
0.0
  0
LINE
  5
18D0
330
A
100
AcDbEntity
  8
HEWI
100
AcDbLine
 10
-2585.94947249244
 20
-1792.918263499957
 30
0.0
 11
-2585.949472492439
 21
-1758.918263499957
 31
0.0
  0
LINE
  5
18D1
330
A
100
AcDbEntity
  8
HEWI
100
AcDbLine
 10
-2620.449472492438
 20
-1758.918263499955
 30
0.0
 11
-2620.449472492437
 21
-1724.918263499954
 31
0.0
  0
LINE
  5
18D2
330
A
100
AcDbEntity
  8
HEWI
100
AcDbLine
 10
-2619.449472492437
 20
-1723.918263499954
 30
0.0
 11
-2586.949472492436
 21
-1723.918263499956
 31
0.0
  0
LINE
  5
18D3
330
A
100
AcDbEntity
  8
HEWI
100
AcDbLine
 10
-2585.949472492439
 20
-1758.918263499957
 30
0.0
 11
-2585.949472492437
 21
-1724.918263499956
 31
0.0
  0
LINE
  5
18D4
330
A
100
AcDbEntity
  8
HEWI
100
AcDbLine
 10
-2123.399472492438
 20
-1795.385299499978
 30
0.0
 11
-2123.39947249244
 21
-1820.185299499978
 31
0.0
  0
LINE
  5
18D5
330
A
100
AcDbEntity
  8
HEWI
100
AcDbLine
 10
-2116.599472492433
 20
-1683.035299499979
 30
0.0
 11
-2145.699472492434
 21
-1683.035299499978
 31
0.0
  0
LINE
  5
18D6
330
A
100
AcDbEntity
  8
HEWI
100
AcDbLine
 10
-2116.599472492436
 20
-1727.835299499979
 30
0.0
 11
-2145.699472492437
 21
-1727.835299499978
 31
0.0
  0
LINE
  5
18D7
330
A
100
AcDbEntity
  8
HEWI
100
AcDbLine
 10
-2102.599472492443
 20
-1859.43529949998
 30
0.0
 11
-2109.599472492441
 21
-1859.435299499979
 31
0.0
  0
LINE
  5
18D8
330
A
100
AcDbEntity
  8
HEWI
100
AcDbLine
 10
-2105.599472492432
 20
-1649.43529949998
 30
0.0
 11
-2109.599472492432
 21
-1649.435299499979
 31
0.0
  0
LINE
  5
18D9
330
A
100
AcDbEntity
  8
HEWI
100
AcDbLine
 10
-2105.599472492432
 20
-1650.93529949998
 30
0.0
 11
-2105.599472492432
 21
-1649.43529949998
 31
0.0
  0
LINE
  5
18DA
330
A
100
AcDbEntity
  8
HEWI
100
AcDbLine
 10
-2102.599472492432
 20
-1650.93529949998
 30
0.0
 11
-2105.599472492432
 21
-1650.93529949998
 31
0.0
  0
LINE
  5
18DB
330
A
100
AcDbEntity
  8
HEWI
100
AcDbLine
 10
-2092.599472492441
 20
-1859.435299499979
 30
0.0
 11
-2092.599472492432
 21
-1650.935299499979
 31
0.0
  0
LINE
  5
18DC
330
A
100
AcDbEntity
  8
HEWI
100
AcDbLine
 10
-2092.599472492432
 20
-1650.935299499979
 30
0.0
 11
-2102.599472492432
 21
-1650.93529949998
 31
0.0
  0
LINE
  5
18DD
330
A
100
AcDbEntity
  8
HEWI
100
AcDbLine
 10
-2092.599472492441
 20
-1859.435299499979
 30
0.0
 11
-2102.599472492443
 21
-1859.43529949998
 31
0.0
  0
LINE
  5
18DE
330
A
100
AcDbEntity
  8
HEWI
100
AcDbLine
 10
-2102.599472492432
 20
-1650.93529949998
 30
0.0
 11
-2102.599472492443
 21
-1859.43529949998
 31
0.0
  0
LINE
  5
18DF
330
A
100
AcDbEntity
  8
HEWI
100
AcDbLine
 10
-2635.649470492442
 20
-1820.285301499954
 30
0.0
 11
-2635.649470492442
 21
-1820.285301499954
 31
0.0
  0
LINE
  5
18E0
330
A
100
AcDbEntity
  8
HEWI
100
AcDbLine
 10
-2266.64947049244
 20
-1820.285301499972
 30
0.0
 11
-2266.64947049244
 21
-1820.285301499972
 31
0.0
  0
LINE
  5
18E1
330
A
100
AcDbEntity
  8
HEWI
100
AcDbLine
 10
-2124.19947249244
 20
-1820.285299499979
 30
0.0
 11
-2124.199472492441
 21
-1795.285299499978
 31
0.0
  0
LINE
  5
18E2
330
A
100
AcDbEntity
  8
HEWI
100
AcDbLine
 10
-2647.67501049244
 20
-1818.735299499953
 30
0.0
 11
-2638.675580492441
 21
-1818.735299499954
 31
0.0
  0
LINE
  5
18E3
330
A
100
AcDbEntity
  8
HEWI
100
AcDbLine
 10
-2648.89947249244
 20
-1819.535299499954
 30
0.0
 11
-2637.499472492439
 21
-1819.535299499955
 31
0.0
  0
LINE
  5
18E4
330
A
100
AcDbEntity
  8
HEWI
100
AcDbLine
 10
-2854.699472492436
 20
-1689.685299499944
 30
0.0
 11
-2854.699472492436
 21
-1721.185299499944
 31
0.0
  0
LINE
  5
18E5
330
A
100
AcDbEntity
  8
HEWI
100
AcDbLine
 10
-2853.699472492435
 20
-1705.435299499944
 30
0.0
 11
-2853.699472492436
 21
-1688.685299499943
 31
0.0
  0
LINE
  5
18E6
330
A
100
AcDbEntity
  8
HEWI
100
AcDbLine
 10
-2853.699472492437
 20
-1722.185299499944
 30
0.0
 11
-2853.699472492435
 21
-1705.435299499944
 31
0.0
  0
LINE
  5
18E7
330
A
100
AcDbEntity
  8
HEWI
100
AcDbLine
 10
-2663.199472492437
 20
-1721.573839499952
 30
0.0
 11
-2663.199472492438
 21
-1796.338029499952
 31
0.0
  0
LINE
  5
18E8
330
A
100
AcDbEntity
  8
HEWI
100
AcDbLine
 10
-2661.199472492441
 20
-1797.392995499953
 30
0.0
 11
-2661.199472492436
 21
-1720.843495499953
 31
0.0
  0
LINE
  5
18E9
330
A
100
AcDbEntity
  8
HEWI
100
AcDbLine
 10
-2661.199472492436
 20
-1720.643495499954
 30
0.0
 11
-2661.199472492436
 21
-1720.843495499953
 31
0.0
  0
LINE
  5
18EA
330
A
100
AcDbEntity
  8
HEWI
100
AcDbLine
 10
-2796.19947249244
 20
-1795.485299499947
 30
0.0
 11
-2796.199472492442
 21
-1820.085299499948
 31
0.0
  0
LINE
  5
18EB
330
A
100
AcDbEntity
  8
HEWI
100
AcDbLine
 10
-2795.999472492439
 20
-1807.785299499948
 30
0.0
 11
-2795.999472492438
 21
-1795.285299499947
 31
0.0
  0
LINE
  5
18EC
330
A
100
AcDbEntity
  8
HEWI
100
AcDbLine
 10
-2795.999472492439
 20
-1820.285299499948
 30
0.0
 11
-2795.999472492439
 21
-1807.785299499948
 31
0.0
  0
LINE
  5
18ED
330
A
100
AcDbEntity
  8
HEWI
100
AcDbLine
 10
-2113.099472492435
 20
-1731.335299499979
 30
0.0
 11
-2113.099472492441
 21
-1855.935299499979
 31
0.0
  0
LINE
  5
18EE
330
A
100
AcDbEntity
  8
HEWI
100
AcDbLine
 10
-2113.099472492432
 20
-1652.935299499979
 30
0.0
 11
-2113.099472492433
 21
-1679.535299499979
 31
0.0
  0
LINE
  5
18EF
330
A
100
AcDbEntity
  8
HEWI
100
AcDbLine
 10
-1865.013430396316
 20
-2398.870916101017
 30
0.0
 11
-1865.213430396314
 21
-2399.070916101017
 31
0.0
  0
LINE
  5
18F0
330
A
100
AcDbEntity
  8
HEWI
100
AcDbLine
 10
-1867.813430396315
 20
-2357.070916101017
 30
0.0
 11
-1865.213430396313
 21
-2357.070916101017
 31
0.0
  0
LINE
  5
18F1
330
A
100
AcDbEntity
  8
HEWI
100
AcDbLine
 10
-1859.213430396315
 20
-2355.570916101017
 30
0.0
 11
-1775.813430396314
 21
-2355.570916101019
 31
0.0
  0
LINE
  5
18F2
330
A
100
AcDbEntity
  8
HEWI
100
AcDbLine
 10
-1865.213430396314
 20
-2399.070916101017
 30
0.0
 11
-1867.813430396315
 21
-2399.070916101017
 31
0.0
  0
LINE
  5
18F3
330
A
100
AcDbEntity
  8
HEWI
100
AcDbLine
 10
-1868.013430396315
 20
-2357.270916101017
 30
0.0
 11
-1867.813430396315
 21
-2357.070916101017
 31
0.0
  0
LINE
  5
18F4
330
A
100
AcDbEntity
  8
HEWI
100
AcDbLine
 10
-1859.513430396316
 20
-2399.070916101017
 30
0.0
 11
-1860.013430396314
 21
-2398.570916101018
 31
0.0
  0
LINE
  5
18F5
330
A
100
AcDbEntity
  8
HEWI
100
AcDbLine
 10
-1834.363430396335
 20
-3084.070916101018
 30
0.0
 11
-1834.363430396315
 21
-2400.589316101018
 31
0.0
  0
LINE
  5
18F6
330
A
100
AcDbEntity
  8
HEWI
100
AcDbLine
 10
-1860.013430396313
 20
-2357.570916101018
 30
0.0
 11
-1859.513430396315
 21
-2357.070916101017
 31
0.0
  0
LINE
  5
18F7
330
A
100
AcDbEntity
  8
HEWI
100
AcDbLine
 10
-1800.663430396314
 20
-2400.470126101019
 30
0.0
 11
-1800.663430396333
 21
-3084.070916101018
 31
0.0
  0
LINE
  5
18F8
330
A
100
AcDbEntity
  8
HEWI
100
AcDbLine
 10
-1867.813430396315
 20
-2399.070916101017
 30
0.0
 11
-1868.013430396316
 21
-2398.870916101017
 31
0.0
  0
LINE
  5
18F9
330
A
100
AcDbEntity
  8
HEWI
100
AcDbLine
 10
-1834.462614396316
 20
-2400.570916101018
 30
0.0
 11
-1859.213430396315
 21
-2400.570916101017
 31
0.0
  0
LINE
  5
18FA
330
A
100
AcDbEntity
  8
HEWI
100
AcDbLine
 10
-1770.013430396316
 20
-2400.47091610102
 30
0.0
 11
-1775.013430396315
 21
-2400.47091610102
 31
0.0
  0
LINE
  5
18FB
330
A
100
AcDbEntity
  8
HEWI
100
AcDbLine
 10
-1775.013430396315
 20
-2398.570916101019
 30
0.0
 11
-1775.513430396316
 21
-2399.070916101019
 31
0.0
  0
LINE
  5
18FC
330
A
100
AcDbEntity
  8
HEWI
100
AcDbLine
 10
-1860.013430396314
 20
-2400.470916101017
 30
0.0
 11
-1865.013430396316
 21
-2400.470916101017
 31
0.0
  0
LINE
  5
18FD
330
A
100
AcDbEntity
  8
HEWI
100
AcDbLine
 10
-1775.513430396315
 20
-2357.070916101019
 30
0.0
 11
-1775.013430396315
 21
-2357.57091610102
 31
0.0
  0
LINE
  5
18FE
330
A
100
AcDbEntity
  8
HEWI
100
AcDbLine
 10
-1775.813430396315
 20
-2400.570916101019
 30
0.0
 11
-1800.513430396316
 21
-2400.570916101019
 31
0.0
  0
LINE
  5
18FF
330
A
100
AcDbEntity
  8
HEWI
100
AcDbLine
 10
-1767.213430396315
 20
-2399.07091610102
 30
0.0
 11
-1769.813430396316
 21
-2399.07091610102
 31
0.0
  0
LINE
  5
1900
330
A
100
AcDbEntity
  8
HEWI
100
AcDbLine
 10
-1769.813430396315
 20
-2357.07091610102
 30
0.0
 11
-1767.213430396315
 21
-2357.07091610102
 31
0.0
  0
LINE
  5
1901
330
A
100
AcDbEntity
  8
HEWI
100
AcDbLine
 10
-1834.263430396333
 20
-3086.070916101018
 30
0.0
 11
-1834.263430396333
 21
-3084.270916101018
 31
0.0
  0
LINE
  5
1902
330
A
100
AcDbEntity
  8
HEWI
100
AcDbLine
 10
-1800.763430396333
 20
-3084.270916101019
 30
0.0
 11
-1800.763430396333
 21
-3086.070916101018
 31
0.0
  0
LINE
  5
1903
330
A
100
AcDbEntity
  8
HEWI
100
AcDbLine
 10
-1800.963430396333
 20
-3084.070916101018
 30
0.0
 11
-1800.763430396333
 21
-3084.270916101019
 31
0.0
  0
LINE
  5
1904
330
A
100
AcDbEntity
  8
HEWI
100
AcDbLine
 10
-1834.263430396333
 20
-3084.270916101018
 30
0.0
 11
-1834.063430396333
 21
-3084.070916101018
 31
0.0
  0
LINE
  5
1905
330
A
100
AcDbEntity
  8
HEWI
100
AcDbLine
 10
-1769.813430396316
 20
-2399.07091610102
 30
0.0
 11
-1770.013430396316
 21
-2398.870916101019
 31
0.0
  0
LINE
  5
1906
330
A
100
AcDbEntity
  8
HEWI
100
AcDbLine
 10
-1770.013430396315
 20
-2357.27091610102
 30
0.0
 11
-1769.813430396315
 21
-2357.07091610102
 31
0.0
  0
LINE
  5
1907
330
A
100
AcDbEntity
  8
HEWI
100
AcDbLine
 10
-1767.213430396315
 20
-2357.07091610102
 30
0.0
 11
-1767.013430396313
 21
-2357.27091610102
 31
0.0
  0
LINE
  5
1908
330
A
100
AcDbEntity
  8
HEWI
100
AcDbLine
 10
-1767.013430396314
 20
-2398.870916101019
 30
0.0
 11
-1767.213430396315
 21
-2399.07091610102
 31
0.0
  0
LINE
  5
1909
330
A
100
AcDbEntity
  8
HEWI
100
AcDbLine
 10
-1831.013430396314
 20
-2347.170916101018
 30
0.0
 11
-1830.313430396314
 21
-2346.470916101018
 31
0.0
  0
LINE
  5
190A
330
A
100
AcDbEntity
  8
HEWI
100
AcDbLine
 10
-1804.713430396313
 20
-2346.470916101019
 30
0.0
 11
-1804.013430396314
 21
-2347.170916101019
 31
0.0
  0
LINE
  5
190B
330
A
100
AcDbEntity
  8
HEWI
100
AcDbLine
 10
-1831.013430396315
 20
-2354.870916101018
 30
0.0
 11
-1831.013430396314
 21
-2347.170916101018
 31
0.0
  0
LINE
  5
190C
330
A
100
AcDbEntity
  8
HEWI
100
AcDbLine
 10
-1804.013430396314
 20
-2347.170916101019
 30
0.0
 11
-1804.013430396315
 21
-2354.870916101019
 31
0.0
  0
LINE
  5
190D
330
A
100
AcDbEntity
  8
HEWI
100
AcDbLine
 10
-1804.013430396315
 20
-2354.870916101019
 30
0.0
 11
-1804.713430396313
 21
-2355.570916101019
 31
0.0
  0
LINE
  5
190E
330
A
100
AcDbEntity
  8
HEWI
100
AcDbLine
 10
-1830.313430396314
 20
-2355.570916101018
 30
0.0
 11
-1831.013430396315
 21
-2354.870916101018
 31
0.0
  0
LINE
  5
190F
330
A
100
AcDbEntity
  8
HEWI
100
AcDbLine
 10
-1805.513430396315
 20
-2345.970916101018
 30
0.0
 11
-1805.513430396315
 21
-2346.470916101019
 31
0.0
  0
LINE
  5
1910
330
A
100
AcDbEntity
  8
HEWI
100
AcDbLine
 10
-1829.513430396311
 20
-2346.470916101018
 30
0.0
 11
-1829.513430396311
 21
-2345.970916101018
 31
0.0
  0
LINE
  5
1911
330
A
100
AcDbEntity
  8
HEWI
100
AcDbLine
 10
-1865.213430396313
 20
-2357.070916101017
 30
0.0
 11
-1865.013430396315
 21
-2357.270916101017
 31
0.0
  0
LINE
  5
1912
330
A
100
AcDbEntity
  8
HEWI
100
AcDbLine
 10
-1834.363430396333
 20
-3084.070916101018
 30
0.0
 11
-1800.663430396332
 21
-3084.070916101018
 31
0.0
  0
LINE
  5
1913
330
A
100
AcDbEntity
  8
HEWI
100
AcDbLine
 10
-1834.263430396333
 20
-3084.270916101018
 30
0.0
 11
-1800.763430396333
 21
-3084.270916101019
 31
0.0
  0
LINE
  5
1914
330
A
100
AcDbEntity
  8
HEWI
100
AcDbLine
 10
-1831.013430396315
 20
-2354.870916101018
 30
0.0
 11
-1804.013430396315
 21
-2354.870916101019
 31
0.0
  0
LINE
  5
1915
330
A
100
AcDbEntity
  8
HEWI
100
AcDbLine
 10
-1804.013430396314
 20
-2347.170916101019
 30
0.0
 11
-1831.013430396314
 21
-2347.170916101018
 31
0.0
  0
LINE
  5
1916
330
A
100
AcDbEntity
  8
HEWI
100
AcDbLine
 10
-1804.713430396313
 20
-2346.470916101019
 30
0.0
 11
-1830.313430396314
 21
-2346.470916101018
 31
0.0
  0
LINE
  5
1917
330
A
100
AcDbEntity
  8
HEWI
100
AcDbLine
 10
-1805.513430396315
 20
-2345.970916101018
 30
0.0
 11
-1829.513430396311
 21
-2345.970916101018
 31
0.0
  0
LINE
  5
1918
330
A
100
AcDbEntity
  8
HEWI
100
AcDbLine
 10
-1775.213430396314
 20
-2341.970916101019
 30
0.0
 11
-1775.213430396314
 21
-2337.770916101019
 31
0.0
  0
LINE
  5
1919
330
A
100
AcDbEntity
  8
HEWI
100
AcDbLine
 10
-1859.813430396314
 20
-2337.770916101017
 30
0.0
 11
-1859.813430396314
 21
-2341.970916101017
 31
0.0
  0
LINE
  5
191A
330
A
100
AcDbEntity
  8
HEWI
100
AcDbLine
 10
-1770.013430396314
 20
-2335.17091610102
 30
0.0
 11
-1770.013430396314
 21
-2337.77091610102
 31
0.0
  0
LINE
  5
191B
330
A
100
AcDbEntity
  8
HEWI
100
AcDbLine
 10
-1865.013430396314
 20
-2337.770916101017
 30
0.0
 11
-1865.013430396314
 21
-2335.170916101017
 31
0.0
  0
LINE
  5
191C
330
A
100
AcDbEntity
  8
HEWI
100
AcDbLine
 10
-1780.013430396314
 20
-2325.170916101019
 30
0.0
 11
-1855.013430396314
 21
-2325.170916101017
 31
0.0
  0
LINE
  5
191D
330
A
100
AcDbEntity
  8
HEWI
100
AcDbLine
 10
-1770.013430396314
 20
-2348.97091610102
 30
0.0
 11
-1770.013430396315
 21
-2378.070916101019
 31
0.0
  0
LINE
  5
191E
330
A
100
AcDbEntity
  8
HEWI
100
AcDbLine
 10
-1775.013430396315
 20
-2348.97091610102
 30
0.0
 11
-1775.013430396315
 21
-2378.070916101019
 31
0.0
  0
LINE
  5
191F
330
A
100
AcDbEntity
  8
HEWI
100
AcDbLine
 10
-1865.013430396315
 20
-2378.070916101017
 30
0.0
 11
-1865.013430396314
 21
-2348.970916101017
 31
0.0
  0
LINE
  5
1920
330
A
100
AcDbEntity
  8
HEWI
100
AcDbLine
 10
-1860.013430396314
 20
-2378.070916101017
 30
0.0
 11
-1860.013430396312
 21
-2348.970916101017
 31
0.0
  0
LINE
  5
1921
330
A
100
AcDbEntity
  8
HEWI
100
AcDbLine
 10
-1775.013430396315
 20
-2348.97091610102
 30
0.0
 11
-1770.013430396314
 21
-2348.97091610102
 31
0.0
  0
LINE
  5
1922
330
A
100
AcDbEntity
  8
HEWI
100
AcDbLine
 10
-1865.013430396314
 20
-2348.970916101017
 30
0.0
 11
-1860.013430396312
 21
-2348.970916101017
 31
0.0
  0
LINE
  5
1923
330
A
100
AcDbEntity
  8
HEWI
100
AcDbLine
 10
-1865.013430396314
 20
-2337.970916101017
 30
0.0
 11
-1865.013430396314
 21
-2341.970916101017
 31
0.0
  0
LINE
  5
1924
330
A
100
AcDbEntity
  8
HEWI
100
AcDbLine
 10
-1860.013430396312
 20
-2337.970916101017
 30
0.0
 11
-1860.013430396312
 21
-2341.970916101017
 31
0.0
  0
LINE
  5
1925
330
A
100
AcDbEntity
  8
HEWI
100
AcDbLine
 10
-1770.013430396314
 20
-2337.97091610102
 30
0.0
 11
-1770.013430396314
 21
-2341.97091610102
 31
0.0
  0
LINE
  5
1926
330
A
100
AcDbEntity
  8
HEWI
100
AcDbLine
 10
-1775.013430396315
 20
-2337.970916101019
 30
0.0
 11
-1775.013430396315
 21
-2341.97091610102
 31
0.0
  0
LINE
  5
1927
330
A
100
AcDbEntity
  8
HEWI
100
AcDbLine
 10
-1775.013430396315
 20
-2337.970916101019
 30
0.0
 11
-1770.013430396314
 21
-2337.97091610102
 31
0.0
  0
LINE
  5
1928
330
A
100
AcDbEntity
  8
HEWI
100
AcDbLine
 10
-1865.013430396314
 20
-2337.970916101017
 30
0.0
 11
-1860.013430396312
 21
-2337.970916101017
 31
0.0
  0
LINE
  5
1929
330
A
100
AcDbEntity
  8
HEWI
100
AcDbLine
 10
-1865.013430396314
 20
-2337.970916101017
 30
0.0
 11
-1865.013430396314
 21
-2337.770900101017
 31
0.0
  0
LINE
  5
192A
330
A
100
AcDbEntity
  8
HEWI
100
AcDbLine
 10
-1770.013430396314
 20
-2337.770900101019
 30
0.0
 11
-1770.013430396314
 21
-2337.97091610102
 31
0.0
  0
LINE
  5
192B
330
A
100
AcDbEntity
  8
HEWI
100
AcDbLine
 10
-1860.013430396312
 20
-2337.970916101017
 30
0.0
 11
-1860.013430396312
 21
-2337.770900101017
 31
0.0
  0
LINE
  5
192C
330
A
100
AcDbEntity
  8
HEWI
100
AcDbLine
 10
-1775.013430396315
 20
-2337.770900101019
 30
0.0
 11
-1775.013430396315
 21
-2337.970916101019
 31
0.0
  0
LINE
  5
192D
330
A
100
AcDbEntity
  8
HEWI
100
AcDbLine
 10
-1855.013430396314
 20
-2324.970916101017
 30
0.0
 11
-1780.013430396314
 21
-2324.970916101019
 31
0.0
  0
LINE
  5
192E
330
A
100
AcDbEntity
  8
HEWI
100
AcDbLine
 10
-1801.763430396333
 20
-3087.070916101018
 30
0.0
 11
-1833.263430396333
 21
-3087.070916101018
 31
0.0
  0
LINE
  5
192F
330
A
100
AcDbEntity
  8
HEWI
100
AcDbLine
 10
-1834.263430396333
 20
-3086.070916101018
 30
0.0
 11
-1800.763430396333
 21
-3086.070916101018
 31
0.0
  0
LINE
  5
1930
330
A
100
AcDbEntity
  8
HEWI
100
AcDbLine
 10
-1769.813430396315
 20
-2357.07091610102
 30
0.0
 11
-1769.813430396316
 21
-2399.07091610102
 31
0.0
  0
LINE
  5
1931
330
A
100
AcDbEntity
  8
HEWI
100
AcDbLine
 10
-1767.213430396315
 20
-2399.07091610102
 30
0.0
 11
-1767.213430396315
 21
-2357.07091610102
 31
0.0
  0
LINE
  5
1932
330
A
100
AcDbEntity
  8
HEWI
100
AcDbLine
 10
-1767.013430396314
 20
-2398.870916101019
 30
0.0
 11
-1767.013430396313
 21
-2357.27091610102
 31
0.0
  0
LINE
  5
1933
330
A
100
AcDbEntity
  8
HEWI
100
AcDbLine
 10
-1859.813430396314
 20
-2345.470916101017
 30
0.0
 11
-1775.213430396314
 21
-2345.470916101019
 31
0.0
  0
LINE
  5
1934
330
A
100
AcDbEntity
  8
HEWI
100
AcDbLine
 10
-1775.213430396314
 20
-2345.470916101019
 30
0.0
 11
-1775.213430396314
 21
-2341.970916101019
 31
0.0
  0
LINE
  5
1935
330
A
100
AcDbEntity
  8
HEWI
100
AcDbLine
 10
-1775.213430396314
 20
-2341.970916101019
 30
0.0
 11
-1859.813430396314
 21
-2341.970916101017
 31
0.0
  0
LINE
  5
1936
330
A
100
AcDbEntity
  8
HEWI
100
AcDbLine
 10
-1859.813430396314
 20
-2341.970916101017
 30
0.0
 11
-1859.813430396314
 21
-2345.470916101017
 31
0.0
  0
LINE
  5
1937
330
A
100
AcDbEntity
  8
HEWI
100
AcDbLine
 10
-1775.213430396314
 20
-2337.770916101019
 30
0.0
 11
-1770.013430396314
 21
-2337.77091610102
 31
0.0
  0
LINE
  5
1938
330
A
100
AcDbEntity
  8
HEWI
100
AcDbLine
 10
-1859.813430396314
 20
-2337.770916101017
 30
0.0
 11
-1865.013430396314
 21
-2337.770916101017
 31
0.0
  0
LINE
  5
1939
330
A
100
AcDbEntity
  8
HEWI
100
AcDbLine
 10
-1867.813430396315
 20
-2357.070916101017
 30
0.0
 11
-1867.813430396315
 21
-2399.070916101017
 31
0.0
  0
LINE
  5
193A
330
A
100
AcDbEntity
  8
HEWI
100
AcDbLine
 10
-1868.013430396315
 20
-2357.270916101017
 30
0.0
 11
-1868.013430396316
 21
-2398.870916101017
 31
0.0
  0
LINE
  5
193B
330
A
100
AcDbEntity
  8
HEWI
100
AcDbLine
 10
-1865.213430396314
 20
-2399.070916101017
 30
0.0
 11
-1865.213430396313
 21
-2357.070916101017
 31
0.0
  0
LINE
  5
193C
330
A
100
AcDbEntity
  8
HEWI
100
AcDbLine
 10
-1775.813430396314
 20
-2355.570916101019
 30
0.0
 11
-1775.813430396315
 21
-2400.570916101019
 31
0.0
  0
LINE
  5
193D
330
A
100
AcDbEntity
  8
HEWI
100
AcDbLine
 10
-1859.213430396315
 20
-2355.570916101017
 30
0.0
 11
-1859.213430396315
 21
-2400.570916101017
 31
0.0
  0
LINE
  5
193E
330
A
100
AcDbEntity
  8
HEWI
100
AcDbLine
 10
-1859.513430396316
 20
-2400.270916101017
 30
0.0
 11
-1859.513430396315
 21
-2355.870916101017
 31
0.0
  0
LINE
  5
193F
330
A
100
AcDbEntity
  8
HEWI
100
AcDbLine
 10
-1775.513430396316
 20
-2400.270916101019
 30
0.0
 11
-1775.513430396315
 21
-2355.870916101019
 31
0.0
  0
LINE
  5
1940
330
A
100
AcDbEntity
  8
HEWI
100
AcDbLine
 10
-1860.013430396314
 20
-2378.070916101017
 30
0.0
 11
-1865.013430396315
 21
-2378.070916101017
 31
0.0
  0
LINE
  5
1941
330
A
100
AcDbEntity
  8
HEWI
100
AcDbLine
 10
-1865.013430396316
 20
-2400.470916101017
 30
0.0
 11
-1865.013430396315
 21
-2378.070916101017
 31
0.0
  0
LINE
  5
1942
330
A
100
AcDbEntity
  8
HEWI
100
AcDbLine
 10
-1860.013430396314
 20
-2400.470916101017
 30
0.0
 11
-1860.013430396314
 21
-2378.070916101017
 31
0.0
  0
LINE
  5
1943
330
A
100
AcDbEntity
  8
HEWI
100
AcDbLine
 10
-1770.013430396315
 20
-2378.070916101019
 30
0.0
 11
-1775.013430396315
 21
-2378.070916101019
 31
0.0
  0
LINE
  5
1944
330
A
100
AcDbEntity
  8
HEWI
100
AcDbLine
 10
-1770.013430396315
 20
-2378.070916101019
 30
0.0
 11
-1770.013430396316
 21
-2400.47091610102
 31
0.0
  0
LINE
  5
1945
330
A
100
AcDbEntity
  8
HEWI
100
AcDbLine
 10
-1775.013430396315
 20
-2378.070916101019
 30
0.0
 11
-1775.013430396315
 21
-2400.47091610102
 31
0.0
  0
LINE
  5
1946
330
A
100
AcDbEntity
  8
HEWI
100
AcDbLine
 10
-1770.013430396314
 20
-2345.47091610102
 30
0.0
 11
-1770.013430396314
 21
-2348.97091610102
 31
0.0
  0
LINE
  5
1947
330
A
100
AcDbEntity
  8
HEWI
100
AcDbLine
 10
-1775.013430396315
 20
-2345.47091610102
 30
0.0
 11
-1775.013430396315
 21
-2348.97091610102
 31
0.0
  0
LINE
  5
1948
330
A
100
AcDbEntity
  8
HEWI
100
AcDbLine
 10
-1865.013430396314
 20
-2345.470916101017
 30
0.0
 11
-1865.013430396314
 21
-2348.970916101017
 31
0.0
  0
LINE
  5
1949
330
A
100
AcDbEntity
  8
HEWI
100
AcDbLine
 10
-1860.013430396312
 20
-2348.970916101017
 30
0.0
 11
-1860.013430396312
 21
-2345.470916101017
 31
0.0
  0
LINE
  5
194A
330
A
100
AcDbEntity
  8
HEWI
100
AcDbLine
 10
-1865.013430396314
 20
-2345.470916101017
 30
0.0
 11
-1860.013430396312
 21
-2345.470916101017
 31
0.0
  0
LINE
  5
194B
330
A
100
AcDbEntity
  8
HEWI
100
AcDbLine
 10
-1775.013430396315
 20
-2345.47091610102
 30
0.0
 11
-1770.013430396314
 21
-2345.47091610102
 31
0.0
  0
LINE
  5
194C
330
A
100
AcDbEntity
  8
HEWI
100
AcDbLine
 10
-1860.013430396312
 20
-2341.970916101017
 30
0.0
 11
-1865.013430396314
 21
-2341.970916101017
 31
0.0
  0
LINE
  5
194D
330
A
100
AcDbEntity
  8
HEWI
100
AcDbLine
 10
-1865.013430396314
 20
-2345.470916101017
 30
0.0
 11
-1865.013430396314
 21
-2341.970916101017
 31
0.0
  0
LINE
  5
194E
330
A
100
AcDbEntity
  8
HEWI
100
AcDbLine
 10
-1860.013430396312
 20
-2345.470916101017
 30
0.0
 11
-1860.013430396312
 21
-2341.970916101017
 31
0.0
  0
LINE
  5
194F
330
A
100
AcDbEntity
  8
HEWI
100
AcDbLine
 10
-1770.013430396314
 20
-2341.97091610102
 30
0.0
 11
-1775.013430396315
 21
-2341.97091610102
 31
0.0
  0
LINE
  5
1950
330
A
100
AcDbEntity
  8
HEWI
100
AcDbLine
 10
-1770.013430396314
 20
-2345.47091610102
 30
0.0
 11
-1770.013430396314
 21
-2341.97091610102
 31
0.0
  0
LINE
  5
1951
330
A
100
AcDbEntity
  8
HEWI
100
AcDbLine
 10
-1775.013430396315
 20
-2341.97091610102
 30
0.0
 11
-1775.013430396315
 21
-2345.47091610102
 31
0.0
  0
ARC
  5
1952
330
A
100
AcDbEntity
  8
HEWI
100
AcDbCircle
 10
-1859.213430396315
 20
-1683.235299499997
 30
0.0
 40
0.3
100
AcDbArc
 50
90.0
 51
180.0
  0
ARC
  5
1953
330
A
100
AcDbEntity
  8
HEWI
100
AcDbCircle
 10
-1859.213430396316
 20
-1727.635299499997
 30
0.0
 40
0.3
100
AcDbArc
 50
180.0
 51
270.0
  0
ARC
  5
1954
330
A
100
AcDbEntity
  8
HEWI
100
AcDbCircle
 10
-1775.813430396316
 20
-1727.6352995
 30
0.0
 40
0.3
100
AcDbArc
 50
270.0
 51
0.0
  0
ARC
  5
1955
330
A
100
AcDbEntity
  8
HEWI
100
AcDbCircle
 10
-1775.813430396315
 20
-1683.2352995
 30
0.0
 40
0.3
100
AcDbArc
 50
0.0
 51
90.0
  0
CIRCLE
  5
1956
330
A
100
AcDbEntity
  8
HEWI
100
AcDbCircle
 10
1817.513430396316
 20
-1705.435299499998
 30
0.0
 40
16.85
210
0.0
220
0.0
230
-1.0
  0
CIRCLE
  5
1957
330
A
100
AcDbEntity
  8
HEWI
100
AcDbCircle
 10
-1817.513430396316
 20
-1705.435299499998
 30
0.0
 40
15.75
  0
CIRCLE
  5
1958
330
A
100
AcDbEntity
  8
HEWI
100
AcDbCircle
 10
1817.513430396316
 20
-1705.435299499998
 30
0.0
 40
16.75
210
0.0
220
0.0
230
-1.0
  0
ARC
  5
1959
330
A
100
AcDbEntity
  8
HEWI
100
AcDbCircle
 10
1817.513430396316
 20
-1705.435299499998
 30
0.0
 40
17.04999999999999
210
0.0
220
0.0
230
-1.0
100
AcDbArc
 50
251.1809369999966
 51
288.8190630000034
  0
ARC
  5
195A
330
A
100
AcDbEntity
  8
HEWI
100
AcDbCircle
 10
1824.813430396316
 20
-1720.843495499999
 30
0.0
 40
0.2
210
0.0
220
0.0
230
-1.0
100
AcDbArc
 50
0.0
 51
115.3503699999954
  0
ARC
  5
195B
330
A
100
AcDbEntity
  8
HEWI
100
AcDbCircle
 10
1810.213430396315
 20
-1720.8434955
 30
0.0
 40
0.2
210
0.0
220
0.0
230
-1.0
100
AcDbArc
 50
64.64963000000477
 51
180.0
  0
ARC
  5
195C
330
A
100
AcDbEntity
  8
HEWI
100
AcDbCircle
 10
-2853.699472492436
 20
-1689.685299499943
 30
0.0
 40
1.0
100
AcDbArc
 50
90.0
 51
179.9999999999958
  0
ARC
  5
195D
330
A
100
AcDbEntity
  8
HEWI
100
AcDbCircle
 10
-2853.699472492436
 20
-1721.185299499943
 30
0.0
 40
1.0
100
AcDbArc
 50
179.9999999999958
 51
270.0
  0
ARC
  5
195E
330
A
100
AcDbEntity
  8
HEWI
100
AcDbCircle
 10
-2113.59947249244
 20
-1819.235299499979
 30
0.0
 40
0.5
100
AcDbArc
 50
270.0
 51
359.9999999999959
  0
ARC
  5
195F
330
A
100
AcDbEntity
  8
HEWI
100
AcDbCircle
 10
-2113.599472492438
 20
-1796.235299499979
 30
0.0
 40
0.5
100
AcDbArc
 50
359.9999999999959
 51
90.0
  0
ARC
  5
1960
330
A
100
AcDbEntity
  8
HEWI
100
AcDbCircle
 10
-2268.499472492439
 20
-1818.735299499972
 30
0.0
 40
0.8
100
AcDbArc
 50
270.0
 51
294.9833949999793
  0
ARC
  5
1961
330
A
100
AcDbEntity
  8
HEWI
100
AcDbCircle
 10
-2279.89947249244
 20
-1818.735299499971
 30
0.0
 40
0.8
100
AcDbArc
 50
244.3569869999975
 51
270.0
  0
ARC
  5
1962
330
A
100
AcDbEntity
  8
HEWI
100
AcDbCircle
 10
-2637.499472492439
 20
-1818.735299499954
 30
0.0
 40
0.8
100
AcDbArc
 50
270.0
 51
294.9833949999793
  0
ARC
  5
1963
330
A
100
AcDbEntity
  8
HEWI
100
AcDbCircle
 10
-2648.89947249244
 20
-1818.735299499953
 30
0.0
 40
0.8
100
AcDbArc
 50
244.3569869999975
 51
270.0
  0
ARC
  5
1964
330
A
100
AcDbEntity
  8
HEWI
100
AcDbCircle
 10
2619.699472492437
 20
-1724.668263499954
 30
0.0
 40
1.0
210
0.0
220
0.0
230
-1.0
100
AcDbArc
 50
0.0000000000041488
 51
90.0
  0
ARC
  5
1965
330
A
100
AcDbEntity
  8
HEWI
100
AcDbCircle
 10
2619.69947249244
 20
-1793.168263499955
 30
0.0
 40
1.0
210
0.0
220
0.0
230
-1.0
100
AcDbArc
 50
270.0
 51
0.0000000000041488
  0
ARC
  5
1966
330
A
100
AcDbEntity
  8
HEWI
100
AcDbCircle
 10
2586.699472492437
 20
-1724.668263499956
 30
0.0
 40
1.0
210
0.0
220
0.0
230
-1.0
100
AcDbArc
 50
90.0
 51
180.0000000000041
  0
ARC
  5
1967
330
A
100
AcDbEntity
  8
HEWI
100
AcDbCircle
 10
2586.69947249244
 20
-1793.168263499955
 30
0.0
 40
1.0
210
0.0
220
0.0
230
-1.0
100
AcDbArc
 50
180.0000000000041
 51
270.0
  0
CIRCLE
  5
1968
330
A
100
AcDbEntity
  8
HEWI
100
AcDbCircle
 10
-2145.699472492436
 20
-1711.435299499978
 30
0.0
 40
1.149999999999999
  0
CIRCLE
  5
1969
330
A
100
AcDbEntity
  8
HEWI
100
AcDbCircle
 10
2145.699472492436
 20
-1711.435299499978
 30
0.0
 40
1.45
210
0.0
220
0.0
230
-1.0
  0
CIRCLE
  5
196A
330
A
100
AcDbEntity
  8
HEWI
100
AcDbCircle
 10
-2145.699472492435
 20
-1699.435299499978
 30
0.0
 40
1.149999999999999
  0
CIRCLE
  5
196B
330
A
100
AcDbEntity
  8
HEWI
100
AcDbCircle
 10
2145.699472492435
 20
-1699.435299499978
 30
0.0
 40
1.45
210
0.0
220
0.0
230
-1.0
  0
ARC
  5
196C
330
A
100
AcDbEntity
  8
HEWI
100
AcDbCircle
 10
2145.699472492435
 20
-1705.435299499978
 30
0.0
 40
4.891099999999998
210
0.0
220
0.0
230
-1.0
100
AcDbArc
 50
86.77686000000729
 51
93.21749600002
  0
ARC
  5
196D
330
A
100
AcDbEntity
  8
HEWI
100
AcDbCircle
 10
2145.699472492435
 20
-1705.435299499978
 30
0.0
 40
4.891099999999998
210
0.0
220
0.0
230
-1.0
100
AcDbArc
 50
266.7824849999858
 51
273.223120999998
  0
ARC
  5
196E
330
A
100
AcDbEntity
  8
HEWI
100
AcDbCircle
 10
-2619.44947249244
 20
-1792.918263499955
 30
0.0
 40
1.0
100
AcDbArc
 50
179.9999999999958
 51
270.0
  0
ARC
  5
196F
330
A
100
AcDbEntity
  8
HEWI
100
AcDbCircle
 10
-2586.949472492438
 20
-1792.918263499957
 30
0.0
 40
1.0
100
AcDbArc
 50
270.0
 51
359.9999999999959
  0
ARC
  5
1970
330
A
100
AcDbEntity
  8
HEWI
100
AcDbCircle
 10
-2619.449472492437
 20
-1724.918263499954
 30
0.0
 40
1.0
100
AcDbArc
 50
90.0
 51
179.9999999999958
  0
ARC
  5
1971
330
A
100
AcDbEntity
  8
HEWI
100
AcDbCircle
 10
-2586.949472492436
 20
-1724.918263499956
 30
0.0
 40
1.0
100
AcDbArc
 50
359.9999999999959
 51
90.0
  0
ARC
  5
1972
330
A
100
AcDbEntity
  8
HEWI
100
AcDbCircle
 10
-2145.699472492435
 20
-1705.435299499978
 30
0.0
 40
5.5
100
AcDbArc
 50
78.55311799998559
 51
101.4412400000286
  0
ARC
  5
1973
330
A
100
AcDbEntity
  8
HEWI
100
AcDbCircle
 10
-2145.699472492435
 20
-1705.435299499978
 30
0.0
 40
5.5
100
AcDbArc
 50
258.5587479999804
 51
281.4468699999973
  0
ARC
  5
1974
330
A
100
AcDbEntity
  8
HEWI
100
AcDbCircle
 10
-2145.699472492435
 20
-1705.435299499978
 30
0.0
 40
5.099999999999996
100
AcDbArc
 50
82.5750080000393
 51
97.41937900001438
  0
ARC
  5
1975
330
A
100
AcDbEntity
  8
HEWI
100
AcDbCircle
 10
-2145.699472492435
 20
-1705.435299499978
 30
0.0
 40
5.099999999999996
100
AcDbArc
 50
262.5806319999997
 51
277.4250019999676
  0
CIRCLE
  5
1976
330
A
100
AcDbEntity
  8
HEWI
100
AcDbCircle
 10
2145.699472492435
 20
-1705.435299499978
 30
0.0
 40
21.0
210
0.0
220
0.0
230
-1.0
  0
CIRCLE
  5
1977
330
A
100
AcDbEntity
  8
HEWI
100
AcDbCircle
 10
-2145.699472492435
 20
-1705.435299499978
 30
0.0
 40
20.8
  0
ARC
  5
1978
330
A
100
AcDbEntity
  8
HEWI
100
AcDbCircle
 10
2145.699472492435
 20
-1705.435299499978
 30
0.0
 40
22.5
210
0.0
220
0.0
230
-1.0
100
AcDbArc
 50
270.0
 51
95.40000099999872
  0
ARC
  5
1979
330
A
100
AcDbEntity
  8
HEWI
100
AcDbCircle
 10
2145.699472492435
 20
-1705.435299499978
 30
0.0
 40
22.5
210
0.0
220
0.0
230
-1.0
100
AcDbArc
 50
264.5999979999977
 51
270.0
  0
ARC
  5
197A
330
A
100
AcDbEntity
  8
HEWI
100
AcDbCircle
 10
-2145.699472492435
 20
-1705.435299499978
 30
0.0
 40
22.4
100
AcDbArc
 50
90.0
 51
270.0
  0
ARC
  5
197B
330
A
100
AcDbEntity
  8
HEWI
100
AcDbCircle
 10
2116.599472492435
 20
-1731.335299499979
 30
0.0000000000000846
 40
3.5
210
-0.0000000000000001
220
0.0
230
-1.0
100
AcDbArc
 50
90.0
 51
180.0000000000041
  0
ARC
  5
197C
330
A
100
AcDbEntity
  8
HEWI
100
AcDbCircle
 10
2116.599472492433
 20
-1679.535299499979
 30
0.0000000000000846
 40
3.5
210
-0.0000000000000001
220
0.0
230
-1.0
100
AcDbArc
 50
180.0000000000041
 51
270.0
  0
ARC
  5
197D
330
A
100
AcDbEntity
  8
HEWI
100
AcDbCircle
 10
-2109.599472492441
 20
-1855.935299499979
 30
0.0
 40
3.5
100
AcDbArc
 50
179.9999999999958
 51
270.0
  0
ARC
  5
197E
330
A
100
AcDbEntity
  8
HEWI
100
AcDbCircle
 10
-2109.599472492432
 20
-1652.935299499979
 30
0.0
 40
3.5
100
AcDbArc
 50
90.0
 51
179.9999999999958
  0
ARC
  5
197F
330
A
100
AcDbEntity
  8
HEWI
100
AcDbCircle
 10
-1833.263430396333
 20
-3086.070916101018
 30
0.0
 40
1.0
100
AcDbArc
 50
180.0
 51
270.0
  0
ARC
  5
1980
330
A
100
AcDbEntity
  8
HEWI
100
AcDbCircle
 10
-1801.763430396333
 20
-3086.070916101018
 30
0.0
 40
1.0
100
AcDbArc
 50
270.0
 51
0.0
  0
ARC
  5
1981
330
A
100
AcDbEntity
  8
HEWI
100
AcDbCircle
 10
-1806.013430396314
 20
-2345.970916101018
 30
0.0
 40
0.5
100
AcDbArc
 50
0.0
 51
90.0
  0
ARC
  5
1982
330
A
100
AcDbEntity
  8
HEWI
100
AcDbCircle
 10
-1829.013430396314
 20
-2345.970916101018
 30
0.0
 40
0.5
100
AcDbArc
 50
90.0
 51
180.0
  0
ARC
  5
1983
330
A
100
AcDbEntity
  8
HEWI
100
AcDbCircle
 10
-1859.213430396315
 20
-2355.870916101017
 30
0.0
 40
0.3
100
AcDbArc
 50
90.0
 51
180.0
  0
ARC
  5
1984
330
A
100
AcDbEntity
  8
HEWI
100
AcDbCircle
 10
-1859.213430396315
 20
-2400.270916101017
 30
0.0
 40
0.3
100
AcDbArc
 50
180.0
 51
270.0
  0
ARC
  5
1985
330
A
100
AcDbEntity
  8
HEWI
100
AcDbCircle
 10
-1775.813430396315
 20
-2400.270916101019
 30
0.0
 40
0.3
100
AcDbArc
 50
270.0
 51
0.0
  0
ARC
  5
1986
330
A
100
AcDbEntity
  8
HEWI
100
AcDbCircle
 10
-1775.813430396314
 20
-2355.870916101019
 30
0.0
 40
0.3
100
AcDbArc
 50
0.0
 51
90.0
  0
ARC
  5
1987
330
A
100
AcDbEntity
  8
HEWI
100
AcDbCircle
 10
-1780.013430396314
 20
-2335.170916101019
 30
0.0
 40
10.0
100
AcDbArc
 50
0.0
 51
90.0
  0
ARC
  5
1988
330
A
100
AcDbEntity
  8
HEWI
100
AcDbCircle
 10
-1855.013430396314
 20
-2335.170916101017
 30
0.0
 40
10.0
100
AcDbArc
 50
90.0
 51
180.0
  0
ARC
  5
1989
330
A
100
AcDbEntity
  8
HEWI
100
AcDbCircle
 10
-1780.013430396314
 20
-2334.970916101019
 30
0.0
 40
10.0
100
AcDbArc
 50
0.0
 51
90.0
  0
ARC
  5
198A
330
A
100
AcDbEntity
  8
HEWI
100
AcDbCircle
 10
-1855.013430396314
 20
-2334.970916101017
 30
0.0
 40
10.0
100
AcDbArc
 50
90.0
 51
180.0
  0
ELLIPSE
  5
198B
330
A
100
AcDbEntity
  8
HEWI
100
AcDbEllipse
 10
-2293.999472492438
 20
-1796.338029499971
 30
0.0
 11
0.2
 21
-0.0000000000000091
 31
0.0
210
0.0
220
0.0
230
-1.0
 40
0.90136
 41
2.514698896745267
 42
3.141592653589792
  0
ELLIPSE
  5
198C
330
A
100
AcDbEntity
  8
HEWI
100
AcDbEllipse
 10
-2254.399472492438
 20
-1796.338029499973
 30
0.0
 11
0.2
 21
-0.0000000000000091
 31
0.0
210
0.0
220
0.0
230
-1.0
 40
0.90136
 41
0.0
 42
0.6599300405254424
  0
ELLIPSE
  5
198D
330
A
100
AcDbEntity
  8
HEWI
100
AcDbEllipse
 10
-2662.999472492439
 20
-1796.338029499952
 30
0.0
 11
0.2
 21
-0.0000000000000091
 31
0.0
210
0.0
220
0.0
230
-1.0
 40
0.90136
 41
2.514698896745267
 42
3.141592653589792
  0
ELLIPSE
  5
198E
330
A
100
AcDbEntity
  8
HEWI
100
AcDbEllipse
 10
-2623.39947249244
 20
-1796.338029499954
 30
0.0
 11
0.2
 21
-0.0000000000000091
 31
0.0
210
0.0
220
0.0
230
-1.0
 40
0.90136
 41
0.0
 42
0.6599300405254424
  0
SPLINE
  5
198F
330
A
100
AcDbEntity
  8
HEWI
100
AcDbSpline
210
0.0
220
0.0
230
1.0
 70
     8
 71
     3
 72
    16
 73
    12
 74
     0
 42
0.000000001
 43
0.0000000001
 40
0.0
 40
0.0
 40
0.0
 40
0.0
 40
0.1945552639644181
 40
0.1945552639644181
 40
0.3878946385599309
 40
0.3878946385599309
 40
0.5892372746630532
 40
0.5892372746630532
 40
0.8080348914056749
 40
0.8080348914056749
 40
1.0
 40
1.0
 40
1.0
 40
1.0
 10
-1825.013438603339
 20
-1720.843491486322
 30
0.0
 10
-1825.013420222705
 20
-1720.843499375065
 30
0.0
 10
-1824.979606805692
 20
-1720.858011677755
 30
0.0
 10
-1824.851839078077
 20
-1720.911689716417
 30
0.0
 10
-1824.756783500479
 20
-1720.951259207994
 30
0.0
 10
-1824.515941172863
 20
-1721.048233355578
 30
0.0
 10
-1824.365304249349
 20
-1721.107413026978
 30
0.0
 10
-1824.017030321367
 20
-1721.238218700276
 30
0.0
 10
-1823.811782975353
 20
-1721.312164299158
 30
0.0
 10
-1823.409886779915
 20
-1721.448825518899
 30
0.0
 10
-1823.211183044458
 20
-1721.513185554328
 30
0.0
 10
-1823.013429413021
 20
-1721.573840385898
 30
0.0
  0
SPLINE
  5
1990
330
A
100
AcDbEntity
  8
HEWI
100
AcDbSpline
210
0.0
220
0.0
230
1.0
 70
     8
 71
     3
 72
    16
 73
    12
 74
     0
 42
0.000000001
 43
0.0000000001
 40
0.0
 40
0.0
 40
0.0
 40
0.0
 40
0.2320133565498035
 40
0.2320133565498035
 40
0.464168575931434
 40
0.464168575931434
 40
0.6954789313312828
 40
0.6954789313312828
 40
0.9117015930972556
 40
0.9117015930972556
 40
1.0
 40
1.0
 40
1.0
 40
1.0
 10
-1812.013429413021
 20
-1721.573840385898
 30
0.0
 10
-1811.775355737766
 20
-1721.500818623571
 30
0.0
 10
-1811.535394098875
 20
-1721.422189203931
 30
0.0
 10
-1811.09156795681
 20
-1721.268288577524
 30
0.0
 10
-1810.881224695214
 20
-1721.190823701433
 30
0.0
 10
-1810.520979795869
 20
-1721.052724091473
 30
0.0
 10
-1810.365388604945
 20
-1720.990036426674
 30
0.0
 10
-1810.142968390545
 20
-1720.898558040096
 30
0.0
 10
-1810.067955586613
 20
-1720.866685642421
 30
0.0
 10
-1810.020601271059
 20
-1720.846558013561
 30
0.0
 10
-1810.013512295246
 20
-1720.843530824588
 30
0.0
 10
-1810.013438642063
 20
-1720.843499372003
 30
0.0
  0
SPLINE
  5
1991
330
A
100
AcDbEntity
  8
HEWI
100
AcDbSpline
210
0.0
220
0.0
230
1.0
 70
     8
 71
     3
 72
    12
 73
     8
 74
     0
 42
0.000000001
 43
0.0000000001
 40
0.0
 40
0.0
 40
0.0
 40
0.0
 40
0.3456277780081103
 40
0.3456277780081103
 40
0.6912555560162207
 40
0.6912555560162207
 40
1.0
 40
1.0
 40
1.0
 40
1.0
 10
-1800.51342939681
 20
-1705.435299558415
 30
0.0
 10
-1800.51342939681
 20
-1707.793736785101
 30
0.0
 10
-1801.012184878998
 20
-1710.095104393854
 30
0.0
 10
-1802.779544071251
 20
-1714.20556038431
 30
0.0
 10
-1804.041267184731
 20
-1716.02020389825
 30
0.0
 10
-1806.908472193887
 20
-1718.857561113837
 30
0.0
 10
-1808.45698653341
 20
-1719.95408876449
 30
0.0
 10
-1810.204690096129
 20
-1720.784380700722
 30
0.0
  0
SPLINE
  5
1992
330
A
100
AcDbEntity
  8
HEWI
100
AcDbSpline
210
0.0
220
0.0
230
1.0
 70
     8
 71
     3
 72
     8
 73
     4
 74
     0
 42
0.000000001
 43
0.0000000001
 40
0.0
 40
0.0
 40
0.0
 40
0.0
 40
1.0
 40
1.0
 40
1.0
 40
1.0
 10
-1824.267589642166
 20
-1721.035998243966
 30
0.0
 10
-1824.439654586088
 20
-1720.961545400621
 30
0.0
 10
-1824.609893558904
 20
-1720.884581160347
 30
0.0
 10
-1824.77830309347
 20
-1720.805135098801
 30
0.0
  0
SPLINE
  5
1993
330
A
100
AcDbEntity
  8
HEWI
100
AcDbSpline
210
0.0
220
0.0
230
1.0
 70
     8
 71
     3
 72
    22
 73
    18
 74
     0
 42
0.000000001
 43
0.0000000001
 40
0.0
 40
0.0
 40
0.0
 40
0.0
 40
0.1261546713333348
 40
0.1261546713333348
 40
0.271709779130951
 40
0.271709779130951
 40
0.4172648869285673
 40
0.4172648869285673
 40
0.5628199947261832
 40
0.5628199947261832
 40
0.7083751025237996
 40
0.7083751025237996
 40
0.8539302103214152
 40
0.8539302103214152
 40
0.9994853181190311
 40
0.9994853181190311
 40
1.0
 40
1.0
 40
1.0
 40
1.0
 10
-1824.933913782827
 20
-1720.730769285853
 30
0.0
 10
-1826.624673027495
 20
-1719.912296139006
 30
0.0
 10
-1828.128426296645
 20
-1718.841212386632
 30
0.0
 10
-1830.956703363936
 20
-1716.056037164905
 30
0.0
 10
-1832.221993407889
 20
-1714.247656060207
 30
0.0
 10
-1834.000451862414
 20
-1710.144606577647
 30
0.0
 10
-1834.505392297879
 20
-1707.82338819355
 30
0.0
 10
-1834.52126919001
 20
-1703.163041622036
 30
0.0
 10
-1834.028762019769
 20
-1700.819422005728
 30
0.0
 10
-1832.259291795762
 20
-1696.681895686802
 30
0.0
 10
-1830.996551540741
 20
-1694.864607939222
 30
0.0
 10
-1827.972843867261
 20
-1691.865673440075
 30
0.0
 10
-1826.198304211757
 20
-1690.660258809445
 30
0.0
 10
-1822.199541312221
 20
-1688.949874638162
 30
0.0
 10
-1819.877435933471
 20
-1688.438731635112
 30
0.0
 10
-1817.529968874955
 20
-1688.4353055919
 30
0.0
 10
-1817.521698056765
 20
-1688.435299737567
 30
0.0
 10
-1817.513427810752
 20
-1688.435300094639
 30
0.0
  0
SPLINE
  5
1994
330
A
100
AcDbEntity
  8
HEWI
100
AcDbSpline
210
0.0
220
0.0
230
1.0
 70
     8
 71
     3
 72
    14
 73
    10
 74
     0
 42
0.000000001
 43
0.0000000001
 40
0.0
 40
0.0
 40
0.0
 40
0.0
 40
0.2493364146684839
 40
0.2493364146684839
 40
0.4995576097789893
 40
0.4995576097789893
 40
0.7497788048894947
 40
0.7497788048894947
 40
1.0
 40
1.0
 40
1.0
 40
1.0
 10
-1817.513427811281
 20
-1688.435300094639
 30
0.0
 10
-1815.182823124197
 20
-1688.435400719719
 30
0.0
 10
-1812.897657778247
 20
-1688.928777674632
 30
0.0
 10
-1808.867771635105
 20
-1690.634720796107
 30
0.0
 10
-1807.10449024391
 20
-1691.825178031513
 30
0.0
 10
-1804.05561220542
 20
-1694.83017915792
 30
0.0
 10
-1802.811510912249
 20
-1696.605856984822
 30
0.0
 10
-1801.015582933925
 20
-1700.752722770565
 30
0.0
 10
-1800.51342939681
 20
-1703.07686233173
 30
0.0
 10
-1800.51342939681
 20
-1705.435299558415
 30
0.0
  0
SPLINE
  5
1995
330
A
100
AcDbEntity
  8
HEWI
100
AcDbSpline
210
-0.0000000000000001
220
0.0000000000000013
230
1.0
 70
     8
 71
     3
 72
    10
 73
     6
 74
     0
 42
0.000000001
 43
0.0000000001
 40
0.0
 40
0.0
 40
0.0
 40
0.0
 40
0.0691533484577913
 40
0.5486690255593603
 40
1.0
 40
1.0
 40
1.0
 40
1.0
 10
-2662.445075607911
 20
-1720.863685941436
 30
-0.0000000000000002
 10
-2662.425171900624
 20
-1720.853052696703
 30
-0.0000000000000002
 10
-2662.262026727575
 20
-1720.77186612033
 30
-0.0000000000000002
 10
-2661.823049823889
 20
-1720.678890822933
 30
-0.0000000000000004
 10
-2661.414386713655
 20
-1720.648614539442
 30
-0.0000000000000004
 10
-2661.198357878702
 20
-1720.649607378083
 30
-0.0000000000000004
  0
SPLINE
  5
1996
330
A
100
AcDbEntity
  8
HEWI
100
AcDbSpline
210
-0.0000000000000001
220
0.0000000000000013
230
1.0
 70
     8
 71
     3
 72
    10
 73
     6
 74
     0
 42
0.000000001
 43
0.0000000001
 40
0.0
 40
0.0
 40
0.0
 40
0.0
 40
0.0691533484577913
 40
0.5486690255593603
 40
1.0
 40
1.0
 40
1.0
 40
1.0
 10
-2662.445075607911
 20
-1720.863685941436
 30
-0.0000000000000002
 10
-2662.425171900624
 20
-1720.853052696703
 30
-0.0000000000000002
 10
-2662.262026727575
 20
-1720.77186612033
 30
-0.0000000000000002
 10
-2661.823049823889
 20
-1720.678890822933
 30
-0.0000000000000004
 10
-2661.414386713655
 20
-1720.648614539442
 30
-0.0000000000000004
 10
-2661.198357878702
 20
-1720.649607378083
 30
-0.0000000000000004
  0
SPLINE
  5
1997
330
A
100
AcDbEntity
  8
HEWI
100
AcDbSpline
210
0.0
220
0.0
230
1.0
 70
     8
 71
     3
 72
    11
 73
     7
 74
     0
 42
0.000000001
 43
0.0000000001
 40
0.0
 40
0.0
 40
0.0
 40
0.0
 40
0.0085407042298158
 40
0.294495578516009
 40
0.6285837272446312
 40
1.0
 40
1.0
 40
1.0
 40
1.0
 10
-2663.197272442336
 20
-1721.573240321816
 30
-0.0000000000000002
 10
-2663.198021111379
 20
-1721.570599158406
 30
-0.0000000000000002
 10
-2663.222608634465
 20
-1721.479682866448
 30
-0.0000000000000002
 10
-2663.111457572389
 20
-1721.283086793521
 30
-0.0000000000000002
 10
-2662.886706398742
 20
-1721.058468465614
 30
-0.0000000000000002
 10
-2662.613661785416
 20
-1720.923733365467
 30
-0.0000000000000002
 10
-2662.445075607911
 20
-1720.863685941436
 30
-0.0000000000000002
  0
SPLINE
  5
1998
330
A
100
AcDbEntity
  8
HEWI
100
AcDbSpline
210
0.0
220
0.0
230
1.0
 70
     8
 71
     3
 72
    12
 73
     8
 74
     0
 42
0.000000001
 43
0.0000000001
 40
0.0
 40
0.0
 40
0.0
 40
0.0
 40
0.129584674490289
 40
0.3660981216981058
 40
0.6122957521584437
 40
0.8793126725148667
 40
1.0
 40
1.0
 40
1.0
 40
1.0
 10
-2624.930891038856
 20
-1720.66631270837
 30
0.0
 10
-2624.80460584585
 20
-1720.669360544408
 30
0.0
 10
-2624.464147937433
 20
-1720.69391428192
 30
0.0
 10
-2623.954782845101
 20
-1720.836252802985
 30
0.0
 10
-2623.498206616418
 20
-1721.067335482013
 30
0.0
 10
-2623.231702963005
 20
-1721.309959571249
 30
0.0
 10
-2623.216800364065
 20
-1721.510193366113
 30
0.0
 10
-2623.222841835135
 20
-1721.576360844928
 30
0.0
  0
SPLINE
  5
1999
330
A
100
AcDbEntity
  8
HEWI
100
AcDbSpline
210
-0.0000000000000001
220
0.0000000000000013
230
1.0
 70
     8
 71
     3
 72
    10
 73
     6
 74
     0
 42
0.000000001
 43
0.0000000001
 40
0.0
 40
0.0
 40
0.0
 40
0.0
 40
0.0691533484577662
 40
0.5486690255593675
 40
1.0
 40
1.0
 40
1.0
 40
1.0
 10
-2293.445075607912
 20
-1720.863685941455
 30
0.0
 10
-2293.425171900622
 20
-1720.853052696722
 30
0.0
 10
-2293.262026727577
 20
-1720.771866120349
 30
-0.0000000000000002
 10
-2292.823049823888
 20
-1720.678890822952
 30
-0.0000000000000002
 10
-2292.414386713653
 20
-1720.648614539461
 30
-0.0000000000000002
 10
-2292.198357878702
 20
-1720.649607378102
 30
-0.0000000000000002
  0
SPLINE
  5
199A
330
A
100
AcDbEntity
  8
HEWI
100
AcDbSpline
210
-0.0000000000000001
220
0.0000000000000013
230
1.0
 70
     8
 71
     3
 72
    10
 73
     6
 74
     0
 42
0.000000001
 43
0.0000000001
 40
0.0
 40
0.0
 40
0.0
 40
0.0
 40
0.0691533484577662
 40
0.5486690255593675
 40
1.0
 40
1.0
 40
1.0
 40
1.0
 10
-2293.445075607912
 20
-1720.863685941455
 30
0.0
 10
-2293.425171900622
 20
-1720.853052696722
 30
0.0
 10
-2293.262026727577
 20
-1720.771866120349
 30
-0.0000000000000002
 10
-2292.823049823888
 20
-1720.678890822952
 30
-0.0000000000000002
 10
-2292.414386713653
 20
-1720.648614539461
 30
-0.0000000000000002
 10
-2292.198357878702
 20
-1720.649607378102
 30
-0.0000000000000002
  0
SPLINE
  5
199B
330
A
100
AcDbEntity
  8
HEWI
100
AcDbSpline
210
0.0
220
0.0
230
1.0
 70
     8
 71
     3
 72
    11
 73
     7
 74
     0
 42
0.000000001
 43
0.0000000001
 40
0.0
 40
0.0
 40
0.0
 40
0.0
 40
0.0085407042298183
 40
0.2944955785160063
 40
0.6285837272446198
 40
1.0
 40
1.0
 40
1.0
 40
1.0
 10
-2294.197272442336
 20
-1721.573240321835
 30
0.0
 10
-2294.198021111377
 20
-1721.570599158425
 30
0.0
 10
-2294.222608634465
 20
-1721.479682866467
 30
0.0
 10
-2294.111457572389
 20
-1721.28308679354
 30
0.0
 10
-2293.88670639874
 20
-1721.058468465633
 30
0.0
 10
-2293.613661785416
 20
-1720.923733365486
 30
0.0
 10
-2293.445075607912
 20
-1720.863685941455
 30
0.0
  0
SPLINE
  5
199C
330
A
100
AcDbEntity
  8
HEWI
100
AcDbSpline
210
0.0
220
0.0
230
1.0
 70
     8
 71
     3
 72
    12
 73
     8
 74
     0
 42
0.000000001
 43
0.0000000001
 40
0.0
 40
0.0
 40
0.0
 40
0.0
 40
0.1295846744902901
 40
0.3660981216981005
 40
0.6122957521584405
 40
0.8793126725148658
 40
1.0
 40
1.0
 40
1.0
 40
1.0
 10
-2255.930891038856
 20
-1720.666312708388
 30
0.0000000000000002
 10
-2255.804605845851
 20
-1720.669360544427
 30
0.0000000000000002
 10
-2255.464147937432
 20
-1720.693914281939
 30
0.0000000000000002
 10
-2254.954782845102
 20
-1720.836252803004
 30
0.0000000000000002
 10
-2254.498206616419
 20
-1721.067335482032
 30
0.0000000000000002
 10
-2254.231702963003
 20
-1721.309959571267
 30
0.0000000000000002
 10
-2254.216800364066
 20
-1721.510193366131
 30
0.0000000000000002
 10
-2254.222841835136
 20
-1721.576360844947
 30
0.0000000000000002
  0
SPLINE
  5
199D
330
A
100
AcDbEntity
  8
HEWI
100
AcDbSpline
210
-0.0000000000000001
220
-0.0000000000000006
230
1.0
 70
     8
 71
     3
 72
    16
 73
    12
 74
     0
 42
0.000000001
 43
0.0000000001
 40
0.0
 40
0.0
 40
0.0
 40
0.0
 40
0.0127710530080071
 40
0.0127710530080071
 40
0.298714081222836
 40
0.298714081222836
 40
0.5432081856598872
 40
0.5432081856598872
 40
0.7705827780638037
 40
0.7705827780638037
 40
1.0
 40
1.0
 40
1.0
 40
1.0
 10
-2293.890012434761
 20
-1796.831380670521
 30
0.0
 10
-2293.886968507334
 20
-1796.835887861082
 30
0.0
 10
-2293.883863819058
 20
-1796.840392501291
 30
0.0
 10
-2293.809672897114
 20
-1796.945906999662
 30
0.0
 10
-2293.706644865528
 20
-1797.047752142956
 30
0.0
 10
-2293.465623659223
 20
-1797.221368090888
 30
0.0
 10
-2293.33241998474
 20
-1797.29693372193
 30
-0.0000000000000002
 10
-2293.043462221273
 20
-1797.419638835179
 30
-0.0000000000000002
 10
-2292.886801635458
 20
-1797.469486291495
 30
-0.0000000000000002
 10
-2292.555481436901
 20
-1797.537838816138
 30
-0.0000000000000002
 10
-2292.376275317674
 20
-1797.556653058246
 30
-0.0000000000000002
 10
-2292.199472311055
 20
-1797.556653058246
 30
-0.0000000000000002
  0
SPLINE
  5
199E
330
A
100
AcDbEntity
  8
HEWI
100
AcDbSpline
210
0.0000000000000002
220
-0.0000000000000002
230
1.0
 70
     8
 71
     3
 72
    16
 73
    12
 74
     0
 42
0.000000001
 43
0.0000000001
 40
0.0
 40
0.0
 40
0.0
 40
0.0
 40
0.2318639328501264
 40
0.2318639328501264
 40
0.4638696371680758
 40
0.4638696371680758
 40
0.6950310216224952
 40
0.6950310216224952
 40
0.9111144293793211
 40
0.9111144293793211
 40
1.0
 40
1.0
 40
1.0
 40
1.0
 10
-2294.199472311051
 20
-1721.573840385871
 30
0.0
 10
-2294.199472311051
 20
-1721.500818623544
 30
0.0
 10
-2294.155891184424
 20
-1721.422189203903
 30
0.0
 10
-2293.99009080655
 20
-1721.268288577496
 30
0.0
 10
-2293.865422154766
 20
-1721.190823701405
 30
0.0
 10
-2293.551997402044
 20
-1721.052724091445
 30
0.0
 10
-2293.358438251578
 20
-1720.990036426646
 30
0.0
 10
-2292.943239525111
 20
-1720.898558040068
 30
-0.0000000000000002
 10
-2292.717832705427
 20
-1720.866685642393
 30
-0.0000000000000002
 10
-2292.39327147138
 20
-1720.846514986287
 30
-0.0000000000000002
 10
-2292.29622385762
 20
-1720.843495430667
 30
-0.0000000000000002
 10
-2292.199472311051
 20
-1720.843495430667
 30
-0.0000000000000002
  0
SPLINE
  5
199F
330
A
100
AcDbEntity
  8
HEWI
100
AcDbSpline
210
0.0000000000000002
220
0.0000000000000002
230
1.0
 70
     8
 71
     3
 72
    16
 73
    12
 74
     0
 42
0.000000001
 43
0.0000000001
 40
0.0
 40
0.0
 40
0.0
 40
0.0
 40
0.1771404143545236
 40
0.1771404143545236
 40
0.3522186943510297
 40
0.3522186943510297
 40
0.539954319336339
 40
0.539954319336339
 40
0.7594025013289695
 40
0.7594025013289695
 40
1.0
 40
1.0
 40
1.0
 40
1.0
 10
-2292.199472311055
 20
-1797.392994714224
 30
-0.0000000000000002
 10
-2292.395824120806
 20
-1797.392994714224
 30
-0.0000000000000002
 10
-2292.594792700803
 20
-1797.373925719664
 30
-0.0000000000000002
 10
-2292.962871813107
 20
-1797.304489824714
 30
-0.0000000000000002
 10
-2293.136978520309
 20
-1797.253889359794
 30
-0.0000000000000002
 10
-2293.458095957352
 20
-1797.129200285794
 30
0.0
 10
-2293.606214219593
 20
-1797.052406393202
 30
0.0
 10
-2293.87412865951
 20
-1796.875938094341
 30
0.0
 10
-2293.988650620487
 20
-1796.772390176687
 30
0.0
 10
-2294.153760232224
 20
-1796.557671439558
 30
0.0
 10
-2294.199472311055
 20
-1796.4437023746
 30
0.0
 10
-2294.199472311055
 20
-1796.338029142634
 30
0.0
  0
SPLINE
  5
19A0
330
A
100
AcDbEntity
  8
HEWI
100
AcDbSpline
210
0.0
220
0.0
230
1.0
 70
     8
 71
     3
 72
    16
 73
    12
 74
     0
 42
0.000000001
 43
0.0000000001
 40
0.0
 40
0.0
 40
0.0
 40
0.0
 40
0.1945552639644179
 40
0.1945552639644179
 40
0.3878946385599321
 40
0.3878946385599321
 40
0.5892372746630514
 40
0.5892372746630514
 40
0.8080348914056751
 40
0.8080348914056751
 40
1.0
 40
1.0
 40
1.0
 40
1.0
 10
-2256.199472311051
 20
-1720.843495430669
 30
0.0000000000000002
 10
-2255.990455103071
 20
-1720.843495430669
 30
0.0000000000000002
 10
-2255.778627160578
 20
-1720.858011677728
 30
0.0000000000000002
 10
-2255.38536060678
 20
-1720.911689716391
 30
0.0000000000000002
 10
-2255.198620222561
 20
-1720.951259207968
 30
0.0000000000000002
 10
-2254.862713289117
 20
-1721.048233355553
 30
0.0000000000000002
 10
-2254.711045789896
 20
-1721.107413026951
 30
0.0000000000000002
 10
-2254.454936342383
 20
-1721.238218700251
 30
0.0000000000000002
 10
-2254.352149322304
 20
-1721.312164299131
 30
0.0000000000000002
 10
-2254.22931616944
 20
-1721.448825518873
 30
0.0000000000000002
 10
-2254.199472311052
 20
-1721.513185554301
 30
0.0000000000000002
 10
-2254.199472311052
 20
-1721.573840385872
 30
0.0000000000000002
  0
SPLINE
  5
19A1
330
A
100
AcDbEntity
  8
HEWI
100
AcDbSpline
210
0.0
220
0.0
230
1.0
 70
     8
 71
     3
 72
    16
 73
    12
 74
     0
 42
0.000000001
 43
0.0000000001
 40
0.0
 40
0.0
 40
0.0
 40
0.0
 40
0.2481016251448624
 40
0.2481016251448624
 40
0.4963851440995061
 40
0.4963851440995061
 40
0.7438538839225557
 40
0.7438538839225557
 40
0.9181884979193776
 40
0.9181884979193776
 40
1.0
 40
1.0
 40
1.0
 40
1.0
 10
-2254.199472311055
 20
-1796.338029142636
 30
0.0000000000000002
 10
-2254.199472311055
 20
-1796.447017104651
 30
0.0000000000000002
 10
-2254.24815580824
 20
-1796.564895138853
 30
0.0000000000000002
 10
-2254.43149070911
 20
-1796.796268565081
 30
0.0000000000000002
 10
-2254.568933989871
 20
-1796.913271612607
 30
0.0000000000000002
 10
-2254.916348483903
 20
-1797.120993411276
 30
0.0000000000000002
 10
-2255.132726039178
 20
-1797.215206539684
 30
0.0000000000000002
 10
-2255.545091527046
 20
-1797.32954391726
 30
0.0000000000000002
 10
-2255.733154623895
 20
-1797.36427681005
 30
0.0000000000000002
 10
-2256.015255424224
 20
-1797.388944479237
 30
0.0000000000000002
 10
-2256.107512575826
 20
-1797.392994714225
 30
0.0000000000000002
 10
-2256.199472311055
 20
-1797.392994714225
 30
0.0000000000000002
  0
SPLINE
  5
19A2
330
A
100
AcDbEntity
  8
HEWI
100
AcDbSpline
210
0.0
220
0.0
230
1.0
 70
     8
 71
     3
 72
    16
 73
    12
 74
     0
 42
0.000000001
 43
0.0000000001
 40
0.0
 40
0.0
 40
0.0
 40
0.0
 40
0.1053123592843669
 40
0.1053123592843669
 40
0.3301327988397534
 40
0.3301327988397534
 40
0.6504275187068417
 40
0.6504275187068417
 40
0.9722491720567552
 40
0.9722491720567552
 40
1.0
 40
1.0
 40
1.0
 40
1.0
 10
-2256.199472311055
 20
-1797.556653058248
 30
0.0000000000000002
 10
-2256.116699370036
 20
-1797.556653058248
 30
0.0000000000000002
 10
-2256.033650537244
 20
-1797.552664065097
 30
0.0000000000000002
 10
-2255.779575610794
 20
-1797.528367247772
 30
0.0000000000000002
 10
-2255.610267597495
 20
-1797.494122038212
 30
0.0000000000000002
 10
-2255.238943776268
 20
-1797.38152615548
 30
0.0000000000000002
 10
-2255.044429396691
 20
-1797.288783886873
 30
0.0000000000000002
 10
-2254.731971816658
 20
-1797.084474185581
 30
0.0000000000000002
 10
-2254.608356475652
 20
-1796.969417479444
 30
0.0000000000000002
 10
-2254.518645294696
 20
-1796.845600933062
 30
0.0000000000000002
 10
-2254.511809601324
 20
-1796.835752527526
 30
0.0000000000000002
 10
-2254.50526471646
 20
-1796.825893512625
 30
0.0000000000000002
  0
SPLINE
  5
19A3
330
A
100
AcDbEntity
  8
HEWI
100
AcDbSpline
210
0.0
220
0.0
230
1.0
 70
     8
 71
     3
 72
     8
 73
     4
 74
     0
 42
0.000000001
 43
0.0000000001
 40
0.0
 40
0.0
 40
0.0
 40
0.0
 40
1.0
 40
1.0
 40
1.0
 40
1.0
 10
-2255.940634924985
 20
-1720.671601108367
 30
0.0000000000000002
 10
-2256.026428126518
 20
-1720.66577171067
 30
0.0000000000000002
 10
-2256.113217821017
 20
-1720.662754130129
 30
0.0000000000000002
 10
-2256.199472311051
 20
-1720.662754130129
 30
0.0000000000000002
  0
SPLINE
  5
19A4
330
A
100
AcDbEntity
  8
HEWI
100
AcDbSpline
210
0.0000000000000002
220
0.0000000000000002
230
1.0
 70
     8
 71
     3
 72
    16
 73
    12
 74
     0
 42
0.000000001
 43
0.0000000001
 40
0.0
 40
0.0
 40
0.0
 40
0.0
 40
0.1771404143545236
 40
0.1771404143545236
 40
0.3522186943510297
 40
0.3522186943510297
 40
0.539954319336339
 40
0.539954319336339
 40
0.7594025013289695
 40
0.7594025013289695
 40
1.0
 40
1.0
 40
1.0
 40
1.0
 10
-2661.199472311055
 20
-1797.392994714207
 30
-0.0000000000000004
 10
-2661.395824120807
 20
-1797.392994714207
 30
-0.0000000000000004
 10
-2661.594792700805
 20
-1797.373925719645
 30
-0.0000000000000004
 10
-2661.962871813109
 20
-1797.304489824695
 30
-0.0000000000000004
 10
-2662.13697852031
 20
-1797.253889359776
 30
-0.0000000000000004
 10
-2662.458095957354
 20
-1797.129200285775
 30
-0.0000000000000002
 10
-2662.606214219594
 20
-1797.052406393183
 30
-0.0000000000000002
 10
-2662.874128659511
 20
-1796.875938094322
 30
-0.0000000000000002
 10
-2662.988650620488
 20
-1796.772390176668
 30
-0.0000000000000002
 10
-2663.153760232225
 20
-1796.557671439539
 30
-0.0000000000000002
 10
-2663.199472311056
 20
-1796.443702374581
 30
-0.0000000000000002
 10
-2663.199472311056
 20
-1796.338029142615
 30
-0.0000000000000002
  0
SPLINE
  5
19A5
330
A
100
AcDbEntity
  8
HEWI
100
AcDbSpline
210
0.0000000000000002
220
0.0000000000000003
230
1.0
 70
     8
 71
     3
 72
    16
 73
    12
 74
     0
 42
0.000000001
 43
0.0000000001
 40
0.0
 40
0.0
 40
0.0
 40
0.0
 40
0.012771053008153
 40
0.012771053008153
 40
0.2987140812229396
 40
0.2987140812229396
 40
0.5432081856599547
 40
0.5432081856599547
 40
0.7705827780638374
 40
0.7705827780638374
 40
1.0
 40
1.0
 40
1.0
 40
1.0
 10
-2662.890012434762
 20
-1796.831380670502
 30
-0.0000000000000002
 10
-2662.886968507334
 20
-1796.835887861064
 30
-0.0000000000000002
 10
-2662.883863819058
 20
-1796.840392501272
 30
-0.0000000000000002
 10
-2662.809672897116
 20
-1796.945906999643
 30
-0.0000000000000002
 10
-2662.706644865529
 20
-1797.047752142937
 30
-0.0000000000000002
 10
-2662.465623659223
 20
-1797.221368090869
 30
-0.0000000000000002
 10
-2662.332419984741
 20
-1797.296933721911
 30
-0.0000000000000002
 10
-2662.043462221273
 20
-1797.41963883516
 30
-0.0000000000000004
 10
-2661.886801635459
 20
-1797.469486291476
 30
-0.0000000000000004
 10
-2661.5554814369
 20
-1797.53783881612
 30
-0.0000000000000004
 10
-2661.376275317677
 20
-1797.556653058228
 30
-0.0000000000000004
 10
-2661.199472311055
 20
-1797.556653058228
 30
-0.0000000000000004
  0
SPLINE
  5
19A6
330
A
100
AcDbEntity
  8
HEWI
100
AcDbSpline
210
0.0
220
0.0
230
1.0
 70
     8
 71
     3
 72
    16
 73
    12
 74
     0
 42
0.000000001
 43
0.0000000001
 40
0.0
 40
0.0
 40
0.0
 40
0.0
 40
0.1053123592843732
 40
0.1053123592843732
 40
0.3301327988397731
 40
0.3301327988397731
 40
0.6504275187068807
 40
0.6504275187068807
 40
0.9722491720568131
 40
0.9722491720568131
 40
1.0
 40
1.0
 40
1.0
 40
1.0
 10
-2625.199472311055
 20
-1797.556653058229
 30
0.0
 10
-2625.116699370036
 20
-1797.556653058229
 30
0.0
 10
-2625.033650537246
 20
-1797.552664065079
 30
0.0
 10
-2624.779575610794
 20
-1797.528367247753
 30
0.0
 10
-2624.610267597495
 20
-1797.494122038193
 30
0.0
 10
-2624.238943776269
 20
-1797.381526155462
 30
0.0
 10
-2624.044429396693
 20
-1797.288783886855
 30
0.0
 10
-2623.731971816662
 20
-1797.084474185562
 30
0.0
 10
-2623.608356475653
 20
-1796.969417479426
 30
0.0
 10
-2623.518645294697
 20
-1796.845600933044
 30
0.0
 10
-2623.511809601322
 20
-1796.835752527508
 30
0.0
 10
-2623.505264716463
 20
-1796.825893512606
 30
0.0
  0
SPLINE
  5
19A7
330
A
100
AcDbEntity
  8
HEWI
100
AcDbSpline
210
0.0
220
0.0
230
1.0
 70
     8
 71
     3
 72
    16
 73
    12
 74
     0
 42
0.000000001
 43
0.0000000001
 40
0.0
 40
0.0
 40
0.0
 40
0.0
 40
0.1945552639644179
 40
0.1945552639644179
 40
0.3878946385599321
 40
0.3878946385599321
 40
0.5892372746630514
 40
0.5892372746630514
 40
0.8080348914056751
 40
0.8080348914056751
 40
1.0
 40
1.0
 40
1.0
 40
1.0
 10
-2625.199472311053
 20
-1720.84349543065
 30
0.0
 10
-2624.990455103073
 20
-1720.84349543065
 30
0.0
 10
-2624.778627160582
 20
-1720.858011677711
 30
0.0
 10
-2624.38536060678
 20
-1720.911689716373
 30
0.0
 10
-2624.198620222561
 20
-1720.95125920795
 30
0.0
 10
-2623.862713289118
 20
-1721.048233355534
 30
0.0
 10
-2623.711045789897
 20
-1721.107413026933
 30
0.0
 10
-2623.454936342383
 20
-1721.238218700232
 30
0.0
 10
-2623.352149322303
 20
-1721.312164299113
 30
0.0
 10
-2623.229316169441
 20
-1721.448825518854
 30
0.0
 10
-2623.199472311052
 20
-1721.513185554284
 30
0.0
 10
-2623.199472311052
 20
-1721.573840385854
 30
0.0
  0
SPLINE
  5
19A8
330
A
100
AcDbEntity
  8
HEWI
100
AcDbSpline
210
0.0
220
0.0
230
1.0
 70
     8
 71
     3
 72
    16
 73
    12
 74
     0
 42
0.000000001
 43
0.0000000001
 40
0.0
 40
0.0
 40
0.0
 40
0.0
 40
0.2481016251448624
 40
0.2481016251448624
 40
0.4963851440995061
 40
0.4963851440995061
 40
0.7438538839225557
 40
0.7438538839225557
 40
0.9181884979193776
 40
0.9181884979193776
 40
1.0
 40
1.0
 40
1.0
 40
1.0
 10
-2623.199472311054
 20
-1796.338029142617
 30
0.0
 10
-2623.199472311054
 20
-1796.447017104632
 30
0.0
 10
-2623.248155808242
 20
-1796.564895138834
 30
0.0
 10
-2623.43149070911
 20
-1796.796268565062
 30
0.0
 10
-2623.568933989871
 20
-1796.913271612588
 30
0.0
 10
-2623.916348483903
 20
-1797.120993411257
 30
0.0
 10
-2624.132726039178
 20
-1797.215206539665
 30
0.0
 10
-2624.545091527047
 20
-1797.329543917241
 30
0.0
 10
-2624.733154623895
 20
-1797.364276810031
 30
0.0
 10
-2625.015255424226
 20
-1797.388944479221
 30
0.0
 10
-2625.107512575827
 20
-1797.392994714207
 30
0.0
 10
-2625.199472311055
 20
-1797.392994714207
 30
0.0
  0
SPLINE
  5
19A9
330
A
100
AcDbEntity
  8
HEWI
100
AcDbSpline
210
0.0
220
0.0
230
1.0
 70
     8
 71
     3
 72
     8
 73
     4
 74
     0
 42
0.000000001
 43
0.0000000001
 40
0.0
 40
0.0
 40
0.0
 40
0.0
 40
1.0
 40
1.0
 40
1.0
 40
1.0
 10
-2624.940634924985
 20
-1720.671601108348
 30
0.0
 10
-2625.02642812652
 20
-1720.665771710653
 30
0.0
 10
-2625.113217821019
 20
-1720.66275413011
 30
0.0
 10
-2625.199472311053
 20
-1720.66275413011
 30
0.0
  0
SPLINE
  5
19AD
330
A
100
AcDbEntity
  8
HEWI
100
AcDbSpline
210
0.0
220
-0.0000000000000002
230
1.0
 70
     8
 71
     3
 72
    14
 73
    10
 74
     0
 42
0.000000001
 43
0.0000000001
 40
0.0
 40
0.0
 40
0.0
 40
0.0
 40
0.2499087050623483
 40
0.2499087050623483
 40
0.4999391367082322
 40
0.4999391367082322
 40
0.7499695683541161
 40
0.7499695683541161
 40
1.0
 40
1.0
 40
1.0
 40
1.0
 10
-2650.749440446652
 20
-1820.285280284261
 30
-0.0000000000000002
 10
-2650.75533948644
 20
-1820.288803235283
 30
-0.0000000000000002
 10
-2649.903105555319
 20
-1819.732960387181
 30
-0.0000000000000002
 10
-2647.179532312559
 20
-1818.445851864195
 30
-0.0000000000000004
 10
-2645.243629698958
 20
-1817.750526817093
 30
0.0000000000000004
 10
-2641.183908713826
 20
-1817.744700720385
 30
0.0000000000000002
 10
-2639.248464794941
 20
-1818.433556149207
 30
0.0
 10
-2636.496262846303
 20
-1819.731341796849
 30
-0.0000000000000002
 10
-2635.649458914129
 20
-1820.285308310236
 30
-0.0000000000000002
 10
-2635.64946969567
 20
-1820.285301270566
 30
-0.0000000000000002
  0
SPLINE
  5
19AE
330
A
100
AcDbEntity
  8
HEWI
100
AcDbSpline
210
0.0
220
-0.0000000000000002
230
1.0
 70
     8
 71
     3
 72
    14
 73
    10
 74
     0
 42
0.000000001
 43
0.0000000001
 40
0.0
 40
0.0
 40
0.0
 40
0.0
 40
0.249909423420967
 40
0.249909423420967
 40
0.4999405692898073
 40
0.4999405692898073
 40
0.7499717151586476
 40
0.7499717151586476
 40
1.0
 40
1.0
 40
1.0
 40
1.0
 10
-2281.749440446334
 20
-1820.285280284091
 30
0.0
 10
-2281.755339517019
 20
-1820.288803255244
 30
0.0
 10
-2280.903105579744
 20
-1819.732960398742
 30
0.0
 10
-2278.179532312561
 20
-1818.445851864213
 30
-0.0000000000000002
 10
-2276.243629698958
 20
-1817.75052681711
 30
-0.0000000000000002
 10
-2272.183908713826
 20
-1817.744700720403
 30
0.0000000000000004
 10
-2270.24846479494
 20
-1818.433556149225
 30
0.0000000000000002
 10
-2267.49627859259
 20
-1819.731334371791
 30
0.0
 10
-2266.649478293617
 20
-1820.285295632513
 30
0.0
 10
-2266.649469695632
 20
-1820.285301270608
 30
0.0
  0
SPLINE
  5
19B2
330
A
100
AcDbEntity
  8
HEWI
100
AcDbSpline
210
0.0000000000000002
220
-0.0000000000000002
230
1.0
 70
     8
 71
     3
 72
    16
 73
    12
 74
     0
 42
0.000000001
 43
0.0000000001
 40
0.0
 40
0.0
 40
0.0
 40
0.0
 40
0.2318639328501264
 40
0.2318639328501264
 40
0.4638696371680758
 40
0.4638696371680758
 40
0.6950310216224952
 40
0.6950310216224952
 40
0.9111144293793211
 40
0.9111144293793211
 40
1.0
 40
1.0
 40
1.0
 40
1.0
 10
-2663.199472311053
 20
-1721.573840385852
 30
-0.0000000000000002
 10
-2663.199472311053
 20
-1721.500818623525
 30
-0.0000000000000002
 10
-2663.155891184425
 20
-1721.422189203885
 30
-0.0000000000000002
 10
-2662.990090806551
 20
-1721.268288577477
 30
-0.0000000000000002
 10
-2662.865422154767
 20
-1721.190823701386
 30
-0.0000000000000002
 10
-2662.551997402043
 20
-1721.052724091426
 30
-0.0000000000000002
 10
-2662.358438251579
 20
-1720.990036426628
 30
-0.0000000000000002
 10
-2661.943239525113
 20
-1720.898558040049
 30
-0.0000000000000004
 10
-2661.717832705428
 20
-1720.866685642374
 30
-0.0000000000000004
 10
-2661.393271471382
 20
-1720.846514986268
 30
-0.0000000000000004
 10
-2661.296223857621
 20
-1720.843495430649
 30
-0.0000000000000004
 10
-2661.199472311053
 20
-1720.843495430649
 30
-0.0000000000000004
  0
SPLINE
  5
19B3
330
A
100
AcDbEntity
  8
HEWI
100
AcDbSpline
210
0.0
220
0.0000000000000001
230
1.0
 70
     8
 71
     3
 72
    16
 73
    12
 74
     0
 42
0.000000001
 43
0.0000000001
 40
0.0
 40
0.0
 40
0.0
 40
0.0
 40
0.24976624795592
 40
0.24976624795592
 40
0.4995497416883016
 40
0.4995497416883016
 40
0.7493332354206832
 40
0.7493332354206832
 40
0.9991167291530643
 40
0.9991167291530643
 40
1.0
 40
1.0
 40
1.0
 40
1.0
 10
-1834.513332801116
 20
-2400.570841816944
 30
-0.0000000000000024
 10
-1834.521201599942
 20
-2400.576786281993
 30
-0.0000000000000024
 10
-1834.028701355139
 20
-2400.198631145991
 30
-0.0000000000000024
 10
-1832.259292215809
 20
-2398.911309299703
 30
-0.0000000000000026
 10
-1830.996551960788
 20
-2398.012514156793
 30
-0.0000000000000026
 10
-1827.972844287309
 20
-2396.106217736519
 30
-0.0000000000000028
 10
-1826.198304631805
 20
-2395.081547744222
 30
-0.0000000000000028
 10
-1822.199541732269
 20
-2393.429763273954
 30
-0.0000000000000028
 10
-1819.877436353519
 20
-2392.814276538655
 30
-0.000000000000003
 10
-1817.529968938246
 20
-2392.810325048963
 30
-0.000000000000003
 10
-1817.521697763346
 20
-2392.810318645652
 30
-0.000000000000003
 10
-1817.513427160674
 20
-2392.810319746424
 30
-0.000000000000003
  0
SPLINE
  5
19B4
330
A
100
AcDbEntity
  8
HEWI
100
AcDbSpline
210
0.0
220
0.0000000000000001
230
1.0
 70
     8
 71
     3
 72
    14
 73
    10
 74
     0
 42
0.000000001
 43
0.0000000001
 40
0.0
 40
0.0
 40
0.0
 40
0.0
 40
0.2493364395575
 40
0.2493364395575
 40
0.4995576263716667
 40
0.4995576263716667
 40
0.7497788131858333
 40
0.7497788131858333
 40
1.0
 40
1.0
 40
1.0
 40
1.0
 10
-1817.513429161079
 20
-2392.810319746158
 30
-0.000000000000003
 10
-1815.182824151994
 20
-2392.810629596093
 30
-0.000000000000003
 10
-1812.897658465763
 20
-2393.406822121628
 30
-0.0000000000000028
 10
-1808.867772055152
 20
-2395.059386835472
 30
-0.0000000000000028
 10
-1807.104490663958
 20
-2396.076254694734
 30
-0.0000000000000028
 10
-1804.055612625469
 20
-2397.9947471425
 30
-0.0000000000000026
 10
-1802.811511332296
 20
-2398.879953740171
 30
-0.0000000000000026
 10
-1801.015583353972
 20
-2400.185358795483
 30
-0.0000000000000024
 10
-1800.513417124073
 20
-2400.570924861667
 30
-0.0000000000000024
 10
-1800.513427337954
 20
-2400.570917021041
 30
-0.0000000000000024
  0
SPLINE
  5
19B5
330
A
100
AcDbEntity
  8
HEWI
100
AcDbSpline
210
0.0
220
0.0
230
1.0
 70
    24
 71
     1
 72
     5
 73
     3
 74
     0
 42
0.000000001
 43
0.0000000001
 40
0.0
 40
0.0
 40
0.2666666666666667
 40
1.0
 40
1.0
 10
-1761.013429413022
 20
-1705.435299559666
 30
0.0
 10
-1765.013429413022
 20
-1705.435299559666
 30
0.0
 10
-1776.01342941302
 20
-1705.435299559666
 30
0.0
  0
SPLINE
  5
19B6
330
A
100
AcDbEntity
  8
HEWI
100
AcDbSpline
210
0.0
220
0.0
230
1.0
 70
    24
 71
     1
 72
     5
 73
     3
 74
     0
 42
0.000000001
 43
0.0000000001
 40
0.0
 40
0.0
 40
0.2666666666666667
 40
1.0
 40
1.0
 10
-1874.013429413022
 20
-1705.435299559663
 30
0.0
 10
-1870.013429413022
 20
-1705.435299559663
 30
0.0
 10
-1859.013429413022
 20
-1705.435299559663
 30
0.0
  0
SPLINE
  5
19B8
330
A
100
AcDbEntity
  8
HEWI
100
AcDbSpline
210
0.0
220
0.0
230
1.0
 70
    24
 71
     1
 72
     5
 73
     3
 74
     0
 42
0.000000001
 43
0.0000000001
 40
0.0
 40
0.0
 40
0.6800000000000001
 40
1.0
 40
1.0
 10
-1866.013429413021
 20
-1705.435299559663
 30
0.0
 10
-1857.513429413021
 20
-1705.435299559663
 30
0.0
 10
-1853.513429413021
 20
-1705.435299559663
 30
0.0
  0
SPLINE
  5
19B9
330
A
100
AcDbEntity
  8
HEWI
100
AcDbSpline
210
0.0
220
0.0
230
1.0
 70
    24
 71
     1
 72
     5
 73
     3
 74
     0
 42
0.000000001
 43
0.0000000001
 40
0.0
 40
0.0
 40
0.6800000000000001
 40
1.0
 40
1.0
 10
-1769.013429413021
 20
-1705.435299559666
 30
0.0
 10
-1777.513429413021
 20
-1705.435299559665
 30
0.0
 10
-1781.513429413021
 20
-1705.435299559665
 30
0.0
  0
SPLINE
  5
19BA
330
A
100
AcDbEntity
  8
HEWI
100
AcDbSpline
210
0.0
220
0.0
230
1.0
 70
    24
 71
     1
 72
     5
 73
     3
 74
     0
 42
0.000000001
 43
0.0000000001
 40
0.0
 40
0.0
 40
0.185185185185186
 40
1.0
 40
1.0
 10
-1817.513429833067
 20
-2339.970915117724
 30
0.0
 10
-1817.513429833067
 20
-2343.970915117724
 30
0.0
 10
-1817.513429833067
 20
-2361.570915117724
 30
0.0
  0
LWPOLYLINE
  5
19BE
330
A
100
AcDbEntity
  8
HEWI
  6
STANDARD
 62
     7
100
AcDbPolyline
 90
       56
 70
     1
 43
0.0
 10
-2341.301472350098
 20
-1822.49029956067
 10
-2341.167472350175
 20
-1822.370299557368
 10
-2340.925472350315
 20
-1822.30029955544
 10
-2340.769472350402
 20
-1822.162299551639
 10
-2340.122472350772
 20
-1821.838299542722
 10
-2339.811472350948
 20
-1821.737299539941
 10
-2339.251472351271
 20
-1821.418299531159
 10
-2338.190472351878
 20
-1821.012299519984
 10
-2337.401472352329
 20
-1820.816299514583
 10
-2336.98047235257
 20
-1820.658299510236
 10
-2335.667472353323
 20
-1820.379299502553
 10
-2334.301472354105
 20
-1820.28529949997
 10
-2332.936472354885
 20
-1820.379299502553
 10
-2331.623472355637
 20
-1820.658299510236
 10
-2331.202472355877
 20
-1820.816299514584
 10
-2330.412472356329
 20
-1821.012299519984
 10
-2329.352472356935
 20
-1821.418299531159
 10
-2328.792472357255
 20
-1821.737299539941
 10
-2328.481472357434
 20
-1821.838299542722
 10
-2327.834472357805
 20
-1822.162299551641
 10
-2327.678472357893
 20
-1822.300299555442
 10
-2327.436472358031
 20
-1822.370299557369
 10
-2327.302472358109
 20
-1822.490299560672
 10
-2327.30147235811
 20
-1827.357299694656
 10
-2327.321472358099
 20
-1827.552299700026
 10
-2327.377472358067
 20
-1827.739299705174
 10
-2327.470472358014
 20
-1827.912299709937
 10
-2327.594472357943
 20
-1828.064299714122
 10
-2327.746472357855
 20
-1828.188299717535
 10
-2327.919472357756
 20
-1828.280299720067
 10
-2328.10647235765
 20
-1828.337299721636
 10
-2328.301472357539
 20
-1828.357299722184
 10
-2328.417472357471
 20
-1828.357299722184
 10
-2328.758472357277
 20
-1828.357299722184
 10
-2329.31347235696
 20
-1828.357299722184
 10
-2330.059472356531
 20
-1828.357299722184
 10
-2330.968472356013
 20
-1828.357299722184
 10
-2332.005472355416
 20
-1828.357299722184
 10
-2333.131472354773
 20
-1828.357299722184
 10
-2334.301472354106
 20
-1828.357299722184
 10
-2335.472472353432
 20
-1828.357299722184
 10
-2336.597472352788
 20
-1828.357299722184
 10
-2337.635472352197
 20
-1828.357299722184
 10
-2338.544472351675
 20
-1828.357299722184
 10
-2339.29047235125
 20
-1828.357299722184
 10
-2339.845472350932
 20
-1828.357299722184
 10
-2340.186472350736
 20
-1828.357299722184
 10
-2340.301472350671
 20
-1828.357299722184
 10
-2340.496472350559
 20
-1828.337299721635
 10
-2340.684472350451
 20
-1828.280299720066
 10
-2340.857472350353
 20
-1828.188299717533
 10
-2341.008472350265
 20
-1828.064299714121
 10
-2341.133472350193
 20
-1827.912299709936
 10
-2341.225472350143
 20
-1827.739299705173
 10
-2341.282472350107
 20
-1827.552299700025
 10
-2341.301472350098
 20
-1827.357299694654
  0
LINE
  5
19BF
330
A
100
AcDbEntity
  8
HEWI
  6
STANDARD
 62
     7
100
AcDbLine
 10
-2103.423192009031
 20
-2032.519402903375
 30
0.0
 11
-2103.362472486293
 21
-2032.521305342781
 31
0.0
  0
LINE
  5
19C0
330
A
100
AcDbEntity
  8
HEWI
  6
STANDARD
 62
     7
100
AcDbLine
 10
-2103.745472486074
 20
-2032.509305342448
 30
0.0
 11
-2103.49704006489
 21
-2032.517089126102
 31
0.0
  0
LINE
  5
19C1
330
A
100
AcDbEntity
  8
HEWI
  6
STANDARD
 62
     7
100
AcDbLine
 10
-2104.753472462789
 20
-2032.475854361879
 30
0.0
 11
-2104.372472485716
 21
-2032.488305341872
 31
0.0
  0
LINE
  5
19C2
330
A
100
AcDbEntity
  8
HEWI
  6
STANDARD
 62
     7
100
AcDbLine
 10
-2105.443472485102
 20
-2032.453305340905
 30
0.0
 11
-2104.984472480804
 21
-2032.468305341468
 31
0.0
  0
LINE
  5
19C3
330
A
100
AcDbEntity
  8
HEWI
  6
STANDARD
 62
     7
100
AcDbLine
 10
-2103.455252742399
 20
-2032.518283049657
 30
0.0
 11
-2104.267150614763
 21
-2032.491835684044
 31
0.0
  0
LINE
  5
19C4
330
A
100
AcDbEntity
  8
HEWI
  6
STANDARD
 62
     7
100
AcDbLine
 10
-2103.362472486293
 20
-2032.521305342781
 30
0.0
 11
-2103.453229496887
 21
-2032.518348956365
 31
0.0
  0
LWPOLYLINE
  5
19C5
330
A
100
AcDbEntity
  8
HEWI
  6
STANDARD
 62
     7
100
AcDbPolyline
 90
        3
 70
     0
 43
0.0
 10
-2105.443472485102
 20
-2032.453305340905
 10
-2105.603472485011
 20
-2032.448305340768
 10
-2105.849472484871
 20
-2032.440305340549
  0
LINE
  5
19C6
330
A
100
AcDbEntity
  8
HEWI
  6
STANDARD
 62
     7
100
AcDbLine
 10
-2105.133472485281
 20
-2032.463305341183
 30
0.0
 11
-2105.066857098222
 21
-2032.465613033638
 31
0.0
  0
LINE
  5
19C7
330
A
100
AcDbEntity
  8
HEWI
  6
STANDARD
 62
     7
100
AcDbLine
 10
-2105.188472481968
 20
-2032.461638674571
 30
0.0
 11
-2105.133472485281
 21
-2032.463305341183
 31
0.0
  0
LINE
  5
19C8
330
A
100
AcDbEntity
  8
HEWI
  6
STANDARD
 62
     7
100
AcDbLine
 10
-2105.133472485281
 20
-2032.463305341183
 30
0.0
 11
-2105.09452511659
 21
-2032.464708850004
 31
0.0
  0
LWPOLYLINE
  5
19C9
330
A
100
AcDbEntity
  8
HEWI
  6
STANDARD
 62
     7
100
AcDbPolyline
 90
        2
 70
     1
 43
0.0
 10
-2104.26087636259
 20
-2032.492040066195
 10
-2104.31147248575
 20
-2032.490305341927
  0
LWPOLYLINE
  5
19CA
330
A
100
AcDbEntity
  8
HEWI
  6
STANDARD
 62
     7
100
AcDbPolyline
 90
       43
 70
     0
 43
0.0
 10
-2336.90360069131
 20
-1828.357299639173
 10
-2338.087472351938
 20
-1856.030300484016
 10
-2342.068472349664
 20
-1903.946301803129
 10
-2347.249472346703
 20
-1956.087303238555
 10
-2350.868472344636
 20
-2000.541304462361
 10
-2353.423472343175
 20
-2028.924305243736
 10
-2353.968472342865
 20
-2060.582306115271
 10
-2352.436472343742
 20
-2077.806306589444
 10
-2350.076472345097
 20
-2090.283306932934
 10
-2347.149472346771
 20
-2100.126307203906
 10
-2344.920472348047
 20
-2105.741307358489
 10
-2343.228472349013
 20
-2109.371307458422
 10
-2339.464472351169
 20
-2116.184307645983
 10
-2335.14747235364
 20
-2122.583307822148
 10
-2329.08647235711
 20
-2129.931308024432
 10
-2322.336472360974
 20
-2136.623308208662
 10
-2313.492472366037
 20
-2143.777308405611
 10
-2303.941472371502
 20
-2150.045308578165
 10
-2292.130472378262
 20
-2156.271308749568
 10
-2278.038472386331
 20
-2162.033308908198
 10
-2268.994472391506
 20
-2164.957308988695
 10
-2261.652472395706
 20
-2166.914309042573
 10
-2246.922472404139
 20
-2169.740309120372
 10
-2233.905472411588
 20
-2171.005309155196
 10
-2220.90447241903
 20
-2171.0853091574
 10
-2208.004472426412
 20
-2169.93230912566
 10
-2197.073472432667
 20
-2167.919309070241
 10
-2186.339472438812
 20
-2164.938308988178
 10
-2175.871472444802
 20
-2160.971308878969
 10
-2165.758472450588
 20
-2156.097308744789
 10
-2154.579472456987
 20
-2149.391308560173
 10
-2144.193472462933
 20
-2141.710308348718
 10
-2134.777472468323
 20
-2133.202308114494
 10
-2127.585472472437
 20
-2125.336307897953
 10
-2121.341472476009
 20
-2117.057307670032
 10
-2116.926472478536
 20
-2109.883307472534
 10
-2113.948472480242
 20
-2104.010307310852
 10
-2112.012472481347
 20
-2099.503307186774
 10
-2108.911472483123
 20
-2090.456306937712
 10
-2106.36047248458
 20
-2079.683306641136
 10
-2104.43447248568
 20
-2065.611306253738
 10
-2103.350472486301
 20
-2032.522305342807
 10
-2103.362472486293
 20
-2032.521305342781
  0
LWPOLYLINE
  5
19CB
330
A
100
AcDbEntity
  8
HEWI
  6
STANDARD
 62
     7
100
AcDbPolyline
 90
       42
 70
     0
 43
0.0
 10
-2108.351157445909
 20
-2032.440305343205
 10
-2109.423472482829
 20
-2065.189306242119
 10
-2111.281472481767
 20
-2078.766306615891
 10
-2113.720472480367
 20
-2089.066306899445
 10
-2116.678472478674
 20
-2097.705307137276
 10
-2118.477472477647
 20
-2101.892307252544
 10
-2121.288472476038
 20
-2107.440307405276
 10
-2125.474472473642
 20
-2114.235307592339
 10
-2131.435472470233
 20
-2122.137307809881
 10
-2138.306472466302
 20
-2129.652308016767
 10
-2147.363472461116
 20
-2137.836308242071
 10
-2157.3584724554
 20
-2145.228308445568
 10
-2168.135472449232
 20
-2151.692308623523
 10
-2177.844472443675
 20
-2156.376308752468
 10
-2187.897472437919
 20
-2160.181308857219
 10
-2198.196472432027
 20
-2163.046308936091
 10
-2208.681472426024
 20
-2164.972308989113
 10
-2221.111472418912
 20
-2166.084309019723
 10
-2233.648472411735
 20
-2166.007309017601
 10
-2246.208472404548
 20
-2164.786308983987
 10
-2260.537472396346
 20
-2162.040308908389
 10
-2267.581472392312
 20
-2160.161308856664
 10
-2276.322472387312
 20
-2157.337308778918
 10
-2290.013472379473
 20
-2151.735308624694
 10
-2301.398472372961
 20
-2145.73330845946
 10
-2310.541472367726
 20
-2139.73330829428
 10
-2318.995472362887
 20
-2132.894308106007
 10
-2325.388472359226
 20
-2126.556307931522
 10
-2331.138472355936
 20
-2119.586307739642
 10
-2335.199472353609
 20
-2113.574307574129
 10
-2338.771472351567
 20
-2107.105307396039
 10
-2340.329472350675
 20
-2103.761307303978
 10
-2342.425472349474
 20
-2098.49030715887
 10
-2345.211472347878
 20
-2089.103306900451
 10
-2347.478472346582
 20
-2077.118306570504
 10
-2348.965472345726
 20
-2060.403306110345
 10
-2348.431472346033
 20
-2029.191305251092
 10
-2345.886472347487
 20
-2000.968304474116
 10
-2342.270472349554
 20
-1956.538303250969
 10
-2337.088472352515
 20
-1904.401301815653
 10
-2333.097472354796
 20
-1856.344300492659
 10
-2331.898572148199
 20
-1828.357299288384
  0
LINE
  5
19CC
330
A
100
AcDbEntity
  8
HEWI
  6
STANDARD
 62
     7
100
AcDbLine
 10
-2103.454472486241
 20
-2032.518305342697
 30
0.0
 11
-2103.629472486141
 21
-2032.513305342561
 31
0.0
  0
LWPOLYLINE
  5
19CD
330
A
100
AcDbEntity
  8
HEWI
  6
STANDARD
 62
     7
100
AcDbPolyline
 90
        2
 70
     1
 43
0.0
 10
-2103.362472486293
 20
-2032.521305342781
 10
-2103.397472486273
 20
-2032.520305342753
  0
LWPOLYLINE
  5
19CE
330
A
100
AcDbEntity
  8
HEWI
  6
STANDARD
 62
     7
100
AcDbPolyline
 90
        3
 70
     0
 43
0.0
 10
-2103.454472486241
 20
-2032.518305342697
 10
-2103.531472486196
 20
-2032.516305342645
 10
-2103.629472486141
 20
-2032.513305342561
  0
LINE
  5
19CF
330
A
100
AcDbEntity
  8
HEWI
  6
STANDARD
 62
     7
100
AcDbLine
 10
-2103.629472486141
 20
-2032.513305342561
 30
0.0
 11
-2103.745472486074
 21
-2032.509305342448
 31
0.0
  0
LWPOLYLINE
  5
19D0
330
A
100
AcDbEntity
  8
HEWI
  6
STANDARD
 62
     7
100
AcDbPolyline
 90
        5
 70
     0
 43
0.0
 10
-2103.745472486074
 20
-2032.509305342448
 10
-2103.878472485999
 20
-2032.505305342342
 10
-2104.028472485913
 20
-2032.500305342202
 10
-2104.193472485818
 20
-2032.494305342037
 10
-2104.372472485716
 20
-2032.488305341872
  0
LWPOLYLINE
  5
19D1
330
A
100
AcDbEntity
  8
HEWI
  6
STANDARD
 62
     7
100
AcDbPolyline
 90
        4
 70
     0
 43
0.0
 10
-2104.372472485716
 20
-2032.488305341872
 10
-2104.565472485606
 20
-2032.482305341707
 10
-2104.769472485489
 20
-2032.475305341513
 10
-2104.984472485365
 20
-2032.468305341318
  0
LWPOLYLINE
  5
19D2
330
A
100
AcDbEntity
  8
HEWI
  6
STANDARD
 62
     7
100
AcDbPolyline
 90
        3
 70
     0
 43
0.0
 10
-2104.984472485365
 20
-2032.468305341318
 10
-2105.209472485237
 20
-2032.461305341128
 10
-2105.443472485102
 20
-2032.453305340905
  0
LWPOLYLINE
  5
19D3
330
A
100
AcDbEntity
  8
HEWI
  6
STANDARD
 62
     7
100
AcDbPolyline
 90
       16
 70
     0
 43
0.0
 10
-2099.599472488447
 20
-2032.440305340549
 10
-2112.099472481292
 20
-2032.440305340549
 10
-2112.228472481218
 20
-2032.423305340084
 10
-2112.349472481151
 20
-2032.373305338705
 10
-2112.453472481089
 20
-2032.294305336527
 10
-2112.532472481044
 20
-2032.190305333665
 10
-2112.582472481014
 20
-2032.069305330334
 10
-2112.599472481009
 20
-2031.940305326785
 10
-2112.599472481005
 20
-1977.940303840181
 10
-2112.582472481011
 20
-1977.811303836628
 10
-2112.532472481041
 20
-1977.690303833297
 10
-2112.453472481086
 20
-1977.586303830435
 10
-2112.349472481147
 20
-1977.507303828261
 10
-2112.228472481215
 20
-1977.457303826884
 10
-2112.099472481288
 20
-1977.440303826415
 10
-2099.599472488444
 20
-1977.440303826415
  0
LWPOLYLINE
  5
19D4
330
A
100
AcDbEntity
  8
HEWI
  6
STANDARD
 62
     7
100
AcDbPolyline
 90
       28
 70
     1
 43
0.0
 10
-2099.599472488449
 20
-2044.440305670907
 10
-2099.582472488456
 20
-2044.569305674459
 10
-2099.532472488487
 20
-2044.690305677791
 10
-2099.453472488531
 20
-2044.794305680656
 10
-2099.349472488591
 20
-2044.87330568283
 10
-2099.228472488659
 20
-2044.923305684203
 10
-2099.099472488732
 20
-2044.94030568467
 10
-2092.599472492454
 20
-2044.94030568467
 10
-2092.599472492454
 20
-2044.923305684203
 10
-2092.599472492454
 20
-2044.87330568283
 10
-2092.599472492454
 20
-2044.794305680657
 10
-2092.599472492454
 20
-2044.690305677791
 10
-2092.599472492454
 20
-2044.569305674459
 10
-2092.599472492454
 20
-2044.440305670907
 10
-2092.599472492449
 20
-1965.440303496058
 10
-2092.599472492449
 20
-1965.31130349251
 10
-2092.599472492449
 20
-1965.190303489179
 10
-2092.599472492449
 20
-1965.086303486316
 10
-2092.599472492449
 20
-1965.007303484136
 10
-2092.599472492449
 20
-1964.957303482765
 10
-2092.599472492449
 20
-1964.940303482295
 10
-2099.099472488727
 20
-1964.940303482294
 10
-2099.228472488654
 20
-1964.957303482765
 10
-2099.349472488585
 20
-1965.007303484135
 10
-2099.453472488525
 20
-1965.086303486316
 10
-2099.532472488482
 20
-1965.190303489179
 10
-2099.582472488451
 20
-1965.311303492509
 10
-2099.599472488443
 20
-1965.440303496057
  0
LWPOLYLINE
  5
19D5
330
A
100
AcDbEntity
  8
HEWI
  6
CUSTOM
 62
    18
420
        0
370
     9
100
AcDbPolyline
 90
       83
 70
     0
 43
0.0
 10
-1820.22443038101
 20
-1826.191094478265
 10
-1820.22443038101
 20
-1854.021094978173
 10
-1820.22443038101
 20
-1902.008096571299
 10
-1820.22443038101
 20
-1954.146098302238
 10
-1820.22443038101
 20
-1998.589099777706
 10
-1820.22443038101
 20
-2026.892100717342
 10
-1820.22443038101
 20
-2058.327101760963
 10
-1820.22443038101
 20
-2075.296102324317
 10
-1820.22443038101
 20
-2087.527102730376
 10
-1820.22443038101
 20
-2097.142103049585
 10
-1820.22443038101
 20
-2102.585103230287
 10
-1820.22443038101
 20
-2106.072103346058
 10
-1820.22443038101
 20
-2112.71310356653
 10
-1820.22443038101
 20
-2118.918103772532
 10
-1820.22443038101
 20
-2126.077104010203
 10
-1820.22443038101
 20
-2132.592104226497
 10
-1820.22443038101
 20
-2139.589104458789
 10
-1820.22443038101
 20
-2145.723104662438
 10
-1820.22443038101
 20
-2151.837104865417
 10
-1820.22443038101
 20
-2157.519105054049
 10
-1820.22443038101
 20
-2160.393105149466
 10
-1820.22443038101
 20
-2162.31110521314
 10
-1820.22443038101
 20
-2165.097105305636
 10
-1820.22443038101
 20
-2166.340105346899
 10
-1820.22443038101
 20
-2166.419105349525
 10
-1820.212430381076
 20
-2166.66510535769
 10
-1820.191430381193
 20
-2166.825105363002
 10
-1820.142430381471
 20
-2167.059105370773
 10
-1820.071430381872
 20
-2167.28410537824
 10
-1819.980430382387
 20
-2167.499105385378
 10
-1819.870430383006
 20
-2167.704105392187
 10
-1819.742430383729
 20
-2167.897105398596
 10
-1819.598430384544
 20
-2168.076105404537
 10
-1819.438430385444
 20
-2168.241105410014
 10
-1819.263430386433
 20
-2168.391105414992
 10
-1819.075430387496
 20
-2168.525105419442
 10
-1818.87443038863
 20
-2168.64110542329
 10
-1818.662430389827
 20
-2168.738105426511
 10
-1818.44043039108
 20
-2168.816105429102
 10
-1818.209430392383
 20
-2168.872105430962
 10
-1817.970430393733
 20
-2168.907105432126
 10
-1817.724430395122
 20
-2168.91910543252
 10
-1817.47843039651
 20
-2168.907105432126
 10
-1817.318430397412
 20
-2168.887105431459
 10
-1817.084430398733
 20
-2168.837105429798
 10
-1816.859430400004
 20
-2168.76610542744
 10
-1816.643430401222
 20
-2168.675105424421
 10
-1816.439430402374
 20
-2168.565105420768
 10
-1816.246430403465
 20
-2168.437105416522
 10
-1816.067430404475
 20
-2168.29310541174
 10
-1815.902430405406
 20
-2168.133105406429
 10
-1815.752430406253
 20
-2167.95810540062
 10
-1815.619430407002
 20
-2167.770105394376
 10
-1815.503430407658
 20
-2167.569105387703
 10
-1815.405430408211
 20
-2167.357105380667
 10
-1815.328430408647
 20
-2167.135105373295
 10
-1815.271430408967
 20
-2166.904105365627
 10
-1815.236430409165
 20
-2166.66510535769
 10
-1815.224430409234
 20
-2166.419105349525
 10
-1815.224430409234
 20
-2166.340105346899
 10
-1815.224430409234
 20
-2165.097105305636
 10
-1815.224430409234
 20
-2162.31110521314
 10
-1815.224430409234
 20
-2160.393105149466
 10
-1815.224430409234
 20
-2157.519105054049
 10
-1815.224430409234
 20
-2151.837104865417
 10
-1815.224430409234
 20
-2145.723104662438
 10
-1815.224430409234
 20
-2139.589104458789
 10
-1815.224430409234
 20
-2132.592104226497
 10
-1815.224430409234
 20
-2126.077104010203
 10
-1815.224430409234
 20
-2118.918103772532
 10
-1815.224430409234
 20
-2112.71310356653
 10
-1815.224430409234
 20
-2106.072103346058
 10
-1815.224430409234
 20
-2102.585103230287
 10
-1815.224430409234
 20
-2097.142103049585
 10
-1815.224430409234
 20
-2087.527102730376
 10
-1815.224430409234
 20
-2075.296102324317
 10
-1815.224430409234
 20
-2058.327101760963
 10
-1815.224430409234
 20
-2026.892100717342
 10
-1815.224430409234
 20
-1998.589099777706
 10
-1815.224430409234
 20
-1954.146098302238
 10
-1815.224430409234
 20
-1902.008096571299
 10
-1815.224430409234
 20
-1854.021094978173
 10
-1815.224430409234
 20
-1826.191094478265
  0
LWPOLYLINE
  5
19D6
330
A
100
AcDbEntity
  8
HEWI
  6
CUSTOM
 62
    18
420
        0
370
     9
100
AcDbPolyline
 90
       16
 70
     0
 43
0.0
 10
-1820.224430500217
 20
-1973.21288804536
 10
-1844.724430242709
 20
-1973.21288804536
 10
-1844.85343024198
 20
-1973.229888045926
 10
-1844.974430241297
 20
-1973.279888047581
 10
-1845.078430240709
 20
-1973.358888050206
 10
-1845.157430240261
 20
-1973.462888053661
 10
-1845.207430239981
 20
-1973.583888057676
 10
-1845.224430239885
 20
-1973.71288806196
 10
-1845.224430239885
 20
-2027.712889854715
 10
-1845.207430239981
 20
-2027.841889858995
 10
-1845.157430240261
 20
-2027.962889863017
 10
-1845.078430240709
 20
-2028.066889866469
 10
-1844.974430241297
 20
-2028.14588986909
 10
-1844.85343024198
 20
-2028.195889870747
 10
-1844.724430242709
 20
-2028.212889871316
 10
-1820.224430500217
 20
-2028.212889871316
  0
LWPOLYLINE
  5
19D7
330
A
100
AcDbEntity
  8
HEWI
  6
CUSTOM
 62
    18
420
        0
370
     9
100
AcDbPolyline
 90
       16
 70
     0
 43
0.0
 10
-1815.224430290025
 20
-2028.212889871316
 10
-1790.724430547533
 20
-2028.212889871316
 10
-1790.595430548262
 20
-2028.195889870747
 10
-1790.474430548945
 20
-2028.14588986909
 10
-1790.370430549533
 20
-2028.066889866469
 10
-1790.291430549978
 20
-2027.962889863017
 10
-1790.24143055026
 20
-2027.841889858995
 10
-1790.224430550356
 20
-2027.712889854715
 10
-1790.224430550356
 20
-1973.71288806196
 10
-1790.24143055026
 20
-1973.583888057676
 10
-1790.291430549978
 20
-1973.462888053661
 10
-1790.370430549533
 20
-1973.358888050206
 10
-1790.474430548945
 20
-1973.279888047581
 10
-1790.595430548262
 20
-1973.229888045926
 10
-1790.724430547533
 20
-1973.21288804536
 10
-1815.224430290025
 20
-1973.21288804536
  0
LWPOLYLINE
  5
19D8
330
A
100
AcDbEntity
  8
HEWI
  6
CUSTOM
 62
    18
420
        0
370
     9
100
AcDbPolyline
 90
       16
 70
     0
 43
0.0
 10
-1815.224428323071
 20
-2040.712890286304
 10
-1778.224430618093
 20
-2040.712890286304
 10
-1778.095430618822
 20
-2040.695890285736
 10
-1777.974430619505
 20
-2040.645890284078
 10
-1777.870430620093
 20
-2040.566890281457
 10
-1777.791430620541
 20
-2040.462890278005
 10
-1777.741430620821
 20
-2040.341890273985
 10
-1777.724430620918
 20
-2040.212890269704
 10
-1777.724430620918
 20
-1961.212887646972
 10
-1777.741430620821
 20
-1961.083887642685
 10
-1777.791430620541
 20
-1960.96288763867
 10
-1777.870430620093
 20
-1960.858887635217
 10
-1777.974430619505
 20
-1960.779887632593
 10
-1778.095430618822
 20
-1960.729887630932
 10
-1778.224430618093
 20
-1960.712887630372
 10
-1815.224430677453
 20
-1960.712887630372
  0
LWPOLYLINE
  5
19D9
330
A
100
AcDbEntity
  8
HEWI
  6
CUSTOM
 62
    18
420
        0
370
     9
100
AcDbPolyline
 90
       16
 70
     0
 43
0.0
 10
-1820.22443246717
 20
-1960.712887630372
 10
-1857.224430172147
 20
-1960.712887630372
 10
-1857.353430171416
 20
-1960.729887630932
 10
-1857.474430170736
 20
-1960.779887632593
 10
-1857.578430170148
 20
-1960.858887635217
 10
-1857.6574301697
 20
-1960.96288763867
 10
-1857.70743016942
 20
-1961.083887642685
 10
-1857.724430169325
 20
-1961.212887646972
 10
-1857.724430169325
 20
-2040.212890269704
 10
-1857.70743016942
 20
-2040.341890273985
 10
-1857.6574301697
 20
-2040.462890278005
 10
-1857.578430170148
 20
-2040.566890281457
 10
-1857.474430170736
 20
-2040.645890284078
 10
-1857.353430171416
 20
-2040.695890285736
 10
-1857.224430172147
 20
-2040.712890286304
 10
-1820.224430112786
 20
-2040.712890286304
  0
LWPOLYLINE
  5
19DA
330
A
100
AcDbEntity
  8
HEWI
  6
CUSTOM
 62
    18
420
        0
370
     9
100
AcDbPolyline
 90
       35
 70
     0
 43
0.0
 10
-1824.520430356758
 20
-1822.620261467184
 10
-1824.520430356758
 20
-1825.191094445065
 10
-1824.501430356864
 20
-1825.386094451536
 10
-1824.444430357188
 20
-1825.573094457748
 10
-1824.351430357715
 20
-1825.746094463491
 10
-1824.227430358412
 20
-1825.898094468535
 10
-1824.076430359267
 20
-1826.02209447265
 10
-1823.903430360241
 20
-1826.114094475706
 10
-1823.715430361303
 20
-1826.171094477602
 10
-1823.520430362404
 20
-1826.191094478265
 10
-1823.405430363054
 20
-1826.191094478265
 10
-1823.063430364982
 20
-1826.191094478265
 10
-1822.509430368111
 20
-1826.191094478265
 10
-1821.763430372321
 20
-1826.191094478265
 10
-1820.85343037746
 20
-1826.191094478265
 10
-1819.816430383314
 20
-1826.191094478265
 10
-1818.691430389661
 20
-1826.191094478265
 10
-1817.520430396271
 20
-1826.191094478265
 10
-1816.349430402884
 20
-1826.191094478265
 10
-1815.224430409234
 20
-1826.191094478265
 10
-1814.187430415089
 20
-1826.191094478265
 10
-1813.277430420225
 20
-1826.191094478265
 10
-1812.531430424437
 20
-1826.191094478265
 10
-1811.977430427564
 20
-1826.191094478265
 10
-1811.635430429494
 20
-1826.191094478265
 10
-1811.520430430144
 20
-1826.191094478265
 10
-1811.325430431242
 20
-1826.171094477602
 10
-1811.137430432307
 20
-1826.114094475706
 10
-1810.964430433282
 20
-1826.02209447265
 10
-1810.813430434134
 20
-1825.898094468535
 10
-1810.689430434833
 20
-1825.746094463491
 10
-1810.59643043536
 20
-1825.573094457748
 10
-1810.53943043568
 20
-1825.386094451536
 10
-1810.520430435787
 20
-1825.191094445065
 10
-1810.520430435787
 20
-1822.625028493861
  0
CIRCLE
  5
19DC
330
A
100
AcDbEntity
  8
HEWI
100
AcDbCircle
 10
-1817.515380396316
 20
-1807.791597499998
 30
0.0
 40
16.2
  0
CIRCLE
  5
19DD
330
A
100
AcDbEntity
  8
HEWI
100
AcDbCircle
 10
1817.515380396316
 20
-1807.791597499998
 30
0.0
 40
16.4
210
0.0
220
0.0
230
-1.0
  0
LINE
  5
19EC
330
A
100
AcDbEntity
  8
HEWI
  6
STANDARD
 62
     7
100
AcDbLine
 10
-2793.399472492438
 20
-1791.385299499947
 30
0.0
 11
-2793.199472492438
 21
-1791.585299499947
 31
0.0
  0
LINE
  5
19ED
330
A
100
AcDbEntity
  8
HEWI
  6
STANDARD
 62
     7
100
AcDbLine
 10
-2793.199472492441
 20
-1823.985299499947
 30
0.0
 11
-2793.39947249244
 21
-1824.185299499947
 31
0.0
  0
LINE
  5
19EE
330
A
100
AcDbEntity
  8
HEWI
  6
STANDARD
 62
     7
100
AcDbLine
 10
-2795.99947249244
 20
-1824.185299499947
 30
0.0
 11
-2796.199472492442
 21
-1823.985299499947
 31
0.0
  0
LINE
  5
19EF
330
A
100
AcDbEntity
  8
HEWI
  6
STANDARD
 62
     7
100
AcDbLine
 10
-2796.19947249244
 20
-1791.585299499947
 30
0.0
 11
-2795.999472492438
 21
-1791.385299499947
 31
0.0
  0
LINE
  5
19F0
330
A
100
AcDbEntity
  8
HEWI
  6
STANDARD
 62
     7
100
AcDbLine
 10
-2793.39947249244
 20
-1824.185299499947
 30
0.0
 11
-2795.99947249244
 21
-1824.185299499947
 31
0.0
  0
LINE
  5
19F1
330
A
100
AcDbEntity
  8
HEWI
  6
STANDARD
 62
     7
100
AcDbLine
 10
-2795.999472492438
 20
-1791.385299499947
 30
0.0
 11
-2793.399472492438
 21
-1791.385299499947
 31
0.0
  0
LINE
  5
19F2
330
A
100
AcDbEntity
  8
HEWI
  6
STANDARD
 62
     7
100
AcDbLine
 10
-2793.39947249244
 20
-1824.185299499947
 30
0.0
 11
-2793.399472492438
 21
-1791.385299499947
 31
0.0
  0
LINE
  5
19F3
330
A
100
AcDbEntity
  8
HEWI
  6
STANDARD
 62
     7
100
AcDbLine
 10
-2793.199472492438
 20
-1791.585299499947
 30
0.0
 11
-2793.199472492439
 21
-1807.785299499947
 31
0.0
  0
LINE
  5
19F4
330
A
100
AcDbEntity
  8
HEWI
  6
STANDARD
 62
     7
100
AcDbLine
 10
-2793.199472492439
 20
-1807.785299499947
 30
0.0
 11
-2793.199472492441
 21
-1823.985299499947
 31
0.0
  0
LINE
  5
19F5
330
A
100
AcDbEntity
  8
HEWI
  6
STANDARD
 62
     7
100
AcDbLine
 10
-2796.19947249244
 20
-1791.585299499947
 30
0.0
 11
-2796.199472492441
 21
-1807.785299499947
 31
0.0
  0
LINE
  5
19F6
330
A
100
AcDbEntity
  8
HEWI
  6
STANDARD
 62
     7
100
AcDbLine
 10
-2796.199472492441
 20
-1807.785299499947
 30
0.0
 11
-2796.199472492442
 21
-1823.985299499947
 31
0.0
  0
LINE
  5
19F7
330
A
100
AcDbEntity
  8
HEWI
  6
STANDARD
 62
     7
100
AcDbLine
 10
-2795.999472492439
 20
-1807.785299499947
 30
0.0
 11
-2795.999472492438
 21
-1791.385299499947
 31
0.0
  0
LINE
  5
19F8
330
A
100
AcDbEntity
  8
HEWI
  6
STANDARD
 62
     7
100
AcDbLine
 10
-2795.99947249244
 20
-1824.185299499947
 30
0.0
 11
-2795.999472492439
 21
-1807.785299499947
 31
0.0
  0
LINE
  5
19F9
330
A
100
AcDbEntity
  8
HEWI
  6
STANDARD
 62
     7
100
AcDbLine
 10
-2772.949182492441
 20
-1822.644293499949
 30
0.0
 11
-2771.97764849244
 21
-1822.407395499948
 31
0.0
  0
LINE
  5
19FA
330
A
100
AcDbEntity
  8
HEWI
  6
STANDARD
 62
     7
100
AcDbLine
 10
-2773.199472492442
 20
-1819.979035499949
 30
0.0
 11
-2773.199472492442
 21
-1820.585299499949
 31
0.0
  0
LINE
  5
19FB
330
A
100
AcDbEntity
  8
HEWI
  6
STANDARD
 62
     7
100
AcDbLine
 10
-2772.199472492442
 20
-1821.160389499949
 30
0.0
 11
-2772.199472492442
 21
-1820.290217499948
 31
0.0
  0
LINE
  5
19FC
330
A
100
AcDbEntity
  8
HEWI
  6
STANDARD
 62
     7
100
AcDbLine
 10
-2688.449762492441
 20
-1822.644293499955
 30
0.0
 11
-2689.421296492441
 21
-1822.407395499955
 31
0.0
  0
LINE
  5
19FD
330
A
100
AcDbEntity
  8
HEWI
  6
STANDARD
 62
     7
100
AcDbLine
 10
-2772.199472492442
 20
-1820.290217499948
 30
0.0
 11
-2689.199472492442
 21
-1820.290217499955
 31
0.0
  0
LINE
  5
19FE
330
A
100
AcDbEntity
  8
HEWI
  6
STANDARD
 62
     7
100
AcDbLine
 10
-2773.199472492442
 20
-1822.407395499948
 30
0.0
 11
-2689.421296492441
 21
-1822.407395499955
 31
0.0
  0
LINE
  5
19FF
330
A
100
AcDbEntity
  8
HEWI
  6
STANDARD
 62
     7
100
AcDbLine
 10
-2688.19947249244
 20
-1820.585299499955
 30
0.0
 11
-2688.19947249244
 21
-1819.979035499955
 31
0.0
  0
LINE
  5
1A00
330
A
100
AcDbEntity
  8
HEWI
  6
STANDARD
 62
     7
100
AcDbLine
 10
-2689.199472492442
 20
-1820.290217499955
 30
0.0
 11
-2689.199472492443
 21
-1821.160389499955
 31
0.0
  0
LINE
  5
1A01
330
A
100
AcDbEntity
  8
HEWI
  6
STANDARD
 62
     7
100
AcDbLine
 10
-2773.199472492442
 20
-1819.979047499949
 30
0.0
 11
-2688.19947249244
 21
-1819.979047499955
 31
0.0
  0
LINE
  5
1A02
330
A
100
AcDbEntity
  8
HEWI
  6
STANDARD
 62
     7
100
AcDbLine
 10
-2773.199472492442
 20
-1819.979047499949
 30
0.0
 11
-2773.199472492442
 21
-1820.285299499948
 31
0.0
  0
LINE
  5
1A03
330
A
100
AcDbEntity
  8
HEWI
  6
STANDARD
 62
     7
100
AcDbLine
 10
-2688.19947249244
 20
-1820.285299499955
 30
0.0
 11
-2688.19947249244
 21
-1819.979047499955
 31
0.0
  0
ELLIPSE
  5
1A04
330
A
100
AcDbEntity
  8
HEWI
  6
STANDARD
 62
     7
100
AcDbEllipse
 10
-2772.199472492442
 20
-1820.585299499949
 30
0.0
 11
-1.0
 21
0.0000000000000741
 31
0.0
210
0.0
220
0.0
230
-1.0
 40
0.57509
 41
4.71238898038469
 42
6.283185307179563
  0
ELLIPSE
  5
1A05
330
A
100
AcDbEntity
  8
HEWI
  6
STANDARD
 62
     7
100
AcDbEllipse
 10
-2689.199472492443
 20
-1820.585299499955
 30
0.0
 11
1.0
 21
-0.000000000000074
 31
0.0
210
0.0
220
0.0
230
-1.0
 40
0.57509
 41
0.0
 42
1.570796326794897
  0
SPLINE
  5
1A06
330
A
100
AcDbEntity
  8
HEWI
  6
STANDARD
 62
     7
100
AcDbSpline
210
0.0
220
0.0
230
1.0
 70
     8
 71
     3
 72
    10
 73
     6
 74
     0
 42
0.000000001
 43
0.0000000001
 40
0.0
 40
0.0
 40
0.0
 40
0.0
 40
0.5631963510114814
 40
0.5631963510114814
 40
1.0
 40
1.0
 40
1.0
 40
1.0
 10
-2773.199472311056
 20
-1820.585299559612
 30
0.0
 10
-2773.199472311056
 20
-1820.931614166745
 30
0.0
 10
-2773.176844838164
 20
-1821.319704855227
 30
0.0
 10
-2773.083782333948
 20
-1822.019576969062
 30
0.0
 10
-2773.02453268308
 20
-1822.335277948119
 30
0.0
 10
-2772.949182848343
 20
-1822.64429348669
 30
0.0
  0
SPLINE
  5
1A07
330
A
100
AcDbEntity
  8
HEWI
  6
STANDARD
 62
     7
100
AcDbSpline
210
0.0
220
0.0
230
1.0
 70
     8
 71
     3
 72
    10
 73
     6
 74
     0
 42
0.000000001
 43
0.0000000001
 40
0.0
 40
0.0
 40
0.0
 40
0.0
 40
0.4861134168230314
 40
0.4861134168230314
 40
1.0
 40
1.0
 40
1.0
 40
1.0
 10
-2771.977648174397
 20
-1822.407396088386
 30
0.0
 10
-2772.050993737907
 20
-1822.20153740377
 30
0.0
 10
-2772.108271458874
 20
-1821.986512530418
 30
0.0
 10
-2772.183172379982
 20
-1821.562663887036
 30
0.0
 10
-2772.199472311056
 20
-1821.348982530901
 30
0.0
 10
-2772.199472311056
 20
-1821.160389607339
 30
0.0
  0
SPLINE
  5
1A08
330
A
100
AcDbEntity
  8
HEWI
  6
STANDARD
 62
     7
100
AcDbSpline
210
-0.0000000000000013
220
-0.0000000000000017
230
1.0
 70
     8
 71
     3
 72
    12
 73
     8
 74
     0
 42
0.000000001
 43
0.0000000001
 40
0.0
 40
0.0
 40
0.0
 40
0.0
 40
0.4202079642026861
 40
0.4202079642026861
 40
0.8401692150779277
 40
0.8401692150779277
 40
1.0
 40
1.0
 40
1.0
 40
1.0
 10
-2772.199472311055
 20
-1820.290216601524
 30
0.0000000000000002
 10
-2772.310173345356
 20
-1820.290216601524
 30
0.0000000000000002
 10
-2772.422398491461
 20
-1820.27097976248
 30
-0.0000000000000002
 10
-2772.631204946427
 20
-1820.197522606437
 30
-0.0000000000000002
 10
-2772.730654785301
 20
-1820.142347373839
 30
-0.0000000000000002
 10
-2772.850159051649
 20
-1820.047215954118
 30
-0.0000000000000002
 10
-2772.881575336821
 20
-1820.01873633419
 30
-0.0000000000000002
 10
-2772.911140486984
 20
-1819.988377903178
 30
-0.0000000000000002
  0
SPLINE
  5
1A09
330
A
100
AcDbEntity
  8
HEWI
  6
STANDARD
 62
     7
100
AcDbSpline
210
0.0
220
0.0
230
1.0
 70
     8
 71
     3
 72
    10
 73
     6
 74
     0
 42
0.000000001
 43
0.0000000001
 40
0.0
 40
0.0
 40
0.0
 40
0.0
 40
0.5635302216462811
 40
0.5635302216462811
 40
1.0
 40
1.0
 40
1.0
 40
1.0
 10
-2688.449761773773
 20
-1822.644293486696
 30
0.0
 10
-2688.353101538935
 20
-1822.247882338213
 30
0.0
 10
-2688.283218455668
 20
-1821.83902330722
 30
0.0
 10
-2688.212859934227
 20
-1821.149752613762
 30
0.0
 10
-2688.199472311056
 20
-1820.855219266318
 30
0.0
 10
-2688.199472311056
 20
-1820.585299559615
 30
0.0
  0
SPLINE
  5
1A0A
330
A
100
AcDbEntity
  8
HEWI
  6
STANDARD
 62
     7
100
AcDbSpline
210
0.0
220
0.0
230
1.0
 70
     8
 71
     3
 72
    10
 73
     6
 74
     0
 42
0.000000001
 43
0.0000000001
 40
0.0
 40
0.0
 40
0.0
 40
0.0
 40
0.4830490318618912
 40
0.4830490318618912
 40
1.0
 40
1.0
 40
1.0
 40
1.0
 10
-2689.199472311056
 20
-1821.160389607345
 30
0.0
 10
-2689.199472311056
 20
-1821.338008227159
 30
0.0
 10
-2689.213804483835
 20
-1821.537636425829
 30
0.0
 10
-2689.283767571162
 20
-1821.959800185183
 30
0.0
 10
-2689.34344770919
 20
-1822.188898361403
 30
0.0
 10
-2689.421296447717
 20
-1822.407396088392
 30
0.0
  0
SPLINE
  5
1A0B
330
A
100
AcDbEntity
  8
HEWI
  6
STANDARD
 62
     7
100
AcDbSpline
210
0.0
220
0.0
230
1.0
 70
     8
 71
     3
 72
    12
 73
     8
 74
     0
 42
0.000000001
 43
0.0000000001
 40
0.0
 40
0.0
 40
0.0
 40
0.0
 40
0.3099027414590628
 40
0.3099027414590628
 40
0.7381692089327201
 40
0.7381692089327201
 40
1.0
 40
1.0
 40
1.0
 40
1.0
 10
-2688.486682436378
 20
-1819.987246883922
 30
0.0
 10
-2688.543951631574
 20
-1820.046077695554
 30
0.0
 10
-2688.608611531392
 20
-1820.098241539077
 30
0.0
 10
-2688.773884318541
 20
-1820.20068220445
 30
0.0
 10
-2688.881513489028
 20
-1820.244275240529
 30
0.0
 10
-2689.059853156309
 20
-1820.282741244129
 30
0.0
 10
-2689.129856296429
 20
-1820.29021660153
 30
0.0
 10
-2689.199472311055
 20
-1820.29021660153
 30
0.0
  0
SPLINE
  5
1A0C
330
A
100
AcDbEntity
  8
HEWI
  6
STANDARD
 62
     7
100
AcDbSpline
210
0.0
220
0.0
230
1.0
 70
     8
 71
     3
 72
    26
 73
    22
 74
     0
 42
0.000000001
 43
0.0000000001
 40
0.0
 40
0.0
 40
0.0
 40
0.0
 40
0.0625
 40
0.0625
 40
0.1249999999999999
 40
0.1249999999999999
 40
0.25
 40
0.25
 40
0.3750000000000001
 40
0.3750000000000001
 40
0.5000000000000001
 40
0.5000000000000001
 40
0.6250000000000001
 40
0.6250000000000001
 40
0.7500000000000002
 40
0.7500000000000002
 40
0.8750000000000001
 40
0.8750000000000001
 40
0.9375
 40
0.9375
 40
1.0
 40
1.0
 40
1.0
 40
1.0
 10
-2688.449761773773
 20
-1822.644293486696
 30
0.0
 10
-2688.932755555889
 20
-1824.625088590349
 30
0.0
 10
-2690.052664741753
 20
-1826.364157066891
 30
0.0
 10
-2692.811739941929
 20
-1829.343252728267
 30
0.0
 10
-2694.404259804589
 20
-1830.557023795492
 30
0.0
 10
-2699.519917056508
 20
-1833.760556506098
 30
0.0
 10
-2703.260617029449
 20
-1835.240210964082
 30
0.0
 10
-2710.920785417513
 20
-1837.528003935277
 30
0.0
 10
-2714.87457684627
 20
-1838.314074534573
 30
0.0
 10
-2722.747931725726
 20
-1839.339595488607
 30
0.0
 10
-2726.702740492131
 20
-1839.584232928607
 30
0.0
 10
-2734.645300540678
 20
-1839.586359376457
 30
0.0
 10
-2738.657404746184
 20
-1839.340190731964
 30
0.0
 10
-2746.578845360029
 20
-1838.305539907538
 30
0.0
 10
-2750.4864848122
 20
-1837.526330024364
 30
0.0
 10
-2758.153202122346
 20
-1835.234953438025
 30
0.0
 10
-2761.939142315554
 20
-1833.729567558255
 30
0.0
 10
-2767.019722461234
 20
-1830.537962230199
 30
0.0
 10
-2768.603290723687
 20
-1829.328629663743
 30
0.0
 10
-2771.35149510201
 20
-1826.355758864196
 30
0.0
 10
-2772.467466314399
 20
-1824.619850496133
 30
0.0
 10
-2772.949182848343
 20
-1822.64429348669
 30
0.0
  0
SPLINE
  5
1A0D
330
A
100
AcDbEntity
  8
HEWI
  6
STANDARD
 62
     7
100
AcDbSpline
210
0.0
220
0.0
230
1.0
 70
     8
 71
     3
 72
    24
 73
    20
 74
     0
 42
0.000000001
 43
0.0000000001
 40
0.0
 40
0.0
 40
0.0
 40
0.0
 40
0.0625000000000001
 40
0.0625000000000001
 40
0.1250000000000001
 40
0.1250000000000001
 40
0.2500000000000001
 40
0.2500000000000001
 40
0.3749999999999999
 40
0.3749999999999999
 40
0.5
 40
0.5
 40
0.75
 40
0.75
 40
0.8749999999999998
 40
0.8749999999999998
 40
0.9375
 40
0.9375
 40
1.0
 40
1.0
 40
1.0
 40
1.0
 10
-2689.421296447717
 20
-1822.407396088392
 30
0.0
 10
-2689.892342444422
 20
-1824.339192393877
 30
0.0
 10
-2691.035258443862
 20
-1826.006067769995
 30
0.0
 10
-2693.744405261559
 20
-1828.81630026854
 30
0.0
 10
-2695.345953904595
 20
-1829.996102649386
 30
0.0
 10
-2700.336335475209
 20
-1833.022297384139
 30
0.0
 10
-2704.026867894392
 20
-1834.449506400737
 30
0.0
 10
-2711.467855735686
 20
-1836.62111856313
 30
0.0
 10
-2715.264483404938
 20
-1837.364373182529
 30
0.0
 10
-2722.968712696518
 20
-1838.35157310658
 30
0.0
 10
-2726.872905785753
 20
-1838.586622458929
 30
0.0
 10
-2738.449753971416
 20
-1838.582637038905
 30
0.0
 10
-2746.121731366044
 20
-1837.730478914702
 30
0.0
 10
-2757.390420137116
 20
-1834.445338893026
 30
0.0
 10
-2761.07595307311
 20
-1833.016035478529
 30
0.0
 10
-2766.062215973603
 20
-1829.989589060046
 30
0.0
 10
-2767.655776487954
 20
-1828.815994629807
 30
0.0
 10
-2770.370462466729
 20
-1825.998058101072
 30
0.0000000000000002
 10
-2771.507707658307
 20
-1824.334658731806
 30
0.0
 10
-2771.977648174397
 20
-1822.407396088386
 30
0.0
  0
LINE
  5
1A14
330
A
100
AcDbEntity
  8
HEWI
  6
STANDARD
 62
     7
100
AcDbLine
 10
-2623.399481492441
 20
-1796.180932999957
 30
0.0
 11
-2623.399481492436
 21
-1721.730935999956
 31
0.0
  0
LINE
  5
1A15
330
A
100
AcDbEntity
  8
HEWI
  6
STANDARD
 62
     7
100
AcDbLine
 10
-2623.567481492442
 20
-1796.613900999957
 30
0.0
 11
-2623.69647549244
 21
-1796.770913999957
 31
0.0
  0
LINE
  5
1A16
330
A
100
AcDbEntity
  8
HEWI
  6
STANDARD
 62
     7
100
AcDbLine
 10
-2623.701472492436
 20
-1721.312921999956
 30
0.0
 11
-2623.858475492437
 21
-1721.201913999956
 31
0.0
  0
LINE
  5
1A17
330
A
100
AcDbEntity
  8
HEWI
  6
STANDARD
 62
     7
100
AcDbLine
 10
-2623.655476492437
 20
-1721.344888999956
 30
0.0
 11
-2623.701472492436
 21
-1721.312921999956
 31
0.0
  0
LINE
  5
1A18
330
A
100
AcDbEntity
  8
HEWI
  6
STANDARD
 62
     7
100
AcDbLine
 10
-2623.47447849244
 20
-1796.460931999956
 30
0.0
 11
-2623.567481492442
 21
-1796.613900999957
 31
0.0
  0
LINE
  5
1A19
330
A
100
AcDbEntity
  8
HEWI
  6
STANDARD
 62
     7
100
AcDbLine
 10
-2623.858475492437
 20
-1721.201913999956
 30
0.0
 11
-2624.053473492436
 21
-1721.091897999956
 31
0.0
  0
LINE
  5
1A1A
330
A
100
AcDbEntity
  8
HEWI
  6
STANDARD
 62
     7
100
AcDbLine
 10
-2624.053473492436
 20
-1721.091897999956
 30
0.0
 11
-2624.277472492435
 21
-1720.987909999955
 31
0.0
  0
LINE
  5
1A1B
330
A
100
AcDbEntity
  8
HEWI
  6
STANDARD
 62
     7
100
AcDbLine
 10
-2624.277472492435
 20
-1720.987909999955
 30
0.0
 11
-2624.528479492436
 21
-1720.889947999958
 31
0.0
  0
LINE
  5
1A1C
330
A
100
AcDbEntity
  8
HEWI
  6
STANDARD
 62
     7
100
AcDbLine
 10
-2623.406481492441
 20
-1796.262948999956
 30
0.0
 11
-2623.47447849244
 21
-1796.460931999956
 31
0.0
  0
LINE
  5
1A1D
330
A
100
AcDbEntity
  8
HEWI
  6
STANDARD
 62
     7
100
AcDbLine
 10
-2624.528479492436
 20
-1720.889947999958
 30
0.0
 11
-2624.802479492436
 21
-1720.801904999957
 31
0.0
  0
LINE
  5
1A1E
330
A
100
AcDbEntity
  8
HEWI
  6
STANDARD
 62
     7
100
AcDbLine
 10
-2624.802479492436
 20
-1720.801904999957
 30
0.0
 11
-2625.097479492436
 21
-1720.725915999956
 31
0.0
  0
LINE
  5
1A1F
330
A
100
AcDbEntity
  8
HEWI
  6
STANDARD
 62
     7
100
AcDbLine
 10
-2625.097479492436
 20
-1720.725915999956
 30
0.0
 11
-2625.406479492434
 21
-1720.664880999956
 31
0.0
  0
LINE
  5
1A20
330
A
100
AcDbEntity
  8
HEWI
  6
STANDARD
 62
     7
100
AcDbLine
 10
-2625.406479492434
 20
-1720.664880999956
 30
0.0
 11
-2625.731473492436
 21
-1720.618875999956
 31
0.0
  0
LINE
  5
1A21
330
A
100
AcDbEntity
  8
HEWI
  6
STANDARD
 62
     7
100
AcDbLine
 10
-2623.399481492441
 20
-1796.180932999957
 30
0.0
 11
-2623.406481492441
 21
-1796.262948999956
 31
0.0
  0
LINE
  5
1A22
330
A
100
AcDbEntity
  8
HEWI
  6
STANDARD
 62
     7
100
AcDbLine
 10
-2625.731473492436
 20
-1720.618875999956
 30
0.0
 11
-2626.061473492436
 21
-1720.590875999956
 31
0.0
  0
LINE
  5
1A23
330
A
100
AcDbEntity
  8
HEWI
  6
STANDARD
 62
     7
100
AcDbLine
 10
-2626.061473492436
 20
-1720.590875999956
 30
0.0
 11
-2626.399474492436
 21
-1720.581948999956
 31
0.0
  0
LINE
  5
1A24
330
A
100
AcDbEntity
  8
HEWI
  6
STANDARD
 62
     7
100
AcDbLine
 10
-2623.399481492436
 20
-1721.730935999956
 30
0.0
 11
-2623.418479492436
 21
-1721.633889999957
 31
0.0
  0
LINE
  5
1A25
330
A
100
AcDbEntity
  8
HEWI
  6
STANDARD
 62
     7
100
AcDbLine
 10
-2625.097479492441
 20
-1797.626931999956
 30
0.0
 11
-2625.40647949244
 21
-1797.717950999956
 31
0.0
  0
LINE
  5
1A26
330
A
100
AcDbEntity
  8
HEWI
  6
STANDARD
 62
     7
100
AcDbLine
 10
-2624.799475492441
 20
-1797.511880999956
 30
0.0
 11
-2625.097479492441
 21
-1797.626931999956
 31
0.0
  0
LINE
  5
1A27
330
A
100
AcDbEntity
  8
HEWI
  6
STANDARD
 62
     7
100
AcDbLine
 10
-2624.528479492442
 20
-1797.383935999957
 30
0.0
 11
-2624.799475492441
 21
-1797.511880999956
 31
0.0
  0
LINE
  5
1A28
330
A
100
AcDbEntity
  8
HEWI
  6
STANDARD
 62
     7
100
AcDbLine
 10
-2623.418479492436
 20
-1721.633889999957
 30
0.0
 11
-2623.474478492435
 21
-1721.530893999957
 31
0.0
  0
LINE
  5
1A29
330
A
100
AcDbEntity
  8
HEWI
  6
STANDARD
 62
     7
100
AcDbLine
 10
-2624.27747249244
 20
-1797.240884999956
 30
0.0
 11
-2624.528479492442
 21
-1797.383935999957
 31
0.0
  0
LINE
  5
1A2A
330
A
100
AcDbEntity
  8
HEWI
  6
STANDARD
 62
     7
100
AcDbLine
 10
-2624.053473492442
 20
-1797.087915999956
 30
0.0
 11
-2624.27747249244
 21
-1797.240884999956
 31
0.0
  0
LINE
  5
1A2B
330
A
100
AcDbEntity
  8
HEWI
  6
STANDARD
 62
     7
100
AcDbLine
 10
-2623.896479492441
 20
-1796.962945999956
 30
0.0
 11
-2624.053473492442
 21
-1797.087915999956
 31
0.0
  0
LINE
  5
1A2C
330
A
100
AcDbEntity
  8
HEWI
  6
STANDARD
 62
     7
100
AcDbLine
 10
-2623.69647549244
 20
-1796.770913999957
 30
0.0
 11
-2623.896479492441
 21
-1796.962945999956
 31
0.0
  0
LINE
  5
1A2D
330
A
100
AcDbEntity
  8
HEWI
  6
STANDARD
 62
     7
100
AcDbLine
 10
-2623.474478492435
 20
-1721.530893999957
 30
0.0
 11
-2623.655476492437
 21
-1721.344888999956
 31
0.0
  0
ARC
  5
1A2E
330
A
100
AcDbEntity
  8
HEWI
  6
STANDARD
 62
     7
100
AcDbCircle
 10
-2626.398325492441
 20
-1793.844449999956
 30
0.0
 40
3.998470999999998
100
AcDbArc
 50
269.9835380000031
 51
284.3625189999904
  0
LINE
  5
1A2F
330
A
100
AcDbEntity
  8
HEWI
100
AcDbLine
 10
-2623.199472492435
 20
-1721.055855499955
 30
0.0
 11
-2583.199472492434
 21
-1721.055855499958
 31
0.0
  0
LINE
  5
1A30
330
A
100
AcDbEntity
  8
HEWI
  6
STANDARD
 62
     7
100
AcDbLine
 10
-2583.19947249244
 20
-1796.613811499958
 30
0.0
 11
-2623.19947249244
 21
-1796.613811499955
 31
0.0
  0
LINE
  5
1A31
330
A
100
AcDbEntity
  8
HEWI
  6
STANDARD
 62
     7
100
AcDbLine
 10
-2623.19947249244
 20
-1796.113811499954
 30
0.0
 11
-2623.19947249244
 21
-1796.613811499955
 31
0.0
  0
LINE
  5
1A32
330
A
100
AcDbEntity
  8
HEWI
100
AcDbLine
 10
-2623.199472492435
 20
-1721.055855499955
 30
0.0
 11
-2623.199472492435
 21
-1721.555855499955
 31
0.0
  0
LINE
  5
1A33
330
A
100
AcDbEntity
  8
HEWI
  6
STANDARD
 62
     7
100
AcDbLine
 10
-2623.199472492435
 20
-1721.555855499955
 30
0.0
 11
-2623.19947249244
 21
-1796.113811499954
 31
0.0
  0
LINE
  5
1A34
330
A
100
AcDbEntity
  8
HEWI
100
AcDbLine
 10
-2623.199472492435
 20
-1721.555855499955
 30
0.0
 11
-2583.199472492434
 21
-1721.555855499958
 31
0.0
  0
LINE
  5
1A35
330
A
100
AcDbEntity
  8
HEWI
  6
STANDARD
 62
     7
100
AcDbLine
 10
-2583.19947249244
 20
-1796.113811499957
 30
0.0
 11
-2623.19947249244
 21
-1796.113811499954
 31
0.0
  0
LINE
  5
1A36
330
A
100
AcDbEntity
  8
HEWI
100
AcDbLine
 10
-2620.699472492435
 20
-1724.668263499957
 30
0.0
 11
-2620.69947249244
 21
-1793.168263499955
 31
0.0
  0
LINE
  5
1A37
330
A
100
AcDbEntity
  8
HEWI
100
AcDbLine
 10
-2619.699472492435
 20
-1723.668263499956
 30
0.0
 11
-2586.699472492435
 21
-1723.668263499958
 31
0.0
  0
LINE
  5
1A38
330
A
100
AcDbEntity
  8
HEWI
100
AcDbLine
 10
-2619.69947249244
 20
-1794.168263499955
 30
0.0
 11
-2586.69947249244
 21
-1794.168263499958
 31
0.0
  0
LINE
  5
1A39
330
A
100
AcDbEntity
  8
HEWI
100
AcDbLine
 10
-2585.699472492435
 20
-1724.668263499959
 30
0.0
 11
-2585.69947249244
 21
-1793.168263499958
 31
0.0
  0
LINE
  5
1A3A
330
A
100
AcDbEntity
  8
HEWI
  6
STANDARD
 62
     7
100
AcDbLine
 10
-2583.19947249244
 20
-1796.613811499958
 30
0.0
 11
-2583.19947249244
 21
-1796.113811499957
 31
0.0
  0
LINE
  5
1A3B
330
A
100
AcDbEntity
  8
HEWI
100
AcDbLine
 10
-2583.199472492434
 20
-1721.555855499958
 30
0.0
 11
-2583.199472492434
 21
-1721.055855499958
 31
0.0
  0
LINE
  5
1A3C
330
A
100
AcDbEntity
  8
HEWI
  6
STANDARD
 62
     7
100
AcDbLine
 10
-2583.199472492434
 20
-1721.555855499958
 30
0.0
 11
-2583.19947249244
 21
-1796.113811499957
 31
0.0
  0
LINE
  5
1A3D
330
A
100
AcDbEntity
  8
HEWI
  6
STANDARD
 62
     7
100
AcDbLine
 10
-2625.19947249244
 20
-1797.592995499955
 30
0.0
 11
-2625.19947249244
 21
-1797.392995499956
 31
0.0
  0
LINE
  5
1A3E
330
A
100
AcDbEntity
  8
HEWI
  6
STANDARD
 62
     7
100
AcDbLine
 10
-2625.199472492435
 20
-1720.843495499955
 30
0.0
 11
-2625.19947249244
 21
-1797.392995499956
 31
0.0
  0
LINE
  5
1A3F
330
A
100
AcDbEntity
  8
HEWI
100
AcDbLine
 10
-2625.199472492435
 20
-1720.643495499956
 30
0.0
 11
-2625.199472492435
 21
-1720.843495499955
 31
0.0
  0
LINE
  5
1A40
330
A
100
AcDbEntity
  8
HEWI
100
AcDbLine
 10
-2620.44947249244
 20
-1792.918263499957
 30
0.0
 11
-2620.449472492437
 21
-1758.918263499957
 31
0.0
  0
LINE
  5
1A41
330
A
100
AcDbEntity
  8
HEWI
100
AcDbLine
 10
-2586.94947249244
 20
-1793.918263499958
 30
0.0
 11
-2619.44947249244
 21
-1793.918263499955
 31
0.0
  0
LINE
  5
1A42
330
A
100
AcDbEntity
  8
HEWI
100
AcDbLine
 10
-2585.94947249244
 20
-1792.918263499959
 30
0.0
 11
-2585.949472492437
 21
-1758.918263499959
 31
0.0
  0
LINE
  5
1A43
330
A
100
AcDbEntity
  8
HEWI
100
AcDbLine
 10
-2620.449472492437
 20
-1758.918263499957
 30
0.0
 11
-2620.449472492435
 21
-1724.918263499955
 31
0.0
  0
LINE
  5
1A44
330
A
100
AcDbEntity
  8
HEWI
100
AcDbLine
 10
-2619.449472492435
 20
-1723.918263499956
 30
0.0
 11
-2586.949472492435
 21
-1723.918263499958
 31
0.0
  0
LINE
  5
1A45
330
A
100
AcDbEntity
  8
HEWI
100
AcDbLine
 10
-2585.949472492437
 20
-1758.918263499959
 30
0.0
 11
-2585.949472492435
 21
-1724.918263499958
 31
0.0
  0
ARC
  5
1A46
330
A
100
AcDbEntity
  8
HEWI
100
AcDbCircle
 10
2619.699472492435
 20
-1724.668263499957
 30
0.0
 40
1.0
210
0.0
220
0.0
230
-1.0
100
AcDbArc
 50
0.0000000000041488
 51
90.0
  0
ARC
  5
1A47
330
A
100
AcDbEntity
  8
HEWI
100
AcDbCircle
 10
2619.69947249244
 20
-1793.168263499955
 30
0.0
 40
1.0
210
0.0
220
0.0
230
-1.0
100
AcDbArc
 50
270.0
 51
0.0000000000041488
  0
ARC
  5
1A48
330
A
100
AcDbEntity
  8
HEWI
100
AcDbCircle
 10
2586.699472492435
 20
-1724.668263499959
 30
0.0
 40
1.0
210
0.0
220
0.0
230
-1.0
100
AcDbArc
 50
90.0
 51
180.0000000000041
  0
ARC
  5
1A49
330
A
100
AcDbEntity
  8
HEWI
100
AcDbCircle
 10
2586.69947249244
 20
-1793.168263499958
 30
0.0
 40
1.0
210
0.0
220
0.0
230
-1.0
100
AcDbArc
 50
180.0000000000041
 51
270.0
  0
ARC
  5
1A4A
330
A
100
AcDbEntity
  8
HEWI
100
AcDbCircle
 10
-2619.44947249244
 20
-1792.918263499957
 30
0.0
 40
1.0
100
AcDbArc
 50
179.9999999999958
 51
270.0
  0
ARC
  5
1A4B
330
A
100
AcDbEntity
  8
HEWI
100
AcDbCircle
 10
-2586.94947249244
 20
-1792.918263499959
 30
0.0
 40
1.0
100
AcDbArc
 50
270.0
 51
359.9999999999959
  0
ARC
  5
1A4C
330
A
100
AcDbEntity
  8
HEWI
100
AcDbCircle
 10
-2619.449472492435
 20
-1724.918263499955
 30
0.0
 40
1.0
100
AcDbArc
 50
90.0
 51
179.9999999999958
  0
ARC
  5
1A4D
330
A
100
AcDbEntity
  8
HEWI
100
AcDbCircle
 10
-2586.949472492435
 20
-1724.918263499958
 30
0.0
 40
1.0
100
AcDbArc
 50
359.9999999999959
 51
90.0
  0
ELLIPSE
  5
1A4E
330
A
100
AcDbEntity
  8
HEWI
  6
STANDARD
 62
     7
100
AcDbEllipse
 10
-2623.39947249244
 20
-1796.338029499955
 30
0.0
 11
0.2
 21
-0.0000000000000146
 31
0.0
210
0.0
220
0.0
230
-1.0
 40
0.90136
 41
0.0
 42
0.6599300405254424
  0
SPLINE
  5
1A4F
330
A
100
AcDbEntity
  8
HEWI
100
AcDbSpline
210
0.0
220
0.0
230
1.0
 70
     8
 71
     3
 72
    12
 73
     8
 74
     0
 42
0.000000001
 43
0.0000000001
 40
0.0
 40
0.0
 40
0.0
 40
0.0
 40
0.129584674490289
 40
0.3660981216981058
 40
0.6122957521584437
 40
0.8793126725148667
 40
1.0
 40
1.0
 40
1.0
 40
1.0
 10
-2624.930891038856
 20
-1720.666312708372
 30
0.0
 10
-2624.80460584585
 20
-1720.669360544409
 30
0.0
 10
-2624.464147937431
 20
-1720.693914281921
 30
0.0
 10
-2623.954782845101
 20
-1720.836252802987
 30
0.0
 10
-2623.498206616417
 20
-1721.067335482014
 30
0.0
 10
-2623.231702963003
 20
-1721.309959571251
 30
0.0
 10
-2623.216800364065
 20
-1721.510193366115
 30
0.0
 10
-2623.222841835135
 20
-1721.576360844929
 30
0.0
  0
SPLINE
  5
1A50
330
A
100
AcDbEntity
  8
HEWI
  6
STANDARD
 62
     7
100
AcDbSpline
210
0.0
220
0.0
230
1.0
 70
     8
 71
     3
 72
    16
 73
    12
 74
     0
 42
0.000000001
 43
0.0000000001
 40
0.0
 40
0.0
 40
0.0
 40
0.0
 40
0.1053123592843732
 40
0.1053123592843732
 40
0.3301327988397731
 40
0.3301327988397731
 40
0.6504275187068807
 40
0.6504275187068807
 40
0.9722491720568131
 40
0.9722491720568131
 40
1.0
 40
1.0
 40
1.0
 40
1.0
 10
-2625.199472311056
 20
-1797.556653058231
 30
0.0
 10
-2625.116699370039
 20
-1797.556653058231
 30
0.0
 10
-2625.033650537249
 20
-1797.552664065082
 30
0.0
 10
-2624.779575610796
 20
-1797.528367247755
 30
0.0
 10
-2624.6102675975
 20
-1797.494122038195
 30
0.0
 10
-2624.238943776271
 20
-1797.381526155463
 30
0.0
 10
-2624.044429396695
 20
-1797.288783886858
 30
0.0
 10
-2623.731971816662
 20
-1797.084474185564
 30
0.0
 10
-2623.608356475653
 20
-1796.969417479427
 30
0.0
 10
-2623.518645294699
 20
-1796.845600933045
 30
0.0
 10
-2623.511809601325
 20
-1796.835752527509
 30
0.0
 10
-2623.505264716463
 20
-1796.825893512608
 30
0.0
  0
SPLINE
  5
1A51
330
A
100
AcDbEntity
  8
HEWI
100
AcDbSpline
210
0.0
220
0.0
230
1.0
 70
     8
 71
     3
 72
    16
 73
    12
 74
     0
 42
0.000000001
 43
0.0000000001
 40
0.0
 40
0.0
 40
0.0
 40
0.0
 40
0.1945552639644179
 40
0.1945552639644179
 40
0.3878946385599321
 40
0.3878946385599321
 40
0.5892372746630514
 40
0.5892372746630514
 40
0.8080348914056751
 40
0.8080348914056751
 40
1.0
 40
1.0
 40
1.0
 40
1.0
 10
-2625.19947231105
 20
-1720.843495430652
 30
0.0
 10
-2624.990455103072
 20
-1720.843495430652
 30
0.0
 10
-2624.778627160579
 20
-1720.858011677712
 30
0.0
 10
-2624.385360606782
 20
-1720.911689716375
 30
0.0
 10
-2624.198620222562
 20
-1720.951259207951
 30
0.0
 10
-2623.862713289118
 20
-1721.048233355535
 30
0.0
 10
-2623.711045789896
 20
-1721.107413026934
 30
0.0
 10
-2623.454936342382
 20
-1721.238218700233
 30
0.0
 10
-2623.352149322303
 20
-1721.312164299114
 30
0.0
 10
-2623.22931616944
 20
-1721.448825518856
 30
0.0
 10
-2623.199472311052
 20
-1721.513185554286
 30
0.0
 10
-2623.199472311052
 20
-1721.573840385855
 30
0.0
  0
SPLINE
  5
1A52
330
A
100
AcDbEntity
  8
HEWI
  6
STANDARD
 62
     7
100
AcDbSpline
210
0.0
220
0.0
230
1.0
 70
     8
 71
     3
 72
    16
 73
    12
 74
     0
 42
0.000000001
 43
0.0000000001
 40
0.0
 40
0.0
 40
0.0
 40
0.0
 40
0.2481016251448624
 40
0.2481016251448624
 40
0.4963851440995061
 40
0.4963851440995061
 40
0.7438538839225557
 40
0.7438538839225557
 40
0.9181884979193776
 40
0.9181884979193776
 40
1.0
 40
1.0
 40
1.0
 40
1.0
 10
-2623.199472311059
 20
-1796.338029142619
 30
0.0
 10
-2623.199472311059
 20
-1796.447017104634
 30
0.0
 10
-2623.248155808243
 20
-1796.564895138836
 30
0.0
 10
-2623.431490709114
 20
-1796.796268565063
 30
0.0
 10
-2623.568933989873
 20
-1796.913271612589
 30
0.0
 10
-2623.916348483905
 20
-1797.120993411259
 30
0.0
 10
-2624.13272603918
 20
-1797.215206539666
 30
0.0
 10
-2624.545091527048
 20
-1797.329543917242
 30
0.0
 10
-2624.733154623896
 20
-1797.364276810032
 30
0.0
 10
-2625.015255424226
 20
-1797.388944479223
 30
0.0
 10
-2625.107512575829
 20
-1797.392994714208
 30
0.0
 10
-2625.199472311056
 20
-1797.392994714208
 30
0.0
  0
SPLINE
  5
1A53
330
A
100
AcDbEntity
  8
HEWI
100
AcDbSpline
210
0.0
220
0.0
230
1.0
 70
     8
 71
     3
 72
     8
 73
     4
 74
     0
 42
0.000000001
 43
0.0000000001
 40
0.0
 40
0.0
 40
0.0
 40
0.0
 40
1.0
 40
1.0
 40
1.0
 40
1.0
 10
-2624.940634924986
 20
-1720.67160110835
 30
0.0
 10
-2625.026428126518
 20
-1720.665771710654
 30
0.0
 10
-2625.113217821017
 20
-1720.662754130111
 30
0.0
 10
-2625.19947231105
 20
-1720.662754130111
 30
0.0
  0
LWPOLYLINE
  5
1A60
330
A
100
AcDbEntity
  8
0
  6
CUSTOM
 62
    18
420
        0
370
     9
100
AcDbPolyline
 90
       30
 70
     1
 43
0.0
 10
-2623.39947251533
 20
-1721.678933473733
 10
-2623.399472515335
 20
-1796.736935540059
 10
-2623.399472515335
 20
-1796.853935543276
 10
-2623.399472515335
 20
-1796.96493554633
 10
-2623.399472515335
 20
-1797.063935549061
 10
-2623.399472515335
 20
-1797.142935551233
 10
-2623.399472515335
 20
-1797.199935552802
 10
-2623.399472515335
 20
-1797.230935553652
 10
-2623.399472515335
 20
-1797.233935553737
 10
-2583.399472538229
 20
-1797.23393555374
 10
-2583.399472538229
 20
-1797.230935553655
 10
-2583.399472538229
 20
-1797.199935552805
 10
-2583.399472538229
 20
-1797.142935551236
 10
-2583.399472538229
 20
-1797.063935549063
 10
-2583.399472538229
 20
-1796.964935546333
 10
-2583.399472538229
 20
-1796.853935543279
 10
-2583.399472538229
 20
-1796.736935540062
 10
-2583.399472538224
 20
-1721.678933473736
 10
-2583.399472538224
 20
-1721.555933470349
 10
-2583.399472538224
 20
-1721.439933467154
 10
-2583.399472538224
 20
-1721.338933464375
 10
-2583.399472538224
 20
-1721.259933462195
 10
-2583.399472538224
 20
-1721.204933460685
 10
-2583.399472538224
 20
-1721.179933459995
 10
-2623.39947251533
 20
-1721.179933459993
 10
-2623.39947251533
 20
-1721.204933460682
 10
-2623.39947251533
 20
-1721.259933462192
 10
-2623.39947251533
 20
-1721.338933464372
 10
-2623.39947251533
 20
-1721.439933467151
 10
-2623.39947251533
 20
-1721.555933470346
  0
LWPOLYLINE
  5
1A61
330
A
100
AcDbEntity
  8
0
  6
CUSTOM
 62
    18
420
        0
370
     9
100
AcDbPolyline
 90
       28
 70
     1
 43
0.0
 10
-2620.899472516761
 20
-1725.040933566284
 10
-2620.86547251678
 20
-1724.781933559155
 10
-2620.765472516838
 20
-1724.540933552523
 10
-2620.606472516927
 20
-1724.333933546823
 10
-2620.399472517047
 20
-1724.174933542446
 10
-2620.158472517185
 20
-1724.07493353969
 10
-2619.899472517333
 20
-1724.040933538757
 10
-2586.899472536219
 20
-1724.040933538759
 10
-2586.640472536368
 20
-1724.074933539692
 10
-2586.399472536507
 20
-1724.174933542449
 10
-2586.192472536624
 20
-1724.333933546825
 10
-2586.033472536716
 20
-1724.540933552525
 10
-2585.933472536772
 20
-1724.781933559158
 10
-2585.899472536792
 20
-1725.040933566287
 10
-2585.899472536797
 20
-1793.540935452073
 10
-2585.933472536777
 20
-1793.799935459205
 10
-2586.033472536721
 20
-1794.04093546584
 10
-2586.192472536629
 20
-1794.247935471539
 10
-2586.399472536512
 20
-1794.406935475915
 10
-2586.640472536373
 20
-1794.506935478664
 10
-2586.899472536224
 20
-1794.540935479602
 10
-2619.899472517338
 20
-1794.5409354796
 10
-2620.15847251719
 20
-1794.506935478662
 10
-2620.399472517052
 20
-1794.406935475912
 10
-2620.606472516932
 20
-1794.247935471537
 10
-2620.765472516843
 20
-1794.040935465837
 10
-2620.865472516785
 20
-1793.799935459202
 10
-2620.899472516766
 20
-1793.54093545207
  0
HATCH
  5
1F02
330
A
100
AcDbEntity
  8
0
 62
   152
420
    28896
100
AcDbHatch
 10
0.0
 20
0.0
 30
0.0
210
0.0
220
0.0
230
1.0
  2
SOLID
 70
     1
 71
     0
 91
        3
 92
        7
 72
     1
 73
     1
 93
       10
 10
-2620.449472492435
 20
-1724.918263499953
 42
-0.4142135623730968
 10
-2619.449472492435
 20
-1723.918263499953
 42
0.0
 10
-2586.949472492435
 20
-1723.918263499955
 42
-0.414213562373093
 10
-2585.949472492435
 20
-1724.918263499955
 42
0.0
 10
-2585.949472492437
 20
-1758.918263499956
 42
0.0
 10
-2585.94947249244
 20
-1792.918263499957
 42
-0.4142135623730973
 10
-2586.94947249244
 20
-1793.918263499956
 42
0.0
 10
-2619.44947249244
 20
-1793.918263499954
 42
-0.4142135623730849
 10
-2620.44947249244
 20
-1792.918263499954
 42
0.0
 10
-2620.449472492437
 20
-1758.918263499954
 42
0.0
 97
        0
 92
       20
 93
        6
 72
     4
 94
        5
 73
     1
 74
     0
 95
       12
 96
        6
 40
0.4960304773248839
 40
0.4960304773248839
 40
0.4960304773248839
 40
0.4960304773248839
 40
0.4960304773248839
 40
0.4960304773248839
 40
0.5039695226751161
 40
0.5039695226751161
 40
0.5039695226751161
 40
0.5039695226751161
 40
0.5039695226751161
 40
0.5039695226751161
 10
-2610.778490015321
 20
-1757.154405480526
 42
1.0
 10
-2611.149176061312
 20
-1756.956233362503
 42
1.0
 10
-2611.506133997153
 20
-1756.732382461206
 42
1.0
 10
-2611.86124994324
 20
-1757.396635975957
 42
1.0
 10
-2611.503054843496
 20
-1757.61817273034
 42
1.0
 10
-2611.132368797507
 20
-1757.816344848364
 42
1.0
 97
        0
 72
     4
 94
        5
 73
     1
 74
     0
 95
       12
 96
        6
 40
0.5039695226751161
 40
0.5039695226751161
 40
0.5039695226751161
 40
0.5039695226751161
 40
0.5039695226751161
 40
0.5039695226751161
 40
1.0
 40
1.0
 40
1.0
 40
1.0
 40
1.0
 40
1.0
 10
-2611.132368797507
 20
-1757.816344848364
 42
1.0
 10
-2609.677329375602
 20
-1758.594222103701
 42
0.952754144170146
 10
-2608.048400629721
 20
-1759.012835211182
 42
0.92913121625522
 10
-2606.356564595909
 20
-1759.012852169012
 42
0.92913121625522
 10
-2604.727665242143
 20
-1758.594271715816
 42
0.952754144170146
 10
-2603.272680438501
 20
-1757.816423628609
 42
1.0
 97
        0
 72
     4
 94
        5
 73
     1
 74
     0
 95
       12
 96
        6
 40
0.0
 40
0.0
 40
0.0
 40
0.0
 40
0.0
 40
0.0
 40
1.0
 40
1.0
 40
1.0
 40
1.0
 40
1.0
 40
1.0
 10
-2603.272680438501
 20
-1757.816423628609
 42
1.0
 10
-2601.94821198953
 20
-1757.109867864411
 42
0.9529220753075458
 10
-2600.466060773142
 20
-1756.729755509079
 42
0.929383112961319
 10
-2598.926863262655
 20
-1756.729772462312
 42
0.929383112961319
 10
-2597.444682653311
 20
-1757.109917467783
 42
0.9529220753075458
 10
-2596.120159569704
 20
-1757.816502408853
 42
1.0
 97
        0
 72
     4
 94
        5
 73
     1
 74
     0
 95
       12
 96
        6
 40
0.0
 40
0.0
 40
0.0
 40
0.0
 40
0.0
 40
0.0
 40
0.0157553232654262
 40
0.0157553232654262
 40
0.0157553232654262
 40
0.0157553232654262
 40
0.0157553232654262
 40
0.0157553232654262
 10
-2596.120159569704
 20
-1757.816502408853
 42
1.0
 10
-2595.749297055966
 20
-1758.014344085347
 42
1.0
 10
-2595.392114651335
 20
-1758.237829699662
 42
1.0
 10
-2595.037597028664
 20
-1757.573271558841
 42
1.0
 10
-2595.396008347945
 20
-1757.352089596532
 42
1.0
 10
-2595.766870861681
 20
-1757.154247920037
 42
1.0
 97
        0
 72
     4
 94
        5
 73
     1
 74
     0
 95
       12
 96
        6
 40
0.0157553232654262
 40
0.0157553232654262
 40
0.0157553232654262
 40
0.0157553232654262
 40
0.0157553232654262
 40
0.0157553232654262
 40
1.0
 40
1.0
 40
1.0
 40
1.0
 40
1.0
 40
1.0
 10
-2595.766870861681
 20
-1757.154247920037
 42
1.0
 10
-2597.222237156132
 20
-1756.377862879919
 42
0.9529220753075458
 10
-2598.850868512038
 20
-1755.960182983845
 42
0.929383112961319
 10
-2600.542182505657
 20
-1755.960199937079
 42
0.929383112961319
 10
-2602.17084325452
 20
-1756.377912483289
 42
0.9529220753075458
 10
-2603.626264183606
 20
-1757.154326700282
 42
1.0
 97
        0
 72
     4
 94
        5
 73
     1
 74
     0
 95
       12
 96
        6
 40
0.0
 40
0.0
 40
0.0
 40
0.0
 40
0.0
 40
0.0
 40
0.4960304773248839
 40
0.4960304773248839
 40
0.4960304773248839
 40
0.4960304773248839
 40
0.4960304773248839
 40
0.4960304773248839
 10
-2603.626264183606
 20
-1757.154326700282
 42
1.0
 10
-2604.950335747814
 20
-1757.862187321244
 42
0.952754144170146
 10
-2606.432643457619
 20
-1758.243121878508
 42
0.92913121625522
 10
-2607.972194751685
 20
-1758.243138836339
 42
0.92913121625522
 10
-2609.454473069377
 20
-1757.862236933357
 42
0.952754144170146
 10
-2610.778490015321
 20
-1757.154405480526
 42
1.0
 97
        0
 97
        0
 92
       20
 93
        6
 72
     4
 94
        5
 73
     1
 74
     0
 95
       12
 96
        6
 40
0.4960304773248839
 40
0.4960304773248839
 40
0.4960304773248839
 40
0.4960304773248839
 40
0.4960304773248839
 40
0.4960304773248839
 40
0.5039695226751161
 40
0.5039695226751161
 40
0.5039695226751161
 40
0.5039695226751161
 40
0.5039695226751161
 40
0.5039695226751161
 10
-2610.778490015322
 20
-1760.281887603593
 42
1.0
 10
-2611.149176061312
 20
-1760.08371548557
 42
1.0
 10
-2611.506133997153
 20
-1759.859864584272
 42
1.0
 10
-2611.86124994324
 20
-1760.524118099024
 42
1.0
 10
-2611.503054843497
 20
-1760.745654853408
 42
1.0
 10
-2611.132368797507
 20
-1760.943826971431
 42
1.0
 97
        0
 72
     4
 94
        5
 73
     1
 74
     0
 95
       12
 96
        6
 40
0.5039695226751161
 40
0.5039695226751161
 40
0.5039695226751161
 40
0.5039695226751161
 40
0.5039695226751161
 40
0.5039695226751161
 40
1.0
 40
1.0
 40
1.0
 40
1.0
 40
1.0
 40
1.0
 10
-2611.132368797507
 20
-1760.943826971431
 42
1.0
 10
-2609.677329375603
 20
-1761.721704226769
 42
0.952754144170146
 10
-2608.048400629721
 20
-1762.140317334249
 42
0.92913121625522
 10
-2606.356564595909
 20
-1762.140334292079
 42
0.92913121625522
 10
-2604.727665242143
 20
-1761.721753838883
 42
0.952754144170146
 10
-2603.272680438501
 20
-1760.943905751676
 42
1.0
 97
        0
 72
     4
 94
        5
 73
     1
 74
     0
 95
       12
 96
        6
 40
0.0
 40
0.0
 40
0.0
 40
0.0
 40
0.0
 40
0.0
 40
1.0
 40
1.0
 40
1.0
 40
1.0
 40
1.0
 40
1.0
 10
-2603.272680438501
 20
-1760.943905751676
 42
1.0
 10
-2601.94821198953
 20
-1760.237349987478
 42
0.9529220753075458
 10
-2600.466060773142
 20
-1759.857237632144
 42
0.929383112961319
 10
-2598.926863262655
 20
-1759.857254585378
 42
0.929383112961319
 10
-2597.444682653312
 20
-1760.237399590849
 42
0.9529220753075458
 10
-2596.120159569704
 20
-1760.943984531921
 42
1.0
 97
        0
 72
     4
 94
        5
 73
     1
 74
     0
 95
       12
 96
        6
 40
0.0
 40
0.0
 40
0.0
 40
0.0
 40
0.0
 40
0.0
 40
0.0157553232654262
 40
0.0157553232654262
 40
0.0157553232654262
 40
0.0157553232654262
 40
0.0157553232654262
 40
0.0157553232654262
 10
-2596.120159569704
 20
-1760.943984531921
 42
1.0
 10
-2595.749297055967
 20
-1761.141826208415
 42
1.0
 10
-2595.392114651335
 20
-1761.365311822729
 42
1.0
 10
-2595.037597028665
 20
-1760.700753681908
 42
1.0
 10
-2595.396008347945
 20
-1760.479571719599
 42
1.0
 10
-2595.766870861681
 20
-1760.281730043105
 42
1.0
 97
        0
 72
     4
 94
        5
 73
     1
 74
     0
 95
       12
 96
        6
 40
0.0157553232654262
 40
0.0157553232654262
 40
0.0157553232654262
 40
0.0157553232654262
 40
0.0157553232654262
 40
0.0157553232654262
 40
1.0
 40
1.0
 40
1.0
 40
1.0
 40
1.0
 40
1.0
 10
-2595.766870861681
 20
-1760.281730043105
 42
1.0
 10
-2597.222237156133
 20
-1759.505345002987
 42
0.9529220753075458
 10
-2598.850868512038
 20
-1759.087665106912
 42
0.929383112961319
 10
-2600.542182505658
 20
-1759.087682060146
 42
0.929383112961319
 10
-2602.17084325452
 20
-1759.505394606355
 42
0.9529220753075458
 10
-2603.626264183606
 20
-1760.281808823349
 42
1.0
 97
        0
 72
     4
 94
        5
 73
     1
 74
     0
 95
       12
 96
        6
 40
0.0
 40
0.0
 40
0.0
 40
0.0
 40
0.0
 40
0.0
 40
0.4960304773248839
 40
0.4960304773248839
 40
0.4960304773248839
 40
0.4960304773248839
 40
0.4960304773248839
 40
0.4960304773248839
 10
-2603.626264183606
 20
-1760.281808823349
 42
1.0
 10
-2604.950335747814
 20
-1760.989669444311
 42
0.952754144170146
 10
-2606.432643457619
 20
-1761.370604001576
 42
0.92913121625522
 10
-2607.972194751685
 20
-1761.370620959405
 42
0.92913121625522
 10
-2609.454473069377
 20
-1760.989719056424
 42
0.952754144170146
 10
-2610.778490015322
 20
-1760.281887603593
 42
1.0
 97
        0
 97
        0
 75
     1
 76
     1
 47
0.1141113672883229
 98
        3
 10
-2609.765455343185
 20
-1735.918326565577
 10
-2609.765455343185
 20
-1735.918326565577
 10
-2609.765455343185
 20
-1735.918326565577
450
        0
451
        0
460
0.0
461
0.0
452
        0
462
1.0
453
        2
463
0.0
 63
     5
421
      255
463
1.0
 63
     2
421
 16776960
470
LINEAR
1001
GradientColor1ACI
1070
     5
1001
GradientColor2ACI
1070
     2
1001
ACAD
1010
0.0
1020
0.0
1030
0.0
  0
ENDSEC
  0
SECTION
  2
OBJECTS
  0
DICTIONARY
  5
19
330
0
100
AcDbDictionary
281
     1
  3
ACAD_CIP_PREVIOUS_PRODUCT_INFO
350
36C
  3
ACAD_COLOR
350
34B
  3
ACAD_DETAILVIEWSTYLE
350
364
  3
ACAD_GROUP
350
1A
  3
ACAD_LAYOUT
350
366
  3
ACAD_MATERIAL
350
319
  3
ACAD_MLEADERSTYLE
350
360
  3
ACAD_MLINESTYLE
350
1B
  3
ACAD_PLOTSETTINGS
350
367
  3
ACAD_PLOTSTYLENAME
350
317
  3
ACAD_SCALELIST
350
34E
  3
ACAD_SECTIONVIEWSTYLE
350
362
  3
ACAD_TABLESTYLE
350
34C
  3
ACAD_VISUALSTYLE
350
332
  3
ACDB_RECOMPOSE_DATA
350
204C
  3
AcDbVariableDictionary
350
509
  0
DICTIONARY
  5
372
330
2
100
AcDbDictionary
280
     1
281
     1
  3
ACAD_LAYERSTATES
360
373
  0
DICTIONARY
  5
65A
330
14
100
AcDbDictionary
280
     1
281
     1
  3
ADSK_XREC_LAYER_RECONCILED
360
65B
  0
DICTIONARY
  5
65C
330
1D
100
AcDbDictionary
280
     1
281
     1
  3
ADSK_XREC_LAYER_RECONCILED
360
65D
  0
DICTIONARY
  5
65E
330
36D
100
AcDbDictionary
280
     1
281
     1
  3
ADSK_XREC_LAYER_RECONCILED
360
65F
  0
DICTIONARY
  5
1F03
330
A
100
AcDbDictionary
280
     1
281
     1
  3
ACAD_SORTENTS
360
1F04
  0
XRECORD
  5
36C
102
{ACAD_REACTORS
330
19
102
}
330
19
100
AcDbXrecord
280
     1
300
ACDLT
300
2016
300

  0
DICTIONARY
  5
34B
102
{ACAD_REACTORS
330
19
102
}
330
19
100
AcDbDictionary
281
     1
  0
DICTIONARY
  5
364
102
{ACAD_REACTORS
330
19
102
}
330
19
100
AcDbDictionary
281
     1
  3
Imperial24
350
365
  0
DICTIONARY
  5
1A
102
{ACAD_REACTORS
330
19
102
}
330
19
100
AcDbDictionary
281
     1
  0
DICTIONARY
  5
366
102
{ACAD_REACTORS
330
19
102
}
330
19
100
AcDbDictionary
281
     1
  3
Layout1
350
369
  3
Model
350
368
  0
DICTIONARY
  5
319
102
{ACAD_REACTORS
330
19
102
}
330
19
100
AcDbDictionary
281
     1
  3
ByBlock
350
322
  3
ByLayer
350
31A
  3
Global
350
32A
  0
DICTIONARY
  5
360
102
{ACAD_REACTORS
330
19
102
}
330
19
100
AcDbDictionary
281
     1
  3
Standard
350
361
  0
DICTIONARY
  5
1B
102
{ACAD_REACTORS
330
19
102
}
330
19
100
AcDbDictionary
281
     1
  3
STANDARD
350
1C
  0
DICTIONARY
  5
367
102
{ACAD_REACTORS
330
19
102
}
330
19
100
AcDbDictionary
281
     1
  0
ACDBDICTIONARYWDFLT
  5
317
102
{ACAD_REACTORS
330
19
102
}
330
19
100
AcDbDictionary
281
     1
  3
Normal
350
318
100
AcDbDictionaryWithDefault
340
318
  0
DICTIONARY
  5
34E
102
{ACAD_REACTORS
330
19
102
}
330
19
100
AcDbDictionary
281
     1
  3
A0
350
34F
  3
A1
350
350
  3
A2
350
351
  3
A3
350
352
  3
A4
350
353
  3
A5
350
354
  3
A6
350
355
  3
A7
350
356
  3
A8
350
357
  3
A9
350
358
  3
B0
350
359
  3
B1
350
35A
  3
B2
350
35B
  3
B3
350
35C
  3
B4
350
35D
  3
B5
350
35E
  3
B6
350
35F
  0
DICTIONARY
  5
362
102
{ACAD_REACTORS
330
19
102
}
330
19
100
AcDbDictionary
281
     1
  3
Imperial24
350
363
  0
DICTIONARY
  5
34C
102
{ACAD_REACTORS
330
19
102
}
330
19
100
AcDbDictionary
281
     1
  3
Standard
350
34D
  0
DICTIONARY
  5
332
102
{ACAD_REACTORS
330
19
102
}
330
19
100
AcDbDictionary
281
     1
  3
2dWireframe
350
338
  3
Basic
350
337
  3
Brighten
350
33E
  3
ColorChange
350
342
  3
Conceptual
350
33B
  3
Dim
350
33D
  3
EdgeColorOff
350
34A
  3
Facepattern
350
341
  3
Flat
350
333
  3
FlatWithEdges
350
334
  3
Gouraud
350
335
  3
GouraudWithEdges
350
336
  3
Hidden
350
33A
  3
JitterOff
350
348
  3
Linepattern
350
340
  3
OverhangOff
350
349
  3
Realistic
350
33C
  3
Shaded
350
347
  3
Shaded with edges
350
346
  3
Shades of Gray
350
343
  3
Sketchy
350
344
  3
Thicken
350
33F
  3
Wireframe
350
339
  3
X-Ray
350
345
  0
XRECORD
  5
204C
102
{ACAD_REACTORS
330
19
102
}
330
19
100
AcDbXrecord
280
     1
 90
        1
330
34D
  0
DICTIONARY
  5
509
102
{ACAD_REACTORS
330
19
102
}
330
19
100
AcDbDictionary
281
     1
  3
CANNOSCALE
350
50F
  3
CMLEADERSTYLE
350
50B
  3
CTABLESTYLE
350
50A
  3
CVIEWDETAILSTYLE
350
50C
  3
CVIEWSECTIONSTYLE
350
50D
  3
LAYEREVAL
350
511
  3
LAYERNOTIFY
350
512
  3
LIGHTINGUNITS
350
510
  3
MSLTSCALE
350
50E
  0
DICTIONARY
  5
373
102
{ACAD_REACTORS
330
372
102
}
330
372
100
AcDbDictionary
281
     1
  0
XRECORD
  5
65B
102
{ACAD_REACTORS
330
65A
102
}
330
65A
100
AcDbXrecord
280
     1
290
     1
  0
XRECORD
  5
65D
102
{ACAD_REACTORS
330
65C
102
}
330
65C
100
AcDbXrecord
280
     1
290
     1
  0
XRECORD
  5
65F
102
{ACAD_REACTORS
330
65E
102
}
330
65E
100
AcDbXrecord
280
     1
290
     1
  0
SORTENTSTABLE
  5
1F04
102
{ACAD_REACTORS
330
1F03
102
}
330
1F03
100
AcDbSortentsTable
330
A
331
19A8
  5
19A9
331
1810
  5
1811
331
1A49
  5
1A4A
331
19B9
  5
19BA
331
1821
  5
1822
331
19CA
  5
19CB
331
1832
  5
1833
331
18AB
  5
18AC
331
1843
  5
1844
331
19D4
  5
19D5
331
1865
  5
1866
331
18DE
  5
18DF
331
1A18
  5
1A19
331
18E8
  5
18E9
331
18F9
  5
18FA
331
190A
  5
190B
331
191B
  5
191C
331
1975
  5
1976
331
192C
  5
192D
331
1986
  5
1987
331
194E
  5
194F
331
1997
  5
1998
331
193D
  5
193E
331
1964
  5
1965
331
1A3A
  5
1A3B
331
1A29
  5
1A2A
331
1A07
  5
1A08
331
19F6
  5
19F7
331
18BC
  5
18BD
331
1854
  5
1855
331
189A
  5
189B
331
1889
  5
188A
331
1878
  5
1879
331
1998
  5
1999
331
1868
  5
1869
331
19A9
  5
19AD
331
1811
  5
1812
331
1A4A
  5
1A4B
331
19BA
  5
19BE
331
1822
  5
1823
331
19CB
  5
19CC
331
1833
  5
1834
331
18AC
  5
18AD
331
1844
  5
1845
331
19D5
  5
19D6
331
18CE
  5
18CF
331
1866
  5
1867
331
18DF
  5
18E0
331
1A19
  5
1A1A
331
18E9
  5
18EA
331
18FA
  5
18FB
331
190B
  5
190C
331
191C
  5
191D
331
1976
  5
1977
331
192D
  5
192E
331
1987
  5
1988
331
194F
  5
1950
331
193E
  5
193F
331
1965
  5
1966
331
1A3B
  5
1A3C
331
1A2A
  5
1A2B
331
1A08
  5
1A09
331
19F7
  5
19F8
331
18BD
  5
18BE
331
1855
  5
1856
331
189B
  5
189C
331
188A
  5
188B
331
1879
  5
187A
331
1988
  5
1989
331
1950
  5
1951
331
1869
  5
186A
331
1999
  5
199A
331
1A4B
  5
1A4C
331
187A
  5
187B
331
1812
  5
1813
331
188B
  5
188C
331
19CC
  5
19CD
331
18AD
  5
18AE
331
1845
  5
1846
331
19D6
  5
19D7
331
18CF
  5
18D0
331
1867
  5
1868
331
1A09
  5
1A0A
331
18EA
  5
18EB
331
1A1A
  5
1A1B
331
18FB
  5
18FC
331
190C
  5
190D
331
191D
  5
191E
331
1977
  5
1978
331
192E
  5
192F
331
193F
  5
1940
331
1966
  5
1967
331
1A3C
  5
1A3D
331
1A2B
  5
1A2C
331
19F8
  5
19F9
331
18BE
  5
18BF
331
1856
  5
1857
331
189C
  5
189D
331
1834
  5
1835
331
1823
  5
1824
331
1978
  5
1979
331
1940
  5
1941
331
1951
  5
1952
331
186A
  5
186B
331
199A
  5
199B
331
1989
  5
198A
331
1A4C
  5
1A4D
331
187B
  5
187C
331
1813
  5
1814
331
188C
  5
188D
331
19CD
  5
19CE
331
18AE
  5
18AF
331
1846
  5
1847
331
19D7
  5
19D8
331
18D0
  5
18D1
331
1A0A
  5
1A0B
331
18EB
  5
18EC
331
1A1B
  5
1A1C
331
18FC
  5
18FD
331
190D
  5
190E
331
191E
  5
191F
331
192F
  5
1930
331
1967
  5
1968
331
1A3D
  5
1A3E
331
1A2C
  5
1A2D
331
19F9
  5
19FA
331
18BF
  5
18C0
331
1857
  5
1858
331
189D
  5
189E
331
1835
  5
1836
331
1824
  5
1825
331
1968
  5
1969
331
1979
  5
197A
331
1930
  5
1931
331
198A
  5
198B
331
1952
  5
1953
331
186B
  5
186C
331
199B
  5
199C
331
1941
  5
1942
331
1A4D
  5
1A4E
331
187C
  5
187D
331
1814
  5
1815
331
188D
  5
188E
331
19CE
  5
19CF
331
18AF
  5
18B0
331
1847
  5
1848
331
19D8
  5
19D9
331
18D1
  5
18D2
331
19FA
  5
19FB
331
18EC
  5
18ED
331
1A1C
  5
1A1D
331
1A0B
  5
1A0C
331
18FD
  5
18FE
331
190E
  5
190F
331
191F
  5
1920
331
1A3E
  5
1A3F
331
1A2D
  5
1A2E
331
1F02
  5
1804
331
18C0
  5
18C1
331
1858
  5
1859
331
189E
  5
189F
331
1836
  5
1837
331
1825
  5
1826
331
1958
  5
1959
331
1920
  5
1921
331
197A
  5
197B
331
1931
  5
1932
331
198B
  5
198C
331
1953
  5
1954
331
199C
  5
199D
331
1804
  5
1805
331
1942
  5
1943
331
1969
  5
196A
331
19AD
  5
19AE
331
1815
  5
1816
331
1A4E
  5
1A4F
331
19BE
  5
19BF
331
1826
  5
1827
331
19CF
  5
19D0
331
1837
  5
1838
331
18B0
  5
18B1
331
1848
  5
1849
331
19D9
  5
19DA
331
18D2
  5
18D3
331
1A0C
  5
1A0D
331
18ED
  5
18EE
331
1A1D
  5
1A1E
331
18FE
  5
18FF
331
190F
  5
1910
331
1A3F
  5
1A40
331
1A2E
  5
1A2F
331
19FB
  5
19FC
331
18C1
  5
18C2
331
1859
  5
185A
331
189F
  5
18A0
331
188E
  5
188F
331
187D
  5
187E
331
186C
  5
186D
331
1A40
  5
1A41
331
1910
  5
1911
331
1921
  5
1922
331
197B
  5
197C
331
1932
  5
1933
331
198C
  5
198D
331
1954
  5
1955
331
199D
  5
199E
331
1805
  5
1806
331
1943
  5
1944
331
196A
  5
196B
331
1959
  5
195A
331
19AE
  5
19B2
331
1816
  5
1817
331
1A4F
  5
1A50
331
19BF
  5
19C0
331
1827
  5
1828
331
1A60
  5
1A61
331
18A0
  5
18A1
331
1838
  5
1839
331
18B1
  5
18B2
331
19DA
  5
19DC
331
18D3
  5
18D4
331
1A0D
  5
1A14
331
18EE
  5
18EF
331
1A1E
  5
1A1F
331
18FF
  5
1900
331
1A2F
  5
1A30
331
19FC
  5
19FD
331
18C2
  5
18C3
331
185A
  5
185B
331
1849
  5
184A
331
188F
  5
1890
331
187E
  5
187F
331
186D
  5
186E
331
1A30
  5
1A31
331
1900
  5
1901
331
1911
  5
1912
331
1922
  5
1923
331
197C
  5
197D
331
1933
  5
1934
331
198D
  5
198E
331
1955
  5
1956
331
199E
  5
199F
331
1806
  5
1807
331
1944
  5
1945
331
196B
  5
196C
331
195A
  5
195B
331
1A41
  5
1A42
331
1A50
  5
1A51
331
187F
  5
1880
331
1817
  5
1818
331
19C0
  5
19C1
331
1A61
  5
1D98
331
18A1
  5
18A2
331
1839
  5
183A
331
18B2
  5
18B3
331
19EC
  5
19ED
331
18C3
  5
18C4
331
19FD
  5
19FE
331
1A1F
  5
1A20
331
18EF
  5
18F0
331
18D4
  5
18D5
331
185B
  5
185C
331
184A
  5
184B
331
1890
  5
1891
331
1828
  5
1829
331
186E
  5
186F
331
1A20
  5
1A21
331
18F0
  5
18F1
331
1901
  5
1902
331
1912
  5
1913
331
1923
  5
1924
331
197D
  5
197E
331
1934
  5
1935
331
198E
  5
198F
331
1956
  5
1957
331
199F
  5
19A0
331
1807
  5
1808
331
1945
  5
1946
331
196C
  5
196D
331
195B
  5
195C
331
1A42
  5
1A43
331
1A31
  5
1A32
331
1A51
  5
1A52
331
1880
  5
1881
331
1818
  5
1819
331
19C1
  5
19C2
331
18A2
  5
18A3
331
183A
  5
183B
331
18B3
  5
18B4
331
19DC
  5
19DD
331
19ED
  5
19EE
331
18D5
  5
18D6
331
19FE
  5
19FF
331
18C4
  5
18C5
331
185C
  5
185D
331
184B
  5
184C
331
1891
  5
1892
331
1829
  5
182A
331
186F
  5
1870
331
18E0
  5
18E1
331
18F1
  5
18F2
331
1902
  5
1903
331
1913
  5
1914
331
1924
  5
1925
331
197E
  5
197F
331
1935
  5
1936
331
198F
  5
1990
331
1957
  5
1958
331
19A0
  5
19A1
331
1808
  5
1809
331
1946
  5
1947
331
196D
  5
196E
331
195C
  5
195D
331
1A43
  5
1A44
331
1A32
  5
1A33
331
1A21
  5
1A22
331
1A52
  5
1A53
331
1881
  5
1888
331
1819
  5
181A
331
19C2
  5
19C3
331
18A3
  5
18A4
331
183B
  5
183C
331
18B4
  5
18B5
331
19DD
  5
19EC
331
19EE
  5
19EF
331
18D6
  5
18D7
331
19FF
  5
1A00
331
18C5
  5
18C6
331
185D
  5
185E
331
184C
  5
184D
331
1892
  5
1894
331
182A
  5
182B
331
1870
  5
1871
331
1A00
  5
1A01
331
18E1
  5
18E2
331
18F2
  5
18F3
331
1903
  5
1904
331
1914
  5
1915
331
1925
  5
1926
331
197F
  5
1980
331
1936
  5
1937
331
1990
  5
1991
331
19A1
  5
19A2
331
1809
  5
180A
331
1947
  5
1948
331
196E
  5
196F
331
195D
  5
195E
331
1A44
  5
1A45
331
1A33
  5
1A34
331
1A22
  5
1A23
331
1A53
  5
1A60
331
19B2
  5
19B3
331
181A
  5
181B
331
19C3
  5
19C4
331
18A4
  5
18A5
331
18B5
  5
18B6
331
19EF
  5
19F0
331
18C6
  5
18C7
331
18D7
  5
18D8
331
185E
  5
185F
331
184D
  5
184E
331
183C
  5
183D
331
182B
  5
182C
331
1871
  5
1872
331
19F0
  5
19F1
331
18D8
  5
18D9
331
18E2
  5
18E3
331
18F3
  5
18F4
331
1904
  5
1905
331
1915
  5
1916
331
1926
  5
1927
331
1980
  5
1981
331
1937
  5
1938
331
1991
  5
1992
331
19A2
  5
19A3
331
180A
  5
180B
331
1948
  5
1949
331
196F
  5
1970
331
195E
  5
195F
331
1A45
  5
1A46
331
1A34
  5
1A35
331
1A23
  5
1A24
331
1A01
  5
1A02
331
19B3
  5
19B4
331
181B
  5
181C
331
19C4
  5
19C5
331
18A5
  5
18A6
331
183D
  5
183E
331
18B6
  5
18B7
331
18C7
  5
18C8
331
185F
  5
1860
331
184E
  5
184F
331
1894
  5
1895
331
182C
  5
182D
331
1872
  5
1873
331
18C8
  5
18C9
331
1860
  5
1861
331
18D9
  5
18DA
331
18E3
  5
18E4
331
18F4
  5
18F5
331
1905
  5
1906
331
1916
  5
1917
331
1970
  5
1971
331
1927
  5
1928
331
1981
  5
1982
331
1949
  5
194A
331
19A3
  5
19A4
331
180B
  5
180C
331
1992
  5
1993
331
1938
  5
1939
331
195F
  5
1960
331
1A46
  5
1A47
331
1A35
  5
1A36
331
1A24
  5
1A25
331
1A02
  5
1A03
331
19F1
  5
19F2
331
19B4
  5
19B5
331
181C
  5
181D
331
19C5
  5
19C6
331
18A6
  5
18A7
331
183E
  5
183F
331
18B7
  5
18B8
331
184F
  5
1850
331
1895
  5
1896
331
182D
  5
182E
331
1873
  5
1874
331
19D0
  5
19D1
331
1850
  5
1851
331
18C9
  5
18CA
331
1861
  5
1862
331
18DA
  5
18DB
331
1A14
  5
1A15
331
18E4
  5
18E5
331
18F5
  5
18F6
331
1906
  5
1907
331
1917
  5
1918
331
1971
  5
1972
331
1928
  5
1929
331
1982
  5
1983
331
194A
  5
194B
331
19A4
  5
19A5
331
180C
  5
180D
331
1993
  5
1994
331
1939
  5
193A
331
1960
  5
1961
331
1A47
  5
1A48
331
1A36
  5
1A37
331
1A25
  5
1A26
331
1A03
  5
1A04
331
19F2
  5
19F3
331
18B8
  5
18B9
331
19B5
  5
19B6
331
181D
  5
181E
331
19C6
  5
19C7
331
18A7
  5
18A8
331
183F
  5
1840
331
1896
  5
1897
331
182E
  5
182F
331
1874
  5
1875
331
18A8
  5
18A9
331
1840
  5
1841
331
19D1
  5
19D2
331
18CA
  5
18CB
331
1862
  5
1863
331
18DB
  5
18DC
331
1A15
  5
1A16
331
18E5
  5
18E6
331
18F6
  5
18F7
331
1907
  5
1908
331
1918
  5
1919
331
1972
  5
1973
331
1929
  5
192A
331
1983
  5
1984
331
194B
  5
194C
331
19A5
  5
19A6
331
180D
  5
180E
331
1994
  5
1995
331
193A
  5
193B
331
1961
  5
1962
331
1A37
  5
1A38
331
1A26
  5
1A27
331
1A04
  5
1A05
331
19F3
  5
19F4
331
18B9
  5
18BA
331
1851
  5
1852
331
19B6
  5
19B8
331
181E
  5
181F
331
19C7
  5
19C8
331
1897
  5
1898
331
182F
  5
1830
331
1875
  5
1876
331
19C8
  5
19C9
331
1830
  5
1831
331
18A9
  5
18AA
331
1841
  5
1842
331
19D2
  5
19D3
331
18CB
  5
18CC
331
1863
  5
1864
331
18DC
  5
18DD
331
1A16
  5
1A17
331
18E6
  5
18E7
331
18F7
  5
18F8
331
1908
  5
1909
331
1919
  5
191A
331
1973
  5
1974
331
192A
  5
192B
331
1984
  5
1985
331
194C
  5
194D
331
19A6
  5
19A7
331
180E
  5
180F
331
1995
  5
1996
331
193B
  5
193C
331
1962
  5
1963
331
1A38
  5
1A39
331
1A27
  5
1A28
331
1A05
  5
1A06
331
19F4
  5
19F5
331
18BA
  5
18BB
331
1852
  5
1853
331
1898
  5
1899
331
181F
  5
1820
331
1876
  5
1877
331
1A48
  5
1A49
331
19B8
  5
19B9
331
1820
  5
1821
331
19C9
  5
19CA
331
1831
  5
1832
331
18AA
  5
18AB
331
1842
  5
1843
331
19D3
  5
19D4
331
18CC
  5
18CE
331
1864
  5
1865
331
18DD
  5
18DE
331
1A17
  5
1A18
331
18E7
  5
18E8
331
18F8
  5
18F9
331
1909
  5
190A
331
191A
  5
191B
331
1974
  5
1975
331
192B
  5
192C
331
1985
  5
1986
331
194D
  5
194E
331
19A7
  5
19A8
331
180F
  5
1810
331
1996
  5
1997
331
193C
  5
193D
331
1963
  5
1964
331
1A39
  5
1A3A
331
1A28
  5
1A29
331
1A06
  5
1A07
331
19F5
  5
19F6
331
18BB
  5
18BC
331
1853
  5
1854
331
1899
  5
189A
331
1888
  5
1889
331
1877
  5
1878
  0
ACDBDETAILVIEWSTYLE
  5
365
102
{ACAD_XDICTIONARY
360
207F
102
}
102
{ACAD_REACTORS
330
364
102
}
330
364
100
AcDbModelDocViewStyle
 70
     0
  3
Imperial24
290
     0
100
AcDbDetailViewStyle
 70
     0
 71
     0
 90
        3
 71
     1
340
17
 62
   256
 40
0.24
340
0
 62
   256
 40
0.24
300

 40
0.36
280
     3
 71
     2
340
13
 90
       25
 62
   256
 71
     3
340
17
 62
   256
 40
0.24
 90
        1
 40
0.75
 90
        1
300
%<\AcVar ViewType \f "%tc1">% %<\AcVar ViewDetailId>%\PVARIA %<\AcVar ViewScale \f "%sn">%
 71
     4
340
13
 90
       25
 62
   256
340
13
 90
       25
 62
   256
280
     0
  0
LAYOUT
  5
369
102
{ACAD_REACTORS
330
366
102
}
330
366
100
AcDbPlotSettings
  1

  2
\\srvadruck01\MFSA15
  4

  6

 40
0.0
 41
0.0
 42
0.0
 43
0.0
 44
0.0
 45
0.0
 46
0.0
 47
0.0
 48
0.0
 49
0.0
140
0.0
141
0.0
142
1.0
143
1.0
 70
   688
 72
     0
 73
     0
 74
     5
  7

 75
    16
147
1.0
 76
     0
 77
     2
 78
   300
148
0.0
149
0.0
100
AcDbLayout
  1
Layout1
 70
     0
 71
     1
 10
0.0
 20
0.0
 11
12.0
 21
9.0
 12
0.0
 22
0.0
 32
0.0
 14
1.000000000000000E+20
 24
1.000000000000000E+20
 34
1.000000000000000E+20
 15
-1.000000000000000E+20
 25
-1.000000000000000E+20
 35
-1.000000000000000E+20
146
0.0
 13
0.0
 23
0.0
 33
0.0
 16
1.0
 26
0.0
 36
0.0
 17
0.0
 27
1.0
 37
0.0
 76
     0
330
B
  0
LAYOUT
  5
368
102
{ACAD_REACTORS
330
366
102
}
330
366
100
AcDbPlotSettings
  1

  2
\\srvadruck01\MFSA15
  4

  6

 40
0.0
 41
0.0
 42
0.0
 43
0.0
 44
0.0
 45
0.0
 46
0.0
 47
0.0
 48
0.0
 49
0.0
140
0.0
141
0.0
142
1.0
143
1.0
 70
  1712
 72
     0
 73
     0
 74
     0
  7

 75
     0
147
1.0
 76
     0
 77
     2
 78
   300
148
0.0
149
0.0
100
AcDbLayout
  1
Model
 70
     1
 71
     0
 10
0.0
 20
0.0
 11
12.0
 21
9.0
 12
0.0
 22
0.0
 32
0.0
 14
0.0
 24
0.0
 34
0.0
 15
0.0
 25
0.0
 35
0.0
146
0.0
 13
0.0
 23
0.0
 33
0.0
 16
1.0
 26
0.0
 36
0.0
 17
0.0
 27
1.0
 37
0.0
 76
     0
330
A
331
15
  0
MATERIAL
  5
322
102
{ACAD_XDICTIONARY
360
323
102
}
102
{ACAD_REACTORS
330
319
102
}
330
319
100
AcDbMaterial
  1
ByBlock
 72
     0
 43
0.0208333333333333
 43
0.0
 43
0.0
 43
0.0
 43
0.0
 43
0.0208333333333333
 43
0.0
 43
0.0
 43
0.0
 43
0.0
 43
1.0
 43
0.0
 43
0.0
 43
0.0
 43
0.0
 43
1.0
 77
     0
 47
0.0208333333333333
 47
0.0
 47
0.0
 47
0.0
 47
0.0
 47
0.0208333333333333
 47
0.0
 47
0.0
 47
0.0
 47
0.0
 47
1.0
 47
0.0
 47
0.0
 47
0.0
 47
0.0
 47
1.0
171
     0
 49
0.0208333333333333
 49
0.0
 49
0.0
 49
0.0
 49
0.0
 49
0.0208333333333333
 49
0.0
 49
0.0
 49
0.0
 49
0.0
 49
1.0
 49
0.0
 49
0.0
 49
0.0
 49
0.0
 49
1.0
175
     0
142
0.0208333333333333
142
0.0
142
0.0
142
0.0
142
0.0
142
0.0208333333333333
142
0.0
142
0.0
142
0.0
142
0.0
142
1.0
142
0.0
142
0.0
142
0.0
142
0.0
142
1.0
179
     0
144
0.0208333333333333
144
0.0
144
0.0
144
0.0
144
0.0
144
0.0208333333333333
144
0.0
144
0.0
144
0.0
144
0.0
144
1.0
144
0.0
144
0.0
144
0.0
144
0.0
144
1.0
147
0.0208333333333333
147
0.0
147
0.0
147
0.0
147
0.0
147
0.0208333333333333
147
0.0
147
0.0
147
0.0
147
0.0
147
1.0
147
0.0
147
0.0
147
0.0
147
0.0
147
1.0
  0
MATERIAL
  5
31A
102
{ACAD_XDICTIONARY
360
31B
102
}
102
{ACAD_REACTORS
330
319
102
}
330
319
100
AcDbMaterial
  1
ByLayer
 72
     0
 43
0.0208333333333333
 43
0.0
 43
0.0
 43
0.0
 43
0.0
 43
0.0208333333333333
 43
0.0
 43
0.0
 43
0.0
 43
0.0
 43
1.0
 43
0.0
 43
0.0
 43
0.0
 43
0.0
 43
1.0
 77
     0
 47
0.0208333333333333
 47
0.0
 47
0.0
 47
0.0
 47
0.0
 47
0.0208333333333333
 47
0.0
 47
0.0
 47
0.0
 47
0.0
 47
1.0
 47
0.0
 47
0.0
 47
0.0
 47
0.0
 47
1.0
171
     0
 49
0.0208333333333333
 49
0.0
 49
0.0
 49
0.0
 49
0.0
 49
0.0208333333333333
 49
0.0
 49
0.0
 49
0.0
 49
0.0
 49
1.0
 49
0.0
 49
0.0
 49
0.0
 49
0.0
 49
1.0
175
     0
142
0.0208333333333333
142
0.0
142
0.0
142
0.0
142
0.0
142
0.0208333333333333
142
0.0
142
0.0
142
0.0
142
0.0
142
1.0
142
0.0
142
0.0
142
0.0
142
0.0
142
1.0
179
     0
144
0.0208333333333333
144
0.0
144
0.0
144
0.0
144
0.0
144
0.0208333333333333
144
0.0
144
0.0
144
0.0
144
0.0
144
1.0
144
0.0
144
0.0
144
0.0
144
0.0
144
1.0
147
0.0208333333333333
147
0.0
147
0.0
147
0.0
147
0.0
147
0.0208333333333333
147
0.0
147
0.0
147
0.0
147
0.0
147
1.0
147
0.0
147
0.0
147
0.0
147
0.0
147
1.0
  0
MATERIAL
  5
32A
102
{ACAD_XDICTIONARY
360
32B
102
}
102
{ACAD_REACTORS
330
319
102
}
330
319
100
AcDbMaterial
  1
Global
 72
     0
 43
0.0208333333333333
 43
0.0
 43
0.0
 43
0.0
 43
0.0
 43
0.0208333333333333
 43
0.0
 43
0.0
 43
0.0
 43
0.0
 43
1.0
 43
0.0
 43
0.0
 43
0.0
 43
0.0
 43
1.0
 77
     0
 47
0.0208333333333333
 47
0.0
 47
0.0
 47
0.0
 47
0.0
 47
0.0208333333333333
 47
0.0
 47
0.0
 47
0.0
 47
0.0
 47
1.0
 47
0.0
 47
0.0
 47
0.0
 47
0.0
 47
1.0
171
     0
 49
0.0208333333333333
 49
0.0
 49
0.0
 49
0.0
 49
0.0
 49
0.0208333333333333
 49
0.0
 49
0.0
 49
0.0
 49
0.0
 49
1.0
 49
0.0
 49
0.0
 49
0.0
 49
0.0
 49
1.0
175
     0
142
0.0208333333333333
142
0.0
142
0.0
142
0.0
142
0.0
142
0.0208333333333333
142
0.0
142
0.0
142
0.0
142
0.0
142
1.0
142
0.0
142
0.0
142
0.0
142
0.0
142
1.0
179
     0
144
0.0208333333333333
144
0.0
144
0.0
144
0.0
144
0.0
144
0.0208333333333333
144
0.0
144
0.0
144
0.0
144
0.0
144
1.0
144
0.0
144
0.0
144
0.0
144
0.0
144
1.0
147
0.0208333333333333
147
0.0
147
0.0
147
0.0
147
0.0
147
0.0208333333333333
147
0.0
147
0.0
147
0.0
147
0.0
147
1.0
147
0.0
147
0.0
147
0.0
147
0.0
147
1.0
  0
MLEADERSTYLE
  5
361
102
{ACAD_REACTORS
330
360
102
}
330
360
100
AcDbMLeaderStyle
179
     2
170
     2
171
     1
172
     0
 90
        2
 40
0.0
 41
0.0
173
     1
 91
-1056964608
340
11
 92
       -2
290
     1
 42
0.09
291
     1
 43
0.36
  3
Standard
 44
0.18
300

342
17
174
     1
178
     6
175
     1
176
     0
 93
-1056964608
 45
0.18
292
     0
297
     0
 46
0.18
 94
-1056964608
 47
1.0
 49
1.0
140
1.0
293
     1
141
0.0
294
     1
177
     0
142
1.0
295
     0
296
     0
143
0.125
271
     0
272
     9
273
     9
  0
MLINESTYLE
  5
1C
102
{ACAD_REACTORS
330
1B
102
}
330
1B
100
AcDbMlineStyle
  2
STANDARD
 70
     0
  3

 62
     0
 51
90.0
 52
90.0
 71
     2
 49
0.5
 62
   256
  6
BYLAYER
 49
-0.5
 62
   256
  6
BYLAYER
  0
ACDBPLACEHOLDER
  5
318
102
{ACAD_REACTORS
330
317
102
}
330
317
  0
SCALE
  5
34F
102
{ACAD_REACTORS
330
34E
102
}
330
34E
100
AcDbScale
 70
     0
300
1:1
140
1.0
141
1.0
290
     1
  0
SCALE
  5
350
102
{ACAD_REACTORS
330
34E
102
}
330
34E
100
AcDbScale
 70
     0
300
1/128" = 1'-0"
140
0.0078125
141
12.0
290
     0
  0
SCALE
  5
351
102
{ACAD_REACTORS
330
34E
102
}
330
34E
100
AcDbScale
 70
     0
300
1/64" = 1'-0"
140
0.015625
141
12.0
290
     0
  0
SCALE
  5
352
102
{ACAD_REACTORS
330
34E
102
}
330
34E
100
AcDbScale
 70
     0
300
1/32" = 1'-0"
140
0.03125
141
12.0
290
     0
  0
SCALE
  5
353
102
{ACAD_REACTORS
330
34E
102
}
330
34E
100
AcDbScale
 70
     0
300
1/16" = 1'-0"
140
0.0625
141
12.0
290
     0
  0
SCALE
  5
354
102
{ACAD_REACTORS
330
34E
102
}
330
34E
100
AcDbScale
 70
     0
300
3/32" = 1'-0"
140
0.09375
141
12.0
290
     0
  0
SCALE
  5
355
102
{ACAD_REACTORS
330
34E
102
}
330
34E
100
AcDbScale
 70
     0
300
1/8" = 1'-0"
140
0.125
141
12.0
290
     0
  0
SCALE
  5
356
102
{ACAD_REACTORS
330
34E
102
}
330
34E
100
AcDbScale
 70
     0
300
3/16" = 1'-0"
140
0.1875
141
12.0
290
     0
  0
SCALE
  5
357
102
{ACAD_REACTORS
330
34E
102
}
330
34E
100
AcDbScale
 70
     0
300
1/4" = 1'-0"
140
0.25
141
12.0
290
     0
  0
SCALE
  5
358
102
{ACAD_REACTORS
330
34E
102
}
330
34E
100
AcDbScale
 70
     0
300
3/8" = 1'-0"
140
0.375
141
12.0
290
     0
  0
SCALE
  5
359
102
{ACAD_REACTORS
330
34E
102
}
330
34E
100
AcDbScale
 70
     0
300
1/2" = 1'-0"
140
0.5
141
12.0
290
     0
  0
SCALE
  5
35A
102
{ACAD_REACTORS
330
34E
102
}
330
34E
100
AcDbScale
 70
     0
300
3/4" = 1'-0"
140
0.75
141
12.0
290
     0
  0
SCALE
  5
35B
102
{ACAD_REACTORS
330
34E
102
}
330
34E
100
AcDbScale
 70
     0
300
1" = 1'-0"
140
1.0
141
12.0
290
     0
  0
SCALE
  5
35C
102
{ACAD_REACTORS
330
34E
102
}
330
34E
100
AcDbScale
 70
     0
300
1-1/2" = 1'-0"
140
1.5
141
12.0
290
     0
  0
SCALE
  5
35D
102
{ACAD_REACTORS
330
34E
102
}
330
34E
100
AcDbScale
 70
     0
300
3" = 1'-0"
140
3.0
141
12.0
290
     0
  0
SCALE
  5
35E
102
{ACAD_REACTORS
330
34E
102
}
330
34E
100
AcDbScale
 70
     0
300
6" = 1'-0"
140
6.0
141
12.0
290
     0
  0
SCALE
  5
35F
102
{ACAD_REACTORS
330
34E
102
}
330
34E
100
AcDbScale
 70
     0
300
1'-0" = 1'-0"
140
12.0
141
12.0
290
     0
  0
ACDBSECTIONVIEWSTYLE
  5
363
102
{ACAD_XDICTIONARY
360
207D
102
}
102
{ACAD_REACTORS
330
362
102
}
330
362
100
AcDbModelDocViewStyle
 70
     0
  3
Imperial24
290
     0
100
AcDbSectionViewStyle
 70
     0
 71
     0
 90
       78
 71
     1
340
17
 62
   256
 40
0.24
340
0
340
0
 62
   256
 40
0.24
300
I, O, Q, S, X, Z
 40
0.48
 90
        3
 40
0.18
 90
        1
 71
     2
340
13
 90
       25
 62
   256
340
13
 90
       50
 62
   256
 40
0.24
 40
0.0
 40
0.24
 71
     3
340
17
 62
   256
 40
0.24
 90
        1
 40
0.75
 90
        1
300
%<\AcVar ViewType \f "%tc1">% %<\AcVar ViewSectionStartId>%-%<\AcVar ViewSectionEndId>%\PVARIA %<\AcVar ViewScale \f "%sn">%
 71
     4
 62
   256
 62
   257
300
ANSI31
 40
1.0
 90
        0
290
     0
290
     0
 90
        6
 40
0.0
 40
1.570796326794896
 40
0.2617993877991494
 40
1.308996938995747
 40
-0.2617993877991494
 40
1.832595714594044
  0
TABLESTYLE
  5
34D
102
{ACAD_XDICTIONARY
360
513
102
}
102
{ACAD_REACTORS
330
34C
102
}
330
34C
100
AcDbTableStyle
280
     0
  3
Standard
 70
     0
 71
     0
 40
0.06
 41
0.06
280
     0
281
     0
  7
STANDARD
140
0.18
170
     2
 62
     0
 63
     7
283
     0
 90
      512
 91
        0
  1

274
    -2
284
     1
 64
     0
275
    -2
285
     1
 65
     0
276
    -2
286
     1
 66
     0
277
    -2
287
     1
 67
     0
278
    -2
288
     1
 68
     0
279
    -2
289
     1
 69
     0
  7
STANDARD
140
0.25
170
     5
 62
     0
 63
     7
283
     0
 90
      512
 91
        0
  1

274
    -2
284
     1
 64
     0
275
    -2
285
     1
 65
     0
276
    -2
286
     1
 66
     0
277
    -2
287
     1
 67
     0
278
    -2
288
     1
 68
     0
279
    -2
289
     1
 69
     0
  7
STANDARD
140
0.18
170
     5
 62
     0
 63
     7
283
     0
 90
      512
 91
        0
  1

274
    -2
284
     1
 64
     0
275
    -2
285
     1
 65
     0
276
    -2
286
     1
 66
     0
277
    -2
287
     1
 67
     0
278
    -2
288
     1
 68
     0
279
    -2
289
     1
 69
     0
  0
VISUALSTYLE
  5
338
102
{ACAD_XDICTIONARY
360
2057
102
}
102
{ACAD_REACTORS
330
332
102
}
330
332
100
AcDbVisualStyle
  2
2dWireframe
 70
     4
177
     2
291
     0
 71
     0
176
     1
 72
     2
176
     1
 73
     0
176
     1
 90
        0
176
     1
 40
0.6
176
     1
 41
30.0
176
     1
 63
     7
421
 16777215
176
     1
 74
     1
176
     1
 91
        4
176
     1
 64
     7
176
     1
 65
   257
176
     1
 75
     1
176
     1
175
     1
176
     1
 42
1.0
176
     1
 92
        0
176
     1
 66
   257
176
     1
 43
1.0
176
     1
 76
     1
176
     1
 77
     6
176
     1
 78
     2
176
     1
 67
     7
176
     1
 79
     5
176
     1
170
     0
176
     1
171
     0
176
     1
290
     0
176
     1
 93
        1
176
     1
 44
0.0
176
     1
173
     0
176
     1
1001
ACAD
1000
AcDbSavedByObjectVersion
1070
     0
  0
VISUALSTYLE
  5
337
102
{ACAD_XDICTIONARY
360
2055
102
}
102
{ACAD_REACTORS
330
332
102
}
330
332
100
AcDbVisualStyle
  2
Basic
 70
     7
177
     2
291
     1
 71
     1
176
     1
 72
     0
176
     1
 73
     1
176
     1
 90
        0
176
     1
 40
0.6
176
     1
 41
30.0
176
     1
 63
     7
421
 16777215
176
     1
 74
     0
176
     1
 91
        4
176
     1
 64
     7
176
     1
 65
   257
176
     1
 75
     1
176
     1
175
     1
176
     1
 42
1.0
176
     1
 92
        8
176
     1
 66
     7
176
     1
 43
1.0
176
     1
 76
     1
176
     1
 77
     6
176
     1
 78
     2
176
     1
 67
     7
176
     1
 79
     5
176
     1
170
     0
176
     1
171
     0
176
     1
290
     0
176
     1
 93
        1
176
     1
 44
0.0
176
     1
173
     0
176
     1
1001
ACAD
1000
AcDbSavedByObjectVersion
1070
     0
  0
VISUALSTYLE
  5
33E
102
{ACAD_XDICTIONARY
360
2063
102
}
102
{ACAD_REACTORS
330
332
102
}
330
332
100
AcDbVisualStyle
  2
Brighten
 70
    12
177
     2
291
     1
 71
     2
176
     1
 72
     2
176
     1
 73
     0
176
     1
 90
        0
176
     1
 40
0.6
176
     1
 41
30.0
176
     1
 63
     7
421
 16777215
176
     1
 74
     1
176
     1
 91
        4
176
     1
 64
     7
176
     1
 65
   257
176
     1
 75
     1
176
     1
175
     1
176
     1
 42
1.0
176
     1
 92
        8
176
     1
 66
     7
176
     1
 43
1.0
176
     1
 76
     1
176
     1
 77
     6
176
     1
 78
     2
176
     1
 67
     7
176
     1
 79
     5
176
     1
170
     0
176
     1
171
     0
176
     1
290
     0
176
     1
 93
        1
176
     1
 44
50.0
176
     1
173
     0
176
     1
1001
ACAD
1000
AcDbSavedByObjectVersion
1070
     0
  0
VISUALSTYLE
  5
342
102
{ACAD_XDICTIONARY
360
206B
102
}
102
{ACAD_REACTORS
330
332
102
}
330
332
100
AcDbVisualStyle
  2
ColorChange
 70
    16
177
     2
291
     1
 71
     2
176
     1
 72
     2
176
     1
 73
     3
176
     1
 90
        0
176
     1
 40
0.6
176
     1
 41
30.0
176
     1
 63
     8
421
  8421504
176
     1
 74
     1
176
     1
 91
        4
176
     1
 64
     7
176
     1
 65
   257
176
     1
 75
     1
176
     1
175
     1
176
     1
 42
1.0
176
     1
 92
        8
176
     1
 66
     8
424
  8421504
176
     1
 43
1.0
176
     1
 76
     1
176
     1
 77
     6
176
     1
 78
     2
176
     1
 67
     7
176
     1
 79
     5
176
     1
170
     0
176
     1
171
     0
176
     1
290
     0
176
     1
 93
        1
176
     1
 44
0.0
176
     1
173
     0
176
     1
1001
ACAD
1000
AcDbSavedByObjectVersion
1070
     0
  0
VISUALSTYLE
  5
33B
102
{ACAD_XDICTIONARY
360
205D
102
}
102
{ACAD_REACTORS
330
332
102
}
330
332
100
AcDbVisualStyle
  2
Conceptual
 70
     9
177
     2
291
     0
 71
     3
176
     1
 72
     2
176
     1
 73
     0
176
     1
 90
        0
176
     1
 40
0.6
176
     1
 41
30.0
176
     1
 63
     7
421
 16777215
176
     1
 74
     2
176
     1
 91
        2
176
     1
 64
     7
176
     1
 65
   257
176
     1
 75
     1
176
     1
175
     1
176
     1
 42
179.0
176
     1
 92
        8
176
     1
 66
     7
176
     1
 43
1.0
176
     1
 76
     1
176
     1
 77
     6
176
     1
 78
     2
176
     1
 67
     7
176
     1
 79
     3
176
     1
170
     0
176
     1
171
     0
176
     1
290
     0
176
     1
 93
        1
176
     1
 44
0.0
176
     1
173
     0
176
     1
1001
ACAD
1000
AcDbSavedByObjectVersion
1070
     0
  0
VISUALSTYLE
  5
33D
102
{ACAD_XDICTIONARY
360
2061
102
}
102
{ACAD_REACTORS
330
332
102
}
330
332
100
AcDbVisualStyle
  2
Dim
 70
    11
177
     2
291
     1
 71
     2
176
     1
 72
     2
176
     1
 73
     0
176
     1
 90
        0
176
     1
 40
0.6
176
     1
 41
30.0
176
     1
 63
     7
421
 16777215
176
     1
 74
     1
176
     1
 91
        4
176
     1
 64
     7
176
     1
 65
   257
176
     1
 75
     1
176
     1
175
     1
176
     1
 42
1.0
176
     1
 92
        8
176
     1
 66
     7
176
     1
 43
1.0
176
     1
 76
     1
176
     1
 77
     6
176
     1
 78
     2
176
     1
 67
     7
176
     1
 79
     5
176
     1
170
     0
176
     1
171
     0
176
     1
290
     0
176
     1
 93
        1
176
     1
 44
-50.0
176
     1
173
     0
176
     1
1001
ACAD
1000
AcDbSavedByObjectVersion
1070
     0
  0
VISUALSTYLE
  5
34A
102
{ACAD_XDICTIONARY
360
207B
102
}
102
{ACAD_REACTORS
330
332
102
}
330
332
100
AcDbVisualStyle
  2
EdgeColorOff
 70
    22
177
     2
291
     1
 71
     2
176
     0
 72
     2
176
     0
 73
     0
176
     0
 90
        0
176
     0
 40
0.6
176
     0
 41
30.0
176
     0
 63
     7
421
 16777215
176
     0
 74
     1
176
     0
 91
        4
176
     0
 64
     7
176
     0
 65
   257
176
     0
 75
     1
176
     0
175
     1
176
     0
 42
1.0
176
     0
 92
        8
176
     2
 66
     7
176
     0
 43
1.0
176
     0
 76
     1
176
     0
 77
     6
176
     0
 78
     2
176
     0
 67
     7
176
     0
 79
     5
176
     0
170
     0
176
     0
171
     0
176
     0
290
     0
176
     0
 93
        1
176
     0
 44
0.0
176
     0
173
     0
176
     0
1001
ACAD
1000
AcDbSavedByObjectVersion
1070
     0
  0
VISUALSTYLE
  5
341
102
{ACAD_XDICTIONARY
360
2069
102
}
102
{ACAD_REACTORS
330
332
102
}
330
332
100
AcDbVisualStyle
  2
Facepattern
 70
    15
177
     2
291
     1
 71
     2
176
     1
 72
     2
176
     1
 73
     0
176
     1
 90
        0
176
     1
 40
0.6
176
     1
 41
30.0
176
     1
 63
     7
421
 16777215
176
     1
 74
     1
176
     1
 91
        4
176
     1
 64
     7
176
     1
 65
   257
176
     1
 75
     1
176
     1
175
     1
176
     1
 42
1.0
176
     1
 92
        8
176
     1
 66
     7
176
     1
 43
1.0
176
     1
 76
     1
176
     1
 77
     6
176
     1
 78
     2
176
     1
 67
     7
176
     1
 79
     5
176
     1
170
     0
176
     1
171
     0
176
     1
290
     0
176
     1
 93
        1
176
     1
 44
0.0
176
     1
173
     0
176
     1
1001
ACAD
1000
AcDbSavedByObjectVersion
1070
     0
  0
VISUALSTYLE
  5
333
102
{ACAD_XDICTIONARY
360
204D
102
}
102
{ACAD_REACTORS
330
332
102
}
330
332
100
AcDbVisualStyle
  2
Flat
 70
     0
177
     2
291
     1
 71
     2
176
     1
 72
     1
176
     1
 73
     1
176
     1
 90
        2
176
     1
 40
0.6
176
     1
 41
30.0
176
     1
 63
     7
421
 16777215
176
     1
 74
     0
176
     1
 91
        0
176
     1
 64
     7
176
     1
 65
   257
176
     1
 75
     1
176
     1
175
     1
176
     1
 42
1.0
176
     1
 92
        8
176
     1
 66
     7
176
     1
 43
1.0
176
     1
 76
     1
176
     1
 77
     6
176
     1
 78
     2
176
     1
 67
     7
176
     1
 79
     5
176
     1
170
     0
176
     1
171
     0
176
     1
290
     0
176
     1
 93
       13
176
     1
 44
0.0
176
     1
173
     0
176
     1
1001
ACAD
1000
AcDbSavedByObjectVersion
1070
     0
  0
VISUALSTYLE
  5
334
102
{ACAD_XDICTIONARY
360
204F
102
}
102
{ACAD_REACTORS
330
332
102
}
330
332
100
AcDbVisualStyle
  2
FlatWithEdges
 70
     1
177
     2
291
     1
 71
     2
176
     1
 72
     1
176
     1
 73
     1
176
     1
 90
        2
176
     1
 40
0.6
176
     1
 41
30.0
176
     1
 63
     7
421
 16777215
176
     1
 74
     1
176
     1
 91
        0
176
     1
 64
     7
176
     1
 65
   257
176
     1
 75
     1
176
     1
175
     1
176
     1
 42
1.0
176
     1
 92
        0
176
     1
 66
   257
176
     1
 43
1.0
176
     1
 76
     1
176
     1
 77
     6
176
     1
 78
     2
176
     1
 67
     7
176
     1
 79
     5
176
     1
170
     0
176
     1
171
     0
176
     1
290
     0
176
     1
 93
       13
176
     1
 44
0.0
176
     1
173
     0
176
     1
1001
ACAD
1000
AcDbSavedByObjectVersion
1070
     0
  0
VISUALSTYLE
  5
335
102
{ACAD_XDICTIONARY
360
2051
102
}
102
{ACAD_REACTORS
330
332
102
}
330
332
100
AcDbVisualStyle
  2
Gouraud
 70
     2
177
     2
291
     1
 71
     2
176
     1
 72
     2
176
     1
 73
     1
176
     1
 90
        2
176
     1
 40
0.6
176
     1
 41
30.0
176
     1
 63
     7
421
 16777215
176
     1
 74
     0
176
     1
 91
        0
176
     1
 64
     7
176
     1
 65
   257
176
     1
 75
     1
176
     1
175
     1
176
     1
 42
1.0
176
     1
 92
        0
176
     1
 66
     7
176
     1
 43
1.0
176
     1
 76
     1
176
     1
 77
     6
176
     1
 78
     2
176
     1
 67
     7
176
     1
 79
     5
176
     1
170
     0
176
     1
171
     0
176
     1
290
     0
176
     1
 93
       13
176
     1
 44
0.0
176
     1
173
     0
176
     1
1001
ACAD
1000
AcDbSavedByObjectVersion
1070
     0
  0
VISUALSTYLE
  5
336
102
{ACAD_XDICTIONARY
360
2053
102
}
102
{ACAD_REACTORS
330
332
102
}
330
332
100
AcDbVisualStyle
  2
GouraudWithEdges
 70
     3
177
     2
291
     1
 71
     2
176
     1
 72
     2
176
     1
 73
     1
176
     1
 90
        2
176
     1
 40
0.6
176
     1
 41
30.0
176
     1
 63
     7
421
 16777215
176
     1
 74
     1
176
     1
 91
        0
176
     1
 64
     7
176
     1
 65
   257
176
     1
 75
     1
176
     1
175
     1
176
     1
 42
1.0
176
     1
 92
        0
176
     1
 66
   257
176
     1
 43
1.0
176
     1
 76
     1
176
     1
 77
     6
176
     1
 78
     2
176
     1
 67
     7
176
     1
 79
     5
176
     1
170
     0
176
     1
171
     0
176
     1
290
     0
176
     1
 93
       13
176
     1
 44
0.0
176
     1
173
     0
176
     1
1001
ACAD
1000
AcDbSavedByObjectVersion
1070
     0
  0
VISUALSTYLE
  5
33A
102
{ACAD_XDICTIONARY
360
205B
102
}
102
{ACAD_REACTORS
330
332
102
}
330
332
100
AcDbVisualStyle
  2
Hidden
 70
     6
177
     2
291
     0
 71
     1
176
     1
 72
     2
176
     1
 73
     2
176
     1
 90
        0
176
     1
 40
0.6
176
     1
 41
30.0
176
     1
 63
     7
421
 16777215
176
     1
 74
     2
176
     1
 91
        2
176
     1
 64
     7
176
     1
 65
   257
176
     1
 75
     2
176
     1
175
     1
176
     1
 42
40.0
176
     1
 92
        0
176
     1
 66
   257
176
     1
 43
1.0
176
     1
 76
     1
176
     1
 77
     6
176
     1
 78
     2
176
     1
 67
     7
176
     1
 79
     3
176
     1
170
     0
176
     1
171
     0
176
     1
290
     0
176
     1
 93
        1
176
     1
 44
0.0
176
     1
173
     0
176
     1
1001
ACAD
1000
AcDbSavedByObjectVersion
1070
     0
  0
VISUALSTYLE
  5
348
102
{ACAD_XDICTIONARY
360
2077
102
}
102
{ACAD_REACTORS
330
332
102
}
330
332
100
AcDbVisualStyle
  2
JitterOff
 70
    20
177
     2
291
     1
 71
     2
176
     0
 72
     2
176
     0
 73
     0
176
     0
 90
        0
176
     0
 40
0.6
176
     0
 41
30.0
176
     0
 63
     7
421
 16777215
176
     0
 74
     1
176
     0
 91
        4
176
     0
 64
     7
176
     0
 65
   257
176
     0
 75
     1
176
     0
175
     1
176
     0
 42
1.0
176
     0
 92
       10
176
     2
 66
     7
176
     0
 43
1.0
176
     0
 76
     1
176
     0
 77
     6
176
     0
 78
     2
176
     0
 67
     7
176
     0
 79
     5
176
     0
170
     0
176
     0
171
     0
176
     0
290
     0
176
     0
 93
        1
176
     0
 44
0.0
176
     0
173
     0
176
     0
1001
ACAD
1000
AcDbSavedByObjectVersion
1070
     0
  0
VISUALSTYLE
  5
340
102
{ACAD_XDICTIONARY
360
2067
102
}
102
{ACAD_REACTORS
330
332
102
}
330
332
100
AcDbVisualStyle
  2
Linepattern
 70
    14
177
     2
291
     1
 71
     2
176
     1
 72
     2
176
     1
 73
     0
176
     1
 90
        0
176
     1
 40
0.6
176
     1
 41
30.0
176
     1
 63
     7
421
 16777215
176
     1
 74
     1
176
     1
 91
        4
176
     1
 64
     7
176
     1
 65
   257
176
     1
 75
     7
176
     1
175
     7
176
     1
 42
1.0
176
     1
 92
        8
176
     1
 66
     7
176
     1
 43
1.0
176
     1
 76
     1
176
     1
 77
     6
176
     1
 78
     2
176
     1
 67
     7
176
     1
 79
     5
176
     1
170
     0
176
     1
171
     0
176
     1
290
     0
176
     1
 93
        1
176
     1
 44
0.0
176
     1
173
     0
176
     1
1001
ACAD
1000
AcDbSavedByObjectVersion
1070
     0
  0
VISUALSTYLE
  5
349
102
{ACAD_XDICTIONARY
360
2079
102
}
102
{ACAD_REACTORS
330
332
102
}
330
332
100
AcDbVisualStyle
  2
OverhangOff
 70
    21
177
     2
291
     1
 71
     2
176
     0
 72
     2
176
     0
 73
     0
176
     0
 90
        0
176
     0
 40
0.6
176
     0
 41
30.0
176
     0
 63
     7
421
 16777215
176
     0
 74
     1
176
     0
 91
        4
176
     0
 64
     7
176
     0
 65
   257
176
     0
 75
     1
176
     0
175
     1
176
     0
 42
1.0
176
     0
 92
        9
176
     2
 66
     7
176
     0
 43
1.0
176
     0
 76
     1
176
     0
 77
     6
176
     0
 78
     2
176
     0
 67
     7
176
     0
 79
     5
176
     0
170
     0
176
     0
171
     0
176
     0
290
     0
176
     0
 93
        1
176
     0
 44
0.0
176
     0
173
     0
176
     0
1001
ACAD
1000
AcDbSavedByObjectVersion
1070
     0
  0
VISUALSTYLE
  5
33C
102
{ACAD_XDICTIONARY
360
205F
102
}
102
{ACAD_REACTORS
330
332
102
}
330
332
100
AcDbVisualStyle
  2
Realistic
 70
     8
177
     2
291
     0
 71
     2
176
     1
 72
     3
176
     1
 73
     0
176
     1
 90
        2
176
     1
 40
0.6
176
     1
 41
30.0
176
     1
 63
     7
421
 16777215
176
     1
 74
     0
176
     1
 91
        0
176
     1
 64
     7
176
     1
 65
   257
176
     1
 75
     1
176
     1
175
     1
176
     1
 42
1.0
176
     1
 92
        8
176
     1
 66
   257
176
     1
 43
1.0
176
     1
 76
     1
176
     1
 77
     6
176
     1
 78
     2
176
     1
 67
     7
176
     1
 79
     3
176
     1
170
     0
176
     1
171
     0
176
     1
290
     0
176
     1
 93
       13
176
     1
 44
0.0
176
     1
173
     0
176
     1
1001
ACAD
1000
AcDbSavedByObjectVersion
1070
     0
  0
VISUALSTYLE
  5
347
102
{ACAD_XDICTIONARY
360
2075
102
}
102
{ACAD_REACTORS
330
332
102
}
330
332
100
AcDbVisualStyle
  2
Shaded
 70
    27
177
     2
291
     0
 71
     2
176
     1
 72
     2
176
     1
 73
     1
176
     1
 90
        2
176
     1
 40
0.6
176
     1
 41
30.0
176
     1
 63
     7
421
 16777215
176
     1
 74
     0
176
     1
 91
        4
176
     1
 64
     7
176
     1
 65
   257
176
     1
 75
     1
176
     1
175
     1
176
     1
 42
1.0
176
     1
 92
        8
176
     1
 66
   257
176
     1
 43
1.0
176
     1
 76
     1
176
     1
 77
     6
176
     1
 78
     2
176
     1
 67
     8
425
  7895160
176
     1
 79
     3
176
     1
170
     0
176
     1
171
     0
176
     1
290
     0
176
     1
 93
        5
176
     1
 44
0.0
176
     1
173
     0
176
     1
1001
ACAD
1000
AcDbSavedByObjectVersion
1070
     0
  0
VISUALSTYLE
  5
346
102
{ACAD_XDICTIONARY
360
2073
102
}
102
{ACAD_REACTORS
330
332
102
}
330
332
100
AcDbVisualStyle
  2
Shaded with edges
 70
    26
177
     2
291
     0
 71
     2
176
     1
 72
     2
176
     1
 73
     1
176
     1
 90
        2
176
     1
 40
0.6
176
     1
 41
30.0
176
     1
 63
     7
421
 16777215
176
     1
 74
     1
176
     1
 91
       10
176
     1
 64
     7
176
     1
 65
   257
176
     1
 75
     2
176
     1
175
     1
176
     1
 42
1.0
176
     1
 92
        8
176
     1
 66
   257
176
     1
 43
1.0
176
     1
 76
     1
176
     1
 77
     6
176
     1
 78
     2
176
     1
 67
     7
176
     1
 79
     3
176
     1
170
     0
176
     1
171
     0
176
     1
290
     0
176
     1
 93
        5
176
     1
 44
0.0
176
     1
173
     0
176
     1
1001
ACAD
1000
AcDbSavedByObjectVersion
1070
     0
  0
VISUALSTYLE
  5
343
102
{ACAD_XDICTIONARY
360
206D
102
}
102
{ACAD_REACTORS
330
332
102
}
330
332
100
AcDbVisualStyle
  2
Shades of Gray
 70
    23
177
     2
291
     0
 71
     2
176
     1
 72
     2
176
     1
 73
     3
176
     1
 90
        0
176
     1
 40
0.6
176
     1
 41
30.0
176
     1
 63
     7
421
 16777215
176
     1
 74
     2
176
     1
 91
        2
176
     1
 64
     7
176
     1
 65
     7
176
     1
 75
     1
176
     1
175
     1
176
     1
 42
40.0
176
     1
 92
        8
176
     1
 66
     7
176
     1
 43
1.0
176
     1
 76
     1
176
     1
 77
     6
176
     1
 78
     2
176
     1
 67
     7
176
     1
 79
     3
176
     1
170
     0
176
     1
171
     0
176
     1
290
     0
176
     1
 93
        1
176
     1
 44
0.0
176
     1
173
     0
176
     1
1001
ACAD
1000
AcDbSavedByObjectVersion
1070
     0
  0
VISUALSTYLE
  5
344
102
{ACAD_XDICTIONARY
360
206F
102
}
102
{ACAD_REACTORS
330
332
102
}
330
332
100
AcDbVisualStyle
  2
Sketchy
 70
    24
177
     2
291
     0
 71
     1
176
     1
 72
     2
176
     1
 73
     2
176
     1
 90
        0
176
     1
 40
0.6
176
     1
 41
30.0
176
     1
 63
     7
421
 16777215
176
     1
 74
     2
176
     1
 91
        2
176
     1
 64
     7
176
     1
 65
     7
176
     1
 75
     1
176
     1
175
     1
176
     1
 42
40.0
176
     1
 92
       11
176
     1
 66
     7
176
     1
 43
1.0
176
     1
 76
     1
176
     1
 77
     6
176
     1
 78
     2
176
     1
 67
     7
176
     1
 79
     6
176
     1
170
     0
176
     1
171
     0
176
     1
290
     0
176
     1
 93
        1
176
     1
 44
0.0
176
     1
173
     0
176
     1
1001
ACAD
1000
AcDbSavedByObjectVersion
1070
     0
  0
VISUALSTYLE
  5
33F
102
{ACAD_XDICTIONARY
360
2065
102
}
102
{ACAD_REACTORS
330
332
102
}
330
332
100
AcDbVisualStyle
  2
Thicken
 70
    13
177
     2
291
     1
 71
     2
176
     1
 72
     2
176
     1
 73
     0
176
     1
 90
        0
176
     1
 40
0.6
176
     1
 41
30.0
176
     1
 63
     7
421
 16777215
176
     1
 74
     1
176
     1
 91
        4
176
     1
 64
     7
176
     1
 65
   257
176
     1
 75
     1
176
     1
175
     1
176
     1
 42
1.0
176
     1
 92
       12
176
     1
 66
     7
176
     1
 43
1.0
176
     1
 76
     1
176
     1
 77
     6
176
     1
 78
     2
176
     1
 67
     7
176
     1
 79
     5
176
     1
170
     0
176
     1
171
     0
176
     1
290
     0
176
     1
 93
        1
176
     1
 44
0.0
176
     1
173
     0
176
     1
1001
ACAD
1000
AcDbSavedByObjectVersion
1070
     0
  0
VISUALSTYLE
  5
339
102
{ACAD_XDICTIONARY
360
2059
102
}
102
{ACAD_REACTORS
330
332
102
}
330
332
100
AcDbVisualStyle
  2
Wireframe
 70
     5
177
     2
291
     0
 71
     0
176
     1
 72
     2
176
     1
 73
     0
176
     1
 90
        0
176
     1
 40
0.6
176
     1
 41
30.0
176
     1
 63
     7
421
 16777215
176
     1
 74
     1
176
     1
 91
        4
176
     1
 64
     7
176
     1
 65
   257
176
     1
 75
     1
176
     1
175
     1
176
     1
 42
1.0
176
     1
 92
        0
176
     1
 66
   257
176
     1
 43
1.0
176
     1
 76
     1
176
     1
 77
     6
176
     1
 78
     2
176
     1
 67
     7
176
     1
 79
     3
176
     1
170
     0
176
     1
171
     0
176
     1
290
     0
176
     1
 93
        1
176
     1
 44
0.0
176
     1
173
     0
176
     1
1001
ACAD
1000
AcDbSavedByObjectVersion
1070
     0
  0
VISUALSTYLE
  5
345
102
{ACAD_XDICTIONARY
360
2071
102
}
102
{ACAD_REACTORS
330
332
102
}
330
332
100
AcDbVisualStyle
  2
X-Ray
 70
    25
177
     2
291
     0
 71
     2
176
     1
 72
     2
176
     1
 73
     1
176
     1
 90
        1
176
     1
 40
0.5
176
     1
 41
30.0
176
     1
 63
     7
421
 16777215
176
     1
 74
     1
176
     1
 91
        0
176
     1
 64
     7
176
     1
 65
   257
176
     1
 75
     1
176
     1
175
     1
176
     1
 42
1.0
176
     1
 92
        8
176
     1
 66
     7
176
     1
 43
1.0
176
     1
 76
     1
176
     1
 77
     6
176
     1
 78
     2
176
     1
 67
     7
176
     1
 79
     3
176
     1
170
     0
176
     1
171
     0
176
     1
290
     0
176
     1
 93
       13
176
     1
 44
0.0
176
     1
173
     0
176
     1
1001
ACAD
1000
AcDbSavedByObjectVersion
1070
     0
  0
DICTIONARYVAR
  5
50F
102
{ACAD_REACTORS
330
509
102
}
330
509
100
DictionaryVariables
280
     0
  1
1:1
  0
DICTIONARYVAR
  5
50B
102
{ACAD_REACTORS
330
509
102
}
330
509
100
DictionaryVariables
280
     0
  1
STANDARD
  0
DICTIONARYVAR
  5
50A
102
{ACAD_REACTORS
330
509
102
}
330
509
100
DictionaryVariables
280
     0
  1
STANDARD
  0
DICTIONARYVAR
  5
50C
102
{ACAD_REACTORS
330
509
102
}
330
509
100
DictionaryVariables
280
     0
  1
Imperial24
  0
DICTIONARYVAR
  5
50D
102
{ACAD_REACTORS
330
509
102
}
330
509
100
DictionaryVariables
280
     0
  1
Imperial24
  0
DICTIONARYVAR
  5
511
102
{ACAD_REACTORS
330
509
102
}
330
509
100
DictionaryVariables
280
     0
  1
1
  0
DICTIONARYVAR
  5
512
102
{ACAD_REACTORS
330
509
102
}
330
509
100
DictionaryVariables
280
     0
  1
15
  0
DICTIONARYVAR
  5
510
102
{ACAD_REACTORS
330
509
102
}
330
509
100
DictionaryVariables
280
     0
  1
0
  0
DICTIONARYVAR
  5
50E
102
{ACAD_REACTORS
330
509
102
}
330
509
100
DictionaryVariables
280
     0
  1
0
  0
DICTIONARY
  5
207F
330
365
100
AcDbDictionary
280
     1
281
     1
  3
ACAD_XREC_ROUNDTRIP
360
2080
  0
DICTIONARY
  5
323
330
322
100
AcDbDictionary
280
     1
281
     1
  3
BUMPTILE
360
325
  3
DIFFUSETILE
360
324
  3
OPACITYTILE
360
328
  3
REFLECTIONTILE
360
327
  3
REFRACTIONTILE
360
329
  3
SPECULARTILE
360
326
  0
DICTIONARY
  5
31B
330
31A
100
AcDbDictionary
280
     1
281
     1
  3
BUMPTILE
360
31D
  3
DIFFUSETILE
360
31C
  3
OPACITYTILE
360
320
  3
REFLECTIONTILE
360
31F
  3
REFRACTIONTILE
360
321
  3
SPECULARTILE
360
31E
  0
DICTIONARY
  5
32B
330
32A
100
AcDbDictionary
280
     1
281
     1
  3
BUMPTILE
360
32D
  3
DIFFUSETILE
360
32C
  3
OPACITYTILE
360
330
  3
REFLECTIONTILE
360
32F
  3
REFRACTIONTILE
360
331
  3
SPECULARTILE
360
32E
  0
DICTIONARY
  5
207D
330
363
100
AcDbDictionary
280
     1
281
     1
  3
ACAD_XREC_ROUNDTRIP
360
207E
  0
DICTIONARY
  5
513
330
34D
100
AcDbDictionary
280
     1
281
     1
  3
ACAD_ROUNDTRIP_2008_TABLESTYLE_CELLSTYLEMAP
360
204B
  0
DICTIONARY
  5
2057
330
338
100
AcDbDictionary
280
     1
281
     1
  3
ACAD_XREC_ROUNDTRIP
360
2058
  0
DICTIONARY
  5
2055
330
337
100
AcDbDictionary
280
     1
281
     1
  3
ACAD_XREC_ROUNDTRIP
360
2056
  0
DICTIONARY
  5
2063
330
33E
100
AcDbDictionary
280
     1
281
     1
  3
ACAD_XREC_ROUNDTRIP
360
2064
  0
DICTIONARY
  5
206B
330
342
100
AcDbDictionary
280
     1
281
     1
  3
ACAD_XREC_ROUNDTRIP
360
206C
  0
DICTIONARY
  5
205D
330
33B
100
AcDbDictionary
280
     1
281
     1
  3
ACAD_XREC_ROUNDTRIP
360
205E
  0
DICTIONARY
  5
2061
330
33D
100
AcDbDictionary
280
     1
281
     1
  3
ACAD_XREC_ROUNDTRIP
360
2062
  0
DICTIONARY
  5
207B
330
34A
100
AcDbDictionary
280
     1
281
     1
  3
ACAD_XREC_ROUNDTRIP
360
207C
  0
DICTIONARY
  5
2069
330
341
100
AcDbDictionary
280
     1
281
     1
  3
ACAD_XREC_ROUNDTRIP
360
206A
  0
DICTIONARY
  5
204D
330
333
100
AcDbDictionary
280
     1
281
     1
  3
ACAD_XREC_ROUNDTRIP
360
204E
  0
DICTIONARY
  5
204F
330
334
100
AcDbDictionary
280
     1
281
     1
  3
ACAD_XREC_ROUNDTRIP
360
2050
  0
DICTIONARY
  5
2051
330
335
100
AcDbDictionary
280
     1
281
     1
  3
ACAD_XREC_ROUNDTRIP
360
2052
  0
DICTIONARY
  5
2053
330
336
100
AcDbDictionary
280
     1
281
     1
  3
ACAD_XREC_ROUNDTRIP
360
2054
  0
DICTIONARY
  5
205B
330
33A
100
AcDbDictionary
280
     1
281
     1
  3
ACAD_XREC_ROUNDTRIP
360
205C
  0
DICTIONARY
  5
2077
330
348
100
AcDbDictionary
280
     1
281
     1
  3
ACAD_XREC_ROUNDTRIP
360
2078
  0
DICTIONARY
  5
2067
330
340
100
AcDbDictionary
280
     1
281
     1
  3
ACAD_XREC_ROUNDTRIP
360
2068
  0
DICTIONARY
  5
2079
330
349
100
AcDbDictionary
280
     1
281
     1
  3
ACAD_XREC_ROUNDTRIP
360
207A
  0
DICTIONARY
  5
205F
330
33C
100
AcDbDictionary
280
     1
281
     1
  3
ACAD_XREC_ROUNDTRIP
360
2060
  0
DICTIONARY
  5
2075
330
347
100
AcDbDictionary
280
     1
281
     1
  3
ACAD_XREC_ROUNDTRIP
360
2076
  0
DICTIONARY
  5
2073
330
346
100
AcDbDictionary
280
     1
281
     1
  3
ACAD_XREC_ROUNDTRIP
360
2074
  0
DICTIONARY
  5
206D
330
343
100
AcDbDictionary
280
     1
281
     1
  3
ACAD_XREC_ROUNDTRIP
360
206E
  0
DICTIONARY
  5
206F
330
344
100
AcDbDictionary
280
     1
281
     1
  3
ACAD_XREC_ROUNDTRIP
360
2070
  0
DICTIONARY
  5
2065
330
33F
100
AcDbDictionary
280
     1
281
     1
  3
ACAD_XREC_ROUNDTRIP
360
2066
  0
DICTIONARY
  5
2059
330
339
100
AcDbDictionary
280
     1
281
     1
  3
ACAD_XREC_ROUNDTRIP
360
205A
  0
DICTIONARY
  5
2071
330
345
100
AcDbDictionary
280
     1
281
     1
  3
ACAD_XREC_ROUNDTRIP
360
2072
  0
XRECORD
  5
2080
102
{ACAD_REACTORS
330
207F
102
}
330
207F
100
AcDbXrecord
280
     1
102
DISPLAYNAME
  1
Imperial24
102
FLAGS
 90
        0
  0
XRECORD
  5
325
102
{ACAD_REACTORS
330
323
102
}
330
323
100
AcDbXrecord
280
     1
270
     1
271
     1
  0
XRECORD
  5
324
102
{ACAD_REACTORS
330
323
102
}
330
323
100
AcDbXrecord
280
     1
270
     1
271
     1
  0
XRECORD
  5
328
102
{ACAD_REACTORS
330
323
102
}
330
323
100
AcDbXrecord
280
     1
270
     1
271
     1
  0
XRECORD
  5
327
102
{ACAD_REACTORS
330
323
102
}
330
323
100
AcDbXrecord
280
     1
270
     1
271
     1
  0
XRECORD
  5
329
102
{ACAD_REACTORS
330
323
102
}
330
323
100
AcDbXrecord
280
     1
270
     1
271
     1
  0
XRECORD
  5
326
102
{ACAD_REACTORS
330
323
102
}
330
323
100
AcDbXrecord
280
     1
270
     1
271
     1
  0
XRECORD
  5
31D
102
{ACAD_REACTORS
330
31B
102
}
330
31B
100
AcDbXrecord
280
     1
270
     1
271
     1
  0
XRECORD
  5
31C
102
{ACAD_REACTORS
330
31B
102
}
330
31B
100
AcDbXrecord
280
     1
270
     1
271
     1
  0
XRECORD
  5
320
102
{ACAD_REACTORS
330
31B
102
}
330
31B
100
AcDbXrecord
280
     1
270
     1
271
     1
  0
XRECORD
  5
31F
102
{ACAD_REACTORS
330
31B
102
}
330
31B
100
AcDbXrecord
280
     1
270
     1
271
     1
  0
XRECORD
  5
321
102
{ACAD_REACTORS
330
31B
102
}
330
31B
100
AcDbXrecord
280
     1
270
     1
271
     1
  0
XRECORD
  5
31E
102
{ACAD_REACTORS
330
31B
102
}
330
31B
100
AcDbXrecord
280
     1
270
     1
271
     1
  0
XRECORD
  5
32D
102
{ACAD_REACTORS
330
32B
102
}
330
32B
100
AcDbXrecord
280
     1
270
     1
271
     1
  0
XRECORD
  5
32C
102
{ACAD_REACTORS
330
32B
102
}
330
32B
100
AcDbXrecord
280
     1
270
     1
271
     1
  0
XRECORD
  5
330
102
{ACAD_REACTORS
330
32B
102
}
330
32B
100
AcDbXrecord
280
     1
270
     1
271
     1
  0
XRECORD
  5
32F
102
{ACAD_REACTORS
330
32B
102
}
330
32B
100
AcDbXrecord
280
     1
270
     1
271
     1
  0
XRECORD
  5
331
102
{ACAD_REACTORS
330
32B
102
}
330
32B
100
AcDbXrecord
280
     1
270
     1
271
     1
  0
XRECORD
  5
32E
102
{ACAD_REACTORS
330
32B
102
}
330
32B
100
AcDbXrecord
280
     1
270
     1
271
     1
  0
XRECORD
  5
207E
102
{ACAD_REACTORS
330
207D
102
}
330
207D
100
AcDbXrecord
280
     1
102
DISPLAYNAME
  1
Imperial24
102
FLAGS
 90
        0
  0
CELLSTYLEMAP
  5
204B
102
{ACAD_REACTORS
330
513
102
}
330
513
100
AcDbCellStyleMap
 90
        3
300
CELLSTYLE
  1
TABLEFORMAT_BEGIN
 90
        5
170
     1
 91
        0
 92
    32768
 62
   257
 93
        1
300
CONTENTFORMAT
  1
CONTENTFORMAT_BEGIN
 90
        0
 91
        0
 92
      512
 93
        0
300

 40
0.0
140
1.0
 94
        5
 62
     0
340
17
144
0.25
309
CONTENTFORMAT_END
171
     1
301
MARGIN
  1
CELLMARGIN_BEGIN
 40
0.06
 40
0.06
 40
0.06
 40
0.06
 40
0.18
 40
0.18
309
CELLMARGIN_END
 94
        6
 95
        1
302
GRIDFORMAT
  1
GRIDFORMAT_BEGIN
 90
        0
 91
        1
 62
     0
 92
       -2
340
0
 93
        0
 40
0.045
309
GRIDFORMAT_END
 95
        2
302
GRIDFORMAT
  1
GRIDFORMAT_BEGIN
 90
        0
 91
        1
 62
     0
 92
       -2
340
0
 93
        0
 40
0.045
309
GRIDFORMAT_END
 95
        4
302
GRIDFORMAT
  1
GRIDFORMAT_BEGIN
 90
        0
 91
        1
 62
     0
 92
       -2
340
0
 93
        0
 40
0.045
309
GRIDFORMAT_END
 95
        8
302
GRIDFORMAT
  1
GRIDFORMAT_BEGIN
 90
        0
 91
        1
 62
     0
 92
       -2
340
0
 93
        0
 40
0.045
309
GRIDFORMAT_END
 95
       16
302
GRIDFORMAT
  1
GRIDFORMAT_BEGIN
 90
        0
 91
        1
 62
     0
 92
       -2
340
0
 93
        0
 40
0.045
309
GRIDFORMAT_END
 95
       32
302
GRIDFORMAT
  1
GRIDFORMAT_BEGIN
 90
        0
 91
        1
 62
     0
 92
       -2
340
0
 93
        0
 40
0.045
309
GRIDFORMAT_END
309
TABLEFORMAT_END
  1
CELLSTYLE_BEGIN
 90
        1
 91
        1
300
_TITLE
309
CELLSTYLE_END
300
CELLSTYLE
  1
TABLEFORMAT_BEGIN
 90
        5
170
     1
 91
        0
 92
        0
 62
   257
 93
        1
300
CONTENTFORMAT
  1
CONTENTFORMAT_BEGIN
 90
        0
 91
        0
 92
      512
 93
        0
300

 40
0.0
140
1.0
 94
        5
 62
     0
340
17
144
0.18
309
CONTENTFORMAT_END
171
     1
301
MARGIN
  1
CELLMARGIN_BEGIN
 40
0.06
 40
0.06
 40
0.06
 40
0.06
 40
0.18
 40
0.18
309
CELLMARGIN_END
 94
        6
 95
        1
302
GRIDFORMAT
  1
GRIDFORMAT_BEGIN
 90
        0
 91
        1
 62
     0
 92
       -2
340
0
 93
        0
 40
0.045
309
GRIDFORMAT_END
 95
        2
302
GRIDFORMAT
  1
GRIDFORMAT_BEGIN
 90
        0
 91
        1
 62
     0
 92
       -2
340
0
 93
        0
 40
0.045
309
GRIDFORMAT_END
 95
        4
302
GRIDFORMAT
  1
GRIDFORMAT_BEGIN
 90
        0
 91
        1
 62
     0
 92
       -2
340
0
 93
        0
 40
0.045
309
GRIDFORMAT_END
 95
        8
302
GRIDFORMAT
  1
GRIDFORMAT_BEGIN
 90
        0
 91
        1
 62
     0
 92
       -2
340
0
 93
        0
 40
0.045
309
GRIDFORMAT_END
 95
       16
302
GRIDFORMAT
  1
GRIDFORMAT_BEGIN
 90
        0
 91
        1
 62
     0
 92
       -2
340
0
 93
        0
 40
0.045
309
GRIDFORMAT_END
 95
       32
302
GRIDFORMAT
  1
GRIDFORMAT_BEGIN
 90
        0
 91
        1
 62
     0
 92
       -2
340
0
 93
        0
 40
0.045
309
GRIDFORMAT_END
309
TABLEFORMAT_END
  1
CELLSTYLE_BEGIN
 90
        2
 91
        1
300
_HEADER
309
CELLSTYLE_END
300
CELLSTYLE
  1
TABLEFORMAT_BEGIN
 90
        5
170
     1
 91
        0
 92
        0
 62
   257
 93
        1
300
CONTENTFORMAT
  1
CONTENTFORMAT_BEGIN
 90
        0
 91
        0
 92
      512
 93
        0
300

 40
0.0
140
1.0
 94
        2
 62
     0
340
17
144
0.18
309
CONTENTFORMAT_END
171
     1
301
MARGIN
  1
CELLMARGIN_BEGIN
 40
0.06
 40
0.06
 40
0.06
 40
0.06
 40
0.18
 40
0.18
309
CELLMARGIN_END
 94
        6
 95
        1
302
GRIDFORMAT
  1
GRIDFORMAT_BEGIN
 90
        0
 91
        1
 62
     0
 92
       -2
340
0
 93
        0
 40
0.045
309
GRIDFORMAT_END
 95
        2
302
GRIDFORMAT
  1
GRIDFORMAT_BEGIN
 90
        0
 91
        1
 62
     0
 92
       -2
340
0
 93
        0
 40
0.045
309
GRIDFORMAT_END
 95
        4
302
GRIDFORMAT
  1
GRIDFORMAT_BEGIN
 90
        0
 91
        1
 62
     0
 92
       -2
340
0
 93
        0
 40
0.045
309
GRIDFORMAT_END
 95
        8
302
GRIDFORMAT
  1
GRIDFORMAT_BEGIN
 90
        0
 91
        1
 62
     0
 92
       -2
340
0
 93
        0
 40
0.045
309
GRIDFORMAT_END
 95
       16
302
GRIDFORMAT
  1
GRIDFORMAT_BEGIN
 90
        0
 91
        1
 62
     0
 92
       -2
340
0
 93
        0
 40
0.045
309
GRIDFORMAT_END
 95
       32
302
GRIDFORMAT
  1
GRIDFORMAT_BEGIN
 90
        0
 91
        1
 62
     0
 92
       -2
340
0
 93
        0
 40
0.045
309
GRIDFORMAT_END
309
TABLEFORMAT_END
  1
CELLSTYLE_BEGIN
 90
        3
 91
        2
300
_DATA
309
CELLSTYLE_END
  0
XRECORD
  5
2058
102
{ACAD_REACTORS
330
2057
102
}
330
2057
100
AcDbXrecord
280
     1
102
RTVSPost2010Prop28
280
     1
102
RTVSPost2010PropOp28
 70
     1
102
RTVSPost2010Prop29
280
     1
102
RTVSPost2010PropOp29
 70
     1
102
RTVSPost2010Prop30
280
     0
102
RTVSPost2010PropOp30
 70
     1
102
RTVSPost2010Prop31
280
     0
102
RTVSPost2010PropOp31
 70
     1
102
RTVSPost2010Prop32
280
     0
102
RTVSPost2010PropOp32
 70
     1
102
RTVSPost2010Prop33
280
     0
102
RTVSPost2010PropOp33
 70
     1
102
RTVSPost2010Prop34
280
     0
102
RTVSPost2010PropOp34
 70
     1
102
RTVSPost2010Prop35
280
     0
102
RTVSPost2010PropOp35
 70
     1
102
RTVSPost2010Prop36
280
     0
102
RTVSPost2010PropOp36
 70
     1
102
RTVSPost2010Prop37
 90
       50
102
RTVSPost2010PropOp37
 70
     1
102
RTVSPost2010Prop38
140
0.0
102
RTVSPost2010PropOp38
 70
     1
102
RTVSPost2010Prop39
140
1.0
102
RTVSPost2010PropOp39
 70
     1
102
RTVSPost2010Prop40
 90
        0
102
RTVSPost2010PropOp40
 70
     1
102
RTVSPost2010Prop41ColorIndex
 90
       18
102
RTVSPost2010Prop41ColorRGB
 90
        0
102
RTVSPost2010PropOp41
 70
     1
102
RTVSPost2010Prop42
 90
       50
102
RTVSPost2010PropOp42
 70
     1
102
RTVSPost2010Prop43
 90
        3
102
RTVSPost2010PropOp43
 70
     1
102
RTVSPost2010Prop44ColorIndex
 90
        5
102
RTVSPost2010Prop44ColorRGB
 90
      255
102
RTVSPost2010PropOp44
 70
     1
102
RTVSPost2010Prop45
280
     0
102
RTVSPost2010PropOp45
 70
     1
102
RTVSPost2010Prop46
 90
       50
102
RTVSPost2010PropOp46
 70
     1
102
RTVSPost2010Prop47
 90
       50
102
RTVSPost2010PropOp47
 70
     1
102
RTVSPost2010Prop48
 90
       50
102
RTVSPost2010PropOp48
 70
     1
102
RTVSPost2010Prop49
280
     0
102
RTVSPost2010PropOp49
 70
     1
102
RTVSPost2010Prop50
 90
       50
102
RTVSPost2010PropOp50
 70
     1
102
RTVSPost2010Prop51ColorIndex
 90
      256
102
RTVSPost2010Prop51ColorRGB
 90
-16777216
102
RTVSPost2010PropOp51
 70
     0
102
RTVSPost2010Prop52
140
1.0
102
RTVSPost2010PropOp52
 70
     0
102
RTVSPost2010Prop53
 90
        2
102
RTVSPost2010PropOp53
 70
     1
102
RTVSPost2010Prop54
  1
strokes_ogs.tif
102
RTVSPost2010PropOp54
 70
     1
102
RTVSPost2010Prop55
280
     0
102
RTVSPost2010PropOp55
 70
     1
102
RTVSPost2010Prop56
140
1.0
102
RTVSPost2010PropOp56
 70
     1
102
RTVSPost2010Prop57
140
1.0
102
RTVSPost2010PropOp57
 70
     1
  0
XRECORD
  5
2056
102
{ACAD_REACTORS
330
2055
102
}
330
2055
100
AcDbXrecord
280
     1
102
RTVSPost2010Prop28
280
     0
102
RTVSPost2010PropOp28
 70
     1
102
RTVSPost2010Prop29
280
     1
102
RTVSPost2010PropOp29
 70
     1
102
RTVSPost2010Prop30
280
     1
102
RTVSPost2010PropOp30
 70
     1
102
RTVSPost2010Prop31
280
     0
102
RTVSPost2010PropOp31
 70
     1
102
RTVSPost2010Prop32
280
     0
102
RTVSPost2010PropOp32
 70
     1
102
RTVSPost2010Prop33
280
     0
102
RTVSPost2010PropOp33
 70
     1
102
RTVSPost2010Prop34
280
     0
102
RTVSPost2010PropOp34
 70
     1
102
RTVSPost2010Prop35
280
     0
102
RTVSPost2010PropOp35
 70
     1
102
RTVSPost2010Prop36
280
     0
102
RTVSPost2010PropOp36
 70
     1
102
RTVSPost2010Prop37
 90
       50
102
RTVSPost2010PropOp37
 70
     1
102
RTVSPost2010Prop38
140
0.0
102
RTVSPost2010PropOp38
 70
     1
102
RTVSPost2010Prop39
140
1.0
102
RTVSPost2010PropOp39
 70
     1
102
RTVSPost2010Prop40
 90
        0
102
RTVSPost2010PropOp40
 70
     1
102
RTVSPost2010Prop41ColorIndex
 90
       18
102
RTVSPost2010Prop41ColorRGB
 90
        0
102
RTVSPost2010PropOp41
 70
     1
102
RTVSPost2010Prop42
 90
       50
102
RTVSPost2010PropOp42
 70
     1
102
RTVSPost2010Prop43
 90
        3
102
RTVSPost2010PropOp43
 70
     1
102
RTVSPost2010Prop44ColorIndex
 90
        5
102
RTVSPost2010Prop44ColorRGB
 90
      255
102
RTVSPost2010PropOp44
 70
     1
102
RTVSPost2010Prop45
280
     0
102
RTVSPost2010PropOp45
 70
     1
102
RTVSPost2010Prop46
 90
       50
102
RTVSPost2010PropOp46
 70
     1
102
RTVSPost2010Prop47
 90
       50
102
RTVSPost2010PropOp47
 70
     1
102
RTVSPost2010Prop48
 90
       50
102
RTVSPost2010PropOp48
 70
     1
102
RTVSPost2010Prop49
280
     0
102
RTVSPost2010PropOp49
 70
     1
102
RTVSPost2010Prop50
 90
       50
102
RTVSPost2010PropOp50
 70
     1
102
RTVSPost2010Prop51ColorIndex
 90
      256
102
RTVSPost2010Prop51ColorRGB
 90
-16777216
102
RTVSPost2010PropOp51
 70
     0
102
RTVSPost2010Prop52
140
1.0
102
RTVSPost2010PropOp52
 70
     0
102
RTVSPost2010Prop53
 90
        2
102
RTVSPost2010PropOp53
 70
     1
102
RTVSPost2010Prop54
  1
strokes_ogs.tif
102
RTVSPost2010PropOp54
 70
     1
102
RTVSPost2010Prop55
280
     0
102
RTVSPost2010PropOp55
 70
     1
102
RTVSPost2010Prop56
140
1.0
102
RTVSPost2010PropOp56
 70
     1
102
RTVSPost2010Prop57
140
1.0
102
RTVSPost2010PropOp57
 70
     1
  0
XRECORD
  5
2064
102
{ACAD_REACTORS
330
2063
102
}
330
2063
100
AcDbXrecord
280
     1
102
RTVSPost2010Prop28
280
     0
102
RTVSPost2010PropOp28
 70
     1
102
RTVSPost2010Prop29
280
     1
102
RTVSPost2010PropOp29
 70
     1
102
RTVSPost2010Prop30
280
     1
102
RTVSPost2010PropOp30
 70
     1
102
RTVSPost2010Prop31
280
     0
102
RTVSPost2010PropOp31
 70
     1
102
RTVSPost2010Prop32
280
     0
102
RTVSPost2010PropOp32
 70
     1
102
RTVSPost2010Prop33
280
     0
102
RTVSPost2010PropOp33
 70
     1
102
RTVSPost2010Prop34
280
     0
102
RTVSPost2010PropOp34
 70
     1
102
RTVSPost2010Prop35
280
     0
102
RTVSPost2010PropOp35
 70
     1
102
RTVSPost2010Prop36
280
     0
102
RTVSPost2010PropOp36
 70
     1
102
RTVSPost2010Prop37
 90
       50
102
RTVSPost2010PropOp37
 70
     1
102
RTVSPost2010Prop38
140
0.0
102
RTVSPost2010PropOp38
 70
     1
102
RTVSPost2010Prop39
140
1.0
102
RTVSPost2010PropOp39
 70
     1
102
RTVSPost2010Prop40
 90
        0
102
RTVSPost2010PropOp40
 70
     1
102
RTVSPost2010Prop41ColorIndex
 90
       18
102
RTVSPost2010Prop41ColorRGB
 90
        0
102
RTVSPost2010PropOp41
 70
     1
102
RTVSPost2010Prop42
 90
       50
102
RTVSPost2010PropOp42
 70
     1
102
RTVSPost2010Prop43
 90
        3
102
RTVSPost2010PropOp43
 70
     1
102
RTVSPost2010Prop44ColorIndex
 90
        5
102
RTVSPost2010Prop44ColorRGB
 90
      255
102
RTVSPost2010PropOp44
 70
     1
102
RTVSPost2010Prop45
280
     0
102
RTVSPost2010PropOp45
 70
     1
102
RTVSPost2010Prop46
 90
       50
102
RTVSPost2010PropOp46
 70
     1
102
RTVSPost2010Prop47
 90
       50
102
RTVSPost2010PropOp47
 70
     1
102
RTVSPost2010Prop48
 90
       50
102
RTVSPost2010PropOp48
 70
     1
102
RTVSPost2010Prop49
280
     0
102
RTVSPost2010PropOp49
 70
     1
102
RTVSPost2010Prop50
 90
       50
102
RTVSPost2010PropOp50
 70
     1
102
RTVSPost2010Prop51ColorIndex
 90
      256
102
RTVSPost2010Prop51ColorRGB
 90
-16777216
102
RTVSPost2010PropOp51
 70
     0
102
RTVSPost2010Prop52
140
1.0
102
RTVSPost2010PropOp52
 70
     0
102
RTVSPost2010Prop53
 90
        2
102
RTVSPost2010PropOp53
 70
     1
102
RTVSPost2010Prop54
  1
strokes_ogs.tif
102
RTVSPost2010PropOp54
 70
     1
102
RTVSPost2010Prop55
280
     0
102
RTVSPost2010PropOp55
 70
     1
102
RTVSPost2010Prop56
140
1.0
102
RTVSPost2010PropOp56
 70
     1
102
RTVSPost2010Prop57
140
1.0
102
RTVSPost2010PropOp57
 70
     1
  0
XRECORD
  5
206C
102
{ACAD_REACTORS
330
206B
102
}
330
206B
100
AcDbXrecord
280
     1
102
RTVSPost2010Prop28
280
     0
102
RTVSPost2010PropOp28
 70
     1
102
RTVSPost2010Prop29
280
     1
102
RTVSPost2010PropOp29
 70
     1
102
RTVSPost2010Prop30
280
     1
102
RTVSPost2010PropOp30
 70
     1
102
RTVSPost2010Prop31
280
     0
102
RTVSPost2010PropOp31
 70
     1
102
RTVSPost2010Prop32
280
     0
102
RTVSPost2010PropOp32
 70
     1
102
RTVSPost2010Prop33
280
     0
102
RTVSPost2010PropOp33
 70
     1
102
RTVSPost2010Prop34
280
     0
102
RTVSPost2010PropOp34
 70
     1
102
RTVSPost2010Prop35
280
     0
102
RTVSPost2010PropOp35
 70
     1
102
RTVSPost2010Prop36
280
     0
102
RTVSPost2010PropOp36
 70
     1
102
RTVSPost2010Prop37
 90
       50
102
RTVSPost2010PropOp37
 70
     1
102
RTVSPost2010Prop38
140
0.0
102
RTVSPost2010PropOp38
 70
     1
102
RTVSPost2010Prop39
140
1.0
102
RTVSPost2010PropOp39
 70
     1
102
RTVSPost2010Prop40
 90
        0
102
RTVSPost2010PropOp40
 70
     1
102
RTVSPost2010Prop41ColorIndex
 90
       18
102
RTVSPost2010Prop41ColorRGB
 90
        0
102
RTVSPost2010PropOp41
 70
     1
102
RTVSPost2010Prop42
 90
       50
102
RTVSPost2010PropOp42
 70
     1
102
RTVSPost2010Prop43
 90
        3
102
RTVSPost2010PropOp43
 70
     1
102
RTVSPost2010Prop44ColorIndex
 90
        5
102
RTVSPost2010Prop44ColorRGB
 90
      255
102
RTVSPost2010PropOp44
 70
     1
102
RTVSPost2010Prop45
280
     0
102
RTVSPost2010PropOp45
 70
     1
102
RTVSPost2010Prop46
 90
       50
102
RTVSPost2010PropOp46
 70
     1
102
RTVSPost2010Prop47
 90
       50
102
RTVSPost2010PropOp47
 70
     1
102
RTVSPost2010Prop48
 90
       50
102
RTVSPost2010PropOp48
 70
     1
102
RTVSPost2010Prop49
280
     0
102
RTVSPost2010PropOp49
 70
     1
102
RTVSPost2010Prop50
 90
       50
102
RTVSPost2010PropOp50
 70
     1
102
RTVSPost2010Prop51ColorIndex
 90
      256
102
RTVSPost2010Prop51ColorRGB
 90
-16777216
102
RTVSPost2010PropOp51
 70
     0
102
RTVSPost2010Prop52
140
1.0
102
RTVSPost2010PropOp52
 70
     0
102
RTVSPost2010Prop53
 90
        2
102
RTVSPost2010PropOp53
 70
     1
102
RTVSPost2010Prop54
  1
strokes_ogs.tif
102
RTVSPost2010PropOp54
 70
     1
102
RTVSPost2010Prop55
280
     0
102
RTVSPost2010PropOp55
 70
     1
102
RTVSPost2010Prop56
140
1.0
102
RTVSPost2010PropOp56
 70
     1
102
RTVSPost2010Prop57
140
1.0
102
RTVSPost2010PropOp57
 70
     1
  0
XRECORD
  5
205E
102
{ACAD_REACTORS
330
205D
102
}
330
205D
100
AcDbXrecord
280
     1
102
RTVSPost2010Prop28
280
     0
102
RTVSPost2010PropOp28
 70
     1
102
RTVSPost2010Prop29
280
     1
102
RTVSPost2010PropOp29
 70
     1
102
RTVSPost2010Prop30
280
     1
102
RTVSPost2010PropOp30
 70
     1
102
RTVSPost2010Prop31
280
     0
102
RTVSPost2010PropOp31
 70
     1
102
RTVSPost2010Prop32
280
     0
102
RTVSPost2010PropOp32
 70
     1
102
RTVSPost2010Prop33
280
     0
102
RTVSPost2010PropOp33
 70
     1
102
RTVSPost2010Prop34
280
     0
102
RTVSPost2010PropOp34
 70
     1
102
RTVSPost2010Prop35
280
     0
102
RTVSPost2010PropOp35
 70
     1
102
RTVSPost2010Prop36
280
     0
102
RTVSPost2010PropOp36
 70
     1
102
RTVSPost2010Prop37
 90
       50
102
RTVSPost2010PropOp37
 70
     1
102
RTVSPost2010Prop38
140
0.0
102
RTVSPost2010PropOp38
 70
     1
102
RTVSPost2010Prop39
140
1.0
102
RTVSPost2010PropOp39
 70
     1
102
RTVSPost2010Prop40
 90
        0
102
RTVSPost2010PropOp40
 70
     1
102
RTVSPost2010Prop41ColorIndex
 90
       18
102
RTVSPost2010Prop41ColorRGB
 90
        0
102
RTVSPost2010PropOp41
 70
     1
102
RTVSPost2010Prop42
 90
       50
102
RTVSPost2010PropOp42
 70
     1
102
RTVSPost2010Prop43
 90
        3
102
RTVSPost2010PropOp43
 70
     1
102
RTVSPost2010Prop44ColorIndex
 90
        5
102
RTVSPost2010Prop44ColorRGB
 90
      255
102
RTVSPost2010PropOp44
 70
     1
102
RTVSPost2010Prop45
280
     0
102
RTVSPost2010PropOp45
 70
     1
102
RTVSPost2010Prop46
 90
       50
102
RTVSPost2010PropOp46
 70
     1
102
RTVSPost2010Prop47
 90
       50
102
RTVSPost2010PropOp47
 70
     1
102
RTVSPost2010Prop48
 90
       50
102
RTVSPost2010PropOp48
 70
     1
102
RTVSPost2010Prop49
280
     0
102
RTVSPost2010PropOp49
 70
     1
102
RTVSPost2010Prop50
 90
       50
102
RTVSPost2010PropOp50
 70
     1
102
RTVSPost2010Prop51ColorIndex
 90
      256
102
RTVSPost2010Prop51ColorRGB
 90
-16777216
102
RTVSPost2010PropOp51
 70
     0
102
RTVSPost2010Prop52
140
1.0
102
RTVSPost2010PropOp52
 70
     0
102
RTVSPost2010Prop53
 90
        2
102
RTVSPost2010PropOp53
 70
     1
102
RTVSPost2010Prop54
  1
strokes_ogs.tif
102
RTVSPost2010PropOp54
 70
     1
102
RTVSPost2010Prop55
280
     0
102
RTVSPost2010PropOp55
 70
     1
102
RTVSPost2010Prop56
140
1.0
102
RTVSPost2010PropOp56
 70
     1
102
RTVSPost2010Prop57
140
1.0
102
RTVSPost2010PropOp57
 70
     1
  0
XRECORD
  5
2062
102
{ACAD_REACTORS
330
2061
102
}
330
2061
100
AcDbXrecord
280
     1
102
RTVSPost2010Prop28
280
     0
102
RTVSPost2010PropOp28
 70
     1
102
RTVSPost2010Prop29
280
     1
102
RTVSPost2010PropOp29
 70
     1
102
RTVSPost2010Prop30
280
     1
102
RTVSPost2010PropOp30
 70
     1
102
RTVSPost2010Prop31
280
     0
102
RTVSPost2010PropOp31
 70
     1
102
RTVSPost2010Prop32
280
     0
102
RTVSPost2010PropOp32
 70
     1
102
RTVSPost2010Prop33
280
     0
102
RTVSPost2010PropOp33
 70
     1
102
RTVSPost2010Prop34
280
     0
102
RTVSPost2010PropOp34
 70
     1
102
RTVSPost2010Prop35
280
     0
102
RTVSPost2010PropOp35
 70
     1
102
RTVSPost2010Prop36
280
     0
102
RTVSPost2010PropOp36
 70
     1
102
RTVSPost2010Prop37
 90
       50
102
RTVSPost2010PropOp37
 70
     1
102
RTVSPost2010Prop38
140
0.0
102
RTVSPost2010PropOp38
 70
     1
102
RTVSPost2010Prop39
140
1.0
102
RTVSPost2010PropOp39
 70
     1
102
RTVSPost2010Prop40
 90
        0
102
RTVSPost2010PropOp40
 70
     1
102
RTVSPost2010Prop41ColorIndex
 90
       18
102
RTVSPost2010Prop41ColorRGB
 90
        0
102
RTVSPost2010PropOp41
 70
     1
102
RTVSPost2010Prop42
 90
       50
102
RTVSPost2010PropOp42
 70
     1
102
RTVSPost2010Prop43
 90
        3
102
RTVSPost2010PropOp43
 70
     1
102
RTVSPost2010Prop44ColorIndex
 90
        5
102
RTVSPost2010Prop44ColorRGB
 90
      255
102
RTVSPost2010PropOp44
 70
     1
102
RTVSPost2010Prop45
280
     0
102
RTVSPost2010PropOp45
 70
     1
102
RTVSPost2010Prop46
 90
       50
102
RTVSPost2010PropOp46
 70
     1
102
RTVSPost2010Prop47
 90
       50
102
RTVSPost2010PropOp47
 70
     1
102
RTVSPost2010Prop48
 90
       50
102
RTVSPost2010PropOp48
 70
     1
102
RTVSPost2010Prop49
280
     0
102
RTVSPost2010PropOp49
 70
     1
102
RTVSPost2010Prop50
 90
       50
102
RTVSPost2010PropOp50
 70
     1
102
RTVSPost2010Prop51ColorIndex
 90
      256
102
RTVSPost2010Prop51ColorRGB
 90
-16777216
102
RTVSPost2010PropOp51
 70
     0
102
RTVSPost2010Prop52
140
1.0
102
RTVSPost2010PropOp52
 70
     0
102
RTVSPost2010Prop53
 90
        2
102
RTVSPost2010PropOp53
 70
     1
102
RTVSPost2010Prop54
  1
strokes_ogs.tif
102
RTVSPost2010PropOp54
 70
     1
102
RTVSPost2010Prop55
280
     0
102
RTVSPost2010PropOp55
 70
     1
102
RTVSPost2010Prop56
140
1.0
102
RTVSPost2010PropOp56
 70
     1
102
RTVSPost2010Prop57
140
1.0
102
RTVSPost2010PropOp57
 70
     1
  0
XRECORD
  5
207C
102
{ACAD_REACTORS
330
207B
102
}
330
207B
100
AcDbXrecord
280
     1
102
RTVSPost2010Prop28
280
     0
102
RTVSPost2010PropOp28
 70
     1
102
RTVSPost2010Prop29
280
     1
102
RTVSPost2010PropOp29
 70
     1
102
RTVSPost2010Prop30
280
     1
102
RTVSPost2010PropOp30
 70
     1
102
RTVSPost2010Prop31
280
     0
102
RTVSPost2010PropOp31
 70
     1
102
RTVSPost2010Prop32
280
     0
102
RTVSPost2010PropOp32
 70
     1
102
RTVSPost2010Prop33
280
     0
102
RTVSPost2010PropOp33
 70
     1
102
RTVSPost2010Prop34
280
     0
102
RTVSPost2010PropOp34
 70
     1
102
RTVSPost2010Prop35
280
     0
102
RTVSPost2010PropOp35
 70
     1
102
RTVSPost2010Prop36
280
     0
102
RTVSPost2010PropOp36
 70
     1
102
RTVSPost2010Prop37
 90
       50
102
RTVSPost2010PropOp37
 70
     0
102
RTVSPost2010Prop38
140
0.0
102
RTVSPost2010PropOp38
 70
     0
102
RTVSPost2010Prop39
140
1.0
102
RTVSPost2010PropOp39
 70
     0
102
RTVSPost2010Prop40
 90
        0
102
RTVSPost2010PropOp40
 70
     0
102
RTVSPost2010Prop41ColorIndex
 90
       18
102
RTVSPost2010Prop41ColorRGB
 90
        0
102
RTVSPost2010PropOp41
 70
     0
102
RTVSPost2010Prop42
 90
       50
102
RTVSPost2010PropOp42
 70
     0
102
RTVSPost2010Prop43
 90
        3
102
RTVSPost2010PropOp43
 70
     0
102
RTVSPost2010Prop44ColorIndex
 90
        5
102
RTVSPost2010Prop44ColorRGB
 90
      255
102
RTVSPost2010PropOp44
 70
     0
102
RTVSPost2010Prop45
280
     0
102
RTVSPost2010PropOp45
 70
     1
102
RTVSPost2010Prop46
 90
       50
102
RTVSPost2010PropOp46
 70
     0
102
RTVSPost2010Prop47
 90
       50
102
RTVSPost2010PropOp47
 70
     0
102
RTVSPost2010Prop48
 90
       50
102
RTVSPost2010PropOp48
 70
     0
102
RTVSPost2010Prop49
280
     0
102
RTVSPost2010PropOp49
 70
     1
102
RTVSPost2010Prop50
 90
       50
102
RTVSPost2010PropOp50
 70
     0
102
RTVSPost2010Prop51ColorIndex
 90
      256
102
RTVSPost2010Prop51ColorRGB
 90
-16777216
102
RTVSPost2010PropOp51
 70
     0
102
RTVSPost2010Prop52
140
1.0
102
RTVSPost2010PropOp52
 70
     0
102
RTVSPost2010Prop53
 90
        2
102
RTVSPost2010PropOp53
 70
     0
102
RTVSPost2010Prop54
  1
strokes_ogs.tif
102
RTVSPost2010PropOp54
 70
     0
102
RTVSPost2010Prop55
280
     0
102
RTVSPost2010PropOp55
 70
     1
102
RTVSPost2010Prop56
140
1.0
102
RTVSPost2010PropOp56
 70
     0
102
RTVSPost2010Prop57
140
1.0
102
RTVSPost2010PropOp57
 70
     0
  0
XRECORD
  5
206A
102
{ACAD_REACTORS
330
2069
102
}
330
2069
100
AcDbXrecord
280
     1
102
RTVSPost2010Prop28
280
     0
102
RTVSPost2010PropOp28
 70
     1
102
RTVSPost2010Prop29
280
     1
102
RTVSPost2010PropOp29
 70
     1
102
RTVSPost2010Prop30
280
     1
102
RTVSPost2010PropOp30
 70
     1
102
RTVSPost2010Prop31
280
     0
102
RTVSPost2010PropOp31
 70
     1
102
RTVSPost2010Prop32
280
     0
102
RTVSPost2010PropOp32
 70
     1
102
RTVSPost2010Prop33
280
     0
102
RTVSPost2010PropOp33
 70
     1
102
RTVSPost2010Prop34
280
     0
102
RTVSPost2010PropOp34
 70
     1
102
RTVSPost2010Prop35
280
     0
102
RTVSPost2010PropOp35
 70
     1
102
RTVSPost2010Prop36
280
     0
102
RTVSPost2010PropOp36
 70
     1
102
RTVSPost2010Prop37
 90
       50
102
RTVSPost2010PropOp37
 70
     1
102
RTVSPost2010Prop38
140
0.0
102
RTVSPost2010PropOp38
 70
     1
102
RTVSPost2010Prop39
140
1.0
102
RTVSPost2010PropOp39
 70
     1
102
RTVSPost2010Prop40
 90
        0
102
RTVSPost2010PropOp40
 70
     1
102
RTVSPost2010Prop41ColorIndex
 90
       18
102
RTVSPost2010Prop41ColorRGB
 90
        0
102
RTVSPost2010PropOp41
 70
     1
102
RTVSPost2010Prop42
 90
       50
102
RTVSPost2010PropOp42
 70
     1
102
RTVSPost2010Prop43
 90
        3
102
RTVSPost2010PropOp43
 70
     1
102
RTVSPost2010Prop44ColorIndex
 90
        5
102
RTVSPost2010Prop44ColorRGB
 90
      255
102
RTVSPost2010PropOp44
 70
     1
102
RTVSPost2010Prop45
280
     0
102
RTVSPost2010PropOp45
 70
     1
102
RTVSPost2010Prop46
 90
       50
102
RTVSPost2010PropOp46
 70
     1
102
RTVSPost2010Prop47
 90
       50
102
RTVSPost2010PropOp47
 70
     1
102
RTVSPost2010Prop48
 90
       50
102
RTVSPost2010PropOp48
 70
     1
102
RTVSPost2010Prop49
280
     0
102
RTVSPost2010PropOp49
 70
     1
102
RTVSPost2010Prop50
 90
       50
102
RTVSPost2010PropOp50
 70
     1
102
RTVSPost2010Prop51ColorIndex
 90
      256
102
RTVSPost2010Prop51ColorRGB
 90
-16777216
102
RTVSPost2010PropOp51
 70
     0
102
RTVSPost2010Prop52
140
1.0
102
RTVSPost2010PropOp52
 70
     0
102
RTVSPost2010Prop53
 90
        2
102
RTVSPost2010PropOp53
 70
     1
102
RTVSPost2010Prop54
  1
strokes_ogs.tif
102
RTVSPost2010PropOp54
 70
     1
102
RTVSPost2010Prop55
280
     0
102
RTVSPost2010PropOp55
 70
     1
102
RTVSPost2010Prop56
140
1.0
102
RTVSPost2010PropOp56
 70
     1
102
RTVSPost2010Prop57
140
1.0
102
RTVSPost2010PropOp57
 70
     1
  0
XRECORD
  5
204E
102
{ACAD_REACTORS
330
204D
102
}
330
204D
100
AcDbXrecord
280
     1
102
RTVSPost2010Prop28
280
     0
102
RTVSPost2010PropOp28
 70
     1
102
RTVSPost2010Prop29
280
     1
102
RTVSPost2010PropOp29
 70
     1
102
RTVSPost2010Prop30
280
     1
102
RTVSPost2010PropOp30
 70
     1
102
RTVSPost2010Prop31
280
     0
102
RTVSPost2010PropOp31
 70
     1
102
RTVSPost2010Prop32
280
     0
102
RTVSPost2010PropOp32
 70
     1
102
RTVSPost2010Prop33
280
     0
102
RTVSPost2010PropOp33
 70
     1
102
RTVSPost2010Prop34
280
     0
102
RTVSPost2010PropOp34
 70
     1
102
RTVSPost2010Prop35
280
     0
102
RTVSPost2010PropOp35
 70
     1
102
RTVSPost2010Prop36
280
     0
102
RTVSPost2010PropOp36
 70
     1
102
RTVSPost2010Prop37
 90
       50
102
RTVSPost2010PropOp37
 70
     1
102
RTVSPost2010Prop38
140
0.0
102
RTVSPost2010PropOp38
 70
     1
102
RTVSPost2010Prop39
140
1.0
102
RTVSPost2010PropOp39
 70
     1
102
RTVSPost2010Prop40
 90
        0
102
RTVSPost2010PropOp40
 70
     1
102
RTVSPost2010Prop41ColorIndex
 90
       18
102
RTVSPost2010Prop41ColorRGB
 90
        0
102
RTVSPost2010PropOp41
 70
     1
102
RTVSPost2010Prop42
 90
       50
102
RTVSPost2010PropOp42
 70
     1
102
RTVSPost2010Prop43
 90
        3
102
RTVSPost2010PropOp43
 70
     1
102
RTVSPost2010Prop44ColorIndex
 90
        5
102
RTVSPost2010Prop44ColorRGB
 90
      255
102
RTVSPost2010PropOp44
 70
     1
102
RTVSPost2010Prop45
280
     0
102
RTVSPost2010PropOp45
 70
     1
102
RTVSPost2010Prop46
 90
       50
102
RTVSPost2010PropOp46
 70
     1
102
RTVSPost2010Prop47
 90
       50
102
RTVSPost2010PropOp47
 70
     1
102
RTVSPost2010Prop48
 90
       50
102
RTVSPost2010PropOp48
 70
     1
102
RTVSPost2010Prop49
280
     0
102
RTVSPost2010PropOp49
 70
     1
102
RTVSPost2010Prop50
 90
       50
102
RTVSPost2010PropOp50
 70
     1
102
RTVSPost2010Prop51ColorIndex
 90
      256
102
RTVSPost2010Prop51ColorRGB
 90
-16777216
102
RTVSPost2010PropOp51
 70
     0
102
RTVSPost2010Prop52
140
1.0
102
RTVSPost2010PropOp52
 70
     0
102
RTVSPost2010Prop53
 90
        2
102
RTVSPost2010PropOp53
 70
     1
102
RTVSPost2010Prop54
  1
strokes_ogs.tif
102
RTVSPost2010PropOp54
 70
     1
102
RTVSPost2010Prop55
280
     0
102
RTVSPost2010PropOp55
 70
     1
102
RTVSPost2010Prop56
140
1.0
102
RTVSPost2010PropOp56
 70
     1
102
RTVSPost2010Prop57
140
1.0
102
RTVSPost2010PropOp57
 70
     1
  0
XRECORD
  5
2050
102
{ACAD_REACTORS
330
204F
102
}
330
204F
100
AcDbXrecord
280
     1
102
RTVSPost2010Prop28
280
     0
102
RTVSPost2010PropOp28
 70
     1
102
RTVSPost2010Prop29
280
     1
102
RTVSPost2010PropOp29
 70
     1
102
RTVSPost2010Prop30
280
     1
102
RTVSPost2010PropOp30
 70
     1
102
RTVSPost2010Prop31
280
     0
102
RTVSPost2010PropOp31
 70
     1
102
RTVSPost2010Prop32
280
     0
102
RTVSPost2010PropOp32
 70
     1
102
RTVSPost2010Prop33
280
     0
102
RTVSPost2010PropOp33
 70
     1
102
RTVSPost2010Prop34
280
     0
102
RTVSPost2010PropOp34
 70
     1
102
RTVSPost2010Prop35
280
     0
102
RTVSPost2010PropOp35
 70
     1
102
RTVSPost2010Prop36
280
     0
102
RTVSPost2010PropOp36
 70
     1
102
RTVSPost2010Prop37
 90
       50
102
RTVSPost2010PropOp37
 70
     1
102
RTVSPost2010Prop38
140
0.0
102
RTVSPost2010PropOp38
 70
     1
102
RTVSPost2010Prop39
140
1.0
102
RTVSPost2010PropOp39
 70
     1
102
RTVSPost2010Prop40
 90
        0
102
RTVSPost2010PropOp40
 70
     1
102
RTVSPost2010Prop41ColorIndex
 90
       18
102
RTVSPost2010Prop41ColorRGB
 90
        0
102
RTVSPost2010PropOp41
 70
     1
102
RTVSPost2010Prop42
 90
       50
102
RTVSPost2010PropOp42
 70
     1
102
RTVSPost2010Prop43
 90
        3
102
RTVSPost2010PropOp43
 70
     1
102
RTVSPost2010Prop44ColorIndex
 90
        5
102
RTVSPost2010Prop44ColorRGB
 90
      255
102
RTVSPost2010PropOp44
 70
     1
102
RTVSPost2010Prop45
280
     0
102
RTVSPost2010PropOp45
 70
     1
102
RTVSPost2010Prop46
 90
       50
102
RTVSPost2010PropOp46
 70
     1
102
RTVSPost2010Prop47
 90
       50
102
RTVSPost2010PropOp47
 70
     1
102
RTVSPost2010Prop48
 90
       50
102
RTVSPost2010PropOp48
 70
     1
102
RTVSPost2010Prop49
280
     0
102
RTVSPost2010PropOp49
 70
     1
102
RTVSPost2010Prop50
 90
       50
102
RTVSPost2010PropOp50
 70
     1
102
RTVSPost2010Prop51ColorIndex
 90
      256
102
RTVSPost2010Prop51ColorRGB
 90
-16777216
102
RTVSPost2010PropOp51
 70
     0
102
RTVSPost2010Prop52
140
1.0
102
RTVSPost2010PropOp52
 70
     0
102
RTVSPost2010Prop53
 90
        2
102
RTVSPost2010PropOp53
 70
     1
102
RTVSPost2010Prop54
  1
strokes_ogs.tif
102
RTVSPost2010PropOp54
 70
     1
102
RTVSPost2010Prop55
280
     0
102
RTVSPost2010PropOp55
 70
     1
102
RTVSPost2010Prop56
140
1.0
102
RTVSPost2010PropOp56
 70
     1
102
RTVSPost2010Prop57
140
1.0
102
RTVSPost2010PropOp57
 70
     1
  0
XRECORD
  5
2052
102
{ACAD_REACTORS
330
2051
102
}
330
2051
100
AcDbXrecord
280
     1
102
RTVSPost2010Prop28
280
     0
102
RTVSPost2010PropOp28
 70
     1
102
RTVSPost2010Prop29
280
     1
102
RTVSPost2010PropOp29
 70
     1
102
RTVSPost2010Prop30
280
     1
102
RTVSPost2010PropOp30
 70
     1
102
RTVSPost2010Prop31
280
     0
102
RTVSPost2010PropOp31
 70
     1
102
RTVSPost2010Prop32
280
     0
102
RTVSPost2010PropOp32
 70
     1
102
RTVSPost2010Prop33
280
     0
102
RTVSPost2010PropOp33
 70
     1
102
RTVSPost2010Prop34
280
     0
102
RTVSPost2010PropOp34
 70
     1
102
RTVSPost2010Prop35
280
     0
102
RTVSPost2010PropOp35
 70
     1
102
RTVSPost2010Prop36
280
     0
102
RTVSPost2010PropOp36
 70
     1
102
RTVSPost2010Prop37
 90
       50
102
RTVSPost2010PropOp37
 70
     1
102
RTVSPost2010Prop38
140
0.0
102
RTVSPost2010PropOp38
 70
     1
102
RTVSPost2010Prop39
140
1.0
102
RTVSPost2010PropOp39
 70
     1
102
RTVSPost2010Prop40
 90
        0
102
RTVSPost2010PropOp40
 70
     1
102
RTVSPost2010Prop41ColorIndex
 90
       18
102
RTVSPost2010Prop41ColorRGB
 90
        0
102
RTVSPost2010PropOp41
 70
     1
102
RTVSPost2010Prop42
 90
       50
102
RTVSPost2010PropOp42
 70
     1
102
RTVSPost2010Prop43
 90
        3
102
RTVSPost2010PropOp43
 70
     1
102
RTVSPost2010Prop44ColorIndex
 90
        5
102
RTVSPost2010Prop44ColorRGB
 90
      255
102
RTVSPost2010PropOp44
 70
     1
102
RTVSPost2010Prop45
280
     0
102
RTVSPost2010PropOp45
 70
     1
102
RTVSPost2010Prop46
 90
       50
102
RTVSPost2010PropOp46
 70
     1
102
RTVSPost2010Prop47
 90
       50
102
RTVSPost2010PropOp47
 70
     1
102
RTVSPost2010Prop48
 90
       50
102
RTVSPost2010PropOp48
 70
     1
102
RTVSPost2010Prop49
280
     0
102
RTVSPost2010PropOp49
 70
     1
102
RTVSPost2010Prop50
 90
       50
102
RTVSPost2010PropOp50
 70
     1
102
RTVSPost2010Prop51ColorIndex
 90
      256
102
RTVSPost2010Prop51ColorRGB
 90
-16777216
102
RTVSPost2010PropOp51
 70
     0
102
RTVSPost2010Prop52
140
1.0
102
RTVSPost2010PropOp52
 70
     0
102
RTVSPost2010Prop53
 90
        2
102
RTVSPost2010PropOp53
 70
     1
102
RTVSPost2010Prop54
  1
strokes_ogs.tif
102
RTVSPost2010PropOp54
 70
     1
102
RTVSPost2010Prop55
280
     0
102
RTVSPost2010PropOp55
 70
     1
102
RTVSPost2010Prop56
140
1.0
102
RTVSPost2010PropOp56
 70
     1
102
RTVSPost2010Prop57
140
1.0
102
RTVSPost2010PropOp57
 70
     1
  0
XRECORD
  5
2054
102
{ACAD_REACTORS
330
2053
102
}
330
2053
100
AcDbXrecord
280
     1
102
RTVSPost2010Prop28
280
     0
102
RTVSPost2010PropOp28
 70
     1
102
RTVSPost2010Prop29
280
     1
102
RTVSPost2010PropOp29
 70
     1
102
RTVSPost2010Prop30
280
     1
102
RTVSPost2010PropOp30
 70
     1
102
RTVSPost2010Prop31
280
     0
102
RTVSPost2010PropOp31
 70
     1
102
RTVSPost2010Prop32
280
     0
102
RTVSPost2010PropOp32
 70
     1
102
RTVSPost2010Prop33
280
     0
102
RTVSPost2010PropOp33
 70
     1
102
RTVSPost2010Prop34
280
     0
102
RTVSPost2010PropOp34
 70
     1
102
RTVSPost2010Prop35
280
     0
102
RTVSPost2010PropOp35
 70
     1
102
RTVSPost2010Prop36
280
     0
102
RTVSPost2010PropOp36
 70
     1
102
RTVSPost2010Prop37
 90
       50
102
RTVSPost2010PropOp37
 70
     1
102
RTVSPost2010Prop38
140
0.0
102
RTVSPost2010PropOp38
 70
     1
102
RTVSPost2010Prop39
140
1.0
102
RTVSPost2010PropOp39
 70
     1
102
RTVSPost2010Prop40
 90
        0
102
RTVSPost2010PropOp40
 70
     1
102
RTVSPost2010Prop41ColorIndex
 90
       18
102
RTVSPost2010Prop41ColorRGB
 90
        0
102
RTVSPost2010PropOp41
 70
     1
102
RTVSPost2010Prop42
 90
       50
102
RTVSPost2010PropOp42
 70
     1
102
RTVSPost2010Prop43
 90
        3
102
RTVSPost2010PropOp43
 70
     1
102
RTVSPost2010Prop44ColorIndex
 90
        5
102
RTVSPost2010Prop44ColorRGB
 90
      255
102
RTVSPost2010PropOp44
 70
     1
102
RTVSPost2010Prop45
280
     0
102
RTVSPost2010PropOp45
 70
     1
102
RTVSPost2010Prop46
 90
       50
102
RTVSPost2010PropOp46
 70
     1
102
RTVSPost2010Prop47
 90
       50
102
RTVSPost2010PropOp47
 70
     1
102
RTVSPost2010Prop48
 90
       50
102
RTVSPost2010PropOp48
 70
     1
102
RTVSPost2010Prop49
280
     0
102
RTVSPost2010PropOp49
 70
     1
102
RTVSPost2010Prop50
 90
       50
102
RTVSPost2010PropOp50
 70
     1
102
RTVSPost2010Prop51ColorIndex
 90
      256
102
RTVSPost2010Prop51ColorRGB
 90
-16777216
102
RTVSPost2010PropOp51
 70
     0
102
RTVSPost2010Prop52
140
1.0
102
RTVSPost2010PropOp52
 70
     0
102
RTVSPost2010Prop53
 90
        2
102
RTVSPost2010PropOp53
 70
     1
102
RTVSPost2010Prop54
  1
strokes_ogs.tif
102
RTVSPost2010PropOp54
 70
     1
102
RTVSPost2010Prop55
280
     0
102
RTVSPost2010PropOp55
 70
     1
102
RTVSPost2010Prop56
140
1.0
102
RTVSPost2010PropOp56
 70
     1
102
RTVSPost2010Prop57
140
1.0
102
RTVSPost2010PropOp57
 70
     1
  0
XRECORD
  5
205C
102
{ACAD_REACTORS
330
205B
102
}
330
205B
100
AcDbXrecord
280
     1
102
RTVSPost2010Prop28
280
     0
102
RTVSPost2010PropOp28
 70
     1
102
RTVSPost2010Prop29
280
     1
102
RTVSPost2010PropOp29
 70
     1
102
RTVSPost2010Prop30
280
     1
102
RTVSPost2010PropOp30
 70
     1
102
RTVSPost2010Prop31
280
     0
102
RTVSPost2010PropOp31
 70
     1
102
RTVSPost2010Prop32
280
     0
102
RTVSPost2010PropOp32
 70
     1
102
RTVSPost2010Prop33
280
     0
102
RTVSPost2010PropOp33
 70
     1
102
RTVSPost2010Prop34
280
     0
102
RTVSPost2010PropOp34
 70
     1
102
RTVSPost2010Prop35
280
     0
102
RTVSPost2010PropOp35
 70
     1
102
RTVSPost2010Prop36
280
     0
102
RTVSPost2010PropOp36
 70
     1
102
RTVSPost2010Prop37
 90
       50
102
RTVSPost2010PropOp37
 70
     1
102
RTVSPost2010Prop38
140
0.0
102
RTVSPost2010PropOp38
 70
     1
102
RTVSPost2010Prop39
140
1.0
102
RTVSPost2010PropOp39
 70
     1
102
RTVSPost2010Prop40
 90
        0
102
RTVSPost2010PropOp40
 70
     1
102
RTVSPost2010Prop41ColorIndex
 90
       18
102
RTVSPost2010Prop41ColorRGB
 90
        0
102
RTVSPost2010PropOp41
 70
     1
102
RTVSPost2010Prop42
 90
       50
102
RTVSPost2010PropOp42
 70
     1
102
RTVSPost2010Prop43
 90
        3
102
RTVSPost2010PropOp43
 70
     1
102
RTVSPost2010Prop44ColorIndex
 90
        5
102
RTVSPost2010Prop44ColorRGB
 90
      255
102
RTVSPost2010PropOp44
 70
     1
102
RTVSPost2010Prop45
280
     0
102
RTVSPost2010PropOp45
 70
     1
102
RTVSPost2010Prop46
 90
       50
102
RTVSPost2010PropOp46
 70
     1
102
RTVSPost2010Prop47
 90
       50
102
RTVSPost2010PropOp47
 70
     1
102
RTVSPost2010Prop48
 90
       50
102
RTVSPost2010PropOp48
 70
     1
102
RTVSPost2010Prop49
280
     0
102
RTVSPost2010PropOp49
 70
     1
102
RTVSPost2010Prop50
 90
       50
102
RTVSPost2010PropOp50
 70
     1
102
RTVSPost2010Prop51ColorIndex
 90
      256
102
RTVSPost2010Prop51ColorRGB
 90
-16777216
102
RTVSPost2010PropOp51
 70
     0
102
RTVSPost2010Prop52
140
1.0
102
RTVSPost2010PropOp52
 70
     0
102
RTVSPost2010Prop53
 90
        2
102
RTVSPost2010PropOp53
 70
     1
102
RTVSPost2010Prop54
  1
strokes_ogs.tif
102
RTVSPost2010PropOp54
 70
     1
102
RTVSPost2010Prop55
280
     0
102
RTVSPost2010PropOp55
 70
     1
102
RTVSPost2010Prop56
140
1.0
102
RTVSPost2010PropOp56
 70
     1
102
RTVSPost2010Prop57
140
1.0
102
RTVSPost2010PropOp57
 70
     1
  0
XRECORD
  5
2078
102
{ACAD_REACTORS
330
2077
102
}
330
2077
100
AcDbXrecord
280
     1
102
RTVSPost2010Prop28
280
     0
102
RTVSPost2010PropOp28
 70
     1
102
RTVSPost2010Prop29
280
     1
102
RTVSPost2010PropOp29
 70
     1
102
RTVSPost2010Prop30
280
     1
102
RTVSPost2010PropOp30
 70
     1
102
RTVSPost2010Prop31
280
     0
102
RTVSPost2010PropOp31
 70
     1
102
RTVSPost2010Prop32
280
     0
102
RTVSPost2010PropOp32
 70
     1
102
RTVSPost2010Prop33
280
     0
102
RTVSPost2010PropOp33
 70
     1
102
RTVSPost2010Prop34
280
     0
102
RTVSPost2010PropOp34
 70
     1
102
RTVSPost2010Prop35
280
     0
102
RTVSPost2010PropOp35
 70
     1
102
RTVSPost2010Prop36
280
     0
102
RTVSPost2010PropOp36
 70
     1
102
RTVSPost2010Prop37
 90
       50
102
RTVSPost2010PropOp37
 70
     0
102
RTVSPost2010Prop38
140
0.0
102
RTVSPost2010PropOp38
 70
     0
102
RTVSPost2010Prop39
140
1.0
102
RTVSPost2010PropOp39
 70
     0
102
RTVSPost2010Prop40
 90
        0
102
RTVSPost2010PropOp40
 70
     0
102
RTVSPost2010Prop41ColorIndex
 90
       18
102
RTVSPost2010Prop41ColorRGB
 90
        0
102
RTVSPost2010PropOp41
 70
     0
102
RTVSPost2010Prop42
 90
       50
102
RTVSPost2010PropOp42
 70
     0
102
RTVSPost2010Prop43
 90
        3
102
RTVSPost2010PropOp43
 70
     0
102
RTVSPost2010Prop44ColorIndex
 90
        5
102
RTVSPost2010Prop44ColorRGB
 90
      255
102
RTVSPost2010PropOp44
 70
     0
102
RTVSPost2010Prop45
280
     0
102
RTVSPost2010PropOp45
 70
     1
102
RTVSPost2010Prop46
 90
       50
102
RTVSPost2010PropOp46
 70
     0
102
RTVSPost2010Prop47
 90
       50
102
RTVSPost2010PropOp47
 70
     0
102
RTVSPost2010Prop48
 90
       50
102
RTVSPost2010PropOp48
 70
     0
102
RTVSPost2010Prop49
280
     0
102
RTVSPost2010PropOp49
 70
     1
102
RTVSPost2010Prop50
 90
       50
102
RTVSPost2010PropOp50
 70
     0
102
RTVSPost2010Prop51ColorIndex
 90
      256
102
RTVSPost2010Prop51ColorRGB
 90
-16777216
102
RTVSPost2010PropOp51
 70
     0
102
RTVSPost2010Prop52
140
1.0
102
RTVSPost2010PropOp52
 70
     0
102
RTVSPost2010Prop53
 90
        2
102
RTVSPost2010PropOp53
 70
     0
102
RTVSPost2010Prop54
  1
strokes_ogs.tif
102
RTVSPost2010PropOp54
 70
     0
102
RTVSPost2010Prop55
280
     0
102
RTVSPost2010PropOp55
 70
     1
102
RTVSPost2010Prop56
140
1.0
102
RTVSPost2010PropOp56
 70
     0
102
RTVSPost2010Prop57
140
1.0
102
RTVSPost2010PropOp57
 70
     0
  0
XRECORD
  5
2068
102
{ACAD_REACTORS
330
2067
102
}
330
2067
100
AcDbXrecord
280
     1
102
RTVSPost2010Prop28
280
     0
102
RTVSPost2010PropOp28
 70
     1
102
RTVSPost2010Prop29
280
     1
102
RTVSPost2010PropOp29
 70
     1
102
RTVSPost2010Prop30
280
     1
102
RTVSPost2010PropOp30
 70
     1
102
RTVSPost2010Prop31
280
     0
102
RTVSPost2010PropOp31
 70
     1
102
RTVSPost2010Prop32
280
     0
102
RTVSPost2010PropOp32
 70
     1
102
RTVSPost2010Prop33
280
     0
102
RTVSPost2010PropOp33
 70
     1
102
RTVSPost2010Prop34
280
     0
102
RTVSPost2010PropOp34
 70
     1
102
RTVSPost2010Prop35
280
     0
102
RTVSPost2010PropOp35
 70
     1
102
RTVSPost2010Prop36
280
     0
102
RTVSPost2010PropOp36
 70
     1
102
RTVSPost2010Prop37
 90
       50
102
RTVSPost2010PropOp37
 70
     1
102
RTVSPost2010Prop38
140
0.0
102
RTVSPost2010PropOp38
 70
     1
102
RTVSPost2010Prop39
140
1.0
102
RTVSPost2010PropOp39
 70
     1
102
RTVSPost2010Prop40
 90
        0
102
RTVSPost2010PropOp40
 70
     1
102
RTVSPost2010Prop41ColorIndex
 90
       18
102
RTVSPost2010Prop41ColorRGB
 90
        0
102
RTVSPost2010PropOp41
 70
     1
102
RTVSPost2010Prop42
 90
       50
102
RTVSPost2010PropOp42
 70
     1
102
RTVSPost2010Prop43
 90
        3
102
RTVSPost2010PropOp43
 70
     1
102
RTVSPost2010Prop44ColorIndex
 90
        5
102
RTVSPost2010Prop44ColorRGB
 90
      255
102
RTVSPost2010PropOp44
 70
     1
102
RTVSPost2010Prop45
280
     0
102
RTVSPost2010PropOp45
 70
     1
102
RTVSPost2010Prop46
 90
       50
102
RTVSPost2010PropOp46
 70
     1
102
RTVSPost2010Prop47
 90
       50
102
RTVSPost2010PropOp47
 70
     1
102
RTVSPost2010Prop48
 90
       50
102
RTVSPost2010PropOp48
 70
     1
102
RTVSPost2010Prop49
280
     0
102
RTVSPost2010PropOp49
 70
     1
102
RTVSPost2010Prop50
 90
       50
102
RTVSPost2010PropOp50
 70
     1
102
RTVSPost2010Prop51ColorIndex
 90
      256
102
RTVSPost2010Prop51ColorRGB
 90
-16777216
102
RTVSPost2010PropOp51
 70
     0
102
RTVSPost2010Prop52
140
1.0
102
RTVSPost2010PropOp52
 70
     0
102
RTVSPost2010Prop53
 90
        2
102
RTVSPost2010PropOp53
 70
     1
102
RTVSPost2010Prop54
  1
strokes_ogs.tif
102
RTVSPost2010PropOp54
 70
     1
102
RTVSPost2010Prop55
280
     0
102
RTVSPost2010PropOp55
 70
     1
102
RTVSPost2010Prop56
140
1.0
102
RTVSPost2010PropOp56
 70
     1
102
RTVSPost2010Prop57
140
1.0
102
RTVSPost2010PropOp57
 70
     1
  0
XRECORD
  5
207A
102
{ACAD_REACTORS
330
2079
102
}
330
2079
100
AcDbXrecord
280
     1
102
RTVSPost2010Prop28
280
     0
102
RTVSPost2010PropOp28
 70
     1
102
RTVSPost2010Prop29
280
     1
102
RTVSPost2010PropOp29
 70
     1
102
RTVSPost2010Prop30
280
     1
102
RTVSPost2010PropOp30
 70
     1
102
RTVSPost2010Prop31
280
     0
102
RTVSPost2010PropOp31
 70
     1
102
RTVSPost2010Prop32
280
     0
102
RTVSPost2010PropOp32
 70
     1
102
RTVSPost2010Prop33
280
     0
102
RTVSPost2010PropOp33
 70
     1
102
RTVSPost2010Prop34
280
     0
102
RTVSPost2010PropOp34
 70
     1
102
RTVSPost2010Prop35
280
     0
102
RTVSPost2010PropOp35
 70
     1
102
RTVSPost2010Prop36
280
     0
102
RTVSPost2010PropOp36
 70
     1
102
RTVSPost2010Prop37
 90
       50
102
RTVSPost2010PropOp37
 70
     0
102
RTVSPost2010Prop38
140
0.0
102
RTVSPost2010PropOp38
 70
     0
102
RTVSPost2010Prop39
140
1.0
102
RTVSPost2010PropOp39
 70
     0
102
RTVSPost2010Prop40
 90
        0
102
RTVSPost2010PropOp40
 70
     0
102
RTVSPost2010Prop41ColorIndex
 90
       18
102
RTVSPost2010Prop41ColorRGB
 90
        0
102
RTVSPost2010PropOp41
 70
     0
102
RTVSPost2010Prop42
 90
       50
102
RTVSPost2010PropOp42
 70
     0
102
RTVSPost2010Prop43
 90
        3
102
RTVSPost2010PropOp43
 70
     0
102
RTVSPost2010Prop44ColorIndex
 90
        5
102
RTVSPost2010Prop44ColorRGB
 90
      255
102
RTVSPost2010PropOp44
 70
     0
102
RTVSPost2010Prop45
280
     0
102
RTVSPost2010PropOp45
 70
     1
102
RTVSPost2010Prop46
 90
       50
102
RTVSPost2010PropOp46
 70
     0
102
RTVSPost2010Prop47
 90
       50
102
RTVSPost2010PropOp47
 70
     0
102
RTVSPost2010Prop48
 90
       50
102
RTVSPost2010PropOp48
 70
     0
102
RTVSPost2010Prop49
280
     0
102
RTVSPost2010PropOp49
 70
     1
102
RTVSPost2010Prop50
 90
       50
102
RTVSPost2010PropOp50
 70
     0
102
RTVSPost2010Prop51ColorIndex
 90
      256
102
RTVSPost2010Prop51ColorRGB
 90
-16777216
102
RTVSPost2010PropOp51
 70
     0
102
RTVSPost2010Prop52
140
1.0
102
RTVSPost2010PropOp52
 70
     0
102
RTVSPost2010Prop53
 90
        2
102
RTVSPost2010PropOp53
 70
     0
102
RTVSPost2010Prop54
  1
strokes_ogs.tif
102
RTVSPost2010PropOp54
 70
     0
102
RTVSPost2010Prop55
280
     0
102
RTVSPost2010PropOp55
 70
     1
102
RTVSPost2010Prop56
140
1.0
102
RTVSPost2010PropOp56
 70
     0
102
RTVSPost2010Prop57
140
1.0
102
RTVSPost2010PropOp57
 70
     0
  0
XRECORD
  5
2060
102
{ACAD_REACTORS
330
205F
102
}
330
205F
100
AcDbXrecord
280
     1
102
RTVSPost2010Prop28
280
     0
102
RTVSPost2010PropOp28
 70
     1
102
RTVSPost2010Prop29
280
     1
102
RTVSPost2010PropOp29
 70
     1
102
RTVSPost2010Prop30
280
     1
102
RTVSPost2010PropOp30
 70
     1
102
RTVSPost2010Prop31
280
     0
102
RTVSPost2010PropOp31
 70
     1
102
RTVSPost2010Prop32
280
     0
102
RTVSPost2010PropOp32
 70
     1
102
RTVSPost2010Prop33
280
     0
102
RTVSPost2010PropOp33
 70
     1
102
RTVSPost2010Prop34
280
     0
102
RTVSPost2010PropOp34
 70
     1
102
RTVSPost2010Prop35
280
     0
102
RTVSPost2010PropOp35
 70
     1
102
RTVSPost2010Prop36
280
     0
102
RTVSPost2010PropOp36
 70
     1
102
RTVSPost2010Prop37
 90
       50
102
RTVSPost2010PropOp37
 70
     1
102
RTVSPost2010Prop38
140
0.0
102
RTVSPost2010PropOp38
 70
     1
102
RTVSPost2010Prop39
140
1.0
102
RTVSPost2010PropOp39
 70
     1
102
RTVSPost2010Prop40
 90
        0
102
RTVSPost2010PropOp40
 70
     1
102
RTVSPost2010Prop41ColorIndex
 90
       18
102
RTVSPost2010Prop41ColorRGB
 90
        0
102
RTVSPost2010PropOp41
 70
     1
102
RTVSPost2010Prop42
 90
       50
102
RTVSPost2010PropOp42
 70
     1
102
RTVSPost2010Prop43
 90
        3
102
RTVSPost2010PropOp43
 70
     1
102
RTVSPost2010Prop44ColorIndex
 90
        5
102
RTVSPost2010Prop44ColorRGB
 90
      255
102
RTVSPost2010PropOp44
 70
     1
102
RTVSPost2010Prop45
280
     0
102
RTVSPost2010PropOp45
 70
     1
102
RTVSPost2010Prop46
 90
       50
102
RTVSPost2010PropOp46
 70
     1
102
RTVSPost2010Prop47
 90
       50
102
RTVSPost2010PropOp47
 70
     1
102
RTVSPost2010Prop48
 90
       50
102
RTVSPost2010PropOp48
 70
     1
102
RTVSPost2010Prop49
280
     0
102
RTVSPost2010PropOp49
 70
     1
102
RTVSPost2010Prop50
 90
       50
102
RTVSPost2010PropOp50
 70
     1
102
RTVSPost2010Prop51ColorIndex
 90
      256
102
RTVSPost2010Prop51ColorRGB
 90
-16777216
102
RTVSPost2010PropOp51
 70
     0
102
RTVSPost2010Prop52
140
1.0
102
RTVSPost2010PropOp52
 70
     0
102
RTVSPost2010Prop53
 90
        2
102
RTVSPost2010PropOp53
 70
     1
102
RTVSPost2010Prop54
  1
strokes_ogs.tif
102
RTVSPost2010PropOp54
 70
     1
102
RTVSPost2010Prop55
280
     0
102
RTVSPost2010PropOp55
 70
     1
102
RTVSPost2010Prop56
140
1.0
102
RTVSPost2010PropOp56
 70
     1
102
RTVSPost2010Prop57
140
1.0
102
RTVSPost2010PropOp57
 70
     1
  0
XRECORD
  5
2076
102
{ACAD_REACTORS
330
2075
102
}
330
2075
100
AcDbXrecord
280
     1
102
RTVSPost2010Prop28
280
     0
102
RTVSPost2010PropOp28
 70
     1
102
RTVSPost2010Prop29
280
     1
102
RTVSPost2010PropOp29
 70
     1
102
RTVSPost2010Prop30
280
     1
102
RTVSPost2010PropOp30
 70
     1
102
RTVSPost2010Prop31
280
     0
102
RTVSPost2010PropOp31
 70
     1
102
RTVSPost2010Prop32
280
     0
102
RTVSPost2010PropOp32
 70
     1
102
RTVSPost2010Prop33
280
     0
102
RTVSPost2010PropOp33
 70
     1
102
RTVSPost2010Prop34
280
     0
102
RTVSPost2010PropOp34
 70
     1
102
RTVSPost2010Prop35
280
     0
102
RTVSPost2010PropOp35
 70
     1
102
RTVSPost2010Prop36
280
     0
102
RTVSPost2010PropOp36
 70
     1
102
RTVSPost2010Prop37
 90
       50
102
RTVSPost2010PropOp37
 70
     1
102
RTVSPost2010Prop38
140
0.0
102
RTVSPost2010PropOp38
 70
     1
102
RTVSPost2010Prop39
140
1.0
102
RTVSPost2010PropOp39
 70
     1
102
RTVSPost2010Prop40
 90
        0
102
RTVSPost2010PropOp40
 70
     1
102
RTVSPost2010Prop41ColorIndex
 90
       18
102
RTVSPost2010Prop41ColorRGB
 90
        0
102
RTVSPost2010PropOp41
 70
     1
102
RTVSPost2010Prop42
 90
       50
102
RTVSPost2010PropOp42
 70
     1
102
RTVSPost2010Prop43
 90
        3
102
RTVSPost2010PropOp43
 70
     1
102
RTVSPost2010Prop44ColorIndex
 90
        5
102
RTVSPost2010Prop44ColorRGB
 90
      255
102
RTVSPost2010PropOp44
 70
     1
102
RTVSPost2010Prop45
280
     0
102
RTVSPost2010PropOp45
 70
     1
102
RTVSPost2010Prop46
 90
       50
102
RTVSPost2010PropOp46
 70
     1
102
RTVSPost2010Prop47
 90
       50
102
RTVSPost2010PropOp47
 70
     1
102
RTVSPost2010Prop48
 90
       50
102
RTVSPost2010PropOp48
 70
     1
102
RTVSPost2010Prop49
280
     0
102
RTVSPost2010PropOp49
 70
     1
102
RTVSPost2010Prop50
 90
       50
102
RTVSPost2010PropOp50
 70
     1
102
RTVSPost2010Prop51ColorIndex
 90
      256
102
RTVSPost2010Prop51ColorRGB
 90
-16777216
102
RTVSPost2010PropOp51
 70
     0
102
RTVSPost2010Prop52
140
1.0
102
RTVSPost2010PropOp52
 70
     0
102
RTVSPost2010Prop53
 90
        2
102
RTVSPost2010PropOp53
 70
     1
102
RTVSPost2010Prop54
  1
strokes_ogs.tif
102
RTVSPost2010PropOp54
 70
     1
102
RTVSPost2010Prop55
280
     0
102
RTVSPost2010PropOp55
 70
     1
102
RTVSPost2010Prop56
140
1.0
102
RTVSPost2010PropOp56
 70
     1
102
RTVSPost2010Prop57
140
1.0
102
RTVSPost2010PropOp57
 70
     1
  0
XRECORD
  5
2074
102
{ACAD_REACTORS
330
2073
102
}
330
2073
100
AcDbXrecord
280
     1
102
RTVSPost2010Prop28
280
     0
102
RTVSPost2010PropOp28
 70
     1
102
RTVSPost2010Prop29
280
     1
102
RTVSPost2010PropOp29
 70
     1
102
RTVSPost2010Prop30
280
     1
102
RTVSPost2010PropOp30
 70
     1
102
RTVSPost2010Prop31
280
     0
102
RTVSPost2010PropOp31
 70
     1
102
RTVSPost2010Prop32
280
     0
102
RTVSPost2010PropOp32
 70
     1
102
RTVSPost2010Prop33
280
     0
102
RTVSPost2010PropOp33
 70
     1
102
RTVSPost2010Prop34
280
     0
102
RTVSPost2010PropOp34
 70
     1
102
RTVSPost2010Prop35
280
     0
102
RTVSPost2010PropOp35
 70
     1
102
RTVSPost2010Prop36
280
     0
102
RTVSPost2010PropOp36
 70
     1
102
RTVSPost2010Prop37
 90
       50
102
RTVSPost2010PropOp37
 70
     1
102
RTVSPost2010Prop38
140
0.0
102
RTVSPost2010PropOp38
 70
     1
102
RTVSPost2010Prop39
140
1.0
102
RTVSPost2010PropOp39
 70
     1
102
RTVSPost2010Prop40
 90
        0
102
RTVSPost2010PropOp40
 70
     1
102
RTVSPost2010Prop41ColorIndex
 90
       18
102
RTVSPost2010Prop41ColorRGB
 90
        0
102
RTVSPost2010PropOp41
 70
     1
102
RTVSPost2010Prop42
 90
       50
102
RTVSPost2010PropOp42
 70
     1
102
RTVSPost2010Prop43
 90
        3
102
RTVSPost2010PropOp43
 70
     1
102
RTVSPost2010Prop44ColorIndex
 90
        5
102
RTVSPost2010Prop44ColorRGB
 90
      255
102
RTVSPost2010PropOp44
 70
     1
102
RTVSPost2010Prop45
280
     0
102
RTVSPost2010PropOp45
 70
     1
102
RTVSPost2010Prop46
 90
       50
102
RTVSPost2010PropOp46
 70
     1
102
RTVSPost2010Prop47
 90
       50
102
RTVSPost2010PropOp47
 70
     1
102
RTVSPost2010Prop48
 90
       50
102
RTVSPost2010PropOp48
 70
     1
102
RTVSPost2010Prop49
280
     0
102
RTVSPost2010PropOp49
 70
     1
102
RTVSPost2010Prop50
 90
       50
102
RTVSPost2010PropOp50
 70
     1
102
RTVSPost2010Prop51ColorIndex
 90
      256
102
RTVSPost2010Prop51ColorRGB
 90
-16777216
102
RTVSPost2010PropOp51
 70
     0
102
RTVSPost2010Prop52
140
1.0
102
RTVSPost2010PropOp52
 70
     0
102
RTVSPost2010Prop53
 90
        2
102
RTVSPost2010PropOp53
 70
     1
102
RTVSPost2010Prop54
  1
strokes_ogs.tif
102
RTVSPost2010PropOp54
 70
     1
102
RTVSPost2010Prop55
280
     0
102
RTVSPost2010PropOp55
 70
     1
102
RTVSPost2010Prop56
140
1.0
102
RTVSPost2010PropOp56
 70
     1
102
RTVSPost2010Prop57
140
1.0
102
RTVSPost2010PropOp57
 70
     1
  0
XRECORD
  5
206E
102
{ACAD_REACTORS
330
206D
102
}
330
206D
100
AcDbXrecord
280
     1
102
RTVSPost2010Prop28
280
     0
102
RTVSPost2010PropOp28
 70
     1
102
RTVSPost2010Prop29
280
     1
102
RTVSPost2010PropOp29
 70
     1
102
RTVSPost2010Prop30
280
     1
102
RTVSPost2010PropOp30
 70
     1
102
RTVSPost2010Prop31
280
     0
102
RTVSPost2010PropOp31
 70
     1
102
RTVSPost2010Prop32
280
     0
102
RTVSPost2010PropOp32
 70
     1
102
RTVSPost2010Prop33
280
     0
102
RTVSPost2010PropOp33
 70
     1
102
RTVSPost2010Prop34
280
     0
102
RTVSPost2010PropOp34
 70
     1
102
RTVSPost2010Prop35
280
     0
102
RTVSPost2010PropOp35
 70
     1
102
RTVSPost2010Prop36
280
     0
102
RTVSPost2010PropOp36
 70
     1
102
RTVSPost2010Prop37
 90
       50
102
RTVSPost2010PropOp37
 70
     1
102
RTVSPost2010Prop38
140
0.0
102
RTVSPost2010PropOp38
 70
     1
102
RTVSPost2010Prop39
140
1.0
102
RTVSPost2010PropOp39
 70
     1
102
RTVSPost2010Prop40
 90
        0
102
RTVSPost2010PropOp40
 70
     1
102
RTVSPost2010Prop41ColorIndex
 90
       18
102
RTVSPost2010Prop41ColorRGB
 90
        0
102
RTVSPost2010PropOp41
 70
     1
102
RTVSPost2010Prop42
 90
       50
102
RTVSPost2010PropOp42
 70
     1
102
RTVSPost2010Prop43
 90
        3
102
RTVSPost2010PropOp43
 70
     1
102
RTVSPost2010Prop44ColorIndex
 90
        5
102
RTVSPost2010Prop44ColorRGB
 90
      255
102
RTVSPost2010PropOp44
 70
     1
102
RTVSPost2010Prop45
280
     0
102
RTVSPost2010PropOp45
 70
     1
102
RTVSPost2010Prop46
 90
       50
102
RTVSPost2010PropOp46
 70
     1
102
RTVSPost2010Prop47
 90
       50
102
RTVSPost2010PropOp47
 70
     1
102
RTVSPost2010Prop48
 90
       50
102
RTVSPost2010PropOp48
 70
     1
102
RTVSPost2010Prop49
280
     0
102
RTVSPost2010PropOp49
 70
     1
102
RTVSPost2010Prop50
 90
       50
102
RTVSPost2010PropOp50
 70
     1
102
RTVSPost2010Prop51ColorIndex
 90
      256
102
RTVSPost2010Prop51ColorRGB
 90
-16777216
102
RTVSPost2010PropOp51
 70
     0
102
RTVSPost2010Prop52
140
1.0
102
RTVSPost2010PropOp52
 70
     0
102
RTVSPost2010Prop53
 90
        2
102
RTVSPost2010PropOp53
 70
     1
102
RTVSPost2010Prop54
  1
strokes_ogs.tif
102
RTVSPost2010PropOp54
 70
     1
102
RTVSPost2010Prop55
280
     0
102
RTVSPost2010PropOp55
 70
     1
102
RTVSPost2010Prop56
140
1.0
102
RTVSPost2010PropOp56
 70
     1
102
RTVSPost2010Prop57
140
1.0
102
RTVSPost2010PropOp57
 70
     1
  0
XRECORD
  5
2070
102
{ACAD_REACTORS
330
206F
102
}
330
206F
100
AcDbXrecord
280
     1
102
RTVSPost2010Prop28
280
     0
102
RTVSPost2010PropOp28
 70
     1
102
RTVSPost2010Prop29
280
     1
102
RTVSPost2010PropOp29
 70
     1
102
RTVSPost2010Prop30
280
     1
102
RTVSPost2010PropOp30
 70
     1
102
RTVSPost2010Prop31
280
     0
102
RTVSPost2010PropOp31
 70
     1
102
RTVSPost2010Prop32
280
     0
102
RTVSPost2010PropOp32
 70
     1
102
RTVSPost2010Prop33
280
     0
102
RTVSPost2010PropOp33
 70
     1
102
RTVSPost2010Prop34
280
     0
102
RTVSPost2010PropOp34
 70
     1
102
RTVSPost2010Prop35
280
     0
102
RTVSPost2010PropOp35
 70
     1
102
RTVSPost2010Prop36
280
     0
102
RTVSPost2010PropOp36
 70
     1
102
RTVSPost2010Prop37
 90
       50
102
RTVSPost2010PropOp37
 70
     1
102
RTVSPost2010Prop38
140
0.0
102
RTVSPost2010PropOp38
 70
     1
102
RTVSPost2010Prop39
140
1.0
102
RTVSPost2010PropOp39
 70
     1
102
RTVSPost2010Prop40
 90
        0
102
RTVSPost2010PropOp40
 70
     1
102
RTVSPost2010Prop41ColorIndex
 90
       18
102
RTVSPost2010Prop41ColorRGB
 90
        0
102
RTVSPost2010PropOp41
 70
     1
102
RTVSPost2010Prop42
 90
       50
102
RTVSPost2010PropOp42
 70
     1
102
RTVSPost2010Prop43
 90
        3
102
RTVSPost2010PropOp43
 70
     1
102
RTVSPost2010Prop44ColorIndex
 90
        5
102
RTVSPost2010Prop44ColorRGB
 90
      255
102
RTVSPost2010PropOp44
 70
     1
102
RTVSPost2010Prop45
280
     0
102
RTVSPost2010PropOp45
 70
     1
102
RTVSPost2010Prop46
 90
       50
102
RTVSPost2010PropOp46
 70
     1
102
RTVSPost2010Prop47
 90
       50
102
RTVSPost2010PropOp47
 70
     1
102
RTVSPost2010Prop48
 90
       50
102
RTVSPost2010PropOp48
 70
     1
102
RTVSPost2010Prop49
280
     0
102
RTVSPost2010PropOp49
 70
     1
102
RTVSPost2010Prop50
 90
       50
102
RTVSPost2010PropOp50
 70
     1
102
RTVSPost2010Prop51ColorIndex
 90
      256
102
RTVSPost2010Prop51ColorRGB
 90
-16777216
102
RTVSPost2010PropOp51
 70
     0
102
RTVSPost2010Prop52
140
1.0
102
RTVSPost2010PropOp52
 70
     0
102
RTVSPost2010Prop53
 90
        2
102
RTVSPost2010PropOp53
 70
     1
102
RTVSPost2010Prop54
  1
strokes_ogs.tif
102
RTVSPost2010PropOp54
 70
     1
102
RTVSPost2010Prop55
280
     0
102
RTVSPost2010PropOp55
 70
     1
102
RTVSPost2010Prop56
140
1.0
102
RTVSPost2010PropOp56
 70
     1
102
RTVSPost2010Prop57
140
1.0
102
RTVSPost2010PropOp57
 70
     1
  0
XRECORD
  5
2066
102
{ACAD_REACTORS
330
2065
102
}
330
2065
100
AcDbXrecord
280
     1
102
RTVSPost2010Prop28
280
     0
102
RTVSPost2010PropOp28
 70
     1
102
RTVSPost2010Prop29
280
     1
102
RTVSPost2010PropOp29
 70
     1
102
RTVSPost2010Prop30
280
     1
102
RTVSPost2010PropOp30
 70
     1
102
RTVSPost2010Prop31
280
     0
102
RTVSPost2010PropOp31
 70
     1
102
RTVSPost2010Prop32
280
     0
102
RTVSPost2010PropOp32
 70
     1
102
RTVSPost2010Prop33
280
     0
102
RTVSPost2010PropOp33
 70
     1
102
RTVSPost2010Prop34
280
     0
102
RTVSPost2010PropOp34
 70
     1
102
RTVSPost2010Prop35
280
     0
102
RTVSPost2010PropOp35
 70
     1
102
RTVSPost2010Prop36
280
     0
102
RTVSPost2010PropOp36
 70
     1
102
RTVSPost2010Prop37
 90
       50
102
RTVSPost2010PropOp37
 70
     1
102
RTVSPost2010Prop38
140
0.0
102
RTVSPost2010PropOp38
 70
     1
102
RTVSPost2010Prop39
140
1.0
102
RTVSPost2010PropOp39
 70
     1
102
RTVSPost2010Prop40
 90
        0
102
RTVSPost2010PropOp40
 70
     1
102
RTVSPost2010Prop41ColorIndex
 90
       18
102
RTVSPost2010Prop41ColorRGB
 90
        0
102
RTVSPost2010PropOp41
 70
     1
102
RTVSPost2010Prop42
 90
       50
102
RTVSPost2010PropOp42
 70
     1
102
RTVSPost2010Prop43
 90
        3
102
RTVSPost2010PropOp43
 70
     1
102
RTVSPost2010Prop44ColorIndex
 90
        5
102
RTVSPost2010Prop44ColorRGB
 90
      255
102
RTVSPost2010PropOp44
 70
     1
102
RTVSPost2010Prop45
280
     0
102
RTVSPost2010PropOp45
 70
     1
102
RTVSPost2010Prop46
 90
       50
102
RTVSPost2010PropOp46
 70
     1
102
RTVSPost2010Prop47
 90
       50
102
RTVSPost2010PropOp47
 70
     1
102
RTVSPost2010Prop48
 90
       50
102
RTVSPost2010PropOp48
 70
     1
102
RTVSPost2010Prop49
280
     0
102
RTVSPost2010PropOp49
 70
     1
102
RTVSPost2010Prop50
 90
       50
102
RTVSPost2010PropOp50
 70
     1
102
RTVSPost2010Prop51ColorIndex
 90
      256
102
RTVSPost2010Prop51ColorRGB
 90
-16777216
102
RTVSPost2010PropOp51
 70
     0
102
RTVSPost2010Prop52
140
1.0
102
RTVSPost2010PropOp52
 70
     0
102
RTVSPost2010Prop53
 90
        2
102
RTVSPost2010PropOp53
 70
     1
102
RTVSPost2010Prop54
  1
strokes_ogs.tif
102
RTVSPost2010PropOp54
 70
     1
102
RTVSPost2010Prop55
280
     0
102
RTVSPost2010PropOp55
 70
     1
102
RTVSPost2010Prop56
140
1.0
102
RTVSPost2010PropOp56
 70
     1
102
RTVSPost2010Prop57
140
1.0
102
RTVSPost2010PropOp57
 70
     1
  0
XRECORD
  5
205A
102
{ACAD_REACTORS
330
2059
102
}
330
2059
100
AcDbXrecord
280
     1
102
RTVSPost2010Prop28
280
     0
102
RTVSPost2010PropOp28
 70
     1
102
RTVSPost2010Prop29
280
     1
102
RTVSPost2010PropOp29
 70
     1
102
RTVSPost2010Prop30
280
     1
102
RTVSPost2010PropOp30
 70
     1
102
RTVSPost2010Prop31
280
     0
102
RTVSPost2010PropOp31
 70
     1
102
RTVSPost2010Prop32
280
     0
102
RTVSPost2010PropOp32
 70
     1
102
RTVSPost2010Prop33
280
     0
102
RTVSPost2010PropOp33
 70
     1
102
RTVSPost2010Prop34
280
     0
102
RTVSPost2010PropOp34
 70
     1
102
RTVSPost2010Prop35
280
     0
102
RTVSPost2010PropOp35
 70
     1
102
RTVSPost2010Prop36
280
     0
102
RTVSPost2010PropOp36
 70
     1
102
RTVSPost2010Prop37
 90
       50
102
RTVSPost2010PropOp37
 70
     1
102
RTVSPost2010Prop38
140
0.0
102
RTVSPost2010PropOp38
 70
     1
102
RTVSPost2010Prop39
140
1.0
102
RTVSPost2010PropOp39
 70
     1
102
RTVSPost2010Prop40
 90
        0
102
RTVSPost2010PropOp40
 70
     1
102
RTVSPost2010Prop41ColorIndex
 90
       18
102
RTVSPost2010Prop41ColorRGB
 90
        0
102
RTVSPost2010PropOp41
 70
     1
102
RTVSPost2010Prop42
 90
       50
102
RTVSPost2010PropOp42
 70
     1
102
RTVSPost2010Prop43
 90
        3
102
RTVSPost2010PropOp43
 70
     1
102
RTVSPost2010Prop44ColorIndex
 90
        5
102
RTVSPost2010Prop44ColorRGB
 90
      255
102
RTVSPost2010PropOp44
 70
     1
102
RTVSPost2010Prop45
280
     0
102
RTVSPost2010PropOp45
 70
     1
102
RTVSPost2010Prop46
 90
       50
102
RTVSPost2010PropOp46
 70
     1
102
RTVSPost2010Prop47
 90
       50
102
RTVSPost2010PropOp47
 70
     1
102
RTVSPost2010Prop48
 90
       50
102
RTVSPost2010PropOp48
 70
     1
102
RTVSPost2010Prop49
280
     0
102
RTVSPost2010PropOp49
 70
     1
102
RTVSPost2010Prop50
 90
       50
102
RTVSPost2010PropOp50
 70
     1
102
RTVSPost2010Prop51ColorIndex
 90
      256
102
RTVSPost2010Prop51ColorRGB
 90
-16777216
102
RTVSPost2010PropOp51
 70
     0
102
RTVSPost2010Prop52
140
1.0
102
RTVSPost2010PropOp52
 70
     0
102
RTVSPost2010Prop53
 90
        2
102
RTVSPost2010PropOp53
 70
     1
102
RTVSPost2010Prop54
  1
strokes_ogs.tif
102
RTVSPost2010PropOp54
 70
     1
102
RTVSPost2010Prop55
280
     0
102
RTVSPost2010PropOp55
 70
     1
102
RTVSPost2010Prop56
140
1.0
102
RTVSPost2010PropOp56
 70
     1
102
RTVSPost2010Prop57
140
1.0
102
RTVSPost2010PropOp57
 70
     1
  0
XRECORD
  5
2072
102
{ACAD_REACTORS
330
2071
102
}
330
2071
100
AcDbXrecord
280
     1
102
RTVSPost2010Prop28
280
     0
102
RTVSPost2010PropOp28
 70
     1
102
RTVSPost2010Prop29
280
     1
102
RTVSPost2010PropOp29
 70
     1
102
RTVSPost2010Prop30
280
     1
102
RTVSPost2010PropOp30
 70
     1
102
RTVSPost2010Prop31
280
     0
102
RTVSPost2010PropOp31
 70
     1
102
RTVSPost2010Prop32
280
     0
102
RTVSPost2010PropOp32
 70
     1
102
RTVSPost2010Prop33
280
     0
102
RTVSPost2010PropOp33
 70
     1
102
RTVSPost2010Prop34
280
     0
102
RTVSPost2010PropOp34
 70
     1
102
RTVSPost2010Prop35
280
     0
102
RTVSPost2010PropOp35
 70
     1
102
RTVSPost2010Prop36
280
     0
102
RTVSPost2010PropOp36
 70
     1
102
RTVSPost2010Prop37
 90
       50
102
RTVSPost2010PropOp37
 70
     1
102
RTVSPost2010Prop38
140
0.0
102
RTVSPost2010PropOp38
 70
     1
102
RTVSPost2010Prop39
140
1.0
102
RTVSPost2010PropOp39
 70
     1
102
RTVSPost2010Prop40
 90
        0
102
RTVSPost2010PropOp40
 70
     1
102
RTVSPost2010Prop41ColorIndex
 90
       18
102
RTVSPost2010Prop41ColorRGB
 90
        0
102
RTVSPost2010PropOp41
 70
     1
102
RTVSPost2010Prop42
 90
       50
102
RTVSPost2010PropOp42
 70
     1
102
RTVSPost2010Prop43
 90
        3
102
RTVSPost2010PropOp43
 70
     1
102
RTVSPost2010Prop44ColorIndex
 90
        5
102
RTVSPost2010Prop44ColorRGB
 90
      255
102
RTVSPost2010PropOp44
 70
     1
102
RTVSPost2010Prop45
280
     0
102
RTVSPost2010PropOp45
 70
     1
102
RTVSPost2010Prop46
 90
       50
102
RTVSPost2010PropOp46
 70
     1
102
RTVSPost2010Prop47
 90
       50
102
RTVSPost2010PropOp47
 70
     1
102
RTVSPost2010Prop48
 90
       50
102
RTVSPost2010PropOp48
 70
     1
102
RTVSPost2010Prop49
280
     0
102
RTVSPost2010PropOp49
 70
     1
102
RTVSPost2010Prop50
 90
       50
102
RTVSPost2010PropOp50
 70
     1
102
RTVSPost2010Prop51ColorIndex
 90
      256
102
RTVSPost2010Prop51ColorRGB
 90
-16777216
102
RTVSPost2010PropOp51
 70
     0
102
RTVSPost2010Prop52
140
1.0
102
RTVSPost2010PropOp52
 70
     0
102
RTVSPost2010Prop53
 90
        2
102
RTVSPost2010PropOp53
 70
     1
102
RTVSPost2010Prop54
  1
strokes_ogs.tif
102
RTVSPost2010PropOp54
 70
     1
102
RTVSPost2010Prop55
280
     0
102
RTVSPost2010PropOp55
 70
     1
102
RTVSPost2010Prop56
140
1.0
102
RTVSPost2010PropOp56
 70
     1
102
RTVSPost2010Prop57
140
1.0
102
RTVSPost2010PropOp57
 70
     1
  0
ENDSEC
  0
EOF
